  0
SECTION
  2
HEADER
  9
$ACADVER
  1
AC1009
  9
$INSBASE
 10
0.0
 20
0.0
 30
0.0
  9
$EXTMIN
 10
262.37762812918209
 20
228.72862571855279
 30
-0.0000000000112498
  9
$EXTMAX
 10
1339.844973918917
 20
1120.681281699729
 30
0.0000000000002956
  9
$LIMMIN
 10
0.0
 20
0.0
  9
$LIMMAX
 10
1422.5
 20
925.0
  9
$ORTHOMODE
 70
     0
  9
$REGENMODE
 70
     1
  9
$FILLMODE
 70
     1
  9
$QTEXTMODE
 70
     0
  9
$MIRRTEXT
 70
     1
  9
$DRAGMODE
 70
     2
  9
$LTSCALE
 40
5.0
  9
$OSMODE
 70
   551
  9
$ATTMODE
 70
     1
  9
$TEXTSIZE
 40
2.5
  9
$TRACEWID
 40
1.0
  9
$TEXTSTYLE
  7
STANDARD
  9
$CLAYER
  8
AM_0
  9
$CELTYPE
  6
BYLAYER
  9
$CECOLOR
 62
   256
  9
$DIMSCALE
 40
1.0
  9
$DIMASZ
 40
2.5
  9
$DIMEXO
 40
1.0
  9
$DIMDLI
 40
8.0
  9
$DIMRND
 40
0.0
  9
$DIMDLE
 40
0.0
  9
$DIMEXE
 40
0.6
  9
$DIMTP
 40
0.1
  9
$DIMTM
 40
0.1
  9
$DIMTXT
 40
2.5
  9
$DIMCEN
 40
0.0
  9
$DIMTSZ
 40
0.0
  9
$DIMTOL
 70
     0
  9
$DIMLIM
 70
     0
  9
$DIMTIH
 70
     0
  9
$DIMTOH
 70
     0
  9
$DIMSE1
 70
     0
  9
$DIMSE2
 70
     0
  9
$DIMTAD
 70
     1
  9
$DIMZIN
 70
     8
  9
$DIMBLK
  1

  9
$DIMASO
 70
     1
  9
$DIMSHO
 70
     1
  9
$DIMPOST
  1

  9
$DIMAPOST
  1
"
  9
$DIMALT
 70
     0
  9
$DIMALTD
 70
     2
  9
$DIMALTF
 40
0.0393701
  9
$DIMLFAC
 40
1.0
  9
$DIMTOFL
 70
     1
  9
$DIMTVP
 40
0.0
  9
$DIMTIX
 70
     0
  9
$DIMSOXD
 70
     0
  9
$DIMSAH
 70
     0
  9
$DIMBLK1
  1

  9
$DIMBLK2
  1

  9
$DIMSTYLE
  2
AM_ISO
  9
$DIMCLRD
 70
   256
  9
$DIMCLRE
 70
   256
  9
$DIMCLRT
 70
     4
  9
$DIMTFAC
 40
0.71
  9
$DIMGAP
 40
0.8
  9
$LUNITS
 70
     2
  9
$LUPREC
 70
     2
  9
$SKETCHINC
 40
1.0
  9
$FILLETRAD
 40
25.0
  9
$AUNITS
 70
     0
  9
$AUPREC
 70
     0
  9
$MENU
  1
.
  9
$ELEVATION
 40
0.0
  9
$PELEVATION
 40
0.0
  9
$THICKNESS
 40
0.0
  9
$LIMCHECK
 70
     0
  9
$BLIPMODE
 70
     0
  9
$CHAMFERA
 40
10.0
  9
$CHAMFERB
 40
5.0
  9
$SKPOLY
 70
     0
  9
$TDCREATE
 40
2452066.753197697
  9
$TDUPDATE
 40
2458541.5571669792
  9
$TDINDWG
 40
0.2107826042
  9
$TDUSRTIMER
 40
0.2107825926
  9
$USRTIMER
 70
     1
  9
$ANGBASE
 50
0.0
  9
$ANGDIR
 70
     0
  9
$PDMODE
 70
     0
  9
$PDSIZE
 40
0.0
  9
$PLINEWID
 40
0.0
  9
$COORDS
 70
     1
  9
$SPLFRAME
 70
     0
  9
$SPLINETYPE
 70
     6
  9
$SPLINESEGS
 70
     8
  9
$ATTDIA
 70
     1
  9
$ATTREQ
 70
     1
  9
$HANDLING
 70
     1
  9
$HANDSEED
  5
3487
  9
$SURFTAB1
 70
     6
  9
$SURFTAB2
 70
     6
  9
$SURFTYPE
 70
     6
  9
$SURFU
 70
     6
  9
$SURFV
 70
     6
  9
$UCSNAME
  2

  9
$UCSORG
 10
0.0
 20
0.0
 30
0.0
  9
$UCSXDIR
 10
1.0
 20
0.0
 30
0.0
  9
$UCSYDIR
 10
0.0
 20
1.0
 30
0.0
  9
$PUCSNAME
  2

  9
$PUCSORG
 10
0.0
 20
0.0
 30
0.0
  9
$PUCSXDIR
 10
1.0
 20
0.0
 30
0.0
  9
$PUCSYDIR
 10
0.0
 20
1.0
 30
0.0
  9
$USERI1
 70
     0
  9
$USERI2
 70
     0
  9
$USERI3
 70
     0
  9
$USERI4
 70
     0
  9
$USERI5
 70
     0
  9
$USERR1
 40
0.0
  9
$USERR2
 40
0.0
  9
$USERR3
 40
0.0
  9
$USERR4
 40
0.0
  9
$USERR5
 40
0.0
  9
$WORLDVIEW
 70
     1
  9
$SHADEDGE
 70
     3
  9
$SHADEDIF
 70
    70
  9
$TILEMODE
 70
     1
  9
$MAXACTVP
 70
    64
  9
$PLIMCHECK
 70
     0
  9
$PEXTMIN
 10
1.0000000000000000E+020
 20
1.0000000000000000E+020
 30
1.0000000000000000E+020
  9
$PEXTMAX
 10
-1.0000000000000000E+020
 20
-1.0000000000000000E+020
 30
-1.0000000000000000E+020
  9
$PLIMMIN
 10
0.0
 20
0.0
  9
$PLIMMAX
 10
420.0
 20
297.0
  9
$UNITMODE
 70
     0
  9
$VISRETAIN
 70
     1
  9
$PLINEGEN
 70
     0
  9
$PSLTSCALE
 70
     1
  0
ENDSEC
  0
SECTION
  2
TABLES
  0
TABLE
  2
VPORT
 70
     1
  0
VPORT
  2
*ACTIVE
 70
     0
 10
0.0
 20
0.0
 11
1.0
 21
1.0
 12
801.11130102404957
 22
674.70495370914091
 13
0.0
 23
0.0
 14
12.5
 24
12.5
 15
50.0
 25
50.0
 16
0.0
 26
0.0
 36
1.0
 17
0.0
 27
0.0
 37
0.0
 40
898.07590075907888
 41
1.7571592210767459
 42
50.0
 43
0.0
 44
0.0
 50
0.0
 51
0.0
 71
     0
 72
   100
 73
     1
 74
     3
 75
     0
 76
     0
 77
     0
 78
     0
  0
ENDTAB
  0
TABLE
  2
LTYPE
 70
    26
  0
LTYPE
  2
CONTINUOUS
 70
     0
  3
Solid line
 72
    65
 73
     0
 40
0.0
  0
LTYPE
  2
AM_ISO02W050
 70
     0
  3
__ __ __ __ __ __ __ __ __ __ __ __ __ __ __
 72
    65
 73
     2
 40
7.5
 49
6.0
 49
-1.5
  0
LTYPE
  2
AM_ISO08W050
 70
     0
  3
____ . ____ . ____ . ____ . ____ . ____ . ____
 72
    65
 73
     4
 40
18.0
 49
12.0
 49
-1.5
 49
3.0
 49
-1.5
  0
LTYPE
  2
AM_ISO09W050
 70
     0
  3
_____ . . _____ . . _____ . . ____ .. ____
 72
    65
 73
     6
 40
22.5
 49
12.0
 49
-1.5
 49
3.0
 49
-1.5
 49
3.0
 49
-1.5
  0
LTYPE
  2
AMCONSTR
 70
     0
  3
_______________________
 72
    65
 73
     2
 40
9999.0
 49
9999.0
 49
0.0
  0
LTYPE
  2
AM_ISO08W050X2
 70
     0
  3
__ . __ . __ . __ . __ . __
 72
    65
 73
     4
 40
9.0
 49
6.0
 49
-0.75
 49
1.5
 49
-0.75
  0
LTYPE
  2
AM_ISO02W050X2
 70
     0
  3
 _ _ _ _ _ _ _ _ _ _ _ _
 72
    65
 73
     2
 40
3.75
 49
3.0
 49
-0.75
  0
LTYPE
  2
AMZIGZAG
 70
     0
  3
/\/-/\/-/\/-/\/-/\/-/\/
 72
    65
 73
     2
 40
11.000099999999991
 49
0.0001
 49
-11.0
  0
LTYPE
  2
ACISOWELD
 70
     0
  3
_ _ _ _ _
 72
    65
 73
     2
 40
2.0
 49
2.0
 49
-1.0
  0
LTYPE
  2
ACISOTGB
 70
     0
  3
__ . . __ . .
 72
    65
 73
     6
 40
9.0
 49
4.0
 49
-1.0
 49
1.0
 49
-1.0
 49
1.0
 49
-1.0
  0
LTYPE
  2
ACISOTGL
 70
     0
  3
_ _ _ _ _
 72
    65
 73
     2
 40
3.0
 49
2.0
 49
-1.0
  0
LTYPE
  2
CENTER
 70
     0
  3
__ . __
 72
    65
 73
     4
 40
7.0
 49
4.0
 49
-1.0
 49
1.0
 49
-1.0
  0
LTYPE
  2
PHANTOM2
 70
     0
  3
Phantom (.5x) ___ _ _ ___ _ _ ___ _ _ ___ _ _
 72
    65
 73
     6
 40
31.75
 49
15.875
 49
-3.174999999999998
 49
3.174999999999998
 49
-3.174999999999998
 49
3.174999999999998
 49
-3.174999999999998
  0
LTYPE
  2
ACANSTGBM
 70
     0
  3
__ . . __ . .
 72
    65
 73
     6
 40
9.0
 49
4.0
 49
-1.0
 49
1.0
 49
-1.0
 49
1.0
 49
-1.0
  0
LTYPE
  2
ACANSTGLM
 70
     0
  3
_ _ _ _ _
 72
    65
 73
     2
 40
3.0
 49
2.0
 49
-1.0
  0
LTYPE
  2
GEN7
 70
     0
  3
____ . ____ . ____ . ____ . ____ . ____ . ____
 72
    65
 73
     4
 40
14.25
 49
9.75
 49
-1.5
 49
1.5
 49
-1.5
  0
LTYPE
  2
GEN7A
 70
     0
  3
__ . __ . __
 72
    65
 73
     4
 40
7.375
 49
4.75
 49
-0.875
 49
0.875
 49
-0.875
  0
LTYPE
  2
ACJISTGB
 70
     0
  3
__ . . __ . .
 72
    65
 73
     6
 40
9.0
 49
4.0
 49
-1.0
 49
1.0
 49
-1.0
 49
1.0
 49
-1.0
  0
LTYPE
  2
ACJISTGL
 70
     0
  3
_ _ _ _ _
 72
    65
 73
     2
 40
3.0
 49
2.0
 49
-1.0
  0
LTYPE
  2
HIDDEN
 70
     0
  3
Hidden __ __ __ __ __ __ __ __ __ __ __ __ __ _
 72
    65
 73
     2
 40
0.375
 49
0.25
 49
-0.125
  0
LTYPE
  2
CENTER2
 70
     0
  3
Center (.5x) ___ _ ___ _ ___ _ ___ _ ___ _ ___
 72
    65
 73
     4
 40
1.125
 49
0.75
 49
-0.125
 49
0.125
 49
-0.125
  0
LTYPE
  2
HIDDEN2
 70
     0
  3
Hidden (.5x) _ _ _ _ _ _ _ _ _ _ _ _ _ _ _ _ _
 72
    65
 73
     2
 40
0.1875
 49
0.125
 49
-0.0625
  0
LTYPE
  2
AMZIGZAG2
 70
     0
  3
/\/-/\/-/\/-/\/-/\/-/\/
 72
    65
 73
     2
 40
0.4401
 49
0.0001
 49
-0.4400000000000002
  0
LTYPE
  2
ACANSTGB
 70
     0
  3
__ . . __ . .
 72
    65
 73
     6
 40
0.35433070866
 49
0.15748031496
 49
-0.03937007874
 49
0.03937007874
 49
-0.03937007874
 49
0.03937007874
 49
-0.03937007874
  0
LTYPE
  2
ACANSTGL
 70
     0
  3
_ _ _ _ _
 72
    65
 73
     2
 40
0.11811023622
 49
0.07874015748
 49
-0.03937007874
  0
ENDTAB
  0
TABLE
  2
LAYER
 70
     6
  0
LAYER
  2
0
 70
     0
 62
     7
  6
CONTINUOUS
  0
LAYER
  2
AM_0
 70
     0
 62
     7
  6
CONTINUOUS
  0
LAYER
  2
AM_5
 70
     0
 62
     2
  6
CONTINUOUS
  0
LAYER
  2
DEFPOINTS
 70
     0
 62
     7
  6
CONTINUOUS
  0
LAYER
  2
ﾁｭｳｼﾝｾﾝ
 70
     0
 62
     1
  6
GEN7
  0
LAYER
  2
ﾁｭｳｼﾝｾﾝ1
 70
     0
 62
     1
  6
GEN7A
  0
ENDTAB
  0
TABLE
  2
STYLE
 70
     9
  0
STYLE
  2
STANDARD
 70
     0
 40
0.0
 41
0.8299999999999999
 50
0.0
 71
     0
 42
2.5
  3
txt.shx
  4
bigfont.shx
  0
STYLE
  2
ANNOTATIVE
 70
     0
 40
0.0
 41
1.0
 50
0.0
 71
     0
 42
0.2
  3
txt
  4

  0
STYLE
  2

 70
     1
 40
0.0
 41
1.0
 50
0.0
 71
     0
 42
2.5
  3
ltypeshp.shx
  4

  0
STYLE
  2
ACISOTS
 70
     0
 40
1.0
 41
1.0
 50
0.0
 71
     0
 42
2.5
  3
isocp.shx
  4
extfont.shx
  0
STYLE
  2
ACISOGDT
 70
     0
 40
0.0
 41
1.0
 50
0.0
 71
     0
 42
2.5
  3
amgdt.shx
  4

  0
STYLE
  2
ACANSTS
 70
     0
 40
1.0
 41
1.0
 50
0.0
 71
     0
 42
2.5
  3
romans.shx
  4
bigfont.shx
  0
STYLE
  2
ACANSGDT
 70
     0
 40
0.0
 41
1.0
 50
0.0
 71
     0
 42
2.5
  3
amgdt.shx
  4

  0
STYLE
  2
ACJISTS
 70
     0
 40
1.0
 41
1.0
 50
0.0
 71
     0
 42
2.5
  3
isocp.shx
  4
bigfont.shx
  0
STYLE
  2
ACJISGDT
 70
     0
 40
0.0
 41
1.0
 50
0.0
 71
     0
 42
2.5
  3
amgdt.shx
  4

  0
ENDTAB
  0
TABLE
  2
VIEW
 70
     6
  0
VIEW
  2
AM_VIEW1
 70
     0
 40
462.5
 10
416.07965009208078
 20
693.75
 41
832.15930018416213
 11
0.0
 21
0.0
 31
1.0
 12
0.0
 22
0.0
 32
0.0
 42
50.0
 43
0.0
 44
0.0
 50
0.0
 71
     0
  0
VIEW
  2
AM_VIEW2
 70
     0
 40
462.5
 10
1006.420349907918
 20
693.75
 41
832.15930018416213
 11
0.0
 21
0.0
 31
1.0
 12
0.0
 22
0.0
 32
0.0
 42
50.0
 43
0.0
 44
0.0
 50
0.0
 71
     0
  0
VIEW
  2
AM_VIEW3
 70
     0
 40
462.5
 10
416.07965009208078
 20
231.25
 41
832.15930018416213
 11
0.0
 21
0.0
 31
1.0
 12
0.0
 22
0.0
 32
0.0
 42
50.0
 43
0.0
 44
0.0
 50
0.0
 71
     0
  0
VIEW
  2
AM_VIEW4
 70
     0
 40
462.5
 10
1006.420349907918
 20
231.25
 41
832.15930018416213
 11
0.0
 21
0.0
 31
1.0
 12
0.0
 22
0.0
 32
0.0
 42
50.0
 43
0.0
 44
0.0
 50
0.0
 71
     0
  0
VIEW
  2
AM_VIEW5
 70
     0
 40
462.5
 10
711.24999999999966
 20
462.5
 41
832.15930018416179
 11
0.0
 21
0.0
 31
1.0
 12
0.0
 22
0.0
 32
0.0
 42
50.0
 43
0.0
 44
0.0
 50
0.0
 71
     0
  0
VIEW
  2
AM_VIEW6
 70
     0
 40
924.99075000000005
 10
711.24999999999966
 20
462.5
 41
1664.3019571823199
 11
0.0
 21
0.0
 31
1.0
 12
0.0
 22
0.0
 32
0.0
 42
50.0
 43
0.0
 44
0.0
 50
0.0
 71
     0
  0
ENDTAB
  0
TABLE
  2
UCS
 70
     0
  0
ENDTAB
  0
TABLE
  2
APPID
 70
    95
  0
APPID
  2
ACAD
 70
     0
  0
APPID
  2
ACADANNOTATIVE
 70
     0
  0
APPID
  2
MCAD_NO_VIS
 70
     0
  0
APPID
  2
ACAD_TEMP_GRAPHIC
 70
     0
  0
APPID
  2
ACATTRIBSERVICES
 70
     0
  0
APPID
  2
GENIUS_GENREC_14
 70
     0
  0
APPID
  2
GENIUS_GENOBJ-N-REC_13
 70
     0
  0
APPID
  2
GENIUS_GENODEF_13
 70
     0
  0
APPID
  2
GENIUS_GENOLIS_13
 70
     0
  0
APPID
  2
GENIUS_GENOBJ-N-TIT_13
 70
     0
  0
APPID
  2
GENIUS_GENOENT_13
 70
     0
  0
APPID
  2
GENIUS_GENTITLE_13
 70
     0
  0
APPID
  2
GENIUS_GENOREF_13
 70
     0
  0
APPID
  2
GENIUS_GENSCREG_15
 70
     0
  0
APPID
  2
GENIUS_GENOBJ-N-SDF_13
 70
     0
  0
APPID
  2
GENIUS_GENFIL_13
 70
     0
  0
APPID
  2
GENIUS_GENOBJ-N-CHA_13
 70
     0
  0
APPID
  2
GENIUS_GENDTOL_13
 70
     0
  0
APPID
  2
GENIUS_GENOBJ-N-FIL_13
 70
     0
  0
APPID
  2
AD_DRAW
 70
     0
  0
APPID
  2
DESIGNERASSEMBLIES
 70
     0
  0
APPID
  2
ASURF_PCURVE_APPNAME
 70
     0
  0
APPID
  2
GENIUS_GE3SECT_13
 70
     0
  0
APPID
  2
GENIUS_GENCFG_13
 70
     0
  0
APPID
  2
GENIUS_GE3CFG0_13
 70
     0
  0
APPID
  2
GENIUS_GENCFG0_13
 70
     0
  0
APPID
  2
GENIUS_GENCFG1_13
 70
     0
  0
APPID
  2
GENIUS_GENCFG2_13
 70
     0
  0
APPID
  2
GENIUS_GENCFG3_13
 70
     0
  0
APPID
  2
GENIUS_GENCFG4_13
 70
     0
  0
APPID
  2
GENIUS_GEVCFG0_13
 70
     0
  0
APPID
  2
GENIUS_GENHINW_13
 70
     0
  0
APPID
  2
GENIUS_FIRSTVISTXT_14
 70
     0
  0
APPID
  2
GENIUS_GENOBJ-N-LEADER_13
 70
     0
  0
APPID
  2
GEV_VCCNULL_SWITCH_OFF
 70
     0
  0
APPID
  2
GENIUS_GEFCFG0_13
 70
     0
  0
APPID
  2
GENIUS_GENZVEED_13
 70
     0
  0
APPID
  2
GENIUS_GENSCREG_13
 70
     0
  0
APPID
  2
GENIUS_DUMCFG0_13
 70
     0
  0
APPID
  2
GEVID936201362
 70
     0
  0
APPID
  2
GEVDC
 70
     0
  0
APPID
  2
GEVCON
 70
     0
  0
APPID
  2
VCC
 70
     0
  0
APPID
  2
GEVPT
 70
     0
  0
APPID
  2
GEVIT
 70
     0
  0
APPID
  2
GENBH
 70
     0
  0
APPID
  2
GEVMK
 70
     0
  0
APPID
  2
GENIUS_GENBH_13
 70
     0
  0
APPID
  2
GENIUS_GENOBJ-NBEHI-BHF_13
 70
     0
  0
APPID
  2
GENIUS_GENOBJ-NBEHI-BHB_13
 70
     0
  0
APPID
  2
GENIUS_GENOBJ-F-DESC_13
 70
     0
  0
APPID
  2
GENIUS_GEFDESC_14
 70
     0
  0
APPID
  2
GENIUS_GENOBJ-F-PART_13
 70
     0
  0
APPID
  2
GENIUS_GEFSTDP_13
 70
     0
  0
APPID
  2
GENIUS_GEFPARTINS_13
 70
     0
  0
APPID
  2
GENIUS_GENTRA_14
 70
     0
  0
APPID
  2
GENIUS_GENINF13_13
 70
     0
  0
APPID
  2
GENIUS_GENOBJ-N-INFOPT_13
 70
     0
  0
APPID
  2
GENIUS_GENOBJ-N-RSSYM_13
 70
     0
  0
APPID
  2
GENIUS_GENSYMENT_13
 70
     0
  0
APPID
  2
GENIUS_GENSCSYM_13
 70
     0
  0
APPID
  2
GENIUS_GEFINFNAM_13
 70
     0
  0
APPID
  2
GENIUS_GENOBJ-N-CEN_13
 70
     0
  0
APPID
  2
GENIUS_GENOBJ-N-CRS_13
 70
     0
  0
APPID
  2
GENIUS_GENOBJ-N-CRC_13
 70
     0
  0
APPID
  2
GENIUS_GENCRC_14
 70
     0
  0
APPID
  2
GEVID942827039
 70
     0
  0
APPID
  2
GEVID942827040
 70
     0
  0
APPID
  2
GEVID942827041
 70
     0
  0
APPID
  2
GENIUS_GENOBJ-F-SCPASSM_13
 70
     0
  0
APPID
  2
GENIUS_GENDIMSH_14
 70
     0
  0
APPID
  2
GEVID942827042
 70
     0
  0
APPID
  2
GEVID946020473
 70
     0
  0
APPID
  2
GEVID946020474
 70
     0
  0
APPID
  2
GEVID946020475
 70
     0
  0
APPID
  2
GENIUS_GENOBJ-N-HTC_13
 70
     0
  0
APPID
  2
GENIUS_GENHATCH_13
 70
     0
  0
APPID
  2
GEVID948854295
 70
     0
  0
APPID
  2
GEVID939402019
 70
     0
  0
APPID
  2
GEVID952919491
 70
     0
  0
APPID
  2
GEVID952919492
 70
     0
  0
APPID
  2
GENIUS_GEFWELD_13
 70
     0
  0
APPID
  2
GENIUS_GENOBJ-F-WELS_13
 70
     0
  0
APPID
  2
GEVID952919493
 70
     0
  0
APPID
  2
GENIUS_GENOBJ-N-RSBK_13
 70
     0
  0
APPID
  2
GENIUS_GENOBJ-N-LIB_13
 70
     0
  0
APPID
  2
GENIUS_GENSCALE_13
 70
     0
  0
APPID
  2
GEVID986376691
 70
     0
  0
APPID
  2
DCO15
 70
     0
  0
APPID
  2
ACAD_DSTYLE_DIMBREAK
 70
     0
  0
APPID
  2
ACAD_DSTYLE_DIMJAG
 70
     0
  0
APPID
  2
ACAD_NAV_VCDISPLAY
 70
     0
  0
APPID
  2
ACADANNOPO
 70
     0
  0
APPID
  2
ACAD_EXEMPT_FROM_CAD_STANDARDS
 70
     0
  0
APPID
  2
ACAD_MLEADERVER
 70
     0
  0
ENDTAB
  0
TABLE
  2
DIMSTYLE
 70
    22
  0
DIMSTYLE
  2
STANDARD
 70
     0
  3

  4

  5

  6

  7

 40
1.0
 41
0.18
 42
0.0625
 43
0.38
 44
0.18
 45
0.0
 46
0.0
 47
0.0
 48
0.0
140
0.18
141
0.09
142
0.0
143
25.399999999999999
144
1.0
145
0.0
146
1.0
147
0.09
 71
     0
 72
     0
 73
     1
 74
     1
 75
     0
 76
     0
 77
     0
 78
     0
170
     0
171
     2
172
     0
173
     0
174
     0
175
     0
176
     0
177
     0
178
     0
  0
DIMSTYLE
  2
ANNOTATIVE
 70
     0
  3

  4

  5

  6

  7

 40
1.0
 41
0.18
 42
0.0625
 43
0.38
 44
0.18
 45
0.0
 46
0.0
 47
0.0
 48
0.0
140
0.18
141
0.09
142
0.0
143
25.399999999999999
144
1.0
145
0.0
146
1.0
147
0.09
 71
     0
 72
     0
 73
     1
 74
     1
 75
     0
 76
     0
 77
     0
 78
     0
170
     0
171
     2
172
     0
173
     0
174
     0
175
     0
176
     0
177
     0
178
     0
  0
DIMSTYLE
  2
AM_ISO
 70
     0
  3

  4
"
  5

  6

  7

 40
1.0
 41
2.5
 42
1.0
 43
8.0
 44
0.6
 45
0.0
 46
0.0
 47
0.1
 48
0.1
140
2.5
141
0.0
142
0.0
143
0.0393701
144
1.0
145
0.0
146
0.71
147
0.8
 71
     0
 72
     0
 73
     0
 74
     0
 75
     0
 76
     0
 77
     1
 78
     8
170
     0
171
     2
172
     1
173
     0
174
     0
175
     0
176
   256
177
   256
178
     4
  0
DIMSTYLE
  2
AM_ISO$3
 70
     0
  3

  4
"
  5

  6

  7

 40
1.0
 41
2.5
 42
1.0
 43
8.0
 44
0.6
 45
0.0
 46
0.0
 47
0.1
 48
0.1
140
2.5
141
0.0
142
0.0
143
0.0393701
144
1.0
145
0.0
146
0.71
147
0.8
 71
     0
 72
     0
 73
     0
 74
     1
 75
     0
 76
     0
 77
     1
 78
     8
170
     0
171
     2
172
     0
173
     0
174
     0
175
     0
176
   256
177
   256
178
     4
  0
DIMSTYLE
  2
AM_ISO$4
 70
     0
  3

  4
"
  5

  6

  7

 40
1.0
 41
2.5
 42
1.0
 43
8.0
 44
0.6
 45
0.0
 46
0.0
 47
0.1
 48
0.1
140
2.5
141
0.0
142
0.0
143
0.0393701
144
1.0
145
0.0
146
0.71
147
0.8
 71
     0
 72
     0
 73
     0
 74
     1
 75
     0
 76
     0
 77
     1
 78
     8
170
     0
171
     2
172
     0
173
     0
174
     0
175
     0
176
   256
177
   256
178
     4
  0
DIMSTYLE
  2
AM_ISO$6
 70
     0
  3

  4
"
  5

  6

  7

 40
1.0
 41
2.5
 42
1.0
 43
8.0
 44
0.6
 45
0.0
 46
0.0
 47
0.1
 48
0.1
140
2.5
141
0.0
142
0.0
143
0.0393701
144
1.0
145
0.0
146
0.71
147
0.8
 71
     0
 72
     0
 73
     0
 74
     0
 75
     0
 76
     0
 77
     0
 78
     8
170
     0
171
     2
172
     1
173
     0
174
     0
175
     0
176
   256
177
   256
178
     4
  0
DIMSTYLE
  2
AM_ISO$7
 70
     0
  3

  4
"
  5

  6

  7

 40
1.0
 41
2.5
 42
1.0
 43
8.0
 44
0.6
 45
0.0
 46
0.0
 47
0.1
 48
0.1
140
2.5
141
0.0
142
0.0
143
0.0393701
144
1.0
145
0.0
146
0.71
147
0.8
 71
     0
 72
     0
 73
     0
 74
     0
 75
     0
 76
     0
 77
     1
 78
     8
170
     0
171
     2
172
     1
173
     0
174
     0
175
     0
176
   256
177
   256
178
     4
  0
DIMSTYLE
  2
AM_ISO$SF
 70
     0
  3

  4
"
  5

  6

  7

 40
1.0
 41
2.5
 42
1.0
 43
10.0
 44
1.0
 45
0.0
 46
0.0
 47
0.1
 48
0.1
140
3.5
141
0.0
142
0.0
143
0.0393701
144
1.0
145
0.0
146
0.71
147
1.5
 71
     0
 72
     0
 73
     0
 74
     0
 75
     1
 76
     1
 77
     1
 78
     8
170
     0
171
     2
172
     1
173
     0
174
     0
175
     0
176
   256
177
   256
178
     2
  0
DIMSTYLE
  2
AM_ISO$SH
 70
     0
  3

  4
"
  5

  6

  7

 40
1.0
 41
2.5
 42
1.0
 43
10.0
 44
1.0
 45
0.0
 46
0.0
 47
0.1
 48
0.1
140
3.5
141
0.0
142
0.0
143
0.0393701
144
2.0
145
0.0
146
0.71
147
1.5
 71
     0
 72
     0
 73
     0
 74
     0
 75
     1
 76
     1
 77
     1
 78
     8
170
     0
171
     2
172
     1
173
     1
174
     0
175
     0
176
   256
177
   256
178
     2
  0
DIMSTYLE
  2
AM_JIS
 70
     0
  3

  4
"
  5

  6

  7

 40
1.0
 41
2.5
 42
1.0
 43
7.0
 44
1.0
 45
0.0
 46
0.0
 47
0.1
 48
0.1000000001
140
2.5
141
0.0
142
0.0
143
0.0393701
144
1.0
145
0.0
146
0.71
147
1.0
 71
     0
 72
     0
 73
     0
 74
     0
 75
     0
 76
     0
 77
     3
 78
     8
170
     0
171
     2
172
     1
173
     0
174
     0
175
     0
176
   256
177
   256
178
     4
  0
DIMSTYLE
  2
AM_JIS$3
 70
     0
  3

  4
"
  5

  6

  7

 40
1.0
 41
2.5
 42
1.0
 43
7.0
 44
1.0
 45
0.0
 46
0.0
 47
0.1
 48
0.1000000001
140
2.5
141
0.0
142
0.0
143
0.0393701
144
1.0
145
0.0
146
0.71
147
1.0
 71
     0
 72
     0
 73
     0
 74
     1
 75
     0
 76
     0
 77
     3
 78
     8
170
     0
171
     2
172
     0
173
     0
174
     0
175
     0
176
   256
177
   256
178
     4
  0
DIMSTYLE
  2
AM_JIS$4
 70
     0
  3

  4
"
  5

  6

  7

 40
1.0
 41
2.5
 42
1.0
 43
7.0
 44
1.0
 45
0.0
 46
0.0
 47
0.1
 48
0.1000000001
140
2.5
141
0.0
142
0.0
143
0.0393701
144
1.0
145
0.0
146
0.71
147
1.0
 71
     0
 72
     0
 73
     0
 74
     0
 75
     0
 76
     0
 77
     3
 78
     8
170
     0
171
     2
172
     0
173
     0
174
     0
175
     0
176
   256
177
   256
178
     4
  0
DIMSTYLE
  2
AM_JIS$6
 70
     0
  3

  4
"
  5

  6

  7

 40
1.0
 41
2.5
 42
1.0
 43
7.0
 44
1.0
 45
0.0
 46
0.0
 47
0.1
 48
0.1000000001
140
2.5
141
0.0
142
0.0
143
0.0393701
144
1.0
145
0.0
146
0.71
147
1.0
 71
     0
 72
     0
 73
     0
 74
     0
 75
     0
 76
     0
 77
     0
 78
     8
170
     0
171
     2
172
     1
173
     0
174
     0
175
     0
176
   256
177
   256
178
     4
  0
DIMSTYLE
  2
AM_JIS$7
 70
     0
  3

  4
"
  5

  6

  7

 40
1.0
 41
2.5
 42
1.0
 43
7.0
 44
1.0
 45
0.0
 46
0.0
 47
0.1
 48
0.1000000001
140
2.5
141
0.0
142
0.0
143
0.0393701
144
1.0
145
0.0
146
0.71
147
1.0
 71
     0
 72
     0
 73
     0
 74
     0
 75
     0
 76
     0
 77
     3
 78
     8
170
     0
171
     2
172
     1
173
     0
174
     0
175
     0
176
   256
177
   256
178
     4
  0
DIMSTYLE
  2
AM_JIS$SF
 70
     0
  3

  4
"
  5

  6

  7

 40
1.0
 41
2.5
 42
1.0
 43
10.0
 44
1.0
 45
0.0
 46
0.0
 47
0.1
 48
0.1
140
3.5
141
0.0
142
0.0
143
0.0393701
144
1.0
145
0.0
146
0.71
147
1.5
 71
     0
 72
     0
 73
     0
 74
     0
 75
     1
 76
     1
 77
     3
 78
     8
170
     0
171
     2
172
     1
173
     0
174
     0
175
     0
176
   256
177
   256
178
     4
  0
DIMSTYLE
  2
AM_JIS$SH
 70
     0
  3

  4
"
  5

  6

  7

 40
1.0
 41
2.5
 42
1.0
 43
10.0
 44
1.0
 45
0.0
 46
0.0
 47
0.1
 48
0.1
140
3.5
141
0.0
142
0.0
143
0.0393701
144
1.0
145
0.0
146
0.71
147
1.5
 71
     0
 72
     0
 73
     0
 74
     0
 75
     1
 76
     0
 77
     3
 78
     8
170
     0
171
     2
172
     1
173
     1
174
     0
175
     0
176
   256
177
   256
178
     4
  0
DIMSTYLE
  2
AM_ANSI
 70
     0
  3

  4
mm
  5

  6

  7

 40
1.0
 41
0.1
 42
0.05
 43
0.5
 44
0.1
 45
0.0
 46
0.0
 47
0.1
 48
0.1
140
0.12
141
0.0
142
0.0
143
25.399999999999999
144
1.0
145
0.0
146
0.71
147
0.06
 71
     0
 72
     0
 73
     1
 74
     1
 75
     0
 76
     0
 77
     0
 78
     7
170
     0
171
     2
172
     0
173
     0
174
     0
175
     0
176
   256
177
   256
178
     2
  0
DIMSTYLE
  2
AM_ANSI$3
 70
     0
  3

  4
mm
  5

  6

  7

 40
1.0
 41
0.1
 42
0.05
 43
0.5
 44
0.1
 45
0.0
 46
0.0
 47
0.1
 48
0.1
140
0.12
141
0.0
142
0.0
143
25.399999999999999
144
1.0
145
0.0
146
0.71
147
0.06
 71
     0
 72
     0
 73
     1
 74
     1
 75
     0
 76
     0
 77
     0
 78
     7
170
     0
171
     2
172
     0
173
     0
174
     0
175
     0
176
   256
177
   256
178
     2
  0
DIMSTYLE
  2
AM_ANSI$4
 70
     0
  3

  4
mm
  5

  6

  7

 40
1.0
 41
0.1
 42
0.05
 43
0.5
 44
0.1
 45
0.0
 46
0.0
 47
0.1
 48
0.1
140
0.12
141
0.0
142
0.0
143
25.399999999999999
144
1.0
145
0.0
146
0.71
147
0.06
 71
     0
 72
     0
 73
     1
 74
     1
 75
     0
 76
     0
 77
     0
 78
     7
170
     0
171
     2
172
     0
173
     0
174
     0
175
     0
176
   256
177
   256
178
     2
  0
DIMSTYLE
  2
AM_ANSI$7
 70
     0
  3

  4
mm
  5

  6

  7

 40
1.0
 41
0.1
 42
0.05
 43
0.5
 44
0.1
 45
0.0
 46
0.0
 47
0.1
 48
0.1
140
0.24
141
0.0
142
0.0
143
25.399999999999999
144
1.0
145
0.0
146
0.71
147
0.06
 71
     0
 72
     0
 73
     1
 74
     1
 75
     0
 76
     0
 77
     0
 78
     7
170
     0
171
     2
172
     0
173
     0
174
     0
175
     0
176
   256
177
   256
178
     2
  0
DIMSTYLE
  2
AM_ANSI$SF
 70
     0
  3

  4
mm
  5

  6

  7

 40
1.0
 41
0.1
 42
0.05
 43
0.5
 44
0.1
 45
0.0
 46
0.0
 47
0.1
 48
0.1
140
0.12
141
0.0
142
0.0
143
25.399999999999999
144
1.0
145
0.0
146
0.71
147
0.06
 71
     0
 72
     0
 73
     1
 74
     1
 75
     1
 76
     1
 77
     0
 78
     7
170
     0
171
     2
172
     0
173
     0
174
     0
175
     0
176
   256
177
   256
178
     2
  0
DIMSTYLE
  2
AM_ANSI$SH
 70
     0
  3

  4
mm
  5

  6

  7

 40
1.0
 41
0.1
 42
0.05
 43
0.5
 44
0.1
 45
0.0
 46
0.0
 47
0.1
 48
0.1
140
0.12
141
0.0
142
0.0
143
25.399999999999999
144
1.0
145
0.0
146
0.71
147
0.06
 71
     0
 72
     0
 73
     1
 74
     1
 75
     1
 76
     1
 77
     0
 78
     7
170
     0
171
     2
172
     0
173
     1
174
     0
175
     0
176
   256
177
   256
178
     2
  0
ENDTAB
  0
ENDSEC
  0
SECTION
  2
BLOCKS
  0
BLOCK
  8
0
  2
$MODEL_SPACE
 70
     0
 10
0.0
 20
0.0
 30
0.0
  3
$MODEL_SPACE
  1

  0
ENDBLK
  5
32FD
  8
0
  0
BLOCK
 67
     1
  8
0
  2
$PAPER_SPACE
 70
     0
 10
0.0
 20
0.0
 30
0.0
  3
$PAPER_SPACE
  1

  0
ENDBLK
  5
32F9
 67
     1
  8
0
  0
BLOCK
  8
0
  2
GENAXEH
 70
     0
 10
0.0
 20
0.0
 30
0.0
  3
GENAXEH
  1

  0
LINE
  5
30AE
  8
0
 10
-1.0
 20
0.0
 30
0.0
 11
1.0
 21
0.0
 31
0.0
  0
ENDBLK
  5
30AF
  8
0
  0
BLOCK
  8
0
  2
_OPEN30
 70
     0
 10
0.0
 20
0.0
 30
0.0
  3
_OPEN30
  1

  0
LINE
  5
30B2
  8
0
 62
     0
 10
-1.0
 20
0.26794919
 30
0.0
 11
0.0
 21
0.0
 31
0.0
  0
LINE
  5
30B3
  8
0
 62
     0
 10
0.0
 20
0.0
 30
0.0
 11
-1.0
 21
-0.26794919
 31
0.0
  0
LINE
  5
30B4
  8
0
 62
     0
 10
0.0
 20
0.0
 30
0.0
 11
-1.0
 21
0.0
 31
0.0
  0
ENDBLK
  5
30B5
  8
0
  0
BLOCK
  8
0
  2
_NONE
 70
     0
 10
0.0
 20
0.0
 30
0.0
  3
_NONE
  1

  0
ENDBLK
  5
30B8
  8
0
  0
BLOCK
  8
0
  2
_ACMFILLEDHALF
 70
     0
 10
0.0
 20
0.0
 30
0.0
  3
_ACMFILLEDHALF
  1

  0
TRACE
  5
33F3
  8
AM_0
 62
     0
 10
-0.8
 20
0.0
 30
0.0
 11
-1.0
 21
0.166666666
 31
0.0
 12
0.0
 22
0.0
 32
0.0
 13
0.0
 23
0.0
 33
0.0
  0
LINE
  5
33F4
  8
AM_0
 62
     0
 10
-1.0
 20
0.0
 30
0.0
 11
-0.8
 21
0.0
 31
0.0
  0
ENDBLK
  5
33F2
  8
0
  0
ENDSEC
  0
SECTION
  2
ENTITIES
  0
LINE
  5
30BA
  8
AM_0
 10
643.14612155657176
 20
965.64170208668315
 30
0.0
 11
748.14612155657153
 21
965.64170208668315
 31
0.0
  0
LINE
  5
30BB
  8
AM_0
 10
667.14612155657176
 20
926.64174208668351
 30
0.0
 11
748.14612155657153
 21
926.64174208668351
 31
0.0
  0
LINE
  5
30BC
  8
AM_0
 10
667.14612155657176
 20
944.64174208668351
 30
0.0
 11
748.14612155657153
 21
944.64174208668351
 31
0.0
  0
LINE
  5
30BD
  8
AM_0
 10
643.14612155657176
 20
905.64174208668339
 30
0.0
 11
748.14612155657153
 21
905.64174208668339
 31
0.0
  0
LINE
  5
30BE
  8
ﾁｭｳｼﾝｾﾝ
 10
262.38219773080482
 20
935.64174208668351
 30
0.0
 11
763.96906155657155
 21
935.64174208668351
 31
0.0
  0
POLYLINE
  5
30BF
  8
AM_0
 66
     1
 10
0.0
 20
0.0
 30
0.0
  0
VERTEX
  5
30C0
  8
AM_0
 10
587.52962155657156
 20
1030.230902086683
 30
0.0
  0
VERTEX
  5
30C1
  8
AM_0
 10
584.46201355657183
 20
1014.644843086683
 30
0.0
  0
VERTEX
  5
30C2
  8
AM_0
 10
581.93021755657185
 20
998.96283108668365
 30
0.0
  0
VERTEX
  5
30C3
  8
AM_0
 10
579.93720655657205
 20
983.2032830866832
 30
0.0
  0
VERTEX
  5
30C4
  8
AM_0
 10
578.48532155657188
 20
967.38470208668355
 30
0.0
  0
VERTEX
  5
30C5
  8
AM_0
 10
577.44721155657169
 20
946.22921808668355
 30
0.0
  0
VERTEX
  5
30C6
  8
AM_0
 10
577.42961255657178
 20
925.04828708668356
 30
0.0
  0
VERTEX
  5
30C7
  8
AM_0
 10
578.43256455657183
 20
903.89110808668352
 30
0.0
  0
VERTEX
  5
30C8
  8
AM_0
 10
580.45373955657158
 20
882.80682408668349
 30
0.0
  0
VERTEX
  5
30C9
  8
AM_0
 10
583.48844155657184
 20
861.84441208668341
 30
0.0
  0
VERTEX
  5
30CA
  8
AM_0
 10
587.52962155657156
 20
841.05256208668334
 30
0.0
  0
SEQEND
  5
30CB
  8
AM_0
  0
LINE
  5
30CC
  8
AM_0
 10
643.14612155657176
 20
968.14170208668349
 30
0.0
 11
643.14612155657176
 21
903.14174208668351
 31
0.0
  0
LINE
  5
30CD
  8
AM_0
 10
633.14612155657187
 20
1120.641702086682
 30
0.0
 11
633.14612155657187
 21
750.64174208668351
 31
0.0
  0
LINE
  5
30CE
  8
AM_0
 10
617.14612155657176
 20
1082.200602086682
 30
0.0
 11
617.14612155657176
 21
789.07179208668333
 31
0.0
  0
LINE
  5
30CF
  8
AM_0
 10
608.14612155657187
 20
1117.641702086682
 30
0.0
 11
608.14612155657187
 21
753.64174208668339
 31
0.0
  0
LINE
  5
30D0
  8
AM_0
 10
638.14612155657176
 20
780.64174208668351
 30
0.0
 11
638.14612155657176
 21
1090.641702086682
 31
0.0
  0
LINE
  5
30D1
  8
AM_0
 10
405.14612155657159
 20
810.70229208668354
 30
0.0
 11
405.14612155657159
 21
1060.581102086682
 31
0.0
  0
LINE
  5
30D2
  8
AM_0
 10
424.64612155657193
 20
783.96767208668371
 30
0.0
 11
424.64612155657193
 21
930.64174208668339
 31
0.0
  0
LINE
  5
30D3
  8
AM_0
 10
494.64612155657181
 20
1094.5888020866821
 30
0.0
 11
494.64612155657181
 21
776.69472208668356
 31
0.0
  0
LINE
  5
30D4
  8
AM_0
 10
381.14616155657183
 20
1033.141702086682
 30
0.0
 11
381.14616155657183
 21
838.14174208668351
 31
0.0
  0
LINE
  5
30D5
  8
AM_0
 10
603.32062155657184
 20
772.89973208668334
 30
0.0
 11
494.64612155657181
 21
776.69472208668356
 31
0.0
  0
LINE
  5
30D6
  8
AM_0
 10
409.80353155657161
 20
805.7140620866835
 30
0.0
 11
419.98871155657162
 21
805.01460208668334
 31
0.0
  0
ARC
  5
30D7
  8
AM_0
 10
410.14612155657181
 20
810.70229208668354
 30
0.0
 40
5.0
 50
180.00001000000091
 51
266.0712399999984
  0
LINE
  5
30D8
  8
AM_0
 10
383.14616155657183
 20
878.8659820866834
 30
0.0
 11
383.14616155657183
 21
852.34425208668335
 31
0.0
  0
LINE
  5
30D9
  8
AM_0
 10
381.14616155657183
 20
838.14168208668355
 30
0.0
 11
395.49512155657158
 21
837.64058208668337
 31
0.0
  0
LINE
  5
30DA
  8
AM_0
 10
383.14616155657183
 20
862.63551208668332
 30
0.0
 11
405.14612155657159
 21
862.63551208668332
 31
0.0
  0
LINE
  5
30DB
  8
AM_0
 10
383.14616155657183
 20
852.34425208668335
 30
0.0
 11
405.14612155657159
 21
852.34425208668335
 31
0.0
  0
ARC
  5
30DC
  8
AM_0
 10
395.14612155657181
 20
827.64674208668339
 30
0.0
 40
10.0
 50
0.0
 51
88.000000000002785
  0
LINE
  5
30DD
  8
AM_0
 10
383.14616155657183
 20
878.8659820866834
 30
0.0
 11
405.14612155657159
 21
878.8659820866834
 31
0.0
  0
LINE
  5
30DE
  8
AM_0
 10
494.64612155657181
 20
776.69472208668356
 30
0.0
 11
429.47156155657183
 21
778.97066208668355
 31
0.0
  0
LINE
  5
30DF
  8
AM_0
 10
429.64612155657181
 20
799.73115208668355
 30
0.0
 11
452.64612155657181
 21
799.73115208668355
 31
0.0
  0
LINE
  5
30E0
  8
AM_0
 10
429.64612155657181
 20
794.21535208668354
 30
0.0
 11
452.64612155657181
 21
794.21535208668354
 31
0.0
  0
ARC
  5
30E1
  8
AM_0
 10
429.64612155657181
 20
804.73115208668355
 30
0.0
 40
5.0
 50
180.00001000000091
 51
270.0
  0
ARC
  5
30E2
  8
AM_0
 10
429.64612155657181
 20
789.21535208668354
 30
0.0
 40
5.0
 50
90.00000299999769
 51
180.00001000000091
  0
ARC
  5
30E3
  8
AM_0
 10
429.64612155657181
 20
783.96767208668371
 30
0.0
 40
5.0
 50
180.00001000000091
 51
268.00000000000261
  0
ARC
  5
30E4
  8
AM_0
 10
419.64612155657181
 20
800.02632208668365
 30
0.0
 40
5.0
 50
0.0
 51
86.071236999998789
  0
ARC
  5
30E5
  8
AM_0
 10
452.64612155657181
 20
797.73115208668355
 30
0.0
 40
2.0
 50
0.0
 51
90.00000299999769
  0
ARC
  5
30E6
  8
AM_0
 10
452.64612155657181
 20
796.21535208668354
 30
0.0
 40
2.0
 50
270.0
 51
0.0
  0
LINE
  5
30E7
  8
AM_0
 10
454.64612155657181
 20
797.73115208668355
 30
0.0
 11
454.64612155657181
 21
796.21535208668354
 31
0.0
  0
LINE
  5
30E8
  8
AM_0
 10
454.64612155657181
 20
843.69752208668365
 30
0.0
 11
454.64612155657181
 21
883.61317208668322
 31
0.0
  0
LINE
  5
30E9
  8
AM_0
 10
429.64612155657181
 20
840.69752208668353
 30
0.0
 11
451.64612155657181
 21
840.69752208668353
 31
0.0
  0
ARC
  5
30EA
  8
AM_0
 10
429.64612155657181
 20
835.69752208668365
 30
0.0
 40
5.0
 50
90.00000299999769
 51
180.00001000000091
  0
ARC
  5
30EB
  8
AM_0
 10
451.64612155657181
 20
843.69752208668365
 30
0.0
 40
3.0
 50
270.0
 51
0.0
  0
LINE
  5
30EC
  8
AM_0
 10
429.64612155657181
 20
886.61317208668333
 30
0.0
 11
451.64612155657181
 21
886.61317208668333
 31
0.0
  0
ARC
  5
30ED
  8
AM_0
 10
429.64612155657181
 20
891.61317208668322
 30
0.0
 40
5.0
 50
180.00001000000091
 51
270.0
  0
ARC
  5
30EE
  8
AM_0
 10
451.64612155657181
 20
883.61317208668322
 30
0.0
 40
3.0
 50
0.0
 51
90.00000299999769
  0
LINE
  5
30EF
  8
AM_0
 10
610.14612155657176
 20
787.08284208668351
 30
0.0
 11
615.14612155657176
 21
787.08284208668351
 31
0.0
  0
LINE
  5
30F0
  8
AM_0
 10
608.14612155657187
 20
849.37038208668355
 30
0.0
 11
615.14612155657176
 21
849.37038208668355
 31
0.0
  0
LINE
  5
30F1
  8
AM_0
 10
611.14612155657176
 20
750.64168208668355
 30
0.0
 11
633.14612155657187
 21
750.64168208668355
 31
0.0
  0
LINE
  5
30F2
  8
AM_0
 10
605.77832155657165
 20
794.92915208668353
 30
0.0
 11
549.51392155657186
 21
829.76747208668348
 31
0.0
  0
LINE
  5
30F3
  8
AM_0
 10
605.77826155657169
 20
806.8946720866835
 30
0.0
 11
550.84125155657171
 21
840.91109208668354
 31
0.0
  0
POLYLINE
  5
30F4
  8
AM_0
 66
     1
 10
0.0
 20
0.0
 30
0.0
  0
VERTEX
  5
30F5
  8
AM_0
 10
598.31943155657154
 20
799.54743208668333
 30
0.0
  0
VERTEX
  5
30F6
  8
AM_0
 10
599.83597355657184
 20
794.68946408668353
 30
0.0
  0
VERTEX
  5
30F7
  8
AM_0
 10
601.40144155657185
 20
789.8470420866837
 30
0.0
  0
VERTEX
  5
30F8
  8
AM_0
 10
603.01550955657183
 20
785.02060408668353
 30
0.0
  0
VERTEX
  5
30F9
  8
AM_0
 10
604.67786155657188
 20
780.21058208668353
 30
0.0
  0
VERTEX
  5
30FA
  8
AM_0
 10
606.38815055657165
 20
775.41752108668334
 30
0.0
  0
VERTEX
  5
30FB
  8
AM_0
 10
608.14612155657187
 20
770.64174208668351
 30
0.0
  0
SEQEND
  5
30FC
  8
AM_0
  0
ARC
  5
30FD
  8
AM_0
 10
611.14612155657176
 20
753.64174208668339
 30
0.0
 40
3.0
 50
179.9999899999988
 51
270.0
  0
ARC
  5
30FE
  8
AM_0
 10
603.14612155657187
 20
767.90279208668335
 30
0.0
 40
5.0
 50
0.0
 51
88.000000000002785
  0
ARC
  5
30FF
  8
AM_0
 10
603.14612155657187
 20
790.67812208668352
 30
0.0
 40
5.0
 50
0.0
 51
58.234630000004231
  0
ARC
  5
3100
  8
AM_0
 10
610.14612155657176
 20
785.08284208668351
 30
0.0
 40
2.0
 50
90.00000299999769
 51
180.00001000000091
  0
LINE
  5
3101
  8
AM_0
 10
552.14612155657176
 20
843.19911208668339
 30
0.0
 11
582.98639155657168
 21
843.19911208668339
 31
0.0
  0
ARC
  5
3102
  8
AM_0
 10
552.14612155657176
 20
838.1991120866835
 30
0.0
 40
5.0
 50
90.00000299999769
 51
180.00001000000091
  0
ARC
  5
3103
  8
AM_0
 10
552.14612155657176
 20
834.01857208668355
 30
0.0
 40
5.0
 50
179.9999899999988
 51
238.2346499999997
  0
LINE
  5
3104
  8
AM_0
 10
547.14612155657176
 20
834.01857208668355
 30
0.0
 11
547.14612155657176
 21
838.1991120866835
 31
0.0
  0
LINE
  5
3105
  8
AM_0
 10
608.14612155657187
 20
825.73494208668365
 30
0.0
 11
585.96826155657175
 21
842.21260208668355
 31
0.0
  0
ARC
  5
3106
  8
AM_0
 10
582.98639155657168
 20
838.1991120866835
 30
0.0
 40
5.0
 50
53.388504999997892
 51
90.00000299999769
  0
LINE
  5
3107
  8
AM_0
 10
633.14612155657187
 20
780.64174208668351
 30
0.0
 11
638.14612155657176
 21
780.64174208668351
 31
0.0
  0
ARC
  5
3108
  8
AM_0
 10
615.14612155657176
 20
789.08284208668351
 30
0.0
 40
2.0
 50
270.0
 51
0.0
  0
ARC
  5
3109
  8
AM_0
 10
615.14612155657176
 20
851.37038208668355
 30
0.0
 40
2.0
 50
270.0
 51
0.0
  0
LINE
  5
310A
  8
AM_0
 10
638.14612155657176
 20
903.14174208668351
 30
0.0
 11
643.14612155657176
 21
903.14174208668351
 31
0.0
  0
LINE
  5
310B
  8
AM_0
 10
603.32056155657176
 20
1098.3838020866831
 30
0.0
 11
494.64612155657181
 21
1094.5888020866821
 31
0.0
  0
LINE
  5
310C
  8
AM_0
 10
424.64612155657193
 20
940.64174208668351
 30
0.0
 11
424.64612155657193
 21
1087.3158020866831
 31
0.0
  0
LINE
  5
310D
  8
AM_0
 10
409.80353155657161
 20
1065.5694020866831
 30
0.0
 11
419.98865155657188
 21
1066.2688020866831
 31
0.0
  0
LINE
  5
310E
  8
AM_0
 10
383.14616155657183
 20
1018.939102086683
 30
0.0
 11
383.14616155657183
 21
992.4175020866835
 31
0.0
  0
LINE
  5
310F
  8
AM_0
 10
383.14616155657183
 20
992.4175020866835
 30
0.0
 11
405.14612155657159
 21
992.4175020866835
 31
0.0
  0
ARC
  5
3110
  8
AM_0
 10
395.14612155657181
 20
1043.636702086683
 30
0.0
 40
10.0
 50
271.9999999999971
 51
0.0
  0
LINE
  5
3111
  8
AM_0
 10
381.14606155657168
 20
1033.141702086682
 30
0.0
 11
395.49512155657158
 21
1033.6428020866831
 31
0.0
  0
LINE
  5
3112
  8
AM_0
 10
383.14616155657183
 20
1018.939102086683
 30
0.0
 11
405.14612155657159
 21
1018.939102086683
 31
0.0
  0
LINE
  5
3113
  8
AM_0
 10
383.14616155657183
 20
1008.647802086683
 30
0.0
 11
405.14612155657159
 21
1008.647802086683
 31
0.0
  0
ARC
  5
3114
  8
AM_0
 10
410.14612155657181
 20
1060.581102086682
 30
0.0
 40
5.0
 50
93.928768000000687
 51
180.00001000000091
  0
LINE
  5
3115
  8
AM_0
 10
454.64612155657181
 20
987.67030208668382
 30
0.0
 11
454.64612155657181
 21
1027.5858020866831
 31
0.0
  0
ARC
  5
3116
  8
AM_0
 10
459.64612155657159
 20
935.64174208668351
 30
0.0
 40
5.0
 50
270.0
 51
90.00000299999769
  0
ARC
  5
3117
  8
AM_0
 10
439.64612155657181
 20
935.64174208668351
 30
0.0
 40
12.5
 50
203.5781799999973
 51
336.42183000000068
  0
ARC
  5
3118
  8
AM_0
 10
439.64612155657181
 20
935.64174208668351
 30
0.0
 40
12.5
 50
23.578179999997531
 51
156.42182000000241
  0
LINE
  5
3119
  8
AM_0
 10
419.64612155657181
 20
940.64174208668351
 30
0.0
 11
459.64612155657159
 21
940.64174208668351
 31
0.0
  0
LINE
  5
311A
  8
AM_0
 10
419.64612155657181
 20
930.64174208668339
 30
0.0
 11
459.64612155657159
 21
930.64174208668339
 31
0.0
  0
ARC
  5
311B
  8
AM_0
 10
419.64612155657181
 20
935.64174208668351
 30
0.0
 40
5.0
 50
90.00000299999769
 51
270.0
  0
LINE
  5
311C
  8
AM_0
 10
429.64612155657181
 20
984.67030208668359
 30
0.0
 11
451.64612155657181
 21
984.67030208668359
 31
0.0
  0
ARC
  5
311D
  8
AM_0
 10
429.64612155657181
 20
979.67030208668336
 30
0.0
 40
5.0
 50
90.00000299999769
 51
180.00001000000091
  0
ARC
  5
311E
  8
AM_0
 10
451.64612155657181
 20
987.67030208668382
 30
0.0
 40
3.0
 50
270.0
 51
0.0
  0
LINE
  5
311F
  8
AM_0
 10
429.64612155657181
 20
1030.5858020866831
 30
0.0
 11
451.64612155657181
 21
1030.5858020866831
 31
0.0
  0
ARC
  5
3120
  8
AM_0
 10
429.64612155657181
 20
1035.5858020866831
 30
0.0
 40
5.0
 50
180.00001000000091
 51
270.0
  0
ARC
  5
3121
  8
AM_0
 10
451.64612155657181
 20
1027.5858020866831
 30
0.0
 40
3.0
 50
0.0
 51
90.00000299999769
  0
LINE
  5
3122
  8
AM_0
 10
429.64612155657181
 20
1077.068002086683
 30
0.0
 11
452.64612155657181
 21
1077.068002086683
 31
0.0
  0
LINE
  5
3123
  8
AM_0
 10
429.64612155657181
 20
1071.5523020866831
 30
0.0
 11
452.64612155657181
 21
1071.5523020866831
 31
0.0
  0
ARC
  5
3124
  8
AM_0
 10
429.64612155657181
 20
1082.068002086683
 30
0.0
 40
5.0
 50
180.00001000000091
 51
270.0
  0
ARC
  5
3125
  8
AM_0
 10
429.64612155657181
 20
1066.5523020866831
 30
0.0
 40
5.0
 50
90.00000299999769
 51
180.00001000000091
  0
ARC
  5
3126
  8
AM_0
 10
419.64612155657181
 20
1071.2571020866831
 30
0.0
 40
5.0
 50
273.92876000000132
 51
0.0
  0
ARC
  5
3127
  8
AM_0
 10
452.64612155657181
 20
1075.068002086683
 30
0.0
 40
2.0
 50
0.0
 51
90.00000299999769
  0
ARC
  5
3128
  8
AM_0
 10
452.64612155657181
 20
1073.5523020866831
 30
0.0
 40
2.0
 50
270.0
 51
0.0
  0
LINE
  5
3129
  8
AM_0
 10
454.64612155657181
 20
1073.5523020866831
 30
0.0
 11
454.64612155657181
 21
1075.068002086683
 31
0.0
  0
LINE
  5
312A
  8
AM_0
 10
494.64612155657181
 20
1094.5888020866821
 30
0.0
 11
429.47156155657183
 21
1092.312802086683
 31
0.0
  0
ARC
  5
312B
  8
AM_0
 10
429.64612155657181
 20
1087.3158020866831
 30
0.0
 40
5.0
 50
91.999998000000545
 51
180.00001000000091
  0
LINE
  5
312C
  8
AM_0
 10
608.14612155657187
 20
1100.641702086682
 30
0.0
 11
598.31948155657187
 21
1071.7362020866831
 31
0.0
  0
ARC
  5
312D
  8
AM_0
 10
610.14612155657176
 20
1086.200602086682
 30
0.0
 40
2.0
 50
179.9999899999988
 51
270.0
  0
LINE
  5
312E
  8
AM_0
 10
610.14612155657176
 20
1084.200602086682
 30
0.0
 11
615.14612155657176
 21
1084.200602086682
 31
0.0
  0
LINE
  5
312F
  8
AM_0
 10
608.14612155657187
 20
1021.913102086683
 30
0.0
 11
615.14612155657176
 21
1021.913102086683
 31
0.0
  0
LINE
  5
3130
  8
AM_0
 10
605.77832155657165
 20
1076.354402086683
 30
0.0
 11
549.51386155657178
 21
1041.5160020866831
 31
0.0
  0
LINE
  5
3131
  8
AM_0
 10
605.77826155657169
 20
1064.388802086683
 30
0.0
 11
550.84125155657171
 21
1030.3725020866821
 31
0.0
  0
LINE
  5
3132
  8
AM_0
 10
552.14612155657176
 20
1028.084402086683
 30
0.0
 11
582.98639155657168
 21
1028.084402086683
 31
0.0
  0
ARC
  5
3133
  8
AM_0
 10
552.14612155657176
 20
1037.264902086682
 30
0.0
 40
5.0
 50
121.7653600000025
 51
180.00001000000091
  0
ARC
  5
3134
  8
AM_0
 10
552.14612155657176
 20
1033.084402086683
 30
0.0
 40
5.0
 50
179.9999899999988
 51
270.0
  0
LINE
  5
3135
  8
AM_0
 10
547.14612155657176
 20
1037.264902086682
 30
0.0
 11
547.14612155657176
 21
1033.084402086683
 31
0.0
  0
LINE
  5
3136
  8
AM_0
 10
608.14618155657183
 20
1045.548502086682
 30
0.0
 11
585.96833155657168
 21
1029.070802086683
 31
0.0
  0
ARC
  5
3137
  8
AM_0
 10
582.98639155657168
 20
1033.084402086683
 30
0.0
 40
5.0
 50
270.0
 51
306.61150000000112
  0
ARC
  5
3138
  8
AM_0
 10
603.14612155657187
 20
1080.605402086682
 30
0.0
 40
5.0
 50
301.7653699999957
 51
0.0
  0
ARC
  5
3139
  8
AM_0
 10
667.14612155657176
 20
935.64174208668351
 30
0.0
 40
9.0
 50
90.00000299999769
 51
270.0
  0
LINE
  5
313A
  8
AM_0
 10
638.14612155657176
 20
968.14170208668349
 30
0.0
 11
643.14612155657176
 21
968.14170208668349
 31
0.0
  0
LINE
  5
313B
  8
AM_0
 10
667.14612155657176
 20
944.64174208668351
 30
0.0
 11
667.14612155657176
 21
926.64174208668351
 31
0.0
  0
ARC
  5
313C
  8
AM_0
 10
615.14612155657176
 20
1019.913102086682
 30
0.0
 40
2.0
 50
0.0
 51
90.00000299999769
  0
ARC
  5
313D
  8
AM_0
 10
615.14612155657176
 20
1082.200602086682
 30
0.0
 40
2.0
 50
0.0
 51
90.00000299999769
  0
LINE
  5
313E
  8
AM_0
 10
611.14612155657176
 20
1120.641702086682
 30
0.0
 11
633.14612155657187
 21
1120.641702086682
 31
0.0
  0
ARC
  5
313F
  8
AM_0
 10
603.14612155657187
 20
1103.380802086682
 30
0.0
 40
5.0
 50
271.9999999999971
 51
0.0
  0
ARC
  5
3140
  8
AM_0
 10
611.14612155657176
 20
1117.641702086682
 30
0.0
 40
3.0
 50
90.00000299999769
 51
180.00001000000091
  0
LINE
  5
3141
  8
AM_0
 10
633.14612155657187
 20
1090.641702086682
 30
0.0
 11
638.14612155657176
 21
1090.641702086682
 31
0.0
  0
LINE
  5
3142
  8
AM_0
 10
748.14612155657153
 20
965.64170208668315
 30
0.0
 11
748.14612155657153
 21
905.64174208668339
 31
0.0
  0
LINE
  5
3143
  8
AM_0
 10
611.14612155657176
 20
642.68281201580419
 30
0.0
 11
633.14612155657176
 21
642.68281201580419
 31
0.0
  0
LINE
  5
3144
  8
AM_0
 10
633.14612155657176
 20
272.68273701580398
 30
0.0
 11
611.14612155657176
 21
272.68273701580398
 31
0.0
  0
LINE
  5
3145
  8
ﾁｭｳｼﾝｾﾝ
 10
751.08517155657171
 20
457.68274201580391
 30
0.0
 11
477.17917155657182
 21
457.68274201580391
 31
0.0
  0
LINE
  5
3146
  8
AM_0
 10
291.14612155657159
 20
531.68274201580402
 30
0.0
 11
291.14612155657159
 21
409.68274201580408
 31
0.0
  0
LINE
  5
3147
  8
AM_0
 10
275.1461215565717
 20
284.68274201580408
 30
0.0
 11
275.1461215565717
 21
534.68274201580402
 31
0.0
  0
LINE
  5
3148
  8
AM_0
 10
381.14612155657159
 20
507.18274201580391
 30
0.0
 11
381.14612155657159
 21
312.18273701580398
 31
0.0
  0
LINE
  5
3149
  8
AM_0
 10
405.1461715565718
 20
537.95248701580431
 30
0.0
 11
405.1461715565718
 21
278.42919701580411
 31
0.0
  0
LINE
  5
314A
  8
AM_0
 10
424.64612155657159
 20
584.6827620158042
 30
0.0
 11
424.64612155657159
 21
240.0585770158041
 31
0.0
  0
LINE
  5
314B
  8
AM_0
 10
617.14612155657176
 20
604.2416620158042
 30
0.0
 11
617.14612155657176
 21
311.12387201580401
 31
0.0
  0
LINE
  5
314C
  8
AM_0
 10
608.14612155657176
 20
639.6827620158042
 30
0.0
 11
608.14612155657176
 21
399.74572701580399
 31
0.0
  0
LINE
  5
314D
  8
AM_0
 10
494.64612155657159
 20
589.6827620158042
 30
0.0
 11
494.64612155657159
 21
235.68273701580409
 31
0.0
  0
LINE
  5
314E
  8
AM_0
 10
584.6405715565719
 20
550.12541201580416
 30
0.0
 11
607.88372155657169
 21
400.13967701580412
 31
0.0
  0
LINE
  5
314F
  8
AM_0
 10
380.1461215565717
 20
490.39845801580412
 30
0.0
 11
380.1461215565717
 21
466.45853001580417
 31
0.0
  0
LINE
  5
3150
  8
AM_0
 10
383.14612155657159
 20
492.98013701580419
 30
0.0
 11
383.14612155657159
 21
466.45852701580401
 31
0.0
  0
LINE
  5
3151
  8
AM_0
 10
454.64612155657181
 20
479.90777701580402
 30
0.0
 11
454.64612155657181
 21
448.73358201580402
 31
0.0
  0
LINE
  5
3152
  8
AM_0
 10
421.89172155657161
 20
256.82845701580408
 30
0.0
 11
407.90062155657159
 21
271.53709201580398
 31
0.0
  0
LINE
  5
3153
  8
ﾁｭｳｼﾝｾﾝ
 10
262.38219773080448
 20
409.68274201580408
 30
0.0
 11
500.86587155657162
 21
409.68274201580408
 31
0.0
  0
LINE
  5
3154
  8
AM_0
 10
291.14612155657159
 20
287.68274201580402
 30
0.0
 11
291.14612155657159
 21
409.68274201580408
 31
0.0
  0
LINE
  5
3155
  8
AM_0
 10
380.1461215565717
 20
328.9670250158041
 30
0.0
 11
380.1461215565717
 21
352.90695301580399
 31
0.0
  0
LINE
  5
3156
  8
AM_0
 10
383.14612155657159
 20
352.90698201580398
 30
0.0
 11
383.14612155657159
 21
326.385312015804
 31
0.0
  0
LINE
  5
3157
  8
AM_0
 10
377.25081955657163
 20
325.96885201580398
 30
0.0
 11
294.04142255657172
 21
323.06311601580393
 31
0.0
  0
LINE
  5
3158
  8
AM_0
 10
381.14612155657159
 20
312.18274201580402
 30
0.0
 11
296.01523655657161
 21
309.953511015804
 31
0.0
  0
LINE
  5
3159
  8
AM_0
 10
275.1461215565717
 20
284.68274201580408
 30
0.0
 11
288.1461215565717
 21
284.68274201580408
 31
0.0
  0
ARC
  5
315A
  8
AM_0
 10
288.1461215565717
 20
287.68274201580402
 30
0.0
 40
3.0
 50
270.0
 51
0.0
  0
ARC
  5
315B
  8
AM_0
 10
296.1461215565717
 20
304.95522401580399
 30
0.0
 40
5.0
 50
91.499999999996206
 51
180.0
  0
ARC
  5
315C
  8
AM_0
 10
294.1461215565717
 20
320.06494401580397
 30
0.0
 40
3.0
 50
91.999999999997087
 51
180.0
  0
ARC
  5
315D
  8
AM_0
 10
415.1461715565718
 20
278.42919701580411
 30
0.0
 40
10.0
 50
179.9999899999988
 51
223.56789999999799
  0
LINE
  5
315E
  8
AM_0
 10
378.22800755657198
 20
312.18274201580402
 30
0.0
 11
381.14612155657159
 21
312.18274201580402
 31
0.0
  0
ARC
  5
315F
  8
AM_0
 10
377.14612155657159
 20
328.9670250158041
 30
0.0
 40
3.0
 50
271.99999999999687
 51
0.0
  0
LINE
  5
3160
  8
AM_0
 10
381.14607155657183
 20
312.182707015804
 30
0.0
 11
395.49507155657182
 21
311.6816420158039
 31
0.0
  0
ARC
  5
3161
  8
AM_0
 10
395.14617155657169
 20
301.68774201580391
 30
0.0
 40
10.0
 50
0.0
 51
88.000000000002899
  0
LINE
  5
3162
  8
AM_0
 10
383.14612155657159
 20
326.385312015804
 30
0.0
 11
405.1461715565718
 21
326.385312015804
 31
0.0
  0
LINE
  5
3163
  8
AM_0
 10
294.1461215565717
 20
352.90695301580399
 30
0.0
 11
380.1461215565717
 21
352.90695301580399
 31
0.0
  0
LINE
  5
3164
  8
AM_0
 10
376.40098155657159
 20
336.54577701580399
 30
0.0
 11
294.92261755657159
 21
333.70049001580401
 31
0.0
  0
LINE
  5
3165
  8
AM_0
 10
294.1461215565717
 20
466.45853001580417
 30
0.0
 11
380.1461215565717
 21
466.45853001580417
 31
0.0
  0
ARC
  5
3166
  8
AM_0
 10
294.1461215565717
 20
349.90695301580399
 30
0.0
 40
3.0
 50
90.0
 51
180.0
  0
ARC
  5
3167
  8
AM_0
 10
294.1461215565717
 20
469.45853001580389
 30
0.0
 40
3.0
 50
180.0
 51
270.0
  0
LINE
  5
3168
  8
AM_0
 10
383.14612155657159
 20
336.67657201580408
 30
0.0
 11
405.1461715565718
 21
336.67657201580408
 31
0.0
  0
LINE
  5
3169
  8
AM_0
 10
383.14612155657159
 20
352.90698201580398
 30
0.0
 11
405.1461715565718
 21
352.90698201580398
 31
0.0
  0
LINE
  5
316A
  8
AM_0
 10
383.14612155657159
 20
466.45852701580401
 30
0.0
 11
405.1461715565718
 21
466.45852701580401
 31
0.0
  0
LINE
  5
316B
  8
AM_0
 10
454.64612155657181
 20
357.62561201580399
 30
0.0
 11
454.64612155657181
 21
323.35626201580402
 31
0.0
  0
LINE
  5
316C
  8
AM_0
 10
608.14612155657176
 20
345.899477015804
 30
0.0
 11
608.14612155657176
 21
275.68273701580409
 31
0.0
  0
ARC
  5
316D
  8
AM_0
 10
525.06532155657169
 20
307.144072015804
 30
0.0
 40
8.5603475000000007
 50
90.00000299999769
 51
270.0
  0
LINE
  5
316E
  8
AM_0
 10
494.64612155657159
 20
235.68275201580411
 30
0.0
 11
558.17872155657165
 21
234.01908701580399
 31
0.0
  0
LINE
  5
316F
  8
AM_0
 10
426.57632155657188
 20
238.05976701580411
 30
0.0
 11
494.6460715565716
 21
235.6827220158041
 31
0.0
  0
LINE
  5
3170
  8
AM_0
 10
429.64612155657181
 20
251.68273701580389
 30
0.0
 11
452.6461715565718
 21
251.68273701580389
 31
0.0
  0
ARC
  5
3171
  8
AM_0
 10
426.6461715565718
 20
240.0585770158041
 30
0.0
 40
2.0000000500000001
 50
179.9999899999988
 51
268.00000999999861
  0
ARC
  5
3172
  8
AM_0
 10
414.64612155657159
 20
249.936277015804
 30
0.0
 40
10.0
 50
0.0
 51
43.567905000003528
  0
ARC
  5
3173
  8
AM_0
 10
429.64612155657181
 20
256.68273701580409
 30
0.0
 40
5.0
 50
179.9999899999988
 51
270.0
  0
LINE
  5
3174
  8
AM_0
 10
454.64612155657181
 20
249.68275201580411
 30
0.0
 11
454.64612155657181
 21
239.01093701580399
 31
0.0
  0
ARC
  5
3175
  8
AM_0
 10
456.64617155657191
 20
239.01093701580399
 30
0.0
 40
2.0000000500000001
 50
179.9999899999988
 51
268.00000999999861
  0
ARC
  5
3176
  8
AM_0
 10
452.6461715565718
 20
249.68275201580411
 30
0.0
 40
2.0000000500000001
 50
0.0
 51
90.00000299999769
  0
LINE
  5
3177
  8
AM_0
 10
429.64612155657181
 20
320.35626201580402
 30
0.0
 11
451.6461715565718
 21
320.35626201580402
 31
0.0
  0
ARC
  5
3178
  8
AM_0
 10
429.64612155657181
 20
315.35626201580402
 30
0.0
 40
5.0
 50
90.00000299999769
 51
180.00001000000091
  0
ARC
  5
3179
  8
AM_0
 10
451.6461715565718
 20
323.35626201580402
 30
0.0
 40
3.0000000500000001
 50
270.0
 51
0.0
  0
LINE
  5
317A
  8
AM_0
 10
558.17872155657165
 20
234.019072015804
 30
0.0
 11
625.14612155657176
 21
272.68275201580411
 31
0.0
  0
LINE
  5
317B
  8
AM_0
 10
561.52602155657155
 20
287.41322201580402
 30
0.0
 11
608.14612155657176
 21
287.41322201580402
 31
0.0
  0
LINE
  5
317C
  8
AM_0
 10
561.52602155657155
 20
328.0382370158041
 30
0.0
 11
608.14612155657176
 21
328.0382370158041
 31
0.0
  0
ARC
  5
317D
  8
AM_0
 10
561.52602155657155
 20
307.72570701580401
 30
0.0
 40
20.3124945
 50
90.00000299999769
 51
270.0
  0
LINE
  5
317E
  8
AM_0
 10
563.14612155657176
 20
325.87948701580422
 30
0.0
 11
563.14612155657176
 21
289.75949201580408
 31
0.0
  0
LINE
  5
317F
  8
AM_0
 10
525.06532155657169
 20
298.58370701580401
 30
0.0
 11
543.38702155657165
 21
298.58370701580401
 31
0.0
  0
LINE
  5
3180
  8
AM_0
 10
528.14612155657176
 20
314.119507015804
 30
0.0
 11
528.14612155657176
 21
300.46948201580398
 31
0.0
  0
LINE
  5
3181
  8
AM_0
 10
525.06532155657169
 20
315.70440701580401
 30
0.0
 11
542.84612155657157
 21
315.70440701580401
 31
0.0
  0
ARC
  5
3182
  8
AM_0
 10
611.14612155657176
 20
275.68273701580409
 30
0.0
 40
3.0000000500000001
 50
179.9999899999988
 51
270.0
  0
ARC
  5
3183
  8
AM_0
 10
615.14617155657163
 20
311.12387201580401
 30
0.0
 40
2.0000000500000001
 50
270.0
 51
0.0
  0
LINE
  5
3184
  8
AM_0
 10
610.14617155657186
 20
309.12387201580401
 30
0.0
 11
615.14617155657163
 21
309.12387201580401
 31
0.0
  0
ARC
  5
3185
  8
AM_0
 10
610.14617155657186
 20
307.12387201580401
 30
0.0
 40
2.0000000500000001
 50
90.00000299999769
 51
180.00001000000091
  0
LINE
  5
3186
  8
AM_0
 10
429.64612155657181
 20
360.62564201580398
 30
0.0
 11
451.6461715565718
 21
360.62564201580398
 31
0.0
  0
ARC
  5
3187
  8
AM_0
 10
429.64612155657181
 20
365.62564201580398
 30
0.0
 40
5.0
 50
179.9999899999988
 51
270.0
  0
ARC
  5
3188
  8
AM_0
 10
451.6461715565718
 20
357.62561201580399
 30
0.0
 40
3.0000000500000001
 50
0.0
 51
90.00000299999769
  0
LINE
  5
3189
  8
AM_0
 10
429.64612155657181
 20
445.7335820158039
 30
0.0
 11
451.6461715565718
 21
445.7335820158039
 31
0.0
  0
ARC
  5
318A
  8
AM_0
 10
429.64612155657181
 20
440.7335820158039
 30
0.0
 40
5.0
 50
90.00000299999769
 51
180.00001000000091
  0
ARC
  5
318B
  8
AM_0
 10
451.6461715565718
 20
448.73358201580402
 30
0.0
 40
3.0000000500000001
 50
270.0
 51
0.0
  0
ARC
  5
318C
  8
AM_0
 10
615.14617155657163
 20
349.08883701580402
 30
0.0
 40
2.0000000500000001
 50
270.0
 51
0.0
  0
LINE
  5
318D
  8
AM_0
 10
610.14617155657186
 20
347.08883701580402
 30
0.0
 11
615.14617155657163
 21
347.08883701580402
 31
0.0
  0
ARC
  5
318E
  8
AM_0
 10
615.14617155657163
 20
396.44595201580421
 30
0.0
 40
2.0000000500000001
 50
0.0
 51
90.00000299999769
  0
LINE
  5
318F
  8
AM_0
 10
609.86007155657205
 20
398.445922015804
 30
0.0
 11
615.14617155657163
 21
398.445922015804
 31
0.0
  0
ARC
  5
3190
  8
AM_0
 10
609.14617155657163
 20
399.74572701580399
 30
0.0
 40
1.0
 50
179.9999899999988
 51
224.44400000000189
  0
ARC
  5
3191
  8
AM_0
 10
609.86007155657205
 20
400.445922015804
 30
0.0
 40
2.0000000500000001
 50
188.8090000000013
 51
270.0
  0
ARC
  5
3192
  8
AM_0
 10
415.1461715565718
 20
537.95248701580431
 30
0.0
 40
10.0
 50
129.36932000000201
 51
180.00001000000091
  0
LINE
  5
3193
  8
AM_0
 10
376.40098155657159
 20
482.81970601580417
 30
0.0
 11
294.92261755657159
 21
485.6649930158041
 31
0.0
  0
LINE
  5
3194
  8
AM_0
 10
377.25081955657163
 20
493.39663101580391
 30
0.0
 11
294.04142255657172
 21
496.3023670158039
 31
0.0
  0
LINE
  5
3195
  8
AM_0
 10
381.14612155657159
 20
507.18274201580419
 30
0.0
 11
296.01523655657161
 21
509.41197201580388
 31
0.0
  0
ARC
  5
3196
  8
AM_0
 10
296.1461215565717
 20
514.41025901580394
 30
0.0
 40
5.0
 50
180.0
 51
268.4999999999971
  0
ARC
  5
3197
  8
AM_0
 10
294.1461215565717
 20
499.30053901580408
 30
0.0
 40
3.0
 50
180.0
 51
268.0000000000029
  0
LINE
  5
3198
  8
AM_0
 10
275.1461215565717
 20
534.68274201580402
 30
0.0
 11
288.1461215565717
 21
534.68274201580402
 31
0.0
  0
ARC
  5
3199
  8
AM_0
 10
288.1461215565717
 20
531.68274201580402
 30
0.0
 40
3.0
 50
0.0
 51
90.0
  0
ARC
  5
319A
  8
AM_0
 10
395.14617155657169
 20
517.67773701580404
 30
0.0
 40
10.0
 50
271.99999999999687
 51
0.0
  0
ARC
  5
319B
  8
AM_0
 10
377.14612155657159
 20
490.39845801580412
 30
0.0
 40
3.0
 50
0.0
 51
88.000000000002899
  0
LINE
  5
319C
  8
AM_0
 10
383.14612155657159
 20
492.98013701580419
 30
0.0
 11
405.1461715565718
 21
492.98013701580419
 31
0.0
  0
LINE
  5
319D
  8
AM_0
 10
383.14612155657159
 20
482.6889370158039
 30
0.0
 11
405.1461715565718
 21
482.6889370158039
 31
0.0
  0
LINE
  5
319E
  8
AM_0
 10
381.1461715565718
 20
507.18274201580391
 30
0.0
 11
395.49527155657171
 21
507.6838420158042
 31
0.0
  0
ARC
  5
319F
  8
AM_0
 10
439.64612155657159
 20
615.6827620158042
 30
0.0
 40
25.000000499999999
 50
306.46672000000012
 51
233.53329000000139
  0
CIRCLE
  5
31A0
  8
AM_0
 10
439.64612155657159
 20
615.6827620158042
 30
0.0
 40
15.0
  0
ARC
  5
31A1
  8
AM_0
 10
603.14612155657176
 20
624.7538120158041
 30
0.0
 40
5.0
 50
315.0
 51
0.0
  0
LINE
  5
31A2
  8
AM_0
 10
494.6461715565718
 20
589.6827620158042
 30
0.0
 11
573.32257155657157
 21
591.74296201580432
 31
0.0
  0
LINE
  5
31A3
  8
AM_0
 10
408.80297155657161
 20
545.6832120158042
 30
0.0
 11
420.98937155657171
 21
555.6823120158042
 31
0.0
  0
LINE
  5
31A4
  8
AM_0
 10
429.64612155657181
 20
482.90777701580419
 30
0.0
 11
451.6461715565718
 21
482.90777701580419
 31
0.0
  0
ARC
  5
31A5
  8
AM_0
 10
429.64612155657181
 20
487.90777701580407
 30
0.0
 40
5.0
 50
179.9999899999988
 51
270.0
  0
ARC
  5
31A6
  8
AM_0
 10
451.6461715565718
 20
479.90777701580402
 30
0.0
 40
3.0000000500000001
 50
0.0
 51
90.00000299999769
  0
LINE
  5
31A7
  8
AM_0
 10
429.47167155657172
 20
587.40681201580412
 30
0.0
 11
494.6461715565718
 21
589.6827620158042
 31
0.0
  0
LINE
  5
31A8
  8
AM_0
 10
429.64612155657181
 20
589.6827620158042
 30
0.0
 11
494.64612155657159
 21
589.6827620158042
 31
0.0
  0
ARC
  5
31A9
  8
AM_0
 10
429.64612155657181
 20
584.6827620158042
 30
0.0
 40
5.0
 50
90.00000299999769
 51
180.00001000000091
  0
ARC
  5
31AA
  8
AM_0
 10
429.64612155657181
 20
582.40986201580415
 30
0.0
 40
5.0
 50
91.999998000000545
 51
180.00001000000091
  0
LINE
  5
31AB
  8
AM_0
 10
429.64612155657181
 20
562.90101201580433
 30
0.0
 11
451.6461715565718
 21
562.90101201580433
 31
0.0
  0
LINE
  5
31AC
  8
AM_0
 10
429.64612155657181
 20
579.43031201580425
 30
0.0
 11
451.6461715565718
 21
579.43031201580425
 31
0.0
  0
ARC
  5
31AD
  8
AM_0
 10
414.64612155657159
 20
563.41296201580406
 30
0.0
 40
10.0
 50
309.36932000000201
 51
0.0
  0
ARC
  5
31AE
  8
AM_0
 10
429.64612155657181
 20
557.90101201580433
 30
0.0
 40
5.0
 50
90.00000299999769
 51
180.00001000000091
  0
ARC
  5
31AF
  8
AM_0
 10
429.64612155657181
 20
584.43031201580425
 30
0.0
 40
5.0
 50
179.9999899999988
 51
270.0
  0
LINE
  5
31B0
  8
AM_0
 10
454.64612155657181
 20
576.43031201580425
 30
0.0
 11
454.64612155657181
 21
565.90106201580386
 31
0.0
  0
ARC
  5
31B1
  8
AM_0
 10
451.6461715565718
 20
565.90106201580386
 30
0.0
 40
3.0000000500000001
 50
270.0
 51
0.0
  0
ARC
  5
31B2
  8
AM_0
 10
451.6461715565718
 20
576.43031201580425
 30
0.0
 40
3.0000000500000001
 50
0.0
 51
90.00000299999769
  0
LINE
  5
31B3
  8
AM_0
 10
430.1680215565716
 20
598.80371201580419
 30
0.0
 11
439.64612155657159
 21
600.68276201580386
 31
0.0
  0
LINE
  5
31B4
  8
AM_0
 10
429.8521215565716
 20
598.6827620158042
 30
0.0
 11
449.44022155657183
 21
598.6827620158042
 31
0.0
  0
LINE
  5
31B5
  8
AM_0
 10
426.93152155657168
 20
588.88166201580407
 30
0.0
 11
429.39667155657168
 21
598.08166201580434
 31
0.0
  0
ARC
  5
31B6
  8
AM_0
 10
430.36257155657182
 20
597.82286201580405
 30
0.0
 40
1.0
 50
101.213289999998
 51
164.99999000000179
  0
ARC
  5
31B7
  8
AM_0
 10
421.22112155657152
 20
590.75246201580399
 30
0.0
 40
6.0
 50
349.72994999999878
 51
53.533291000002919
  0
ARC
  5
31B8
  8
AM_0
 10
448.92977155657161
 20
597.82286201580405
 30
0.0
 40
1.0
 50
15.000000000000741
 51
78.786710000001847
  0
LINE
  5
31B9
  8
AM_0
 10
439.64617155657191
 20
600.68276201580386
 30
0.0
 11
449.12422155657168
 21
598.80371201580419
 31
0.0
  0
LINE
  5
31BA
  8
AM_0
 10
452.14612155657159
 20
589.6827620158042
 30
0.0
 11
449.89562155657171
 21
598.08166201580434
 31
0.0
  0
ARC
  5
31BB
  8
AM_0
 10
458.07117155657153
 20
590.75246201580399
 30
0.0
 40
6.0
 50
126.46669999999671
 51
190.27005999999909
  0
ARC
  5
31BC
  8
AM_0
 10
615.14617155657163
 20
541.95411201580418
 30
0.0
 40
2.0000000500000001
 50
0.0
 51
90.00000299999769
  0
LINE
  5
31BD
  8
AM_0
 10
608.14612155657176
 20
543.95411201580407
 30
0.0
 11
615.14617155657163
 21
543.95411201580407
 31
0.0
  0
LINE
  5
31BE
  8
AM_0
 10
605.7783715565713
 20
598.39531201580405
 30
0.0
 11
549.51392155657163
 21
563.55701201580416
 31
0.0
  0
LINE
  5
31BF
  8
AM_0
 10
605.77832155657165
 20
586.42986201580425
 30
0.0
 11
550.84132155657187
 21
552.41341201580406
 31
0.0
  0
LINE
  5
31C0
  8
AM_0
 10
552.14612155657176
 20
550.12536201580394
 30
0.0
 11
582.9864715565717
 21
550.12536201580394
 31
0.0
  0
ARC
  5
31C1
  8
AM_0
 10
573.06082155657202
 20
601.73951201580417
 30
0.0
 40
10.0
 50
271.50000000000261
 51
315.0
  0
ARC
  5
31C2
  8
AM_0
 10
552.14612155657176
 20
559.30591201580432
 30
0.0
 40
5.0
 50
121.7653600000025
 51
180.00001000000091
  0
ARC
  5
31C3
  8
AM_0
 10
552.14612155657176
 20
555.12536201580417
 30
0.0
 40
5.0
 50
179.9999899999988
 51
270.0
  0
LINE
  5
31C4
  8
AM_0
 10
547.14612155657176
 20
559.30591201580432
 30
0.0
 11
547.14612155657176
 21
555.12536201580417
 31
0.0
  0
LINE
  5
31C5
  8
AM_0
 10
578.05902155657145
 20
592.59566201580412
 30
0.0
 11
579.66592155657167
 21
582.22676201580418
 31
0.0
  0
LINE
  5
31C6
  8
AM_0
 10
608.14612155657176
 20
567.58946201580397
 30
0.0
 11
585.96832155657205
 21
551.11196201580424
 31
0.0
  0
ARC
  5
31C7
  8
AM_0
 10
582.9864715565717
 20
555.12536201580417
 30
0.0
 40
5.0
 50
270.0
 51
306.61150000000112
  0
LINE
  5
31C8
  8
AM_0
 10
580.13192155657157
 20
594.66846201580438
 30
0.0
 11
606.68172155657192
 21
621.21826201580393
 31
0.0
  0
ARC
  5
31C9
  8
AM_0
 10
603.14612155657176
 20
602.64636201580413
 30
0.0
 40
5.0
 50
301.76536999999718
 51
0.0
  0
ARC
  5
31CA
  8
AM_0
 10
615.14617155657163
 20
604.2416620158042
 30
0.0
 40
2.0000000500000001
 50
0.0
 51
90.00000299999769
  0
ARC
  5
31CB
  8
AM_0
 10
610.14617155657186
 20
608.2416620158042
 30
0.0
 40
2.0000000500000001
 50
179.9999899999988
 51
270.0
  0
LINE
  5
31CC
  8
AM_0
 10
610.14617155657186
 20
606.2416620158042
 30
0.0
 11
615.14617155657163
 21
606.2416620158042
 31
0.0
  0
ARC
  5
31CD
  8
AM_0
 10
611.14612155657176
 20
639.6827620158042
 30
0.0
 40
3.0000000500000001
 50
90.00000299999769
 51
180.00001000000091
  0
ARC
  5
31CE
  8
AM_0
 10
1066.3052169197181
 20
457.68274201580391
 30
0.0
 40
155.0
 50
90.00000299999769
 51
270.0
  0
ARC
  5
31CF
  8
AM_0
 10
1066.3052169197181
 20
457.68274201580391
 30
0.0
 40
65.0
 50
270.0
 51
90.00000299999769
  0
ARC
  5
31D0
  8
AM_0
 10
1066.3052169197181
 20
457.68274201580391
 30
0.0
 40
155.0
 50
270.0
 51
90.00000299999769
  0
ARC
  5
31D1
  8
AM_0
 10
1066.3052169197181
 20
457.68274201580391
 30
0.0
 40
65.0
 50
90.00000299999769
 51
270.0
  0
ARC
  5
31D2
  8
AM_0
 10
1066.3052169197181
 20
457.68274201580391
 30
0.0
 40
146.0
 50
90.00000299999769
 51
270.0
  0
ARC
  5
31D3
  8
AM_0
 10
1066.3052169197181
 20
457.68274201580391
 30
0.0
 40
146.0
 50
270.0
 51
90.00000299999769
  0
ARC
  5
31D4
  8
AM_0
 10
1066.3052169197181
 20
457.68274201580391
 30
0.0
 40
82.0
 50
0.0
 51
35.405932000002579
  0
ARC
  5
31D5
  8
AM_0
 10
1066.3052169197181
 20
457.68274201580391
 30
0.0
 40
82.0
 50
144.59407000000161
 51
180.00001000000091
  0
LINE
  5
31D6
  8
AM_0
 10
881.30521691971853
 20
617.6827620158042
 30
0.0
 11
881.30521691971853
 21
297.68273701580398
 31
0.0
  0
LINE
  5
31D7
  8
ﾁｭｳｼﾝｾﾝ
 10
1066.3052169197181
 20
650.8530120158041
 30
0.0
 11
1066.3052169197181
 21
228.77401701580411
 31
0.0
  0
LINE
  5
31D8
  8
AM_0
 10
1251.3051969197179
 20
617.6827620158042
 30
0.0
 11
1251.3051969197179
 21
297.68273701580398
 31
0.0
  0
LINE
  5
31D9
  8
AM_0
 10
633.14612155657176
 20
642.68281201580419
 30
0.0
 11
633.14612155657176
 21
272.68273701580398
 31
0.0
  0
LINE
  5
31DA
  8
AM_0
 10
638.14612155657176
 20
302.68273701580398
 30
0.0
 11
638.14612155657176
 21
612.68276201580397
 31
0.0
  0
LINE
  5
31DB
  8
AM_0
 10
643.14612155657176
 20
490.18274201580391
 30
0.0
 11
643.14612155657176
 21
425.18274201580408
 31
0.0
  0
LINE
  5
31DC
  8
AM_0
 10
748.14612155657153
 20
491.68277201580418
 30
0.0
 11
748.14612155657153
 21
427.68274201580391
 31
0.0
  0
LINE
  5
31DD
  8
AM_0
 10
924.95673691971831
 20
437.81643701580413
 30
0.0
 11
933.21167691971834
 21
484.63260201580403
 31
0.0
  0
ARC
  5
31DE
  8
AM_0
 10
1066.3052169197181
 20
457.68274201580391
 30
0.0
 40
30.000000499999999
 50
107.45760000000089
 51
72.542383999997952
  0
LINE
  5
31DF
  8
AM_0
 10
1207.6536369197181
 20
437.81646701580411
 30
0.0
 11
1199.3987119197179
 21
484.63257201580399
 31
0.0
  0
LINE
  5
31E0
  8
AM_0
 10
1003.805216919718
 20
233.58975201580409
 30
0.0
 11
1128.8052019197171
 21
233.58975201580409
 31
0.0
  0
LINE
  5
31E1
  8
ﾁｭｳｼﾝｾﾝ
 10
868.56910191971815
 20
457.68274201580391
 30
0.0
 11
1265.737221919718
 21
457.68274201580391
 31
0.0
  0
LINE
  5
31E2
  8
AM_0
 10
1226.305201919718
 20
272.68273701580392
 30
0.0
 11
906.3052169197183
 21
272.68273701580392
 31
0.0
  0
LINE
  5
31E3
  8
ﾁｭｳｼﾝｾﾝ
 10
1148.3051869197179
 20
409.68274201580408
 30
0.0
 11
984.30518691971872
 21
409.68274201580408
 31
0.0
  0
ARC
  5
31E4
  8
ﾁｭｳｼﾝｾﾝ1
 10
1066.3052169197181
 20
457.68274201580391
 30
0.0
 40
225.00000499999999
 50
219.5229799999978
 51
230.4770199999999
  0
CIRCLE
  5
31E5
  8
AM_0
 10
907.2061569197183
 20
298.58370701580401
 30
0.0
 40
12.0
  0
LINE
  5
31E6
  8
ﾁｭｳｼﾝｾﾝ1
 10
892.00336691971881
 20
283.38091701580402
 30
0.0
 11
922.40897691971827
 21
313.7865270158041
 31
0.0
  0
ARC
  5
31E7
  8
AM_0
 10
906.3052169197183
 20
297.68273701580398
 30
0.0
 40
25.000000499999999
 50
179.9999899999988
 51
270.0
  0
LINE
  5
31E8
  8
AM_0
 10
633.14612155657176
 20
302.68273701580398
 30
0.0
 11
638.14612155657176
 21
302.68273701580398
 31
0.0
  0
LINE
  5
31E9
  8
AM_0
 10
643.14612155657176
 20
427.68274201580391
 30
0.0
 11
748.14612155657153
 21
427.68274201580391
 31
0.0
  0
LINE
  5
31EA
  8
AM_0
 10
638.14612155657176
 20
425.18274201580408
 30
0.0
 11
643.14612155657176
 21
425.18274201580408
 31
0.0
  0
LINE
  5
31EB
  8
AM_0
 10
995.57383191971871
 20
236.24345201580411
 30
0.0
 11
959.94910691971825
 21
261.87797201580412
 31
0.0
  0
ARC
  5
31EC
  8
AM_0
 10
1003.805216919718
 20
247.68273701580381
 30
0.0
 40
14.092999499999999
 50
234.26227999999759
 51
270.0
  0
ARC
  5
31ED
  8
AM_0
 10
1066.3052169197181
 20
409.68274201580408
 30
0.0
 40
182.0929899999999
 50
228.7954700000013
 51
234.26227999999759
  0
LINE
  5
31EE
  8
AM_0
 10
926.10535691971836
 20
437.68274201580408
 30
0.0
 11
974.30518691971827
 21
437.68274201580408
 31
0.0
  0
ARC
  5
31EF
  8
AM_0
 10
926.10535691971836
 20
442.68274201580408
 30
0.0
 40
5.0
 50
186.10685000000109
 51
270.0
  0
ARC
  5
31F0
  8
AM_0
 10
974.30518691971827
 20
447.68274201580402
 30
0.0
 40
10.0
 50
270.0
 51
0.0
  0
LINE
  5
31F1
  8
AM_0
 10
984.30518691971872
 20
457.68274201580391
 30
0.0
 11
984.30518691971872
 21
447.68274201580402
 31
0.0
  0
CIRCLE
  5
31F2
  8
AM_0
 10
1066.3052169197181
 20
457.68274201580391
 30
0.0
 40
4.500000049999997
  0
CIRCLE
  5
31F3
  8
AM_5
 10
1066.3052169197181
 20
457.68274201580391
 30
0.0
 40
6.0
  0
ARC
  5
31F4
  8
AM_0
 10
1226.305201919718
 20
297.68273701580398
 30
0.0
 40
25.000000499999999
 50
270.0
 51
0.0
  0
CIRCLE
  5
31F5
  8
AM_0
 10
1225.404216919718
 20
298.58370701580401
 30
0.0
 40
12.0
  0
LINE
  5
31F6
  8
AM_0
 10
1137.036586919718
 20
236.24345201580411
 30
0.0
 11
1172.6613119197179
 21
261.87798701580391
 31
0.0
  0
ARC
  5
31F7
  8
AM_0
 10
1128.8052019197171
 20
247.68273701580381
 30
0.0
 40
14.092999499999999
 50
270.0
 51
305.73772000000218
  0
ARC
  5
31F8
  8
AM_0
 10
1066.3052169197181
 20
409.68274201580408
 30
0.0
 40
182.0929899999999
 50
305.73772000000218
 51
311.20452999999861
  0
LINE
  5
31F9
  8
AM_0
 10
1206.5050619197179
 20
437.68274201580408
 30
0.0
 11
1158.3051869197179
 21
437.68274201580408
 31
0.0
  0
ARC
  5
31FA
  8
AM_0
 10
1158.3051869197179
 20
447.68274201580402
 30
0.0
 40
10.0
 50
179.9999899999988
 51
270.0
  0
LINE
  5
31FB
  8
AM_0
 10
1148.3051869197179
 20
457.68274201580391
 30
0.0
 11
1148.3051869197179
 21
447.68274201580402
 31
0.0
  0
ARC
  5
31FC
  8
AM_0
 10
1206.5050619197179
 20
442.68274201580408
 30
0.0
 40
5.0
 50
270.0
 51
353.89314999999868
  0
ARC
  5
31FD
  8
AM_0
 10
1118.4481019197181
 20
531.03885201580385
 30
0.0
 40
8.0
 50
234.5940699999997
 51
315.0
  0
LINE
  5
31FE
  8
AM_0
 10
906.3052169197183
 20
642.68281201580419
 30
0.0
 11
1226.305201919718
 21
642.68281201580419
 31
0.0
  0
CIRCLE
  5
31FF
  8
AM_0
 10
907.2061569197183
 20
616.78181201580412
 30
0.0
 40
12.0
  0
ARC
  5
3200
  8
AM_0
 10
906.3052169197183
 20
617.6827620158042
 30
0.0
 40
25.000000499999999
 50
90.00000299999769
 51
180.00001000000091
  0
LINE
  5
3201
  8
AM_0
 10
667.14612155657176
 20
491.68277201580418
 30
0.0
 11
748.14612155657153
 21
491.68277201580418
 31
0.0
  0
LINE
  5
3202
  8
AM_0
 10
643.14612155657176
 20
487.68274201580408
 30
0.0
 11
748.14612155657153
 21
487.68274201580408
 31
0.0
  0
LINE
  5
3203
  8
AM_0
 10
638.14612155657176
 20
490.18274201580391
 30
0.0
 11
643.14612155657176
 21
490.18274201580391
 31
0.0
  0
LINE
  5
3204
  8
AM_0
 10
667.14612155657176
 20
491.68277201580418
 30
0.0
 11
667.14612155657176
 21
487.68274201580408
 31
0.0
  0
LINE
  5
3205
  8
AM_0
 10
633.14612155657176
 20
612.68276201580397
 30
0.0
 11
638.14612155657176
 21
612.68276201580397
 31
0.0
  0
LINE
  5
3206
  8
AM_0
 10
1008.505411919718
 20
525.38202201580418
 30
0.0
 11
974.25239191971821
 21
559.63506201580435
 31
0.0
  0
ARC
  5
3207
  8
AM_0
 10
1043.5101719197171
 20
465.18396201580418
 30
0.0
 40
112.0
 50
133.04830999999911
 51
169.9999899999988
  0
ARC
  5
3208
  8
AM_0
 10
958.69602191971819
 20
544.07876201580405
 30
0.0
 40
8.0
 50
45.00000100000149
 51
141.24012999999741
  0
LINE
  5
3209
  8
AM_0
 10
998.60593691971849
 20
515.48251701580421
 30
0.0
 11
964.35288191971836
 21
549.73556201580425
 31
0.0
  0
ARC
  5
320A
  8
AM_0
 10
992.94910691971813
 20
509.8256570158041
 30
0.0
 40
8.0
 50
324.59407000000141
 51
45.00000100000149
  0
ARC
  5
320B
  8
AM_0
 10
1066.3052169197181
 20
409.68274201580459
 30
0.0
 40
172.0000049999999
 50
58.770287999993592
 51
121.2297100000055
  0
ARC
  5
320C
  8
AM_0
 10
979.90922191971822
 20
565.2919120158042
 30
0.0
 40
8.0
 50
128.7598699999979
 51
225.0
  0
LINE
  5
320D
  8
AM_0
 10
1057.3051869197179
 20
491.68277201580418
 30
0.0
 11
1075.3052169197181
 21
491.68277201580418
 31
0.0
  0
LINE
  5
320E
  8
AM_0
 10
1057.3051869197179
 20
480.68274201580402
 30
0.0
 11
1075.3052169197181
 21
480.68274201580402
 31
0.0
  0
ARC
  5
320F
  8
AM_0
 10
1066.3052169197181
 20
457.68274201580391
 30
0.0
 40
82.0
 50
54.59406699999721
 51
125.4059300000001
  0
LINE
  5
3210
  8
AM_0
 10
1057.3051869197179
 20
491.68277201580418
 30
0.0
 11
1057.3051869197179
 21
480.68274201580402
 31
0.0
  0
ARC
  5
3211
  8
AM_0
 10
1014.1623019197179
 20
531.03885201580385
 30
0.0
 40
8.0
 50
225.0
 51
305.4059300000003
  0
LINE
  5
3212
  8
AM_0
 10
1075.3052169197181
 20
491.68277201580418
 30
0.0
 11
1075.3052169197181
 21
480.68274201580402
 31
0.0
  0
ARC
  5
3213
  8
AM_0
 10
1226.305201919718
 20
617.6827620158042
 30
0.0
 40
25.000000499999999
 50
0.0
 51
90.00000299999769
  0
CIRCLE
  5
3214
  8
AM_0
 10
1225.404216919718
 20
616.78181201580412
 30
0.0
 40
12.0
  0
ARC
  5
3215
  8
ﾁｭｳｼﾝｾﾝ1
 10
1066.3052169197181
 20
457.68274201580391
 30
0.0
 40
225.00000499999999
 50
38.696152999996329
 51
50.477014000003599
  0
LINE
  5
3216
  8
ﾁｭｳｼﾝｾﾝ1
 10
1240.6070069197181
 20
631.98456201580393
 30
0.0
 11
1209.526583365955
 21
600.90415138102685
 31
0.0
  0
ARC
  5
3217
  8
AM_0
 10
1089.100231919718
 20
465.18396201580418
 30
0.0
 40
112.0
 50
9.9999996999983765
 51
46.951682999999022
  0
ARC
  5
3218
  8
AM_0
 10
1173.914381919717
 20
544.07876201580405
 30
0.0
 40
8.0
 50
38.7598690000017
 51
135.0
  0
LINE
  5
3219
  8
AM_0
 10
1124.104946919718
 20
525.38199201580426
 30
0.0
 11
1158.358026919718
 21
559.63506201580435
 31
0.0
  0
LINE
  5
321A
  8
AM_0
 10
1134.0044519197179
 20
515.48248701580405
 30
0.0
 11
1168.257536919717
 21
549.73556201580425
 31
0.0
  0
ARC
  5
321B
  8
AM_0
 10
1139.6612969197181
 20
509.8256570158041
 30
0.0
 40
8.0
 50
135.0
 51
215.40592999999831
  0
ARC
  5
321C
  8
AM_0
 10
1152.7011669197179
 20
565.2919120158042
 30
0.0
 40
8.0
 50
315.0
 51
51.240130000002033
  0
LINE
  5
321D
  8
AM_0
 10
291.14616155657183
 20
813.64174458668356
 30
0.0
 11
291.14616155657183
 21
935.6417445866831
 31
0.0
  0
LINE
  5
321E
  8
AM_0
 10
275.14616155657183
 20
810.64174458668333
 30
0.0
 11
275.14616155657183
 21
1060.641744586683
 31
0.0
  0
LINE
  5
321F
  8
AM_0
 10
294.14616155657183
 20
878.86595558668364
 30
0.0
 11
380.14616155657188
 21
878.86595558668364
 31
0.0
  0
ARC
  5
3220
  8
AM_0
 10
377.14616155657183
 20
854.92602758668374
 30
0.0
 40
3.0
 50
271.99999999999687
 51
0.0
  0
LINE
  5
3221
  8
AM_0
 10
381.14616155657183
 20
838.14174458668344
 30
0.0
 11
296.01527655657168
 21
835.91251358668308
 31
0.0
  0
LINE
  5
3222
  8
AM_0
 10
376.40102155657172
 20
862.50477958668353
 30
0.0
 11
294.92265755657172
 21
859.65949258668354
 31
0.0
  0
LINE
  5
3223
  8
AM_0
 10
377.25085955657158
 20
851.92785458668345
 30
0.0
 11
294.04146255657167
 21
849.0221185866834
 31
0.0
  0
ARC
  5
3224
  8
AM_0
 10
296.14616155657183
 20
830.91422658668353
 30
0.0
 40
5.0
 50
91.499999999996206
 51
180.0
  0
ARC
  5
3225
  8
AM_0
 10
294.14616155657183
 20
846.02394658668322
 30
0.0
 40
3.0
 50
91.999999999997087
 51
180.0
  0
ARC
  5
3226
  8
AM_0
 10
294.14616155657183
 20
875.86595558668307
 30
0.0
 40
3.0
 50
90.0
 51
180.0
  0
LINE
  5
3227
  8
AM_0
 10
380.14616155657188
 20
854.92602758668374
 30
0.0
 11
380.14616155657188
 21
878.86595558668364
 31
0.0
  0
LINE
  5
3228
  8
AM_0
 10
378.22804755657211
 20
838.14174458668344
 30
0.0
 11
381.14616155657183
 21
838.14174458668344
 31
0.0
  0
ARC
  5
3229
  8
AM_0
 10
377.14616155657183
 20
1016.357460586683
 30
0.0
 40
3.0
 50
0.0
 51
88.000000000002899
  0
LINE
  5
322A
  8
AM_0
 10
381.14616155657183
 20
1033.141744586683
 30
0.0
 11
296.01527655657168
 21
1035.370974586682
 31
0.0
  0
LINE
  5
322B
  8
AM_0
 10
294.14616155657183
 20
992.41753258668348
 30
0.0
 11
380.14616155657188
 21
992.41753258668348
 31
0.0
  0
LINE
  5
322C
  8
AM_0
 10
291.14616155657183
 20
1057.641744586683
 30
0.0
 11
291.14616155657183
 21
935.6417445866831
 31
0.0
  0
ARC
  5
322D
  8
AM_0
 10
294.14616155657183
 20
995.41753258668359
 30
0.0
 40
3.0
 50
180.0
 51
270.0
  0
LINE
  5
322E
  8
AM_0
 10
377.25085955657158
 20
1019.355633586683
 30
0.0
 11
294.04146255657167
 21
1022.261369586683
 31
0.0
  0
LINE
  5
322F
  8
AM_0
 10
376.40102155657172
 20
1008.778708586683
 30
0.0
 11
294.92265755657172
 21
1011.623995586683
 31
0.0
  0
ARC
  5
3230
  8
AM_0
 10
296.14616155657183
 20
1040.369261586683
 30
0.0
 40
5.0
 50
180.0
 51
268.4999999999971
  0
ARC
  5
3231
  8
AM_0
 10
294.14616155657183
 20
1025.2595415866831
 30
0.0
 40
3.0
 50
180.0
 51
268.0000000000029
  0
LINE
  5
3232
  8
AM_0
 10
275.14616155657183
 20
1060.641744586683
 30
0.0
 11
288.14616155657183
 21
1060.641744586683
 31
0.0
  0
ARC
  5
3233
  8
AM_0
 10
288.14616155657183
 20
1057.641744586683
 30
0.0
 40
3.0
 50
0.0
 51
90.0
  0
LINE
  5
3234
  8
AM_0
 10
380.14616155657188
 20
1016.357460586683
 30
0.0
 11
380.14616155657188
 21
992.41753258668348
 31
0.0
  0
LINE
  5
3235
  8
AM_0
 10
275.14616155657183
 20
810.64174458668333
 30
0.0
 11
288.14616155657183
 21
810.64174458668333
 31
0.0
  0
ARC
  5
3236
  8
AM_0
 10
288.14616155657183
 20
813.64174458668356
 30
0.0
 40
3.0
 50
270.0
 51
0.0
  0
ARC
  5
3237
  8
ﾁｭｳｼﾝｾﾝ1
 10
1066.3052169197181
 20
457.68274201580391
 30
0.0
 40
225.00000499999999
 50
129.52298599999631
 51
141.3038470000036
  0
LINE
  5
3238
  8
ﾁｭｳｼﾝｾﾝ1
 10
892.00342691971832
 20
631.98456201580393
 30
0.0
 11
923.0838504734819
 21
600.90415138102685
 31
0.0
  0
ARC
  5
3239
  8
ﾁｭｳｼﾝｾﾝ1
 10
1066.3052169197181
 20
457.68274201580391
 30
0.0
 40
225.00000499999999
 50
309.52298000000002
 51
320.47702000000208
  0
LINE
  5
323A
  8
ﾁｭｳｼﾝｾﾝ1
 10
1240.6070669197179
 20
283.38091701580402
 30
0.0
 11
1210.2014569197181
 21
313.7865270158041
 31
0.0
  0
TEXT
  5
3418
  8
AM_0
 10
929.77654227096855
 20
995.155004584577
 30
0.0
 40
20.0
  1
VX37-080AF~VX37-120AF
  0
ENDSEC
  0
EOF
