  0
SECTION
  2
HEADER
  9
$ACADVER
  1
AC1009
  9
$INSBASE
 10
0.0
 20
0.0
 30
0.0
  9
$EXTMIN
 10
298.3004415865293
 20
256.96263058717091
 30
-0.0000000000112498
  9
$EXTMAX
 10
1262.6814682748879
 20
1007.5587278278761
 30
0.0000000000002956
  9
$LIMMIN
 10
0.0
 20
0.0
  9
$LIMMAX
 10
1422.5
 20
925.0
  9
$ORTHOMODE
 70
     0
  9
$REGENMODE
 70
     1
  9
$FILLMODE
 70
     1
  9
$QTEXTMODE
 70
     0
  9
$MIRRTEXT
 70
     1
  9
$DRAGMODE
 70
     2
  9
$LTSCALE
 40
5.0
  9
$OSMODE
 70
   551
  9
$ATTMODE
 70
     1
  9
$TEXTSIZE
 40
2.5
  9
$TRACEWID
 40
1.0
  9
$TEXTSTYLE
  7
STANDARD
  9
$CLAYER
  8
AM_0
  9
$CELTYPE
  6
BYLAYER
  9
$CECOLOR
 62
   256
  9
$DIMSCALE
 40
1.0
  9
$DIMASZ
 40
2.5
  9
$DIMEXO
 40
1.0
  9
$DIMDLI
 40
8.0
  9
$DIMRND
 40
0.0
  9
$DIMDLE
 40
0.0
  9
$DIMEXE
 40
0.6
  9
$DIMTP
 40
0.1
  9
$DIMTM
 40
0.1
  9
$DIMTXT
 40
2.5
  9
$DIMCEN
 40
0.0
  9
$DIMTSZ
 40
0.0
  9
$DIMTOL
 70
     0
  9
$DIMLIM
 70
     0
  9
$DIMTIH
 70
     0
  9
$DIMTOH
 70
     0
  9
$DIMSE1
 70
     0
  9
$DIMSE2
 70
     0
  9
$DIMTAD
 70
     1
  9
$DIMZIN
 70
     8
  9
$DIMBLK
  1

  9
$DIMASO
 70
     1
  9
$DIMSHO
 70
     1
  9
$DIMPOST
  1

  9
$DIMAPOST
  1
"
  9
$DIMALT
 70
     0
  9
$DIMALTD
 70
     2
  9
$DIMALTF
 40
0.0393701
  9
$DIMLFAC
 40
1.0
  9
$DIMTOFL
 70
     1
  9
$DIMTVP
 40
0.0
  9
$DIMTIX
 70
     0
  9
$DIMSOXD
 70
     0
  9
$DIMSAH
 70
     0
  9
$DIMBLK1
  1

  9
$DIMBLK2
  1

  9
$DIMSTYLE
  2
AM_ISO
  9
$DIMCLRD
 70
   256
  9
$DIMCLRE
 70
   256
  9
$DIMCLRT
 70
     4
  9
$DIMTFAC
 40
0.71
  9
$DIMGAP
 40
0.8
  9
$LUNITS
 70
     2
  9
$LUPREC
 70
     2
  9
$SKETCHINC
 40
1.0
  9
$FILLETRAD
 40
25.0
  9
$AUNITS
 70
     0
  9
$AUPREC
 70
     0
  9
$MENU
  1
.
  9
$ELEVATION
 40
0.0
  9
$PELEVATION
 40
0.0
  9
$THICKNESS
 40
0.0
  9
$LIMCHECK
 70
     0
  9
$BLIPMODE
 70
     0
  9
$CHAMFERA
 40
10.0
  9
$CHAMFERB
 40
5.0
  9
$SKPOLY
 70
     0
  9
$TDCREATE
 40
2452066.7678694562
  9
$TDUPDATE
 40
2458541.5575467939
  9
$TDINDWG
 40
0.1122701273
  9
$TDUSRTIMER
 40
0.1122697569
  9
$USRTIMER
 70
     1
  9
$ANGBASE
 50
0.0
  9
$ANGDIR
 70
     0
  9
$PDMODE
 70
     0
  9
$PDSIZE
 40
0.0
  9
$PLINEWID
 40
0.0
  9
$COORDS
 70
     1
  9
$SPLFRAME
 70
     0
  9
$SPLINETYPE
 70
     6
  9
$SPLINESEGS
 70
     8
  9
$ATTDIA
 70
     1
  9
$ATTREQ
 70
     1
  9
$HANDLING
 70
     1
  9
$HANDSEED
  5
3895
  9
$SURFTAB1
 70
     6
  9
$SURFTAB2
 70
     6
  9
$SURFTYPE
 70
     6
  9
$SURFU
 70
     6
  9
$SURFV
 70
     6
  9
$UCSNAME
  2

  9
$UCSORG
 10
0.0
 20
0.0
 30
0.0
  9
$UCSXDIR
 10
1.0
 20
0.0
 30
0.0
  9
$UCSYDIR
 10
0.0
 20
1.0
 30
0.0
  9
$PUCSNAME
  2

  9
$PUCSORG
 10
0.0
 20
0.0
 30
0.0
  9
$PUCSXDIR
 10
1.0
 20
0.0
 30
0.0
  9
$PUCSYDIR
 10
0.0
 20
1.0
 30
0.0
  9
$USERI1
 70
     0
  9
$USERI2
 70
     0
  9
$USERI3
 70
     0
  9
$USERI4
 70
     0
  9
$USERI5
 70
     0
  9
$USERR1
 40
0.0
  9
$USERR2
 40
0.0
  9
$USERR3
 40
0.0
  9
$USERR4
 40
0.0
  9
$USERR5
 40
0.0
  9
$WORLDVIEW
 70
     1
  9
$SHADEDGE
 70
     3
  9
$SHADEDIF
 70
    70
  9
$TILEMODE
 70
     1
  9
$MAXACTVP
 70
    64
  9
$PLIMCHECK
 70
     0
  9
$PEXTMIN
 10
1.0000000000000000E+020
 20
1.0000000000000000E+020
 30
1.0000000000000000E+020
  9
$PEXTMAX
 10
-1.0000000000000000E+020
 20
-1.0000000000000000E+020
 30
-1.0000000000000000E+020
  9
$PLIMMIN
 10
0.0
 20
0.0
  9
$PLIMMAX
 10
420.0
 20
297.0
  9
$UNITMODE
 70
     0
  9
$VISRETAIN
 70
     1
  9
$PLINEGEN
 70
     0
  9
$PSLTSCALE
 70
     1
  0
ENDSEC
  0
SECTION
  2
TABLES
  0
TABLE
  2
VPORT
 70
     1
  0
VPORT
  2
*ACTIVE
 70
     0
 10
0.0
 20
0.0
 11
1.0
 21
1.0
 12
780.49095493070888
 22
632.26067920752348
 13
0.0
 23
0.0
 14
12.5
 24
12.5
 15
50.0
 25
50.0
 16
0.0
 26
0.0
 36
1.0
 17
0.0
 27
0.0
 37
0.0
 40
755.74893086020666
 41
1.7571592210767459
 42
50.0
 43
0.0
 44
0.0
 50
0.0
 51
0.0
 71
     0
 72
   100
 73
     1
 74
     3
 75
     0
 76
     0
 77
     0
 78
     0
  0
ENDTAB
  0
TABLE
  2
LTYPE
 70
    26
  0
LTYPE
  2
CONTINUOUS
 70
     0
  3
Solid line
 72
    65
 73
     0
 40
0.0
  0
LTYPE
  2
AM_ISO02W050
 70
     0
  3
__ __ __ __ __ __ __ __ __ __ __ __ __ __ __
 72
    65
 73
     2
 40
7.5
 49
6.0
 49
-1.5
  0
LTYPE
  2
AM_ISO08W050
 70
     0
  3
____ . ____ . ____ . ____ . ____ . ____ . ____
 72
    65
 73
     4
 40
18.0
 49
12.0
 49
-1.5
 49
3.0
 49
-1.5
  0
LTYPE
  2
AM_ISO09W050
 70
     0
  3
_____ . . _____ . . _____ . . ____ .. ____
 72
    65
 73
     6
 40
22.5
 49
12.0
 49
-1.5
 49
3.0
 49
-1.5
 49
3.0
 49
-1.5
  0
LTYPE
  2
AMCONSTR
 70
     0
  3
_______________________
 72
    65
 73
     2
 40
9999.0
 49
9999.0
 49
0.0
  0
LTYPE
  2
AM_ISO08W050X2
 70
     0
  3
__ . __ . __ . __ . __ . __
 72
    65
 73
     4
 40
9.0
 49
6.0
 49
-0.75
 49
1.5
 49
-0.75
  0
LTYPE
  2
AM_ISO02W050X2
 70
     0
  3
 _ _ _ _ _ _ _ _ _ _ _ _
 72
    65
 73
     2
 40
3.75
 49
3.0
 49
-0.75
  0
LTYPE
  2
AMZIGZAG
 70
     0
  3
/\/-/\/-/\/-/\/-/\/-/\/
 72
    65
 73
     2
 40
11.000099999999991
 49
0.0001
 49
-11.0
  0
LTYPE
  2
ACISOWELD
 70
     0
  3
_ _ _ _ _
 72
    65
 73
     2
 40
2.0
 49
2.0
 49
-1.0
  0
LTYPE
  2
ACISOTGB
 70
     0
  3
__ . . __ . .
 72
    65
 73
     6
 40
9.0
 49
4.0
 49
-1.0
 49
1.0
 49
-1.0
 49
1.0
 49
-1.0
  0
LTYPE
  2
ACISOTGL
 70
     0
  3
_ _ _ _ _
 72
    65
 73
     2
 40
3.0
 49
2.0
 49
-1.0
  0
LTYPE
  2
CENTER
 70
     0
  3
__ . __
 72
    65
 73
     4
 40
7.0
 49
4.0
 49
-1.0
 49
1.0
 49
-1.0
  0
LTYPE
  2
PHANTOM2
 70
     0
  3
Phantom (.5x) ___ _ _ ___ _ _ ___ _ _ ___ _ _
 72
    65
 73
     6
 40
31.75
 49
15.875
 49
-3.174999999999998
 49
3.174999999999998
 49
-3.174999999999998
 49
3.174999999999998
 49
-3.174999999999998
  0
LTYPE
  2
ACANSTGBM
 70
     0
  3
__ . . __ . .
 72
    65
 73
     6
 40
9.0
 49
4.0
 49
-1.0
 49
1.0
 49
-1.0
 49
1.0
 49
-1.0
  0
LTYPE
  2
ACANSTGLM
 70
     0
  3
_ _ _ _ _
 72
    65
 73
     2
 40
3.0
 49
2.0
 49
-1.0
  0
LTYPE
  2
GEN7
 70
     0
  3
____ . ____ . ____ . ____ . ____ . ____ . ____
 72
    65
 73
     4
 40
14.25
 49
9.75
 49
-1.5
 49
1.5
 49
-1.5
  0
LTYPE
  2
GEN7A
 70
     0
  3
__ . __ . __
 72
    65
 73
     4
 40
7.375
 49
4.75
 49
-0.875
 49
0.875
 49
-0.875
  0
LTYPE
  2
ACJISTGB
 70
     0
  3
__ . . __ . .
 72
    65
 73
     6
 40
9.0
 49
4.0
 49
-1.0
 49
1.0
 49
-1.0
 49
1.0
 49
-1.0
  0
LTYPE
  2
ACJISTGL
 70
     0
  3
_ _ _ _ _
 72
    65
 73
     2
 40
3.0
 49
2.0
 49
-1.0
  0
LTYPE
  2
HIDDEN
 70
     0
  3
Hidden __ __ __ __ __ __ __ __ __ __ __ __ __ _
 72
    65
 73
     2
 40
0.375
 49
0.25
 49
-0.125
  0
LTYPE
  2
CENTER2
 70
     0
  3
Center (.5x) ___ _ ___ _ ___ _ ___ _ ___ _ ___
 72
    65
 73
     4
 40
1.125
 49
0.75
 49
-0.125
 49
0.125
 49
-0.125
  0
LTYPE
  2
HIDDEN2
 70
     0
  3
Hidden (.5x) _ _ _ _ _ _ _ _ _ _ _ _ _ _ _ _ _
 72
    65
 73
     2
 40
0.1875
 49
0.125
 49
-0.0625
  0
LTYPE
  2
AMZIGZAG2
 70
     0
  3
/\/-/\/-/\/-/\/-/\/-/\/
 72
    65
 73
     2
 40
0.4401
 49
0.0001
 49
-0.4400000000000002
  0
LTYPE
  2
ACANSTGB
 70
     0
  3
__ . . __ . .
 72
    65
 73
     6
 40
0.35433070866
 49
0.15748031496
 49
-0.03937007874
 49
0.03937007874
 49
-0.03937007874
 49
0.03937007874
 49
-0.03937007874
  0
LTYPE
  2
ACANSTGL
 70
     0
  3
_ _ _ _ _
 72
    65
 73
     2
 40
0.11811023622
 49
0.07874015748
 49
-0.03937007874
  0
ENDTAB
  0
TABLE
  2
LAYER
 70
     6
  0
LAYER
  2
0
 70
     0
 62
     7
  6
CONTINUOUS
  0
LAYER
  2
AM_0
 70
     0
 62
     7
  6
CONTINUOUS
  0
LAYER
  2
AM_5
 70
     0
 62
     2
  6
CONTINUOUS
  0
LAYER
  2
DEFPOINTS
 70
     0
 62
     7
  6
CONTINUOUS
  0
LAYER
  2
ﾁｭｳｼﾝｾﾝ
 70
     0
 62
     1
  6
GEN7
  0
LAYER
  2
ﾁｭｳｼﾝｾﾝ1
 70
     0
 62
     1
  6
GEN7A
  0
ENDTAB
  0
TABLE
  2
STYLE
 70
     9
  0
STYLE
  2
STANDARD
 70
     0
 40
0.0
 41
0.8299999999999999
 50
0.0
 71
     0
 42
2.5
  3
txt.shx
  4
bigfont.shx
  0
STYLE
  2
ANNOTATIVE
 70
     0
 40
0.0
 41
1.0
 50
0.0
 71
     0
 42
0.2
  3
txt
  4

  0
STYLE
  2

 70
     1
 40
0.0
 41
1.0
 50
0.0
 71
     0
 42
2.5
  3
ltypeshp.shx
  4

  0
STYLE
  2
ACISOTS
 70
     0
 40
1.0
 41
1.0
 50
0.0
 71
     0
 42
2.5
  3
isocp.shx
  4
extfont.shx
  0
STYLE
  2
ACISOGDT
 70
     0
 40
0.0
 41
1.0
 50
0.0
 71
     0
 42
2.5
  3
amgdt.shx
  4

  0
STYLE
  2
ACANSTS
 70
     0
 40
1.0
 41
1.0
 50
0.0
 71
     0
 42
2.5
  3
romans.shx
  4
bigfont.shx
  0
STYLE
  2
ACANSGDT
 70
     0
 40
0.0
 41
1.0
 50
0.0
 71
     0
 42
2.5
  3
amgdt.shx
  4

  0
STYLE
  2
ACJISTS
 70
     0
 40
1.0
 41
1.0
 50
0.0
 71
     0
 42
2.5
  3
isocp.shx
  4
bigfont.shx
  0
STYLE
  2
ACJISGDT
 70
     0
 40
0.0
 41
1.0
 50
0.0
 71
     0
 42
2.5
  3
amgdt.shx
  4

  0
ENDTAB
  0
TABLE
  2
VIEW
 70
     6
  0
VIEW
  2
AM_VIEW1
 70
     0
 40
462.5
 10
416.07965009208078
 20
693.75
 41
832.15930018416213
 11
0.0
 21
0.0
 31
1.0
 12
0.0
 22
0.0
 32
0.0
 42
50.0
 43
0.0
 44
0.0
 50
0.0
 71
     0
  0
VIEW
  2
AM_VIEW2
 70
     0
 40
462.5
 10
1006.420349907918
 20
693.75
 41
832.15930018416213
 11
0.0
 21
0.0
 31
1.0
 12
0.0
 22
0.0
 32
0.0
 42
50.0
 43
0.0
 44
0.0
 50
0.0
 71
     0
  0
VIEW
  2
AM_VIEW3
 70
     0
 40
462.5
 10
416.07965009208078
 20
231.25
 41
832.15930018416213
 11
0.0
 21
0.0
 31
1.0
 12
0.0
 22
0.0
 32
0.0
 42
50.0
 43
0.0
 44
0.0
 50
0.0
 71
     0
  0
VIEW
  2
AM_VIEW4
 70
     0
 40
462.5
 10
1006.420349907918
 20
231.25
 41
832.15930018416213
 11
0.0
 21
0.0
 31
1.0
 12
0.0
 22
0.0
 32
0.0
 42
50.0
 43
0.0
 44
0.0
 50
0.0
 71
     0
  0
VIEW
  2
AM_VIEW5
 70
     0
 40
462.5
 10
711.24999999999966
 20
462.5
 41
832.15930018416179
 11
0.0
 21
0.0
 31
1.0
 12
0.0
 22
0.0
 32
0.0
 42
50.0
 43
0.0
 44
0.0
 50
0.0
 71
     0
  0
VIEW
  2
AM_VIEW6
 70
     0
 40
924.99075000000005
 10
711.24999999999966
 20
462.5
 41
1664.3019571823199
 11
0.0
 21
0.0
 31
1.0
 12
0.0
 22
0.0
 32
0.0
 42
50.0
 43
0.0
 44
0.0
 50
0.0
 71
     0
  0
ENDTAB
  0
TABLE
  2
UCS
 70
     0
  0
ENDTAB
  0
TABLE
  2
APPID
 70
    95
  0
APPID
  2
ACAD
 70
     0
  0
APPID
  2
ACADANNOTATIVE
 70
     0
  0
APPID
  2
MCAD_NO_VIS
 70
     0
  0
APPID
  2
ACAD_TEMP_GRAPHIC
 70
     0
  0
APPID
  2
ACATTRIBSERVICES
 70
     0
  0
APPID
  2
GENIUS_GENREC_14
 70
     0
  0
APPID
  2
GENIUS_GENOBJ-N-REC_13
 70
     0
  0
APPID
  2
GENIUS_GENODEF_13
 70
     0
  0
APPID
  2
GENIUS_GENOLIS_13
 70
     0
  0
APPID
  2
GENIUS_GENOBJ-N-TIT_13
 70
     0
  0
APPID
  2
GENIUS_GENOENT_13
 70
     0
  0
APPID
  2
GENIUS_GENTITLE_13
 70
     0
  0
APPID
  2
GENIUS_GENOREF_13
 70
     0
  0
APPID
  2
GENIUS_GENSCREG_15
 70
     0
  0
APPID
  2
GENIUS_GENOBJ-N-SDF_13
 70
     0
  0
APPID
  2
GENIUS_GENFIL_13
 70
     0
  0
APPID
  2
GENIUS_GENOBJ-N-CHA_13
 70
     0
  0
APPID
  2
GENIUS_GENDTOL_13
 70
     0
  0
APPID
  2
GENIUS_GENOBJ-N-FIL_13
 70
     0
  0
APPID
  2
AD_DRAW
 70
     0
  0
APPID
  2
DESIGNERASSEMBLIES
 70
     0
  0
APPID
  2
ASURF_PCURVE_APPNAME
 70
     0
  0
APPID
  2
GENIUS_GE3SECT_13
 70
     0
  0
APPID
  2
GENIUS_GENCFG_13
 70
     0
  0
APPID
  2
GENIUS_GE3CFG0_13
 70
     0
  0
APPID
  2
GENIUS_GENCFG0_13
 70
     0
  0
APPID
  2
GENIUS_GENCFG1_13
 70
     0
  0
APPID
  2
GENIUS_GENCFG2_13
 70
     0
  0
APPID
  2
GENIUS_GENCFG3_13
 70
     0
  0
APPID
  2
GENIUS_GENCFG4_13
 70
     0
  0
APPID
  2
GENIUS_GEVCFG0_13
 70
     0
  0
APPID
  2
GENIUS_GENHINW_13
 70
     0
  0
APPID
  2
GENIUS_FIRSTVISTXT_14
 70
     0
  0
APPID
  2
GENIUS_GENOBJ-N-LEADER_13
 70
     0
  0
APPID
  2
GEV_VCCNULL_SWITCH_OFF
 70
     0
  0
APPID
  2
GENIUS_GEFCFG0_13
 70
     0
  0
APPID
  2
GENIUS_GENZVEED_13
 70
     0
  0
APPID
  2
GENIUS_GENSCREG_13
 70
     0
  0
APPID
  2
GENIUS_DUMCFG0_13
 70
     0
  0
APPID
  2
GEVID936201362
 70
     0
  0
APPID
  2
GEVDC
 70
     0
  0
APPID
  2
GEVCON
 70
     0
  0
APPID
  2
VCC
 70
     0
  0
APPID
  2
GEVPT
 70
     0
  0
APPID
  2
GEVIT
 70
     0
  0
APPID
  2
GENBH
 70
     0
  0
APPID
  2
GEVMK
 70
     0
  0
APPID
  2
GENIUS_GENBH_13
 70
     0
  0
APPID
  2
GENIUS_GENOBJ-NBEHI-BHF_13
 70
     0
  0
APPID
  2
GENIUS_GENOBJ-NBEHI-BHB_13
 70
     0
  0
APPID
  2
GENIUS_GENOBJ-F-DESC_13
 70
     0
  0
APPID
  2
GENIUS_GEFDESC_14
 70
     0
  0
APPID
  2
GENIUS_GENOBJ-F-PART_13
 70
     0
  0
APPID
  2
GENIUS_GEFSTDP_13
 70
     0
  0
APPID
  2
GENIUS_GEFPARTINS_13
 70
     0
  0
APPID
  2
GENIUS_GENTRA_14
 70
     0
  0
APPID
  2
GENIUS_GENINF13_13
 70
     0
  0
APPID
  2
GENIUS_GENOBJ-N-INFOPT_13
 70
     0
  0
APPID
  2
GENIUS_GENOBJ-N-RSSYM_13
 70
     0
  0
APPID
  2
GENIUS_GENSYMENT_13
 70
     0
  0
APPID
  2
GENIUS_GENSCSYM_13
 70
     0
  0
APPID
  2
GENIUS_GEFINFNAM_13
 70
     0
  0
APPID
  2
GENIUS_GENOBJ-N-CEN_13
 70
     0
  0
APPID
  2
GENIUS_GENOBJ-N-CRS_13
 70
     0
  0
APPID
  2
GENIUS_GENOBJ-N-CRC_13
 70
     0
  0
APPID
  2
GENIUS_GENCRC_14
 70
     0
  0
APPID
  2
GEVID942827039
 70
     0
  0
APPID
  2
GEVID942827040
 70
     0
  0
APPID
  2
GEVID942827041
 70
     0
  0
APPID
  2
GENIUS_GENOBJ-F-SCPASSM_13
 70
     0
  0
APPID
  2
GENIUS_GENDIMSH_14
 70
     0
  0
APPID
  2
GEVID942827042
 70
     0
  0
APPID
  2
GEVID946020473
 70
     0
  0
APPID
  2
GEVID946020474
 70
     0
  0
APPID
  2
GEVID946020475
 70
     0
  0
APPID
  2
GENIUS_GENOBJ-N-HTC_13
 70
     0
  0
APPID
  2
GENIUS_GENHATCH_13
 70
     0
  0
APPID
  2
GEVID948854295
 70
     0
  0
APPID
  2
GEVID939402019
 70
     0
  0
APPID
  2
GEVID952919491
 70
     0
  0
APPID
  2
GEVID952919492
 70
     0
  0
APPID
  2
GENIUS_GEFWELD_13
 70
     0
  0
APPID
  2
GENIUS_GENOBJ-F-WELS_13
 70
     0
  0
APPID
  2
GEVID952919493
 70
     0
  0
APPID
  2
GENIUS_GENOBJ-N-RSBK_13
 70
     0
  0
APPID
  2
GENIUS_GENOBJ-N-LIB_13
 70
     0
  0
APPID
  2
GENIUS_GENSCALE_13
 70
     0
  0
APPID
  2
GEVID986376691
 70
     0
  0
APPID
  2
DCO15
 70
     0
  0
APPID
  2
ACAD_DSTYLE_DIMBREAK
 70
     0
  0
APPID
  2
ACAD_DSTYLE_DIMJAG
 70
     0
  0
APPID
  2
ACAD_NAV_VCDISPLAY
 70
     0
  0
APPID
  2
ACADANNOPO
 70
     0
  0
APPID
  2
ACAD_EXEMPT_FROM_CAD_STANDARDS
 70
     0
  0
APPID
  2
ACAD_MLEADERVER
 70
     0
  0
ENDTAB
  0
TABLE
  2
DIMSTYLE
 70
    22
  0
DIMSTYLE
  2
STANDARD
 70
     0
  3

  4

  5

  6

  7

 40
1.0
 41
0.18
 42
0.0625
 43
0.38
 44
0.18
 45
0.0
 46
0.0
 47
0.0
 48
0.0
140
0.18
141
0.09
142
0.0
143
25.399999999999999
144
1.0
145
0.0
146
1.0
147
0.09
 71
     0
 72
     0
 73
     1
 74
     1
 75
     0
 76
     0
 77
     0
 78
     0
170
     0
171
     2
172
     0
173
     0
174
     0
175
     0
176
     0
177
     0
178
     0
  0
DIMSTYLE
  2
ANNOTATIVE
 70
     0
  3

  4

  5

  6

  7

 40
1.0
 41
0.18
 42
0.0625
 43
0.38
 44
0.18
 45
0.0
 46
0.0
 47
0.0
 48
0.0
140
0.18
141
0.09
142
0.0
143
25.399999999999999
144
1.0
145
0.0
146
1.0
147
0.09
 71
     0
 72
     0
 73
     1
 74
     1
 75
     0
 76
     0
 77
     0
 78
     0
170
     0
171
     2
172
     0
173
     0
174
     0
175
     0
176
     0
177
     0
178
     0
  0
DIMSTYLE
  2
AM_ISO
 70
     0
  3

  4
"
  5

  6

  7

 40
1.0
 41
2.5
 42
1.0
 43
8.0
 44
0.6
 45
0.0
 46
0.0
 47
0.1
 48
0.1
140
2.5
141
0.0
142
0.0
143
0.0393701
144
1.0
145
0.0
146
0.71
147
0.8
 71
     0
 72
     0
 73
     0
 74
     0
 75
     0
 76
     0
 77
     1
 78
     8
170
     0
171
     2
172
     1
173
     0
174
     0
175
     0
176
   256
177
   256
178
     4
  0
DIMSTYLE
  2
AM_ISO$3
 70
     0
  3

  4
"
  5

  6

  7

 40
1.0
 41
2.5
 42
1.0
 43
8.0
 44
0.6
 45
0.0
 46
0.0
 47
0.1
 48
0.1
140
2.5
141
0.0
142
0.0
143
0.0393701
144
1.0
145
0.0
146
0.71
147
0.8
 71
     0
 72
     0
 73
     0
 74
     1
 75
     0
 76
     0
 77
     1
 78
     8
170
     0
171
     2
172
     0
173
     0
174
     0
175
     0
176
   256
177
   256
178
     4
  0
DIMSTYLE
  2
AM_ISO$4
 70
     0
  3

  4
"
  5

  6

  7

 40
1.0
 41
2.5
 42
1.0
 43
8.0
 44
0.6
 45
0.0
 46
0.0
 47
0.1
 48
0.1
140
2.5
141
0.0
142
0.0
143
0.0393701
144
1.0
145
0.0
146
0.71
147
0.8
 71
     0
 72
     0
 73
     0
 74
     1
 75
     0
 76
     0
 77
     1
 78
     8
170
     0
171
     2
172
     0
173
     0
174
     0
175
     0
176
   256
177
   256
178
     4
  0
DIMSTYLE
  2
AM_ISO$6
 70
     0
  3

  4
"
  5

  6

  7

 40
1.0
 41
2.5
 42
1.0
 43
8.0
 44
0.6
 45
0.0
 46
0.0
 47
0.1
 48
0.1
140
2.5
141
0.0
142
0.0
143
0.0393701
144
1.0
145
0.0
146
0.71
147
0.8
 71
     0
 72
     0
 73
     0
 74
     0
 75
     0
 76
     0
 77
     0
 78
     8
170
     0
171
     2
172
     1
173
     0
174
     0
175
     0
176
   256
177
   256
178
     4
  0
DIMSTYLE
  2
AM_ISO$7
 70
     0
  3

  4
"
  5

  6

  7

 40
1.0
 41
2.5
 42
1.0
 43
8.0
 44
0.6
 45
0.0
 46
0.0
 47
0.1
 48
0.1
140
2.5
141
0.0
142
0.0
143
0.0393701
144
1.0
145
0.0
146
0.71
147
0.8
 71
     0
 72
     0
 73
     0
 74
     0
 75
     0
 76
     0
 77
     1
 78
     8
170
     0
171
     2
172
     1
173
     0
174
     0
175
     0
176
   256
177
   256
178
     4
  0
DIMSTYLE
  2
AM_ISO$SF
 70
     0
  3

  4
"
  5

  6

  7

 40
1.0
 41
2.5
 42
1.0
 43
10.0
 44
1.0
 45
0.0
 46
0.0
 47
0.1
 48
0.1
140
3.5
141
0.0
142
0.0
143
0.0393701
144
1.0
145
0.0
146
0.71
147
1.5
 71
     0
 72
     0
 73
     0
 74
     0
 75
     1
 76
     1
 77
     1
 78
     8
170
     0
171
     2
172
     1
173
     0
174
     0
175
     0
176
   256
177
   256
178
     2
  0
DIMSTYLE
  2
AM_ISO$SH
 70
     0
  3

  4
"
  5

  6

  7

 40
1.0
 41
2.5
 42
1.0
 43
10.0
 44
1.0
 45
0.0
 46
0.0
 47
0.1
 48
0.1
140
3.5
141
0.0
142
0.0
143
0.0393701
144
2.0
145
0.0
146
0.71
147
1.5
 71
     0
 72
     0
 73
     0
 74
     0
 75
     1
 76
     1
 77
     1
 78
     8
170
     0
171
     2
172
     1
173
     1
174
     0
175
     0
176
   256
177
   256
178
     2
  0
DIMSTYLE
  2
AM_JIS
 70
     0
  3

  4
"
  5

  6

  7

 40
1.0
 41
2.5
 42
1.0
 43
7.0
 44
1.0
 45
0.0
 46
0.0
 47
0.1
 48
0.1000000001
140
2.5
141
0.0
142
0.0
143
0.0393701
144
1.0
145
0.0
146
0.71
147
1.0
 71
     0
 72
     0
 73
     0
 74
     0
 75
     0
 76
     0
 77
     3
 78
     8
170
     0
171
     2
172
     1
173
     0
174
     0
175
     0
176
   256
177
   256
178
     4
  0
DIMSTYLE
  2
AM_JIS$3
 70
     0
  3

  4
"
  5

  6

  7

 40
1.0
 41
2.5
 42
1.0
 43
7.0
 44
1.0
 45
0.0
 46
0.0
 47
0.1
 48
0.1000000001
140
2.5
141
0.0
142
0.0
143
0.0393701
144
1.0
145
0.0
146
0.71
147
1.0
 71
     0
 72
     0
 73
     0
 74
     1
 75
     0
 76
     0
 77
     3
 78
     8
170
     0
171
     2
172
     0
173
     0
174
     0
175
     0
176
   256
177
   256
178
     4
  0
DIMSTYLE
  2
AM_JIS$4
 70
     0
  3

  4
"
  5

  6

  7

 40
1.0
 41
2.5
 42
1.0
 43
7.0
 44
1.0
 45
0.0
 46
0.0
 47
0.1
 48
0.1000000001
140
2.5
141
0.0
142
0.0
143
0.0393701
144
1.0
145
0.0
146
0.71
147
1.0
 71
     0
 72
     0
 73
     0
 74
     0
 75
     0
 76
     0
 77
     3
 78
     8
170
     0
171
     2
172
     0
173
     0
174
     0
175
     0
176
   256
177
   256
178
     4
  0
DIMSTYLE
  2
AM_JIS$6
 70
     0
  3

  4
"
  5

  6

  7

 40
1.0
 41
2.5
 42
1.0
 43
7.0
 44
1.0
 45
0.0
 46
0.0
 47
0.1
 48
0.1000000001
140
2.5
141
0.0
142
0.0
143
0.0393701
144
1.0
145
0.0
146
0.71
147
1.0
 71
     0
 72
     0
 73
     0
 74
     0
 75
     0
 76
     0
 77
     0
 78
     8
170
     0
171
     2
172
     1
173
     0
174
     0
175
     0
176
   256
177
   256
178
     4
  0
DIMSTYLE
  2
AM_JIS$7
 70
     0
  3

  4
"
  5

  6

  7

 40
1.0
 41
2.5
 42
1.0
 43
7.0
 44
1.0
 45
0.0
 46
0.0
 47
0.1
 48
0.1000000001
140
2.5
141
0.0
142
0.0
143
0.0393701
144
1.0
145
0.0
146
0.71
147
1.0
 71
     0
 72
     0
 73
     0
 74
     0
 75
     0
 76
     0
 77
     3
 78
     8
170
     0
171
     2
172
     1
173
     0
174
     0
175
     0
176
   256
177
   256
178
     4
  0
DIMSTYLE
  2
AM_JIS$SF
 70
     0
  3

  4
"
  5

  6

  7

 40
1.0
 41
2.5
 42
1.0
 43
10.0
 44
1.0
 45
0.0
 46
0.0
 47
0.1
 48
0.1
140
3.5
141
0.0
142
0.0
143
0.0393701
144
1.0
145
0.0
146
0.71
147
1.5
 71
     0
 72
     0
 73
     0
 74
     0
 75
     1
 76
     1
 77
     3
 78
     8
170
     0
171
     2
172
     1
173
     0
174
     0
175
     0
176
   256
177
   256
178
     4
  0
DIMSTYLE
  2
AM_JIS$SH
 70
     0
  3

  4
"
  5

  6

  7

 40
1.0
 41
2.5
 42
1.0
 43
10.0
 44
1.0
 45
0.0
 46
0.0
 47
0.1
 48
0.1
140
3.5
141
0.0
142
0.0
143
0.0393701
144
1.0
145
0.0
146
0.71
147
1.5
 71
     0
 72
     0
 73
     0
 74
     0
 75
     1
 76
     0
 77
     3
 78
     8
170
     0
171
     2
172
     1
173
     1
174
     0
175
     0
176
   256
177
   256
178
     4
  0
DIMSTYLE
  2
AM_ANSI
 70
     0
  3

  4
mm
  5

  6

  7

 40
1.0
 41
0.1
 42
0.05
 43
0.5
 44
0.1
 45
0.0
 46
0.0
 47
0.1
 48
0.1
140
0.12
141
0.0
142
0.0
143
25.399999999999999
144
1.0
145
0.0
146
0.71
147
0.06
 71
     0
 72
     0
 73
     1
 74
     1
 75
     0
 76
     0
 77
     0
 78
     7
170
     0
171
     2
172
     0
173
     0
174
     0
175
     0
176
   256
177
   256
178
     2
  0
DIMSTYLE
  2
AM_ANSI$3
 70
     0
  3

  4
mm
  5

  6

  7

 40
1.0
 41
0.1
 42
0.05
 43
0.5
 44
0.1
 45
0.0
 46
0.0
 47
0.1
 48
0.1
140
0.12
141
0.0
142
0.0
143
25.399999999999999
144
1.0
145
0.0
146
0.71
147
0.06
 71
     0
 72
     0
 73
     1
 74
     1
 75
     0
 76
     0
 77
     0
 78
     7
170
     0
171
     2
172
     0
173
     0
174
     0
175
     0
176
   256
177
   256
178
     2
  0
DIMSTYLE
  2
AM_ANSI$4
 70
     0
  3

  4
mm
  5

  6

  7

 40
1.0
 41
0.1
 42
0.05
 43
0.5
 44
0.1
 45
0.0
 46
0.0
 47
0.1
 48
0.1
140
0.12
141
0.0
142
0.0
143
25.399999999999999
144
1.0
145
0.0
146
0.71
147
0.06
 71
     0
 72
     0
 73
     1
 74
     1
 75
     0
 76
     0
 77
     0
 78
     7
170
     0
171
     2
172
     0
173
     0
174
     0
175
     0
176
   256
177
   256
178
     2
  0
DIMSTYLE
  2
AM_ANSI$7
 70
     0
  3

  4
mm
  5

  6

  7

 40
1.0
 41
0.1
 42
0.05
 43
0.5
 44
0.1
 45
0.0
 46
0.0
 47
0.1
 48
0.1
140
0.24
141
0.0
142
0.0
143
25.399999999999999
144
1.0
145
0.0
146
0.71
147
0.06
 71
     0
 72
     0
 73
     1
 74
     1
 75
     0
 76
     0
 77
     0
 78
     7
170
     0
171
     2
172
     0
173
     0
174
     0
175
     0
176
   256
177
   256
178
     2
  0
DIMSTYLE
  2
AM_ANSI$SF
 70
     0
  3

  4
mm
  5

  6

  7

 40
1.0
 41
0.1
 42
0.05
 43
0.5
 44
0.1
 45
0.0
 46
0.0
 47
0.1
 48
0.1
140
0.12
141
0.0
142
0.0
143
25.399999999999999
144
1.0
145
0.0
146
0.71
147
0.06
 71
     0
 72
     0
 73
     1
 74
     1
 75
     1
 76
     1
 77
     0
 78
     7
170
     0
171
     2
172
     0
173
     0
174
     0
175
     0
176
   256
177
   256
178
     2
  0
DIMSTYLE
  2
AM_ANSI$SH
 70
     0
  3

  4
mm
  5

  6

  7

 40
1.0
 41
0.1
 42
0.05
 43
0.5
 44
0.1
 45
0.0
 46
0.0
 47
0.1
 48
0.1
140
0.12
141
0.0
142
0.0
143
25.399999999999999
144
1.0
145
0.0
146
0.71
147
0.06
 71
     0
 72
     0
 73
     1
 74
     1
 75
     1
 76
     1
 77
     0
 78
     7
170
     0
171
     2
172
     0
173
     1
174
     0
175
     0
176
   256
177
   256
178
     2
  0
ENDTAB
  0
ENDSEC
  0
SECTION
  2
BLOCKS
  0
BLOCK
  8
0
  2
$MODEL_SPACE
 70
     0
 10
0.0
 20
0.0
 30
0.0
  3
$MODEL_SPACE
  1

  0
ENDBLK
  5
36EF
  8
0
  0
BLOCK
 67
     1
  8
0
  2
$PAPER_SPACE
 70
     0
 10
0.0
 20
0.0
 30
0.0
  3
$PAPER_SPACE
  1

  0
ENDBLK
  5
36EB
 67
     1
  8
0
  0
BLOCK
  8
0
  2
GENAXEH
 70
     0
 10
0.0
 20
0.0
 30
0.0
  3
GENAXEH
  1

  0
LINE
  5
343B
  8
0
 10
-1.0
 20
0.0
 30
0.0
 11
1.0
 21
0.0
 31
0.0
  0
ENDBLK
  5
343C
  8
0
  0
BLOCK
  8
0
  2
_OPEN30
 70
     0
 10
0.0
 20
0.0
 30
0.0
  3
_OPEN30
  1

  0
LINE
  5
343F
  8
0
 62
     0
 10
-1.0
 20
0.26794919
 30
0.0
 11
0.0
 21
0.0
 31
0.0
  0
LINE
  5
3440
  8
0
 62
     0
 10
0.0
 20
0.0
 30
0.0
 11
-1.0
 21
-0.26794919
 31
0.0
  0
LINE
  5
3441
  8
0
 62
     0
 10
0.0
 20
0.0
 30
0.0
 11
-1.0
 21
0.0
 31
0.0
  0
ENDBLK
  5
3442
  8
0
  0
BLOCK
  8
0
  2
_NONE
 70
     0
 10
0.0
 20
0.0
 30
0.0
  3
_NONE
  1

  0
ENDBLK
  5
3445
  8
0
  0
BLOCK
  8
0
  2
*U5
 70
     1
 10
0.0
 20
0.0
 30
0.0
  3
*U5
  1

  0
TEXT
  5
3448
  8
AM_0
 62
     4
 10
291.59333946086542
 20
377.21352395400521
 30
0.0
 40
12.5
  1
\U+2205
 50
90.0
 41
0.8299999999999999
  0
TEXT
  5
3449
  8
AM_0
 62
     4
 10
291.59333946086542
 20
387.58852395400521
 30
0.0
 40
12.5
  1
250
 50
90.0
 41
0.8299999999999999
  0
ENDBLK
  5
344A
  8
0
  0
BLOCK
  8
0
  2
*U6
 70
     1
 10
0.0
 20
0.0
 30
0.0
  3
*U6
  1

  0
TEXT
  5
344D
  8
AM_0
 62
     4
 10
320.72628188973562
 20
370.29685728733841
 30
0.0
 40
12.5
  1
\U+2205
 50
90.0
 41
0.8299999999999999
  0
TEXT
  5
344E
  8
AM_0
 62
     4
 10
320.72628188973562
 20
380.67185728733858
 30
0.0
 40
12.5
  1
180
 50
90.0
 41
0.8299999999999999
  0
TEXT
  5
344F
  8
AM_0
 62
     4
 10
320.72628188973562
 20
406.6093572873383
 30
0.0
 40
10.0
  1
G7
 50
90.0
 41
0.8299999999999999
  0
ENDBLK
  5
3450
  8
0
  0
BLOCK
  8
0
  2
*U7
 70
     1
 10
0.0
 20
0.0
 30
0.0
  3
*U7
  1

  0
TEXT
  5
3453
  8
AM_0
 62
     4
 10
863.40323833142816
 20
428.00519062067201
 30
0.0
 40
12.5
  1
\U+2205
 50
90.0
 41
0.8299999999999999
  0
TEXT
  5
3454
  8
AM_0
 62
     4
 10
863.40323833142816
 20
438.38019062067201
 30
0.0
 40
12.5
  1
60
 50
90.0
 41
0.8299999999999999
  0
TEXT
  5
3455
  8
AM_0
 62
     4
 10
863.40323833142816
 20
457.40102395400532
 30
0.0
 40
10.0
  1
h6
 50
90.0
 41
0.8299999999999999
  0
ENDBLK
  5
3456
  8
0
  0
BLOCK
  8
0
  2
*U8
 70
     1
 10
0.0
 20
0.0
 30
0.0
  3
*U8
  1

  0
TEXT
  5
3459
  8
AM_0
 62
     4
 10
784.93201840934523
 20
315.23102470767782
 30
0.0
 40
12.5
  1
\U+2205
 50
90.0
 41
0.8299999999999999
  0
TEXT
  5
345A
  8
AM_0
 62
     4
 10
784.93201840934523
 20
325.60602470767782
 30
0.0
 40
12.5
  1
310
 50
90.0
 41
0.8299999999999999
  0
TEXT
  5
345B
  8
AM_0
 62
     4
 10
784.93201840934523
 20
351.54352470767782
 30
0.0
 40
10.0
  1
h7
 50
90.0
 41
0.8299999999999999
  0
ENDBLK
  5
345C
  8
0
  0
BLOCK
  8
0
  2
*U9
 70
     1
 10
0.0
 20
0.0
 30
0.0
  3
*U9
  1

  0
TEXT
  5
345F
  8
AM_0
 62
     4
 10
1080.331223312136
 20
704.90487508795138
 30
0.0
 40
12.5
  1
o
 41
0.8299999999999999
  0
TEXT
  5
3460
  8
AM_0
 62
     4
 10
1092.682413788327
 20
704.90487508795138
 30
0.0
 40
12.5
  1
 370
 41
0.8299999999999999
  0
ENDBLK
  5
3461
  8
0
  0
BLOCK
  8
0
  2
*U10
 70
     1
 10
0.0
 20
0.0
 30
0.0
  3
*U10
  1

  0
TEXT
  5
3464
  8
AM_0
 62
     4
 10
222.7460939653094
 20
90.20052787454641
 30
0.0
 40
15.0
  1
\U+2205
 50
294.47415379524
 41
0.8299999999999999
  0
TEXT
  5
3465
  8
AM_0
 62
     4
 10
227.90391377575881
 20
78.869182199696724
 30
0.0
 40
15.0
  1
504
 50
294.47415379524
 41
0.8299999999999999
  0
ENDBLK
  5
3466
  8
0
  0
BLOCK
  8
0
  2
*U11
 70
     1
 10
0.0
 20
0.0
 30
0.0
  3
*U11
  1

  0
TEXT
  5
3469
  8
AM_0
 62
     4
 10
852.75062914794398
 20
404.42660109970592
 30
0.0
 40
12.5
  1
\U+2205
 50
90.0
 41
0.8299999999999999
  0
TEXT
  5
346A
  8
AM_0
 62
     4
 10
852.75062914794398
 20
414.80160109970592
 30
0.0
 40
12.5
  1
240
 50
90.0
 41
0.8299999999999999
  0
TEXT
  5
346B
  8
AM_0
 62
     4
 10
852.75062914794398
 20
444.19743443303901
 30
0.0
 40
10.0
  1
h7
 50
90.0
 41
0.8299999999999999
  0
ENDBLK
  5
346C
  8
0
  0
BLOCK
  8
0
  2
*U12
 70
     1
 10
0.0
 20
0.0
 30
0.0
  3
*U12
  1

  0
TEXT
  5
346F
  8
AM_0
 62
     4
 10
1089.170719634202
 20
644.50467657279023
 30
0.0
 40
12.5
  1
o
 41
0.8299999999999999
  0
TEXT
  5
3470
  8
AM_0
 62
     4
 10
1101.521910110393
 20
644.50467657279023
 30
0.0
 40
12.5
  1
 285
 41
0.8299999999999999
  0
ENDBLK
  5
3471
  8
0
  0
BLOCK
  8
0
  2
*U13
 70
     1
 10
0.0
 20
0.0
 30
0.0
  3
*U13
  1

  0
TEXT
  5
3474
  8
AM_0
 62
     4
 10
366.2656342075714
 20
363.31410109970602
 30
0.0
 40
12.5
  1
\U+2205
 50
90.0
 41
0.8299999999999999
  0
TEXT
  5
3475
  8
AM_0
 62
     4
 10
366.2656342075714
 20
373.68910109970602
 30
0.0
 40
12.5
  1
230 
 50
90.0
 41
0.8299999999999999
  0
TEXT
  5
3476
  8
AM_0
 62
     4
 10
366.2656342075714
 20
409.30993443303942
 30
0.0
 40
10.0
  1
G7
 50
90.0
 41
0.8299999999999999
  0
ENDBLK
  5
3477
  8
0
  0
BLOCK
  8
0
  2
*U14
 70
     1
 10
0.0
 20
0.0
 30
0.0
  3
*U14
  1

  0
TEXT
  5
347A
  8
AM_0
 62
     4
 10
332.00260082435318
 20
375.93701776637278
 30
0.0
 40
12.5
  1
\U+2205
 50
90.0
 41
0.8299999999999999
  0
TEXT
  5
347B
  8
AM_0
 62
     4
 10
332.00260082435318
 20
386.31201776637278
 30
0.0
 40
12.5
  1
300
 50
90.0
 41
0.8299999999999999
  0
ENDBLK
  5
347C
  8
0
  0
BLOCK
  8
0
  2
*U15
 70
     1
 10
0.0
 20
0.0
 30
0.0
  3
*U15
  1

  0
TEXT
  5
347F
  8
AM_0
 62
     4
 10
755.94542509706434
 20
418.22948147141813
 30
0.0
 40
12.5
  1
\U+2205
 50
90.0
 41
0.8299999999999999
  0
TEXT
  5
3480
  8
AM_0
 62
     4
 10
755.94542509706434
 20
428.60448147141801
 30
0.0
 40
12.5
  1
240
 50
90.0
 41
0.8299999999999999
  0
TEXT
  5
3481
  8
AM_0
 62
     4
 10
755.94542509706434
 20
458.00031480475138
 30
0.0
 40
10.0
  1
h7
 50
90.0
 41
0.8299999999999999
  0
ENDBLK
  5
3482
  8
0
  0
BLOCK
  8
0
  2
*U16
 70
     1
 10
0.0
 20
0.0
 30
0.0
  3
*U16
  1

  0
TEXT
  5
3485
  8
AM_0
 62
     4
 10
992.36551558332394
 20
658.30755694450227
 30
0.0
 40
12.5
  1
o
 41
0.8299999999999999
  0
TEXT
  5
3486
  8
AM_0
 62
     4
 10
1004.7167060595129
 20
658.30755694450227
 30
0.0
 40
12.5
  1
 285
 41
0.8299999999999999
  0
ENDBLK
  5
3487
  8
0
  0
BLOCK
  8
0
  2
*U17
 70
     1
 10
0.0
 20
0.0
 30
0.0
  3
*U17
  1

  0
TEXT
  5
348A
  8
AM_0
 62
     4
 10
235.1973967734742
 20
389.73989813808492
 30
0.0
 40
12.5
  1
\U+2205
 50
90.0
 41
0.8299999999999999
  0
TEXT
  5
348B
  8
AM_0
 62
     4
 10
235.1973967734742
 20
400.11489813808492
 30
0.0
 40
12.5
  1
300
 50
90.0
 41
0.8299999999999999
  0
ENDBLK
  5
348C
  8
0
  0
BLOCK
  8
0
  2
*U18
 70
     1
 10
0.0
 20
0.0
 30
0.0
  3
*U18
  1

  0
TEXT
  5
348F
  8
AM_0
 62
     4
 10
269.46043015669221
 20
377.116981471418
 30
0.0
 40
12.5
  1
\U+2205
 50
90.0
 41
0.8299999999999999
  0
TEXT
  5
3490
  8
AM_0
 62
     4
 10
269.46043015669221
 20
387.491981471418
 30
0.0
 40
12.5
  1
230 
 50
90.0
 41
0.8299999999999999
  0
TEXT
  5
3491
  8
AM_0
 62
     4
 10
269.46043015669221
 20
423.11281480475151
 30
0.0
 40
10.0
  1
G7
 50
90.0
 41
0.8299999999999999
  0
ENDBLK
  5
3492
  8
0
  0
BLOCK
  8
0
  2
_ACMFILLEDHALF
 70
     0
 10
0.0
 20
0.0
 30
0.0
  3
_ACMFILLEDHALF
  1

  0
TRACE
  5
3801
  8
AM_0
 62
     0
 10
-0.8
 20
0.0
 30
0.0
 11
-1.0
 21
0.166666666
 31
0.0
 12
0.0
 22
0.0
 32
0.0
 13
0.0
 23
0.0
 33
0.0
  0
LINE
  5
3802
  8
AM_0
 62
     0
 10
-1.0
 20
0.0
 30
0.0
 11
-0.8
 21
0.0
 31
0.0
  0
ENDBLK
  5
3800
  8
0
  0
ENDSEC
  0
SECTION
  2
ENTITIES
  0
LINE
  5
3493
  8
AM_0
 10
630.8952750216348
 20
851.53726784291825
 30
0.0
 11
686.89520502163475
 21
851.53726784291825
 31
0.0
  0
LINE
  5
3494
  8
AM_0
 10
630.8952750216348
 20
863.53726784291825
 30
0.0
 11
686.89520502163475
 21
863.53726784291825
 31
0.0
  0
LINE
  5
3495
  8
AM_0
 10
616.8952750216348
 20
836.53738784291795
 30
0.0
 11
686.89520502163475
 21
836.53738784291795
 31
0.0
  0
LINE
  5
3496
  8
AM_0
 10
616.8952750216348
 20
878.53738784291806
 30
0.0
 11
686.89520502163475
 21
878.53738784291806
 31
0.0
  0
LINE
  5
3497
  8
ﾁｭｳｼﾝｾﾝ
 10
298.36394256303521
 20
857.53738784291795
 30
0.0
 11
698.40924502163455
 21
857.53738784291795
 31
0.0
  0
POLYLINE
  5
3498
  8
AM_0
 66
     1
 10
0.0
 20
0.0
 30
0.0
  0
VERTEX
  5
3499
  8
AM_0
 10
571.75947502163456
 20
909.10185784291809
 30
0.0
 42
0.030646541
  0
VERTEX
  5
349A
  8
AM_0
 10
567.34992502163448
 20
874.81846784291827
 30
0.0
 42
0.064801578
  0
VERTEX
  5
349B
  8
AM_0
 10
571.75947502163456
 20
805.97287784291825
 30
0.0
  0
SEQEND
  5
349C
  8
AM_0
  0
LINE
  5
349D
  8
AM_0
 10
478.63098502163479
 20
842.42819784291828
 30
0.0
 11
478.63098502163479
 21
745.89145784291804
 31
0.0
  0
LINE
  5
349E
  8
AM_0
 10
408.39514502163439
 20
740.03738784291806
 30
0.0
 11
408.39514502163439
 21
975.53738784291795
 31
0.0
  0
LINE
  5
349F
  8
AM_0
 10
395.39520502163481
 20
738.03738784291795
 30
0.0
 11
395.39520502163481
 21
977.03738784291806
 31
0.0
  0
LINE
  5
34A0
  8
AM_0
 10
481.89514502163462
 20
721.32754784291808
 30
0.0
 11
481.89514502163462
 21
847.99795784291825
 31
0.0
  0
LINE
  5
34A1
  8
AM_0
 10
614.89514502163479
 20
737.53738784291795
 30
0.0
 11
614.89514502163479
 21
977.53726784291825
 31
0.0
  0
LINE
  5
34A2
  8
AM_0
 10
600.89514502163479
 20
746.57999784291815
 30
0.0
 11
600.89514502163479
 21
968.49466784291826
 31
0.0
  0
LINE
  5
34A3
  8
AM_0
 10
610.89514502163479
 20
715.03738784291806
 30
0.0
 11
610.89514502163479
 21
1000.037267842918
 31
0.0
  0
LINE
  5
34A4
  8
AM_0
 10
592.8952750216348
 20
718.54629784291785
 30
0.0
 11
592.8952750216348
 21
996.5117578429182
 31
0.0
  0
LINE
  5
34A5
  8
AM_0
 10
494.89527502163457
 20
717.79935784291786
 30
0.0
 11
494.89527502163457
 21
853.5373278429181
 31
0.0
  0
LINE
  5
34A6
  8
AM_0
 10
413.39514502163479
 20
747.03738784291795
 30
0.0
 11
475.4456250216349
 21
747.03738784291795
 31
0.0
  0
LINE
  5
34A7
  8
AM_0
 10
408.39514502163439
 20
786.60458784291825
 30
0.0
 11
478.63098502163479
 21
786.60458784291825
 31
0.0
  0
LINE
  5
34A8
  8
AM_0
 10
408.39514502163439
 20
770.86246784291825
 30
0.0
 11
478.63098502163479
 21
770.86246784291825
 31
0.0
  0
LINE
  5
34A9
  8
AM_0
 10
395.39520502163481
 20
738.03738784291795
 30
0.0
 11
406.39520502163458
 21
738.03738784291795
 31
0.0
  0
ARC
  5
34AA
  8
AM_0
 10
406.39520502163458
 20
740.03738784291806
 30
0.0
 40
2.0
 50
270.0
 51
0.0
  0
ARC
  5
34AB
  8
AM_0
 10
406.39520502163458
 20
775.36655784291804
 30
0.0
 40
2.0
 50
270.0
 51
0.0
  0
LINE
  5
34AC
  8
AM_0
 10
395.39520502163481
 20
757.81015784291822
 30
0.0
 11
406.39520502163458
 21
757.81015784291822
 31
0.0
  0
LINE
  5
34AD
  8
AM_0
 10
395.39520502163481
 20
773.3664878429181
 30
0.0
 11
406.39520502163458
 21
773.3664878429181
 31
0.0
  0
ARC
  5
34AE
  8
AM_0
 10
406.39520502163458
 20
759.81015784291822
 30
0.0
 40
2.0
 50
270.0
 51
0.0
  0
ARC
  5
34AF
  8
AM_0
 10
413.39514502163479
 20
742.03738784291795
 30
0.0
 40
5.0
 50
90.00000299999769
 51
180.00001000000091
  0
LINE
  5
34B0
  8
AM_0
 10
396.37409502163479
 20
783.10043784291827
 30
0.0
 11
407.40296502163483
 21
783.10043784291827
 31
0.0
  0
LINE
  5
34B1
  8
AM_0
 10
494.89527502163457
 20
805.97281784291783
 30
0.0
 11
592.8952750216348
 21
805.97281784291783
 31
0.0
  0
LINE
  5
34B2
  8
AM_0
 10
590.46149502163485
 20
754.29068784291826
 30
0.0
 11
549.04291502163483
 21
779.06052784291819
 31
0.0
  0
LINE
  5
34B3
  8
AM_0
 10
590.74780502163446
 20
760.53366784291825
 30
0.0
 11
558.24506502163479
 21
779.97153784291822
 31
0.0
  0
LINE
  5
34B4
  8
AM_0
 10
494.89520502163452
 20
717.79935784291786
 30
0.0
 11
595.82874502163475
 21
715.56369784291815
 31
0.0
  0
LINE
  5
34B5
  8
AM_0
 10
494.89527502163457
 20
728.40701784291821
 30
0.0
 11
592.8952750216348
 21
724.98477784291822
 31
0.0
  0
LINE
  5
34B6
  8
AM_0
 10
550.58277502163446
 20
784.63528784291827
 30
0.0
 11
592.8952750216348
 21
784.63528784291827
 31
0.0
  0
LINE
  5
34B7
  8
AM_0
 10
479.97717502163482
 20
744.1504878429181
 30
0.0
 11
481.61408502163482
 21
740.64017784291821
 31
0.0
  0
LINE
  5
34B8
  8
AM_0
 10
483.8255050216348
 20
728.79355784291806
 30
0.0
 11
494.89527502163457
 21
728.40701784291821
 31
0.0
  0
LINE
  5
34B9
  8
AM_0
 10
484.71716502163451
 20
718.33279784291824
 30
0.0
 11
494.89527502163457
 21
717.79941784291805
 31
0.0
  0
ARC
  5
34BA
  8
AM_0
 10
484.89514502163479
 20
721.32754784291808
 30
0.0
 40
3.0
 50
180.00001000000091
 51
266.99999000000008
  0
ARC
  5
34BB
  8
AM_0
 10
478.89520502163481
 20
739.37228784291824
 30
0.0
 40
3.0
 50
0.0
 51
24.99999999999935
  0
ARC
  5
34BC
  8
AM_0
 10
483.8952750216348
 20
730.79239784291804
 30
0.0
 40
2.0
 50
179.9999899999988
 51
268.00000999999861
  0
LINE
  5
34BD
  8
AM_0
 10
494.89527502163457
 20
779.97159784291819
 30
0.0
 11
546.69092502163483
 21
779.97159784291819
 31
0.0
  0
ARC
  5
34BE
  8
AM_0
 10
475.4456250216349
 20
742.03738784291795
 30
0.0
 40
5.0
 50
24.99999999999935
 51
90.00000299999769
  0
LINE
  5
34BF
  8
AM_0
 10
481.89514502163462
 20
779.97159784291819
 30
0.0
 11
494.89527502163457
 21
779.97159784291819
 31
0.0
  0
LINE
  5
34C0
  8
AM_0
 10
481.89514502163462
 20
805.97281784291783
 30
0.0
 11
494.89527502163457
 21
805.97281784291783
 31
0.0
  0
ARC
  5
34C1
  8
AM_0
 10
546.69092502163483
 20
776.97159784291796
 30
0.0
 40
3.0
 50
59.11902300000196
 51
90.00000299999769
  0
ARC
  5
34C2
  8
AM_0
 10
550.58277502163446
 20
781.63528784291805
 30
0.0
 40
3.0
 50
90.00000299999769
 51
239.11901999999981
  0
POLYLINE
  5
34C3
  8
AM_0
 66
     1
 10
0.0
 20
0.0
 30
0.0
  0
VERTEX
  5
34C4
  8
AM_0
 10
585.2363750216349
 20
757.4154078429184
 30
0.0
 42
0.0052467293
  0
VERTEX
  5
34C5
  8
AM_0
 10
587.65659502163442
 20
751.00557784291823
 30
0.0
 42
0.0052066122
  0
VERTEX
  5
34C6
  8
AM_0
 10
590.21026502163454
 20
744.64774784291819
 30
0.0
 42
0.0051740405
  0
VERTEX
  5
34C7
  8
AM_0
 10
592.8952750216348
 20
738.34451784291821
 30
0.0
  0
SEQEND
  5
34C8
  8
AM_0
  0
ARC
  5
34C9
  8
AM_0
 10
595.89514502163445
 20
746.57999784291815
 30
0.0
 40
5.0
 50
268.00000000000261
 51
0.0
  0
LINE
  5
34CA
  8
AM_0
 10
610.89514502163479
 20
737.53738784291795
 30
0.0
 11
614.89514502163479
 21
737.53738784291795
 31
0.0
  0
LINE
  5
34CB
  8
AM_0
 10
595.79053502163447
 20
715.56473784291836
 30
0.0
 11
610.89520502163475
 21
715.03726784291825
 31
0.0
  0
ARC
  5
34CC
  8
AM_0
 10
595.89514502163445
 20
718.56290784291798
 30
0.0
 40
3.0
 50
179.9999899999988
 51
268.00000999999861
  0
ARC
  5
34CD
  8
AM_0
 10
587.8952750216348
 20
749.99954784291822
 30
0.0
 40
5.0
 50
0.0
 51
59.11901699999779
  0
LINE
  5
34CE
  8
AM_0
 10
582.76380502163465
 20
784.6352278429182
 30
0.0
 11
592.89520502163487
 21
777.07718784291785
 31
0.0
  0
ARC
  5
34CF
  8
AM_0
 10
597.8952750216348
 20
791.40286784291823
 30
0.0
 40
5.0
 50
90.00000299999769
 51
180.00001000000091
  0
ARC
  5
34D0
  8
AM_0
 10
478.89527502163457
 20
857.53738784291795
 30
0.0
 40
11.0
 50
97.181194999997686
 51
158.67647999999841
  0
ARC
  5
34D1
  8
AM_0
 10
478.89527502163457
 20
857.53738784291795
 30
0.0
 40
11.0
 50
201.32377999999781
 51
262.81880000000041
  0
LINE
  5
34D2
  8
AM_0
 10
413.39514502163479
 20
968.03738784291806
 30
0.0
 11
475.4456250216349
 21
968.03738784291806
 31
0.0
  0
LINE
  5
34D3
  8
AM_0
 10
408.39514502163439
 20
944.21225784291835
 30
0.0
 11
478.63098502163479
 21
944.21225784291835
 31
0.0
  0
LINE
  5
34D4
  8
AM_0
 10
408.39514502163439
 20
928.47018784291811
 30
0.0
 11
478.63098502163479
 21
928.47018784291811
 31
0.0
  0
LINE
  5
34D5
  8
AM_0
 10
462.39527502163452
 20
853.5373278429181
 30
0.0
 11
495.39527502163457
 21
853.5373278429181
 31
0.0
  0
LINE
  5
34D6
  8
AM_0
 10
462.39527502163452
 20
861.5373278429181
 30
0.0
 11
495.39527502163457
 21
861.5373278429181
 31
0.0
  0
ARC
  5
34D7
  8
AM_0
 10
462.39527502163452
 20
857.53732784291822
 30
0.0
 40
3.9999962
 50
90.00000299999769
 51
270.0
  0
LINE
  5
34D8
  8
AM_0
 10
396.37409502163479
 20
931.9743378429182
 30
0.0
 11
407.40296502163483
 21
931.9743378429182
 31
0.0
  0
LINE
  5
34D9
  8
AM_0
 10
395.39520502163481
 20
941.70822784291795
 30
0.0
 11
406.39520502163458
 21
941.70822784291795
 31
0.0
  0
ARC
  5
34DA
  8
AM_0
 10
406.39520502163458
 20
939.70822784291806
 30
0.0
 40
2.0
 50
0.0
 51
90.00000299999769
  0
LINE
  5
34DB
  8
AM_0
 10
395.39520502163481
 20
977.03738784291806
 30
0.0
 11
406.39520502163458
 21
977.03738784291806
 31
0.0
  0
LINE
  5
34DC
  8
AM_0
 10
395.39520502163481
 20
957.26462784291823
 30
0.0
 11
406.39520502163458
 21
957.26462784291823
 31
0.0
  0
ARC
  5
34DD
  8
AM_0
 10
406.39520502163458
 20
955.26456784291827
 30
0.0
 40
2.0
 50
0.0
 51
90.00000299999769
  0
ARC
  5
34DE
  8
AM_0
 10
413.39514502163479
 20
973.03738784291795
 30
0.0
 40
5.0
 50
179.9999899999988
 51
270.0
  0
ARC
  5
34DF
  8
AM_0
 10
406.39520502163458
 20
975.03738784291806
 30
0.0
 40
2.0
 50
0.0
 51
90.00000299999769
  0
LINE
  5
34E0
  8
AM_0
 10
478.63098502163479
 20
969.18332784291795
 30
0.0
 11
478.63098502163479
 21
872.64657784291808
 31
0.0
  0
LINE
  5
34E1
  8
AM_0
 10
481.89514502163462
 20
867.07675784291825
 30
0.0
 11
481.89514502163462
 21
993.74710784291813
 31
0.0
  0
LINE
  5
34E2
  8
AM_0
 10
590.74780502163446
 20
954.54098784291807
 30
0.0
 11
558.24500502163482
 21
935.10318784291803
 31
0.0
  0
LINE
  5
34E3
  8
AM_0
 10
590.46143502163454
 20
960.78397784291803
 30
0.0
 11
549.04291502163483
 21
936.0141378429181
 31
0.0
  0
LINE
  5
34E4
  8
AM_0
 10
494.89527502163457
 20
861.5373278429181
 30
0.0
 11
494.89527502163457
 21
997.27530784291821
 31
0.0
  0
LINE
  5
34E5
  8
AM_0
 10
494.89527502163457
 20
909.10184784291823
 30
0.0
 11
592.8952750216348
 21
909.10184784291823
 31
0.0
  0
LINE
  5
34E6
  8
AM_0
 10
550.58277502163446
 20
930.43936784291805
 30
0.0
 11
592.8952750216348
 21
930.43936784291805
 31
0.0
  0
ARC
  5
34E7
  8
AM_0
 10
473.63098502163479
 20
842.42819784291828
 30
0.0
 40
5.0
 50
0.0
 51
70.790840000000372
  0
ARC
  5
34E8
  8
AM_0
 10
476.89514502163479
 20
841.66287784291808
 30
0.0
 40
5.0
 50
0.0
 51
82.818803000003214
  0
ARC
  5
34E9
  8
AM_0
 10
495.39527502163457
 20
857.53732784291822
 30
0.0
 40
3.9999962
 50
270.0
 51
90.00000299999769
  0
ARC
  5
34EA
  8
AM_0
 10
478.89527502163457
 20
857.53738784291795
 30
0.0
 40
10.0
 50
203.5782699999985
 51
336.4217200000013
  0
ARC
  5
34EB
  8
AM_0
 10
476.89514502163479
 20
873.41183784291809
 30
0.0
 40
5.0
 50
277.18119999999942
 51
0.0
  0
ARC
  5
34EC
  8
AM_0
 10
478.89527502163457
 20
857.53738784291795
 30
0.0
 40
10.0
 50
23.578037000000361
 51
156.42196000000081
  0
ARC
  5
34ED
  8
AM_0
 10
473.63098502163479
 20
872.64657784291808
 30
0.0
 40
5.0
 50
289.2091599999996
 51
0.0
  0
LINE
  5
34EE
  8
AM_0
 10
494.89527502163457
 20
935.10306784291822
 30
0.0
 11
546.69092502163483
 21
935.10306784291822
 31
0.0
  0
LINE
  5
34EF
  8
AM_0
 10
481.89514502163462
 20
909.10190784291819
 30
0.0
 11
494.89527502163457
 21
909.10190784291819
 31
0.0
  0
LINE
  5
34F0
  8
AM_0
 10
481.89514502163462
 20
935.10312784291796
 30
0.0
 11
494.89527502163457
 21
935.10312784291796
 31
0.0
  0
ARC
  5
34F1
  8
AM_0
 10
546.69092502163483
 20
938.10306784291822
 30
0.0
 40
3.0
 50
270.0
 51
300.88098000000002
  0
ARC
  5
34F2
  8
AM_0
 10
550.58277502163446
 20
933.43936784291827
 30
0.0
 40
3.0
 50
120.8809699999987
 51
270.0
  0
LINE
  5
34F3
  8
AM_0
 10
616.8952750216348
 20
835.03738784291806
 30
0.0
 11
616.8952750216348
 21
880.03738784291795
 31
0.0
  0
LINE
  5
34F4
  8
AM_0
 10
614.89514502163479
 20
835.03738784291806
 30
0.0
 11
616.8952750216348
 21
835.03738784291806
 31
0.0
  0
ARC
  5
34F5
  8
AM_0
 10
630.8952750216348
 20
857.53726784291825
 30
0.0
 40
6.0000037999999991
 50
90.00000299999769
 51
270.0
  0
LINE
  5
34F6
  8
AM_0
 10
630.8952750216348
 20
863.53726784291825
 30
0.0
 11
630.8952750216348
 21
851.53726784291825
 31
0.0
  0
LINE
  5
34F7
  8
AM_0
 10
582.76386502163496
 20
930.43936784291805
 30
0.0
 11
592.89520502163487
 21
937.99747784291844
 31
0.0
  0
ARC
  5
34F8
  8
AM_0
 10
597.8952750216348
 20
923.67178784291821
 30
0.0
 40
5.0
 50
179.9999899999988
 51
270.0
  0
LINE
  5
34F9
  8
AM_0
 10
614.89514502163479
 20
880.03738784291795
 30
0.0
 11
616.8952750216348
 21
880.03738784291795
 31
0.0
  0
LINE
  5
34FA
  8
AM_0
 10
494.89520502163452
 20
986.66769784291807
 30
0.0
 11
592.89520502163487
 21
990.08993784291795
 31
0.0
  0
LINE
  5
34FB
  8
AM_0
 10
494.89527502163457
 20
997.27530784291821
 30
0.0
 11
595.82880502163471
 21
999.51095784291806
 31
0.0
  0
ARC
  5
34FC
  8
AM_0
 10
475.4456250216349
 20
973.03738784291795
 30
0.0
 40
5.0
 50
270.0
 51
335.00000000000063
  0
LINE
  5
34FD
  8
AM_0
 10
479.97717502163482
 20
970.92428784291826
 30
0.0
 11
481.61408502163482
 21
974.43460784291835
 31
0.0
  0
ARC
  5
34FE
  8
AM_0
 10
478.89520502163481
 20
975.70248784291834
 30
0.0
 40
3.0
 50
335.00000000000063
 51
0.0
  0
LINE
  5
34FF
  8
AM_0
 10
484.73816502163459
 20
996.74301784291822
 30
0.0
 11
494.89533502163482
 21
997.27530784291821
 31
0.0
  0
LINE
  5
3500
  8
AM_0
 10
483.82544502163478
 20
986.28116784291797
 30
0.0
 11
494.89527502163457
 21
986.66769784291807
 31
0.0
  0
ARC
  5
3501
  8
AM_0
 10
484.89514502163479
 20
993.74710784291813
 30
0.0
 40
3.0
 50
92.999999000001679
 51
180.00001000000091
  0
ARC
  5
3502
  8
AM_0
 10
483.8952750216348
 20
984.28232784291822
 30
0.0
 40
2.0
 50
91.999998000000545
 51
180.00001000000091
  0
LINE
  5
3503
  8
AM_0
 10
610.89514502163479
 20
977.53726784291825
 30
0.0
 11
614.89514502163479
 21
977.53726784291825
 31
0.0
  0
POLYLINE
  5
3504
  8
AM_0
 66
     1
 10
0.0
 20
0.0
 30
0.0
  0
VERTEX
  5
3505
  8
AM_0
 10
592.8952750216348
 20
976.73013784291823
 30
0.0
  0
VERTEX
  5
3506
  8
AM_0
 10
585.23644502163495
 20
957.65945784291796
 30
0.0
 42
-1.0
  0
SEQEND
  5
3507
  8
AM_0
  0
ARC
  5
3508
  8
AM_0
 10
587.8952750216348
 20
965.07510784291821
 30
0.0
 40
5.0
 50
300.88098000000002
 51
0.0
  0
ARC
  5
3509
  8
AM_0
 10
595.89514502163445
 20
968.49466784291826
 30
0.0
 40
5.0
 50
0.0
 51
91.999998000000545
  0
ARC
  5
350A
  8
AM_0
 10
595.89514502163445
 20
996.5117578429182
 30
0.0
 40
3.0
 50
91.999998000000545
 51
180.00001000000091
  0
LINE
  5
350B
  8
AM_0
 10
595.79047502163485
 20
999.50992784291827
 30
0.0
 11
610.89514502163479
 21
1000.037387842918
 31
0.0
  0
LINE
  5
350C
  8
AM_0
 10
686.89520502163475
 20
836.53738784291795
 30
0.0
 11
686.89520502163475
 21
878.53738784291806
 31
0.0
  0
LINE
  5
350E
  8
AM_0
 10
610.89520502163475
 20
565.03156480475138
 30
0.0
 11
614.89520502163475
 21
565.03156480475138
 31
0.0
  0
LINE
  5
350F
  8
AM_0
 10
610.89520502163475
 20
325.03156480475133
 30
0.0
 11
614.89520502163475
 21
325.03156480475133
 31
0.0
  0
LINE
  5
3510
  8
ﾁｭｳｼﾝｾﾝ
 10
453.17065502163479
 20
445.0315698047512
 30
0.0
 11
694.83960502163495
 21
445.0315698047512
 31
0.0
  0
LINE
  5
3511
  8
AM_0
 10
334.39525502163491
 20
554.03156480475127
 30
0.0
 11
334.39525502163491
 21
407.03156480475138
 31
0.0
  0
LINE
  5
3512
  8
AM_0
 10
314.39525502163491
 20
557.0315648047515
 30
0.0
 11
314.39525502163491
 21
257.03156480475133
 31
0.0
  0
LINE
  5
3513
  8
AM_0
 10
494.89520502163452
 20
277.03156480475133
 30
0.0
 11
494.89520502163452
 21
537.03156480475138
 31
0.0
  0
LINE
  5
3514
  8
AM_0
 10
592.89525502163485
 20
466.51841480475122
 30
0.0
 11
592.89525502163485
 21
584.00591480475146
 31
0.0
  0
LINE
  5
3515
  8
AM_0
 10
610.89520502163475
 20
302.53156480475133
 30
0.0
 11
610.89520502163475
 21
587.53156480475127
 31
0.0
  0
LINE
  5
3516
  8
AM_0
 10
591.76065502163488
 20
463.38456480475122
 30
0.0
 11
575.50775502163503
 21
512.52051980475107
 31
0.0
  0
LINE
  5
3517
  8
AM_0
 10
600.89520502163475
 20
445.0315698047512
 30
0.0
 11
600.89520502163475
 21
555.9888648047513
 31
0.0
  0
LINE
  5
3518
  8
AM_0
 10
481.89520502163458
 20
279.41689480475122
 30
0.0
 11
481.89520502163458
 21
534.64626480475135
 31
0.0
  0
LINE
  5
3519
  8
AM_0
 10
408.39520502163441
 20
289.53156480475138
 30
0.0
 11
408.39520502163441
 21
525.03156980475114
 31
0.0
  0
LINE
  5
351A
  8
AM_0
 10
395.39525502163491
 20
287.53156480475133
 30
0.0
 11
395.39525502163491
 21
526.53156980475137
 31
0.0
  0
LINE
  5
351B
  8
AM_0
 10
478.63100502163462
 20
518.6775348047513
 30
0.0
 11
478.63100502163462
 21
295.38559980475122
 31
0.0
  0
LINE
  5
351C
  8
AM_0
 10
392.3958650216349
 20
322.8258058047515
 30
0.0
 11
363.99104502163482
 21
321.83388680475122
 31
0.0
  0
LINE
  5
351D
  8
AM_0
 10
363.99104502163482
 20
306.27753780475132
 30
0.0
 11
392.3958650216349
 21
307.26945580475149
 31
0.0
  0
LINE
  5
351E
  8
AM_0
 10
395.39525502163491
 20
289.03156474479908
 30
0.0
 11
339.26437102163482
 21
287.56172580475152
 31
0.0
  0
LINE
  5
351F
  8
ﾁｭｳｼﾝｾﾝ
 10
298.36394256303521
 20
407.03156480475138
 30
0.0
 11
489.33648034523583
 21
407.03156480475138
 31
0.0
  0
LINE
  5
3520
  8
AM_0
 10
334.39525502163491
 20
260.03156480475138
 30
0.0
 11
334.39525502163491
 21
407.03156480475138
 31
0.0
  0
LINE
  5
3521
  8
AM_0
 10
391.69826302163477
 20
332.49780480475152
 30
0.0
 11
339.26437102163482
 21
331.12477480475133
 31
0.0
  0
ARC
  5
3522
  8
AM_0
 10
331.3952550216348
 20
260.03156480475138
 30
0.0
 40
3.0
 50
270.0
 51
0.0
  0
LINE
  5
3523
  8
AM_0
 10
314.39525502163491
 20
257.03156480475133
 30
0.0
 11
331.3952550216348
 21
257.03156480475133
 31
0.0
  0
ARC
  5
3524
  8
AM_0
 10
339.39525502163491
 20
326.12648780475132
 30
0.0
 40
5.0
 50
91.499999999996206
 51
150.7208909999986
  0
ARC
  5
3525
  8
AM_0
 10
339.39525502163491
 20
305.78507180475123
 30
0.0
 40
5.0
 50
114.0451930000017
 51
180.0
  0
ARC
  5
3526
  8
AM_0
 10
339.39525502163491
 20
290.22872280475138
 30
0.0
 40
5.0
 50
114.0451930000017
 51
180.0
  0
ARC
  5
3527
  8
AM_0
 10
339.39525502163491
 20
282.56343980475151
 30
0.0
 40
5.0
 50
91.499999999996206
 51
180.0
  0
LINE
  5
3528
  8
AM_0
 10
337.3579700216348
 20
294.79484380475122
 30
0.0
 11
362.12825702163462
 21
305.84670580475148
 31
0.0
  0
LINE
  5
3529
  8
AM_0
 10
337.3579700216348
 20
310.35119380475118
 30
0.0
 11
362.12825702163462
 21
321.40305480475149
 31
0.0
  0
ARC
  5
352A
  8
AM_0
 10
364.16554302163462
 20
301.28058380475142
 30
0.0
 40
5.0
 50
91.999999999997087
 51
114.0451930000017
  0
ARC
  5
352B
  8
AM_0
 10
364.16554302163462
 20
316.83693280475143
 30
0.0
 40
5.0
 50
91.999999999997087
 51
114.0451930000017
  0
LINE
  5
352C
  8
AM_0
 10
365.39525502163491
 20
308.3106068047515
 30
0.0
 11
365.39525502163491
 21
319.79080880475152
 31
0.0
  0
LINE
  5
352D
  8
AM_0
 10
592.89525502163485
 20
305.0095948047512
 30
0.0
 11
592.89525502163485
 21
353.52472980475119
 31
0.0
  0
LINE
  5
352E
  8
AM_0
 10
522.89525502163485
 20
326.07395480475122
 30
0.0
 11
522.89525502163485
 21
342.17395980475118
 31
0.0
  0
ARC
  5
352F
  8
AM_0
 10
522.89525502163485
 20
333.94846480475121
 30
0.0
 40
9.7211409999999994
 50
90.00000299999769
 51
270.0
  0
ARC
  5
3530
  8
AM_0
 10
595.89520502163475
 20
334.07425980475119
 30
0.0
 40
5.0
 50
268.0000000000029
 51
0.0
  0
LINE
  5
3531
  8
AM_0
 10
494.89520502163452
 20
285.31429480475123
 30
0.0
 11
571.67885502163494
 21
285.31429480475123
 31
0.0
  0
LINE
  5
3532
  8
AM_0
 10
494.89520502163452
 20
299.7710998047512
 30
0.0
 11
596.7186550216345
 21
299.7710998047512
 31
0.0
  0
LINE
  5
3533
  8
AM_0
 10
494.89520502163452
 20
277.03157980475129
 30
0.0
 11
554.62370502163481
 21
275.4675398047512
 31
0.0
  0
LINE
  5
3534
  8
AM_0
 10
413.39520502163452
 20
296.53156480475133
 30
0.0
 11
475.44565502163488
 21
296.53156480475133
 31
0.0
  0
LINE
  5
3535
  8
AM_0
 10
408.39520502163441
 20
320.3566398047513
 30
0.0
 11
478.63100502163462
 21
320.3566398047513
 31
0.0
  0
ARC
  5
3536
  8
AM_0
 10
413.39520502163452
 20
291.53156480475133
 30
0.0
 40
5.0
 50
90.00000299999769
 51
180.00001000000091
  0
LINE
  5
3537
  8
AM_0
 10
395.39525502163491
 20
287.53156480475133
 30
0.0
 11
406.39515502163488
 21
287.53156480475133
 31
0.0
  0
ARC
  5
3538
  8
AM_0
 10
406.39515502163488
 20
289.53156480475138
 30
0.0
 40
2.0000000500000001
 50
270.0
 51
0.0
  0
LINE
  5
3539
  8
AM_0
 10
393.3952550216348
 20
323.86070480475132
 30
0.0
 11
393.3952550216348
 21
308.30435580475142
 31
0.0
  0
LINE
  5
353A
  8
AM_0
 10
392.3958650216349
 20
322.8258058047515
 30
0.0
 11
392.3958650216349
 21
307.26945580475149
 31
0.0
  0
LINE
  5
353B
  8
AM_0
 10
395.39525502163491
 20
307.3043598047513
 30
0.0
 11
406.39515502163488
 21
307.3043598047513
 31
0.0
  0
LINE
  5
353C
  8
AM_0
 10
392.3958650216349
 20
307.26945580475149
 30
0.0
 11
393.3952550216348
 21
308.30435580475142
 31
0.0
  0
ARC
  5
353D
  8
AM_0
 10
406.39515502163488
 20
309.30432980475132
 30
0.0
 40
2.0000000500000001
 50
270.0
 51
0.0
  0
LINE
  5
353E
  8
AM_0
 10
395.39525502163491
 20
322.86069980475122
 30
0.0
 11
406.39515502163488
 21
322.86069980475122
 31
0.0
  0
LINE
  5
353F
  8
AM_0
 10
392.3958650216349
 20
322.8258058047515
 30
0.0
 11
393.3952550216348
 21
323.86070480475132
 31
0.0
  0
LINE
  5
3540
  8
AM_0
 10
393.3952550216348
 20
331.00805780475122
 30
0.0
 11
393.3952550216348
 21
323.86070480475132
 31
0.0
  0
ARC
  5
3541
  8
AM_0
 10
406.39515502163488
 20
324.86069980475122
 30
0.0
 40
2.0000000500000001
 50
270.0
 51
0.0
  0
ARC
  5
3542
  8
AM_0
 10
475.44565502163488
 20
291.53156480475133
 30
0.0
 40
5.0
 50
24.99999999999935
 51
90.00000299999769
  0
ARC
  5
3543
  8
AM_0
 10
483.89520502163452
 20
279.41689480475122
 30
0.0
 40
2.0000000500000001
 50
179.9999899999988
 51
268.00000999999861
  0
LINE
  5
3544
  8
AM_0
 10
483.82535502163478
 20
277.4181298047514
 30
0.0
 11
494.89520502163452
 21
277.03156480475133
 31
0.0
  0
LINE
  5
3545
  8
AM_0
 10
494.89520502163452
 20
284.44825480475117
 30
0.0
 11
481.89520502163458
 21
284.44825480475117
 31
0.0
  0
LINE
  5
3546
  8
AM_0
 10
479.97720502163452
 20
293.6446648047513
 30
0.0
 11
481.61410502163483
 21
290.13431980475133
 31
0.0
  0
ARC
  5
3547
  8
AM_0
 10
478.89520502163441
 20
288.86647980475118
 30
0.0
 40
3.0000000500000001
 50
0.0
 51
24.99999999999935
  0
LINE
  5
3548
  8
AM_0
 10
481.89520502163458
 20
302.70731480475121
 30
0.0
 11
494.89520502163452
 21
302.70731480475121
 31
0.0
  0
LINE
  5
3549
  8
AM_0
 10
554.62375502163445
 20
275.4674948047512
 30
0.0
 11
600.89520502163475
 21
302.1823548047513
 31
0.0
  0
LINE
  5
354A
  8
AM_0
 10
522.89525502163485
 20
324.22730480475133
 30
0.0
 11
592.89525502163485
 21
324.22730480475133
 31
0.0
  0
LINE
  5
354B
  8
AM_0
 10
595.99985502163474
 20
302.0114248047513
 30
0.0
 11
610.89520502163475
 21
302.53156480475133
 31
0.0
  0
ARC
  5
354C
  8
AM_0
 10
595.89520502163475
 20
305.0095948047512
 30
0.0
 40
3.0000000500000001
 50
179.9999899999988
 51
271.99999000000139
  0
LINE
  5
354D
  8
AM_0
 10
494.89520502163452
 20
397.05057980475129
 30
0.0
 11
600.89520502163475
 21
397.05057980475129
 31
0.0
  0
LINE
  5
354E
  8
AM_0
 10
494.89520502163452
 20
417.0125848047511
 30
0.0
 11
600.89520502163475
 21
417.0125848047511
 31
0.0
  0
LINE
  5
354F
  8
AM_0
 10
408.39520502163441
 20
336.09876480475123
 30
0.0
 11
478.63100502163462
 21
336.09876480475123
 31
0.0
  0
LINE
  5
3550
  8
AM_0
 10
396.37405502163477
 20
332.59461480475119
 30
0.0
 11
407.40300502163478
 21
332.59461480475119
 31
0.0
  0
LINE
  5
3551
  8
AM_0
 10
481.89520502163458
 20
390.42127480475131
 30
0.0
 11
494.89520502163452
 21
390.42127480475131
 31
0.0
  0
LINE
  5
3552
  8
AM_0
 10
481.89520502163458
 20
422.0433448047512
 30
0.0
 11
494.89520502163452
 21
422.0433448047512
 31
0.0
  0
LINE
  5
3553
  8
AM_0
 10
600.89520502163475
 20
445.0315698047512
 30
0.0
 11
600.89520502163475
 21
334.07425980475119
 31
0.0
  0
LINE
  5
3554
  8
AM_0
 10
522.89525502163485
 20
343.66959480475128
 30
0.0
 11
592.89525502163485
 21
343.66959480475128
 31
0.0
  0
ARC
  5
3555
  8
AM_0
 10
597.89525502163485
 20
353.52472980475119
 30
0.0
 40
5.0
 50
90.00000299999769
 51
180.00001000000091
  0
LINE
  5
3556
  8
AM_0
 10
596.50775502163435
 20
459.95472480475121
 30
0.0
 11
600.89520502163475
 21
459.95472480475121
 31
0.0
  0
ARC
  5
3557
  8
AM_0
 10
596.50775502163435
 20
464.95472480475121
 30
0.0
 40
5.0
 50
198.30292000000031
 51
270.0
  0
LINE
  5
3558
  8
AM_0
 10
392.3958650216349
 20
491.23732480475132
 30
0.0
 11
363.99104502163482
 21
492.22924280475132
 31
0.0
  0
LINE
  5
3559
  8
AM_0
 10
363.99104502163482
 20
507.78559180475128
 30
0.0
 11
392.3958650216349
 21
506.79367380475151
 31
0.0
  0
LINE
  5
355A
  8
AM_0
 10
395.39525502163491
 20
525.03156486470368
 30
0.0
 11
339.26437102163482
 21
526.50140380475159
 31
0.0
  0
ARC
  5
355B
  8
AM_0
 10
339.39525502163491
 20
487.93664180475139
 30
0.0
 40
5.0
 50
209.27910900000131
 51
268.4999999999971
  0
ARC
  5
355C
  8
AM_0
 10
339.39525502163491
 20
531.49969080475148
 30
0.0
 40
5.0
 50
180.0
 51
268.4999999999971
  0
ARC
  5
355D
  8
AM_0
 10
339.39525502163491
 20
523.83440780475132
 30
0.0
 40
5.0
 50
180.0
 51
245.9548069999982
  0
ARC
  5
355E
  8
AM_0
 10
339.39525502163491
 20
508.27805880475131
 30
0.0
 40
5.0
 50
180.0
 51
245.9548069999982
  0
LINE
  5
355F
  8
AM_0
 10
337.3579700216348
 20
519.26828580475149
 30
0.0
 11
362.12825702163462
 21
508.21642480475151
 31
0.0
  0
LINE
  5
3560
  8
AM_0
 10
391.69826302163477
 20
481.5653258047513
 30
0.0
 11
339.26437102163482
 21
482.93835580475132
 31
0.0
  0
LINE
  5
3561
  8
AM_0
 10
337.3579700216348
 20
503.7119368047513
 30
0.0
 11
362.12825702163462
 21
492.66007580475139
 31
0.0
  0
ARC
  5
3562
  8
AM_0
 10
364.16554302163462
 20
497.22619680475123
 30
0.0
 40
5.0
 50
245.9548069999982
 51
268.0000000000029
  0
ARC
  5
3563
  8
AM_0
 10
364.16554302163462
 20
512.78254580475141
 30
0.0
 40
5.0
 50
245.9548069999982
 51
268.0000000000029
  0
LINE
  5
3564
  8
AM_0
 10
365.39525502163491
 20
505.75252280475138
 30
0.0
 11
365.39525502163491
 21
494.27232180475153
 31
0.0
  0
LINE
  5
3565
  8
AM_0
 10
314.39525502163491
 20
557.0315648047515
 30
0.0
 11
331.3952550216348
 21
557.0315648047515
 31
0.0
  0
ARC
  5
3566
  8
AM_0
 10
331.3952550216348
 20
554.03156480475127
 30
0.0
 40
3.0
 50
0.0
 51
90.0
  0
LINE
  5
3567
  8
AM_0
 10
494.8952550216348
 20
537.03161480475114
 30
0.0
 11
564.78335502163452
 21
538.8616648047514
 31
0.0
  0
LINE
  5
3568
  8
AM_0
 10
494.89520502163452
 20
514.29209980475139
 30
0.0
 11
543.956705021635
 21
514.29209980475139
 31
0.0
  0
LINE
  5
3569
  8
AM_0
 10
494.89520502163452
 20
528.74888480475136
 30
0.0
 11
557.80570502163459
 21
528.74888480475136
 31
0.0
  0
ARC
  5
356A
  8
AM_0
 10
478.89520502163441
 20
558.03156480475138
 30
0.0
 40
20.500000499999992
 50
304.61364000000401
 51
235.3863500000021
  0
CIRCLE
  5
356B
  8
AM_0
 10
478.89520502163441
 20
558.03156480475138
 30
0.0
 40
12.5
  0
LINE
  5
356C
  8
AM_0
 10
408.39520502163441
 20
493.70646480475108
 30
0.0
 11
478.63100502163462
 21
493.70646480475108
 31
0.0
  0
LINE
  5
356D
  8
AM_0
 10
408.39520502163441
 20
477.9643698047513
 30
0.0
 11
478.63100502163462
 21
477.9643698047513
 31
0.0
  0
LINE
  5
356E
  8
AM_0
 10
413.39520502163452
 20
517.53156980475114
 30
0.0
 11
475.44565502163488
 21
517.53156980475114
 31
0.0
  0
LINE
  5
356F
  8
AM_0
 10
393.3952550216348
 20
490.20242580475127
 30
0.0
 11
393.3952550216348
 21
505.75877480475151
 31
0.0
  0
LINE
  5
3570
  8
AM_0
 10
392.3958650216349
 20
491.23732480475132
 30
0.0
 11
392.3958650216349
 21
506.79367380475151
 31
0.0
  0
LINE
  5
3571
  8
AM_0
 10
396.37405502163477
 20
481.46851980475122
 30
0.0
 11
407.40300502163478
 21
481.46851980475122
 31
0.0
  0
LINE
  5
3572
  8
AM_0
 10
395.39525502163491
 20
491.20240480475138
 30
0.0
 11
406.39515502163488
 21
491.20240480475138
 31
0.0
  0
LINE
  5
3573
  8
AM_0
 10
392.3958650216349
 20
491.23732480475132
 30
0.0
 11
393.3952550216348
 21
490.20242580475127
 31
0.0
  0
LINE
  5
3574
  8
AM_0
 10
393.3952550216348
 20
483.05507180475109
 30
0.0
 11
393.3952550216348
 21
490.20242580475127
 31
0.0
  0
ARC
  5
3575
  8
AM_0
 10
406.39515502163488
 20
489.2024048047511
 30
0.0
 40
2.0000000500000001
 50
0.0
 51
90.00000299999769
  0
LINE
  5
3576
  8
AM_0
 10
395.39525502163491
 20
506.75876980475118
 30
0.0
 11
406.39515502163488
 21
506.75876980475118
 31
0.0
  0
LINE
  5
3577
  8
AM_0
 10
392.3958650216349
 20
506.79367380475151
 30
0.0
 11
393.3952550216348
 21
505.75877480475151
 31
0.0
  0
ARC
  5
3578
  8
AM_0
 10
406.39515502163488
 20
504.75876980475141
 30
0.0
 40
2.0000000500000001
 50
0.0
 51
90.00000299999769
  0
LINE
  5
3579
  8
AM_0
 10
395.39525502163491
 20
526.53156980475137
 30
0.0
 11
406.39515502163488
 21
526.53156980475137
 31
0.0
  0
ARC
  5
357A
  8
AM_0
 10
406.39515502163488
 20
524.53156980475114
 30
0.0
 40
2.0000000500000001
 50
0.0
 51
90.00000299999769
  0
ARC
  5
357B
  8
AM_0
 10
413.39520502163452
 20
522.53156980475137
 30
0.0
 40
5.0
 50
179.9999899999988
 51
270.0
  0
LINE
  5
357C
  8
AM_0
 10
481.89520502163458
 20
511.35584980475119
 30
0.0
 11
494.89520502163452
 21
511.35584980475119
 31
0.0
  0
ARC
  5
357D
  8
AM_0
 10
475.44565502163488
 20
522.53156980475137
 30
0.0
 40
5.0
 50
270.0
 51
335.00000000000063
  0
LINE
  5
357E
  8
AM_0
 10
471.39180502163481
 20
544.14626480475135
 30
0.0
 11
478.89525502163491
 21
545.53161480475114
 31
0.0
  0
LINE
  5
357F
  8
AM_0
 10
471.07805502163478
 20
544.03156480475138
 30
0.0
 11
486.71225502163492
 21
544.03156480475138
 31
0.0
  0
LINE
  5
3580
  8
AM_0
 10
468.89510502163472
 20
537.03156480475138
 30
0.0
 11
494.89520502163452
 21
537.03156480475138
 31
0.0
  0
LINE
  5
3581
  8
AM_0
 10
467.8952550216348
 20
522.53156980475137
 30
0.0
 11
467.8952550216348
 21
535.03156480475116
 31
0.0
  0
ARC
  5
3582
  8
AM_0
 10
462.8952550216348
 20
522.53156980475137
 30
0.0
 40
5.0
 50
270.0
 51
0.0
  0
LINE
  5
3583
  8
AM_0
 10
468.8950550216349
 20
537.0315148047514
 30
0.0
 11
470.60735502163459
 21
543.42166480475134
 31
0.0
  0
ARC
  5
3584
  8
AM_0
 10
471.57335502163488
 20
543.16281480475141
 30
0.0
 40
1.0
 50
100.4607200000025
 51
164.99999000000179
  0
ARC
  5
3585
  8
AM_0
 10
464.97820502163478
 20
537.86806480475116
 30
0.0
 40
4.000000049999997
 50
347.9293300000017
 51
55.386359000001512
  0
ARC
  5
3586
  8
AM_0
 10
469.89520502163452
 20
535.03156480475116
 30
0.0
 40
2.0000000500000001
 50
90.00000299999769
 51
180.00001000000091
  0
LINE
  5
3587
  8
AM_0
 10
494.89520502163452
 20
529.61487980475135
 30
0.0
 11
481.89520502163458
 21
529.61487980475135
 31
0.0
  0
LINE
  5
3588
  8
AM_0
 10
479.97725502163462
 20
520.41846980475134
 30
0.0
 11
481.61410502163483
 21
523.92878480475133
 31
0.0
  0
ARC
  5
3589
  8
AM_0
 10
478.89520502163441
 20
525.19666980475131
 30
0.0
 40
3.0000000500000001
 50
335.00000000000063
 51
0.0
  0
ARC
  5
358A
  8
AM_0
 10
492.81210502163492
 20
537.86806480475116
 30
0.0
 40
4.000000049999997
 50
124.6136499999977
 51
187.8682199999983
  0
LINE
  5
358B
  8
AM_0
 10
483.82535502163478
 20
536.64501480475133
 30
0.0
 11
494.89520502163452
 21
537.03161480475114
 31
0.0
  0
LINE
  5
358C
  8
AM_0
 10
488.89520502163452
 20
537.03161480475114
 30
0.0
 11
487.18295502163483
 21
543.42161480475124
 31
0.0
  0
ARC
  5
358D
  8
AM_0
 10
486.21710502163489
 20
543.16281480475141
 30
0.0
 40
1.0
 50
15.000000000000741
 51
79.539281000002589
  0
ARC
  5
358E
  8
AM_0
 10
483.89520502163452
 20
534.64626480475135
 30
0.0
 40
2.0000000500000001
 50
91.999998000000545
 51
180.00001000000091
  0
LINE
  5
358F
  8
AM_0
 10
478.89505502163479
 20
545.53156480475138
 30
0.0
 11
486.39845502163507
 21
544.14621480475125
 31
0.0
  0
LINE
  5
3590
  8
AM_0
 10
568.18800502163458
 20
540.32441480475109
 30
0.0
 11
591.43070502163471
 21
563.56711480475133
 31
0.0
  0
ARC
  5
3591
  8
AM_0
 10
587.89525502163485
 20
552.56936480475133
 30
0.0
 40
5.0
 50
300.88098000000002
 51
0.0
  0
LINE
  5
3592
  8
AM_0
 10
546.39520502163475
 20
512.52048980475115
 30
0.0
 11
573.8482050216345
 21
512.52048980475115
 31
0.0
  0
LINE
  5
3593
  8
AM_0
 10
590.46150502163505
 20
548.27821480475131
 30
0.0
 11
553.40260502163471
 21
526.11558480475139
 31
0.0
  0
LINE
  5
3594
  8
AM_0
 10
590.74785502163445
 20
542.03521480475138
 30
0.0
 11
548.98980502163511
 21
517.06232980475124
 31
0.0
  0
ARC
  5
3595
  8
AM_0
 10
546.39520502163475
 20
517.52048980475115
 30
0.0
 40
5.0
 50
229.76332999999909
 51
270.0
  0
ARC
  5
3596
  8
AM_0
 10
525.09500502163485
 20
538.82671480475108
 30
0.0
 40
30.946884499999999
 50
307.55230999999719
 51
335.59612999999888
  0
ARC
  5
3597
  8
AM_0
 10
573.8482050216345
 20
517.52048980475115
 30
0.0
 40
5.0
 50
270.0
 51
306.72320999999818
  0
LINE
  5
3598
  8
AM_0
 10
576.83795502163491
 20
513.51285980475132
 30
0.0
 11
592.89520502163475
 21
525.49168480475134
 31
0.0
  0
LINE
  5
3599
  8
AM_0
 10
568.10290502163446
 20
534.90691480475118
 30
0.0
 11
566.77750502163485
 21
538.91386480475126
 31
0.0
  0
ARC
  5
359A
  8
AM_0
 10
564.65250502163485
 20
543.85996480475114
 30
0.0
 40
5.0
 50
271.50000000000261
 51
315.0
  0
ARC
  5
359B
  8
AM_0
 10
595.89520502163475
 20
584.00591480475146
 30
0.0
 40
3.0000000500000001
 50
91.999998000000545
 51
180.00001000000091
  0
ARC
  5
359C
  8
AM_0
 10
587.89525502163485
 20
567.1026148047514
 30
0.0
 40
5.0
 50
315.0
 51
0.0
  0
ARC
  5
359D
  8
AM_0
 10
595.89520502163475
 20
555.9888648047513
 30
0.0
 40
5.0
 50
0.0
 51
91.999998000000545
  0
LINE
  5
359E
  8
AM_0
 10
595.79050502163454
 20
587.00411480475157
 30
0.0
 11
610.89520502163475
 21
587.53156480475127
 31
0.0
  0
LINE
  5
359F
  8
AM_0
 10
614.89520502163475
 20
445.0315698047512
 30
0.0
 11
614.89520502163475
 21
565.03156480475138
 31
0.0
  0
CIRCLE
  5
35A0
  8
AM_0
 10
987.51618486742007
 20
445.03157730475118
 30
0.0
 40
120.0
  0
CIRCLE
  5
35A1
  8
AM_0
 10
987.51618486742007
 20
445.03157730475118
 30
0.0
 40
113.0
  0
ARC
  5
35A2
  8
AM_0
 10
987.51618486742007
 20
407.03157230475119
 30
0.0
 40
122.0
 50
22.571981999999569
 51
55.326819999998243
  0
ARC
  5
35A3
  8
AM_0
 10
987.51618486742007
 20
407.03157230475119
 30
0.0
 40
122.0
 50
124.67318000000159
 51
157.4280199999998
  0
LINE
  5
35A4
  8
ﾁｭｳｼﾝｾﾝ
 10
987.51618486742007
 20
593.83175366071919
 30
0.0
 11
987.51618486742007
 21
269.06198230475121
 31
0.0
  0
LINE
  5
35A5
  8
AM_0
 10
845.01617986742008
 20
495.03157730475118
 30
0.0
 11
845.01617986742008
 21
445.03157730475118
 31
0.0
  0
CIRCLE
  5
35A6
  8
AM_0
 10
987.51618486742007
 20
445.03157730475118
 30
0.0
 40
41.000000499999992
  0
ARC
  5
35A7
  8
AM_0
 10
987.51618486742007
 20
445.03157730475118
 30
0.0
 40
61.999994999999998
 50
142.1149900000004
 51
180.00001000000091
  0
ARC
  5
35A8
  8
AM_0
 10
987.51618486742007
 20
445.03157730475118
 30
0.0
 40
61.999994999999998
 50
0.0
 51
36.416318000003159
  0
LINE
  5
35A9
  8
AM_0
 10
1130.0161998674189
 20
495.03157730475118
 30
0.0
 11
1130.0161998674189
 21
445.03157730475118
 31
0.0
  0
LINE
  5
35AA
  8
ﾁｭｳｼﾝｾﾝ
 10
909.38755487093886
 20
407.03157230475119
 30
0.0
 11
1065.644814863901
 21
407.03157230475108
 31
0.0
  0
ARC
  5
35AB
  8
AM_0
 10
987.51618486742007
 20
407.03157230475119
 30
0.0
 40
130.0
 50
246.6310400000028
 51
293.36895999999689
  0
LINE
  5
35AC
  8
AM_0
 10
1037.516184867419
 20
302.53157230475119
 30
0.0
 11
987.51618486742007
 21
302.53157230475119
 31
0.0
  0
LINE
  5
35AD
  8
ﾁｭｳｼﾝｾﾝ
 10
831.15015486741993
 20
445.03157730475118
 30
0.0
 11
1135.815596835022
 21
445.03157730475118
 31
0.0
  0
ARC
  5
35AE
  8
AM_0
 10
987.51618486742007
 20
407.03157230475119
 30
0.0
 40
150.0
 50
223.06231567046271
 51
316.93770073280092
  0
LINE
  5
35AF
  8
AM_0
 10
614.89520502163475
 20
445.0315698047512
 30
0.0
 11
614.89520502163475
 21
325.03156480475133
 31
0.0
  0
LINE
  5
35B0
  8
AM_0
 10
616.89520502163475
 20
424.0315698047512
 30
0.0
 11
686.89520502163475
 21
424.0315698047512
 31
0.0
  0
LINE
  5
35B1
  8
AM_0
 10
630.89520502163475
 20
469.03156980475143
 30
0.0
 11
686.89520502163475
 21
469.03156980475143
 31
0.0
  0
LINE
  5
35B2
  8
AM_0
 10
616.89520502163475
 20
466.03159980475112
 30
0.0
 11
686.89520502163475
 21
466.03159980475112
 31
0.0
  0
LINE
  5
35B3
  8
AM_0
 10
616.89520502163475
 20
422.53156980475143
 30
0.0
 11
616.89520502163475
 21
467.53156980475109
 31
0.0
  0
LINE
  5
35B4
  8
AM_0
 10
614.89520502163475
 20
422.53156980475143
 30
0.0
 11
616.89520502163475
 21
422.53156980475143
 31
0.0
  0
LINE
  5
35B5
  8
AM_0
 10
614.89520502163475
 20
467.53156980475109
 30
0.0
 11
616.89520502163475
 21
467.53156980475109
 31
0.0
  0
LINE
  5
35B6
  8
AM_0
 10
630.89520502163475
 20
469.03156980475143
 30
0.0
 11
630.89520502163475
 21
466.03159980475112
 31
0.0
  0
LINE
  5
35B7
  8
AM_0
 10
686.89520502163475
 20
424.0315698047512
 30
0.0
 11
686.89520502163475
 21
469.03156980475143
 31
0.0
  0
LINE
  5
35B8
  8
AM_0
 10
847.51901986741996
 20
323.35979230475112
 30
0.0
 11
845.01617986742008
 21
395.03154230475121
 31
0.0
  0
ARC
  5
35B9
  8
ﾁｭｳｼﾝｾﾝ1
 10
987.51618486741245
 20
445.03157730474402
 30
0.0
 40
170.00000499998939
 50
218.57805559680941
 51
231.01461
  0
LINE
  5
35BA
  8
ﾁｭｳｼﾝｾﾝ1
 10
856.26705657756111
 20
313.78244901489199
 30
0.0
 11
880.57184687928589
 21
338.08723931661712
 31
0.0
  0
CIRCLE
  5
35BB
  8
AM_0
 10
867.30801986742006
 20
324.82344230475121
 30
0.0
 40
9.5
  0
ARC
  5
35BC
  8
AM_0
 10
922.51618486742007
 20
294.44826230475121
 30
0.0
 40
10.0
 50
195.0000099999981
 51
285.00000000000148
  0
LINE
  5
35BD
  8
AM_0
 10
865.84433486742034
 20
305.03441230475119
 30
0.0
 11
937.51614986742004
 21
302.53157230475119
 31
0.0
  0
ARC
  5
35BE
  8
AM_0
 10
866.50742486742035
 20
324.02284730475122
 30
0.0
 40
19.000000499999999
 50
182.0000000000004
 51
268.0000000000029
  0
LINE
  5
35BF
  8
AM_0
 10
912.85693986742001
 20
291.86009230475122
 30
0.0
 11
909.7375898674203
 21
303.50166730475121
 31
0.0
  0
LINE
  5
35C0
  8
AM_0
 10
937.51618486742007
 20
302.53157230475119
 30
0.0
 11
987.51618486742007
 21
302.53157230475119
 31
0.0
  0
LINE
  5
35C1
  8
AM_0
 10
925.10434986742007
 20
284.78901730475121
 30
0.0
 11
935.95157486741994
 21
287.69552730475112
 31
0.0
  0
ARC
  5
35C2
  8
AM_0
 10
917.51618486741995
 20
425.03157730475101
 30
0.0
 40
8.0
 50
270.0
 51
0.0
  0
LINE
  5
35C3
  8
AM_0
 10
845.01617986742008
 20
395.03157230475108
 30
0.0
 11
845.01617986742008
 21
445.03157730475118
 31
0.0
  0
ARC
  5
35C4
  8
AM_0
 10
987.51618486742007
 20
407.03157230475119
 30
0.0
 40
150.0
 50
161.80513377767801
 51
199.78427436928951
  0
LINE
  5
35C5
  8
AM_0
 10
881.99368986741979
 20
417.03157730475101
 30
0.0
 11
917.51618486741995
 21
417.03157730475101
 31
0.0
  0
ARC
  5
35C6
  8
AM_0
 10
881.99368986741979
 20
422.03157730475112
 30
0.0
 40
5.0
 50
192.29603999999881
 51
270.0
  0
ARC
  5
35C7
  8
AM_0
 10
987.51618486742007
 20
445.03157730475118
 30
0.0
 40
20.9999985
 50
106.6015499999988
 51
73.398451999997818
  0
LINE
  5
35C8
  8
AM_0
 10
925.51618486741995
 20
445.03157730475118
 30
0.0
 11
925.51618486741995
 21
425.03157730475101
 31
0.0
  0
CIRCLE
  5
35C9
  8
AM_5
 10
987.51618486742007
 20
445.03157730475118
 30
0.0
 40
5.0
  0
CIRCLE
  5
35CA
  8
AM_0
 10
987.51618486742007
 20
445.03157730475118
 30
0.0
 40
3.5000000500000001
  0
POINT
  5
35CB
  8
AM_0
 10
987.51618486742007
 20
445.03157730475118
 30
0.0
  0
LINE
  5
35CC
  8
AM_0
 10
981.51618486741995
 20
469.03157730475118
 30
0.0
 11
993.51618486741995
 21
469.03157730475118
 31
0.0
  0
LINE
  5
35CD
  8
AM_0
 10
981.51618486741995
 20
461.03160730475122
 30
0.0
 11
993.51618486741995
 21
461.03160730475122
 31
0.0
  0
LINE
  5
35CE
  8
AM_0
 10
981.51618486741995
 20
469.03157730475118
 30
0.0
 11
981.51618486741995
 21
461.03160730475122
 31
0.0
  0
LINE
  5
35CF
  8
AM_0
 10
993.51618486741995
 20
469.03157730475118
 30
0.0
 11
993.51618486741995
 21
461.03160730475122
 31
0.0
  0
LINE
  5
35D0
  8
AM_0
 10
1127.5133648674191
 20
323.35975730475121
 30
0.0
 11
1130.0161998674189
 21
395.03160730475122
 31
0.0
  0
CIRCLE
  5
35D1
  8
AM_0
 10
1107.7243448674201
 20
324.82344230475121
 30
0.0
 40
9.5
  0
LINE
  5
35D2
  8
AM_0
 10
1109.1880298674189
 20
305.03444230475122
 30
0.0
 11
1037.516184867419
 21
302.53160230475117
 31
0.0
  0
LINE
  5
35D3
  8
AM_0
 10
1062.175469867419
 20
291.86009230475122
 30
0.0
 11
1065.2948098674201
 21
303.50163730475123
 31
0.0
  0
ARC
  5
35D4
  8
AM_0
 10
1052.51618486742
 20
294.44826230475121
 30
0.0
 40
10.0
 50
254.99999999999821
 51
344.99999999999909
  0
LINE
  5
35D5
  8
AM_0
 10
1049.9280198674201
 20
284.78901730475121
 30
0.0
 11
1039.08078986742
 21
287.69552730475112
 31
0.0
  0
ARC
  5
35D6
  8
AM_0
 10
1108.5249298674189
 20
324.02284730475122
 30
0.0
 40
19.000000499999999
 50
271.99999999999687
 51
357.9999999999992
  0
LINE
  5
35D7
  8
AM_0
 10
1130.0161998674189
 20
395.03157230475108
 30
0.0
 11
1130.0161998674189
 21
445.03157730475118
 31
0.0
  0
ARC
  5
35D8
  8
AM_0
 10
987.51618486742007
 20
407.03157230475119
 30
0.0
 40
150.0
 50
340.21574103365208
 51
18.194853989421301
  0
LINE
  5
35D9
  8
AM_0
 10
1093.0386898674201
 20
417.03157730475101
 30
0.0
 11
1057.516184867419
 21
417.03157730475101
 31
0.0
  0
LINE
  5
35DA
  8
AM_0
 10
1049.516184867419
 20
445.03157730475118
 30
0.0
 11
1049.516184867419
 21
425.03157730475101
 31
0.0
  0
ARC
  5
35DB
  8
AM_0
 10
1057.516184867419
 20
425.03157730475101
 30
0.0
 40
8.0
 50
179.9999899999988
 51
270.0
  0
ARC
  5
35DC
  8
AM_0
 10
1093.0386898674201
 20
422.03157730475112
 30
0.0
 40
5.0
 50
270.0
 51
347.70395000000082
  0
ARC
  5
35DD
  8
AM_0
 10
1027.2905998674189
 20
498.94817230475132
 30
0.0
 40
5.0
 50
233.58368000000161
 51
315.0
  0
ARC
  5
35DE
  8
AM_0
 10
987.51618486742007
 20
407.03157230475119
 30
0.0
 40
122.0
 50
60.143060000003558
 51
86.162371999997163
  0
LINE
  5
35DF
  8
AM_0
 10
1037.516184867419
 20
587.53157230475131
 30
0.0
 11
987.51618486742007
 21
587.53157230475131
 31
0.0
  0
LINE
  5
35E0
  8
AM_0
 10
915.01224486741989
 20
524.6065873047512
 30
0.0
 11
944.20624486741985
 21
495.41258730475113
 31
0.0
  0
LINE
  5
35E1
  8
AM_0
 10
907.94116986742006
 20
517.53551230475136
 30
0.0
 11
937.13516986742002
 21
488.34151230475118
 31
0.0
  0
LINE
  5
35E2
  8
AM_0
 10
865.84433486742034
 20
585.02872230475134
 30
0.0
 11
937.51618486742007
 21
587.53152230475132
 31
0.0
  0
LINE
  5
35E3
  8
AM_0
 10
847.51901986741996
 20
566.70337230475116
 30
0.0
 11
845.01617986742008
 21
495.03157730475118
 31
0.0
  0
ARC
  5
35E4
  8
AM_0
 10
918.54779986741994
 20
528.14211230475132
 30
0.0
 40
5.0
 50
129.6872200000015
 51
225.0
  0
ARC
  5
35E5
  8
AM_0
 10
904.40564986742004
 20
513.99996230475131
 30
0.0
 40
5.0
 50
45.00000100000149
 51
140.31278000000091
  0
ARC
  5
35E6
  8
AM_0
 10
866.50742486742035
 20
566.0403223047507
 30
0.0
 40
19.000000499999999
 50
91.999998000000545
 51
177.9999999999994
  0
CIRCLE
  5
35E7
  8
AM_0
 10
867.30801986742006
 20
565.23972230475113
 30
0.0
 40
9.5
  0
LINE
  5
35E8
  8
AM_0
 10
991.01618486742007
 20
552.69657230475127
 30
0.0
 11
991.01618486742007
 21
533.74682230475105
 31
0.0
  0
LINE
  5
35E9
  8
AM_0
 10
984.01618486742007
 20
552.69657230475127
 30
0.0
 11
984.01618486742007
 21
533.74682230475105
 31
0.0
  0
ARC
  5
35EA
  8
AM_0
 10
987.51618486742007
 20
445.03157730475118
 30
0.0
 40
61.999994999999998
 50
53.583681000000588
 51
126.41631999999819
  0
ARC
  5
35EB
  8
AM_0
 10
987.51618486741734
 20
407.03157730477568
 30
0.0
 40
121.9999999999761
 50
93.837626000003567
 51
119.8569400000037
  0
ARC
  5
35EC
  8
AM_0
 10
947.7417698674202
 20
498.94817230475132
 30
0.0
 40
5.0
 50
225.0
 51
306.41631999999822
  0
ARC
  5
35ED
  8
AM_0
 10
933.59964986741954
 20
484.8060223047512
 30
0.0
 40
5.0
 50
323.58368000000172
 51
45.00000100000149
  0
ARC
  5
35EE
  8
AM_0
 10
979.01618486741995
 20
533.74682230475105
 30
0.0
 40
5.0
 50
273.83763000000209
 51
0.0
  0
ARC
  5
35EF
  8
AM_0
 10
996.01618486742018
 20
533.74682230475105
 30
0.0
 40
5.0
 50
179.9999899999988
 51
266.16236000000072
  0
LINE
  5
35F0
  8
AM_0
 10
937.51618486742007
 20
587.53157230475131
 30
0.0
 11
987.51618486742007
 21
587.53157230475131
 31
0.0
  0
ARC
  5
35F1
  8
AM_0
 10
979.01618486741995
 20
552.69657230475127
 30
0.0
 40
5.0
 50
0.0
 51
94.514061000000083
  0
ARC
  5
35F2
  8
AM_0
 10
996.01618486742018
 20
552.69657230475127
 30
0.0
 40
5.0
 50
85.485944000000941
 51
180.00001000000091
  0
LINE
  5
35F3
  8
AM_0
 10
1127.513349867419
 20
566.70337230475116
 30
0.0
 11
1130.01618486742
 21
495.0315473047512
 31
0.0
  0
LINE
  5
35F4
  8
AM_0
 10
1067.09119486742
 20
517.53551230475136
 30
0.0
 11
1037.8971948674191
 21
488.3415423047511
 31
0.0
  0
LINE
  5
35F5
  8
AM_0
 10
1060.020119867419
 20
524.6065873047512
 30
0.0
 11
1030.8261498674201
 21
495.41261730475111
 31
0.0
  0
ARC
  5
35F6
  8
AM_0
 10
1041.432749867419
 20
484.8060223047512
 30
0.0
 40
5.0
 50
135.0
 51
216.41631999999831
  0
ARC
  5
35F7
  8
AM_0
 10
1056.4845998674191
 20
528.14211230475132
 30
0.0
 40
5.0
 50
315.0
 51
50.312775000000542
  0
ARC
  5
35F8
  8
AM_0
 10
1070.6267198674191
 20
513.99996230475131
 30
0.0
 40
5.0
 50
39.687223999999532
 51
135.0
  0
LINE
  5
35F9
  8
AM_0
 10
1109.1880298674189
 20
585.02877230475133
 30
0.0
 11
1037.516184867419
 21
587.53157230475131
 31
0.0
  0
ARC
  5
35FA
  8
AM_0
 10
1108.5249298674189
 20
566.0403223047507
 30
0.0
 40
19.000000499999999
 50
2.0000000000004712
 51
88.000000000002899
  0
CIRCLE
  5
35FB
  8
AM_0
 10
1107.7243448674201
 20
565.23972230475113
 30
0.0
 40
9.5
  0
ARC
  5
35FC
  8
ﾁｭｳｼﾝｾﾝ1
 10
987.51618486741438
 20
445.03157730474561
 30
0.0
 40
170.00000500000741
 50
38.565441519412211
 51
51.014604000000709
  0
LINE
  5
35FD
  8
ﾁｭｳｼﾝｾﾝ1
 10
1120.03490319197
 20
577.55032699324272
 30
0.0
 11
1094.1307271821379
 21
551.64612646835599
 31
0.0
  0
ARC
  5
35FE
  8
ﾁｭｳｼﾝｾﾝ1
 10
987.51618486742564
 20
445.03157730474561
 30
0.0
 40
170.00000500000741
 50
128.98539599999921
 51
141.4345584805877
  0
LINE
  5
35FF
  8
ﾁｭｳｼﾝｾﾝ1
 10
854.99746654287014
 20
577.55032699324272
 30
0.0
 11
880.9016425527019
 21
551.64612646835599
 31
0.0
  0
ARC
  5
3600
  8
ﾁｭｳｼﾝｾﾝ1
 10
987.51618486742791
 20
445.03157730474402
 30
0.0
 40
170.00000499998939
 50
308.98539
 51
321.42194440319031
  0
LINE
  5
3601
  8
ﾁｭｳｼﾝｾﾝ1
 10
1118.765313157279
 20
313.78244901489199
 30
0.0
 11
1094.4605228555531
 21
338.08723931661712
 31
0.0
  0
LINE
  5
3602
  8
AM_0
 10
393.39520502163481
 20
933.56089484291806
 30
0.0
 11
393.39520502163481
 21
940.70824884291835
 31
0.0
  0
LINE
  5
3603
  8
AM_0
 10
314.39520502163481
 20
1007.537387842917
 30
0.0
 11
314.39520502163481
 21
707.53738784291795
 31
0.0
  0
LINE
  5
3604
  8
AM_0
 10
334.39520502163481
 20
1004.537387842918
 30
0.0
 11
334.39520502163481
 21
857.53738784291795
 31
0.0
  0
LINE
  5
3605
  8
AM_0
 10
334.39520502163481
 20
710.53738784291806
 30
0.0
 11
334.39520502163481
 21
857.53738784291795
 31
0.0
  0
LINE
  5
3606
  8
AM_0
 10
391.69821302163461
 20
783.00362784291838
 30
0.0
 11
339.26432102163483
 21
781.63059784291806
 31
0.0
  0
LINE
  5
3607
  8
AM_0
 10
395.39520502163481
 20
739.53738778296565
 30
0.0
 11
339.26432102163483
 21
738.0675488429182
 31
0.0
  0
LINE
  5
3608
  8
AM_0
 10
363.99099502163477
 20
756.78336084291823
 30
0.0
 11
392.39581502163492
 21
757.77527884291806
 31
0.0
  0
LINE
  5
3609
  8
AM_0
 10
392.39581502163492
 20
773.33162884291824
 30
0.0
 11
363.99099502163477
 21
772.3397098429183
 31
0.0
  0
LINE
  5
360A
  8
AM_0
 10
314.39520502163481
 20
707.53738784291795
 30
0.0
 11
331.39520502163469
 21
707.53738784291795
 31
0.0
  0
ARC
  5
360B
  8
AM_0
 10
331.39520502163469
 20
710.53738784291806
 30
0.0
 40
3.0
 50
270.0
 51
0.0
  0
LINE
  5
360C
  8
AM_0
 10
337.35792002163492
 20
745.30066684291819
 30
0.0
 11
362.12820702163481
 21
756.35252884291822
 31
0.0
  0
ARC
  5
360D
  8
AM_0
 10
339.39520502163481
 20
733.06926284291819
 30
0.0
 40
5.0
 50
91.499999999996206
 51
180.0
  0
ARC
  5
360E
  8
AM_0
 10
339.39520502163481
 20
740.73454584291824
 30
0.0
 40
5.0
 50
114.0451930000017
 51
180.0
  0
LINE
  5
360F
  8
AM_0
 10
337.35792002163492
 20
760.85701684291826
 30
0.0
 11
362.12820702163481
 21
771.90887784291795
 31
0.0
  0
ARC
  5
3610
  8
AM_0
 10
339.39520502163481
 20
756.29089484291819
 30
0.0
 40
5.0
 50
114.0451930000017
 51
180.0
  0
ARC
  5
3611
  8
AM_0
 10
339.39520502163481
 20
776.63231084291806
 30
0.0
 40
5.0
 50
91.499999999996206
 51
150.7208909999986
  0
LINE
  5
3612
  8
AM_0
 10
365.39520502163481
 20
758.8164298429183
 30
0.0
 11
365.39520502163481
 21
770.29663184291815
 31
0.0
  0
ARC
  5
3613
  8
AM_0
 10
364.16549302163452
 20
751.78640684291804
 30
0.0
 40
5.0
 50
91.999999999997087
 51
114.0451930000017
  0
ARC
  5
3614
  8
AM_0
 10
364.16549302163452
 20
767.34275584291822
 30
0.0
 40
5.0
 50
91.999999999997087
 51
114.0451930000017
  0
LINE
  5
3615
  8
AM_0
 10
392.39581502163492
 20
773.33162884291824
 30
0.0
 11
392.39581502163492
 21
757.77527884291806
 31
0.0
  0
LINE
  5
3616
  8
AM_0
 10
393.39520502163481
 20
774.36652784291823
 30
0.0
 11
393.39520502163481
 21
758.81017884291839
 31
0.0
  0
LINE
  5
3617
  8
AM_0
 10
392.39581502163492
 20
757.77527884291806
 30
0.0
 11
393.39520502163481
 21
758.81017884291839
 31
0.0
  0
LINE
  5
3618
  8
AM_0
 10
393.39520502163481
 20
781.5138808429183
 30
0.0
 11
393.39520502163481
 21
774.36652784291823
 31
0.0
  0
LINE
  5
3619
  8
AM_0
 10
392.39581502163492
 20
773.33162884291824
 30
0.0
 11
393.39520502163481
 21
774.36652784291823
 31
0.0
  0
LINE
  5
361A
  8
AM_0
 10
391.69821302163461
 20
932.07114884291821
 30
0.0
 11
339.26432102163483
 21
933.44417884291806
 31
0.0
  0
ARC
  5
361B
  8
AM_0
 10
339.39520502163481
 20
938.44246484291853
 30
0.0
 40
5.0
 50
209.27910900000131
 51
268.4999999999971
  0
LINE
  5
361C
  8
AM_0
 10
395.39520502163481
 20
975.53738790287036
 30
0.0
 11
339.26432102163483
 21
977.00722684291827
 31
0.0
  0
LINE
  5
361D
  8
AM_0
 10
363.99099502163477
 20
958.29141484291824
 30
0.0
 11
392.39581502163492
 21
957.2994968429183
 31
0.0
  0
LINE
  5
361E
  8
AM_0
 10
392.39581502163492
 20
941.74314784291835
 30
0.0
 11
363.99099502163477
 21
942.73506584291829
 31
0.0
  0
LINE
  5
361F
  8
AM_0
 10
314.39520502163481
 20
1007.537387842917
 30
0.0
 11
331.39520502163469
 21
1007.537387842917
 31
0.0
  0
ARC
  5
3620
  8
AM_0
 10
339.39520502163481
 20
982.00551384291805
 30
0.0
 40
5.0
 50
180.0
 51
268.4999999999971
  0
LINE
  5
3621
  8
AM_0
 10
337.35792002163492
 20
954.21775984291844
 30
0.0
 11
362.12820702163481
 21
943.16589884291795
 31
0.0
  0
LINE
  5
3622
  8
AM_0
 10
337.35792002163492
 20
969.77410884291805
 30
0.0
 11
362.12820702163481
 21
958.72224784291825
 31
0.0
  0
ARC
  5
3623
  8
AM_0
 10
339.39520502163481
 20
958.78388184291828
 30
0.0
 40
5.0
 50
180.0
 51
245.9548069999982
  0
ARC
  5
3624
  8
AM_0
 10
339.39520502163481
 20
974.34023084291823
 30
0.0
 40
5.0
 50
180.0
 51
245.9548069999982
  0
ARC
  5
3625
  8
AM_0
 10
364.16549302163452
 20
963.28836884291809
 30
0.0
 40
5.0
 50
245.9548069999982
 51
268.0000000000029
  0
ARC
  5
3626
  8
AM_0
 10
364.16549302163452
 20
947.73201984291825
 30
0.0
 40
5.0
 50
245.9548069999982
 51
268.0000000000029
  0
LINE
  5
3627
  8
AM_0
 10
365.39520502163481
 20
956.25834584291795
 30
0.0
 11
365.39520502163481
 21
944.77814484291821
 31
0.0
  0
ARC
  5
3628
  8
AM_0
 10
331.39520502163469
 20
1004.537387842918
 30
0.0
 40
3.0
 50
0.0
 51
90.0
  0
LINE
  5
3629
  8
AM_0
 10
392.39581502163492
 20
957.2994968429183
 30
0.0
 11
393.39520502163481
 21
956.26459784291819
 31
0.0
  0
LINE
  5
362A
  8
AM_0
 10
392.39581502163492
 20
941.74314784291835
 30
0.0
 11
393.39520502163481
 21
940.70824884291835
 31
0.0
  0
LINE
  5
362B
  8
AM_0
 10
392.39581502163492
 20
941.74314784291835
 30
0.0
 11
392.39581502163492
 21
957.2994968429183
 31
0.0
  0
LINE
  5
362C
  8
AM_0
 10
393.39520502163481
 20
940.70824884291835
 30
0.0
 11
393.39520502163481
 21
956.26459784291819
 31
0.0
  0
TEXT
  5
3826
  8
AM_0
 10
855.9630647203835
 20
891.92147811461871
 30
0.0
 40
20.0
  1
VX55-003AF~VX55-010AF
  0
ENDSEC
  0
EOF
