  0
SECTION
  2
HEADER
  9
$ACADVER
  1
AC1009
  9
$INSBASE
 10
0.0
 20
0.0
 30
0.0
  9
$EXTMIN
 10
275.13185549100348
 20
211.25839516434189
 30
-0.0000000000112498
  9
$EXTMAX
 10
1271.4201542241731
 20
1047.4507166229309
 30
0.0000000000002956
  9
$LIMMIN
 10
0.0
 20
0.0
  9
$LIMMAX
 10
1707.0
 20
1110.0
  9
$ORTHOMODE
 70
     0
  9
$REGENMODE
 70
     1
  9
$FILLMODE
 70
     1
  9
$QTEXTMODE
 70
     0
  9
$MIRRTEXT
 70
     1
  9
$DRAGMODE
 70
     2
  9
$LTSCALE
 40
6.0
  9
$OSMODE
 70
   551
  9
$ATTMODE
 70
     1
  9
$TEXTSIZE
 40
2.5
  9
$TRACEWID
 40
1.0
  9
$TEXTSTYLE
  7
STANDARD
  9
$CLAYER
  8
AM_0
  9
$CELTYPE
  6
BYLAYER
  9
$CECOLOR
 62
   256
  9
$DIMSCALE
 40
1.0
  9
$DIMASZ
 40
2.5
  9
$DIMEXO
 40
1.0
  9
$DIMDLI
 40
8.0
  9
$DIMRND
 40
0.0
  9
$DIMDLE
 40
0.0
  9
$DIMEXE
 40
0.6
  9
$DIMTP
 40
0.1
  9
$DIMTM
 40
0.1
  9
$DIMTXT
 40
2.5
  9
$DIMCEN
 40
0.0
  9
$DIMTSZ
 40
0.0
  9
$DIMTOL
 70
     0
  9
$DIMLIM
 70
     0
  9
$DIMTIH
 70
     0
  9
$DIMTOH
 70
     0
  9
$DIMSE1
 70
     0
  9
$DIMSE2
 70
     0
  9
$DIMTAD
 70
     1
  9
$DIMZIN
 70
     8
  9
$DIMBLK
  1

  9
$DIMASO
 70
     1
  9
$DIMSHO
 70
     1
  9
$DIMPOST
  1

  9
$DIMAPOST
  1
"
  9
$DIMALT
 70
     0
  9
$DIMALTD
 70
     2
  9
$DIMALTF
 40
0.0393701
  9
$DIMLFAC
 40
1.0
  9
$DIMTOFL
 70
     1
  9
$DIMTVP
 40
0.0
  9
$DIMTIX
 70
     0
  9
$DIMSOXD
 70
     0
  9
$DIMSAH
 70
     0
  9
$DIMBLK1
  1

  9
$DIMBLK2
  1

  9
$DIMSTYLE
  2
AM_ISO
  9
$DIMCLRD
 70
   256
  9
$DIMCLRE
 70
   256
  9
$DIMCLRT
 70
     4
  9
$DIMTFAC
 40
0.71
  9
$DIMGAP
 40
0.8
  9
$LUNITS
 70
     2
  9
$LUPREC
 70
     2
  9
$SKETCHINC
 40
1.0
  9
$FILLETRAD
 40
30.0
  9
$AUNITS
 70
     0
  9
$AUPREC
 70
     0
  9
$MENU
  1
.
  9
$ELEVATION
 40
0.0
  9
$PELEVATION
 40
0.0
  9
$THICKNESS
 40
0.0
  9
$LIMCHECK
 70
     0
  9
$BLIPMODE
 70
     0
  9
$CHAMFERA
 40
12.0
  9
$CHAMFERB
 40
6.0
  9
$SKPOLY
 70
     0
  9
$TDCREATE
 40
2452066.7771334262
  9
$TDUPDATE
 40
2458541.5579551621
  9
$TDINDWG
 40
0.1258518519
  9
$TDUSRTIMER
 40
0.1258516551
  9
$USRTIMER
 70
     1
  9
$ANGBASE
 50
0.0
  9
$ANGDIR
 70
     0
  9
$PDMODE
 70
     0
  9
$PDSIZE
 40
0.0
  9
$PLINEWID
 40
0.0
  9
$COORDS
 70
     1
  9
$SPLFRAME
 70
     0
  9
$SPLINETYPE
 70
     6
  9
$SPLINESEGS
 70
     8
  9
$ATTDIA
 70
     1
  9
$ATTREQ
 70
     1
  9
$HANDLING
 70
     1
  9
$HANDSEED
  5
35EC
  9
$SURFTAB1
 70
     6
  9
$SURFTAB2
 70
     6
  9
$SURFTYPE
 70
     6
  9
$SURFU
 70
     6
  9
$SURFV
 70
     6
  9
$UCSNAME
  2

  9
$UCSORG
 10
0.0
 20
0.0
 30
0.0
  9
$UCSXDIR
 10
1.0
 20
0.0
 30
0.0
  9
$UCSYDIR
 10
0.0
 20
1.0
 30
0.0
  9
$PUCSNAME
  2

  9
$PUCSORG
 10
0.0
 20
0.0
 30
0.0
  9
$PUCSXDIR
 10
1.0
 20
0.0
 30
0.0
  9
$PUCSYDIR
 10
0.0
 20
1.0
 30
0.0
  9
$USERI1
 70
     0
  9
$USERI2
 70
     0
  9
$USERI3
 70
     0
  9
$USERI4
 70
     0
  9
$USERI5
 70
     0
  9
$USERR1
 40
0.0
  9
$USERR2
 40
0.0
  9
$USERR3
 40
0.0
  9
$USERR4
 40
0.0
  9
$USERR5
 40
0.0
  9
$WORLDVIEW
 70
     1
  9
$SHADEDGE
 70
     3
  9
$SHADEDIF
 70
    70
  9
$TILEMODE
 70
     1
  9
$MAXACTVP
 70
    64
  9
$PLIMCHECK
 70
     0
  9
$PEXTMIN
 10
1.0000000000000000E+020
 20
1.0000000000000000E+020
 30
1.0000000000000000E+020
  9
$PEXTMAX
 10
-1.0000000000000000E+020
 20
-1.0000000000000000E+020
 30
-1.0000000000000000E+020
  9
$PLIMMIN
 10
0.0
 20
0.0
  9
$PLIMMAX
 10
420.0
 20
297.0
  9
$UNITMODE
 70
     0
  9
$VISRETAIN
 70
     1
  9
$PLINEGEN
 70
     0
  9
$PSLTSCALE
 70
     1
  0
ENDSEC
  0
SECTION
  2
TABLES
  0
TABLE
  2
VPORT
 70
     1
  0
VPORT
  2
*ACTIVE
 70
     0
 10
0.0
 20
0.0
 11
1.0
 21
1.0
 12
773.27600485758853
 22
629.35455589363664
 13
0.0
 23
0.0
 14
15.0
 24
15.0
 15
60.0
 25
60.0
 16
0.0
 26
0.0
 36
1.0
 17
0.0
 27
0.0
 37
0.0
 40
841.93277217798493
 41
1.7571592210767459
 42
50.0
 43
0.0
 44
0.0
 50
0.0
 51
0.0
 71
     0
 72
   100
 73
     1
 74
     3
 75
     0
 76
     0
 77
     0
 78
     0
  0
ENDTAB
  0
TABLE
  2
LTYPE
 70
    26
  0
LTYPE
  2
CONTINUOUS
 70
     0
  3
Solid line
 72
    65
 73
     0
 40
0.0
  0
LTYPE
  2
AM_ISO02W050
 70
     0
  3
__ __ __ __ __ __ __ __ __ __ __ __ __ __ __
 72
    65
 73
     2
 40
7.5
 49
6.0
 49
-1.5
  0
LTYPE
  2
AM_ISO08W050
 70
     0
  3
____ . ____ . ____ . ____ . ____ . ____ . ____
 72
    65
 73
     4
 40
18.0
 49
12.0
 49
-1.5
 49
3.0
 49
-1.5
  0
LTYPE
  2
AM_ISO09W050
 70
     0
  3
_____ . . _____ . . _____ . . ____ .. ____
 72
    65
 73
     6
 40
22.5
 49
12.0
 49
-1.5
 49
3.0
 49
-1.5
 49
3.0
 49
-1.5
  0
LTYPE
  2
AMCONSTR
 70
     0
  3
_______________________
 72
    65
 73
     2
 40
9999.0
 49
9999.0
 49
0.0
  0
LTYPE
  2
AM_ISO08W050X2
 70
     0
  3
__ . __ . __ . __ . __ . __
 72
    65
 73
     4
 40
9.0
 49
6.0
 49
-0.75
 49
1.5
 49
-0.75
  0
LTYPE
  2
AM_ISO02W050X2
 70
     0
  3
 _ _ _ _ _ _ _ _ _ _ _ _
 72
    65
 73
     2
 40
3.75
 49
3.0
 49
-0.75
  0
LTYPE
  2
AMZIGZAG
 70
     0
  3
/\/-/\/-/\/-/\/-/\/-/\/
 72
    65
 73
     2
 40
11.000099999999991
 49
0.0001
 49
-11.0
  0
LTYPE
  2
ACISOWELD
 70
     0
  3
_ _ _ _ _
 72
    65
 73
     2
 40
2.0
 49
2.0
 49
-1.0
  0
LTYPE
  2
ACISOTGB
 70
     0
  3
__ . . __ . .
 72
    65
 73
     6
 40
9.0
 49
4.0
 49
-1.0
 49
1.0
 49
-1.0
 49
1.0
 49
-1.0
  0
LTYPE
  2
ACISOTGL
 70
     0
  3
_ _ _ _ _
 72
    65
 73
     2
 40
3.0
 49
2.0
 49
-1.0
  0
LTYPE
  2
CENTER
 70
     0
  3
__ . __
 72
    65
 73
     4
 40
7.0
 49
4.0
 49
-1.0
 49
1.0
 49
-1.0
  0
LTYPE
  2
PHANTOM2
 70
     0
  3
Phantom (.5x) ___ _ _ ___ _ _ ___ _ _ ___ _ _
 72
    65
 73
     6
 40
31.75
 49
15.875
 49
-3.174999999999998
 49
3.174999999999998
 49
-3.174999999999998
 49
3.174999999999998
 49
-3.174999999999998
  0
LTYPE
  2
ACANSTGBM
 70
     0
  3
__ . . __ . .
 72
    65
 73
     6
 40
9.0
 49
4.0
 49
-1.0
 49
1.0
 49
-1.0
 49
1.0
 49
-1.0
  0
LTYPE
  2
ACANSTGLM
 70
     0
  3
_ _ _ _ _
 72
    65
 73
     2
 40
3.0
 49
2.0
 49
-1.0
  0
LTYPE
  2
GEN7
 70
     0
  3
____ . ____ . ____ . ____ . ____ . ____ . ____
 72
    65
 73
     4
 40
14.25
 49
9.75
 49
-1.5
 49
1.5
 49
-1.5
  0
LTYPE
  2
GEN7A
 70
     0
  3
__ . __ . __
 72
    65
 73
     4
 40
7.375
 49
4.75
 49
-0.875
 49
0.875
 49
-0.875
  0
LTYPE
  2
ACJISTGB
 70
     0
  3
__ . . __ . .
 72
    65
 73
     6
 40
9.0
 49
4.0
 49
-1.0
 49
1.0
 49
-1.0
 49
1.0
 49
-1.0
  0
LTYPE
  2
ACJISTGL
 70
     0
  3
_ _ _ _ _
 72
    65
 73
     2
 40
3.0
 49
2.0
 49
-1.0
  0
LTYPE
  2
HIDDEN
 70
     0
  3
Hidden __ __ __ __ __ __ __ __ __ __ __ __ __ _
 72
    65
 73
     2
 40
0.375
 49
0.25
 49
-0.125
  0
LTYPE
  2
CENTER2
 70
     0
  3
Center (.5x) ___ _ ___ _ ___ _ ___ _ ___ _ ___
 72
    65
 73
     4
 40
1.125
 49
0.75
 49
-0.125
 49
0.125
 49
-0.125
  0
LTYPE
  2
HIDDEN2
 70
     0
  3
Hidden (.5x) _ _ _ _ _ _ _ _ _ _ _ _ _ _ _ _ _
 72
    65
 73
     2
 40
0.1875
 49
0.125
 49
-0.0625
  0
LTYPE
  2
AMZIGZAG2
 70
     0
  3
/\/-/\/-/\/-/\/-/\/-/\/
 72
    65
 73
     2
 40
0.4401
 49
0.0001
 49
-0.4400000000000002
  0
LTYPE
  2
ACANSTGB
 70
     0
  3
__ . . __ . .
 72
    65
 73
     6
 40
0.35433070866
 49
0.15748031496
 49
-0.03937007874
 49
0.03937007874
 49
-0.03937007874
 49
0.03937007874
 49
-0.03937007874
  0
LTYPE
  2
ACANSTGL
 70
     0
  3
_ _ _ _ _
 72
    65
 73
     2
 40
0.11811023622
 49
0.07874015748
 49
-0.03937007874
  0
ENDTAB
  0
TABLE
  2
LAYER
 70
     6
  0
LAYER
  2
0
 70
     0
 62
     7
  6
CONTINUOUS
  0
LAYER
  2
AM_0
 70
     0
 62
     7
  6
CONTINUOUS
  0
LAYER
  2
AM_5
 70
     0
 62
     2
  6
CONTINUOUS
  0
LAYER
  2
DEFPOINTS
 70
     0
 62
     7
  6
CONTINUOUS
  0
LAYER
  2
ﾁｭｳｼﾝｾﾝ
 70
     0
 62
     1
  6
GEN7
  0
LAYER
  2
ﾁｭｳｼﾝｾﾝ1
 70
     0
 62
     1
  6
GEN7A
  0
ENDTAB
  0
TABLE
  2
STYLE
 70
     9
  0
STYLE
  2
STANDARD
 70
     0
 40
0.0
 41
0.8299999999999999
 50
0.0
 71
     0
 42
2.5
  3
txt.shx
  4
bigfont.shx
  0
STYLE
  2
ANNOTATIVE
 70
     0
 40
0.0
 41
1.0
 50
0.0
 71
     0
 42
0.2
  3
txt
  4

  0
STYLE
  2

 70
     1
 40
0.0
 41
1.0
 50
0.0
 71
     0
 42
2.5
  3
ltypeshp.shx
  4

  0
STYLE
  2
ACISOTS
 70
     0
 40
1.0
 41
1.0
 50
0.0
 71
     0
 42
2.5
  3
isocp.shx
  4
extfont.shx
  0
STYLE
  2
ACISOGDT
 70
     0
 40
0.0
 41
1.0
 50
0.0
 71
     0
 42
2.5
  3
amgdt.shx
  4

  0
STYLE
  2
ACANSTS
 70
     0
 40
1.0
 41
1.0
 50
0.0
 71
     0
 42
2.5
  3
romans.shx
  4
bigfont.shx
  0
STYLE
  2
ACANSGDT
 70
     0
 40
0.0
 41
1.0
 50
0.0
 71
     0
 42
2.5
  3
amgdt.shx
  4

  0
STYLE
  2
ACJISTS
 70
     0
 40
1.0
 41
1.0
 50
0.0
 71
     0
 42
2.5
  3
isocp.shx
  4
bigfont.shx
  0
STYLE
  2
ACJISGDT
 70
     0
 40
0.0
 41
1.0
 50
0.0
 71
     0
 42
2.5
  3
amgdt.shx
  4

  0
ENDTAB
  0
TABLE
  2
VIEW
 70
     6
  0
VIEW
  2
AM_VIEW1
 70
     0
 40
555.00000000000011
 10
499.2955801104971
 20
832.50000000000011
 41
998.59116022099431
 11
0.0
 21
0.0
 31
1.0
 12
0.0
 22
0.0
 32
0.0
 42
50.0
 43
0.0
 44
0.0
 50
0.0
 71
     0
  0
VIEW
  2
AM_VIEW2
 70
     0
 40
555.00000000000011
 10
1207.704419889501
 20
832.50000000000011
 41
998.59116022099431
 11
0.0
 21
0.0
 31
1.0
 12
0.0
 22
0.0
 32
0.0
 42
50.0
 43
0.0
 44
0.0
 50
0.0
 71
     0
  0
VIEW
  2
AM_VIEW3
 70
     0
 40
555.00000000000011
 10
499.2955801104971
 20
277.49999999999989
 41
998.59116022099431
 11
0.0
 21
0.0
 31
1.0
 12
0.0
 22
0.0
 32
0.0
 42
50.0
 43
0.0
 44
0.0
 50
0.0
 71
     0
  0
VIEW
  2
AM_VIEW4
 70
     0
 40
555.00000000000011
 10
1207.704419889501
 20
277.49999999999989
 41
998.59116022099431
 11
0.0
 21
0.0
 31
1.0
 12
0.0
 22
0.0
 32
0.0
 42
50.0
 43
0.0
 44
0.0
 50
0.0
 71
     0
  0
VIEW
  2
AM_VIEW5
 70
     0
 40
555.00000000000011
 10
853.5
 20
555.00000000000011
 41
998.59116022099431
 11
0.0
 21
0.0
 31
1.0
 12
0.0
 22
0.0
 32
0.0
 42
50.0
 43
0.0
 44
0.0
 50
0.0
 71
     0
  0
VIEW
  2
AM_VIEW6
 70
     0
 40
1109.9889000000001
 10
853.5
 20
555.0
 41
1997.162348618785
 11
0.0
 21
0.0
 31
1.0
 12
0.0
 22
0.0
 32
0.0
 42
50.0
 43
0.0
 44
0.0
 50
0.0
 71
     0
  0
ENDTAB
  0
TABLE
  2
UCS
 70
     0
  0
ENDTAB
  0
TABLE
  2
APPID
 70
    95
  0
APPID
  2
ACAD
 70
     0
  0
APPID
  2
ACADANNOTATIVE
 70
     0
  0
APPID
  2
MCAD_NO_VIS
 70
     0
  0
APPID
  2
ACAD_TEMP_GRAPHIC
 70
     0
  0
APPID
  2
ACATTRIBSERVICES
 70
     0
  0
APPID
  2
GENIUS_GENREC_14
 70
     0
  0
APPID
  2
GENIUS_GENOBJ-N-REC_13
 70
     0
  0
APPID
  2
GENIUS_GENODEF_13
 70
     0
  0
APPID
  2
GENIUS_GENOLIS_13
 70
     0
  0
APPID
  2
GENIUS_GENOBJ-N-TIT_13
 70
     0
  0
APPID
  2
GENIUS_GENOENT_13
 70
     0
  0
APPID
  2
GENIUS_GENTITLE_13
 70
     0
  0
APPID
  2
GENIUS_GENOREF_13
 70
     0
  0
APPID
  2
GENIUS_GENSCREG_15
 70
     0
  0
APPID
  2
GENIUS_GENOBJ-N-SDF_13
 70
     0
  0
APPID
  2
GENIUS_GENFIL_13
 70
     0
  0
APPID
  2
GENIUS_GENOBJ-N-CHA_13
 70
     0
  0
APPID
  2
GENIUS_GENDTOL_13
 70
     0
  0
APPID
  2
GENIUS_GENOBJ-N-FIL_13
 70
     0
  0
APPID
  2
AD_DRAW
 70
     0
  0
APPID
  2
DESIGNERASSEMBLIES
 70
     0
  0
APPID
  2
ASURF_PCURVE_APPNAME
 70
     0
  0
APPID
  2
GENIUS_GE3SECT_13
 70
     0
  0
APPID
  2
GENIUS_GENCFG_13
 70
     0
  0
APPID
  2
GENIUS_GE3CFG0_13
 70
     0
  0
APPID
  2
GENIUS_GENCFG0_13
 70
     0
  0
APPID
  2
GENIUS_GENCFG1_13
 70
     0
  0
APPID
  2
GENIUS_GENCFG2_13
 70
     0
  0
APPID
  2
GENIUS_GENCFG3_13
 70
     0
  0
APPID
  2
GENIUS_GENCFG4_13
 70
     0
  0
APPID
  2
GENIUS_GEVCFG0_13
 70
     0
  0
APPID
  2
GENIUS_GENHINW_13
 70
     0
  0
APPID
  2
GENIUS_FIRSTVISTXT_14
 70
     0
  0
APPID
  2
GENIUS_GENOBJ-N-LEADER_13
 70
     0
  0
APPID
  2
GEV_VCCNULL_SWITCH_OFF
 70
     0
  0
APPID
  2
GENIUS_GEFCFG0_13
 70
     0
  0
APPID
  2
GENIUS_GENZVEED_13
 70
     0
  0
APPID
  2
GENIUS_GENSCREG_13
 70
     0
  0
APPID
  2
GENIUS_DUMCFG0_13
 70
     0
  0
APPID
  2
GEVID936201362
 70
     0
  0
APPID
  2
GEVDC
 70
     0
  0
APPID
  2
GEVCON
 70
     0
  0
APPID
  2
VCC
 70
     0
  0
APPID
  2
GEVPT
 70
     0
  0
APPID
  2
GEVIT
 70
     0
  0
APPID
  2
GENBH
 70
     0
  0
APPID
  2
GEVMK
 70
     0
  0
APPID
  2
GENIUS_GENBH_13
 70
     0
  0
APPID
  2
GENIUS_GENOBJ-NBEHI-BHF_13
 70
     0
  0
APPID
  2
GENIUS_GENOBJ-NBEHI-BHB_13
 70
     0
  0
APPID
  2
GENIUS_GENOBJ-F-DESC_13
 70
     0
  0
APPID
  2
GENIUS_GEFDESC_14
 70
     0
  0
APPID
  2
GENIUS_GENOBJ-F-PART_13
 70
     0
  0
APPID
  2
GENIUS_GEFSTDP_13
 70
     0
  0
APPID
  2
GENIUS_GEFPARTINS_13
 70
     0
  0
APPID
  2
GENIUS_GENTRA_14
 70
     0
  0
APPID
  2
GENIUS_GENINF13_13
 70
     0
  0
APPID
  2
GENIUS_GENOBJ-N-INFOPT_13
 70
     0
  0
APPID
  2
GENIUS_GENOBJ-N-RSSYM_13
 70
     0
  0
APPID
  2
GENIUS_GENSYMENT_13
 70
     0
  0
APPID
  2
GENIUS_GENSCSYM_13
 70
     0
  0
APPID
  2
GENIUS_GEFINFNAM_13
 70
     0
  0
APPID
  2
GENIUS_GENOBJ-N-CEN_13
 70
     0
  0
APPID
  2
GENIUS_GENOBJ-N-CRS_13
 70
     0
  0
APPID
  2
GENIUS_GENOBJ-N-CRC_13
 70
     0
  0
APPID
  2
GENIUS_GENCRC_14
 70
     0
  0
APPID
  2
GEVID942827039
 70
     0
  0
APPID
  2
GEVID942827040
 70
     0
  0
APPID
  2
GEVID942827041
 70
     0
  0
APPID
  2
GENIUS_GENOBJ-F-SCPASSM_13
 70
     0
  0
APPID
  2
GENIUS_GENDIMSH_14
 70
     0
  0
APPID
  2
GEVID942827042
 70
     0
  0
APPID
  2
GEVID946020473
 70
     0
  0
APPID
  2
GEVID946020474
 70
     0
  0
APPID
  2
GEVID946020475
 70
     0
  0
APPID
  2
GENIUS_GENOBJ-N-HTC_13
 70
     0
  0
APPID
  2
GENIUS_GENHATCH_13
 70
     0
  0
APPID
  2
GEVID948854295
 70
     0
  0
APPID
  2
GEVID939402019
 70
     0
  0
APPID
  2
GEVID952919491
 70
     0
  0
APPID
  2
GEVID952919492
 70
     0
  0
APPID
  2
GENIUS_GEFWELD_13
 70
     0
  0
APPID
  2
GENIUS_GENOBJ-F-WELS_13
 70
     0
  0
APPID
  2
GEVID952919493
 70
     0
  0
APPID
  2
GENIUS_GENOBJ-N-RSBK_13
 70
     0
  0
APPID
  2
GENIUS_GENOBJ-N-LIB_13
 70
     0
  0
APPID
  2
GENIUS_GENSCALE_13
 70
     0
  0
APPID
  2
GEVID986376691
 70
     0
  0
APPID
  2
DCO15
 70
     0
  0
APPID
  2
ACAD_DSTYLE_DIMBREAK
 70
     0
  0
APPID
  2
ACAD_DSTYLE_DIMJAG
 70
     0
  0
APPID
  2
ACAD_NAV_VCDISPLAY
 70
     0
  0
APPID
  2
ACADANNOPO
 70
     0
  0
APPID
  2
ACAD_EXEMPT_FROM_CAD_STANDARDS
 70
     0
  0
APPID
  2
ACAD_MLEADERVER
 70
     0
  0
ENDTAB
  0
TABLE
  2
DIMSTYLE
 70
    22
  0
DIMSTYLE
  2
STANDARD
 70
     0
  3

  4

  5

  6

  7

 40
1.0
 41
0.18
 42
0.0625
 43
0.38
 44
0.18
 45
0.0
 46
0.0
 47
0.0
 48
0.0
140
0.18
141
0.09
142
0.0
143
25.399999999999999
144
1.0
145
0.0
146
1.0
147
0.09
 71
     0
 72
     0
 73
     1
 74
     1
 75
     0
 76
     0
 77
     0
 78
     0
170
     0
171
     2
172
     0
173
     0
174
     0
175
     0
176
     0
177
     0
178
     0
  0
DIMSTYLE
  2
ANNOTATIVE
 70
     0
  3

  4

  5

  6

  7

 40
1.0
 41
0.18
 42
0.0625
 43
0.38
 44
0.18
 45
0.0
 46
0.0
 47
0.0
 48
0.0
140
0.18
141
0.09
142
0.0
143
25.399999999999999
144
1.0
145
0.0
146
1.0
147
0.09
 71
     0
 72
     0
 73
     1
 74
     1
 75
     0
 76
     0
 77
     0
 78
     0
170
     0
171
     2
172
     0
173
     0
174
     0
175
     0
176
     0
177
     0
178
     0
  0
DIMSTYLE
  2
AM_ISO
 70
     0
  3

  4
"
  5

  6

  7

 40
1.0
 41
2.5
 42
1.0
 43
8.0
 44
0.6
 45
0.0
 46
0.0
 47
0.1
 48
0.1
140
2.5
141
0.0
142
0.0
143
0.0393701
144
1.0
145
0.0
146
0.71
147
0.8
 71
     0
 72
     0
 73
     0
 74
     0
 75
     0
 76
     0
 77
     1
 78
     8
170
     0
171
     2
172
     1
173
     0
174
     0
175
     0
176
   256
177
   256
178
     4
  0
DIMSTYLE
  2
AM_ISO$3
 70
     0
  3

  4
"
  5

  6

  7

 40
1.0
 41
2.5
 42
1.0
 43
8.0
 44
0.6
 45
0.0
 46
0.0
 47
0.1
 48
0.1
140
2.5
141
0.0
142
0.0
143
0.0393701
144
1.0
145
0.0
146
0.71
147
0.8
 71
     0
 72
     0
 73
     0
 74
     1
 75
     0
 76
     0
 77
     1
 78
     8
170
     0
171
     2
172
     0
173
     0
174
     0
175
     0
176
   256
177
   256
178
     4
  0
DIMSTYLE
  2
AM_ISO$4
 70
     0
  3

  4
"
  5

  6

  7

 40
1.0
 41
2.5
 42
1.0
 43
8.0
 44
0.6
 45
0.0
 46
0.0
 47
0.1
 48
0.1
140
2.5
141
0.0
142
0.0
143
0.0393701
144
1.0
145
0.0
146
0.71
147
0.8
 71
     0
 72
     0
 73
     0
 74
     1
 75
     0
 76
     0
 77
     1
 78
     8
170
     0
171
     2
172
     0
173
     0
174
     0
175
     0
176
   256
177
   256
178
     4
  0
DIMSTYLE
  2
AM_ISO$6
 70
     0
  3

  4
"
  5

  6

  7

 40
1.0
 41
2.5
 42
1.0
 43
8.0
 44
0.6
 45
0.0
 46
0.0
 47
0.1
 48
0.1
140
2.5
141
0.0
142
0.0
143
0.0393701
144
1.0
145
0.0
146
0.71
147
0.8
 71
     0
 72
     0
 73
     0
 74
     0
 75
     0
 76
     0
 77
     0
 78
     8
170
     0
171
     2
172
     1
173
     0
174
     0
175
     0
176
   256
177
   256
178
     4
  0
DIMSTYLE
  2
AM_ISO$7
 70
     0
  3

  4
"
  5

  6

  7

 40
1.0
 41
2.5
 42
1.0
 43
8.0
 44
0.6
 45
0.0
 46
0.0
 47
0.1
 48
0.1
140
2.5
141
0.0
142
0.0
143
0.0393701
144
1.0
145
0.0
146
0.71
147
0.8
 71
     0
 72
     0
 73
     0
 74
     0
 75
     0
 76
     0
 77
     1
 78
     8
170
     0
171
     2
172
     1
173
     0
174
     0
175
     0
176
   256
177
   256
178
     4
  0
DIMSTYLE
  2
AM_ISO$SF
 70
     0
  3

  4
"
  5

  6

  7

 40
1.0
 41
2.5
 42
1.0
 43
10.0
 44
1.0
 45
0.0
 46
0.0
 47
0.1
 48
0.1
140
3.5
141
0.0
142
0.0
143
0.0393701
144
1.0
145
0.0
146
0.71
147
1.5
 71
     0
 72
     0
 73
     0
 74
     0
 75
     1
 76
     1
 77
     1
 78
     8
170
     0
171
     2
172
     1
173
     0
174
     0
175
     0
176
   256
177
   256
178
     2
  0
DIMSTYLE
  2
AM_ISO$SH
 70
     0
  3

  4
"
  5

  6

  7

 40
1.0
 41
2.5
 42
1.0
 43
10.0
 44
1.0
 45
0.0
 46
0.0
 47
0.1
 48
0.1
140
3.5
141
0.0
142
0.0
143
0.0393701
144
2.0
145
0.0
146
0.71
147
1.5
 71
     0
 72
     0
 73
     0
 74
     0
 75
     1
 76
     1
 77
     1
 78
     8
170
     0
171
     2
172
     1
173
     1
174
     0
175
     0
176
   256
177
   256
178
     2
  0
DIMSTYLE
  2
AM_JIS
 70
     0
  3

  4
"
  5

  6

  7

 40
1.0
 41
2.5
 42
1.0
 43
7.0
 44
1.0
 45
0.0
 46
0.0
 47
0.1
 48
0.1000000001
140
2.5
141
0.0
142
0.0
143
0.0393701
144
1.0
145
0.0
146
0.71
147
1.0
 71
     0
 72
     0
 73
     0
 74
     0
 75
     0
 76
     0
 77
     3
 78
     8
170
     0
171
     2
172
     1
173
     0
174
     0
175
     0
176
   256
177
   256
178
     4
  0
DIMSTYLE
  2
AM_JIS$3
 70
     0
  3

  4
"
  5

  6

  7

 40
1.0
 41
2.5
 42
1.0
 43
7.0
 44
1.0
 45
0.0
 46
0.0
 47
0.1
 48
0.1000000001
140
2.5
141
0.0
142
0.0
143
0.0393701
144
1.0
145
0.0
146
0.71
147
1.0
 71
     0
 72
     0
 73
     0
 74
     1
 75
     0
 76
     0
 77
     3
 78
     8
170
     0
171
     2
172
     0
173
     0
174
     0
175
     0
176
   256
177
   256
178
     4
  0
DIMSTYLE
  2
AM_JIS$4
 70
     0
  3

  4
"
  5

  6

  7

 40
1.0
 41
2.5
 42
1.0
 43
7.0
 44
1.0
 45
0.0
 46
0.0
 47
0.1
 48
0.1000000001
140
2.5
141
0.0
142
0.0
143
0.0393701
144
1.0
145
0.0
146
0.71
147
1.0
 71
     0
 72
     0
 73
     0
 74
     0
 75
     0
 76
     0
 77
     3
 78
     8
170
     0
171
     2
172
     0
173
     0
174
     0
175
     0
176
   256
177
   256
178
     4
  0
DIMSTYLE
  2
AM_JIS$6
 70
     0
  3

  4
"
  5

  6

  7

 40
1.0
 41
2.5
 42
1.0
 43
7.0
 44
1.0
 45
0.0
 46
0.0
 47
0.1
 48
0.1000000001
140
2.5
141
0.0
142
0.0
143
0.0393701
144
1.0
145
0.0
146
0.71
147
1.0
 71
     0
 72
     0
 73
     0
 74
     0
 75
     0
 76
     0
 77
     0
 78
     8
170
     0
171
     2
172
     1
173
     0
174
     0
175
     0
176
   256
177
   256
178
     4
  0
DIMSTYLE
  2
AM_JIS$7
 70
     0
  3

  4
"
  5

  6

  7

 40
1.0
 41
2.5
 42
1.0
 43
7.0
 44
1.0
 45
0.0
 46
0.0
 47
0.1
 48
0.1000000001
140
2.5
141
0.0
142
0.0
143
0.0393701
144
1.0
145
0.0
146
0.71
147
1.0
 71
     0
 72
     0
 73
     0
 74
     0
 75
     0
 76
     0
 77
     3
 78
     8
170
     0
171
     2
172
     1
173
     0
174
     0
175
     0
176
   256
177
   256
178
     4
  0
DIMSTYLE
  2
AM_JIS$SF
 70
     0
  3

  4
"
  5

  6

  7

 40
1.0
 41
2.5
 42
1.0
 43
10.0
 44
1.0
 45
0.0
 46
0.0
 47
0.1
 48
0.1
140
3.5
141
0.0
142
0.0
143
0.0393701
144
1.0
145
0.0
146
0.71
147
1.5
 71
     0
 72
     0
 73
     0
 74
     0
 75
     1
 76
     1
 77
     3
 78
     8
170
     0
171
     2
172
     1
173
     0
174
     0
175
     0
176
   256
177
   256
178
     4
  0
DIMSTYLE
  2
AM_JIS$SH
 70
     0
  3

  4
"
  5

  6

  7

 40
1.0
 41
2.5
 42
1.0
 43
10.0
 44
1.0
 45
0.0
 46
0.0
 47
0.1
 48
0.1
140
3.5
141
0.0
142
0.0
143
0.0393701
144
1.0
145
0.0
146
0.71
147
1.5
 71
     0
 72
     0
 73
     0
 74
     0
 75
     1
 76
     0
 77
     3
 78
     8
170
     0
171
     2
172
     1
173
     1
174
     0
175
     0
176
   256
177
   256
178
     4
  0
DIMSTYLE
  2
AM_ANSI
 70
     0
  3

  4
mm
  5

  6

  7

 40
1.0
 41
0.1
 42
0.05
 43
0.5
 44
0.1
 45
0.0
 46
0.0
 47
0.1
 48
0.1
140
0.12
141
0.0
142
0.0
143
25.399999999999999
144
1.0
145
0.0
146
0.71
147
0.06
 71
     0
 72
     0
 73
     1
 74
     1
 75
     0
 76
     0
 77
     0
 78
     7
170
     0
171
     2
172
     0
173
     0
174
     0
175
     0
176
   256
177
   256
178
     2
  0
DIMSTYLE
  2
AM_ANSI$3
 70
     0
  3

  4
mm
  5

  6

  7

 40
1.0
 41
0.1
 42
0.05
 43
0.5
 44
0.1
 45
0.0
 46
0.0
 47
0.1
 48
0.1
140
0.12
141
0.0
142
0.0
143
25.399999999999999
144
1.0
145
0.0
146
0.71
147
0.06
 71
     0
 72
     0
 73
     1
 74
     1
 75
     0
 76
     0
 77
     0
 78
     7
170
     0
171
     2
172
     0
173
     0
174
     0
175
     0
176
   256
177
   256
178
     2
  0
DIMSTYLE
  2
AM_ANSI$4
 70
     0
  3

  4
mm
  5

  6

  7

 40
1.0
 41
0.1
 42
0.05
 43
0.5
 44
0.1
 45
0.0
 46
0.0
 47
0.1
 48
0.1
140
0.12
141
0.0
142
0.0
143
25.399999999999999
144
1.0
145
0.0
146
0.71
147
0.06
 71
     0
 72
     0
 73
     1
 74
     1
 75
     0
 76
     0
 77
     0
 78
     7
170
     0
171
     2
172
     0
173
     0
174
     0
175
     0
176
   256
177
   256
178
     2
  0
DIMSTYLE
  2
AM_ANSI$7
 70
     0
  3

  4
mm
  5

  6

  7

 40
1.0
 41
0.1
 42
0.05
 43
0.5
 44
0.1
 45
0.0
 46
0.0
 47
0.1
 48
0.1
140
0.24
141
0.0
142
0.0
143
25.399999999999999
144
1.0
145
0.0
146
0.71
147
0.06
 71
     0
 72
     0
 73
     1
 74
     1
 75
     0
 76
     0
 77
     0
 78
     7
170
     0
171
     2
172
     0
173
     0
174
     0
175
     0
176
   256
177
   256
178
     2
  0
DIMSTYLE
  2
AM_ANSI$SF
 70
     0
  3

  4
mm
  5

  6

  7

 40
1.0
 41
0.1
 42
0.05
 43
0.5
 44
0.1
 45
0.0
 46
0.0
 47
0.1
 48
0.1
140
0.12
141
0.0
142
0.0
143
25.399999999999999
144
1.0
145
0.0
146
0.71
147
0.06
 71
     0
 72
     0
 73
     1
 74
     1
 75
     1
 76
     1
 77
     0
 78
     7
170
     0
171
     2
172
     0
173
     0
174
     0
175
     0
176
   256
177
   256
178
     2
  0
DIMSTYLE
  2
AM_ANSI$SH
 70
     0
  3

  4
mm
  5

  6

  7

 40
1.0
 41
0.1
 42
0.05
 43
0.5
 44
0.1
 45
0.0
 46
0.0
 47
0.1
 48
0.1
140
0.12
141
0.0
142
0.0
143
25.399999999999999
144
1.0
145
0.0
146
0.71
147
0.06
 71
     0
 72
     0
 73
     1
 74
     1
 75
     1
 76
     1
 77
     0
 78
     7
170
     0
171
     2
172
     0
173
     1
174
     0
175
     0
176
   256
177
   256
178
     2
  0
ENDTAB
  0
ENDSEC
  0
SECTION
  2
BLOCKS
  0
BLOCK
  8
0
  2
$MODEL_SPACE
 70
     0
 10
0.0
 20
0.0
 30
0.0
  3
$MODEL_SPACE
  1

  0
ENDBLK
  5
3452
  8
0
  0
BLOCK
 67
     1
  8
0
  2
$PAPER_SPACE
 70
     0
 10
0.0
 20
0.0
 30
0.0
  3
$PAPER_SPACE
  1

  0
ENDBLK
  5
344E
 67
     1
  8
0
  0
BLOCK
  8
0
  2
GENAXEH
 70
     0
 10
0.0
 20
0.0
 30
0.0
  3
GENAXEH
  1

  0
LINE
  5
31D6
  8
0
 10
-1.0
 20
0.0
 30
0.0
 11
1.0
 21
0.0
 31
0.0
  0
ENDBLK
  5
31D7
  8
0
  0
BLOCK
  8
0
  2
_OPEN30
 70
     0
 10
0.0
 20
0.0
 30
0.0
  3
_OPEN30
  1

  0
LINE
  5
31DA
  8
0
 62
     0
 10
-1.0
 20
0.26794919
 30
0.0
 11
0.0
 21
0.0
 31
0.0
  0
LINE
  5
31DB
  8
0
 62
     0
 10
0.0
 20
0.0
 30
0.0
 11
-1.0
 21
-0.26794919
 31
0.0
  0
LINE
  5
31DC
  8
0
 62
     0
 10
0.0
 20
0.0
 30
0.0
 11
-1.0
 21
0.0
 31
0.0
  0
ENDBLK
  5
31DD
  8
0
  0
BLOCK
  8
0
  2
_NONE
 70
     0
 10
0.0
 20
0.0
 30
0.0
  3
_NONE
  1

  0
ENDBLK
  5
31E0
  8
0
  0
BLOCK
  8
0
  2
*U5
 70
     1
 10
0.0
 20
0.0
 30
0.0
  3
*U5
  1

  0
TEXT
  5
31E3
  8
AM_0
 62
     4
 10
769.59701912717605
 20
295.84525720171052
 30
0.0
 40
12.5
  1
\U+2205
 50
90.0
 41
0.8299999999999999
  0
TEXT
  5
31E4
  8
AM_0
 62
     4
 10
769.59701912717605
 20
306.22025720171052
 30
0.0
 40
12.5
  1
280
 50
90.0
 41
0.8299999999999999
  0
TEXT
  5
31E5
  8
AM_0
 62
     4
 10
769.59701912717605
 20
335.6160905350439
 30
0.0
 40
10.0
  1
h7
 50
90.0
 41
0.8299999999999999
  0
ENDBLK
  5
31E6
  8
0
  0
BLOCK
  8
0
  2
*U6
 70
     1
 10
0.0
 20
0.0
 30
0.0
  3
*U6
  1

  0
TEXT
  5
31E9
  8
AM_0
 62
     4
 10
1062.288641728783
 20
648.91590493630451
 30
0.0
 40
12.5
  1
o
 41
0.8299999999999999
  0
TEXT
  5
31EA
  8
AM_0
 62
     4
 10
1074.639832204972
 20
648.91590493630451
 30
0.0
 40
12.5
  1
 330
 41
0.8299999999999999
  0
ENDBLK
  5
31EB
  8
0
  0
BLOCK
  8
0
  2
*U7
 70
     1
 10
0.0
 20
0.0
 30
0.0
  3
*U7
  1

  0
TEXT
  5
31EE
  8
AM_0
 62
     4
 10
317.79227545639719
 20
347.27350534921402
 30
0.0
 40
12.5
  1
\U+2205
 50
90.0
 41
0.8299999999999999
  0
TEXT
  5
31EF
  8
AM_0
 62
     4
 10
317.79227545639719
 20
357.64850534921402
 30
0.0
 40
12.5
  1
300
 50
90.0
 41
0.8299999999999999
  0
ENDBLK
  5
31F0
  8
0
  0
BLOCK
  8
0
  2
*U8
 70
     1
 10
0.0
 20
0.0
 30
0.0
  3
*U8
  1

  0
TEXT
  5
31F3
  8
AM_0
 62
     4
 10
352.05530883961518
 20
334.65058868254738
 30
0.0
 40
12.5
  1
\U+2205
 50
90.0
 41
0.8299999999999999
  0
TEXT
  5
31F4
  8
AM_0
 62
     4
 10
352.05530883961518
 20
345.02558868254721
 30
0.0
 40
12.5
  1
230 
 50
90.0
 41
0.8299999999999999
  0
TEXT
  5
31F5
  8
AM_0
 62
     4
 10
352.05530883961518
 20
380.64642201588072
 30
0.0
 40
10.0
  1
G7
 50
90.0
 41
0.8299999999999999
  0
ENDBLK
  5
31F6
  8
0
  0
BLOCK
  8
0
  2
*U9
 70
     1
 10
0.0
 20
0.0
 30
0.0
  3
*U9
  1

  0
TEXT
  5
31F9
  8
AM_0
 62
     4
 10
212.04840906090169
 20
356.06755759133853
 30
0.0
 40
12.5
  1
\U+2205
 50
90.0
 41
0.8299999999999999
  0
TEXT
  5
31FA
  8
AM_0
 62
     4
 10
212.04840906090169
 20
366.44255759133853
 30
0.0
 40
12.5
  1
300
 50
90.0
 41
0.8299999999999999
  0
ENDBLK
  5
31FB
  8
0
  0
BLOCK
  8
0
  2
*U10
 70
     1
 10
0.0
 20
0.0
 30
0.0
  3
*U10
  1

  0
TEXT
  5
31FE
  8
AM_0
 62
     4
 10
246.3114424441199
 20
343.4446409246716
 30
0.0
 40
12.5
  1
\U+2205
 50
90.0
 41
0.8299999999999999
  0
TEXT
  5
31FF
  8
AM_0
 62
     4
 10
246.3114424441199
 20
353.81964092467172
 30
0.0
 40
12.5
  1
230 
 50
90.0
 41
0.8299999999999999
  0
TEXT
  5
3200
  8
AM_0
 62
     4
 10
246.3114424441199
 20
389.440474258005
 30
0.0
 40
10.0
  1
G7
 50
90.0
 41
0.8299999999999999
  0
ENDBLK
  5
3201
  8
0
  0
BLOCK
  8
0
  2
*U11
 70
     1
 10
0.0
 20
0.0
 30
0.0
  3
*U11
  1

  0
TEXT
  5
3204
  8
AM_0
 62
     4
 10
663.85315273168067
 20
304.6393094438348
 30
0.0
 40
12.5
  1
\U+2205
 50
90.0
 41
0.8299999999999999
  0
TEXT
  5
3205
  8
AM_0
 62
     4
 10
663.85315273168067
 20
315.0143094438348
 30
0.0
 40
12.5
  1
280
 50
90.0
 41
0.8299999999999999
  0
TEXT
  5
3206
  8
AM_0
 62
     4
 10
663.85315273168067
 20
344.41014277716812
 30
0.0
 40
10.0
  1
h7
 50
90.0
 41
0.8299999999999999
  0
ENDBLK
  5
3207
  8
0
  0
BLOCK
  8
0
  2
*U12
 70
     1
 10
0.0
 20
0.0
 30
0.0
  3
*U12
  1

  0
TEXT
  5
320A
  8
AM_0
 62
     4
 10
956.5447753332877
 20
657.70995717842902
 30
0.0
 40
12.5
  1
o
 41
0.8299999999999999
  0
TEXT
  5
320B
  8
AM_0
 62
     4
 10
968.89596580947818
 20
657.70995717842902
 30
0.0
 40
12.5
  1
 330
 41
0.8299999999999999
  0
ENDBLK
  5
320C
  8
0
  0
BLOCK
  8
0
  2
_ACMFILLEDHALF
 70
     0
 10
0.0
 20
0.0
 30
0.0
  3
_ACMFILLEDHALF
  1

  0
TRACE
  5
3558
  8
AM_0
 62
     0
 10
-0.8
 20
0.0
 30
0.0
 11
-1.0
 21
0.166666666
 31
0.0
 12
0.0
 22
0.0
 32
0.0
 13
0.0
 23
0.0
 33
0.0
  0
LINE
  5
3559
  8
AM_0
 62
     0
 10
-1.0
 20
0.0
 30
0.0
 11
-0.8
 21
0.0
 31
0.0
  0
ENDBLK
  5
3557
  8
0
  0
ENDSEC
  0
SECTION
  2
ENTITIES
  0
LINE
  5
320E
  8
AM_0
 10
579.07183730906252
 20
718.04354600347995
 30
0.0
 11
596.24633730906226
 21
717.44381600348004
 31
0.0
  0
LINE
  5
320F
  8
AM_0
 10
579.07189730906236
 20
1046.84401600348
 30
0.0
 11
596.24633730906226
 21
1047.4438160034799
 31
0.0
  0
LINE
  5
3210
  8
ﾁｭｳｼﾝｾﾝ
 10
275.15965413668152
 20
882.44381600348004
 30
0.0
 11
696.86346730906234
 21
882.44381600348004
 31
0.0
  0
POLYLINE
  5
3211
  8
AM_0
 66
     1
 10
0.0
 20
0.0
 30
0.0
  0
VERTEX
  5
3212
  8
AM_0
 10
562.1491073090624
 20
968.83206600348012
 30
0.0
 42
0.01720808
  0
VERTEX
  5
3213
  8
AM_0
 10
557.73283730906235
 20
911.45687600347992
 30
0.0
 42
0.0088311605
  0
VERTEX
  5
3214
  8
AM_0
 10
557.01598730906255
 20
882.44381600348004
 30
0.0
 42
0.025919753
  0
VERTEX
  5
3215
  8
AM_0
 10
560.88481730906256
 20
796.48012600348011
 30
0.0
  0
SEQEND
  5
3216
  8
AM_0
  0
ARC
  5
3217
  8
AM_0
 10
453.24627730906252
 20
882.44381600348004
 30
0.0
 40
5.0
 50
270.0
 51
90.00000299999769
  0
ARC
  5
3218
  8
AM_0
 10
413.24627730906252
 20
882.44381600348004
 30
0.0
 40
5.0
 50
90.00000299999769
 51
270.0
  0
LINE
  5
3219
  8
AM_0
 10
583.24633730906226
 20
1006.79293600348
 30
0.0
 11
583.24633730906226
 21
758.09469600347995
 31
0.0
  0
LINE
  5
321A
  8
AM_0
 10
574.24627730906252
 20
1041.84707600348
 30
0.0
 11
574.24627730906252
 21
723.04055600347999
 31
0.0
  0
LINE
  5
321B
  8
AM_0
 10
372.24627730906252
 20
1002.44381600348
 30
0.0
 11
372.24627730906252
 21
762.44381600348004
 31
0.0
  0
LINE
  5
321C
  8
AM_0
 10
385.2462173090625
 20
1000.44381600348
 30
0.0
 11
385.2462173090625
 21
764.44381600348004
 31
0.0
  0
LINE
  5
321D
  8
AM_0
 10
372.24627730906252
 20
762.44381600348004
 30
0.0
 11
383.24627730906252
 21
762.44381600348004
 31
0.0
  0
LINE
  5
321E
  8
AM_0
 10
372.24627730906252
 20
782.7165760034801
 30
0.0
 11
383.24627730906252
 21
782.7165760034801
 31
0.0
  0
LINE
  5
321F
  8
AM_0
 10
372.24627730906252
 20
798.27291600348042
 30
0.0
 11
383.24627730906252
 21
798.27291600348042
 31
0.0
  0
LINE
  5
3220
  8
AM_0
 10
373.22515730906252
 20
808.00686600348001
 30
0.0
 11
384.25402730906251
 21
808.00686600348001
 31
0.0
  0
ARC
  5
3221
  8
AM_0
 10
579.24627730906252
 20
723.04055600347999
 30
0.0
 40
5.0
 50
179.9999899999988
 51
268.00000999999861
  0
LINE
  5
3222
  8
AM_0
 10
451.24627730906252
 20
749.44375600348019
 30
0.0
 11
567.40301730906253
 21
745.38747600347995
 31
0.0
  0
LINE
  5
3223
  8
AM_0
 10
431.74627730906252
 20
782.01485600348019
 30
0.0
 11
431.74627730906252
 21
863.52950600348015
 31
0.0
  0
LINE
  5
3224
  8
AM_0
 10
441.2462173090625
 20
752.69008600348002
 30
0.0
 11
441.2462173090625
 21
859.44381600347992
 31
0.0
  0
LINE
  5
3225
  8
AM_0
 10
451.24627730906252
 20
877.44381600348015
 30
0.0
 11
451.24627730906252
 21
749.44381600348004
 31
0.0
  0
LINE
  5
3226
  8
AM_0
 10
385.2462173090625
 20
795.76888600348002
 30
0.0
 11
431.74627730906252
 21
795.76888600348002
 31
0.0
  0
LINE
  5
3227
  8
AM_0
 10
387.24627730906252
 20
770.44381600348004
 30
0.0
 11
439.2462173090625
 21
770.44381600348004
 31
0.0
  0
ARC
  5
3228
  8
AM_0
 10
387.24627730906252
 20
768.44381600348004
 30
0.0
 40
2.0
 50
90.00000299999769
 51
180.00001000000091
  0
ARC
  5
3229
  8
AM_0
 10
383.24627730906252
 20
764.44381600348004
 30
0.0
 40
2.0
 50
269.999989999999
 51
0.0000006832495047
  0
ARC
  5
322A
  8
AM_0
 10
383.24627730906252
 20
784.71651600348002
 30
0.0
 40
2.0
 50
269.999989999999
 51
0.0000006832495047
  0
ARC
  5
322B
  8
AM_0
 10
383.24627730906252
 20
800.27291600347996
 30
0.0
 40
2.0
 50
269.999989999999
 51
0.0000006832495047
  0
ARC
  5
322C
  8
AM_0
 10
439.2462173090625
 20
768.44381600348004
 30
0.0
 40
2.0
 50
0.0
 51
90.00000299999769
  0
ARC
  5
322D
  8
AM_0
 10
436.24621730906262
 20
768.37276600348002
 30
0.0
 40
5.0
 50
0.0
 51
44.999998000001611
  0
ARC
  5
322E
  8
AM_0
 10
444.2462173090625
 20
752.69008600348002
 30
0.0
 40
3.0
 50
180.00001000000091
 51
268.00000000000261
  0
LINE
  5
322F
  8
AM_0
 10
451.24627730906252
 20
749.44381600348004
 30
0.0
 11
444.14153730906253
 21
749.69191600347995
 31
0.0
  0
ARC
  5
3230
  8
AM_0
 10
436.74627730906252
 20
782.01485600348019
 30
0.0
 40
5.0
 50
180.00001000000091
 51
225.0
  0
LINE
  5
3231
  8
AM_0
 10
439.78173730906241
 20
771.90828600348004
 30
0.0
 11
433.21068730906262
 21
778.47927600347998
 31
0.0
  0
ARC
  5
3232
  8
AM_0
 10
433.24627730906229
 20
882.44381600348004
 30
0.0
 40
15.0
 50
199.4712300000005
 51
269.99984999999782
  0
ARC
  5
3233
  8
AM_0
 10
433.24627730906229
 20
882.44381600348004
 30
0.0
 40
12.5
 50
203.5781799999973
 51
336.42183000000068
  0
LINE
  5
3234
  8
AM_0
 10
385.2462173090625
 20
811.51095600348015
 30
0.0
 11
431.74627730906252
 21
811.51095600348015
 31
0.0
  0
LINE
  5
3235
  8
AM_0
 10
413.24627730906252
 20
877.44381600348015
 30
0.0
 11
453.24627730906252
 21
877.44381600348015
 31
0.0
  0
ARC
  5
3236
  8
AM_0
 10
426.74627730906252
 20
863.52950600348015
 30
0.0
 40
5.0
 50
0.0
 51
71.034342999998159
  0
ARC
  5
3237
  8
AM_0
 10
433.24621730906227
 20
859.44381600347992
 30
0.0
 40
8.0
 50
0.0
 51
89.999858999997556
  0
ARC
  5
3238
  8
AM_0
 10
575.24627730906252
 20
816.10714600348012
 30
0.0
 40
8.0
 50
270.0
 51
0.0
  0
LINE
  5
3239
  8
AM_0
 10
536.17547730906222
 20
794.79329600348012
 30
0.0
 11
571.74450730906256
 21
773.26687600347998
 31
0.0
  0
LINE
  5
323A
  8
AM_0
 10
536.1846873090625
 20
796.5702760034801
 30
0.0
 11
559.93950730906249
 21
796.5702760034801
 31
0.0
  0
LINE
  5
323B
  8
AM_0
 10
533.5958873090625
 20
785.07973600348009
 30
0.0
 11
571.83513730906247
 21
761.93728600348004
 31
0.0
  0
ARC
  5
323C
  8
AM_0
 10
536.1846873090625
 20
789.3573860034802
 30
0.0
 40
5.0
 50
179.9999899999988
 51
238.81764999999689
  0
ARC
  5
323D
  8
AM_0
 10
536.1846873090625
 20
791.57027600347999
 30
0.0
 40
5.0
 50
90.00000299999769
 51
180.00001000000091
  0
LINE
  5
323E
  8
AM_0
 10
531.18468730906227
 20
789.3573860034802
 30
0.0
 11
531.18468730906227
 21
791.57027600347999
 31
0.0
  0
POLYLINE
  5
323F
  8
AM_0
 66
     1
 10
0.0
 20
0.0
 30
0.0
  0
VERTEX
  5
3240
  8
AM_0
 10
564.32981730906249
 20
766.47951600347994
 30
0.0
 42
0.0020909347
  0
VERTEX
  5
3241
  8
AM_0
 10
565.29566730906254
 20
759.4390060034799
 30
0.0
 42
0.0020881749
  0
VERTEX
  5
3242
  8
AM_0
 10
566.32024730906255
 20
752.40738600348004
 30
0.0
 42
0.0020849591
  0
VERTEX
  5
3243
  8
AM_0
 10
567.40301730906253
 20
745.38753600348002
 30
0.0
  0
SEQEND
  5
3244
  8
AM_0
  0
ARC
  5
3245
  8
AM_0
 10
575.24627730906252
 20
758.09469600347995
 30
0.0
 40
8.0
 50
270.0
 51
0.0
  0
ARC
  5
3246
  8
AM_0
 10
567.22851730906245
 20
740.39058600348005
 30
0.0
 40
5.0
 50
45.000001000003799
 51
88.000000000002785
  0
LINE
  5
3247
  8
AM_0
 10
570.76409730906255
 20
743.9260560034802
 30
0.0
 11
574.24633730906237
 21
740.44381600348004
 31
0.0
  0
ARC
  5
3248
  8
AM_0
 10
569.24627730906252
 20
757.65969600348012
 30
0.0
 40
5.0
 50
0.0
 51
58.817640999998339
  0
LINE
  5
3249
  8
AM_0
 10
562.89641730906249
 20
795.60213600348004
 30
0.0
 11
574.24633730906237
 21
787.27834600348012
 31
0.0
  0
ARC
  5
324A
  8
AM_0
 10
559.93950730906249
 20
791.57027600347999
 30
0.0
 40
5.0
 50
53.744453000003212
 51
90.00000299999769
  0
LINE
  5
324B
  8
AM_0
 10
372.24627730906252
 20
1002.44381600348
 30
0.0
 11
383.24627730906252
 21
1002.44381600348
 31
0.0
  0
LINE
  5
324C
  8
AM_0
 10
373.22515730906252
 20
956.88076600348006
 30
0.0
 11
384.25402730906251
 21
956.88076600348006
 31
0.0
  0
LINE
  5
324D
  8
AM_0
 10
372.24627730906252
 20
982.17098600348004
 30
0.0
 11
383.24627730906252
 21
982.17098600348004
 31
0.0
  0
LINE
  5
324E
  8
AM_0
 10
372.24627730906252
 20
966.61464600347995
 30
0.0
 11
383.24627730906252
 21
966.61464600347995
 31
0.0
  0
LINE
  5
324F
  8
AM_0
 10
451.24627730906252
 20
1015.44375600348
 30
0.0
 11
567.40301730906253
 21
1019.50002600348
 31
0.0
  0
LINE
  5
3250
  8
AM_0
 10
431.74627730906252
 20
901.3580560034801
 30
0.0
 11
431.74627730906252
 21
982.87276600348002
 31
0.0
  0
LINE
  5
3251
  8
AM_0
 10
441.2462173090625
 20
905.44381600348004
 30
0.0
 11
441.2462173090625
 21
1012.19753600348
 31
0.0
  0
LINE
  5
3252
  8
AM_0
 10
451.24627730906252
 20
1015.443816003479
 30
0.0
 11
451.24627730906252
 21
887.44381600348015
 31
0.0
  0
ARC
  5
3253
  8
AM_0
 10
433.24627730906229
 20
882.44381600348004
 30
0.0
 40
12.5
 50
23.578179999997531
 51
156.42182000000241
  0
ARC
  5
3254
  8
AM_0
 10
433.24627730906229
 20
882.44381600348004
 30
0.0
 40
15.0
 50
90.000146000002943
 51
160.52876999999901
  0
LINE
  5
3255
  8
AM_0
 10
385.2462173090625
 20
953.37661600348008
 30
0.0
 11
431.74627730906252
 21
953.37661600348008
 31
0.0
  0
LINE
  5
3256
  8
AM_0
 10
413.24627730906252
 20
887.44381600348015
 30
0.0
 11
453.24627730906252
 21
887.44381600348015
 31
0.0
  0
ARC
  5
3257
  8
AM_0
 10
433.24621730906227
 20
905.44381600348004
 30
0.0
 40
8.0
 50
270.0001500000019
 51
0.0
  0
ARC
  5
3258
  8
AM_0
 10
426.74627730906252
 20
901.3580560034801
 30
0.0
 40
5.0
 50
288.96566000000053
 51
0.0
  0
LINE
  5
3259
  8
AM_0
 10
385.2462173090625
 20
969.11867600348035
 30
0.0
 11
431.74627730906252
 21
969.11867600348035
 31
0.0
  0
LINE
  5
325A
  8
AM_0
 10
387.24627730906252
 20
994.44375600348008
 30
0.0
 11
439.2462173090625
 21
994.44375600348008
 31
0.0
  0
ARC
  5
325B
  8
AM_0
 10
383.24627730906252
 20
1000.44381600348
 30
0.0
 40
2.0
 50
0.0
 51
90.00000299999769
  0
ARC
  5
325C
  8
AM_0
 10
383.24627730906252
 20
980.17098600348015
 30
0.0
 40
2.0
 50
0.0
 51
90.00000299999769
  0
ARC
  5
325D
  8
AM_0
 10
383.24627730906252
 20
964.61458600348033
 30
0.0
 40
2.0
 50
0.0
 51
90.00000299999769
  0
ARC
  5
325E
  8
AM_0
 10
387.24627730906252
 20
996.44375600347996
 30
0.0
 40
2.0
 50
179.9999899999988
 51
270.0
  0
ARC
  5
325F
  8
AM_0
 10
439.2462173090625
 20
996.44375600347996
 30
0.0
 40
2.0
 50
270.0
 51
0.0
  0
ARC
  5
3260
  8
AM_0
 10
436.24621730906262
 20
996.5148560034803
 30
0.0
 40
5.0
 50
315.0
 51
0.0
  0
ARC
  5
3261
  8
AM_0
 10
436.74627730906252
 20
982.87276600348002
 30
0.0
 40
5.0
 50
135.0
 51
180.00001000000091
  0
LINE
  5
3262
  8
AM_0
 10
433.2107573090625
 20
986.40828600348004
 30
0.0
 11
439.78179730906231
 21
992.97933600347994
 31
0.0
  0
ARC
  5
3263
  8
AM_0
 10
444.2462173090625
 20
1012.19753600348
 30
0.0
 40
3.0
 50
91.999998000000545
 51
180.00001000000091
  0
LINE
  5
3264
  8
AM_0
 10
451.24621730906227
 20
1015.443816003479
 30
0.0
 11
444.14153730906253
 21
1015.19570600348
 31
0.0
  0
ARC
  5
3265
  8
AM_0
 10
575.24627730906252
 20
948.78042600348033
 30
0.0
 40
8.0
 50
0.0
 51
90.00000299999769
  0
LINE
  5
3266
  8
AM_0
 10
533.59582730906254
 20
979.80782600348005
 30
0.0
 11
571.83507730906251
 21
1002.95028600348
 31
0.0
  0
LINE
  5
3267
  8
AM_0
 10
536.17541730906225
 20
970.09420600348005
 30
0.0
 11
571.74450730906256
 21
991.62063600347994
 31
0.0
  0
LINE
  5
3268
  8
AM_0
 10
536.1846873090625
 20
968.31734600348034
 30
0.0
 11
559.93950730906249
 21
968.31734600348034
 31
0.0
  0
ARC
  5
3269
  8
AM_0
 10
536.1846873090625
 20
973.31734600348022
 30
0.0
 40
5.0
 50
179.9999899999988
 51
270.0
  0
ARC
  5
326A
  8
AM_0
 10
536.1846873090625
 20
975.53017600348005
 30
0.0
 40
5.0
 50
121.18235999999619
 51
180.00001000000091
  0
LINE
  5
326B
  8
AM_0
 10
531.18468730906227
 20
975.53017600348005
 30
0.0
 11
531.18468730906227
 21
973.31734600348022
 31
0.0
  0
POLYLINE
  5
326C
  8
AM_0
 66
     1
 10
0.0
 20
0.0
 30
0.0
  0
VERTEX
  5
326D
  8
AM_0
 10
569.37139730906222
 20
1019.56881600348
 30
0.0
  0
VERTEX
  5
326E
  8
AM_0
 10
566.14113730906251
 20
999.50430600348011
 30
0.0
 42
-1.0
  0
SEQEND
  5
326F
  8
AM_0
  0
LINE
  5
3270
  8
AM_0
 10
562.89648730906254
 20
969.28536600347991
 30
0.0
 11
574.24633730906237
 21
977.60909600348009
 31
0.0
  0
ARC
  5
3271
  8
AM_0
 10
559.93950730906249
 20
973.31734600348022
 30
0.0
 40
5.0
 50
270.0
 51
306.25554999999889
  0
LINE
  5
3272
  8
AM_0
 10
570.76409730906255
 20
1020.96145600348
 30
0.0
 11
574.24639730906233
 21
1024.44368600348
 31
0.0
  0
ARC
  5
3273
  8
AM_0
 10
575.24627730906252
 20
1006.79293600348
 30
0.0
 40
8.0
 50
0.0
 51
90.00000299999769
  0
ARC
  5
3274
  8
AM_0
 10
569.24627730906252
 20
1007.22786600348
 30
0.0
 40
5.0
 50
301.18235999999632
 51
0.0
  0
ARC
  5
3275
  8
AM_0
 10
567.22851730906245
 20
1024.4970360034799
 30
0.0
 40
5.0
 50
271.9999999999971
 51
315.0
  0
ARC
  5
3276
  8
AM_0
 10
579.24627730906252
 20
1041.84707600348
 30
0.0
 40
5.0
 50
91.999998000000545
 51
180.00001000000091
  0
ARC
  5
3277
  8
AM_0
 10
624.24627730906252
 20
882.44375600348019
 30
0.0
 40
8.0000113999999982
 50
90.00000299999769
 51
270.0
  0
LINE
  5
3278
  8
AM_0
 10
601.24627730906252
 20
1022.44381600348
 30
0.0
 11
601.24627730906252
 21
742.44381600348004
 31
0.0
  0
LINE
  5
3279
  8
AM_0
 10
596.24627730906252
 20
1047.4438160034799
 30
0.0
 11
596.24627730906252
 21
717.44375600347996
 31
0.0
  0
LINE
  5
327A
  8
AM_0
 10
686.24621730906233
 20
909.94381600348004
 30
0.0
 11
686.24621730906233
 21
854.94381600347992
 31
0.0
  0
LINE
  5
327B
  8
AM_0
 10
624.24621730906233
 20
890.44375600348042
 30
0.0
 11
624.24621730906233
 21
874.44375600348019
 31
0.0
  0
LINE
  5
327C
  8
AM_0
 10
604.24621730906233
 20
912.44381600348015
 30
0.0
 11
604.24621730906233
 21
852.44381600348015
 31
0.0
  0
LINE
  5
327D
  8
AM_0
 10
596.24627730906252
 20
742.44381600348004
 30
0.0
 11
601.24627730906252
 21
742.44381600348004
 31
0.0
  0
LINE
  5
327E
  8
AM_0
 10
604.24621730906233
 20
854.94381600347992
 30
0.0
 11
686.24621730906233
 21
854.94381600347992
 31
0.0
  0
LINE
  5
327F
  8
AM_0
 10
624.24627730906252
 20
874.44375600348019
 30
0.0
 11
686.24621730906233
 21
874.44375600348019
 31
0.0
  0
LINE
  5
3280
  8
AM_0
 10
601.24627730906252
 20
852.44381600348015
 30
0.0
 11
604.24621730906233
 21
852.44381600348015
 31
0.0
  0
LINE
  5
3281
  8
AM_0
 10
604.24621730906233
 20
909.94381600348004
 30
0.0
 11
686.24621730906233
 21
909.94381600348004
 31
0.0
  0
LINE
  5
3282
  8
AM_0
 10
624.24627730906252
 20
890.44375600348042
 30
0.0
 11
686.24621730906233
 21
890.44375600348042
 31
0.0
  0
LINE
  5
3283
  8
AM_0
 10
601.24627730906252
 20
912.44381600348015
 30
0.0
 11
604.24621730906233
 21
912.44381600348015
 31
0.0
  0
LINE
  5
3284
  8
AM_0
 10
596.24627730906252
 20
1022.44381600348
 30
0.0
 11
601.24627730906252
 21
1022.44381600348
 31
0.0
  0
ARC
  5
3285
  8
AM_0
 10
433.24621730906227
 20
566.35921425800495
 30
0.0
 40
25.000000499999999
 50
306.46672000000012
 51
233.53329000000139
  0
CIRCLE
  5
3286
  8
AM_0
 10
433.24621730906227
 20
566.35921425800495
 30
0.0
 40
15.0
  0
LINE
  5
3287
  8
AM_0
 10
574.24621730906233
 20
577.76251425800501
 30
0.0
 11
574.24621730906233
 21
384.09585925800491
 31
0.0
  0
LINE
  5
3288
  8
AM_0
 10
596.24621730906233
 20
583.35926425800494
 30
0.0
 11
596.24621730906233
 21
253.3592242580049
 31
0.0
  0
LINE
  5
3289
  8
AM_0
 10
451.24621730906227
 20
540.35921425800484
 30
0.0
 11
553.02766730906285
 21
543.02446425800485
 31
0.0
  0
LINE
  5
328A
  8
ﾁｭｳｼﾝｾﾝ
 10
413.83791730906228
 20
418.35922425800482
 30
0.0
 11
691.67506730906268
 21
418.35922425800482
 31
0.0
  0
LINE
  5
328B
  8
AM_0
 10
451.24626730906249
 20
225.35923925800489
 30
0.0
 11
533.08956730906255
 21
223.21609425800489
 31
0.0
  0
LINE
  5
328C
  8
AM_0
 10
441.24621730906227
 20
426.82562925800482
 30
0.0
 11
568.84751730906271
 21
426.82562925800482
 31
0.0
  0
LINE
  5
328D
  8
AM_0
 10
441.24621730906227
 20
325.030034258005
 30
0.0
 11
574.24621730906233
 21
325.030034258005
 31
0.0
  0
LINE
  5
328E
  8
AM_0
 10
311.24626730906238
 20
520.35922425800516
 30
0.0
 11
311.24626730906238
 21
373.35922425800482
 31
0.0
  0
LINE
  5
328F
  8
AM_0
 10
431.74621730906227
 20
502.90906425800478
 30
0.0
 11
431.74621730906227
 21
248.80937425800491
 31
0.0
  0
LINE
  5
3290
  8
AM_0
 10
372.24626730906249
 20
493.35922925800492
 30
0.0
 11
372.24626730906249
 21
253.3592242580049
 31
0.0
  0
LINE
  5
3291
  8
AM_0
 10
385.24621730906227
 20
491.35922925800509
 30
0.0
 11
385.24621730906227
 21
255.3592242580049
 31
0.0
  0
LINE
  5
3292
  8
AM_0
 10
291.24626730906249
 20
523.35922425800516
 30
0.0
 11
291.24626730906249
 21
223.35922425800501
 31
0.0
  0
LINE
  5
3293
  8
AM_0
 10
451.24621730906227
 20
540.35921425800484
 30
0.0
 11
451.24621730906227
 21
225.3592242580049
 31
0.0
  0
LINE
  5
3294
  8
AM_0
 10
441.24621730906227
 20
538.07861425800468
 30
0.0
 11
441.24621730906227
 21
227.639804258005
 31
0.0
  0
LINE
  5
3295
  8
ﾁｭｳｼﾝｾﾝ
 10
275.15965413668152
 20
373.35922425800482
 30
0.0
 11
436.24288651176158
 21
373.35922425800482
 31
0.0
  0
LINE
  5
3296
  8
AM_0
 10
372.24626730906249
 20
255.3592241980528
 30
0.0
 11
316.11538330906279
 21
253.88938525800501
 31
0.0
  0
LINE
  5
3297
  8
AM_0
 10
340.84205730906223
 20
272.60519725800521
 30
0.0
 11
369.2468773090626
 21
273.59711525800498
 31
0.0
  0
LINE
  5
3298
  8
AM_0
 10
368.54927530906241
 20
298.82546425800518
 30
0.0
 11
316.11538330906279
 21
297.45243425800521
 31
0.0
  0
LINE
  5
3299
  8
AM_0
 10
369.2468773090626
 20
289.15346525800521
 30
0.0
 11
340.84205730906223
 21
288.16154625800522
 31
0.0
  0
LINE
  5
329A
  8
AM_0
 10
311.24626730906238
 20
226.3592242580049
 30
0.0
 11
311.24626730906238
 21
373.35922425800482
 31
0.0
  0
ARC
  5
329B
  8
AM_0
 10
316.24626730906249
 20
256.5563822580051
 30
0.0
 40
5.0
 50
114.0451930000017
 51
180.0
  0
ARC
  5
329C
  8
AM_0
 10
316.24626730906249
 20
248.8910992580052
 30
0.0
 40
5.0
 50
91.499999999996206
 51
180.0
  0
LINE
  5
329D
  8
AM_0
 10
291.24626730906249
 20
223.35922425800501
 30
0.0
 11
308.24626730906249
 21
223.35922425800501
 31
0.0
  0
ARC
  5
329E
  8
AM_0
 10
308.24626730906249
 20
226.3592242580049
 30
0.0
 40
3.0
 50
270.0
 51
0.0
  0
LINE
  5
329F
  8
AM_0
 10
314.20898230906261
 20
276.67885325800512
 30
0.0
 11
338.97926930906232
 21
287.73071425800492
 31
0.0
  0
LINE
  5
32A0
  8
AM_0
 10
314.20898230906261
 20
261.12250325800488
 30
0.0
 11
338.97926930906232
 21
272.17436525800503
 31
0.0
  0
ARC
  5
32A1
  8
AM_0
 10
316.24626730906249
 20
292.45414725800509
 30
0.0
 40
5.0
 50
91.499999999996206
 51
150.7208909999986
  0
ARC
  5
32A2
  8
AM_0
 10
316.24626730906249
 20
272.11273125800523
 30
0.0
 40
5.0
 50
114.0451930000017
 51
180.0
  0
LINE
  5
32A3
  8
AM_0
 10
342.24626730906238
 20
274.63826625800499
 30
0.0
 11
342.24626730906238
 21
286.11846825800512
 31
0.0
  0
ARC
  5
32A4
  8
AM_0
 10
341.01655530906282
 20
267.60824325800507
 30
0.0
 40
5.0
 50
91.999999999997087
 51
114.0451930000017
  0
ARC
  5
32A5
  8
AM_0
 10
341.01655530906282
 20
283.16459225800509
 30
0.0
 40
5.0
 50
91.999999999997087
 51
114.0451930000017
  0
LINE
  5
32A6
  8
AM_0
 10
385.24621730906227
 20
302.42639425800479
 30
0.0
 11
431.74621730906227
 21
302.42639425800479
 31
0.0
  0
LINE
  5
32A7
  8
AM_0
 10
385.24621730906227
 20
286.68432925800488
 30
0.0
 11
431.74621730906227
 21
286.68432925800488
 31
0.0
  0
LINE
  5
32A8
  8
AM_0
 10
387.24626730906249
 20
261.35922425800482
 30
0.0
 11
429.3747673090628
 21
261.35922425800482
 31
0.0
  0
ARC
  5
32A9
  8
AM_0
 10
387.24626730906249
 20
259.35922425800487
 30
0.0
 40
2.0000000500000001
 50
90.00000299999769
 51
180.00001000000091
  0
LINE
  5
32AA
  8
AM_0
 10
372.24626730906249
 20
253.3592242580049
 30
0.0
 11
383.24621730906227
 21
253.3592242580049
 31
0.0
  0
ARC
  5
32AB
  8
AM_0
 10
383.24621730906227
 20
255.3592242580049
 30
0.0
 40
2.0000000500000001
 50
270.0
 51
0.0
  0
LINE
  5
32AC
  8
AM_0
 10
372.24626730906249
 20
273.63198925800481
 30
0.0
 11
383.24621730906227
 21
273.63198925800481
 31
0.0
  0
LINE
  5
32AD
  8
AM_0
 10
373.22511730906251
 20
298.92227425800502
 30
0.0
 11
384.25401730906259
 21
298.92227425800502
 31
0.0
  0
LINE
  5
32AE
  8
AM_0
 10
372.24626730906249
 20
289.18835925800488
 30
0.0
 11
383.24621730906227
 21
289.18835925800488
 31
0.0
  0
LINE
  5
32AF
  8
AM_0
 10
370.24626730906249
 20
290.18836425800492
 30
0.0
 11
370.24626730906249
 21
274.63201525800503
 31
0.0
  0
LINE
  5
32B0
  8
AM_0
 10
369.2468773090626
 20
289.15346525800521
 30
0.0
 11
369.2468773090626
 21
273.59711525800498
 31
0.0
  0
LINE
  5
32B1
  8
AM_0
 10
369.2468773090626
 20
273.59711525800498
 30
0.0
 11
370.24626730906249
 21
274.63201525800503
 31
0.0
  0
LINE
  5
32B2
  8
AM_0
 10
369.2468773090626
 20
289.15346525800521
 30
0.0
 11
370.24626730906249
 21
290.18836425800492
 31
0.0
  0
LINE
  5
32B3
  8
AM_0
 10
370.24626730906249
 20
297.3357172580051
 30
0.0
 11
370.24626730906249
 21
290.18836425800492
 31
0.0
  0
ARC
  5
32B4
  8
AM_0
 10
383.24621730906227
 20
275.63201925800502
 30
0.0
 40
2.0000000500000001
 50
270.0
 51
0.0
  0
ARC
  5
32B5
  8
AM_0
 10
383.24621730906227
 20
291.18835925800488
 30
0.0
 40
2.0000000500000001
 50
270.0
 51
0.0
  0
ARC
  5
32B6
  8
AM_0
 10
429.74626730906249
 20
259.35922425800487
 30
0.0
 40
2.0000000500000001
 50
0.0
 51
90.00000299999769
  0
LINE
  5
32B7
  8
AM_0
 10
443.17641730906251
 20
225.6410092580048
 30
0.0
 11
451.24616730906251
 21
225.3592092580048
 31
0.0
  0
LINE
  5
32B8
  8
AM_0
 10
440.47026730906271
 20
233.584384258005
 30
0.0
 11
432.52216730906241
 21
246.13413925800489
 31
0.0
  0
ARC
  5
32B9
  8
AM_0
 10
443.24621730906227
 20
227.639804258005
 30
0.0
 40
2.0000000500000001
 50
179.9999899999988
 51
268.00000999999861
  0
ARC
  5
32BA
  8
AM_0
 10
436.24621730906227
 20
230.90907425800489
 30
0.0
 40
5.0
 50
0.0
 51
32.347444999996732
  0
ARC
  5
32BB
  8
AM_0
 10
436.74621730906227
 20
248.80937425800491
 30
0.0
 40
5.0
 50
179.9999899999988
 51
212.3474399999993
  0
LINE
  5
32BC
  8
AM_0
 10
372.24626730906249
 20
491.35922431795711
 30
0.0
 11
316.11538330906279
 21
492.82906325800508
 31
0.0
  0
LINE
  5
32BD
  8
AM_0
 10
368.54927530906241
 20
447.89298525800479
 30
0.0
 11
316.11538330906279
 21
449.26601525800481
 31
0.0
  0
LINE
  5
32BE
  8
AM_0
 10
340.84205730906223
 20
474.11325125800482
 30
0.0
 11
369.2468773090626
 21
473.12133325800511
 31
0.0
  0
LINE
  5
32BF
  8
AM_0
 10
369.2468773090626
 20
457.56498425800521
 30
0.0
 11
340.84205730906223
 21
458.55690225800521
 31
0.0
  0
LINE
  5
32C0
  8
AM_0
 10
314.20898230906261
 20
485.59594525800509
 30
0.0
 11
338.97926930906232
 21
474.54408425800523
 31
0.0
  0
LINE
  5
32C1
  8
AM_0
 10
314.20898230906261
 20
470.03959625800519
 30
0.0
 11
338.97926930906232
 21
458.98773525800482
 31
0.0
  0
ARC
  5
32C2
  8
AM_0
 10
316.24626730906249
 20
454.26430125800522
 30
0.0
 40
5.0
 50
209.27910900000131
 51
268.4999999999971
  0
ARC
  5
32C3
  8
AM_0
 10
316.24626730906249
 20
474.60571825800508
 30
0.0
 40
5.0
 50
180.0
 51
245.9548069999982
  0
ARC
  5
32C4
  8
AM_0
 10
341.01655530906282
 20
479.11020525800478
 30
0.0
 40
5.0
 50
245.9548069999982
 51
268.0000000000029
  0
ARC
  5
32C5
  8
AM_0
 10
341.01655530906282
 20
463.55385625800511
 30
0.0
 40
5.0
 50
245.9548069999982
 51
268.0000000000029
  0
LINE
  5
32C6
  8
AM_0
 10
342.24626730906238
 20
472.08018225800481
 30
0.0
 11
342.24626730906238
 21
460.5999812580049
 31
0.0
  0
ARC
  5
32C7
  8
AM_0
 10
308.24626730906249
 20
520.35922425800516
 30
0.0
 40
3.0
 50
0.0
 51
90.0
  0
ARC
  5
32C8
  8
AM_0
 10
316.24626730906249
 20
497.82735025800508
 30
0.0
 40
5.0
 50
180.0
 51
268.4999999999971
  0
ARC
  5
32C9
  8
AM_0
 10
316.24626730906249
 20
490.1620672580047
 30
0.0
 40
5.0
 50
180.0
 51
245.9548069999982
  0
LINE
  5
32CA
  8
AM_0
 10
291.24626730906249
 20
523.35922425800516
 30
0.0
 11
308.24626730906249
 21
523.35922425800516
 31
0.0
  0
LINE
  5
32CB
  8
AM_0
 10
385.24621730906227
 20
460.03412425800479
 30
0.0
 11
431.74621730906227
 21
460.03412425800479
 31
0.0
  0
LINE
  5
32CC
  8
AM_0
 10
385.24621730906227
 20
444.29205925800483
 30
0.0
 11
431.74621730906227
 21
444.29205925800483
 31
0.0
  0
LINE
  5
32CD
  8
AM_0
 10
373.22511730906251
 20
447.79617925800483
 30
0.0
 11
384.25401730906259
 21
447.79617925800483
 31
0.0
  0
LINE
  5
32CE
  8
AM_0
 10
372.24626730906249
 20
473.08645925800522
 30
0.0
 11
383.24621730906227
 21
473.08645925800522
 31
0.0
  0
LINE
  5
32CF
  8
AM_0
 10
372.24626730906249
 20
457.53006425800481
 30
0.0
 11
383.24621730906227
 21
457.53006425800481
 31
0.0
  0
LINE
  5
32D0
  8
AM_0
 10
370.24626730906249
 20
449.38273125800481
 30
0.0
 11
370.24626730906249
 21
456.53008525800522
 31
0.0
  0
LINE
  5
32D1
  8
AM_0
 10
369.2468773090626
 20
473.12133325800511
 30
0.0
 11
370.24626730906249
 21
472.08643425800523
 31
0.0
  0
LINE
  5
32D2
  8
AM_0
 10
369.2468773090626
 20
457.56498425800521
 30
0.0
 11
370.24626730906249
 21
456.53008525800522
 31
0.0
  0
LINE
  5
32D3
  8
AM_0
 10
370.24626730906249
 20
456.53008525800522
 30
0.0
 11
370.24626730906249
 21
472.08643425800523
 31
0.0
  0
LINE
  5
32D4
  8
AM_0
 10
369.2468773090626
 20
457.56498425800521
 30
0.0
 11
369.2468773090626
 21
473.12133325800511
 31
0.0
  0
ARC
  5
32D5
  8
AM_0
 10
383.24621730906227
 20
471.08642925800478
 30
0.0
 40
2.0000000500000001
 50
0.0
 51
90.00000299999769
  0
ARC
  5
32D6
  8
AM_0
 10
383.24621730906227
 20
455.53006425800481
 30
0.0
 40
2.0000000500000001
 50
0.0
 51
90.00000299999769
  0
LINE
  5
32D7
  8
AM_0
 10
387.24626730906249
 20
485.35919925800482
 30
0.0
 11
416.24621730906227
 21
485.35919925800482
 31
0.0
  0
LINE
  5
32D8
  8
AM_0
 10
372.24626730906249
 20
493.35922925800492
 30
0.0
 11
383.24621730906227
 21
493.35922925800492
 31
0.0
  0
ARC
  5
32D9
  8
AM_0
 10
383.24621730906227
 20
491.35922925800509
 30
0.0
 40
2.0000000500000001
 50
0.0
 51
90.00000299999769
  0
ARC
  5
32DA
  8
AM_0
 10
387.24626730906249
 20
487.3592292580048
 30
0.0
 40
2.0000000500000001
 50
179.9999899999988
 51
270.0
  0
LINE
  5
32DB
  8
AM_0
 10
418.24621730906227
 20
535.35921425800484
 30
0.0
 11
418.24621730906227
 21
487.3592292580048
 31
0.0
  0
ARC
  5
32DC
  8
AM_0
 10
436.24621730906227
 20
520.80941425800495
 30
0.0
 40
5.0
 50
327.65256000000051
 51
0.0
  0
ARC
  5
32DD
  8
AM_0
 10
429.74626730906249
 20
487.3592292580048
 30
0.0
 40
2.0000000500000001
 50
270.0
 51
0.0
  0
LINE
  5
32DE
  8
AM_0
 10
416.24621730906227
 20
485.35919925800482
 30
0.0
 11
429.74626730906249
 21
485.35919925800482
 31
0.0
  0
ARC
  5
32DF
  8
AM_0
 10
416.24621730906227
 20
487.3592292580048
 30
0.0
 40
2.0000000500000001
 50
270.0
 51
0.0
  0
ARC
  5
32E0
  8
AM_0
 10
436.74621730906227
 20
502.90906425800478
 30
0.0
 40
5.0
 50
147.65256000000051
 51
180.00001000000091
  0
LINE
  5
32E1
  8
AM_0
 10
440.47026730906271
 20
518.13411425800496
 30
0.0
 11
432.52211730906231
 21
505.58435425800479
 31
0.0
  0
LINE
  5
32E2
  8
AM_0
 10
423.24621730906227
 20
540.35921425800484
 30
0.0
 11
450.94621730906272
 21
540.35921425800484
 31
0.0
  0
ARC
  5
32E3
  8
AM_0
 10
451.67121730906251
 20
541.42896425800495
 30
0.0
 40
6.0
 50
126.46669999999671
 51
190.27005999999909
  0
LINE
  5
32E4
  8
AM_0
 10
443.17646730906267
 20
540.07741425800509
 30
0.0
 11
450.94626730906282
 21
540.34876425800485
 31
0.0
  0
ARC
  5
32E5
  8
AM_0
 10
414.82116730906239
 20
541.42896425800495
 30
0.0
 40
6.0
 50
349.72994999999878
 51
53.533291000002919
  0
LINE
  5
32E6
  8
AM_0
 10
420.53156730906221
 20
539.55811425800482
 30
0.0
 11
422.99671730906221
 21
548.75811425800475
 31
0.0
  0
LINE
  5
32E7
  8
AM_0
 10
445.74621730906227
 20
540.35921425800484
 30
0.0
 11
443.49571730906229
 21
548.75816425800497
 31
0.0
  0
ARC
  5
32E8
  8
AM_0
 10
423.24621730906227
 20
535.35921425800484
 30
0.0
 40
5.0
 50
90.00000299999769
 51
180.00001000000091
  0
ARC
  5
32E9
  8
AM_0
 10
443.24621730906227
 20
538.07861425800468
 30
0.0
 40
2.0000000500000001
 50
91.999998000000545
 51
180.00001000000091
  0
LINE
  5
32EA
  8
AM_0
 10
423.45216730906282
 20
549.35921425800484
 30
0.0
 11
443.04021730906283
 21
549.35921425800484
 31
0.0
  0
LINE
  5
32EB
  8
AM_0
 10
423.76811730906252
 20
549.48016425800495
 30
0.0
 11
433.2461673090628
 21
551.35921425800495
 31
0.0
  0
ARC
  5
32EC
  8
AM_0
 10
423.96266730906279
 20
548.49931425800514
 30
0.0
 40
1.0
 50
101.213289999998
 51
164.99999000000179
  0
ARC
  5
32ED
  8
AM_0
 10
442.52986730906252
 20
548.49931425800514
 30
0.0
 40
1.0
 50
15.000000000000741
 51
78.786710000001847
  0
LINE
  5
32EE
  8
AM_0
 10
433.24621730906227
 20
551.35921425800495
 30
0.0
 11
442.7243173090626
 21
549.48016425800495
 31
0.0
  0
LINE
  5
32EF
  8
AM_0
 10
450.94621730906272
 20
540.35921425800484
 30
0.0
 11
451.24621730906227
 21
540.35921425800484
 31
0.0
  0
LINE
  5
32F0
  8
AM_0
 10
604.24621730906233
 20
448.3592292580048
 30
0.0
 11
604.24621730906233
 21
388.35922425800482
 31
0.0
  0
LINE
  5
32F1
  8
AM_0
 10
573.5728673090623
 20
375.87112925800483
 30
0.0
 11
561.66911730906224
 21
504.23279425800479
 31
0.0
  0
LINE
  5
32F2
  8
AM_0
 10
601.24621730906233
 20
558.35926425800494
 30
0.0
 11
601.24621730906233
 21
278.35922425800487
 31
0.0
  0
LINE
  5
32F3
  8
AM_0
 10
583.24621730906233
 20
542.70836425800485
 30
0.0
 11
583.24621730906233
 21
294.01007425800481
 31
0.0
  0
LINE
  5
32F4
  8
AM_0
 10
574.24621730906233
 20
326.08532925800489
 30
0.0
 11
574.24621730906233
 21
258.35922425800482
 31
0.0
  0
LINE
  5
32F5
  8
AM_0
 10
496.24621730906227
 20
298.60513425800508
 30
0.0
 11
574.24621730906233
 21
298.60513425800508
 31
0.0
  0
LINE
  5
32F6
  8
AM_0
 10
496.24621730906227
 20
273.9602992580048
 30
0.0
 11
574.24621730906233
 21
273.9602992580048
 31
0.0
  0
LINE
  5
32F7
  8
AM_0
 10
538.35131730906255
 20
224.552414258005
 30
0.0
 11
588.24621730906233
 21
253.35923925800481
 31
0.0
  0
ARC
  5
32F8
  8
AM_0
 10
533.35136730906265
 20
233.21266425800491
 30
0.0
 40
10.0
 50
268.4999999999971
 51
300.00000000000051
  0
LINE
  5
32F9
  8
AM_0
 10
491.24621730906227
 20
293.60513425800508
 30
0.0
 11
491.24621730906227
 21
278.9602992580048
 31
0.0
  0
ARC
  5
32FA
  8
AM_0
 10
496.24621730906227
 20
278.9602992580048
 30
0.0
 40
5.0
 50
179.9999899999988
 51
270.0
  0
ARC
  5
32FB
  8
AM_0
 10
496.24621730906227
 20
293.60513425800508
 30
0.0
 40
5.0
 50
90.00000299999769
 51
180.00001000000091
  0
LINE
  5
32FC
  8
AM_0
 10
579.24621730906233
 20
253.3592242580049
 30
0.0
 11
596.24621730906233
 21
253.3592242580049
 31
0.0
  0
ARC
  5
32FD
  8
AM_0
 10
579.24621730906233
 20
258.35922425800482
 30
0.0
 40
5.0
 50
179.9999899999988
 51
270.0
  0
ARC
  5
32FE
  8
AM_0
 10
575.24621730906233
 20
294.01007425800481
 30
0.0
 40
8.0
 50
270.0
 51
0.0
  0
LINE
  5
32FF
  8
AM_0
 10
596.24621730906233
 20
278.35922425800487
 30
0.0
 11
601.24621730906233
 21
278.35922425800487
 31
0.0
  0
ARC
  5
3300
  8
AM_0
 10
575.24621730906233
 20
334.02258425800488
 30
0.0
 40
8.0
 50
270.0
 51
0.0
  0
ARC
  5
3301
  8
AM_0
 10
581.53861730906272
 20
376.60986925800478
 30
0.0
 40
8.0
 50
185.2982400000015
 51
270.0
  0
LINE
  5
3302
  8
AM_0
 10
601.24621730906233
 20
388.35922425800482
 30
0.0
 11
604.24621730906233
 21
388.35922425800482
 31
0.0
  0
LINE
  5
3303
  8
AM_0
 10
604.24621730906233
 20
445.8592292580048
 30
0.0
 11
686.24621730906233
 21
445.8592292580048
 31
0.0
  0
LINE
  5
3304
  8
AM_0
 10
604.24621730906233
 20
390.85922425800482
 30
0.0
 11
686.24621730906233
 21
390.85922425800482
 31
0.0
  0
LINE
  5
3305
  8
AM_0
 10
601.24621730906233
 20
448.3592292580048
 30
0.0
 11
604.24621730906233
 21
448.3592292580048
 31
0.0
  0
LINE
  5
3306
  8
AM_0
 10
536.18461730906245
 20
504.23276425800481
 30
0.0
 11
559.93946730906259
 21
504.23276425800481
 31
0.0
  0
LINE
  5
3307
  8
AM_0
 10
536.17531730906273
 20
506.00964925800508
 30
0.0
 11
571.74436730906268
 21
527.536114258005
 31
0.0
  0
LINE
  5
3308
  8
AM_0
 10
533.59571730906248
 20
515.72326425800475
 30
0.0
 11
571.83501730906278
 21
538.8657142580048
 31
0.0
  0
ARC
  5
3309
  8
AM_0
 10
536.18461730906245
 20
509.23276425800509
 30
0.0
 40
5.0
 50
179.9999899999988
 51
270.0
  0
ARC
  5
330A
  8
AM_0
 10
536.18461730906245
 20
511.44561425800458
 30
0.0
 40
5.0
 50
121.182359999998
 51
180.00001000000091
  0
LINE
  5
330B
  8
AM_0
 10
531.18461730906245
 20
511.44561425800458
 30
0.0
 11
531.18461730906245
 21
509.23276425800509
 31
0.0
  0
ARC
  5
330C
  8
AM_0
 10
575.24621730906233
 20
484.69586925800479
 30
0.0
 40
8.0
 50
0.0
 51
90.00000299999769
  0
LINE
  5
330D
  8
AM_0
 10
562.89636730906284
 20
505.20083925800481
 30
0.0
 11
574.24626730906255
 21
513.52461425800482
 31
0.0
  0
ARC
  5
330E
  8
AM_0
 10
559.93946730906259
 20
509.23276425800509
 30
0.0
 40
5.0
 50
270.0
 51
306.25555000000082
  0
ARC
  5
330F
  8
AM_0
 10
575.24621730906233
 20
542.70836425800485
 30
0.0
 40
8.0
 50
0.0
 51
90.00000299999769
  0
LINE
  5
3310
  8
AM_0
 10
559.04411730906224
 20
532.53856425800495
 30
0.0
 11
557.97326730906229
 21
544.08616425800506
 31
0.0
  0
ARC
  5
3311
  8
AM_0
 10
569.24621730906233
 20
543.14331425800481
 30
0.0
 40
5.0
 50
301.18235999999791
 51
0.0
  0
LINE
  5
3312
  8
AM_0
 10
559.83696730906274
 20
545.94996425800468
 30
0.0
 11
574.24626730906255
 21
560.35921425800484
 31
0.0
  0
ARC
  5
3313
  8
AM_0
 10
552.76586730906263
 20
553.02101425800481
 30
0.0
 40
10.0
 50
271.50000000000261
 51
315.0
  0
LINE
  5
3314
  8
AM_0
 10
596.24621730906233
 20
558.35926425800494
 30
0.0
 11
601.24621730906233
 21
558.35926425800494
 31
0.0
  0
LINE
  5
3315
  8
AM_0
 10
624.24621730906233
 20
449.8592292580048
 30
0.0
 11
686.24621730906233
 21
449.8592292580048
 31
0.0
  0
LINE
  5
3316
  8
AM_0
 10
624.24621730906233
 20
449.8592292580048
 30
0.0
 11
624.24621730906233
 21
445.8592292580048
 31
0.0
  0
LINE
  5
3317
  8
AM_0
 10
686.24621730906233
 20
449.8592292580048
 30
0.0
 11
686.24621730906233
 21
390.85922425800482
 31
0.0
  0
LINE
  5
3318
  8
AM_0
 10
579.07171730906225
 20
582.75951425800486
 30
0.0
 11
596.24621730906233
 21
583.35926425800494
 31
0.0
  0
ARC
  5
3319
  8
AM_0
 10
579.24621730906233
 20
577.76251425800501
 30
0.0
 40
5.0
 50
91.999998000000545
 51
180.00001000000091
  0
ARC
  5
331A
  8
AM_0
 10
1136.479608916693
 20
558.85131425800478
 30
0.0
 40
20.000000499999999
 50
3.0000000999988461
 51
86.99999899999699
  0
LINE
  5
331B
  8
ﾁｭｳｼﾝｾﾝ1
 10
1118.5660039166919
 20
540.93766425800482
 30
0.0
 11
1148.1040289166931
 21
570.47571425800481
 31
0.0
  0
CIRCLE
  5
331C
  8
AM_0
 10
1133.873328916693
 20
556.24506425800485
 30
0.0
 40
9.5
  0
ARC
  5
331D
  8
ﾁｭｳｼﾝｾﾝ1
 10
995.98752391669245
 20
418.35922425800482
 30
0.0
 40
195.0000049999999
 50
39.367218999999267
 51
50.896189000000447
  0
ARC
  5
331E
  8
AM_0
 10
855.4954289166925
 20
558.85131425800478
 30
0.0
 40
20.000000499999999
 50
92.999999000001679
 51
176.99999000000011
  0
CIRCLE
  5
331F
  8
AM_0
 10
858.10168891669298
 20
556.24506425800485
 30
0.0
 40
9.5
  0
LINE
  5
3320
  8
ﾁｭｳｼﾝｾﾝ
 10
995.98752391669245
 20
211.33404425800481
 30
0.0
 11
995.98752391669245
 21
596.55444394995925
 31
0.0
  0
LINE
  5
3321
  8
ﾁｭｳｼﾝｾﾝ
 10
820.00580391669268
 20
418.35922425800482
 30
0.0
 11
1173.4140889166911
 21
418.35922425800482
 31
0.0
  0
LINE
  5
3322
  8
ﾁｭｳｼﾝｾﾝ
 10
905.58871092537765
 20
373.35922425800521
 30
0.0
 11
1086.386336908007
 21
373.35922425800521
 31
0.0
  0
CIRCLE
  5
3323
  8
AM_0
 10
995.98752391669245
 20
418.35922425800482
 30
0.0
 40
132.0
  0
CIRCLE
  5
3324
  8
AM_0
 10
995.98752391669245
 20
418.35922425800482
 30
0.0
 40
140.0
  0
ARC
  5
3325
  8
AM_0
 10
995.98752391669245
 20
418.35922425800482
 30
0.0
 40
60.0
 50
270.0
 51
90.00000299999769
  0
LINE
  5
3326
  8
AM_0
 10
934.14047891669281
 20
222.53922925800481
 30
0.0
 11
1057.8345089166919
 21
222.53922925800481
 31
0.0
  0
LINE
  5
3327
  8
AM_0
 10
940.98752391669245
 20
253.3592242580049
 30
0.0
 11
1050.987493916693
 21
253.3592242580049
 31
0.0
  0
ARC
  5
3328
  8
AM_0
 10
995.98752391669245
 20
418.35922425800482
 30
0.0
 40
75.0
 50
52.903206000003003
 51
127.0967900000017
  0
LINE
  5
3329
  8
AM_0
 10
830.9875039166925
 20
363.35922425800482
 30
0.0
 11
830.9875039166925
 21
473.3592292580048
 31
0.0
  0
ARC
  5
332A
  8
AM_0
 10
995.98752391669245
 20
418.35922425800482
 30
0.0
 40
60.0
 50
90.00000299999769
 51
270.0
  0
LINE
  5
332B
  8
AM_0
 10
940.98749391669276
 20
253.3592242580049
 30
0.0
 11
854.44870391669269
 21
257.8945342580048
 31
0.0
  0
ARC
  5
332C
  8
AM_0
 10
962.98749391669276
 20
325.030034258005
 30
0.0
 40
102.81999499999991
 50
222.01518000000081
 51
235.0000000000025
  0
LINE
  5
332D
  8
AM_0
 10
830.9875039166925
 20
363.359194258005
 30
0.0
 11
835.52280391669262
 21
276.82040425800483
 31
0.0
  0
ARC
  5
332E
  8
AM_0
 10
855.4954289166925
 20
277.86712925800481
 30
0.0
 40
20.000000499999999
 50
183.00000999999961
 51
267.0000000000008
  0
ARC
  5
332F
  8
ﾁｭｳｼﾝｾﾝ1
 10
995.98752391669245
 20
418.35922425800482
 30
0.0
 40
195.0000049999999
 50
218.16532000000149
 51
232.1288600000004
  0
LINE
  5
3330
  8
ﾁｭｳｼﾝｾﾝ1
 10
874.3110389166925
 20
296.6827392580048
 30
0.0
 11
843.87095391669266
 21
266.2426792580049
 31
0.0
  0
CIRCLE
  5
3331
  8
AM_0
 10
858.10168891669298
 20
280.47338925800489
 30
0.0
 40
9.5
  0
ARC
  5
3332
  8
AM_0
 10
934.14047891669281
 20
235.35922425800479
 30
0.0
 40
12.82
 50
235.0000000000025
 51
270.0
  0
LINE
  5
3333
  8
AM_0
 10
926.78726891669282
 20
224.85768425800481
 30
0.0
 11
904.01236391669261
 21
240.8048242580048
 31
0.0
  0
LINE
  5
3334
  8
AM_0
 10
869.38183891669223
 20
403.35922425800482
 30
0.0
 11
915.98752391669245
 21
403.35922425800482
 31
0.0
  0
ARC
  5
3335
  8
AM_0
 10
898.74423891669255
 20
500.04614925800479
 30
0.0
 40
5.0
 50
45.00000100000149
 51
139.96884999999969
  0
LINE
  5
3336
  8
AM_0
 10
830.9875039166925
 20
473.3592292580048
 30
0.0
 11
835.52285391669261
 21
559.89801425800488
 31
0.0
  0
ARC
  5
3337
  8
AM_0
 10
869.38183891669223
 20
408.3592242580047
 30
0.0
 40
5.0
 50
184.5161599999995
 51
270.0
  0
LINE
  5
3338
  8
AM_0
 10
935.71362891669276
 20
470.14783425800482
 30
0.0
 11
902.27978891669215
 21
503.58163925800483
 31
0.0
  0
ARC
  5
3339
  8
AM_0
 10
947.73441391669246
 20
482.16864425800509
 30
0.0
 40
5.0
 50
225.0
 51
307.0967900000017
  0
ARC
  5
333A
  8
AM_0
 10
995.98752391669245
 20
418.35922425800482
 30
0.0
 40
75.0
 50
142.9032099999981
 51
180.00001000000091
  0
LINE
  5
333B
  8
AM_0
 10
920.98752391669245
 20
418.35922425800482
 30
0.0
 11
920.98752391669245
 21
408.3592242580047
 31
0.0
  0
ARC
  5
333C
  8
AM_0
 10
915.98752391669245
 20
408.3592242580047
 30
0.0
 40
5.0
 50
270.0
 51
0.0
  0
ARC
  5
333D
  8
AM_0
 10
932.17807391669282
 20
466.61230925800481
 30
0.0
 40
5.0
 50
322.9032099999983
 51
45.00000100000149
  0
ARC
  5
333E
  8
AM_0
 10
995.98752391669245
 20
418.35922425800482
 30
0.0
 40
27.500000499999999
 50
106.9123899999975
 51
73.087596999998908
  0
CIRCLE
  5
333F
  8
AM_5
 10
995.98752391669245
 20
418.35922425800482
 30
0.0
 40
6.0
  0
CIRCLE
  5
3340
  8
AM_0
 10
995.98752391669245
 20
418.35922425800482
 30
0.0
 40
4.500000049999997
  0
LINE
  5
3341
  8
AM_0
 10
987.98749391669276
 20
449.8592292580048
 30
0.0
 11
1003.987493916692
 21
449.8592292580048
 31
0.0
  0
LINE
  5
3342
  8
AM_0
 10
987.98749391669276
 20
439.8592292580048
 30
0.0
 11
1003.987493916692
 21
439.8592292580048
 31
0.0
  0
LINE
  5
3343
  8
AM_0
 10
987.98749391669276
 20
439.8592292580048
 30
0.0
 11
987.98749391669276
 21
449.8592292580048
 31
0.0
  0
LINE
  5
3344
  8
AM_0
 10
1003.987493916692
 20
439.8592292580048
 30
0.0
 11
1003.987493916692
 21
449.8592292580048
 31
0.0
  0
LINE
  5
3345
  8
AM_0
 10
944.19891891669283
 20
478.63309425800492
 30
0.0
 11
910.76507891669246
 21
512.066914258005
 31
0.0
  0
ARC
  5
3346
  8
AM_0
 10
914.30060391669281
 20
515.60246425800506
 30
0.0
 40
5.0
 50
130.03114999999761
 51
225.0
  0
LINE
  5
3347
  8
AM_0
 10
1160.9874989166931
 20
363.35922425800482
 30
0.0
 11
1160.9874989166931
 21
473.3592292580048
 31
0.0
  0
LINE
  5
3348
  8
AM_0
 10
1160.9874989166931
 20
363.35922425800482
 30
0.0
 11
1156.452188916692
 21
276.82040425800483
 31
0.0
  0
LINE
  5
3349
  8
AM_0
 10
1050.987493916693
 20
253.3592242580049
 30
0.0
 11
1137.5263139166921
 21
257.8945342580048
 31
0.0
  0
ARC
  5
334A
  8
AM_0
 10
1028.9874939166921
 20
325.030034258005
 30
0.0
 40
102.81999499999991
 50
304.99999999999739
 51
317.9848199999991
  0
ARC
  5
334B
  8
AM_0
 10
1057.8345089166919
 20
235.35922425800479
 30
0.0
 40
12.82
 50
270.0
 51
304.99999999999739
  0
LINE
  5
334C
  8
AM_0
 10
1065.1877539166919
 20
224.857699258005
 30
0.0
 11
1087.9626239166921
 21
240.8048242580048
 31
0.0
  0
ARC
  5
334D
  8
AM_0
 10
1136.479608916693
 20
277.86712925800481
 30
0.0
 40
20.000000499999999
 50
272.99999999999909
 51
357.00000000000108
  0
CIRCLE
  5
334E
  8
AM_0
 10
1133.873328916693
 20
280.47338925800489
 30
0.0
 40
9.5
  0
LINE
  5
334F
  8
AM_0
 10
1056.2613889166921
 20
470.14783425800482
 30
0.0
 11
1089.6951989166921
 21
503.58163925800483
 31
0.0
  0
ARC
  5
3350
  8
AM_0
 10
1044.2405789166919
 20
482.16864425800509
 30
0.0
 40
5.0
 50
232.90320999999821
 51
315.0
  0
LINE
  5
3351
  8
AM_0
 10
1160.9874989166931
 20
473.35919925800482
 30
0.0
 11
1156.452188916692
 21
559.89801425800488
 31
0.0
  0
LINE
  5
3352
  8
AM_0
 10
1122.5931939166931
 20
403.35922425800482
 30
0.0
 11
1075.987493916693
 21
403.35922425800482
 31
0.0
  0
ARC
  5
3353
  8
AM_0
 10
995.98752391669245
 20
418.35922425800482
 30
0.0
 40
75.0
 50
0.0
 51
37.096792999999472
  0
LINE
  5
3354
  8
AM_0
 10
1070.987493916693
 20
418.35922425800482
 30
0.0
 11
1070.987493916693
 21
408.3592242580047
 31
0.0
  0
ARC
  5
3355
  8
AM_0
 10
1075.987493916693
 20
408.3592242580047
 30
0.0
 40
5.0
 50
179.9999899999988
 51
270.0
  0
ARC
  5
3356
  8
AM_0
 10
1059.7969139166919
 20
466.61230925800481
 30
0.0
 40
5.0
 50
135.0
 51
217.09680000000159
  0
ARC
  5
3357
  8
AM_0
 10
1122.5931939166931
 20
408.3592242580047
 30
0.0
 40
5.0
 50
270.0
 51
355.48384999999831
  0
LINE
  5
3358
  8
AM_0
 10
1047.776128916692
 20
478.63309425800492
 30
0.0
 11
1081.209938916692
 21
512.066914258005
 31
0.0
  0
ARC
  5
3359
  8
AM_0
 10
1077.6744139166931
 20
515.60246425800506
 30
0.0
 40
5.0
 50
315.0
 51
49.96885100000106
  0
ARC
  5
335A
  8
AM_0
 10
1093.230753916692
 20
500.04614925800479
 30
0.0
 40
5.0
 50
40.031148000000073
 51
135.0
  0
LINE
  5
335B
  8
AM_0
 10
940.98752391669245
 20
583.35926425800494
 30
0.0
 11
1050.987493916693
 21
583.35926425800494
 31
0.0
  0
LINE
  5
335C
  8
AM_0
 10
940.98746391669272
 20
583.35921425800495
 30
0.0
 11
854.44867391669254
 21
578.82391425800495
 31
0.0
  0
ARC
  5
335D
  8
AM_0
 10
995.98752391669245
 20
586.35921425800495
 30
0.0
 40
5.0
 50
359.999989999999
 51
179.9999899999988
  0
LINE
  5
335E
  8
AM_0
 10
990.98752391669245
 20
586.35921425800495
 30
0.0
 11
990.98752391669245
 21
583.35926425800494
 31
0.0
  0
LINE
  5
335F
  8
AM_0
 10
1000.987523916692
 20
586.35921425800495
 30
0.0
 11
1000.987523916692
 21
583.35926425800494
 31
0.0
  0
LINE
  5
3360
  8
AM_0
 10
1050.987523916692
 20
583.35921425800495
 30
0.0
 11
1137.5263139166921
 21
578.82391425800495
 31
0.0
  0
LINE
  5
3361
  8
AM_0
 10
314.20899230906258
 20
979.12418550347991
 30
0.0
 11
338.97927930906241
 21
968.0723245034801
 31
0.0
  0
LINE
  5
3362
  8
AM_0
 10
314.20899230906258
 20
994.68053450348032
 30
0.0
 11
338.97927930906241
 21
983.62867350348029
 31
0.0
  0
LINE
  5
3363
  8
AM_0
 10
368.54928530906233
 20
956.97757450348013
 30
0.0
 11
316.11539330906282
 21
958.35060450347999
 31
0.0
  0
LINE
  5
3364
  8
AM_0
 10
372.24627730906252
 20
1000.4438135634319
 30
0.0
 11
316.11539330906282
 21
1001.91365250348
 31
0.0
  0
LINE
  5
3365
  8
AM_0
 10
314.20899230906258
 20
770.20709250348011
 30
0.0
 11
338.97927930906241
 21
781.25895450348003
 31
0.0
  0
LINE
  5
3366
  8
AM_0
 10
314.20899230906258
 20
785.76344250348029
 30
0.0
 11
338.97927930906241
 21
796.81530350348032
 31
0.0
  0
LINE
  5
3367
  8
AM_0
 10
368.54928530906233
 20
807.91005350348041
 30
0.0
 11
316.11539330906282
 21
806.53702350348033
 31
0.0
  0
LINE
  5
3368
  8
AM_0
 10
372.24627730906252
 20
764.44381344352803
 30
0.0
 11
316.11539330906282
 21
762.97397450348035
 31
0.0
  0
LINE
  5
3369
  8
AM_0
 10
291.24627730906252
 20
1032.44381350348
 30
0.0
 11
291.24627730906252
 21
732.44381350347999
 31
0.0
  0
LINE
  5
336A
  8
AM_0
 10
311.24627730906252
 20
1029.44381350348
 30
0.0
 11
311.24627730906252
 21
882.4438135034801
 31
0.0
  0
LINE
  5
336B
  8
AM_0
 10
311.24627730906252
 20
735.4438135034801
 30
0.0
 11
311.24627730906252
 21
882.4438135034801
 31
0.0
  0
ARC
  5
336C
  8
AM_0
 10
316.24627730906252
 20
757.97568850348034
 30
0.0
 40
5.0
 50
91.499999999996206
 51
180.0
  0
LINE
  5
336D
  8
AM_0
 10
291.24627730906252
 20
732.44381350347999
 30
0.0
 11
308.24627730906252
 21
732.44381350347999
 31
0.0
  0
ARC
  5
336E
  8
AM_0
 10
308.24627730906252
 20
735.4438135034801
 30
0.0
 40
3.0
 50
270.0
 51
0.0
  0
ARC
  5
336F
  8
AM_0
 10
316.24627730906252
 20
781.19732050348034
 30
0.0
 40
5.0
 50
114.0451930000017
 51
180.0
  0
ARC
  5
3370
  8
AM_0
 10
316.24627730906252
 20
765.64097150348005
 30
0.0
 40
5.0
 50
114.0451930000017
 51
180.0
  0
ARC
  5
3371
  8
AM_0
 10
316.24627730906252
 20
801.5387365034801
 30
0.0
 40
5.0
 50
91.499999999996206
 51
150.7208909999986
  0
ARC
  5
3372
  8
AM_0
 10
316.24627730906252
 20
963.34889050348045
 30
0.0
 40
5.0
 50
209.27910900000131
 51
268.4999999999971
  0
ARC
  5
3373
  8
AM_0
 10
316.24627730906252
 20
999.24665650348015
 30
0.0
 40
5.0
 50
180.0
 51
245.9548069999982
  0
ARC
  5
3374
  8
AM_0
 10
316.24627730906252
 20
983.6903075034802
 30
0.0
 40
5.0
 50
180.0
 51
245.9548069999982
  0
ARC
  5
3375
  8
AM_0
 10
316.24627730906252
 20
1006.91193950348
 30
0.0
 40
5.0
 50
180.0
 51
268.4999999999971
  0
LINE
  5
3376
  8
AM_0
 10
291.24627730906252
 20
1032.44381350348
 30
0.0
 11
308.24627730906252
 21
1032.44381350348
 31
0.0
  0
ARC
  5
3377
  8
AM_0
 10
308.24627730906252
 20
1029.44381350348
 30
0.0
 40
3.0
 50
0.0
 51
90.0
  0
LINE
  5
3378
  8
AM_0
 10
370.24627730906252
 20
806.42030650348033
 30
0.0
 11
370.24627730906252
 21
799.27295350348004
 31
0.0
  0
LINE
  5
3379
  8
AM_0
 10
369.24688730906252
 20
798.23805450348004
 30
0.0
 11
340.84206730906232
 21
797.24613550348033
 31
0.0
  0
LINE
  5
337A
  8
AM_0
 10
340.84206730906232
 20
781.68978650348004
 30
0.0
 11
369.24688730906252
 21
782.68170450348043
 31
0.0
  0
ARC
  5
337B
  8
AM_0
 10
341.01656530906268
 20
776.69283250347996
 30
0.0
 40
5.0
 50
91.999999999997087
 51
114.0451930000017
  0
ARC
  5
337C
  8
AM_0
 10
341.01656530906268
 20
792.24918150348003
 30
0.0
 40
5.0
 50
91.999999999997087
 51
114.0451930000017
  0
LINE
  5
337D
  8
AM_0
 10
342.24627730906252
 20
783.72285550348033
 30
0.0
 11
342.24627730906252
 21
795.20305750347995
 31
0.0
  0
LINE
  5
337E
  8
AM_0
 10
369.24688730906252
 20
798.23805450348004
 30
0.0
 11
370.24627730906252
 21
799.27295350348004
 31
0.0
  0
LINE
  5
337F
  8
AM_0
 10
369.24688730906252
 20
782.68170450348043
 30
0.0
 11
370.24627730906252
 21
783.71660450348043
 31
0.0
  0
LINE
  5
3380
  8
AM_0
 10
369.24688730906252
 20
798.23805450348004
 30
0.0
 11
369.24688730906252
 21
782.68170450348043
 31
0.0
  0
LINE
  5
3381
  8
AM_0
 10
370.24627730906252
 20
799.27295350348004
 30
0.0
 11
370.24627730906252
 21
783.71660450348043
 31
0.0
  0
LINE
  5
3382
  8
AM_0
 10
369.24688730906252
 20
966.64957350348004
 30
0.0
 11
369.24688730906252
 21
982.20592250348045
 31
0.0
  0
LINE
  5
3383
  8
AM_0
 10
370.24627730906252
 20
965.61467450348005
 30
0.0
 11
370.24627730906252
 21
981.17102350348034
 31
0.0
  0
LINE
  5
3384
  8
AM_0
 10
342.24627730906252
 20
981.1647715034801
 30
0.0
 11
342.24627730906252
 21
969.68457050348002
 31
0.0
  0
LINE
  5
3385
  8
AM_0
 10
369.24688730906252
 20
966.64957350348004
 30
0.0
 11
340.84206730906232
 21
967.6414915034801
 31
0.0
  0
ARC
  5
3386
  8
AM_0
 10
341.01656530906268
 20
972.63844550348006
 30
0.0
 40
5.0
 50
245.9548069999982
 51
268.0000000000029
  0
LINE
  5
3387
  8
AM_0
 10
369.24688730906252
 20
966.64957350348004
 30
0.0
 11
370.24627730906252
 21
965.61467450348005
 31
0.0
  0
LINE
  5
3388
  8
AM_0
 10
370.24627730906252
 20
958.46732050348021
 30
0.0
 11
370.24627730906252
 21
965.61467450348005
 31
0.0
  0
LINE
  5
3389
  8
AM_0
 10
340.84206730906232
 20
983.19784050348028
 30
0.0
 11
369.24688730906252
 21
982.20592250348045
 31
0.0
  0
ARC
  5
338A
  8
AM_0
 10
341.01656530906268
 20
988.19479450348001
 30
0.0
 40
5.0
 50
245.9548069999982
 51
268.0000000000029
  0
LINE
  5
338B
  8
AM_0
 10
369.24688730906252
 20
982.20592250348045
 30
0.0
 11
370.24627730906252
 21
981.17102350348034
 31
0.0
  0
ARC
  5
338C
  8
ﾁｭｳｼﾝｾﾝ1
 10
995.98752391669245
 20
418.35922425800482
 30
0.0
 40
195.0000049999999
 50
129.1038109999995
 51
140.6327810000007
  0
LINE
  5
338D
  8
ﾁｭｳｼﾝｾﾝ1
 10
873.40904391669233
 20
540.93766425800482
 30
0.0
 11
843.87101891669204
 21
570.47571425800481
 31
0.0
  0
ARC
  5
338E
  8
ﾁｭｳｼﾝｾﾝ1
 10
995.98752391669245
 20
418.35922425800482
 30
0.0
 40
195.0000049999999
 50
307.87113999999951
 51
321.83467999999817
  0
LINE
  5
338F
  8
ﾁｭｳｼﾝｾﾝ1
 10
1117.664008916692
 20
296.6827392580048
 30
0.0
 11
1148.1040939166919
 21
266.2426792580049
 31
0.0
  0
TEXT
  5
357D
  8
AM_0
 10
861.36843081126415
 20
903.81060474060405
 30
0.0
 40
20.0
  1
VX55-015AF~VX55-030AF
  0
ENDSEC
  0
EOF
