  0
SECTION
  2
HEADER
  9
$ACADVER
  1
AC1009
  9
$INSBASE
 10
0.0
 20
0.0
 30
0.0
  9
$EXTMIN
 10
340.5092054206284
 20
272.90933764398829
 30
-0.0000000000112498
  9
$EXTMAX
 10
1466.770801424248
 20
1218.3180112189009
 30
0.0000000000002956
  9
$LIMMIN
 10
0.0
 20
0.0
  9
$LIMMAX
 10
1707.0
 20
1110.0
  9
$ORTHOMODE
 70
     0
  9
$REGENMODE
 70
     1
  9
$FILLMODE
 70
     1
  9
$QTEXTMODE
 70
     0
  9
$MIRRTEXT
 70
     1
  9
$DRAGMODE
 70
     2
  9
$LTSCALE
 40
6.0
  9
$OSMODE
 70
   551
  9
$ATTMODE
 70
     1
  9
$TEXTSIZE
 40
2.5
  9
$TRACEWID
 40
1.0
  9
$TEXTSTYLE
  7
STANDARD
  9
$CLAYER
  8
AM_0
  9
$CELTYPE
  6
BYLAYER
  9
$CECOLOR
 62
   256
  9
$DIMSCALE
 40
1.0
  9
$DIMASZ
 40
2.5
  9
$DIMEXO
 40
1.0
  9
$DIMDLI
 40
8.0
  9
$DIMRND
 40
0.0
  9
$DIMDLE
 40
0.0
  9
$DIMEXE
 40
0.6
  9
$DIMTP
 40
0.1
  9
$DIMTM
 40
0.1
  9
$DIMTXT
 40
2.5
  9
$DIMCEN
 40
0.0
  9
$DIMTSZ
 40
0.0
  9
$DIMTOL
 70
     0
  9
$DIMLIM
 70
     0
  9
$DIMTIH
 70
     0
  9
$DIMTOH
 70
     0
  9
$DIMSE1
 70
     0
  9
$DIMSE2
 70
     0
  9
$DIMTAD
 70
     1
  9
$DIMZIN
 70
     8
  9
$DIMBLK
  1

  9
$DIMASO
 70
     1
  9
$DIMSHO
 70
     1
  9
$DIMPOST
  1

  9
$DIMAPOST
  1
"
  9
$DIMALT
 70
     0
  9
$DIMALTD
 70
     2
  9
$DIMALTF
 40
0.0393701
  9
$DIMLFAC
 40
1.0
  9
$DIMTOFL
 70
     1
  9
$DIMTVP
 40
0.0
  9
$DIMTIX
 70
     0
  9
$DIMSOXD
 70
     0
  9
$DIMSAH
 70
     0
  9
$DIMBLK1
  1

  9
$DIMBLK2
  1

  9
$DIMSTYLE
  2
AM_ISO
  9
$DIMCLRD
 70
   256
  9
$DIMCLRE
 70
   256
  9
$DIMCLRT
 70
     4
  9
$DIMTFAC
 40
0.71
  9
$DIMGAP
 40
0.8
  9
$LUNITS
 70
     2
  9
$LUPREC
 70
     2
  9
$SKETCHINC
 40
1.0
  9
$FILLETRAD
 40
30.0
  9
$AUNITS
 70
     0
  9
$AUPREC
 70
     0
  9
$MENU
  1
.
  9
$ELEVATION
 40
0.0
  9
$PELEVATION
 40
0.0
  9
$THICKNESS
 40
0.0
  9
$LIMCHECK
 70
     0
  9
$BLIPMODE
 70
     0
  9
$CHAMFERA
 40
12.0
  9
$CHAMFERB
 40
6.0
  9
$SKPOLY
 70
     0
  9
$TDCREATE
 40
2452066.7877873611
  9
$TDUPDATE
 40
2458541.5584458918
  9
$TDINDWG
 40
0.1388818866
  9
$TDUSRTIMER
 40
0.138881875
  9
$USRTIMER
 70
     1
  9
$ANGBASE
 50
0.0
  9
$ANGDIR
 70
     0
  9
$PDMODE
 70
     0
  9
$PDSIZE
 40
0.0
  9
$PLINEWID
 40
0.0
  9
$COORDS
 70
     1
  9
$SPLFRAME
 70
     0
  9
$SPLINETYPE
 70
     6
  9
$SPLINESEGS
 70
     8
  9
$ATTDIA
 70
     1
  9
$ATTREQ
 70
     1
  9
$HANDLING
 70
     1
  9
$HANDSEED
  5
3680
  9
$SURFTAB1
 70
     6
  9
$SURFTAB2
 70
     6
  9
$SURFTYPE
 70
     6
  9
$SURFU
 70
     6
  9
$SURFV
 70
     6
  9
$UCSNAME
  2

  9
$UCSORG
 10
0.0
 20
0.0
 30
0.0
  9
$UCSXDIR
 10
1.0
 20
0.0
 30
0.0
  9
$UCSYDIR
 10
0.0
 20
1.0
 30
0.0
  9
$PUCSNAME
  2

  9
$PUCSORG
 10
0.0
 20
0.0
 30
0.0
  9
$PUCSXDIR
 10
1.0
 20
0.0
 30
0.0
  9
$PUCSYDIR
 10
0.0
 20
1.0
 30
0.0
  9
$USERI1
 70
     0
  9
$USERI2
 70
     0
  9
$USERI3
 70
     0
  9
$USERI4
 70
     0
  9
$USERI5
 70
     0
  9
$USERR1
 40
0.0
  9
$USERR2
 40
0.0
  9
$USERR3
 40
0.0
  9
$USERR4
 40
0.0
  9
$USERR5
 40
0.0
  9
$WORLDVIEW
 70
     1
  9
$SHADEDGE
 70
     3
  9
$SHADEDIF
 70
    70
  9
$TILEMODE
 70
     1
  9
$MAXACTVP
 70
    64
  9
$PLIMCHECK
 70
     0
  9
$PEXTMIN
 10
1.0000000000000000E+020
 20
1.0000000000000000E+020
 30
1.0000000000000000E+020
  9
$PEXTMAX
 10
-1.0000000000000000E+020
 20
-1.0000000000000000E+020
 30
-1.0000000000000000E+020
  9
$PLIMMIN
 10
0.0
 20
0.0
  9
$PLIMMAX
 10
420.0
 20
297.0
  9
$UNITMODE
 70
     0
  9
$VISRETAIN
 70
     1
  9
$PLINEGEN
 70
     0
  9
$PSLTSCALE
 70
     1
  0
ENDSEC
  0
SECTION
  2
TABLES
  0
TABLE
  2
VPORT
 70
     1
  0
VPORT
  2
*ACTIVE
 70
     0
 10
0.0
 20
0.0
 11
1.0
 21
1.0
 12
903.6400034224381
 22
745.61367443144468
 13
0.0
 23
0.0
 14
15.0
 24
15.0
 15
60.0
 25
60.0
 16
0.0
 26
0.0
 36
1.0
 17
0.0
 27
0.0
 37
0.0
 40
951.89889330197184
 41
1.7571592210767459
 42
50.0
 43
0.0
 44
0.0
 50
0.0
 51
0.0
 71
     0
 72
   100
 73
     1
 74
     3
 75
     0
 76
     0
 77
     0
 78
     0
  0
ENDTAB
  0
TABLE
  2
LTYPE
 70
    26
  0
LTYPE
  2
CONTINUOUS
 70
     0
  3
Solid line
 72
    65
 73
     0
 40
0.0
  0
LTYPE
  2
AM_ISO02W050
 70
     0
  3
__ __ __ __ __ __ __ __ __ __ __ __ __ __ __
 72
    65
 73
     2
 40
7.5
 49
6.0
 49
-1.5
  0
LTYPE
  2
AM_ISO08W050
 70
     0
  3
____ . ____ . ____ . ____ . ____ . ____ . ____
 72
    65
 73
     4
 40
18.0
 49
12.0
 49
-1.5
 49
3.0
 49
-1.5
  0
LTYPE
  2
AM_ISO09W050
 70
     0
  3
_____ . . _____ . . _____ . . ____ .. ____
 72
    65
 73
     6
 40
22.5
 49
12.0
 49
-1.5
 49
3.0
 49
-1.5
 49
3.0
 49
-1.5
  0
LTYPE
  2
AMCONSTR
 70
     0
  3
_______________________
 72
    65
 73
     2
 40
9999.0
 49
9999.0
 49
0.0
  0
LTYPE
  2
AM_ISO08W050X2
 70
     0
  3
__ . __ . __ . __ . __ . __
 72
    65
 73
     4
 40
9.0
 49
6.0
 49
-0.75
 49
1.5
 49
-0.75
  0
LTYPE
  2
AM_ISO02W050X2
 70
     0
  3
 _ _ _ _ _ _ _ _ _ _ _ _
 72
    65
 73
     2
 40
3.75
 49
3.0
 49
-0.75
  0
LTYPE
  2
AMZIGZAG
 70
     0
  3
/\/-/\/-/\/-/\/-/\/-/\/
 72
    65
 73
     2
 40
11.000099999999991
 49
0.0001
 49
-11.0
  0
LTYPE
  2
ACISOWELD
 70
     0
  3
_ _ _ _ _
 72
    65
 73
     2
 40
2.0
 49
2.0
 49
-1.0
  0
LTYPE
  2
ACISOTGB
 70
     0
  3
__ . . __ . .
 72
    65
 73
     6
 40
9.0
 49
4.0
 49
-1.0
 49
1.0
 49
-1.0
 49
1.0
 49
-1.0
  0
LTYPE
  2
ACISOTGL
 70
     0
  3
_ _ _ _ _
 72
    65
 73
     2
 40
3.0
 49
2.0
 49
-1.0
  0
LTYPE
  2
CENTER
 70
     0
  3
__ . __
 72
    65
 73
     4
 40
7.0
 49
4.0
 49
-1.0
 49
1.0
 49
-1.0
  0
LTYPE
  2
PHANTOM2
 70
     0
  3
Phantom (.5x) ___ _ _ ___ _ _ ___ _ _ ___ _ _
 72
    65
 73
     6
 40
31.75
 49
15.875
 49
-3.174999999999998
 49
3.174999999999998
 49
-3.174999999999998
 49
3.174999999999998
 49
-3.174999999999998
  0
LTYPE
  2
ACANSTGBM
 70
     0
  3
__ . . __ . .
 72
    65
 73
     6
 40
9.0
 49
4.0
 49
-1.0
 49
1.0
 49
-1.0
 49
1.0
 49
-1.0
  0
LTYPE
  2
ACANSTGLM
 70
     0
  3
_ _ _ _ _
 72
    65
 73
     2
 40
3.0
 49
2.0
 49
-1.0
  0
LTYPE
  2
GEN7
 70
     0
  3
____ . ____ . ____ . ____ . ____ . ____ . ____
 72
    65
 73
     4
 40
14.25
 49
9.75
 49
-1.5
 49
1.5
 49
-1.5
  0
LTYPE
  2
GEN7A
 70
     0
  3
__ . __ . __
 72
    65
 73
     4
 40
7.375
 49
4.75
 49
-0.875
 49
0.875
 49
-0.875
  0
LTYPE
  2
ACJISTGB
 70
     0
  3
__ . . __ . .
 72
    65
 73
     6
 40
9.0
 49
4.0
 49
-1.0
 49
1.0
 49
-1.0
 49
1.0
 49
-1.0
  0
LTYPE
  2
ACJISTGL
 70
     0
  3
_ _ _ _ _
 72
    65
 73
     2
 40
3.0
 49
2.0
 49
-1.0
  0
LTYPE
  2
HIDDEN
 70
     0
  3
Hidden __ __ __ __ __ __ __ __ __ __ __ __ __ _
 72
    65
 73
     2
 40
0.375
 49
0.25
 49
-0.125
  0
LTYPE
  2
CENTER2
 70
     0
  3
Center (.5x) ___ _ ___ _ ___ _ ___ _ ___ _ ___
 72
    65
 73
     4
 40
1.125
 49
0.75
 49
-0.125
 49
0.125
 49
-0.125
  0
LTYPE
  2
HIDDEN2
 70
     0
  3
Hidden (.5x) _ _ _ _ _ _ _ _ _ _ _ _ _ _ _ _ _
 72
    65
 73
     2
 40
0.1875
 49
0.125
 49
-0.0625
  0
LTYPE
  2
AMZIGZAG2
 70
     0
  3
/\/-/\/-/\/-/\/-/\/-/\/
 72
    65
 73
     2
 40
0.4401
 49
0.0001
 49
-0.4400000000000002
  0
LTYPE
  2
ACANSTGB
 70
     0
  3
__ . . __ . .
 72
    65
 73
     6
 40
0.35433070866
 49
0.15748031496
 49
-0.03937007874
 49
0.03937007874
 49
-0.03937007874
 49
0.03937007874
 49
-0.03937007874
  0
LTYPE
  2
ACANSTGL
 70
     0
  3
_ _ _ _ _
 72
    65
 73
     2
 40
0.11811023622
 49
0.07874015748
 49
-0.03937007874
  0
ENDTAB
  0
TABLE
  2
LAYER
 70
     6
  0
LAYER
  2
0
 70
     0
 62
     7
  6
CONTINUOUS
  0
LAYER
  2
AM_0
 70
     0
 62
     7
  6
CONTINUOUS
  0
LAYER
  2
AM_5
 70
     0
 62
     2
  6
CONTINUOUS
  0
LAYER
  2
DEFPOINTS
 70
     0
 62
     7
  6
CONTINUOUS
  0
LAYER
  2
ﾁｭｳｼﾝｾﾝ
 70
     0
 62
     1
  6
GEN7
  0
LAYER
  2
ﾁｭｳｼﾝｾﾝ1
 70
     0
 62
     1
  6
GEN7A
  0
ENDTAB
  0
TABLE
  2
STYLE
 70
     9
  0
STYLE
  2
STANDARD
 70
     0
 40
0.0
 41
0.8299999999999999
 50
0.0
 71
     0
 42
2.5
  3
txt.shx
  4
bigfont.shx
  0
STYLE
  2
ANNOTATIVE
 70
     0
 40
0.0
 41
1.0
 50
0.0
 71
     0
 42
0.2
  3
txt
  4

  0
STYLE
  2

 70
     1
 40
0.0
 41
1.0
 50
0.0
 71
     0
 42
2.5
  3
ltypeshp.shx
  4

  0
STYLE
  2
ACISOTS
 70
     0
 40
1.0
 41
1.0
 50
0.0
 71
     0
 42
2.5
  3
isocp.shx
  4
extfont.shx
  0
STYLE
  2
ACISOGDT
 70
     0
 40
0.0
 41
1.0
 50
0.0
 71
     0
 42
2.5
  3
amgdt.shx
  4

  0
STYLE
  2
ACANSTS
 70
     0
 40
1.0
 41
1.0
 50
0.0
 71
     0
 42
2.5
  3
romans.shx
  4
bigfont.shx
  0
STYLE
  2
ACANSGDT
 70
     0
 40
0.0
 41
1.0
 50
0.0
 71
     0
 42
2.5
  3
amgdt.shx
  4

  0
STYLE
  2
ACJISTS
 70
     0
 40
1.0
 41
1.0
 50
0.0
 71
     0
 42
2.5
  3
isocp.shx
  4
bigfont.shx
  0
STYLE
  2
ACJISGDT
 70
     0
 40
0.0
 41
1.0
 50
0.0
 71
     0
 42
2.5
  3
amgdt.shx
  4

  0
ENDTAB
  0
TABLE
  2
VIEW
 70
     6
  0
VIEW
  2
AM_VIEW1
 70
     0
 40
555.00000000000011
 10
499.2955801104971
 20
832.50000000000011
 41
998.59116022099431
 11
0.0
 21
0.0
 31
1.0
 12
0.0
 22
0.0
 32
0.0
 42
50.0
 43
0.0
 44
0.0
 50
0.0
 71
     0
  0
VIEW
  2
AM_VIEW2
 70
     0
 40
555.00000000000011
 10
1207.704419889501
 20
832.50000000000011
 41
998.59116022099431
 11
0.0
 21
0.0
 31
1.0
 12
0.0
 22
0.0
 32
0.0
 42
50.0
 43
0.0
 44
0.0
 50
0.0
 71
     0
  0
VIEW
  2
AM_VIEW3
 70
     0
 40
555.00000000000011
 10
499.2955801104971
 20
277.49999999999989
 41
998.59116022099431
 11
0.0
 21
0.0
 31
1.0
 12
0.0
 22
0.0
 32
0.0
 42
50.0
 43
0.0
 44
0.0
 50
0.0
 71
     0
  0
VIEW
  2
AM_VIEW4
 70
     0
 40
555.00000000000011
 10
1207.704419889501
 20
277.49999999999989
 41
998.59116022099431
 11
0.0
 21
0.0
 31
1.0
 12
0.0
 22
0.0
 32
0.0
 42
50.0
 43
0.0
 44
0.0
 50
0.0
 71
     0
  0
VIEW
  2
AM_VIEW5
 70
     0
 40
555.00000000000011
 10
853.5
 20
555.00000000000011
 41
998.59116022099431
 11
0.0
 21
0.0
 31
1.0
 12
0.0
 22
0.0
 32
0.0
 42
50.0
 43
0.0
 44
0.0
 50
0.0
 71
     0
  0
VIEW
  2
AM_VIEW6
 70
     0
 40
1109.9889000000001
 10
853.5
 20
555.0
 41
1997.162348618785
 11
0.0
 21
0.0
 31
1.0
 12
0.0
 22
0.0
 32
0.0
 42
50.0
 43
0.0
 44
0.0
 50
0.0
 71
     0
  0
ENDTAB
  0
TABLE
  2
UCS
 70
     0
  0
ENDTAB
  0
TABLE
  2
APPID
 70
    95
  0
APPID
  2
ACAD
 70
     0
  0
APPID
  2
ACADANNOTATIVE
 70
     0
  0
APPID
  2
MCAD_NO_VIS
 70
     0
  0
APPID
  2
ACAD_TEMP_GRAPHIC
 70
     0
  0
APPID
  2
ACATTRIBSERVICES
 70
     0
  0
APPID
  2
GENIUS_GENREC_14
 70
     0
  0
APPID
  2
GENIUS_GENOBJ-N-REC_13
 70
     0
  0
APPID
  2
GENIUS_GENODEF_13
 70
     0
  0
APPID
  2
GENIUS_GENOLIS_13
 70
     0
  0
APPID
  2
GENIUS_GENOBJ-N-TIT_13
 70
     0
  0
APPID
  2
GENIUS_GENOENT_13
 70
     0
  0
APPID
  2
GENIUS_GENTITLE_13
 70
     0
  0
APPID
  2
GENIUS_GENOREF_13
 70
     0
  0
APPID
  2
GENIUS_GENSCREG_15
 70
     0
  0
APPID
  2
GENIUS_GENOBJ-N-SDF_13
 70
     0
  0
APPID
  2
GENIUS_GENFIL_13
 70
     0
  0
APPID
  2
GENIUS_GENOBJ-N-CHA_13
 70
     0
  0
APPID
  2
GENIUS_GENDTOL_13
 70
     0
  0
APPID
  2
GENIUS_GENOBJ-N-FIL_13
 70
     0
  0
APPID
  2
AD_DRAW
 70
     0
  0
APPID
  2
DESIGNERASSEMBLIES
 70
     0
  0
APPID
  2
ASURF_PCURVE_APPNAME
 70
     0
  0
APPID
  2
GENIUS_GE3SECT_13
 70
     0
  0
APPID
  2
GENIUS_GENCFG_13
 70
     0
  0
APPID
  2
GENIUS_GE3CFG0_13
 70
     0
  0
APPID
  2
GENIUS_GENCFG0_13
 70
     0
  0
APPID
  2
GENIUS_GENCFG1_13
 70
     0
  0
APPID
  2
GENIUS_GENCFG2_13
 70
     0
  0
APPID
  2
GENIUS_GENCFG3_13
 70
     0
  0
APPID
  2
GENIUS_GENCFG4_13
 70
     0
  0
APPID
  2
GENIUS_GEVCFG0_13
 70
     0
  0
APPID
  2
GENIUS_GENHINW_13
 70
     0
  0
APPID
  2
GENIUS_FIRSTVISTXT_14
 70
     0
  0
APPID
  2
GENIUS_GENOBJ-N-LEADER_13
 70
     0
  0
APPID
  2
GEV_VCCNULL_SWITCH_OFF
 70
     0
  0
APPID
  2
GENIUS_GEFCFG0_13
 70
     0
  0
APPID
  2
GENIUS_GENZVEED_13
 70
     0
  0
APPID
  2
GENIUS_GENSCREG_13
 70
     0
  0
APPID
  2
GENIUS_DUMCFG0_13
 70
     0
  0
APPID
  2
GEVID936201362
 70
     0
  0
APPID
  2
GEVDC
 70
     0
  0
APPID
  2
GEVCON
 70
     0
  0
APPID
  2
VCC
 70
     0
  0
APPID
  2
GEVPT
 70
     0
  0
APPID
  2
GEVIT
 70
     0
  0
APPID
  2
GENBH
 70
     0
  0
APPID
  2
GEVMK
 70
     0
  0
APPID
  2
GENIUS_GENBH_13
 70
     0
  0
APPID
  2
GENIUS_GENOBJ-NBEHI-BHF_13
 70
     0
  0
APPID
  2
GENIUS_GENOBJ-NBEHI-BHB_13
 70
     0
  0
APPID
  2
GENIUS_GENOBJ-F-DESC_13
 70
     0
  0
APPID
  2
GENIUS_GEFDESC_14
 70
     0
  0
APPID
  2
GENIUS_GENOBJ-F-PART_13
 70
     0
  0
APPID
  2
GENIUS_GEFSTDP_13
 70
     0
  0
APPID
  2
GENIUS_GEFPARTINS_13
 70
     0
  0
APPID
  2
GENIUS_GENTRA_14
 70
     0
  0
APPID
  2
GENIUS_GENINF13_13
 70
     0
  0
APPID
  2
GENIUS_GENOBJ-N-INFOPT_13
 70
     0
  0
APPID
  2
GENIUS_GENOBJ-N-RSSYM_13
 70
     0
  0
APPID
  2
GENIUS_GENSYMENT_13
 70
     0
  0
APPID
  2
GENIUS_GENSCSYM_13
 70
     0
  0
APPID
  2
GENIUS_GEFINFNAM_13
 70
     0
  0
APPID
  2
GENIUS_GENOBJ-N-CEN_13
 70
     0
  0
APPID
  2
GENIUS_GENOBJ-N-CRS_13
 70
     0
  0
APPID
  2
GENIUS_GENOBJ-N-CRC_13
 70
     0
  0
APPID
  2
GENIUS_GENCRC_14
 70
     0
  0
APPID
  2
GEVID942827039
 70
     0
  0
APPID
  2
GEVID942827040
 70
     0
  0
APPID
  2
GEVID942827041
 70
     0
  0
APPID
  2
GENIUS_GENOBJ-F-SCPASSM_13
 70
     0
  0
APPID
  2
GENIUS_GENDIMSH_14
 70
     0
  0
APPID
  2
GEVID942827042
 70
     0
  0
APPID
  2
GEVID946020473
 70
     0
  0
APPID
  2
GEVID946020474
 70
     0
  0
APPID
  2
GEVID946020475
 70
     0
  0
APPID
  2
GENIUS_GENOBJ-N-HTC_13
 70
     0
  0
APPID
  2
GENIUS_GENHATCH_13
 70
     0
  0
APPID
  2
GEVID948854295
 70
     0
  0
APPID
  2
GEVID939402019
 70
     0
  0
APPID
  2
GEVID952919491
 70
     0
  0
APPID
  2
GEVID952919492
 70
     0
  0
APPID
  2
GENIUS_GEFWELD_13
 70
     0
  0
APPID
  2
GENIUS_GENOBJ-F-WELS_13
 70
     0
  0
APPID
  2
GEVID952919493
 70
     0
  0
APPID
  2
GENIUS_GENOBJ-N-RSBK_13
 70
     0
  0
APPID
  2
GENIUS_GENOBJ-N-LIB_13
 70
     0
  0
APPID
  2
GENIUS_GENSCALE_13
 70
     0
  0
APPID
  2
GEVID986376691
 70
     0
  0
APPID
  2
DCO15
 70
     0
  0
APPID
  2
ACAD_DSTYLE_DIMBREAK
 70
     0
  0
APPID
  2
ACAD_DSTYLE_DIMJAG
 70
     0
  0
APPID
  2
ACAD_NAV_VCDISPLAY
 70
     0
  0
APPID
  2
ACADANNOPO
 70
     0
  0
APPID
  2
ACAD_EXEMPT_FROM_CAD_STANDARDS
 70
     0
  0
APPID
  2
ACAD_MLEADERVER
 70
     0
  0
ENDTAB
  0
TABLE
  2
DIMSTYLE
 70
    22
  0
DIMSTYLE
  2
STANDARD
 70
     0
  3

  4

  5

  6

  7

 40
1.0
 41
0.18
 42
0.0625
 43
0.38
 44
0.18
 45
0.0
 46
0.0
 47
0.0
 48
0.0
140
0.18
141
0.09
142
0.0
143
25.399999999999999
144
1.0
145
0.0
146
1.0
147
0.09
 71
     0
 72
     0
 73
     1
 74
     1
 75
     0
 76
     0
 77
     0
 78
     0
170
     0
171
     2
172
     0
173
     0
174
     0
175
     0
176
     0
177
     0
178
     0
  0
DIMSTYLE
  2
ANNOTATIVE
 70
     0
  3

  4

  5

  6

  7

 40
1.0
 41
0.18
 42
0.0625
 43
0.38
 44
0.18
 45
0.0
 46
0.0
 47
0.0
 48
0.0
140
0.18
141
0.09
142
0.0
143
25.399999999999999
144
1.0
145
0.0
146
1.0
147
0.09
 71
     0
 72
     0
 73
     1
 74
     1
 75
     0
 76
     0
 77
     0
 78
     0
170
     0
171
     2
172
     0
173
     0
174
     0
175
     0
176
     0
177
     0
178
     0
  0
DIMSTYLE
  2
AM_ISO
 70
     0
  3

  4
"
  5

  6

  7

 40
1.0
 41
2.5
 42
1.0
 43
8.0
 44
0.6
 45
0.0
 46
0.0
 47
0.1
 48
0.1
140
2.5
141
0.0
142
0.0
143
0.0393701
144
1.0
145
0.0
146
0.71
147
0.8
 71
     0
 72
     0
 73
     0
 74
     0
 75
     0
 76
     0
 77
     1
 78
     8
170
     0
171
     2
172
     1
173
     0
174
     0
175
     0
176
   256
177
   256
178
     4
  0
DIMSTYLE
  2
AM_ISO$3
 70
     0
  3

  4
"
  5

  6

  7

 40
1.0
 41
2.5
 42
1.0
 43
8.0
 44
0.6
 45
0.0
 46
0.0
 47
0.1
 48
0.1
140
2.5
141
0.0
142
0.0
143
0.0393701
144
1.0
145
0.0
146
0.71
147
0.8
 71
     0
 72
     0
 73
     0
 74
     1
 75
     0
 76
     0
 77
     1
 78
     8
170
     0
171
     2
172
     0
173
     0
174
     0
175
     0
176
   256
177
   256
178
     4
  0
DIMSTYLE
  2
AM_ISO$4
 70
     0
  3

  4
"
  5

  6

  7

 40
1.0
 41
2.5
 42
1.0
 43
8.0
 44
0.6
 45
0.0
 46
0.0
 47
0.1
 48
0.1
140
2.5
141
0.0
142
0.0
143
0.0393701
144
1.0
145
0.0
146
0.71
147
0.8
 71
     0
 72
     0
 73
     0
 74
     1
 75
     0
 76
     0
 77
     1
 78
     8
170
     0
171
     2
172
     0
173
     0
174
     0
175
     0
176
   256
177
   256
178
     4
  0
DIMSTYLE
  2
AM_ISO$6
 70
     0
  3

  4
"
  5

  6

  7

 40
1.0
 41
2.5
 42
1.0
 43
8.0
 44
0.6
 45
0.0
 46
0.0
 47
0.1
 48
0.1
140
2.5
141
0.0
142
0.0
143
0.0393701
144
1.0
145
0.0
146
0.71
147
0.8
 71
     0
 72
     0
 73
     0
 74
     0
 75
     0
 76
     0
 77
     0
 78
     8
170
     0
171
     2
172
     1
173
     0
174
     0
175
     0
176
   256
177
   256
178
     4
  0
DIMSTYLE
  2
AM_ISO$7
 70
     0
  3

  4
"
  5

  6

  7

 40
1.0
 41
2.5
 42
1.0
 43
8.0
 44
0.6
 45
0.0
 46
0.0
 47
0.1
 48
0.1
140
2.5
141
0.0
142
0.0
143
0.0393701
144
1.0
145
0.0
146
0.71
147
0.8
 71
     0
 72
     0
 73
     0
 74
     0
 75
     0
 76
     0
 77
     1
 78
     8
170
     0
171
     2
172
     1
173
     0
174
     0
175
     0
176
   256
177
   256
178
     4
  0
DIMSTYLE
  2
AM_ISO$SF
 70
     0
  3

  4
"
  5

  6

  7

 40
1.0
 41
2.5
 42
1.0
 43
10.0
 44
1.0
 45
0.0
 46
0.0
 47
0.1
 48
0.1
140
3.5
141
0.0
142
0.0
143
0.0393701
144
1.0
145
0.0
146
0.71
147
1.5
 71
     0
 72
     0
 73
     0
 74
     0
 75
     1
 76
     1
 77
     1
 78
     8
170
     0
171
     2
172
     1
173
     0
174
     0
175
     0
176
   256
177
   256
178
     2
  0
DIMSTYLE
  2
AM_ISO$SH
 70
     0
  3

  4
"
  5

  6

  7

 40
1.0
 41
2.5
 42
1.0
 43
10.0
 44
1.0
 45
0.0
 46
0.0
 47
0.1
 48
0.1
140
3.5
141
0.0
142
0.0
143
0.0393701
144
2.0
145
0.0
146
0.71
147
1.5
 71
     0
 72
     0
 73
     0
 74
     0
 75
     1
 76
     1
 77
     1
 78
     8
170
     0
171
     2
172
     1
173
     1
174
     0
175
     0
176
   256
177
   256
178
     2
  0
DIMSTYLE
  2
AM_JIS
 70
     0
  3

  4
"
  5

  6

  7

 40
1.0
 41
2.5
 42
1.0
 43
7.0
 44
1.0
 45
0.0
 46
0.0
 47
0.1
 48
0.1000000001
140
2.5
141
0.0
142
0.0
143
0.0393701
144
1.0
145
0.0
146
0.71
147
1.0
 71
     0
 72
     0
 73
     0
 74
     0
 75
     0
 76
     0
 77
     3
 78
     8
170
     0
171
     2
172
     1
173
     0
174
     0
175
     0
176
   256
177
   256
178
     4
  0
DIMSTYLE
  2
AM_JIS$3
 70
     0
  3

  4
"
  5

  6

  7

 40
1.0
 41
2.5
 42
1.0
 43
7.0
 44
1.0
 45
0.0
 46
0.0
 47
0.1
 48
0.1000000001
140
2.5
141
0.0
142
0.0
143
0.0393701
144
1.0
145
0.0
146
0.71
147
1.0
 71
     0
 72
     0
 73
     0
 74
     1
 75
     0
 76
     0
 77
     3
 78
     8
170
     0
171
     2
172
     0
173
     0
174
     0
175
     0
176
   256
177
   256
178
     4
  0
DIMSTYLE
  2
AM_JIS$4
 70
     0
  3

  4
"
  5

  6

  7

 40
1.0
 41
2.5
 42
1.0
 43
7.0
 44
1.0
 45
0.0
 46
0.0
 47
0.1
 48
0.1000000001
140
2.5
141
0.0
142
0.0
143
0.0393701
144
1.0
145
0.0
146
0.71
147
1.0
 71
     0
 72
     0
 73
     0
 74
     0
 75
     0
 76
     0
 77
     3
 78
     8
170
     0
171
     2
172
     0
173
     0
174
     0
175
     0
176
   256
177
   256
178
     4
  0
DIMSTYLE
  2
AM_JIS$6
 70
     0
  3

  4
"
  5

  6

  7

 40
1.0
 41
2.5
 42
1.0
 43
7.0
 44
1.0
 45
0.0
 46
0.0
 47
0.1
 48
0.1000000001
140
2.5
141
0.0
142
0.0
143
0.0393701
144
1.0
145
0.0
146
0.71
147
1.0
 71
     0
 72
     0
 73
     0
 74
     0
 75
     0
 76
     0
 77
     0
 78
     8
170
     0
171
     2
172
     1
173
     0
174
     0
175
     0
176
   256
177
   256
178
     4
  0
DIMSTYLE
  2
AM_JIS$7
 70
     0
  3

  4
"
  5

  6

  7

 40
1.0
 41
2.5
 42
1.0
 43
7.0
 44
1.0
 45
0.0
 46
0.0
 47
0.1
 48
0.1000000001
140
2.5
141
0.0
142
0.0
143
0.0393701
144
1.0
145
0.0
146
0.71
147
1.0
 71
     0
 72
     0
 73
     0
 74
     0
 75
     0
 76
     0
 77
     3
 78
     8
170
     0
171
     2
172
     1
173
     0
174
     0
175
     0
176
   256
177
   256
178
     4
  0
DIMSTYLE
  2
AM_JIS$SF
 70
     0
  3

  4
"
  5

  6

  7

 40
1.0
 41
2.5
 42
1.0
 43
10.0
 44
1.0
 45
0.0
 46
0.0
 47
0.1
 48
0.1
140
3.5
141
0.0
142
0.0
143
0.0393701
144
1.0
145
0.0
146
0.71
147
1.5
 71
     0
 72
     0
 73
     0
 74
     0
 75
     1
 76
     1
 77
     3
 78
     8
170
     0
171
     2
172
     1
173
     0
174
     0
175
     0
176
   256
177
   256
178
     4
  0
DIMSTYLE
  2
AM_JIS$SH
 70
     0
  3

  4
"
  5

  6

  7

 40
1.0
 41
2.5
 42
1.0
 43
10.0
 44
1.0
 45
0.0
 46
0.0
 47
0.1
 48
0.1
140
3.5
141
0.0
142
0.0
143
0.0393701
144
1.0
145
0.0
146
0.71
147
1.5
 71
     0
 72
     0
 73
     0
 74
     0
 75
     1
 76
     0
 77
     3
 78
     8
170
     0
171
     2
172
     1
173
     1
174
     0
175
     0
176
   256
177
   256
178
     4
  0
DIMSTYLE
  2
AM_ANSI
 70
     0
  3

  4
mm
  5

  6

  7

 40
1.0
 41
0.1
 42
0.05
 43
0.5
 44
0.1
 45
0.0
 46
0.0
 47
0.1
 48
0.1
140
0.12
141
0.0
142
0.0
143
25.399999999999999
144
1.0
145
0.0
146
0.71
147
0.06
 71
     0
 72
     0
 73
     1
 74
     1
 75
     0
 76
     0
 77
     0
 78
     7
170
     0
171
     2
172
     0
173
     0
174
     0
175
     0
176
   256
177
   256
178
     2
  0
DIMSTYLE
  2
AM_ANSI$3
 70
     0
  3

  4
mm
  5

  6

  7

 40
1.0
 41
0.1
 42
0.05
 43
0.5
 44
0.1
 45
0.0
 46
0.0
 47
0.1
 48
0.1
140
0.12
141
0.0
142
0.0
143
25.399999999999999
144
1.0
145
0.0
146
0.71
147
0.06
 71
     0
 72
     0
 73
     1
 74
     1
 75
     0
 76
     0
 77
     0
 78
     7
170
     0
171
     2
172
     0
173
     0
174
     0
175
     0
176
   256
177
   256
178
     2
  0
DIMSTYLE
  2
AM_ANSI$4
 70
     0
  3

  4
mm
  5

  6

  7

 40
1.0
 41
0.1
 42
0.05
 43
0.5
 44
0.1
 45
0.0
 46
0.0
 47
0.1
 48
0.1
140
0.12
141
0.0
142
0.0
143
25.399999999999999
144
1.0
145
0.0
146
0.71
147
0.06
 71
     0
 72
     0
 73
     1
 74
     1
 75
     0
 76
     0
 77
     0
 78
     7
170
     0
171
     2
172
     0
173
     0
174
     0
175
     0
176
   256
177
   256
178
     2
  0
DIMSTYLE
  2
AM_ANSI$7
 70
     0
  3

  4
mm
  5

  6

  7

 40
1.0
 41
0.1
 42
0.05
 43
0.5
 44
0.1
 45
0.0
 46
0.0
 47
0.1
 48
0.1
140
0.24
141
0.0
142
0.0
143
25.399999999999999
144
1.0
145
0.0
146
0.71
147
0.06
 71
     0
 72
     0
 73
     1
 74
     1
 75
     0
 76
     0
 77
     0
 78
     7
170
     0
171
     2
172
     0
173
     0
174
     0
175
     0
176
   256
177
   256
178
     2
  0
DIMSTYLE
  2
AM_ANSI$SF
 70
     0
  3

  4
mm
  5

  6

  7

 40
1.0
 41
0.1
 42
0.05
 43
0.5
 44
0.1
 45
0.0
 46
0.0
 47
0.1
 48
0.1
140
0.12
141
0.0
142
0.0
143
25.399999999999999
144
1.0
145
0.0
146
0.71
147
0.06
 71
     0
 72
     0
 73
     1
 74
     1
 75
     1
 76
     1
 77
     0
 78
     7
170
     0
171
     2
172
     0
173
     0
174
     0
175
     0
176
   256
177
   256
178
     2
  0
DIMSTYLE
  2
AM_ANSI$SH
 70
     0
  3

  4
mm
  5

  6

  7

 40
1.0
 41
0.1
 42
0.05
 43
0.5
 44
0.1
 45
0.0
 46
0.0
 47
0.1
 48
0.1
140
0.12
141
0.0
142
0.0
143
25.399999999999999
144
1.0
145
0.0
146
0.71
147
0.06
 71
     0
 72
     0
 73
     1
 74
     1
 75
     1
 76
     1
 77
     0
 78
     7
170
     0
171
     2
172
     0
173
     1
174
     0
175
     0
176
   256
177
   256
178
     2
  0
ENDTAB
  0
ENDSEC
  0
SECTION
  2
BLOCKS
  0
BLOCK
  8
0
  2
$MODEL_SPACE
 70
     0
 10
0.0
 20
0.0
 30
0.0
  3
$MODEL_SPACE
  1

  0
ENDBLK
  5
34E6
  8
0
  0
BLOCK
 67
     1
  8
0
  2
$PAPER_SPACE
 70
     0
 10
0.0
 20
0.0
 30
0.0
  3
$PAPER_SPACE
  1

  0
ENDBLK
  5
34E2
 67
     1
  8
0
  0
BLOCK
  8
0
  2
GENAXEH
 70
     0
 10
0.0
 20
0.0
 30
0.0
  3
GENAXEH
  1

  0
LINE
  5
3238
  8
0
 10
-1.0
 20
0.0
 30
0.0
 11
1.0
 21
0.0
 31
0.0
  0
ENDBLK
  5
3239
  8
0
  0
BLOCK
  8
0
  2
_OPEN30
 70
     0
 10
0.0
 20
0.0
 30
0.0
  3
_OPEN30
  1

  0
LINE
  5
323C
  8
0
 62
     0
 10
-1.0
 20
0.26794919
 30
0.0
 11
0.0
 21
0.0
 31
0.0
  0
LINE
  5
323D
  8
0
 62
     0
 10
0.0
 20
0.0
 30
0.0
 11
-1.0
 21
-0.26794919
 31
0.0
  0
LINE
  5
323E
  8
0
 62
     0
 10
0.0
 20
0.0
 30
0.0
 11
-1.0
 21
0.0
 31
0.0
  0
ENDBLK
  5
323F
  8
0
  0
BLOCK
  8
0
  2
_NONE
 70
     0
 10
0.0
 20
0.0
 30
0.0
  3
_NONE
  1

  0
ENDBLK
  5
3242
  8
0
  0
BLOCK
  8
0
  2
*U5
 70
     1
 10
0.0
 20
0.0
 30
0.0
  3
*U5
  1

  0
TEXT
  5
3245
  8
AM_0
 62
     4
 10
1041.116481804356
 20
454.11883389669919
 30
0.0
 40
15.0
  1
\U+2205
 50
90.0
 41
0.8299999999999999
  0
TEXT
  5
3246
  8
AM_0
 62
     4
 10
1041.116481804356
 20
466.56883389669912
 30
0.0
 40
15.0
  1
310
 50
90.0
 41
0.8299999999999999
  0
TEXT
  5
3247
  8
AM_0
 62
     4
 10
1041.116481804356
 20
497.69383389669912
 30
0.0
 40
12.0
  1
h7
 50
90.0
 41
0.8299999999999999
  0
ENDBLK
  5
3248
  8
0
  0
BLOCK
  8
0
  2
*U6
 70
     1
 10
0.0
 20
0.0
 30
0.0
  3
*U6
  1

  0
TEXT
  5
324B
  8
AM_0
 62
     4
 10
395.04100278920492
 20
415.45632639669918
 30
0.0
 40
15.0
  1
\U+2205
 50
90.0
 41
0.8299999999999999
  0
TEXT
  5
324C
  8
AM_0
 62
     4
 10
395.04100278920492
 20
427.90632639669923
 30
0.0
 40
15.0
  1
300
 50
90.0
 41
0.8299999999999999
  0
ENDBLK
  5
324D
  8
0
  0
BLOCK
  8
0
  2
*U7
 70
     1
 10
0.0
 20
0.0
 30
0.0
  3
*U7
  1

  0
TEXT
  5
3250
  8
AM_0
 62
     4
 10
434.34565284968079
 20
400.3088263966992
 30
0.0
 40
15.0
  1
\U+2205
 50
90.0
 41
0.8299999999999999
  0
TEXT
  5
3251
  8
AM_0
 62
     4
 10
434.34565284968079
 20
412.75882639669908
 30
0.0
 40
15.0
  1
230 
 50
90.0
 41
0.8299999999999999
  0
TEXT
  5
3252
  8
AM_0
 62
     4
 10
434.34565284968079
 20
455.50382639669908
 30
0.0
 40
12.0
  1
G7
 50
90.0
 41
0.8299999999999999
  0
ENDBLK
  5
3253
  8
0
  0
BLOCK
  8
0
  2
*U8
 70
     1
 10
0.0
 20
0.0
 30
0.0
  3
*U8
  1

  0
TEXT
  5
3256
  8
AM_0
 62
     4
 10
1310.462827335316
 20
754.70929454325744
 30
0.0
 40
15.0
  1
o
 41
0.8299999999999999
  0
TEXT
  5
3257
  8
AM_0
 62
     4
 10
1325.2842559067451
 20
754.70929454325744
 30
0.0
 40
15.0
  1
 370
 41
0.8299999999999999
  0
ENDBLK
  5
3258
  8
0
  0
BLOCK
  8
0
  2
*U9
 70
     1
 10
0.0
 20
0.0
 30
0.0
  3
*U9
  1

  0
TEXT
  5
325B
  8
AM_0
 62
     4
 10
911.00855754010911
 20
471.80748623007622
 30
0.0
 40
15.0
  1
\U+2205
 50
90.0
 41
0.8299999999999999
  0
TEXT
  5
325C
  8
AM_0
 62
     4
 10
911.00855754010911
 20
484.25748623007638
 30
0.0
 40
15.0
  1
310
 50
90.0
 41
0.8299999999999999
  0
TEXT
  5
325D
  8
AM_0
 62
     4
 10
911.00855754010911
 20
515.38248623007655
 30
0.0
 40
12.0
  1
h7
 50
90.0
 41
0.8299999999999999
  0
ENDBLK
  5
325E
  8
0
  0
BLOCK
  8
0
  2
*U10
 70
     1
 10
0.0
 20
0.0
 30
0.0
  3
*U10
  1

  0
TEXT
  5
3261
  8
AM_0
 62
     4
 10
264.93307852495661
 20
433.14497873007662
 30
0.0
 40
15.0
  1
\U+2205
 50
90.0
 41
0.8299999999999999
  0
TEXT
  5
3262
  8
AM_0
 62
     4
 10
264.93307852495661
 20
445.59497873007649
 30
0.0
 40
15.0
  1
300
 50
90.0
 41
0.8299999999999999
  0
ENDBLK
  5
3263
  8
0
  0
BLOCK
  8
0
  2
*U11
 70
     1
 10
0.0
 20
0.0
 30
0.0
  3
*U11
  1

  0
TEXT
  5
3266
  8
AM_0
 62
     4
 10
304.23772858543248
 20
417.99747873007618
 30
0.0
 40
15.0
  1
\U+2205
 50
90.0
 41
0.8299999999999999
  0
TEXT
  5
3267
  8
AM_0
 62
     4
 10
304.23772858543248
 20
430.4474787300764
 30
0.0
 40
15.0
  1
230 
 50
90.0
 41
0.8299999999999999
  0
TEXT
  5
3268
  8
AM_0
 62
     4
 10
304.23772858543248
 20
473.19247873007617
 30
0.0
 40
12.0
  1
G7
 50
90.0
 41
0.8299999999999999
  0
ENDBLK
  5
3269
  8
0
  0
BLOCK
  8
0
  2
*U12
 70
     1
 10
0.0
 20
0.0
 30
0.0
  3
*U12
  1

  0
TEXT
  5
326C
  8
AM_0
 62
     4
 10
1180.3549030710681
 20
772.39794687663482
 30
0.0
 40
15.0
  1
o
 41
0.8299999999999999
  0
TEXT
  5
326D
  8
AM_0
 62
     4
 10
1195.1763316424961
 20
772.39794687663482
 30
0.0
 40
15.0
  1
 370
 41
0.8299999999999999
  0
ENDBLK
  5
326E
  8
0
  0
BLOCK
  8
0
  2
_ACMFILLEDHALF
 70
     0
 10
0.0
 20
0.0
 30
0.0
  3
_ACMFILLEDHALF
  1

  0
TRACE
  5
35EC
  8
AM_0
 62
     0
 10
-0.8
 20
0.0
 30
0.0
 11
-1.0
 21
0.166666666
 31
0.0
 12
0.0
 22
0.0
 32
0.0
 13
0.0
 23
0.0
 33
0.0
  0
LINE
  5
35ED
  8
AM_0
 62
     0
 10
-1.0
 20
0.0
 30
0.0
 11
-0.8
 21
0.0
 31
0.0
  0
ENDBLK
  5
35EB
  8
0
  0
ENDSEC
  0
SECTION
  2
ENTITIES
  0
LINE
  5
3270
  8
AM_0
 10
717.63841869545865
 20
1003.236109015323
 30
0.0
 11
822.63841869545865
 21
1003.236109015323
 31
0.0
  0
LINE
  5
3271
  8
AM_0
 10
741.63841869545854
 20
1042.2360690153221
 30
0.0
 11
822.63841869545865
 21
1042.2360690153221
 31
0.0
  0
LINE
  5
3272
  8
AM_0
 10
741.63841869545854
 20
1024.2361090153231
 30
0.0
 11
822.63841869545865
 21
1024.2361090153231
 31
0.0
  0
LINE
  5
3273
  8
AM_0
 10
717.63841869545865
 20
1063.236069015323
 30
0.0
 11
822.63841869545865
 21
1063.236069015323
 31
0.0
  0
LINE
  5
3274
  8
ﾁｭｳｼﾝｾﾝ
 10
340.5624436954588
 20
1033.236069015323
 30
0.0
 11
838.46135869545856
 21
1033.236069015323
 31
0.0
  0
POLYLINE
  5
3275
  8
AM_0
 66
     1
 10
0.0
 20
0.0
 30
0.0
  0
VERTEX
  5
3276
  8
AM_0
 10
662.02191869545845
 20
1127.825269015322
 30
0.0
 42
0.034282229
  0
VERTEX
  5
3277
  8
AM_0
 10
652.97761869545855
 20
1064.979069015322
 30
0.0
 42
0.072426646
  0
VERTEX
  5
3278
  8
AM_0
 10
662.02191869545845
 20
938.64692901532271
 30
0.0
  0
SEQEND
  5
3279
  8
AM_0
  0
LINE
  5
327A
  8
AM_0
 10
712.63841869545865
 20
878.236109015323
 30
0.0
 11
712.63841869545865
 21
1188.236069015323
 31
0.0
  0
LINE
  5
327B
  8
AM_0
 10
682.63841869545865
 20
1215.236069015323
 30
0.0
 11
682.63841869545865
 21
851.236109015323
 31
0.0
  0
LINE
  5
327C
  8
AM_0
 10
691.63841869545865
 20
1179.794969015323
 30
0.0
 11
691.63841869545865
 21
886.66615901532293
 31
0.0
  0
LINE
  5
327D
  8
AM_0
 10
707.63841869545865
 20
1218.236069015323
 30
0.0
 11
707.63841869545865
 21
848.23610901532288
 31
0.0
  0
LINE
  5
327E
  8
AM_0
 10
494.13835869545852
 20
908.30470901532271
 30
0.0
 11
494.13835869545852
 21
1158.167469015322
 31
0.0
  0
LINE
  5
327F
  8
AM_0
 10
514.13835869545846
 20
881.03816901532275
 30
0.0
 11
514.13835869545846
 21
1028.2360690153221
 31
0.0
  0
LINE
  5
3280
  8
AM_0
 10
434.63845869545872
 20
1153.2360690153221
 30
0.0
 11
434.63845869545872
 21
913.236109015323
 31
0.0
  0
LINE
  5
3281
  8
AM_0
 10
447.63835869545852
 20
1151.2360690153221
 30
0.0
 11
447.63835869545852
 21
915.23610901532288
 31
0.0
  0
LINE
  5
3282
  8
AM_0
 10
569.13841869545877
 20
1192.1831690153231
 30
0.0
 11
569.13841869545877
 21
874.28908901532304
 31
0.0
  0
LINE
  5
3283
  8
AM_0
 10
677.81291869545873
 20
870.49403901532287
 30
0.0
 11
569.13841869545877
 21
874.28908901532304
 31
0.0
  0
LINE
  5
3284
  8
AM_0
 10
447.63835869545852
 20
946.56123901532283
 30
0.0
 11
494.13835869545852
 21
946.56123901532283
 31
0.0
  0
LINE
  5
3285
  8
AM_0
 10
447.63835869545852
 20
962.30330901532284
 30
0.0
 11
494.13835869545852
 21
962.30330901532284
 31
0.0
  0
LINE
  5
3286
  8
AM_0
 10
449.63845869545872
 20
921.236109015323
 30
0.0
 11
489.13835869545852
 21
921.236109015323
 31
0.0
  0
LINE
  5
3287
  8
AM_0
 10
434.63845869545872
 20
933.50886901532272
 30
0.0
 11
447.63835869545852
 21
933.50886901532272
 31
0.0
  0
LINE
  5
3288
  8
AM_0
 10
434.63845869545872
 20
913.236109015323
 30
0.0
 11
445.63845869545872
 21
913.236109015323
 31
0.0
  0
ARC
  5
3289
  8
AM_0
 10
449.63845869545872
 20
919.236109015323
 30
0.0
 40
2.0
 50
90.00000299999769
 51
180.00001000000091
  0
ARC
  5
328A
  8
AM_0
 10
445.63845869545872
 20
915.23610901532288
 30
0.0
 40
2.0
 50
270.0
 51
0.0
  0
LINE
  5
328B
  8
AM_0
 10
434.63845869545872
 20
949.06520901532315
 30
0.0
 11
447.63835869545852
 21
949.06520901532315
 31
0.0
  0
LINE
  5
328C
  8
AM_0
 10
434.63845869545872
 20
957.23939901532299
 30
0.0
 11
447.63835869545852
 21
957.23939901532299
 31
0.0
  0
ARC
  5
328D
  8
AM_0
 10
509.13835869545841
 20
897.61269901532285
 30
0.0
 40
5.0
 50
0.0
 51
86.16916099999878
  0
LINE
  5
328E
  8
AM_0
 10
519.13835869545846
 20
886.14607901532293
 30
0.0
 11
545.13841869545865
 21
886.14607901532293
 31
0.0
  0
LINE
  5
328F
  8
AM_0
 10
519.13835869545846
 20
896.93648901532276
 30
0.0
 11
545.13841869545865
 21
896.93648901532276
 31
0.0
  0
LINE
  5
3290
  8
AM_0
 10
569.13841869545877
 20
874.28914901532301
 30
0.0
 11
518.96385869545873
 21
876.04127901532263
 31
0.0
  0
ARC
  5
3291
  8
AM_0
 10
519.13835869545846
 20
881.03816901532275
 30
0.0
 40
5.0
 50
180.00001000000091
 51
268.00000999999861
  0
ARC
  5
3292
  8
AM_0
 10
519.13835869545846
 20
881.14607901532304
 30
0.0
 40
5.0
 50
90.00000299999769
 51
180.00001000000091
  0
ARC
  5
3293
  8
AM_0
 10
519.13835869545846
 20
901.93648901532299
 30
0.0
 40
5.0
 50
180.00001000000091
 51
270.0
  0
ARC
  5
3294
  8
AM_0
 10
545.13841869545865
 20
894.93648901532299
 30
0.0
 40
2.0
 50
0.0
 51
90.00000299999769
  0
ARC
  5
3295
  8
AM_0
 10
545.13841869545865
 20
888.14607901532281
 30
0.0
 40
2.0
 50
270.0
 51
0.0
  0
LINE
  5
3296
  8
AM_0
 10
547.13841869545865
 20
888.14607901532281
 30
0.0
 11
547.13841869545865
 21
894.93648901532299
 31
0.0
  0
LINE
  5
3297
  8
AM_0
 10
519.13835869545846
 20
984.20753901532305
 30
0.0
 11
545.13841869545865
 21
984.20753901532305
 31
0.0
  0
LINE
  5
3298
  8
AM_0
 10
519.13835869545846
 20
938.29195901532285
 30
0.0
 11
545.13841869545865
 21
938.29195901532285
 31
0.0
  0
ARC
  5
3299
  8
AM_0
 10
499.13835869545852
 20
908.30470901532271
 30
0.0
 40
5.0
 50
180.00001000000091
 51
266.1691699999995
  0
ARC
  5
329A
  8
AM_0
 10
489.13835869545852
 20
916.23610901532288
 30
0.0
 40
5.0
 50
0.0
 51
90.00000299999769
  0
LINE
  5
329B
  8
AM_0
 10
509.47239869545871
 20
902.60152901532285
 30
0.0
 11
498.80430869545847
 21
903.31587901532305
 31
0.0
  0
ARC
  5
329C
  8
AM_0
 10
519.13835869545846
 20
933.29195901532285
 30
0.0
 40
5.0
 50
90.00000299999769
 51
180.00001000000091
  0
ARC
  5
329D
  8
AM_0
 10
519.13835869545846
 20
989.20753901532294
 30
0.0
 40
5.0
 50
180.00001000000091
 51
270.0
  0
LINE
  5
329E
  8
AM_0
 10
547.13841869545865
 20
940.29195901532285
 30
0.0
 11
547.13841869545865
 21
982.20753901532282
 31
0.0
  0
ARC
  5
329F
  8
AM_0
 10
545.13841869545865
 20
940.29195901532285
 30
0.0
 40
2.0
 50
270.0
 51
0.0
  0
ARC
  5
32A0
  8
AM_0
 10
545.13841869545865
 20
982.20753901532282
 30
0.0
 40
2.0
 50
0.0
 51
90.00000299999769
  0
LINE
  5
32A1
  8
AM_0
 10
685.63841869545877
 20
848.23604901532292
 30
0.0
 11
707.63841869545865
 21
848.23604901532292
 31
0.0
  0
LINE
  5
32A2
  8
AM_0
 10
682.63841869545865
 20
946.96474901532304
 30
0.0
 11
689.63841869545865
 21
946.96474901532304
 31
0.0
  0
LINE
  5
32A3
  8
AM_0
 10
684.63841869545865
 20
884.677209015323
 30
0.0
 11
689.63841869545865
 21
884.677209015323
 31
0.0
  0
LINE
  5
32A4
  8
AM_0
 10
680.27067869545874
 20
892.52345901532294
 30
0.0
 11
624.00615869545857
 21
927.36189901532271
 31
0.0
  0
ARC
  5
32A5
  8
AM_0
 10
685.63841869545877
 20
851.236109015323
 30
0.0
 40
3.0
 50
179.9999899999988
 51
270.0
  0
POLYLINE
  5
32A6
  8
AM_0
 66
     1
 10
0.0
 20
0.0
 30
0.0
  0
VERTEX
  5
32A7
  8
AM_0
 10
672.81172869545856
 20
897.14179901532293
 30
0.0
 42
0.0050438079
  0
VERTEX
  5
32A8
  8
AM_0
 10
675.89373869545875
 20
887.44140901532285
 30
0.0
 42
0.0050105797
  0
VERTEX
  5
32A9
  8
AM_0
 10
679.17015869545855
 20
877.80494901532313
 30
0.0
 42
0.0049830203
  0
VERTEX
  5
32AA
  8
AM_0
 10
682.63841869545865
 20
868.236109015323
 30
0.0
  0
SEQEND
  5
32AB
  8
AM_0
  0
ARC
  5
32AC
  8
AM_0
 10
677.63841869545865
 20
865.49715901532295
 30
0.0
 40
5.0
 50
0.0
 51
88.000000000002785
  0
ARC
  5
32AD
  8
AM_0
 10
684.63841869545865
 20
882.677209015323
 30
0.0
 40
2.0
 50
90.00000299999769
 51
180.00001000000091
  0
ARC
  5
32AE
  8
AM_0
 10
677.63841869545865
 20
888.272489015323
 30
0.0
 40
5.0
 50
0.0
 51
58.234630000004231
  0
LINE
  5
32AF
  8
AM_0
 10
626.63841869545877
 20
940.79347901532299
 30
0.0
 11
657.47868869545846
 21
940.79347901532299
 31
0.0
  0
LINE
  5
32B0
  8
AM_0
 10
680.27061869545855
 20
904.48897901532314
 30
0.0
 11
625.33354869545872
 21
938.50545901532291
 31
0.0
  0
ARC
  5
32B1
  8
AM_0
 10
626.63841869545877
 20
935.79347901532299
 30
0.0
 40
5.0
 50
90.00000299999769
 51
180.00001000000091
  0
ARC
  5
32B2
  8
AM_0
 10
626.63841869545877
 20
931.61293901532304
 30
0.0
 40
5.0
 50
179.9999899999988
 51
238.2346499999997
  0
LINE
  5
32B3
  8
AM_0
 10
621.63841869545865
 20
931.61293901532304
 30
0.0
 11
621.63841869545865
 21
935.79347901532299
 31
0.0
  0
ARC
  5
32B4
  8
AM_0
 10
657.47868869545846
 20
935.79347901532299
 30
0.0
 40
5.0
 50
53.388504999997892
 51
90.00000299999769
  0
LINE
  5
32B5
  8
AM_0
 10
682.63841869545865
 20
923.32936901532275
 30
0.0
 11
660.46068869545854
 21
939.80690901532284
 31
0.0
  0
LINE
  5
32B6
  8
AM_0
 10
707.63841869545865
 20
878.236109015323
 30
0.0
 11
712.63841869545865
 21
878.236109015323
 31
0.0
  0
ARC
  5
32B7
  8
AM_0
 10
689.63841869545865
 20
886.67720901532289
 30
0.0
 40
2.0
 50
270.0
 51
0.0
  0
ARC
  5
32B8
  8
AM_0
 10
689.63841869545865
 20
948.96474901532292
 30
0.0
 40
2.0
 50
270.0
 51
0.0
  0
LINE
  5
32B9
  8
AM_0
 10
677.81291869545873
 20
1195.978069015322
 30
0.0
 11
569.13841869545877
 21
1192.1831690153231
 31
0.0
  0
ARC
  5
32BA
  8
AM_0
 10
519.13835869545846
 20
1185.326069015322
 30
0.0
 40
5.0
 50
180.00001000000091
 51
270.0
  0
LINE
  5
32BB
  8
AM_0
 10
514.13835869545846
 20
1038.236069015323
 30
0.0
 11
514.13835869545846
 21
1185.4339690153211
 31
0.0
  0
LINE
  5
32BC
  8
AM_0
 10
447.63835869545852
 20
1119.911069015322
 30
0.0
 11
494.13835869545852
 21
1119.911069015322
 31
0.0
  0
LINE
  5
32BD
  8
AM_0
 10
447.63835869545852
 20
1104.168869015323
 30
0.0
 11
494.13835869545852
 21
1104.168869015323
 31
0.0
  0
LINE
  5
32BE
  8
AM_0
 10
449.63845869545872
 20
1145.2360690153221
 30
0.0
 11
489.13835869545852
 21
1145.2360690153221
 31
0.0
  0
LINE
  5
32BF
  8
AM_0
 10
434.63845869545872
 20
1109.232669015322
 30
0.0
 11
447.63835869545852
 21
1109.232669015322
 31
0.0
  0
LINE
  5
32C0
  8
AM_0
 10
434.63845869545872
 20
1117.4068690153231
 30
0.0
 11
447.63835869545852
 21
1117.4068690153231
 31
0.0
  0
LINE
  5
32C1
  8
AM_0
 10
434.63845869545872
 20
1132.963269015323
 30
0.0
 11
447.63835869545852
 21
1132.963269015323
 31
0.0
  0
LINE
  5
32C2
  8
AM_0
 10
434.63845869545872
 20
1153.2360690153221
 30
0.0
 11
445.63845869545872
 21
1153.2360690153221
 31
0.0
  0
ARC
  5
32C3
  8
AM_0
 10
449.63845869545872
 20
1147.236069015323
 30
0.0
 40
2.0
 50
179.9999899999988
 51
270.0
  0
ARC
  5
32C4
  8
AM_0
 10
445.63845869545872
 20
1151.2360690153221
 30
0.0
 40
2.0
 50
0.0
 51
90.00000299999769
  0
LINE
  5
32C5
  8
AM_0
 10
547.13841869545865
 20
1126.1803690153231
 30
0.0
 11
547.13841869545865
 21
1084.2646690153231
 31
0.0
  0
ARC
  5
32C6
  8
AM_0
 10
529.13841869545865
 20
1033.236069015323
 30
0.0
 40
12.5
 50
203.5781799999973
 51
336.42183000000068
  0
ARC
  5
32C7
  8
AM_0
 10
529.13841869545865
 20
1033.236069015323
 30
0.0
 40
12.5
 50
23.578179999997531
 51
156.42182000000241
  0
LINE
  5
32C8
  8
AM_0
 10
519.13835869545846
 20
1082.2646690153231
 30
0.0
 11
545.13841869545865
 21
1082.2646690153231
 31
0.0
  0
LINE
  5
32C9
  8
AM_0
 10
509.13841869545871
 20
1038.236069015323
 30
0.0
 11
549.13841869545865
 21
1038.236069015323
 31
0.0
  0
LINE
  5
32CA
  8
AM_0
 10
509.13841869545871
 20
1028.2360690153221
 30
0.0
 11
549.13841869545865
 21
1028.2360690153221
 31
0.0
  0
ARC
  5
32CB
  8
AM_0
 10
509.13841869545871
 20
1033.236069015323
 30
0.0
 40
5.0
 50
90.00000299999769
 51
270.0
  0
ARC
  5
32CC
  8
AM_0
 10
519.13835869545846
 20
1077.2646690153231
 30
0.0
 40
5.0
 50
90.00000299999769
 51
180.00001000000091
  0
ARC
  5
32CD
  8
AM_0
 10
549.13841869545865
 20
1033.236069015323
 30
0.0
 40
5.0
 50
270.0
 51
90.00000299999769
  0
ARC
  5
32CE
  8
AM_0
 10
545.13841869545865
 20
1084.2646690153231
 30
0.0
 40
2.0
 50
270.0
 51
0.0
  0
LINE
  5
32CF
  8
AM_0
 10
519.13835869545846
 20
1169.535669015323
 30
0.0
 11
545.13841869545865
 21
1169.535669015323
 31
0.0
  0
LINE
  5
32D0
  8
AM_0
 10
519.13835869545846
 20
1128.1803690153231
 30
0.0
 11
545.13841869545865
 21
1128.1803690153231
 31
0.0
  0
LINE
  5
32D1
  8
AM_0
 10
519.13835869545846
 20
1180.326069015322
 30
0.0
 11
545.13841869545865
 21
1180.326069015322
 31
0.0
  0
ARC
  5
32D2
  8
AM_0
 10
519.13835869545846
 20
1133.1803690153231
 30
0.0
 40
5.0
 50
180.00001000000091
 51
270.0
  0
ARC
  5
32D3
  8
AM_0
 10
499.13835869545852
 20
1158.167469015322
 30
0.0
 40
5.0
 50
93.830836999998056
 51
180.00001000000091
  0
ARC
  5
32D4
  8
AM_0
 10
489.13835869545852
 20
1150.236069015323
 30
0.0
 40
5.0
 50
270.0
 51
0.0
  0
ARC
  5
32D5
  8
AM_0
 10
509.13835869545841
 20
1168.859569015322
 30
0.0
 40
5.0
 50
273.83084000000281
 51
0.0
  0
LINE
  5
32D6
  8
AM_0
 10
509.47246869545847
 20
1163.8706690153231
 30
0.0
 11
498.80430869545847
 21
1163.156269015321
 31
0.0
  0
ARC
  5
32D7
  8
AM_0
 10
519.13835869545846
 20
1164.535669015323
 30
0.0
 40
5.0
 50
90.00000299999769
 51
180.00001000000091
  0
ARC
  5
32D8
  8
AM_0
 10
545.13841869545865
 20
1126.1803690153231
 30
0.0
 40
2.0
 50
0.0
 51
90.00000299999769
  0
ARC
  5
32D9
  8
AM_0
 10
545.13841869545865
 20
1178.326069015322
 30
0.0
 40
2.0
 50
0.0
 51
90.00000299999769
  0
ARC
  5
32DA
  8
AM_0
 10
545.13841869545865
 20
1171.535669015323
 30
0.0
 40
2.0
 50
270.0
 51
0.0
  0
LINE
  5
32DB
  8
AM_0
 10
547.13841869545865
 20
1178.326069015322
 30
0.0
 11
547.13841869545865
 21
1171.535669015323
 31
0.0
  0
LINE
  5
32DC
  8
AM_0
 10
569.13841869545877
 20
1192.1831690153231
 30
0.0
 11
518.96385869545873
 21
1190.430969015322
 31
0.0
  0
ARC
  5
32DD
  8
AM_0
 10
519.13835869545846
 20
1185.4339690153211
 30
0.0
 40
5.0
 50
91.999998000000545
 51
180.00001000000091
  0
POLYLINE
  5
32DE
  8
AM_0
 66
     1
 10
0.0
 20
0.0
 30
0.0
  0
VERTEX
  5
32DF
  8
AM_0
 10
682.63841869545865
 20
1198.236069015323
 30
0.0
  0
VERTEX
  5
32E0
  8
AM_0
 10
672.81177869545866
 20
1169.330569015322
 30
0.0
 42
-1.0
  0
SEQEND
  5
32E1
  8
AM_0
  0
ARC
  5
32E2
  8
AM_0
 10
684.63841869545865
 20
1183.794969015323
 30
0.0
 40
2.0
 50
179.9999899999988
 51
270.0
  0
ARC
  5
32E3
  8
AM_0
 10
689.63841869545865
 20
1179.794969015323
 30
0.0
 40
2.0
 50
0.0
 51
90.00000299999769
  0
LINE
  5
32E4
  8
AM_0
 10
682.63841869545865
 20
1119.5074690153231
 30
0.0
 11
689.63841869545865
 21
1119.5074690153231
 31
0.0
  0
LINE
  5
32E5
  8
AM_0
 10
626.63841869545877
 20
1125.6787690153219
 30
0.0
 11
657.47868869545846
 21
1125.6787690153219
 31
0.0
  0
LINE
  5
32E6
  8
AM_0
 10
680.2705586954587
 20
1161.983169015323
 30
0.0
 11
625.33354869545872
 21
1127.966869015323
 31
0.0
  0
LINE
  5
32E7
  8
AM_0
 10
680.27061869545855
 20
1173.948769015323
 30
0.0
 11
624.00615869545857
 21
1139.110369015322
 31
0.0
  0
ARC
  5
32E8
  8
AM_0
 10
626.63841869545877
 20
1134.859269015323
 30
0.0
 40
5.0
 50
121.7653600000025
 51
180.00001000000091
  0
ARC
  5
32E9
  8
AM_0
 10
626.63841869545877
 20
1130.678769015323
 30
0.0
 40
5.0
 50
179.9999899999988
 51
270.0
  0
LINE
  5
32EA
  8
AM_0
 10
621.63841869545865
 20
1134.859269015323
 30
0.0
 11
621.63841869545865
 21
1130.678769015323
 31
0.0
  0
LINE
  5
32EB
  8
AM_0
 10
682.63847869545873
 20
1143.142869015322
 30
0.0
 11
660.46062869545847
 21
1126.665169015323
 31
0.0
  0
ARC
  5
32EC
  8
AM_0
 10
657.47868869545846
 20
1130.678769015323
 30
0.0
 40
5.0
 50
270.0
 51
306.61150000000112
  0
ARC
  5
32ED
  8
AM_0
 10
677.63841869545865
 20
1178.199769015323
 30
0.0
 40
5.0
 50
301.7653699999957
 51
0.0
  0
ARC
  5
32EE
  8
AM_0
 10
741.63841869545854
 20
1033.236069015323
 30
0.0
 40
9.0
 50
90.00000299999769
 51
270.0
  0
LINE
  5
32EF
  8
AM_0
 10
717.63841869545865
 20
1065.736069015323
 30
0.0
 11
717.63841869545865
 21
1000.736109015323
 31
0.0
  0
LINE
  5
32F0
  8
AM_0
 10
712.63841869545865
 20
1000.736109015323
 30
0.0
 11
717.63841869545865
 21
1000.736109015323
 31
0.0
  0
LINE
  5
32F1
  8
AM_0
 10
712.63841869545865
 20
1065.736069015323
 30
0.0
 11
717.63841869545865
 21
1065.736069015323
 31
0.0
  0
LINE
  5
32F2
  8
AM_0
 10
741.63841869545854
 20
1042.2360690153221
 30
0.0
 11
741.63841869545854
 21
1024.2361090153231
 31
0.0
  0
ARC
  5
32F3
  8
AM_0
 10
689.63841869545865
 20
1117.5074690153231
 30
0.0
 40
2.0
 50
0.0
 51
90.00000299999769
  0
LINE
  5
32F4
  8
AM_0
 10
685.63841869545877
 20
1218.236069015323
 30
0.0
 11
707.63841869545865
 21
1218.236069015323
 31
0.0
  0
LINE
  5
32F5
  8
AM_0
 10
684.63841869545865
 20
1181.7949690153221
 30
0.0
 11
689.63841869545865
 21
1181.7949690153221
 31
0.0
  0
ARC
  5
32F6
  8
AM_0
 10
677.63841869545865
 20
1200.975169015323
 30
0.0
 40
5.0
 50
271.9999999999971
 51
0.0
  0
ARC
  5
32F7
  8
AM_0
 10
685.63841869545877
 20
1215.236069015323
 30
0.0
 40
3.0
 50
90.00000299999769
 51
180.00001000000091
  0
LINE
  5
32F8
  8
AM_0
 10
707.63841869545865
 20
1188.236069015323
 30
0.0
 11
712.63841869545865
 21
1188.236069015323
 31
0.0
  0
LINE
  5
32F9
  8
AM_0
 10
822.63841869545865
 20
1063.236069015323
 30
0.0
 11
822.63841869545865
 21
1003.236109015323
 31
0.0
  0
LINE
  5
32FA
  8
ﾁｭｳｼﾝｾﾝ
 10
825.57741869545873
 20
501.89497873007622
 30
0.0
 11
551.67141869545856
 21
501.89497873007622
 31
0.0
  0
LINE
  5
32FB
  8
AM_0
 10
717.63836869545855
 20
471.89497873007622
 30
0.0
 11
822.63841869545865
 21
471.89497873007622
 31
0.0
  0
LINE
  5
32FC
  8
AM_0
 10
717.63836869545855
 20
531.89497873007633
 30
0.0
 11
822.63841869545865
 21
531.89497873007633
 31
0.0
  0
LINE
  5
32FD
  8
AM_0
 10
514.13836869545855
 20
631.89499873007605
 30
0.0
 11
514.13836869545855
 21
286.63358873007638
 31
0.0
  0
LINE
  5
32FE
  8
AM_0
 10
434.63841869545871
 20
573.89497873007633
 30
0.0
 11
434.63841869545871
 21
333.89497373007617
 31
0.0
  0
LINE
  5
32FF
  8
AM_0
 10
494.1383686954585
 20
582.08874873007642
 30
0.0
 11
494.1383686954585
 21
332.28147873007612
 31
0.0
  0
LINE
  5
3300
  8
AM_0
 10
691.63836869545855
 20
648.45389873007605
 30
0.0
 11
691.63836869545855
 21
355.33610873007609
 31
0.0
  0
LINE
  5
3301
  8
AM_0
 10
682.63836869545855
 20
683.89499873007605
 30
0.0
 11
682.63836869545855
 21
443.9579637300763
 31
0.0
  0
LINE
  5
3302
  8
AM_0
 10
569.13836869545855
 20
633.89499873007605
 30
0.0
 11
569.13836869545855
 21
279.89497373007629
 31
0.0
  0
LINE
  5
3303
  8
AM_0
 10
659.13276869545871
 20
594.33759873007625
 30
0.0
 11
682.37586869545851
 21
444.35188373007622
 31
0.0
  0
ARC
  5
3304
  8
AM_0
 10
445.63836869545878
 20
571.89497873007633
 30
0.0
 40
2.0000000500000001
 50
0.0
 51
90.00000299999769
  0
LINE
  5
3305
  8
AM_0
 10
373.63841869545882
 20
600.89497873007645
 30
0.0
 11
373.63841869545882
 21
453.89497873007622
 31
0.0
  0
LINE
  5
3306
  8
AM_0
 10
353.63841869545882
 20
603.89497873007645
 30
0.0
 11
353.63841869545882
 21
303.89497873007628
 31
0.0
  0
ARC
  5
3307
  8
AM_0
 10
378.63841869545882
 20
578.36310473007632
 30
0.0
 40
5.0
 50
180.0
 51
268.49999999999733
  0
LINE
  5
3308
  8
AM_0
 10
434.63841869545871
 20
571.89497879002874
 30
0.0
 11
378.50753469545913
 21
573.36481773007654
 31
0.0
  0
LINE
  5
3309
  8
AM_0
 10
707.63836869545855
 20
686.89499873007605
 30
0.0
 11
707.63836869545855
 21
316.89497373007617
 31
0.0
  0
LINE
  5
330A
  8
AM_0
 10
712.63836869545867
 20
346.89497373007617
 30
0.0
 11
712.63836869545867
 21
656.89499873007605
 31
0.0
  0
LINE
  5
330B
  8
ﾁｭｳｼﾝｾﾝ
 10
340.5624436954588
 20
453.89497873007622
 30
0.0
 11
575.35811869545853
 21
453.89497873007622
 31
0.0
  0
LINE
  5
330C
  8
AM_0
 10
447.6383686954585
 20
382.9621737300763
 30
0.0
 11
494.1383686954585
 21
382.9621737300763
 31
0.0
  0
LINE
  5
330D
  8
AM_0
 10
447.6383686954585
 20
367.22007873007618
 30
0.0
 11
494.1383686954585
 21
367.22007873007618
 31
0.0
  0
LINE
  5
330E
  8
AM_0
 10
449.63841869545871
 20
341.89497373007617
 30
0.0
 11
489.1383686954585
 21
341.89497373007617
 31
0.0
  0
LINE
  5
330F
  8
AM_0
 10
447.6383686954585
 20
540.56987373007655
 30
0.0
 11
494.1383686954585
 21
540.56987373007655
 31
0.0
  0
LINE
  5
3310
  8
AM_0
 10
447.6383686954585
 20
524.8278087300763
 30
0.0
 11
494.1383686954585
 21
524.8278087300763
 31
0.0
  0
LINE
  5
3311
  8
AM_0
 10
449.63841869545871
 20
565.89500873007626
 30
0.0
 11
489.1383686954585
 21
565.89500873007626
 31
0.0
  0
LINE
  5
3312
  8
AM_0
 10
373.63841869545882
 20
306.89497873007628
 30
0.0
 11
373.63841869545882
 21
453.89497873007622
 31
0.0
  0
LINE
  5
3313
  8
AM_0
 10
447.6383686954585
 20
571.89497873007633
 30
0.0
 11
447.6383686954585
 21
335.89497373007612
 31
0.0
  0
LINE
  5
3314
  8
AM_0
 10
353.63841869545882
 20
303.89497873007628
 30
0.0
 11
370.63841869545882
 21
303.89497873007628
 31
0.0
  0
ARC
  5
3315
  8
AM_0
 10
370.63841869545882
 20
306.89497873007628
 30
0.0
 40
3.0
 50
270.0
 51
0.0
  0
LINE
  5
3316
  8
AM_0
 10
430.94142669545829
 20
379.36121873007647
 30
0.0
 11
378.50753469545913
 21
377.98818873007639
 31
0.0
  0
LINE
  5
3317
  8
AM_0
 10
434.63841869545871
 20
335.89497867012409
 30
0.0
 11
378.50753469545913
 21
334.4251397300763
 31
0.0
  0
LINE
  5
3318
  8
AM_0
 10
376.60113369545883
 20
341.65825773007617
 30
0.0
 11
401.37142069545871
 21
352.71011973007649
 31
0.0
  0
LINE
  5
3319
  8
AM_0
 10
376.60113369545883
 20
357.2146077300763
 30
0.0
 11
401.37142069545871
 21
368.26646873007633
 31
0.0
  0
ARC
  5
331A
  8
AM_0
 10
378.63841869545882
 20
352.64848573007617
 30
0.0
 40
5.0
 50
114.0451930000003
 51
180.0
  0
ARC
  5
331B
  8
AM_0
 10
378.63841869545882
 20
329.42685373007617
 30
0.0
 40
5.0
 50
91.500000000002629
 51
180.0
  0
ARC
  5
331C
  8
AM_0
 10
378.63841869545882
 20
337.09213673007639
 30
0.0
 40
5.0
 50
114.0451930000003
 51
180.0
  0
ARC
  5
331D
  8
AM_0
 10
378.63841869545882
 20
372.98990173007638
 30
0.0
 40
5.0
 50
91.500000000002629
 51
150.7208910000015
  0
LINE
  5
331E
  8
AM_0
 10
404.63841869545871
 20
355.17402073007622
 30
0.0
 11
404.63841869545871
 21
366.6542227300763
 31
0.0
  0
LINE
  5
331F
  8
AM_0
 10
432.63841869545871
 20
370.72411873007638
 30
0.0
 11
432.63841869545871
 21
355.16776973007632
 31
0.0
  0
LINE
  5
3320
  8
AM_0
 10
431.63902869545882
 20
369.68921973007622
 30
0.0
 11
431.63902869545882
 21
354.13286973007632
 31
0.0
  0
LINE
  5
3321
  8
AM_0
 10
403.23420869545828
 20
353.14095173007638
 30
0.0
 11
431.63902869545882
 21
354.13286973007632
 31
0.0
  0
ARC
  5
3322
  8
AM_0
 10
403.40870669545882
 20
348.14399773007631
 30
0.0
 40
5.0
 50
92.000000000003666
 51
114.0451930000003
  0
ARC
  5
3323
  8
AM_0
 10
445.63836869545878
 20
335.89497373007612
 30
0.0
 40
2.0000000500000001
 50
270.0
 51
0.0
  0
LINE
  5
3324
  8
AM_0
 10
434.63841869545871
 20
333.89497373007617
 30
0.0
 11
445.63836869545878
 21
333.89497373007617
 31
0.0
  0
LINE
  5
3325
  8
AM_0
 10
434.63841869545871
 20
354.16777373007631
 30
0.0
 11
447.6383686954585
 21
354.16777373007631
 31
0.0
  0
LINE
  5
3326
  8
AM_0
 10
431.63902869545882
 20
354.13286973007632
 30
0.0
 11
432.63841869545871
 21
355.16776973007632
 31
0.0
  0
ARC
  5
3327
  8
AM_0
 10
449.63841869545871
 20
339.89497373007617
 30
0.0
 40
2.0000000500000001
 50
90.00000299999769
 51
180.00001000000091
  0
LINE
  5
3328
  8
AM_0
 10
431.63902869545882
 20
369.68921973007622
 30
0.0
 11
403.23420869545828
 21
368.69730073007639
 31
0.0
  0
ARC
  5
3329
  8
AM_0
 10
403.40870669545882
 20
363.70034673007632
 30
0.0
 40
5.0
 50
92.000000000003666
 51
114.0451930000003
  0
LINE
  5
332A
  8
AM_0
 10
432.63841869545871
 20
377.87147173007639
 30
0.0
 11
432.63841869545871
 21
370.72411873007638
 31
0.0
  0
LINE
  5
332B
  8
AM_0
 10
434.63841869545871
 20
369.7241087300763
 30
0.0
 11
447.6383686954585
 21
369.7241087300763
 31
0.0
  0
LINE
  5
332C
  8
AM_0
 10
431.63902869545882
 20
369.68921973007622
 30
0.0
 11
432.63841869545871
 21
370.72411873007638
 31
0.0
  0
LINE
  5
332D
  8
AM_0
 10
434.63841869545871
 20
377.89833373007622
 30
0.0
 11
447.6383686954585
 21
377.89833373007622
 31
0.0
  0
POINT
  5
332E
  8
AM_0
 10
434.63841869545871
 20
453.89497873007622
 30
0.0
  0
LINE
  5
332F
  8
AM_0
 10
430.94142669545829
 20
528.42873973007624
 30
0.0
 11
378.50753469545913
 21
529.80176973007633
 31
0.0
  0
LINE
  5
3330
  8
AM_0
 10
376.60113369545883
 20
566.13169973007632
 30
0.0
 11
401.37142069545871
 21
555.07983873007652
 31
0.0
  0
LINE
  5
3331
  8
AM_0
 10
376.60113369545883
 20
550.57535073007648
 30
0.0
 11
401.37142069545871
 21
539.52348973007634
 31
0.0
  0
ARC
  5
3332
  8
AM_0
 10
378.63841869545882
 20
534.80005573007645
 30
0.0
 40
5.0
 50
209.2791089999983
 51
268.49999999999733
  0
ARC
  5
3333
  8
AM_0
 10
378.63841869545882
 20
555.14147273007632
 30
0.0
 40
5.0
 50
180.0
 51
245.95480699999951
  0
ARC
  5
3334
  8
AM_0
 10
378.63841869545882
 20
570.69782173007638
 30
0.0
 40
5.0
 50
180.0
 51
245.95480699999951
  0
LINE
  5
3335
  8
AM_0
 10
403.23420869545828
 20
554.6490057300764
 30
0.0
 11
431.63902869545882
 21
553.65708773007646
 31
0.0
  0
LINE
  5
3336
  8
AM_0
 10
431.63902869545882
 20
538.1007387300765
 30
0.0
 11
403.23420869545828
 21
539.09265673007656
 31
0.0
  0
LINE
  5
3337
  8
AM_0
 10
404.63841869545871
 20
552.61593673007621
 30
0.0
 11
404.63841869545871
 21
541.13573573007625
 31
0.0
  0
ARC
  5
3338
  8
AM_0
 10
403.40870669545882
 20
544.0896107300764
 30
0.0
 40
5.0
 50
245.95480699999951
 51
267.99999999999631
  0
ARC
  5
3339
  8
AM_0
 10
403.40870669545882
 20
559.64595973007636
 30
0.0
 40
5.0
 50
245.95480699999951
 51
267.99999999999631
  0
LINE
  5
333A
  8
AM_0
 10
432.63841869545871
 20
537.0658397300765
 30
0.0
 11
432.63841869545871
 21
552.62218873007635
 31
0.0
  0
LINE
  5
333B
  8
AM_0
 10
431.63902869545882
 20
538.1007387300765
 30
0.0
 11
431.63902869545882
 21
553.65708773007646
 31
0.0
  0
LINE
  5
333C
  8
AM_0
 10
434.63841869545871
 20
538.06581373007623
 30
0.0
 11
447.6383686954585
 21
538.06581373007623
 31
0.0
  0
LINE
  5
333D
  8
AM_0
 10
434.63841869545871
 20
529.8916187300764
 30
0.0
 11
447.6383686954585
 21
529.8916187300764
 31
0.0
  0
LINE
  5
333E
  8
AM_0
 10
432.63841869545871
 20
529.91848573007633
 30
0.0
 11
432.63841869545871
 21
537.0658397300765
 31
0.0
  0
LINE
  5
333F
  8
AM_0
 10
431.63902869545882
 20
538.1007387300765
 30
0.0
 11
432.63841869545871
 21
537.0658397300765
 31
0.0
  0
LINE
  5
3340
  8
AM_0
 10
434.63841869545871
 20
553.62221373007606
 30
0.0
 11
447.6383686954585
 21
553.62221373007606
 31
0.0
  0
LINE
  5
3341
  8
AM_0
 10
431.63902869545882
 20
553.65708773007646
 30
0.0
 11
432.63841869545871
 21
552.62218873007635
 31
0.0
  0
ARC
  5
3342
  8
AM_0
 10
449.63841869545871
 20
567.89497873007633
 30
0.0
 40
2.0000000500000001
 50
179.9999899999988
 51
270.0
  0
LINE
  5
3343
  8
AM_0
 10
547.13841869545865
 20
402.8378487300763
 30
0.0
 11
547.13841869545865
 21
366.56852873007631
 31
0.0
  0
LINE
  5
3344
  8
AM_0
 10
569.13841869545877
 20
279.89497373007629
 30
0.0
 11
632.67096869545855
 21
278.23130873007642
 31
0.0
  0
LINE
  5
3345
  8
AM_0
 10
497.10296869545851
 20
325.17495873007618
 30
0.0
 11
511.17381869545852
 21
311.24481373007632
 31
0.0
  0
LINE
  5
3346
  8
AM_0
 10
518.96391869545846
 20
281.63664373007617
 30
0.0
 11
568.83846869545846
 21
279.89498873007608
 31
0.0
  0
LINE
  5
3347
  8
AM_0
 10
516.13841869545865
 20
296.31048873007632
 30
0.0
 11
545.13836869545855
 21
296.31048873007632
 31
0.0
  0
ARC
  5
3348
  8
AM_0
 10
519.13836869545855
 20
286.63358873007638
 30
0.0
 40
5.0
 50
179.9999899999988
 51
268.00000999999861
  0
ARC
  5
3349
  8
AM_0
 10
504.1383686954585
 20
304.13827373007632
 30
0.0
 40
10.0
 50
0.0
 51
45.287918000001568
  0
ARC
  5
334A
  8
AM_0
 10
516.13841869545865
 20
298.31050373007628
 30
0.0
 40
2.0000000500000001
 50
179.9999899999988
 51
270.0
  0
LINE
  5
334B
  8
AM_0
 10
547.13841869545865
 20
294.31050373007628
 30
0.0
 11
547.13841869545865
 21
282.58413873007618
 31
0.0
  0
ARC
  5
334C
  8
AM_0
 10
549.13836869545855
 20
282.58413873007618
 30
0.0
 40
2.0000000500000001
 50
179.9999899999988
 51
268.00000999999861
  0
ARC
  5
334D
  8
AM_0
 10
545.13836869545855
 20
294.31050373007628
 30
0.0
 40
2.0000000500000001
 50
0.0
 51
90.00000299999769
  0
LINE
  5
334E
  8
AM_0
 10
516.13841869545865
 20
364.56849873007621
 30
0.0
 11
545.13836869545855
 21
364.56849873007621
 31
0.0
  0
ARC
  5
334F
  8
AM_0
 10
489.1383686954585
 20
336.89497373007617
 30
0.0
 40
5.0
 50
0.0
 51
90.00000299999769
  0
ARC
  5
3350
  8
AM_0
 10
504.1383686954585
 20
332.28147873007612
 30
0.0
 40
10.0
 50
179.9999899999988
 51
225.28791999999751
  0
ARC
  5
3351
  8
AM_0
 10
516.13841869545865
 20
362.56852873007631
 30
0.0
 40
2.0000000500000001
 50
90.00000299999769
 51
180.00001000000091
  0
ARC
  5
3352
  8
AM_0
 10
545.13836869545855
 20
366.56852873007631
 30
0.0
 40
2.0000000500000001
 50
270.0
 51
0.0
  0
LINE
  5
3353
  8
AM_0
 10
632.67096869545855
 20
278.23130873007642
 30
0.0
 11
699.63836869545867
 21
316.89495873007638
 31
0.0
  0
LINE
  5
3354
  8
AM_0
 10
636.01826869545846
 20
331.62545873007628
 30
0.0
 11
682.63836869545855
 21
331.62545873007628
 31
0.0
  0
LINE
  5
3355
  8
AM_0
 10
636.01826869545846
 20
372.25044373007631
 30
0.0
 11
682.63836869545855
 21
372.25044373007631
 31
0.0
  0
ARC
  5
3356
  8
AM_0
 10
636.01826869545846
 20
351.93794373007643
 30
0.0
 40
20.3124945
 50
90.00000299999769
 51
270.0
  0
LINE
  5
3357
  8
AM_0
 10
602.63836869545855
 20
358.33171373007622
 30
0.0
 11
602.63836869545855
 21
344.68171873007623
 31
0.0
  0
ARC
  5
3358
  8
AM_0
 10
599.5575686954586
 20
351.35630873007631
 30
0.0
 40
8.5603475000000007
 50
90.00000299999769
 51
270.0
  0
LINE
  5
3359
  8
AM_0
 10
637.63836869545855
 20
370.0917237300763
 30
0.0
 11
637.63836869545855
 21
333.97172873007628
 31
0.0
  0
LINE
  5
335A
  8
AM_0
 10
599.5575686954586
 20
342.79594373007637
 30
0.0
 11
617.87926869545856
 21
342.79594373007637
 31
0.0
  0
LINE
  5
335B
  8
AM_0
 10
599.5575686954586
 20
359.91664373007632
 30
0.0
 11
617.33836869545848
 21
359.91664373007632
 31
0.0
  0
LINE
  5
335C
  8
AM_0
 10
682.63836869545855
 20
390.11171373007619
 30
0.0
 11
682.63836869545855
 21
319.89497373007617
 31
0.0
  0
LINE
  5
335D
  8
AM_0
 10
707.63836869545855
 20
316.89497373007617
 30
0.0
 11
685.63836869545855
 21
316.89497373007617
 31
0.0
  0
ARC
  5
335E
  8
AM_0
 10
689.63841869545865
 20
355.33610873007609
 30
0.0
 40
2.0000000500000001
 50
270.0
 51
0.0
  0
ARC
  5
335F
  8
AM_0
 10
685.63836869545855
 20
319.89497373007617
 30
0.0
 40
3.0000000500000001
 50
179.9999899999988
 51
270.0
  0
LINE
  5
3360
  8
AM_0
 10
684.63841869545865
 20
353.33610873007609
 30
0.0
 11
689.63841869545865
 21
353.33610873007609
 31
0.0
  0
ARC
  5
3361
  8
AM_0
 10
684.63841869545865
 20
351.33610873007609
 30
0.0
 40
2.0000000500000001
 50
90.00000299999769
 51
180.00001000000091
  0
LINE
  5
3362
  8
AM_0
 10
707.63836869545855
 20
346.89497373007617
 30
0.0
 11
712.63836869545867
 21
346.89497373007617
 31
0.0
  0
ARC
  5
3363
  8
AM_0
 10
689.63841869545865
 20
393.30107373007621
 30
0.0
 40
2.0000000500000001
 50
270.0
 51
0.0
  0
LINE
  5
3364
  8
AM_0
 10
684.63841869545865
 20
391.30107373007621
 30
0.0
 11
689.63841869545865
 21
391.30107373007621
 31
0.0
  0
LINE
  5
3365
  8
AM_0
 10
516.13841869545865
 20
404.83787873007611
 30
0.0
 11
545.13836869545855
 21
404.83787873007611
 31
0.0
  0
ARC
  5
3366
  8
AM_0
 10
516.13841869545865
 20
406.8378487300763
 30
0.0
 40
2.0000000500000001
 50
179.9999899999988
 51
270.0
  0
ARC
  5
3367
  8
AM_0
 10
545.13836869545855
 20
402.8378487300763
 30
0.0
 40
2.0000000500000001
 50
0.0
 51
90.00000299999769
  0
POINT
  5
3368
  8
AM_0
 10
568.8383686954586
 20
453.89497873007622
 30
0.0
  0
POINT
  5
3369
  8
AM_0
 10
568.8383686954586
 20
453.89497873007622
 30
0.0
  0
LINE
  5
336A
  8
AM_0
 10
516.13841869545865
 20
489.94581873007621
 30
0.0
 11
545.13836869545855
 21
489.94581873007621
 31
0.0
  0
LINE
  5
336B
  8
AM_0
 10
516.13841869545865
 20
527.12001373007627
 30
0.0
 11
545.13836869545855
 21
527.12001373007627
 31
0.0
  0
ARC
  5
336C
  8
AM_0
 10
516.13841869545865
 20
487.94581873007621
 30
0.0
 40
2.0000000500000001
 50
90.00000299999769
 51
180.00001000000091
  0
ARC
  5
336D
  8
AM_0
 10
516.13841869545865
 20
529.12001373007615
 30
0.0
 40
2.0000000500000001
 50
179.9999899999988
 51
270.0
  0
ARC
  5
336E
  8
AM_0
 10
489.1383686954585
 20
570.89500873007626
 30
0.0
 40
5.0
 50
270.0
 51
0.0
  0
LINE
  5
336F
  8
AM_0
 10
547.13841869545865
 20
525.12001373007615
 30
0.0
 11
547.13841869545865
 21
491.94581873007633
 31
0.0
  0
ARC
  5
3370
  8
AM_0
 10
545.13836869545855
 20
491.94581873007633
 30
0.0
 40
2.0000000500000001
 50
270.0
 51
0.0
  0
ARC
  5
3371
  8
AM_0
 10
545.13836869545855
 20
525.12001373007615
 30
0.0
 40
2.0000000500000001
 50
0.0
 51
90.00000299999769
  0
POINT
  5
3372
  8
AM_0
 10
569.13836869545855
 20
501.89497873007622
 30
0.0
  0
POINT
  5
3373
  8
AM_0
 10
569.13836869545855
 20
501.89497873007622
 30
0.0
  0
LINE
  5
3374
  8
AM_0
 10
717.63836869545855
 20
534.39497873007633
 30
0.0
 11
717.63836869545855
 21
469.39497873007622
 31
0.0
  0
ARC
  5
3375
  8
AM_0
 10
684.35231869545873
 20
444.65815873007608
 30
0.0
 40
2.0000000500000001
 50
188.80899999999801
 51
270.0
  0
ARC
  5
3376
  8
AM_0
 10
689.63841869545865
 20
440.65818873007618
 30
0.0
 40
2.0000000500000001
 50
0.0
 51
90.00000299999769
  0
LINE
  5
3377
  8
AM_0
 10
684.35231869545873
 20
442.65815873007631
 30
0.0
 11
689.63841869545865
 21
442.65815873007631
 31
0.0
  0
ARC
  5
3378
  8
AM_0
 10
683.63841869545865
 20
443.9579637300763
 30
0.0
 40
1.0
 50
179.9999899999988
 51
224.44399999999951
  0
LINE
  5
3379
  8
AM_0
 10
712.63836869545867
 20
469.39497873007622
 30
0.0
 11
717.63836869545855
 21
469.39497873007622
 31
0.0
  0
LINE
  5
337A
  8
AM_0
 10
712.63836869545867
 20
534.39497873007633
 30
0.0
 11
717.63836869545855
 21
534.39497873007633
 31
0.0
  0
LINE
  5
337B
  8
AM_0
 10
353.63841869545882
 20
603.89497873007645
 30
0.0
 11
370.63841869545882
 21
603.89497873007645
 31
0.0
  0
ARC
  5
337C
  8
AM_0
 10
370.63841869545882
 20
600.89497873007645
 30
0.0
 40
3.0
 50
0.0
 51
90.0
  0
LINE
  5
337D
  8
AM_0
 10
434.63841869545871
 20
573.89497873007633
 30
0.0
 11
445.63836869545878
 21
573.89497873007633
 31
0.0
  0
LINE
  5
337E
  8
AM_0
 10
569.13841869545877
 20
633.89499873007605
 30
0.0
 11
647.8148186954586
 21
635.9551987300764
 31
0.0
  0
CIRCLE
  5
337F
  8
AM_0
 10
529.13836869545855
 20
659.89499873007617
 30
0.0
 40
15.0
  0
ARC
  5
3380
  8
AM_0
 10
529.13836869545855
 20
659.89499873007617
 30
0.0
 40
25.000000499999999
 50
306.46672000000012
 51
233.5332899999996
  0
LINE
  5
3381
  8
AM_0
 10
518.96391869545846
 20
632.14284873007625
 30
0.0
 11
569.13841869545877
 21
633.89499873007605
 31
0.0
  0
LINE
  5
3382
  8
AM_0
 10
516.13841869545865
 20
633.89499873007605
 30
0.0
 11
569.13836869545855
 21
633.89499873007605
 31
0.0
  0
LINE
  5
3383
  8
AM_0
 10
516.13841869545865
 20
607.11324873007607
 30
0.0
 11
545.13836869545855
 21
607.11324873007607
 31
0.0
  0
LINE
  5
3384
  8
AM_0
 10
519.66041869545836
 20
643.01594873007616
 30
0.0
 11
529.13841869545865
 21
644.89489873007642
 31
0.0
  0
LINE
  5
3385
  8
AM_0
 10
519.34436869545846
 20
642.89499873007605
 30
0.0
 11
538.93246869545874
 21
642.89499873007605
 31
0.0
  0
LINE
  5
3386
  8
AM_0
 10
516.13841869545865
 20
623.64254873007633
 30
0.0
 11
545.13836869545855
 21
623.64254873007633
 31
0.0
  0
LINE
  5
3387
  8
AM_0
 10
510.38531869545852
 20
599.89254873007633
 30
0.0
 11
497.8914186954587
 21
589.89739873007625
 31
0.0
  0
ARC
  5
3388
  8
AM_0
 10
504.1383686954585
 20
582.08874873007642
 30
0.0
 40
10.0
 50
128.65980999999641
 51
180.00001000000091
  0
ARC
  5
3389
  8
AM_0
 10
504.1383686954585
 20
607.70119873007604
 30
0.0
 40
10.0
 50
308.65980999999641
 51
0.0
  0
ARC
  5
338A
  8
AM_0
 10
516.13841869545865
 20
605.11329873007605
 30
0.0
 40
2.0000000500000001
 50
90.00000299999769
 51
180.00001000000091
  0
LINE
  5
338B
  8
AM_0
 10
516.63836869545855
 20
633.89499873007605
 30
0.0
 11
518.88886869545865
 21
642.29389873007642
 31
0.0
  0
ARC
  5
338C
  8
AM_0
 10
510.71336869545848
 20
634.96469873007607
 30
0.0
 40
6.0
 50
349.72994999999878
 51
53.533291000000993
  0
ARC
  5
338D
  8
AM_0
 10
516.13841869545865
 20
631.89499873007605
 30
0.0
 40
2.0000000500000001
 50
90.00000299999769
 51
180.00001000000091
  0
ARC
  5
338E
  8
AM_0
 10
519.13836869545855
 20
627.14589873007617
 30
0.0
 40
5.0
 50
91.999998000000545
 51
180.00001000000091
  0
ARC
  5
338F
  8
AM_0
 10
516.13841869545865
 20
625.64254873007633
 30
0.0
 40
2.0000000500000001
 50
179.9999899999988
 51
270.0
  0
ARC
  5
3390
  8
AM_0
 10
519.85481869545879
 20
642.03509873007636
 30
0.0
 40
1.0
 50
101.21328999999869
 51
164.99998999999869
  0
LINE
  5
3391
  8
AM_0
 10
547.13841869545865
 20
621.64254873007633
 30
0.0
 11
547.13841869545865
 21
609.11324873007641
 31
0.0
  0
ARC
  5
3392
  8
AM_0
 10
545.13836869545855
 20
609.11324873007641
 30
0.0
 40
2.0000000500000001
 50
270.0
 51
0.0
  0
LINE
  5
3393
  8
AM_0
 10
541.63841869545865
 20
633.89499873007605
 30
0.0
 11
539.38796869545865
 21
642.29389873007642
 31
0.0
  0
ARC
  5
3394
  8
AM_0
 10
547.56341869545849
 20
634.96469873007607
 30
0.0
 40
6.0
 50
126.46669999999671
 51
190.27005999999909
  0
ARC
  5
3395
  8
AM_0
 10
545.13836869545855
 20
621.64254873007633
 30
0.0
 40
2.0000000500000001
 50
0.0
 51
90.00000299999769
  0
ARC
  5
3396
  8
AM_0
 10
538.42201869545875
 20
642.03509873007636
 30
0.0
 40
1.0
 50
15.000000000000741
 51
78.786710000001207
  0
LINE
  5
3397
  8
AM_0
 10
529.13841869545865
 20
644.89499873007605
 30
0.0
 11
538.61646869545871
 21
643.01599873007615
 31
0.0
  0
LINE
  5
3398
  8
AM_0
 10
654.62416869545871
 20
638.88069873007635
 30
0.0
 11
681.17396869545871
 21
665.43049873007612
 31
0.0
  0
LINE
  5
3399
  8
AM_0
 10
680.27061869545855
 20
642.60754873007625
 30
0.0
 11
624.00621869545876
 21
607.76919873007625
 31
0.0
  0
LINE
  5
339A
  8
AM_0
 10
680.27061869545855
 20
630.64204873007611
 30
0.0
 11
625.33356869545855
 21
596.62554873007605
 31
0.0
  0
LINE
  5
339B
  8
AM_0
 10
626.63836869545855
 20
594.33759873007625
 30
0.0
 11
657.47871869545872
 21
594.33759873007625
 31
0.0
  0
ARC
  5
339C
  8
AM_0
 10
626.63836869545855
 20
599.33759873007637
 30
0.0
 40
5.0
 50
179.9999899999988
 51
270.0
  0
ARC
  5
339D
  8
AM_0
 10
626.63836869545855
 20
603.51814873007618
 30
0.0
 40
5.0
 50
121.7653600000025
 51
180.00001000000091
  0
LINE
  5
339E
  8
AM_0
 10
621.63836869545855
 20
603.51814873007618
 30
0.0
 11
621.63836869545855
 21
599.33759873007637
 31
0.0
  0
ARC
  5
339F
  8
AM_0
 10
647.55306869545871
 20
645.95174873007625
 30
0.0
 40
10.0
 50
271.50000000000261
 51
315.0
  0
LINE
  5
33A0
  8
AM_0
 10
652.5512186954586
 20
636.80779873007634
 30
0.0
 11
654.15801869545874
 21
626.43899873007638
 31
0.0
  0
ARC
  5
33A1
  8
AM_0
 10
689.63841869545865
 20
586.16634873007615
 30
0.0
 40
2.0000000500000001
 50
0.0
 51
90.00000299999769
  0
ARC
  5
33A2
  8
AM_0
 10
657.47871869545872
 20
599.33759873007637
 30
0.0
 40
5.0
 50
270.0
 51
306.61150000000112
  0
LINE
  5
33A3
  8
AM_0
 10
682.63836869545855
 20
588.16634873007615
 30
0.0
 11
689.63841869545865
 21
588.16634873007615
 31
0.0
  0
LINE
  5
33A4
  8
AM_0
 10
682.63836869545855
 20
611.80179873007614
 30
0.0
 11
660.46056869545873
 21
595.32419873007632
 31
0.0
  0
ARC
  5
33A5
  8
AM_0
 10
689.63841869545865
 20
648.45389873007605
 30
0.0
 40
2.0000000500000001
 50
0.0
 51
90.00000299999769
  0
LINE
  5
33A6
  8
AM_0
 10
684.63841869545865
 20
650.45389873007616
 30
0.0
 11
689.63841869545865
 21
650.45389873007616
 31
0.0
  0
ARC
  5
33A7
  8
AM_0
 10
677.63836869545855
 20
646.8585987300761
 30
0.0
 40
5.0
 50
301.7653699999957
 51
0.0
  0
ARC
  5
33A8
  8
AM_0
 10
684.63841869545865
 20
652.45389873007605
 30
0.0
 40
2.0000000500000001
 50
179.9999899999988
 51
270.0
  0
LINE
  5
33A9
  8
AM_0
 10
707.63836869545855
 20
656.89499873007605
 30
0.0
 11
712.63836869545867
 21
656.89499873007605
 31
0.0
  0
LINE
  5
33AA
  8
AM_0
 10
685.63836869545855
 20
686.89499873007605
 30
0.0
 11
707.63836869545855
 21
686.89499873007605
 31
0.0
  0
ARC
  5
33AB
  8
AM_0
 10
677.63836869545855
 20
668.96604873007618
 30
0.0
 40
5.0
 50
315.0
 51
0.0
  0
ARC
  5
33AC
  8
AM_0
 10
685.63836869545855
 20
683.89499873007605
 30
0.0
 40
3.0000000500000001
 50
90.00000299999769
 51
180.00001000000091
  0
LINE
  5
33AD
  8
AM_0
 10
1139.9567294996391
 20
559.69472373007636
 30
0.0
 11
1105.703644499639
 21
593.94784873007632
 31
0.0
  0
LINE
  5
33AE
  8
AM_0
 10
1275.355214499639
 20
559.69472373007636
 30
0.0
 11
1309.608284499639
 21
593.94779873007656
 31
0.0
  0
LINE
  5
33AF
  8
AM_0
 10
1022.655979499639
 20
341.89497373007617
 30
0.0
 11
1022.655979499639
 21
661.89499873007605
 31
0.0
  0
LINE
  5
33B0
  8
AM_0
 10
1265.4557394996391
 20
569.59419873007619
 30
0.0
 11
1299.7088094996391
 21
603.84724873007633
 31
0.0
  0
LINE
  5
33B1
  8
AM_0
 10
1392.655959499639
 20
661.89499873007605
 30
0.0
 11
1392.655959499639
 21
341.89497373007617
 31
0.0
  0
LINE
  5
33B2
  8
AM_0
 10
1149.8562044996379
 20
569.59422873007634
 30
0.0
 11
1115.6031544996381
 21
603.84729873007632
 31
0.0
  0
LINE
  5
33B3
  8
ﾁｭｳｼﾝｾﾝ
 10
1207.655979499639
 20
692.87201197734009
 30
0.0
 11
1207.655979499639
 21
272.98625373007638
 31
0.0
  0
ARC
  5
33B4
  8
AM_0
 10
1207.655979499639
 20
501.89497873007622
 30
0.0
 40
82.0
 50
54.5940669999991
 51
125.40592999999841
  0
ARC
  5
33B5
  8
AM_0
 10
1184.860934499638
 20
509.39619873007632
 30
0.0
 40
112.0
 50
133.04830999999911
 51
169.9999899999988
  0
ARC
  5
33B6
  8
AM_0
 10
1230.4509944996389
 20
509.39619873007632
 30
0.0
 40
112.0
 50
9.9999997000015846
 51
46.951682999999022
  0
ARC
  5
33B7
  8
AM_0
 10
1207.655979499639
 20
501.89497873007622
 30
0.0
 40
146.0
 50
270.0
 51
90.00000299999769
  0
ARC
  5
33B8
  8
AM_0
 10
1207.655979499639
 20
501.89497873007622
 30
0.0
 40
146.0
 50
90.00000299999769
 51
270.0
  0
ARC
  5
33B9
  8
AM_0
 10
1207.655979499639
 20
501.89497873007622
 30
0.0
 40
155.0
 50
270.0
 51
90.00000299999769
  0
ARC
  5
33BA
  8
AM_0
 10
1207.655979499639
 20
501.89497873007622
 30
0.0
 40
155.0
 50
90.00000299999769
 51
270.0
  0
LINE
  5
33BB
  8
ﾁｭｳｼﾝｾﾝ1
 10
1289.6559494996391
 20
453.89497873007622
 30
0.0
 11
1125.6559494996391
 21
453.89497873007622
 31
0.0
  0
ARC
  5
33BC
  8
AM_0
 10
1207.655979499639
 20
501.89497873007622
 30
0.0
 40
65.0
 50
270.0
 51
90.00000299999769
  0
LINE
  5
33BD
  8
AM_0
 10
1145.155979499639
 20
277.80198873007629
 30
0.0
 11
1270.1559644996389
 21
277.80198873007629
 31
0.0
  0
LINE
  5
33BE
  8
AM_0
 10
1367.655969499639
 20
316.89497373007617
 30
0.0
 11
1047.655979499639
 21
316.89497373007617
 31
0.0
  0
LINE
  5
33BF
  8
ﾁｭｳｼﾝｾﾝ
 10
1009.919864499638
 20
501.89497873007622
 30
0.0
 11
1407.0879844996391
 21
501.89497873007622
 31
0.0
  0
ARC
  5
33C0
  8
AM_0
 10
1259.7988494996389
 20
575.25108873007605
 30
0.0
 40
8.0
 50
234.59407000000161
 51
315.0
  0
LINE
  5
33C1
  8
AM_0
 10
822.63841869545865
 20
535.89500873007637
 30
0.0
 11
822.63841869545865
 21
471.89497873007622
 31
0.0
  0
LINE
  5
33C2
  8
AM_0
 10
741.63836869545855
 20
535.89500873007637
 30
0.0
 11
822.63841869545865
 21
535.89500873007637
 31
0.0
  0
LINE
  5
33C3
  8
AM_0
 10
741.63836869545855
 20
535.89500873007637
 30
0.0
 11
741.63836869545855
 21
531.89497873007633
 31
0.0
  0
LINE
  5
33C4
  8
AM_0
 10
1136.924594499638
 20
280.45568873007608
 30
0.0
 11
1101.299869499639
 21
306.09020873007631
 31
0.0
  0
ARC
  5
33C5
  8
AM_0
 10
1207.655979499639
 20
453.89497873007622
 30
0.0
 40
182.0929899999999
 50
228.7954700000013
 51
234.26227999999759
  0
ARC
  5
33C6
  8
AM_0
 10
1047.655979499639
 20
341.89497373007617
 30
0.0
 40
25.000000499999999
 50
179.9999899999988
 51
270.0
  0
LINE
  5
33C7
  8
ﾁｭｳｼﾝｾﾝ1
 10
1033.3541294996389
 20
327.59315373007621
 30
0.0
 11
1063.759739499638
 21
357.99873373007631
 31
0.0
  0
ARC
  5
33C8
  8
ﾁｭｳｼﾝｾﾝ1
 10
1207.655979499639
 20
501.89497873007622
 30
0.0
 40
225.00000499999999
 50
219.5229799999978
 51
230.47702000000189
  0
CIRCLE
  5
33C9
  8
AM_0
 10
1048.556919499639
 20
342.79594373007637
 30
0.0
 40
12.0
  0
ARC
  5
33CA
  8
AM_0
 10
1145.155979499639
 20
291.89497373007617
 30
0.0
 40
14.092999499999999
 50
234.26227999999759
 51
270.0
  0
ARC
  5
33CB
  8
AM_0
 10
1115.6559494996391
 20
491.8949787300761
 30
0.0
 40
10.0
 50
270.0
 51
0.0
  0
ARC
  5
33CC
  8
AM_0
 10
1207.655979499639
 20
501.89497873007622
 30
0.0
 40
82.0
 50
144.59407000000161
 51
180.00001000000091
  0
LINE
  5
33CD
  8
AM_0
 10
1066.307529499639
 20
482.02867373007621
 30
0.0
 11
1074.562474499638
 21
528.84480873007635
 31
0.0
  0
ARC
  5
33CE
  8
AM_0
 10
1067.456119499639
 20
486.89497873007622
 30
0.0
 40
5.0
 50
186.10684999999799
 51
270.0
  0
LINE
  5
33CF
  8
AM_0
 10
1067.456119499639
 20
481.89497873007622
 30
0.0
 11
1115.6559494996391
 21
481.89497873007622
 31
0.0
  0
ARC
  5
33D0
  8
AM_0
 10
1207.655979499639
 20
501.89497873007622
 30
0.0
 40
30.000000499999999
 50
107.45760000000089
 51
72.542383999997952
  0
ARC
  5
33D1
  8
AM_0
 10
1207.655979499639
 20
501.89497873007622
 30
0.0
 40
65.0
 50
90.00000299999769
 51
270.0
  0
LINE
  5
33D2
  8
AM_0
 10
1125.6559494996391
 20
501.89497873007622
 30
0.0
 11
1125.6559494996391
 21
491.8949787300761
 31
0.0
  0
ARC
  5
33D3
  8
AM_0
 10
1155.5130644996391
 20
575.25108873007605
 30
0.0
 40
8.0
 50
225.0
 51
305.40592999999831
  0
ARC
  5
33D4
  8
AM_0
 10
1134.299869499639
 20
554.03789373007635
 30
0.0
 40
8.0
 50
324.59407000000141
 51
45.000001000003799
  0
LINE
  5
33D5
  8
AM_0
 10
1198.6559494996391
 20
535.89500873007637
 30
0.0
 11
1198.6559494996391
 21
524.89497873007633
 31
0.0
  0
LINE
  5
33D6
  8
AM_0
 10
1216.6559794996381
 20
535.89500873007637
 30
0.0
 11
1216.6559794996381
 21
524.89497873007633
 31
0.0
  0
CIRCLE
  5
33D7
  8
AM_5
 10
1207.655979499639
 20
501.89497873007622
 30
0.0
 40
6.0
  0
CIRCLE
  5
33D8
  8
AM_0
 10
1207.655979499639
 20
501.89497873007622
 30
0.0
 40
4.500000049999997
  0
POINT
  5
33D9
  8
AM_0
 10
1207.655979499639
 20
501.89497873007622
 30
0.0
  0
POINT
  5
33DA
  8
AM_0
 10
1207.655979499639
 20
501.89497873007622
 30
0.0
  0
LINE
  5
33DB
  8
AM_0
 10
1198.6559494996391
 20
524.89497873007633
 30
0.0
 11
1216.6559794996381
 21
524.89497873007633
 31
0.0
  0
LINE
  5
33DC
  8
AM_0
 10
1198.6559494996391
 20
535.89500873007637
 30
0.0
 11
1216.6559794996381
 21
535.89500873007637
 31
0.0
  0
ARC
  5
33DD
  8
AM_0
 10
1367.655969499639
 20
341.89497373007617
 30
0.0
 40
25.000000499999999
 50
270.0
 51
0.0
  0
ARC
  5
33DE
  8
AM_0
 10
1207.655979499639
 20
453.89497873007622
 30
0.0
 40
182.0929899999999
 50
305.73772000000218
 51
311.20452999999861
  0
LINE
  5
33DF
  8
AM_0
 10
1278.3873344996391
 20
280.45571873007623
 30
0.0
 11
1314.0120594996381
 21
306.09025873007607
 31
0.0
  0
ARC
  5
33E0
  8
AM_0
 10
1270.1559644996389
 20
291.89497373007617
 30
0.0
 40
14.092999499999999
 50
270.0
 51
305.73772000000218
  0
CIRCLE
  5
33E1
  8
AM_0
 10
1366.754979499638
 20
342.79594373007637
 30
0.0
 40
12.0
  0
LINE
  5
33E2
  8
AM_0
 10
1349.004399499639
 20
482.02867373007621
 30
0.0
 11
1340.7494594996381
 21
528.84480873007635
 31
0.0
  0
ARC
  5
33E3
  8
AM_0
 10
1347.8558244996391
 20
486.89497873007622
 30
0.0
 40
5.0
 50
270.0
 51
353.89315000000181
  0
ARC
  5
33E4
  8
AM_0
 10
1299.6559494996391
 20
491.8949787300761
 30
0.0
 40
10.0
 50
179.9999899999988
 51
270.0
  0
LINE
  5
33E5
  8
AM_0
 10
1347.8558244996391
 20
481.89497873007622
 30
0.0
 11
1299.6559494996391
 21
481.89497873007622
 31
0.0
  0
ARC
  5
33E6
  8
AM_0
 10
1207.655979499639
 20
501.89497873007622
 30
0.0
 40
82.0
 50
0.0
 51
35.405932000002579
  0
LINE
  5
33E7
  8
AM_0
 10
1289.6559494996391
 20
501.89497873007622
 30
0.0
 11
1289.6559494996391
 21
491.8949787300761
 31
0.0
  0
ARC
  5
33E8
  8
AM_0
 10
1281.012059499639
 20
554.03789373007635
 30
0.0
 40
8.0
 50
135.0
 51
215.40592999999831
  0
LINE
  5
33E9
  8
AM_0
 10
1047.655979499639
 20
686.89499873007605
 30
0.0
 11
1367.655969499639
 21
686.89499873007605
 31
0.0
  0
ARC
  5
33EA
  8
AM_0
 10
1207.655979499639
 20
453.89497873007679
 30
0.0
 40
172.0000049999999
 50
58.770287999991858
 51
121.2297100000072
  0
CIRCLE
  5
33EB
  8
AM_0
 10
1048.556919499639
 20
660.99404873007632
 30
0.0
 40
12.0
  0
ARC
  5
33EC
  8
AM_0
 10
1100.046784499639
 20
588.29099873007635
 30
0.0
 40
8.0
 50
45.000001000003799
 51
141.24012999999991
  0
ARC
  5
33ED
  8
AM_0
 10
1121.259984499638
 20
609.50414873007605
 30
0.0
 40
8.0
 50
128.75986999999981
 51
225.0
  0
ARC
  5
33EE
  8
AM_0
 10
1047.655979499639
 20
661.89499873007605
 30
0.0
 40
25.000000499999999
 50
90.00000299999769
 51
180.00001000000091
  0
ARC
  5
33EF
  8
AM_0
 10
1367.655969499639
 20
661.89499873007605
 30
0.0
 40
25.000000499999999
 50
0.0
 51
90.00000299999769
  0
LINE
  5
33F0
  8
ﾁｭｳｼﾝｾﾝ1
 10
1381.957784499639
 20
676.19679873007613
 30
0.0
 11
1348.4752147221329
 21
642.71424287004027
 31
0.0
  0
ARC
  5
33F1
  8
ﾁｭｳｼﾝｾﾝ1
 10
1207.655979499639
 20
501.89497873007622
 30
0.0
 40
225.00000499999999
 50
38.696152999996329
 51
50.477014000001581
  0
CIRCLE
  5
33F2
  8
AM_0
 10
1366.754979499638
 20
660.99404873007632
 30
0.0
 40
12.0
  0
ARC
  5
33F3
  8
AM_0
 10
1315.2651444996391
 20
588.29099873007635
 30
0.0
 40
8.0
 50
38.759868999999149
 51
135.0
  0
ARC
  5
33F4
  8
AM_0
 10
1294.0519294996391
 20
609.50414873007605
 30
0.0
 40
8.0
 50
315.0
 51
51.240129999999972
  0
LINE
  5
33F5
  8
AM_0
 10
373.63845869545878
 20
886.23609151532276
 30
0.0
 11
373.63845869545878
 21
1033.2360915153231
 31
0.0
  0
LINE
  5
33F6
  8
AM_0
 10
353.63845869545878
 20
1183.2360915153231
 30
0.0
 11
353.63845869545878
 21
883.23609151532287
 31
0.0
  0
LINE
  5
33F7
  8
AM_0
 10
353.63845869545878
 20
883.23609151532287
 30
0.0
 11
370.63845869545878
 21
883.23609151532287
 31
0.0
  0
ARC
  5
33F8
  8
AM_0
 10
370.63845869545878
 20
886.23609151532276
 30
0.0
 40
3.0
 50
270.0
 51
0.0
  0
LINE
  5
33F9
  8
AM_0
 10
376.6011736954589
 20
936.55572051532283
 30
0.0
 11
401.37146069545878
 21
947.60758151532309
 31
0.0
  0
LINE
  5
33FA
  8
AM_0
 10
376.6011736954589
 20
920.99937051532299
 30
0.0
 11
401.37146069545878
 21
932.05123251532314
 31
0.0
  0
LINE
  5
33FB
  8
AM_0
 10
434.63845869545872
 20
915.23609145537091
 30
0.0
 11
378.50757469545908
 21
913.76625251532312
 31
0.0
  0
LINE
  5
33FC
  8
AM_0
 10
430.94146669545847
 20
958.70233151532284
 30
0.0
 11
378.50757469545908
 21
957.32930151532321
 31
0.0
  0
ARC
  5
33FD
  8
AM_0
 10
378.63845869545878
 20
916.43324951532304
 30
0.0
 40
5.0
 50
114.0451930000003
 51
180.0
  0
ARC
  5
33FE
  8
AM_0
 10
378.63845869545878
 20
908.76796651532311
 30
0.0
 40
5.0
 50
91.500000000002629
 51
180.0
  0
ARC
  5
33FF
  8
AM_0
 10
378.63845869545878
 20
931.989598515323
 30
0.0
 40
5.0
 50
114.0451930000003
 51
180.0
  0
ARC
  5
3400
  8
AM_0
 10
378.63845869545878
 20
952.33101451532275
 30
0.0
 40
5.0
 50
91.500000000002629
 51
150.7208910000015
  0
LINE
  5
3401
  8
AM_0
 10
432.63845869545878
 20
957.21258451532299
 30
0.0
 11
432.63845869545878
 21
950.06523151532303
 31
0.0
  0
LINE
  5
3402
  8
AM_0
 10
431.63906869545877
 20
949.03033251532315
 30
0.0
 11
403.23424869545829
 21
948.0384135153231
 31
0.0
  0
LINE
  5
3403
  8
AM_0
 10
403.23424869545829
 20
932.48206451532315
 30
0.0
 11
431.63906869545877
 21
933.47398251532309
 31
0.0
  0
ARC
  5
3404
  8
AM_0
 10
403.40874669545889
 20
943.04145951532303
 30
0.0
 40
5.0
 50
92.000000000003666
 51
114.0451930000003
  0
ARC
  5
3405
  8
AM_0
 10
403.40874669545889
 20
927.48511051532284
 30
0.0
 40
5.0
 50
92.000000000003666
 51
114.0451930000003
  0
LINE
  5
3406
  8
AM_0
 10
404.63845869545872
 20
934.51513351532299
 30
0.0
 11
404.63845869545872
 21
945.99533551532284
 31
0.0
  0
LINE
  5
3407
  8
AM_0
 10
431.63906869545877
 20
949.03033251532315
 30
0.0
 11
432.63845869545878
 21
950.06523151532303
 31
0.0
  0
LINE
  5
3408
  8
AM_0
 10
431.63906869545877
 20
933.47398251532309
 30
0.0
 11
432.63845869545878
 21
934.50888251532308
 31
0.0
  0
LINE
  5
3409
  8
AM_0
 10
431.63906869545877
 20
949.03033251532315
 30
0.0
 11
431.63906869545877
 21
933.47398251532309
 31
0.0
  0
LINE
  5
340A
  8
AM_0
 10
432.63845869545878
 20
950.06523151532303
 30
0.0
 11
432.63845869545878
 21
934.50888251532308
 31
0.0
  0
LINE
  5
340B
  8
AM_0
 10
373.63845869545878
 20
1180.2360915153231
 30
0.0
 11
373.63845869545878
 21
1033.2360915153231
 31
0.0
  0
LINE
  5
340C
  8
AM_0
 10
376.6011736954589
 20
1129.916463515322
 30
0.0
 11
401.37146069545878
 21
1118.864602515323
 31
0.0
  0
LINE
  5
340D
  8
AM_0
 10
376.6011736954589
 20
1145.4728125153231
 30
0.0
 11
401.37146069545878
 21
1134.420951515322
 31
0.0
  0
LINE
  5
340E
  8
AM_0
 10
430.94146669545847
 20
1107.769852515323
 30
0.0
 11
378.50757469545908
 21
1109.142882515323
 31
0.0
  0
LINE
  5
340F
  8
AM_0
 10
434.63845869545872
 20
1151.236091575274
 30
0.0
 11
378.50757469545908
 21
1152.705930515323
 31
0.0
  0
ARC
  5
3410
  8
AM_0
 10
378.63845869545878
 20
1114.141168515323
 30
0.0
 40
5.0
 50
209.2791089999985
 51
268.49999999999733
  0
ARC
  5
3411
  8
AM_0
 10
378.63845869545878
 20
1134.4825855153231
 30
0.0
 40
5.0
 50
180.0
 51
245.95480699999951
  0
ARC
  5
3412
  8
AM_0
 10
378.63845869545878
 20
1150.038934515323
 30
0.0
 40
5.0
 50
180.0
 51
245.95480699999951
  0
ARC
  5
3413
  8
AM_0
 10
378.63845869545878
 20
1157.7042175153231
 30
0.0
 40
5.0
 50
180.0
 51
268.49999999999733
  0
LINE
  5
3414
  8
AM_0
 10
353.63845869545878
 20
1183.2360915153231
 30
0.0
 11
370.63845869545878
 21
1183.2360915153231
 31
0.0
  0
ARC
  5
3415
  8
AM_0
 10
370.63845869545878
 20
1180.2360915153231
 30
0.0
 40
3.0
 50
0.0
 51
90.0
  0
LINE
  5
3416
  8
AM_0
 10
431.63906869545877
 20
1117.441851515322
 30
0.0
 11
403.23424869545829
 21
1118.4337695153231
 31
0.0
  0
LINE
  5
3417
  8
AM_0
 10
403.23424869545829
 20
1133.990118515323
 30
0.0
 11
431.63906869545877
 21
1132.9982005153231
 31
0.0
  0
ARC
  5
3418
  8
AM_0
 10
403.40874669545889
 20
1138.987072515323
 30
0.0
 40
5.0
 50
245.95480699999951
 51
267.99999999999631
  0
ARC
  5
3419
  8
AM_0
 10
403.40874669545889
 20
1123.4307235153231
 30
0.0
 40
5.0
 50
245.95480699999951
 51
267.99999999999631
  0
LINE
  5
341A
  8
AM_0
 10
404.63845869545872
 20
1131.957049515323
 30
0.0
 11
404.63845869545872
 21
1120.476848515322
 31
0.0
  0
LINE
  5
341B
  8
AM_0
 10
431.63906869545877
 20
1117.441851515322
 30
0.0
 11
432.63845869545878
 21
1116.406952515322
 31
0.0
  0
LINE
  5
341C
  8
AM_0
 10
432.63845869545878
 20
1116.406952515322
 30
0.0
 11
432.63845869545878
 21
1131.9633015153231
 31
0.0
  0
LINE
  5
341D
  8
AM_0
 10
432.63845869545878
 20
1109.259598515323
 30
0.0
 11
432.63845869545878
 21
1116.406952515322
 31
0.0
  0
LINE
  5
341E
  8
AM_0
 10
431.63906869545877
 20
1132.9982005153231
 30
0.0
 11
432.63845869545878
 21
1131.9633015153231
 31
0.0
  0
LINE
  5
341F
  8
AM_0
 10
431.63906869545877
 20
1117.441851515322
 30
0.0
 11
431.63906869545877
 21
1132.9982005153231
 31
0.0
  0
ARC
  5
3420
  8
ﾁｭｳｼﾝｾﾝ1
 10
1207.6559794996381
 20
501.89497873007622
 30
0.0
 40
225.00000499999999
 50
129.52298599999921
 51
141.3038470000044
  0
LINE
  5
3421
  8
ﾁｭｳｼﾝｾﾝ1
 10
1033.3541744996351
 20
676.19679873007374
 30
0.0
 11
1066.836744277141
 21
642.71424287003845
 31
0.0
  0
ARC
  5
3422
  8
ﾁｭｳｼﾝｾﾝ1
 10
1207.6559794996381
 20
501.89497873007622
 30
0.0
 40
225.00000499999999
 50
309.52297999999882
 51
320.47702000000282
  0
LINE
  5
3423
  8
ﾁｭｳｼﾝｾﾝ1
 10
1381.95782949964
 20
327.59315373007882
 30
0.0
 11
1351.5522194996399
 21
357.9987337300783
 31
0.0
  0
TEXT
  5
3611
  8
AM_0
 10
1053.3435665934969
 20
1077.9397291712919
 30
0.0
 40
20.0
  1
VX55-040AF~VX55-060AF
  0
ENDSEC
  0
EOF
