  0
SECTION
  2
HEADER
  9
$ACADVER
  1
AC1009
  9
$INSBASE
 10
0.0
 20
0.0
 30
0.0
  9
$EXTMIN
 10
308.83201335816648
 20
231.67480518367799
 30
-0.0015258207003583
  9
$EXTMAX
 10
1476.3343012172661
 20
1330.9522437514099
 30
0.0000000349246037
  9
$LIMMIN
 10
0.0
 20
0.0
  9
$LIMMAX
 10
1991.5
 20
1295.0
  9
$ORTHOMODE
 70
     0
  9
$REGENMODE
 70
     1
  9
$FILLMODE
 70
     1
  9
$QTEXTMODE
 70
     0
  9
$MIRRTEXT
 70
     1
  9
$DRAGMODE
 70
     2
  9
$LTSCALE
 40
7.0
  9
$OSMODE
 70
   551
  9
$ATTMODE
 70
     1
  9
$TEXTSIZE
 40
2.5
  9
$TRACEWID
 40
1.0
  9
$TEXTSTYLE
  7
STANDARD
  9
$CLAYER
  8
AM_0
  9
$CELTYPE
  6
BYLAYER
  9
$CECOLOR
 62
   256
  9
$DIMSCALE
 40
1.0
  9
$DIMASZ
 40
2.5
  9
$DIMEXO
 40
1.0
  9
$DIMDLI
 40
8.0
  9
$DIMRND
 40
0.0
  9
$DIMDLE
 40
0.0
  9
$DIMEXE
 40
0.6
  9
$DIMTP
 40
0.1
  9
$DIMTM
 40
0.1
  9
$DIMTXT
 40
2.5
  9
$DIMCEN
 40
0.0
  9
$DIMTSZ
 40
0.0
  9
$DIMTOL
 70
     0
  9
$DIMLIM
 70
     0
  9
$DIMTIH
 70
     0
  9
$DIMTOH
 70
     0
  9
$DIMSE1
 70
     0
  9
$DIMSE2
 70
     0
  9
$DIMTAD
 70
     1
  9
$DIMZIN
 70
     8
  9
$DIMBLK
  1

  9
$DIMASO
 70
     1
  9
$DIMSHO
 70
     1
  9
$DIMPOST
  1

  9
$DIMAPOST
  1
"
  9
$DIMALT
 70
     0
  9
$DIMALTD
 70
     2
  9
$DIMALTF
 40
0.0393701
  9
$DIMLFAC
 40
1.0
  9
$DIMTOFL
 70
     1
  9
$DIMTVP
 40
0.0
  9
$DIMTIX
 70
     0
  9
$DIMSOXD
 70
     0
  9
$DIMSAH
 70
     0
  9
$DIMBLK1
  1

  9
$DIMBLK2
  1

  9
$DIMSTYLE
  2
AM_ISO
  9
$DIMCLRD
 70
   256
  9
$DIMCLRE
 70
   256
  9
$DIMCLRT
 70
     4
  9
$DIMTFAC
 40
0.71
  9
$DIMGAP
 40
0.8
  9
$LUNITS
 70
     2
  9
$LUPREC
 70
     2
  9
$SKETCHINC
 40
1.0
  9
$FILLETRAD
 40
35.0
  9
$AUNITS
 70
     0
  9
$AUPREC
 70
     0
  9
$MENU
  1
.
  9
$ELEVATION
 40
0.0
  9
$PELEVATION
 40
0.0
  9
$THICKNESS
 40
0.0
  9
$LIMCHECK
 70
     0
  9
$BLIPMODE
 70
     0
  9
$CHAMFERA
 40
14.0
  9
$CHAMFERB
 40
7.0
  9
$SKPOLY
 70
     0
  9
$TDCREATE
 40
2452067.3700491898
  9
$TDUPDATE
 40
2458541.5588993062
  9
$TDINDWG
 40
0.1951778125
  9
$TDUSRTIMER
 40
0.1951776273
  9
$USRTIMER
 70
     1
  9
$ANGBASE
 50
0.0
  9
$ANGDIR
 70
     0
  9
$PDMODE
 70
     0
  9
$PDSIZE
 40
0.0
  9
$PLINEWID
 40
0.0
  9
$COORDS
 70
     1
  9
$SPLFRAME
 70
     0
  9
$SPLINETYPE
 70
     6
  9
$SPLINESEGS
 70
     8
  9
$ATTDIA
 70
     1
  9
$ATTREQ
 70
     1
  9
$HANDLING
 70
     1
  9
$HANDSEED
  5
371E
  9
$SURFTAB1
 70
     6
  9
$SURFTAB2
 70
     6
  9
$SURFTYPE
 70
     6
  9
$SURFU
 70
     6
  9
$SURFV
 70
     6
  9
$UCSNAME
  2

  9
$UCSORG
 10
0.0
 20
0.0
 30
0.0
  9
$UCSXDIR
 10
1.0
 20
0.0
 30
0.0
  9
$UCSYDIR
 10
0.0
 20
1.0
 30
0.0
  9
$PUCSNAME
  2

  9
$PUCSORG
 10
0.0
 20
0.0
 30
0.0
  9
$PUCSXDIR
 10
1.0
 20
0.0
 30
0.0
  9
$PUCSYDIR
 10
0.0
 20
1.0
 30
0.0
  9
$USERI1
 70
     0
  9
$USERI2
 70
     0
  9
$USERI3
 70
     0
  9
$USERI4
 70
     0
  9
$USERI5
 70
     0
  9
$USERR1
 40
0.0
  9
$USERR2
 40
0.0
  9
$USERR3
 40
0.0
  9
$USERR4
 40
0.0
  9
$USERR5
 40
0.0
  9
$WORLDVIEW
 70
     1
  9
$SHADEDGE
 70
     3
  9
$SHADEDIF
 70
    70
  9
$TILEMODE
 70
     1
  9
$MAXACTVP
 70
    64
  9
$PLIMCHECK
 70
     0
  9
$PEXTMIN
 10
1.0000000000000000E+020
 20
1.0000000000000000E+020
 30
1.0000000000000000E+020
  9
$PEXTMAX
 10
-1.0000000000000000E+020
 20
-1.0000000000000000E+020
 30
-1.0000000000000000E+020
  9
$PLIMMIN
 10
0.0
 20
0.0
  9
$PLIMMAX
 10
420.0
 20
297.0
  9
$UNITMODE
 70
     0
  9
$VISRETAIN
 70
     1
  9
$PLINEGEN
 70
     0
  9
$PSLTSCALE
 70
     1
  0
ENDSEC
  0
SECTION
  2
TABLES
  0
TABLE
  2
VPORT
 70
     1
  0
VPORT
  2
*ACTIVE
 70
     0
 10
0.0
 20
0.0
 11
1.0
 21
1.0
 12
892.5831572877164
 22
781.31352446754397
 13
0.0
 23
0.0
 14
17.5
 24
17.5
 15
70.0
 25
70.0
 16
0.0
 26
0.0
 36
1.0
 17
0.0
 27
0.0
 37
0.0
 40
1106.8239656059541
 41
1.7571592210767459
 42
50.0
 43
0.0
 44
0.0
 50
0.0
 51
0.0
 71
     0
 72
   100
 73
     1
 74
     3
 75
     0
 76
     0
 77
     0
 78
     0
  0
ENDTAB
  0
TABLE
  2
LTYPE
 70
    26
  0
LTYPE
  2
CONTINUOUS
 70
     0
  3
Solid line
 72
    65
 73
     0
 40
0.0
  0
LTYPE
  2
AM_ISO02W050
 70
     0
  3
__ __ __ __ __ __ __ __ __ __ __ __ __ __ __
 72
    65
 73
     2
 40
7.5
 49
6.0
 49
-1.5
  0
LTYPE
  2
AM_ISO08W050
 70
     0
  3
____ . ____ . ____ . ____ . ____ . ____ . ____
 72
    65
 73
     4
 40
18.0
 49
12.0
 49
-1.5
 49
3.0
 49
-1.5
  0
LTYPE
  2
AM_ISO09W050
 70
     0
  3
_____ . . _____ . . _____ . . ____ .. ____
 72
    65
 73
     6
 40
22.5
 49
12.0
 49
-1.5
 49
3.0
 49
-1.5
 49
3.0
 49
-1.5
  0
LTYPE
  2
AMCONSTR
 70
     0
  3
_______________________
 72
    65
 73
     2
 40
9999.0
 49
9999.0
 49
0.0
  0
LTYPE
  2
AM_ISO08W050X2
 70
     0
  3
__ . __ . __ . __ . __ . __
 72
    65
 73
     4
 40
9.0
 49
6.0
 49
-0.75
 49
1.5
 49
-0.75
  0
LTYPE
  2
AM_ISO02W050X2
 70
     0
  3
 _ _ _ _ _ _ _ _ _ _ _ _
 72
    65
 73
     2
 40
3.75
 49
3.0
 49
-0.75
  0
LTYPE
  2
AMZIGZAG
 70
     0
  3
/\/-/\/-/\/-/\/-/\/-/\/
 72
    65
 73
     2
 40
11.000099999999991
 49
0.0001
 49
-11.0
  0
LTYPE
  2
ACISOWELD
 70
     0
  3
_ _ _ _ _
 72
    65
 73
     2
 40
2.0
 49
2.0
 49
-1.0
  0
LTYPE
  2
ACISOTGB
 70
     0
  3
__ . . __ . .
 72
    65
 73
     6
 40
9.0
 49
4.0
 49
-1.0
 49
1.0
 49
-1.0
 49
1.0
 49
-1.0
  0
LTYPE
  2
ACISOTGL
 70
     0
  3
_ _ _ _ _
 72
    65
 73
     2
 40
3.0
 49
2.0
 49
-1.0
  0
LTYPE
  2
CENTER
 70
     0
  3
__ . __
 72
    65
 73
     4
 40
7.0
 49
4.0
 49
-1.0
 49
1.0
 49
-1.0
  0
LTYPE
  2
PHANTOM2
 70
     0
  3
Phantom (.5x) ___ _ _ ___ _ _ ___ _ _ ___ _ _
 72
    65
 73
     6
 40
31.75
 49
15.875
 49
-3.174999999999998
 49
3.174999999999998
 49
-3.174999999999998
 49
3.174999999999998
 49
-3.174999999999998
  0
LTYPE
  2
ACANSTGBM
 70
     0
  3
__ . . __ . .
 72
    65
 73
     6
 40
9.0
 49
4.0
 49
-1.0
 49
1.0
 49
-1.0
 49
1.0
 49
-1.0
  0
LTYPE
  2
ACANSTGLM
 70
     0
  3
_ _ _ _ _
 72
    65
 73
     2
 40
3.0
 49
2.0
 49
-1.0
  0
LTYPE
  2
GEN7
 70
     0
  3
____ . ____ . ____ . ____ . ____ . ____ . ____
 72
    65
 73
     4
 40
14.25
 49
9.75
 49
-1.5
 49
1.5
 49
-1.5
  0
LTYPE
  2
GEN7A
 70
     0
  3
__ . __ . __
 72
    65
 73
     4
 40
7.375
 49
4.75
 49
-0.875
 49
0.875
 49
-0.875
  0
LTYPE
  2
ACJISTGB
 70
     0
  3
__ . . __ . .
 72
    65
 73
     6
 40
9.0
 49
4.0
 49
-1.0
 49
1.0
 49
-1.0
 49
1.0
 49
-1.0
  0
LTYPE
  2
ACJISTGL
 70
     0
  3
_ _ _ _ _
 72
    65
 73
     2
 40
3.0
 49
2.0
 49
-1.0
  0
LTYPE
  2
HIDDEN
 70
     0
  3
Hidden __ __ __ __ __ __ __ __ __ __ __ __ __ _
 72
    65
 73
     2
 40
0.375
 49
0.25
 49
-0.125
  0
LTYPE
  2
CENTER2
 70
     0
  3
Center (.5x) ___ _ ___ _ ___ _ ___ _ ___ _ ___
 72
    65
 73
     4
 40
1.125
 49
0.75
 49
-0.125
 49
0.125
 49
-0.125
  0
LTYPE
  2
HIDDEN2
 70
     0
  3
Hidden (.5x) _ _ _ _ _ _ _ _ _ _ _ _ _ _ _ _ _
 72
    65
 73
     2
 40
0.1875
 49
0.125
 49
-0.0625
  0
LTYPE
  2
AMZIGZAG2
 70
     0
  3
/\/-/\/-/\/-/\/-/\/-/\/
 72
    65
 73
     2
 40
0.4401
 49
0.0001
 49
-0.4400000000000003
  0
LTYPE
  2
ACANSTGB
 70
     0
  3
__ . . __ . .
 72
    65
 73
     6
 40
0.35433070866
 49
0.15748031496
 49
-0.03937007874
 49
0.03937007874
 49
-0.03937007874
 49
0.03937007874
 49
-0.03937007874
  0
LTYPE
  2
ACANSTGL
 70
     0
  3
_ _ _ _ _
 72
    65
 73
     2
 40
0.11811023622
 49
0.07874015748
 49
-0.03937007874
  0
ENDTAB
  0
TABLE
  2
LAYER
 70
     6
  0
LAYER
  2
0
 70
     0
 62
     7
  6
CONTINUOUS
  0
LAYER
  2
AM_0
 70
     0
 62
     7
  6
CONTINUOUS
  0
LAYER
  2
AM_5
 70
     0
 62
     2
  6
CONTINUOUS
  0
LAYER
  2
DEFPOINTS
 70
     0
 62
     7
  6
CONTINUOUS
  0
LAYER
  2
ﾁｭｳｼﾝｾﾝ
 70
     0
 62
     1
  6
GEN7
  0
LAYER
  2
ﾁｭｳｼﾝｾﾝ1
 70
     0
 62
     1
  6
GEN7A
  0
ENDTAB
  0
TABLE
  2
STYLE
 70
     9
  0
STYLE
  2
STANDARD
 70
     0
 40
0.0
 41
0.8299999999999999
 50
0.0
 71
     0
 42
2.5
  3
txt.shx
  4
bigfont.shx
  0
STYLE
  2
ANNOTATIVE
 70
     0
 40
0.0
 41
1.0
 50
0.0
 71
     0
 42
0.2
  3
txt
  4

  0
STYLE
  2

 70
     1
 40
0.0
 41
1.0
 50
0.0
 71
     0
 42
2.5
  3
ltypeshp.shx
  4

  0
STYLE
  2
ACISOTS
 70
     0
 40
1.0
 41
1.0
 50
0.0
 71
     0
 42
2.5
  3
isocp.shx
  4
extfont.shx
  0
STYLE
  2
ACISOGDT
 70
     0
 40
0.0
 41
1.0
 50
0.0
 71
     0
 42
2.5
  3
amgdt.shx
  4

  0
STYLE
  2
ACANSTS
 70
     0
 40
1.0
 41
1.0
 50
0.0
 71
     0
 42
2.5
  3
romans.shx
  4
bigfont.shx
  0
STYLE
  2
ACANSGDT
 70
     0
 40
0.0
 41
1.0
 50
0.0
 71
     0
 42
2.5
  3
amgdt.shx
  4

  0
STYLE
  2
ACJISTS
 70
     0
 40
1.0
 41
1.0
 50
0.0
 71
     0
 42
2.5
  3
isocp.shx
  4
bigfont.shx
  0
STYLE
  2
ACJISGDT
 70
     0
 40
0.0
 41
1.0
 50
0.0
 71
     0
 42
2.5
  3
amgdt.shx
  4

  0
ENDTAB
  0
TABLE
  2
VIEW
 70
     6
  0
VIEW
  2
AM_VIEW1
 70
     0
 40
647.50000000000011
 10
582.51151012891353
 20
971.25000000000034
 41
1165.0230202578271
 11
0.0
 21
0.0
 31
1.0
 12
0.0
 22
0.0
 32
0.0
 42
50.0
 43
0.0
 44
0.0
 50
0.0
 71
     0
  0
VIEW
  2
AM_VIEW2
 70
     0
 40
647.50000000000011
 10
1408.9884898710859
 20
971.25000000000034
 41
1165.0230202578271
 11
0.0
 21
0.0
 31
1.0
 12
0.0
 22
0.0
 32
0.0
 42
50.0
 43
0.0
 44
0.0
 50
0.0
 71
     0
  0
VIEW
  2
AM_VIEW3
 70
     0
 40
647.50000000000011
 10
582.51151012891353
 20
323.75
 41
1165.0230202578271
 11
0.0
 21
0.0
 31
1.0
 12
0.0
 22
0.0
 32
0.0
 42
50.0
 43
0.0
 44
0.0
 50
0.0
 71
     0
  0
VIEW
  2
AM_VIEW4
 70
     0
 40
647.50000000000011
 10
1408.9884898710859
 20
323.75
 41
1165.0230202578271
 11
0.0
 21
0.0
 31
1.0
 12
0.0
 22
0.0
 32
0.0
 42
50.0
 43
0.0
 44
0.0
 50
0.0
 71
     0
  0
VIEW
  2
AM_VIEW5
 70
     0
 40
647.50000000000011
 10
995.74999999999989
 20
647.50000000000011
 41
1165.0230202578259
 11
0.0
 21
0.0
 31
1.0
 12
0.0
 22
0.0
 32
0.0
 42
50.0
 43
0.0
 44
0.0
 50
0.0
 71
     0
  0
VIEW
  2
AM_VIEW6
 70
     0
 40
1294.98705
 10
995.74999999999989
 20
647.50000000000011
 41
2330.0227400552481
 11
0.0
 21
0.0
 31
1.0
 12
0.0
 22
0.0
 32
0.0
 42
50.0
 43
0.0
 44
0.0
 50
0.0
 71
     0
  0
ENDTAB
  0
TABLE
  2
UCS
 70
     0
  0
ENDTAB
  0
TABLE
  2
APPID
 70
    97
  0
APPID
  2
ACAD
 70
     0
  0
APPID
  2
ACADANNOTATIVE
 70
     0
  0
APPID
  2
ACAD_MLEADERVER
 70
     0
  0
APPID
  2
MCAD_NO_VIS
 70
     0
  0
APPID
  2
ACAD_TEMP_GRAPHIC
 70
     0
  0
APPID
  2
ACATTRIBSERVICES
 70
     0
  0
APPID
  2
GENIUS_GENREC_14
 70
     0
  0
APPID
  2
GENIUS_GENOBJ-N-REC_13
 70
     0
  0
APPID
  2
GENIUS_GENODEF_13
 70
     0
  0
APPID
  2
GENIUS_GENOLIS_13
 70
     0
  0
APPID
  2
GENIUS_GENOBJ-N-TIT_13
 70
     0
  0
APPID
  2
GENIUS_GENOENT_13
 70
     0
  0
APPID
  2
GENIUS_GENTITLE_13
 70
     0
  0
APPID
  2
GENIUS_GENOREF_13
 70
     0
  0
APPID
  2
GENIUS_GENSCREG_15
 70
     0
  0
APPID
  2
GENIUS_GENOBJ-N-SDF_13
 70
     0
  0
APPID
  2
GENIUS_GENFIL_13
 70
     0
  0
APPID
  2
GENIUS_GENOBJ-N-CHA_13
 70
     0
  0
APPID
  2
GENIUS_GENDTOL_13
 70
     0
  0
APPID
  2
GENIUS_GENOBJ-N-FIL_13
 70
     0
  0
APPID
  2
AD_DRAW
 70
     0
  0
APPID
  2
DESIGNERASSEMBLIES
 70
     0
  0
APPID
  2
ASURF_PCURVE_APPNAME
 70
     0
  0
APPID
  2
GENIUS_GE3SECT_13
 70
     0
  0
APPID
  2
GENIUS_GENCFG_13
 70
     0
  0
APPID
  2
GENIUS_GE3CFG0_13
 70
     0
  0
APPID
  2
GENIUS_GENCFG0_13
 70
     0
  0
APPID
  2
GENIUS_GENCFG1_13
 70
     0
  0
APPID
  2
GENIUS_GENCFG2_13
 70
     0
  0
APPID
  2
GENIUS_GENCFG3_13
 70
     0
  0
APPID
  2
GENIUS_GENCFG4_13
 70
     0
  0
APPID
  2
GENIUS_GEVCFG0_13
 70
     0
  0
APPID
  2
GENIUS_GENHINW_13
 70
     0
  0
APPID
  2
GENIUS_FIRSTVISTXT_14
 70
     0
  0
APPID
  2
GENIUS_GENOBJ-N-LEADER_13
 70
     0
  0
APPID
  2
GEV_VCCNULL_SWITCH_OFF
 70
     0
  0
APPID
  2
GENIUS_GEFCFG0_13
 70
     0
  0
APPID
  2
GENIUS_GENZVEED_13
 70
     0
  0
APPID
  2
GENIUS_GENSCREG_13
 70
     0
  0
APPID
  2
GENIUS_DUMCFG0_13
 70
     0
  0
APPID
  2
GEVID936201362
 70
     0
  0
APPID
  2
GEVDC
 70
     0
  0
APPID
  2
GEVCON
 70
     0
  0
APPID
  2
VCC
 70
     0
  0
APPID
  2
GEVPT
 70
     0
  0
APPID
  2
GEVIT
 70
     0
  0
APPID
  2
GENBH
 70
     0
  0
APPID
  2
GEVMK
 70
     0
  0
APPID
  2
GENIUS_GENBH_13
 70
     0
  0
APPID
  2
GENIUS_GENOBJ-NBEHI-BHF_13
 70
     0
  0
APPID
  2
GENIUS_GENOBJ-NBEHI-BHB_13
 70
     0
  0
APPID
  2
GENIUS_GENOBJ-F-DESC_13
 70
     0
  0
APPID
  2
GENIUS_GEFDESC_14
 70
     0
  0
APPID
  2
GENIUS_GENOBJ-F-PART_13
 70
     0
  0
APPID
  2
GENIUS_GEFSTDP_13
 70
     0
  0
APPID
  2
GENIUS_GEFPARTINS_13
 70
     0
  0
APPID
  2
GENIUS_GENTRA_14
 70
     0
  0
APPID
  2
GENIUS_GENINF13_13
 70
     0
  0
APPID
  2
GENIUS_GENOBJ-N-INFOPT_13
 70
     0
  0
APPID
  2
GENIUS_GENOBJ-N-RSSYM_13
 70
     0
  0
APPID
  2
GENIUS_GENSYMENT_13
 70
     0
  0
APPID
  2
GENIUS_GENSCSYM_13
 70
     0
  0
APPID
  2
GENIUS_GEFINFNAM_13
 70
     0
  0
APPID
  2
GENIUS_GENOBJ-N-CEN_13
 70
     0
  0
APPID
  2
GENIUS_GENOBJ-N-CRS_13
 70
     0
  0
APPID
  2
GENIUS_GENOBJ-N-CRC_13
 70
     0
  0
APPID
  2
GENIUS_GENCRC_14
 70
     0
  0
APPID
  2
GEVID942827039
 70
     0
  0
APPID
  2
GEVID942827040
 70
     0
  0
APPID
  2
GEVID942827041
 70
     0
  0
APPID
  2
GENIUS_GENOBJ-F-SCPASSM_13
 70
     0
  0
APPID
  2
GENIUS_GENDIMSH_14
 70
     0
  0
APPID
  2
GEVID942827042
 70
     0
  0
APPID
  2
GEVID946020473
 70
     0
  0
APPID
  2
GEVID946020474
 70
     0
  0
APPID
  2
GEVID946020475
 70
     0
  0
APPID
  2
GENIUS_GENOBJ-N-HTC_13
 70
     0
  0
APPID
  2
GENIUS_GENHATCH_13
 70
     0
  0
APPID
  2
GEVID948854295
 70
     0
  0
APPID
  2
GEVID939402019
 70
     0
  0
APPID
  2
GEVID952919491
 70
     0
  0
APPID
  2
GEVID952919492
 70
     0
  0
APPID
  2
GENIUS_GEFWELD_13
 70
     0
  0
APPID
  2
GENIUS_GENOBJ-F-WELS_13
 70
     0
  0
APPID
  2
GEVID952919493
 70
     0
  0
APPID
  2
GENIUS_GENOBJ-N-RSBK_13
 70
     0
  0
APPID
  2
GENIUS_GENOBJ-N-LIB_13
 70
     0
  0
APPID
  2
GENIUS_GENSCALE_13
 70
     0
  0
APPID
  2
GEVID986376691
 70
     0
  0
APPID
  2
DCO15
 70
     0
  0
APPID
  2
ACADM_DIM_EDIT
 70
     0
  0
APPID
  2
AMDT_DM_ADJ
 70
     0
  0
APPID
  2
ACAD_DSTYLE_DIMBREAK
 70
     0
  0
APPID
  2
ACAD_DSTYLE_DIMJAG
 70
     0
  0
APPID
  2
ACAD_NAV_VCDISPLAY
 70
     0
  0
APPID
  2
ACADANNOPO
 70
     0
  0
APPID
  2
ACAD_EXEMPT_FROM_CAD_STANDARDS
 70
     0
  0
ENDTAB
  0
TABLE
  2
DIMSTYLE
 70
    22
  0
DIMSTYLE
  2
STANDARD
 70
     0
  3

  4

  5

  6

  7

 40
1.0
 41
0.18
 42
0.0625
 43
0.38
 44
0.18
 45
0.0
 46
0.0
 47
0.0
 48
0.0
140
0.18
141
0.09
142
0.0
143
25.399999999999999
144
1.0
145
0.0
146
1.0
147
0.09
 71
     0
 72
     0
 73
     1
 74
     1
 75
     0
 76
     0
 77
     0
 78
     0
170
     0
171
     2
172
     0
173
     0
174
     0
175
     0
176
     0
177
     0
178
     0
  0
DIMSTYLE
  2
ANNOTATIVE
 70
     0
  3

  4

  5

  6

  7

 40
1.0
 41
0.18
 42
0.0625
 43
0.38
 44
0.18
 45
0.0
 46
0.0
 47
0.0
 48
0.0
140
0.18
141
0.09
142
0.0
143
25.399999999999999
144
1.0
145
0.0
146
1.0
147
0.09
 71
     0
 72
     0
 73
     1
 74
     1
 75
     0
 76
     0
 77
     0
 78
     0
170
     0
171
     2
172
     0
173
     0
174
     0
175
     0
176
     0
177
     0
178
     0
  0
DIMSTYLE
  2
AM_ISO
 70
     0
  3

  4
"
  5

  6

  7

 40
1.0
 41
2.5
 42
1.0
 43
8.0
 44
0.6
 45
0.0
 46
0.0
 47
0.1
 48
0.1
140
2.5
141
0.0
142
0.0
143
0.0393701
144
1.0
145
0.0
146
0.71
147
0.8
 71
     0
 72
     0
 73
     0
 74
     0
 75
     0
 76
     0
 77
     1
 78
     8
170
     0
171
     2
172
     1
173
     0
174
     0
175
     0
176
   256
177
   256
178
     4
  0
DIMSTYLE
  2
AM_ISO$3
 70
     0
  3

  4
"
  5

  6

  7

 40
1.0
 41
2.5
 42
1.0
 43
8.0
 44
0.6
 45
0.0
 46
0.0
 47
0.1
 48
0.1
140
2.5
141
0.0
142
0.0
143
0.0393701
144
1.0
145
0.0
146
0.71
147
0.8
 71
     0
 72
     0
 73
     0
 74
     1
 75
     0
 76
     0
 77
     1
 78
     8
170
     0
171
     2
172
     0
173
     0
174
     0
175
     0
176
   256
177
   256
178
     4
  0
DIMSTYLE
  2
AM_ISO$4
 70
     0
  3

  4
"
  5

  6

  7

 40
1.0
 41
2.5
 42
1.0
 43
8.0
 44
0.6
 45
0.0
 46
0.0
 47
0.1
 48
0.1
140
2.5
141
0.0
142
0.0
143
0.0393701
144
1.0
145
0.0
146
0.71
147
0.8
 71
     0
 72
     0
 73
     0
 74
     1
 75
     0
 76
     0
 77
     1
 78
     8
170
     0
171
     2
172
     0
173
     0
174
     0
175
     0
176
   256
177
   256
178
     4
  0
DIMSTYLE
  2
AM_ISO$6
 70
     0
  3

  4
"
  5

  6

  7

 40
1.0
 41
2.5
 42
1.0
 43
8.0
 44
0.6
 45
0.0
 46
0.0
 47
0.1
 48
0.1
140
2.5
141
0.0
142
0.0
143
0.0393701
144
1.0
145
0.0
146
0.71
147
0.8
 71
     0
 72
     0
 73
     0
 74
     0
 75
     0
 76
     0
 77
     0
 78
     8
170
     0
171
     2
172
     1
173
     0
174
     0
175
     0
176
   256
177
   256
178
     4
  0
DIMSTYLE
  2
AM_ISO$7
 70
     0
  3

  4
"
  5

  6

  7

 40
1.0
 41
2.5
 42
1.0
 43
8.0
 44
0.6
 45
0.0
 46
0.0
 47
0.1
 48
0.1
140
2.5
141
0.0
142
0.0
143
0.0393701
144
1.0
145
0.0
146
0.71
147
0.8
 71
     0
 72
     0
 73
     0
 74
     0
 75
     0
 76
     0
 77
     1
 78
     8
170
     0
171
     2
172
     1
173
     0
174
     0
175
     0
176
   256
177
   256
178
     4
  0
DIMSTYLE
  2
AM_ISO$SF
 70
     0
  3

  4
"
  5

  6

  7

 40
1.0
 41
2.5
 42
1.0
 43
10.0
 44
1.0
 45
0.0
 46
0.0
 47
0.1
 48
0.1
140
3.5
141
0.0
142
0.0
143
0.0393701
144
1.0
145
0.0
146
0.71
147
1.5
 71
     0
 72
     0
 73
     0
 74
     0
 75
     1
 76
     1
 77
     1
 78
     8
170
     0
171
     2
172
     1
173
     0
174
     0
175
     0
176
   256
177
   256
178
     2
  0
DIMSTYLE
  2
AM_ISO$SH
 70
     0
  3

  4
"
  5

  6

  7

 40
1.0
 41
2.5
 42
1.0
 43
10.0
 44
1.0
 45
0.0
 46
0.0
 47
0.1
 48
0.1
140
3.5
141
0.0
142
0.0
143
0.0393701
144
2.0
145
0.0
146
0.71
147
1.5
 71
     0
 72
     0
 73
     0
 74
     0
 75
     1
 76
     1
 77
     1
 78
     8
170
     0
171
     2
172
     1
173
     1
174
     0
175
     0
176
   256
177
   256
178
     2
  0
DIMSTYLE
  2
AM_JIS
 70
     0
  3

  4
"
  5

  6

  7

 40
1.0
 41
2.5
 42
1.0
 43
7.0
 44
1.0
 45
0.0
 46
0.0
 47
0.1
 48
0.1000000001
140
2.5
141
0.0
142
0.0
143
0.0393701
144
1.0
145
0.0
146
0.71
147
1.0
 71
     0
 72
     0
 73
     0
 74
     0
 75
     0
 76
     0
 77
     3
 78
     8
170
     0
171
     2
172
     1
173
     0
174
     0
175
     0
176
   256
177
   256
178
     4
  0
DIMSTYLE
  2
AM_JIS$3
 70
     0
  3

  4
"
  5

  6

  7

 40
1.0
 41
2.5
 42
1.0
 43
7.0
 44
1.0
 45
0.0
 46
0.0
 47
0.1
 48
0.1000000001
140
2.5
141
0.0
142
0.0
143
0.0393701
144
1.0
145
0.0
146
0.71
147
1.0
 71
     0
 72
     0
 73
     0
 74
     1
 75
     0
 76
     0
 77
     3
 78
     8
170
     0
171
     2
172
     0
173
     0
174
     0
175
     0
176
   256
177
   256
178
     4
  0
DIMSTYLE
  2
AM_JIS$4
 70
     0
  3

  4
"
  5

  6

  7

 40
1.0
 41
2.5
 42
1.0
 43
7.0
 44
1.0
 45
0.0
 46
0.0
 47
0.1
 48
0.1000000001
140
2.5
141
0.0
142
0.0
143
0.0393701
144
1.0
145
0.0
146
0.71
147
1.0
 71
     0
 72
     0
 73
     0
 74
     0
 75
     0
 76
     0
 77
     3
 78
     8
170
     0
171
     2
172
     0
173
     0
174
     0
175
     0
176
   256
177
   256
178
     4
  0
DIMSTYLE
  2
AM_JIS$6
 70
     0
  3

  4
"
  5

  6

  7

 40
1.0
 41
2.5
 42
1.0
 43
7.0
 44
1.0
 45
0.0
 46
0.0
 47
0.1
 48
0.1000000001
140
2.5
141
0.0
142
0.0
143
0.0393701
144
1.0
145
0.0
146
0.71
147
1.0
 71
     0
 72
     0
 73
     0
 74
     0
 75
     0
 76
     0
 77
     0
 78
     8
170
     0
171
     2
172
     1
173
     0
174
     0
175
     0
176
   256
177
   256
178
     4
  0
DIMSTYLE
  2
AM_JIS$7
 70
     0
  3

  4
"
  5

  6

  7

 40
1.0
 41
2.5
 42
1.0
 43
7.0
 44
1.0
 45
0.0
 46
0.0
 47
0.1
 48
0.1000000001
140
2.5
141
0.0
142
0.0
143
0.0393701
144
1.0
145
0.0
146
0.71
147
1.0
 71
     0
 72
     0
 73
     0
 74
     0
 75
     0
 76
     0
 77
     3
 78
     8
170
     0
171
     2
172
     1
173
     0
174
     0
175
     0
176
   256
177
   256
178
     4
  0
DIMSTYLE
  2
AM_JIS$SF
 70
     0
  3

  4
"
  5

  6

  7

 40
1.0
 41
2.5
 42
1.0
 43
10.0
 44
1.0
 45
0.0
 46
0.0
 47
0.1
 48
0.1
140
3.5
141
0.0
142
0.0
143
0.0393701
144
1.0
145
0.0
146
0.71
147
1.5
 71
     0
 72
     0
 73
     0
 74
     0
 75
     1
 76
     1
 77
     3
 78
     8
170
     0
171
     2
172
     1
173
     0
174
     0
175
     0
176
   256
177
   256
178
     4
  0
DIMSTYLE
  2
AM_JIS$SH
 70
     0
  3

  4
"
  5

  6

  7

 40
1.0
 41
2.5
 42
1.0
 43
10.0
 44
1.0
 45
0.0
 46
0.0
 47
0.1
 48
0.1
140
3.5
141
0.0
142
0.0
143
0.0393701
144
1.0
145
0.0
146
0.71
147
1.5
 71
     0
 72
     0
 73
     0
 74
     0
 75
     1
 76
     0
 77
     3
 78
     8
170
     0
171
     2
172
     1
173
     1
174
     0
175
     0
176
   256
177
   256
178
     4
  0
DIMSTYLE
  2
AM_ANSI
 70
     0
  3

  4
mm
  5

  6

  7

 40
1.0
 41
0.1
 42
0.05
 43
0.5
 44
0.1
 45
0.0
 46
0.0
 47
0.1
 48
0.1
140
0.12
141
0.0
142
0.0
143
25.399999999999999
144
1.0
145
0.0
146
0.71
147
0.06
 71
     0
 72
     0
 73
     1
 74
     1
 75
     0
 76
     0
 77
     0
 78
     7
170
     0
171
     2
172
     0
173
     0
174
     0
175
     0
176
   256
177
   256
178
     2
  0
DIMSTYLE
  2
AM_ANSI$3
 70
     0
  3

  4
mm
  5

  6

  7

 40
1.0
 41
0.1
 42
0.05
 43
0.5
 44
0.1
 45
0.0
 46
0.0
 47
0.1
 48
0.1
140
0.12
141
0.0
142
0.0
143
25.399999999999999
144
1.0
145
0.0
146
0.71
147
0.06
 71
     0
 72
     0
 73
     1
 74
     1
 75
     0
 76
     0
 77
     0
 78
     7
170
     0
171
     2
172
     0
173
     0
174
     0
175
     0
176
   256
177
   256
178
     2
  0
DIMSTYLE
  2
AM_ANSI$4
 70
     0
  3

  4
mm
  5

  6

  7

 40
1.0
 41
0.1
 42
0.05
 43
0.5
 44
0.1
 45
0.0
 46
0.0
 47
0.1
 48
0.1
140
0.12
141
0.0
142
0.0
143
25.399999999999999
144
1.0
145
0.0
146
0.71
147
0.06
 71
     0
 72
     0
 73
     1
 74
     1
 75
     0
 76
     0
 77
     0
 78
     7
170
     0
171
     2
172
     0
173
     0
174
     0
175
     0
176
   256
177
   256
178
     2
  0
DIMSTYLE
  2
AM_ANSI$7
 70
     0
  3

  4
mm
  5

  6

  7

 40
1.0
 41
0.1
 42
0.05
 43
0.5
 44
0.1
 45
0.0
 46
0.0
 47
0.1
 48
0.1
140
0.24
141
0.0
142
0.0
143
25.399999999999999
144
1.0
145
0.0
146
0.71
147
0.06
 71
     0
 72
     0
 73
     1
 74
     1
 75
     0
 76
     0
 77
     0
 78
     7
170
     0
171
     2
172
     0
173
     0
174
     0
175
     0
176
   256
177
   256
178
     2
  0
DIMSTYLE
  2
AM_ANSI$SF
 70
     0
  3

  4
mm
  5

  6

  7

 40
1.0
 41
0.1
 42
0.05
 43
0.5
 44
0.1
 45
0.0
 46
0.0
 47
0.1
 48
0.1
140
0.12
141
0.0
142
0.0
143
25.399999999999999
144
1.0
145
0.0
146
0.71
147
0.06
 71
     0
 72
     0
 73
     1
 74
     1
 75
     1
 76
     1
 77
     0
 78
     7
170
     0
171
     2
172
     0
173
     0
174
     0
175
     0
176
   256
177
   256
178
     2
  0
DIMSTYLE
  2
AM_ANSI$SH
 70
     0
  3

  4
mm
  5

  6

  7

 40
1.0
 41
0.1
 42
0.05
 43
0.5
 44
0.1
 45
0.0
 46
0.0
 47
0.1
 48
0.1
140
0.12
141
0.0
142
0.0
143
25.399999999999999
144
1.0
145
0.0
146
0.71
147
0.06
 71
     0
 72
     0
 73
     1
 74
     1
 75
     1
 76
     1
 77
     0
 78
     7
170
     0
171
     2
172
     0
173
     1
174
     0
175
     0
176
   256
177
   256
178
     2
  0
ENDTAB
  0
ENDSEC
  0
SECTION
  2
BLOCKS
  0
BLOCK
  8
0
  2
$MODEL_SPACE
 70
     0
 10
0.0
 20
0.0
 30
0.0
  3
$MODEL_SPACE
  1

  0
ENDBLK
  5
34ED
  8
0
  0
BLOCK
 67
     1
  8
0
  2
$PAPER_SPACE
 70
     0
 10
0.0
 20
0.0
 30
0.0
  3
$PAPER_SPACE
  1

  0
ENDBLK
  5
34E9
 67
     1
  8
0
  0
BLOCK
  8
0
  2
GENAXEH
 70
     0
 10
0.0
 20
0.0
 30
0.0
  3
GENAXEH
  1

  0
LINE
  5
3253
  8
0
 10
-1.0
 20
0.0
 30
0.0
 11
1.0
 21
0.0
 31
0.0
  0
ENDBLK
  5
3254
  8
0
  0
BLOCK
  8
0
  2
_OPEN30
 70
     0
 10
0.0
 20
0.0
 30
0.0
  3
_OPEN30
  1

  0
LINE
  5
3257
  8
0
 62
     0
 10
-1.0
 20
0.26794919
 30
0.0
 11
0.0
 21
0.0
 31
0.0
  0
LINE
  5
3258
  8
0
 62
     0
 10
0.0
 20
0.0
 30
0.0
 11
-1.0
 21
-0.26794919
 31
0.0
  0
LINE
  5
3259
  8
0
 62
     0
 10
0.0
 20
0.0
 30
0.0
 11
-1.0
 21
0.0
 31
0.0
  0
ENDBLK
  5
325A
  8
0
  0
BLOCK
  8
0
  2
_NONE
 70
     0
 10
0.0
 20
0.0
 30
0.0
  3
_NONE
  1

  0
ENDBLK
  5
325D
  8
0
  0
BLOCK
  8
0
  2
_ACMFILLEDHALF
 70
     0
 10
0.0
 20
0.0
 30
0.0
  3
_ACMFILLEDHALF
  1

  0
TRACE
  5
36A6
  8
AM_0
 62
     0
 10
-0.8
 20
0.0
 30
0.0
 11
-1.0
 21
0.166666666
 31
0.0
 12
0.0
 22
0.0
 32
0.0
 13
0.0
 23
0.0
 33
0.0
  0
LINE
  5
36A7
  8
AM_0
 62
     0
 10
-1.0
 20
0.0
 30
0.0
 11
-0.8
 21
0.0
 31
0.0
  0
ENDBLK
  5
36A5
  8
0
  0
ENDSEC
  0
SECTION
  2
ENTITIES
  0
LINE
  5
325F
  8
AM_0
 10
739.22333404809615
 20
1090.911624453116
 30
0.0
 11
824.22333404809615
 21
1090.911624453116
 31
0.0
  0
LINE
  5
3260
  8
AM_0
 10
824.22333404809615
 20
1110.911624453116
 30
0.0
 11
739.22333404809615
 21
1110.911624453116
 31
0.0
  0
LINE
  5
3261
  8
AM_0
 10
824.22333404809615
 20
1065.911624453116
 30
0.0
 11
714.22333404809615
 21
1065.911624453116
 31
0.0
  0
LINE
  5
3262
  8
AM_0
 10
714.22333404809615
 20
1135.9116244531151
 30
0.0
 11
824.22333404809615
 21
1135.9116244531151
 31
0.0
  0
LINE
  5
3263
  8
ﾁｭｳｼﾝｾﾝ
 10
828.93061404809612
 20
1100.911624453116
 30
0.0
 11
308.85931383219241
 21
1100.911624453116
 31
0.0
  0
ARC
  5
3264
  8
AM_0
 10
505.22332404809578
 20
1100.911624453116
 30
0.0
 40
20.0
 50
198.2099599999984
 51
341.79004000000128
  0
ARC
  5
3265
  8
AM_0
 10
505.22332404809578
 20
1100.911624453116
 30
0.0
 40
15.0
 50
204.6243199999974
 51
335.37568000000249
  0
LINE
  5
3266
  8
AM_0
 10
670.22333404809615
 20
878.45428445311666
 30
0.0
 11
670.22333404809615
 21
1323.369024453116
 31
0.0
  0
LINE
  5
3267
  8
AM_0
 10
670.22333404809615
 20
1323.369024453116
 30
0.0
 11
670.22333404809615
 21
878.45428445311666
 31
0.0
  0
LINE
  5
3268
  8
AM_0
 10
708.22333404809615
 20
905.91162445311681
 30
0.0
 11
708.22333404809615
 21
1295.911624453116
 31
0.0
  0
LINE
  5
3269
  8
AM_0
 10
681.22333404809615
 20
1263.5379244531171
 30
0.0
 11
681.22333404809615
 21
938.28522445311705
 31
0.0
  0
LINE
  5
326A
  8
AM_0
 10
702.22333404809615
 20
1330.911624453116
 30
0.0
 11
702.22333404809615
 21
870.91162445311704
 31
0.0
  0
LINE
  5
326B
  8
AM_0
 10
714.22333404809615
 20
1138.411624453116
 30
0.0
 11
714.22333404809615
 21
1063.4116244531151
 31
0.0
  0
LINE
  5
326C
  8
AM_0
 10
460.72332404809617
 20
1217.665724453117
 30
0.0
 11
460.72332404809617
 21
986.7261944531167
 31
0.0
  0
LINE
  5
326D
  8
AM_0
 10
402.72332404809617
 20
983.9116244531167
 30
0.0
 11
402.72332404809617
 21
1100.911624453116
 31
0.0
  0
LINE
  5
326E
  8
AM_0
 10
415.72332404809612
 20
983.9116244531167
 30
0.0
 11
415.72332404809612
 21
1100.911624453116
 31
0.0
  0
LINE
  5
326F
  8
AM_0
 10
527.22333404809615
 20
911.91162445311681
 30
0.0
 11
527.22333404809615
 21
1094.6616244531151
 31
0.0
  0
LINE
  5
3270
  8
AM_0
 10
460.72332404809617
 20
1225.911624453116
 30
0.0
 11
460.72332404809617
 21
975.91162445311693
 31
0.0
  0
LINE
  5
3271
  8
AM_0
 10
527.22333404809615
 20
933.9116244531167
 30
0.0
 11
662.42579404809612
 21
931.55170445311671
 31
0.0
  0
LINE
  5
3272
  8
AM_0
 10
514.17102404809611
 20
912.1394644531166
 30
0.0
 11
658.43281404809613
 21
909.62140445311672
 31
0.0
  0
LINE
  5
3273
  8
AM_0
 10
527.22333404809615
 20
1044.223694453116
 30
0.0
 11
658.43274404809608
 21
1046.5139844531161
 31
0.0
  0
LINE
  5
3274
  8
AM_0
 10
527.22333404809615
 20
1015.434084453117
 30
0.0
 11
658.43274404809608
 21
1013.143804453116
 31
0.0
  0
LINE
  5
3275
  8
AM_0
 10
527.22333404809615
 20
948.48089445311666
 30
0.0
 11
645.50055404809621
 21
945.38367445311678
 31
0.0
  0
LINE
  5
3276
  8
AM_0
 10
514.14472404809612
 20
925.01684445311673
 30
0.0
 11
665.35419404809613
 21
921.05731445311642
 31
0.0
  0
ARC
  5
3277
  8
AM_0
 10
470.723324048096
 20
975.91162445311693
 30
0.0
 40
10.0
 50
179.9999899999988
 51
270.0
  0
LINE
  5
3278
  8
AM_0
 10
403.723324048096
 20
982.9116244531167
 30
0.0
 11
414.72332404809617
 21
982.9116244531167
 31
0.0
  0
LINE
  5
3279
  8
AM_0
 10
402.72332404809617
 20
983.911684453117
 30
0.0
 11
403.723324048096
 21
982.91168445311723
 31
0.0
  0
LINE
  5
327A
  8
AM_0
 10
416.23212404809578
 20
984.90277445311676
 30
0.0
 11
456.7931240480961
 21
984.1947644531167
 31
0.0
  0
ARC
  5
327B
  8
AM_0
 10
416.223324048096
 20
984.40283445311672
 30
0.0
 40
0.5
 50
89.000001000002214
 51
180.00001000000091
  0
ARC
  5
327C
  8
AM_0
 10
414.72332404809617
 20
983.9116244531167
 30
0.0
 40
1.0
 50
270.0
 51
0.0
  0
ARC
  5
327D
  8
AM_0
 10
456.72332404809617
 20
980.19537445311676
 30
0.0
 40
4.0
 50
0.0
 51
89.000001000002214
  0
LINE
  5
327E
  8
AM_0
 10
403.70222404809579
 20
1026.474674453116
 30
0.0
 11
414.73112404809598
 21
1026.474674453116
 31
0.0
  0
LINE
  5
327F
  8
AM_0
 10
402.72332404809617
 20
1016.740784453115
 30
0.0
 11
413.72332404809572
 21
1016.740784453115
 31
0.0
  0
LINE
  5
3280
  8
AM_0
 10
402.72332404809617
 20
1001.184454453116
 30
0.0
 11
413.72332404809572
 21
1001.184454453116
 31
0.0
  0
LINE
  5
3281
  8
AM_0
 10
415.72332404809612
 20
1029.079224453116
 30
0.0
 11
460.72332404809617
 21
1029.079224453116
 31
0.0
  0
LINE
  5
3282
  8
AM_0
 10
415.72332404809612
 20
1009.828674453115
 30
0.0
 11
460.72332404809617
 21
1009.828674453115
 31
0.0
  0
ARC
  5
3283
  8
AM_0
 10
413.72332404809572
 20
1003.184454453116
 30
0.0
 40
2.0
 50
270.0
 51
0.0
  0
ARC
  5
3284
  8
AM_0
 10
413.72332404809572
 20
1018.740784453115
 30
0.0
 40
2.0
 50
270.0
 51
0.0
  0
LINE
  5
3285
  8
AM_0
 10
511.223324048096
 20
1072.983124453116
 30
0.0
 11
511.223324048096
 21
915.13898445311702
 31
0.0
  0
LINE
  5
3286
  8
AM_0
 10
514.22332404809595
 20
933.9116244531167
 30
0.0
 11
527.22333404809615
 21
933.9116244531167
 31
0.0
  0
LINE
  5
3287
  8
AM_0
 10
514.22332404809595
 20
948.48089445311666
 30
0.0
 11
527.22333404809615
 21
948.48089445311666
 31
0.0
  0
ARC
  5
3288
  8
AM_0
 10
514.22332404809595
 20
915.13898445311702
 30
0.0
 40
3.0
 50
179.9999899999988
 51
269.0000099999981
  0
ARC
  5
3289
  8
AM_0
 10
514.22332404809595
 20
928.01587445311668
 30
0.0
 40
3.0
 50
179.9999899999988
 51
268.50000999999878
  0
ARC
  5
328A
  8
AM_0
 10
514.22332404809595
 20
936.91162445311681
 30
0.0
 40
3.0
 50
179.9999899999988
 51
270.0
  0
LINE
  5
328B
  8
AM_0
 10
470.723324048096
 20
965.9116244531167
 30
0.0
 11
507.22332404809617
 21
965.9116244531167
 31
0.0
  0
ARC
  5
328C
  8
AM_0
 10
507.22332404809617
 20
961.91162445311681
 30
0.0
 40
4.0
 50
0.0
 51
90.00000299999769
  0
ARC
  5
328D
  8
AM_0
 10
514.22332404809595
 20
951.48089445311678
 30
0.0
 40
3.0
 50
179.9999899999988
 51
270.0
  0
LINE
  5
328E
  8
AM_0
 10
511.223324048096
 20
1015.911624453117
 30
0.0
 11
527.22333404809615
 21
1015.911624453117
 31
0.0
  0
LINE
  5
328F
  8
AM_0
 10
527.22333404809615
 20
1044.223754453116
 30
0.0
 11
511.223324048096
 21
1044.223754453116
 31
0.0
  0
ARC
  5
3290
  8
AM_0
 10
503.22332404809612
 20
1072.983124453116
 30
0.0
 40
8.0
 50
0.0
 51
85.903958999999659
  0
LINE
  5
3291
  8
AM_0
 10
702.22333404809615
 20
870.91162445311704
 30
0.0
 11
682.22333404809615
 21
870.91162445311704
 31
0.0
  0
LINE
  5
3292
  8
AM_0
 10
680.22333404809615
 20
873.45428445311666
 30
0.0
 11
675.22333404809615
 21
873.45428445311666
 31
0.0
  0
ARC
  5
3293
  8
AM_0
 10
675.22333404809615
 20
878.45428445311666
 30
0.0
 40
5.0
 50
179.9999899999988
 51
270.0
  0
ARC
  5
3294
  8
AM_0
 10
682.22333404809615
 20
871.91162445311704
 30
0.0
 40
1.0
 50
179.9999899999988
 51
270.0
  0
ARC
  5
3295
  8
AM_0
 10
680.22333404809615
 20
872.45428445311666
 30
0.0
 40
1.0
 50
0.0
 51
90.00000299999769
  0
LINE
  5
3296
  8
AM_0
 10
681.22333404809615
 20
871.91162445311704
 30
0.0
 11
681.22333404809615
 21
872.45428445311666
 31
0.0
  0
LINE
  5
3297
  8
AM_0
 10
628.43744404809615
 20
969.97284445311675
 30
0.0
 11
662.48945404809615
 21
969.97284445311675
 31
0.0
  0
LINE
  5
3298
  8
AM_0
 10
624.77790404809616
 20
962.3190944531168
 30
0.0
 11
670.22333404809615
 21
925.17926445311684
 31
0.0
  0
LINE
  5
3299
  8
AM_0
 10
624.77790404809616
 20
969.97284445311675
 30
0.0
 11
670.22333404809615
 21
932.17926445311684
 31
0.0
  0
ARC
  5
329A
  8
AM_0
 10
658.22333404809615
 20
897.62317445311714
 30
0.0
 40
12.0
 50
0.0
 51
89.000001000002214
  0
LINE
  5
329B
  8
AM_0
 10
670.22333404809615
 20
934.28522445311671
 30
0.0
 11
677.22333404809615
 21
934.28522445311671
 31
0.0
  0
ARC
  5
329C
  8
AM_0
 10
665.22333404809615
 20
916.05902445311619
 30
0.0
 40
5.0
 50
0.0
 51
88.499997000000647
  0
ARC
  5
329D
  8
AM_0
 10
677.22333404809615
 20
938.28522445311705
 30
0.0
 40
4.0
 50
270.0
 51
0.0
  0
ARC
  5
329E
  8
AM_0
 10
665.22333404809615
 20
964.97284445311675
 30
0.0
 40
5.0
 50
0.0
 51
90.00000299999769
  0
ARC
  5
329F
  8
AM_0
 10
658.22333404809615
 20
1001.145634453115
 30
0.0
 40
12.0
 50
0.0
 51
89.000001000002214
  0
LINE
  5
32A0
  8
AM_0
 10
670.22333404809615
 20
995.68780445311643
 30
0.0
 11
677.22333404809615
 21
995.68780445311643
 31
0.0
  0
ARC
  5
32A1
  8
AM_0
 10
658.22333404809615
 20
1058.512124453116
 30
0.0
 40
12.0
 50
271.00000000000171
 51
0.0
  0
LINE
  5
32A2
  8
AM_0
 10
702.22333404809615
 20
905.91162445311681
 30
0.0
 11
708.22333404809615
 21
905.91162445311681
 31
0.0
  0
LINE
  5
32A3
  8
AM_0
 10
708.22333404809615
 20
1063.4116244531151
 30
0.0
 11
714.22333404809615
 21
1063.4116244531151
 31
0.0
  0
LINE
  5
32A4
  8
AM_0
 10
527.22333404809615
 20
1186.389124453116
 30
0.0
 11
658.43274404809608
 21
1188.679424453117
 31
0.0
  0
LINE
  5
32A5
  8
AM_0
 10
527.22333404809615
 20
1157.599524453115
 30
0.0
 11
658.43281404809613
 21
1155.309224453116
 31
0.0
  0
LINE
  5
32A6
  8
AM_0
 10
514.14482404809598
 20
1276.8063244531161
 30
0.0
 11
665.35419404809613
 21
1280.765824453116
 31
0.0
  0
LINE
  5
32A7
  8
AM_0
 10
527.22333404809615
 20
1253.342424453117
 30
0.0
 11
645.50055404809621
 21
1256.439624453116
 31
0.0
  0
LINE
  5
32A8
  8
AM_0
 10
514.17092404809614
 20
1289.683824453115
 30
0.0
 11
658.43274404809608
 21
1292.201924453117
 31
0.0
  0
LINE
  5
32A9
  8
AM_0
 10
527.22333404809615
 20
1267.911624453116
 30
0.0
 11
662.42585404809574
 21
1270.271524453115
 31
0.0
  0
ARC
  5
32AA
  8
AM_0
 10
470.723324048096
 20
1225.911624453116
 30
0.0
 40
10.0
 50
90.00000299999769
 51
180.00001000000091
  0
LINE
  5
32AB
  8
AM_0
 10
402.72332404809617
 20
1217.911624453116
 30
0.0
 11
402.72332404809617
 21
1100.911624453116
 31
0.0
  0
LINE
  5
32AC
  8
AM_0
 10
415.72332404809612
 20
1217.911624453116
 30
0.0
 11
415.72332404809612
 21
1100.911624453116
 31
0.0
  0
LINE
  5
32AD
  8
AM_0
 10
402.72332404809617
 20
1185.082524453117
 30
0.0
 11
413.72332404809572
 21
1185.082524453117
 31
0.0
  0
LINE
  5
32AE
  8
AM_0
 10
403.70222404809579
 20
1175.3486244531171
 30
0.0
 11
414.73112404809598
 21
1175.3486244531171
 31
0.0
  0
LINE
  5
32AF
  8
AM_0
 10
415.72332404809612
 20
1172.744024453116
 30
0.0
 11
460.72332404809617
 21
1172.744024453116
 31
0.0
  0
ARC
  5
32B0
  8
AM_0
 10
413.72332404809572
 20
1183.0825244531161
 30
0.0
 40
2.0
 50
0.0
 51
90.00000299999769
  0
LINE
  5
32B1
  8
AM_0
 10
403.723324048096
 20
1218.911624453116
 30
0.0
 11
414.72332404809617
 21
1218.911624453116
 31
0.0
  0
LINE
  5
32B2
  8
AM_0
 10
402.72332404809617
 20
1200.638924453116
 30
0.0
 11
413.72332404809572
 21
1200.638924453116
 31
0.0
  0
LINE
  5
32B3
  8
AM_0
 10
402.72332404809617
 20
1217.911624453116
 30
0.0
 11
403.723324048096
 21
1218.911624453116
 31
0.0
  0
LINE
  5
32B4
  8
AM_0
 10
416.23212404809578
 20
1216.9205244531161
 30
0.0
 11
455.81062404809597
 21
1217.611324453117
 31
0.0
  0
LINE
  5
32B5
  8
AM_0
 10
415.72332404809612
 20
1191.9946244531161
 30
0.0
 11
460.72332404809617
 21
1191.9946244531161
 31
0.0
  0
ARC
  5
32B6
  8
AM_0
 10
413.72332404809572
 20
1198.638924453116
 30
0.0
 40
2.0
 50
0.0
 51
90.00000299999769
  0
ARC
  5
32B7
  8
AM_0
 10
414.72332404809617
 20
1217.911624453116
 30
0.0
 40
1.0
 50
0.0
 51
90.00000299999769
  0
ARC
  5
32B8
  8
AM_0
 10
416.223324048096
 20
1217.420424453117
 30
0.0
 40
0.5
 50
179.9999899999988
 51
271.00000000000171
  0
ARC
  5
32B9
  8
AM_0
 10
455.723324048096
 20
1222.610624453117
 30
0.0
 40
5.0
 50
271.00000000000171
 51
0.0
  0
LINE
  5
32BA
  8
AM_0
 10
511.223324048096
 20
1286.684224453116
 30
0.0
 11
511.223324048096
 21
1128.840124453116
 31
0.0
  0
LINE
  5
32BB
  8
AM_0
 10
527.22333404809615
 20
1289.911624453116
 30
0.0
 11
527.22333404809615
 21
1107.161624453116
 31
0.0
  0
ARC
  5
32BC
  8
AM_0
 10
505.22332404809578
 20
1100.911624453116
 30
0.0
 40
20.0
 50
18.209957000000301
 51
161.7900400000014
  0
LINE
  5
32BD
  8
AM_0
 10
527.22333404809615
 20
1157.599624453117
 30
0.0
 11
511.223324048096
 21
1157.599624453117
 31
0.0
  0
LINE
  5
32BE
  8
AM_0
 10
511.223324048096
 20
1185.911624453116
 30
0.0
 11
527.22333404809615
 21
1185.911624453116
 31
0.0
  0
LINE
  5
32BF
  8
AM_0
 10
481.47332404809578
 20
1107.161624453116
 30
0.0
 11
528.97333404809615
 21
1107.161624453116
 31
0.0
  0
LINE
  5
32C0
  8
AM_0
 10
481.47332404809578
 20
1094.6616244531151
 30
0.0
 11
528.97333404809615
 21
1094.6616244531151
 31
0.0
  0
ARC
  5
32C1
  8
AM_0
 10
481.47332404809578
 20
1100.911624453116
 30
0.0
 40
6.25
 50
90.00000299999769
 51
270.0
  0
ARC
  5
32C2
  8
AM_0
 10
505.22332404809578
 20
1100.911624453116
 30
0.0
 40
15.0
 50
24.624318000003381
 51
155.3756800000024
  0
ARC
  5
32C3
  8
AM_0
 10
503.22332404809612
 20
1128.840124453116
 30
0.0
 40
8.0
 50
274.09603999999791
 51
0.0
  0
CIRCLE
  5
32C4
  8
AM_0
 10
557.22333404809615
 20
1100.911624453116
 30
0.0
 40
10.0
  0
ARC
  5
32C5
  8
AM_0
 10
528.97333404809615
 20
1100.911624453116
 30
0.0
 40
6.25
 50
270.0
 51
90.00000299999769
  0
LINE
  5
32C6
  8
AM_0
 10
562.99683404809605
 20
1100.911624453116
 30
0.0
 11
560.11011404809597
 21
1105.911624453116
 31
0.0
  0
LINE
  5
32C7
  8
AM_0
 10
560.11005404809612
 20
1095.911624453116
 30
0.0
 11
562.99683404809605
 21
1100.911624453116
 31
0.0
  0
LINE
  5
32C8
  8
AM_0
 10
560.11011404809597
 20
1105.911624453116
 30
0.0
 11
554.33655404809599
 21
1105.911624453116
 31
0.0
  0
LINE
  5
32C9
  8
AM_0
 10
554.33655404809599
 20
1095.911624453116
 30
0.0
 11
560.11011404809597
 21
1095.911624453116
 31
0.0
  0
LINE
  5
32CA
  8
AM_0
 10
551.44983404809614
 20
1100.911624453116
 30
0.0
 11
554.33655404809599
 21
1095.911624453116
 31
0.0
  0
LINE
  5
32CB
  8
AM_0
 10
554.33655404809599
 20
1105.911624453116
 30
0.0
 11
551.44983404809614
 21
1100.911624453116
 31
0.0
  0
LINE
  5
32CC
  8
AM_0
 10
514.22332404809595
 20
1267.911624453116
 30
0.0
 11
527.22333404809615
 21
1267.911624453116
 31
0.0
  0
LINE
  5
32CD
  8
AM_0
 10
514.22332404809595
 20
1253.342424453117
 30
0.0
 11
527.22333404809615
 21
1253.342424453117
 31
0.0
  0
LINE
  5
32CE
  8
AM_0
 10
507.22332404809617
 20
1235.911624453116
 30
0.0
 11
470.723324048096
 21
1235.911624453116
 31
0.0
  0
ARC
  5
32CF
  8
AM_0
 10
507.22332404809617
 20
1239.911624453116
 30
0.0
 40
4.0
 50
270.0
 51
0.0
  0
ARC
  5
32D0
  8
AM_0
 10
514.22332404809595
 20
1264.911624453116
 30
0.0
 40
3.0
 50
90.00000299999769
 51
180.00001000000091
  0
ARC
  5
32D1
  8
AM_0
 10
514.22332404809595
 20
1250.342424453117
 30
0.0
 40
3.0
 50
90.00000299999769
 51
180.00001000000091
  0
ARC
  5
32D2
  8
AM_0
 10
514.22332404809595
 20
1286.684224453116
 30
0.0
 40
3.0
 50
90.999997000003077
 51
180.00001000000091
  0
ARC
  5
32D3
  8
AM_0
 10
514.22332404809595
 20
1273.807424453116
 30
0.0
 40
3.0
 50
91.500001000001546
 51
180.00001000000091
  0
ARC
  5
32D4
  8
AM_0
 10
658.22333404809615
 20
1304.200124453117
 30
0.0
 40
12.0
 50
271.00000000000171
 51
0.0
  0
ARC
  5
32D5
  8
AM_0
 10
658.22333404809615
 20
1200.677624453117
 30
0.0
 40
12.0
 50
271.00000000000171
 51
0.0
  0
LINE
  5
32D6
  8
AM_0
 10
627.77790404809605
 20
1107.911624453116
 30
0.0
 11
670.22333404809615
 21
1107.911624453116
 31
0.0
  0
LINE
  5
32D7
  8
AM_0
 10
627.77790404809605
 20
1093.9116244531151
 30
0.0
 11
670.22333404809615
 21
1093.9116244531151
 31
0.0
  0
ARC
  5
32D8
  8
AM_0
 10
627.77790404809605
 20
1110.911624453116
 30
0.0
 40
3.0
 50
179.9999899999988
 51
270.0
  0
ARC
  5
32D9
  8
AM_0
 10
627.77790404809605
 20
1090.911624453116
 30
0.0
 40
3.0
 50
90.00000299999769
 51
180.00001000000091
  0
ARC
  5
32DA
  8
AM_0
 10
658.22333404809615
 20
1143.311024453116
 30
0.0
 40
12.0
 50
0.0
 51
89.000001000002214
  0
LINE
  5
32DB
  8
AM_0
 10
624.7778440480962
 20
1231.850424453115
 30
0.0
 11
670.22327404809573
 21
1269.644024453115
 31
0.0
  0
LINE
  5
32DC
  8
AM_0
 10
624.77790404809616
 20
1239.504124453116
 30
0.0
 11
670.22333404809615
 21
1276.6440244531159
 31
0.0
  0
LINE
  5
32DD
  8
AM_0
 10
628.43744404809615
 20
1231.850424453115
 30
0.0
 11
662.48945404809615
 21
1231.850424453115
 31
0.0
  0
LINE
  5
32DE
  8
AM_0
 10
670.22333404809615
 20
1206.135524453116
 30
0.0
 11
677.22333404809615
 21
1206.135524453116
 31
0.0
  0
ARC
  5
32DF
  8
AM_0
 10
665.22333404809615
 20
1236.850424453115
 30
0.0
 40
5.0
 50
270.0
 51
0.0
  0
ARC
  5
32E0
  8
AM_0
 10
677.22333404809615
 20
1263.5379244531171
 30
0.0
 40
4.0
 50
0.0
 51
90.00000299999769
  0
LINE
  5
32E1
  8
AM_0
 10
670.22333404809615
 20
1267.537924453115
 30
0.0
 11
677.22333404809615
 21
1267.537924453115
 31
0.0
  0
LINE
  5
32E2
  8
AM_0
 10
670.22333404809615
 20
1267.537924453115
 30
0.0
 11
677.22333404809615
 21
1267.537924453115
 31
0.0
  0
ARC
  5
32E3
  8
AM_0
 10
665.22333404809615
 20
1285.764124453116
 30
0.0
 40
5.0
 50
271.50000000000261
 51
0.0
  0
LINE
  5
32E4
  8
AM_0
 10
708.22333404809615
 20
1138.411624453116
 30
0.0
 11
714.22333404809615
 21
1138.411624453116
 31
0.0
  0
ARC
  5
32E5
  8
AM_0
 10
739.22333404809615
 20
1100.911624453116
 30
0.0
 40
10.0
 50
90.00000299999769
 51
270.0
  0
LINE
  5
32E6
  8
AM_0
 10
739.22333404809615
 20
1110.911624453116
 30
0.0
 11
739.22333404809615
 21
1090.911624453116
 31
0.0
  0
LINE
  5
32E7
  8
AM_0
 10
702.22333404809615
 20
1330.911624453116
 30
0.0
 11
682.22333404809615
 21
1330.911624453116
 31
0.0
  0
LINE
  5
32E8
  8
AM_0
 10
680.22333404809615
 20
1328.369024453116
 30
0.0
 11
675.22333404809615
 21
1328.369024453116
 31
0.0
  0
ARC
  5
32E9
  8
AM_0
 10
675.22333404809615
 20
1323.369024453116
 30
0.0
 40
5.0
 50
90.00000299999769
 51
180.00001000000091
  0
ARC
  5
32EA
  8
AM_0
 10
675.22333404809615
 20
1323.369024453116
 30
0.0
 40
5.0
 50
90.00000299999769
 51
180.00001000000091
  0
ARC
  5
32EB
  8
AM_0
 10
680.22333404809615
 20
1329.369024453116
 30
0.0
 40
1.0
 50
270.0
 51
0.0
  0
ARC
  5
32EC
  8
AM_0
 10
682.22333404809615
 20
1329.911624453116
 30
0.0
 40
1.0
 50
90.00000299999769
 51
180.00001000000091
  0
LINE
  5
32ED
  8
AM_0
 10
681.22333404809615
 20
1329.911624453116
 30
0.0
 11
681.22333404809615
 21
1329.369024453116
 31
0.0
  0
LINE
  5
32EE
  8
AM_0
 10
708.22333404809615
 20
1295.911624453116
 30
0.0
 11
702.22333404809615
 21
1295.911624453116
 31
0.0
  0
LINE
  5
32EF
  8
AM_0
 10
824.22333404809615
 20
1135.9116244531151
 30
0.0
 11
824.22333404809615
 21
1065.911624453116
 31
0.0
  0
LINE
  5
32F0
  8
AM_0
 10
485.22333404809598
 20
657.69135732283519
 30
0.0
 11
485.22333404809598
 21
613.03173732283517
 31
0.0
  0
LINE
  5
32F1
  8
AM_0
 10
511.22337404809639
 20
653.69133732283524
 30
0.0
 11
511.22337404809639
 21
239.72891532283521
 31
0.0
  0
LINE
  5
32F2
  8
AM_0
 10
670.22337404809639
 20
282.51585732283502
 30
0.0
 11
670.22337404809639
 21
731.14869732283478
 31
0.0
  0
LINE
  5
32F3
  8
AM_0
 10
681.22335404809598
 20
670.31769732283522
 30
0.0
 11
681.22335404809598
 21
346.1886493228352
 31
0.0
  0
LINE
  5
32F4
  8
AM_0
 10
708.22335404809587
 20
311.69133732283518
 30
0.0
 11
708.22335404809587
 21
701.69139732283497
 31
0.0
  0
LINE
  5
32F5
  8
AM_0
 10
702.22335404809598
 20
736.69131732283518
 30
0.0
 11
702.22335404809598
 21
276.69133332283502
 31
0.0
  0
LINE
  5
32F6
  8
AM_0
 10
527.22333404809604
 20
657.69135732283519
 30
0.0
 11
527.22333404809604
 21
237.72889932283519
 31
0.0
  0
ARC
  5
32F7
  8
AM_0
 10
621.86631404809611
 20
263.76802332283512
 30
0.0
 40
28.5191868
 50
266.87149999999912
 51
354.92327000000222
  0
ARC
  5
32F8
  8
AM_0
 10
618.45669404809621
 20
273.0987733228352
 30
0.0
 40
25.911341399999991
 50
274.10136000000182
 51
343.0088899999987
  0
LINE
  5
32F9
  8
AM_0
 10
620.30985404809564
 20
235.29135732283521
 30
0.0
 11
620.30985404809564
 21
247.25382132283511
 31
0.0
  0
LINE
  5
32FA
  8
AM_0
 10
527.22333404809604
 20
237.72888732283511
 30
0.0
 11
620.30985404809564
 21
235.29133932283511
 31
0.0
  0
LINE
  5
32FB
  8
AM_0
 10
513.22335404809576
 20
237.72889932283519
 30
0.0
 11
527.22333404809604
 21
237.72889932283519
 31
0.0
  0
ARC
  5
32FC
  8
AM_0
 10
513.22335404809576
 20
239.72891532283521
 30
0.0
 40
2.0000000399999962
 50
179.9999899999988
 51
270.0
  0
LINE
  5
32FD
  8
AM_0
 10
527.22333404809604
 20
627.97719732283474
 30
0.0
 11
660.39789404809574
 21
625.65267732283507
 31
0.0
  0
LINE
  5
32FE
  8
AM_0
 10
527.22333404809604
 20
515.78566932283513
 30
0.0
 11
660.4851340480958
 21
512.29604532283508
 31
0.0
  0
LINE
  5
32FF
  8
AM_0
 10
527.22333404809604
 20
548.37801732283515
 30
0.0
 11
660.48501404809599
 21
551.8676413228352
 31
0.0
  0
LINE
  5
3300
  8
AM_0
 10
527.22333404809604
 20
390.69133932283501
 30
0.0
 11
660.4851340480958
 21
394.18093332283519
 31
0.0
  0
LINE
  5
3301
  8
AM_0
 10
527.22333404809604
 20
356.69133732283518
 30
0.0
 11
660.48507404809584
 21
353.20174332283523
 31
0.0
  0
LINE
  5
3302
  8
AM_0
 10
620.30979404809602
 20
247.25379132283501
 30
0.0
 11
511.22337404809639
 21
250.11031332283511
 31
0.0
  0
LINE
  5
3303
  8
AM_0
 10
511.22337404809639
 20
274.84908132283522
 30
0.0
 11
644.30985404809564
 21
271.36409532283511
 31
0.0
  0
LINE
  5
3304
  8
ﾁｭｳｼﾝｾﾝ
 10
490.9370382574786
 20
506.69137332283509
 30
0.0
 11
829.22331404809609
 21
506.69137332283509
 31
0.0
  0
LINE
  5
3305
  8
AM_0
 10
460.72335404809598
 20
560.84548932283508
 30
0.0
 11
460.72335404809598
 21
329.90587332283502
 31
0.0
  0
LINE
  5
3306
  8
AM_0
 10
402.72333404809598
 20
562.09127532283514
 30
0.0
 11
402.72333404809598
 21
326.09133132283512
 31
0.0
  0
LINE
  5
3307
  8
AM_0
 10
341.72333404809598
 20
591.09133332283523
 30
0.0
 11
341.72333404809598
 21
444.09133332283511
 31
0.0
  0
LINE
  5
3308
  8
AM_0
 10
415.72335404809598
 20
561.09133932283521
 30
0.0
 11
415.72335404809598
 21
444.09133332283511
 31
0.0
  0
LINE
  5
3309
  8
AM_0
 10
403.70235404809603
 20
369.65437932283521
 30
0.0
 11
414.73119404809592
 21
369.65437932283521
 31
0.0
  0
LINE
  5
330A
  8
AM_0
 10
402.72333404809598
 20
359.92049532283522
 30
0.0
 11
413.72337404809622
 21
359.92049532283522
 31
0.0
  0
LINE
  5
330B
  8
AM_0
 10
402.72333404809598
 20
326.09133132283512
 30
0.0
 11
414.72333404809598
 21
326.09133132283512
 31
0.0
  0
LINE
  5
330C
  8
AM_0
 10
402.72333404809598
 20
344.36412732283509
 30
0.0
 11
413.72337404809622
 21
344.36412732283509
 31
0.0
  0
LINE
  5
330D
  8
ﾁｭｳｼﾝｾﾝ
 10
308.8593138321923
 20
444.09133332283511
 30
0.0
 11
520.27015232061365
 21
444.09133332283511
 31
0.0
  0
LINE
  5
330E
  8
AM_0
 10
400.72333404809598
 20
360.92047332283522
 30
0.0
 11
400.72333404809598
 21
345.3641243228351
 31
0.0
  0
LINE
  5
330F
  8
AM_0
 10
399.72394404809597
 20
359.88557432283523
 30
0.0
 11
399.72394404809597
 21
344.32922432283522
 31
0.0
  0
LINE
  5
3310
  8
AM_0
 10
372.72333404809598
 20
345.37037532283517
 30
0.0
 11
372.72333404809598
 21
356.85057732283519
 31
0.0
  0
LINE
  5
3311
  8
AM_0
 10
341.72333404809598
 20
297.09133332283523
 30
0.0
 11
341.72333404809598
 21
444.09133332283511
 31
0.0
  0
ARC
  5
3312
  8
AM_0
 10
346.72333404809598
 20
342.84484032283518
 30
0.0
 40
5.0
 50
114.0451930000003
 51
180.0
  0
LINE
  5
3313
  8
AM_0
 10
321.72333404809598
 20
294.09133332283523
 30
0.0
 11
338.72333404809598
 21
294.09133332283523
 31
0.0
  0
ARC
  5
3314
  8
AM_0
 10
338.72333404809598
 20
297.09133332283523
 30
0.0
 40
3.0
 50
270.0
 51
0.0
  0
ARC
  5
3315
  8
AM_0
 10
371.49362204809557
 20
338.3403523228352
 30
0.0
 40
5.0
 50
92.000000000003666
 51
114.0451930000003
  0
LINE
  5
3316
  8
AM_0
 10
402.72333404809598
 20
326.09133326288293
 30
0.0
 11
346.59245004809588
 21
324.62149432283519
 31
0.0
  0
ARC
  5
3317
  8
AM_0
 10
346.72333404809598
 20
319.62320832283518
 30
0.0
 40
5.0
 50
91.499999999989626
 51
180.0
  0
LINE
  5
3318
  8
AM_0
 10
344.6860490480957
 20
331.85461232283512
 30
0.0
 11
369.45633604809592
 21
342.90647432283521
 31
0.0
  0
ARC
  5
3319
  8
AM_0
 10
346.72333404809598
 20
327.28849132283523
 30
0.0
 40
5.0
 50
114.0451930000003
 51
180.0
  0
LINE
  5
331A
  8
AM_0
 10
371.31912404809532
 20
343.33730632283539
 30
0.0
 11
399.72394404809597
 21
344.32922432283522
 31
0.0
  0
LINE
  5
331B
  8
AM_0
 10
399.72394404809597
 20
344.32922432283522
 30
0.0
 11
400.72333404809598
 21
345.3641243228351
 31
0.0
  0
ARC
  5
331C
  8
AM_0
 10
371.49362204809557
 20
353.89670132283521
 30
0.0
 40
5.0
 50
92.000000000003666
 51
114.0451930000003
  0
LINE
  5
331D
  8
AM_0
 10
399.02634204809578
 20
369.5575733228352
 30
0.0
 11
346.59245004809588
 21
368.18454332283522
 31
0.0
  0
LINE
  5
331E
  8
AM_0
 10
344.6860490480957
 20
347.4109623228353
 30
0.0
 11
369.45633604809592
 21
358.46282332283522
 31
0.0
  0
ARC
  5
331F
  8
AM_0
 10
346.72333404809598
 20
363.18625632283522
 30
0.0
 40
5.0
 50
91.499999999989626
 51
150.72089099998681
  0
LINE
  5
3320
  8
AM_0
 10
399.72394404809597
 20
359.88557432283523
 30
0.0
 11
371.31912404809532
 21
358.89365532283517
 31
0.0
  0
LINE
  5
3321
  8
AM_0
 10
399.72394404809597
 20
359.88557432283523
 30
0.0
 11
400.72333404809598
 21
360.92047332283522
 31
0.0
  0
LINE
  5
3322
  8
AM_0
 10
400.72333404809598
 20
368.06782632283517
 30
0.0
 11
400.72333404809598
 21
360.92047332283522
 31
0.0
  0
POINT
  5
3323
  8
AM_0
 10
402.72333404809598
 20
444.09133332283511
 30
0.0
  0
LINE
  5
3324
  8
AM_0
 10
415.72335404809598
 20
327.09133332283511
 30
0.0
 11
415.72335404809598
 21
444.09133332283511
 31
0.0
  0
LINE
  5
3325
  8
AM_0
 10
509.28537404809589
 20
272.47722132283519
 30
0.0
 11
465.56835404809618
 21
298.77663132283487
 31
0.0
  0
LINE
  5
3326
  8
AM_0
 10
416.23203404809578
 20
328.08244932283492
 30
0.0
 11
456.79317404809598
 21
327.37447332283512
 31
0.0
  0
ARC
  5
3327
  8
AM_0
 10
416.22333404809598
 20
327.5825413228352
 30
0.0
 40
0.500000016
 50
89.000000999989069
 51
180.00001000000091
  0
ARC
  5
3328
  8
AM_0
 10
414.72333404809598
 20
327.09133332283511
 30
0.0
 40
1.000000019999997
 50
270.0
 51
0.0
  0
ARC
  5
3329
  8
AM_0
 10
413.72337404809622
 20
346.36412532283521
 30
0.0
 40
2.0000000399999962
 50
270.0
 51
0.0
  0
LINE
  5
332A
  8
AM_0
 10
460.72335404809598
 20
323.37508332283511
 30
0.0
 11
460.72335404809598
 21
307.34557332283492
 31
0.0
  0
ARC
  5
332B
  8
AM_0
 10
470.72337404809639
 20
307.34557332283492
 30
0.0
 40
9.9999996000000007
 50
179.9999899999988
 51
238.96955000001051
  0
ARC
  5
332C
  8
AM_0
 10
456.72345404809619
 20
323.37508332283511
 30
0.0
 40
4.00000014
 50
0.0
 51
89.000000999989069
  0
ARC
  5
332D
  8
AM_0
 10
507.22335404809598
 20
269.04964332283498
 30
0.0
 40
4.00000014
 50
0.0
 51
58.969551999996732
  0
LINE
  5
332E
  8
AM_0
 10
415.72335404809598
 20
372.25896732283508
 30
0.0
 11
460.72335404809598
 21
372.25896732283508
 31
0.0
  0
LINE
  5
332F
  8
AM_0
 10
415.72335404809598
 20
353.00838732283518
 30
0.0
 11
460.72335404809598
 21
353.00838732283518
 31
0.0
  0
ARC
  5
3330
  8
AM_0
 10
413.72337404809622
 20
361.92049332283523
 30
0.0
 40
2.0000000399999962
 50
270.0
 51
0.0
  0
LINE
  5
3331
  8
AM_0
 10
511.22337404809639
 20
390.69136932283521
 30
0.0
 11
527.22333404809604
 21
390.69136932283521
 31
0.0
  0
LINE
  5
3332
  8
AM_0
 10
511.22337404809639
 20
356.69133732283518
 30
0.0
 11
527.22333404809604
 21
356.69133732283518
 31
0.0
  0
LINE
  5
3333
  8
AM_0
 10
402.72333404809598
 20
562.09127532283514
 30
0.0
 11
414.72333404809598
 21
562.09127532283514
 31
0.0
  0
LINE
  5
3334
  8
AM_0
 10
402.72333404809598
 20
528.26217132283489
 30
0.0
 11
413.72337404809622
 21
528.26217132283489
 31
0.0
  0
LINE
  5
3335
  8
AM_0
 10
402.72333404809598
 20
543.8185093228351
 30
0.0
 11
413.72337404809622
 21
543.8185093228351
 31
0.0
  0
LINE
  5
3336
  8
AM_0
 10
403.70235404809603
 20
518.52828732283513
 30
0.0
 11
414.73119404809592
 21
518.52828732283513
 31
0.0
  0
LINE
  5
3337
  8
AM_0
 10
344.6860490480957
 20
556.3280543228351
 30
0.0
 11
369.45633604809592
 21
545.2761933228353
 31
0.0
  0
ARC
  5
3338
  8
AM_0
 10
371.49362204809557
 20
534.28596532283518
 30
0.0
 40
5.0
 50
245.95480699999951
 51
267.99999999999631
  0
ARC
  5
3339
  8
AM_0
 10
371.49362204809557
 20
549.84231432283514
 30
0.0
 40
5.0
 50
245.95480699999951
 51
267.99999999999631
  0
LINE
  5
333A
  8
AM_0
 10
399.02634204809578
 20
518.62509432283514
 30
0.0
 11
346.59245004809588
 21
519.99812432283511
 31
0.0
  0
ARC
  5
333B
  8
AM_0
 10
346.72333404809598
 20
524.99641032283546
 30
0.0
 40
5.0
 50
209.27910900001291
 51
268.50000000001029
  0
LINE
  5
333C
  8
AM_0
 10
344.6860490480957
 20
540.77170532283537
 30
0.0
 11
369.45633604809592
 21
529.71984432283512
 31
0.0
  0
ARC
  5
333D
  8
AM_0
 10
346.72333404809598
 20
545.3378273228351
 30
0.0
 40
5.0
 50
180.0
 51
245.95480699999951
  0
LINE
  5
333E
  8
AM_0
 10
400.72333404809598
 20
520.11484032283511
 30
0.0
 11
400.72333404809598
 21
527.2621943228354
 31
0.0
  0
LINE
  5
333F
  8
AM_0
 10
399.72394404809597
 20
528.29709332283517
 30
0.0
 11
371.31912404809532
 21
529.28901132283534
 31
0.0
  0
LINE
  5
3340
  8
AM_0
 10
371.31912404809532
 20
544.84536032283529
 30
0.0
 11
399.72394404809597
 21
543.85344232283535
 31
0.0
  0
LINE
  5
3341
  8
AM_0
 10
372.72333404809598
 20
542.81229132283488
 30
0.0
 11
372.72333404809598
 21
531.33209032283514
 31
0.0
  0
LINE
  5
3342
  8
AM_0
 10
400.72333404809598
 20
527.2621943228354
 30
0.0
 11
400.72333404809598
 21
542.81854332283535
 31
0.0
  0
LINE
  5
3343
  8
AM_0
 10
399.72394404809597
 20
528.29709332283517
 30
0.0
 11
399.72394404809597
 21
543.85344232283535
 31
0.0
  0
LINE
  5
3344
  8
AM_0
 10
399.72394404809597
 20
528.29709332283517
 30
0.0
 11
400.72333404809598
 21
527.2621943228354
 31
0.0
  0
LINE
  5
3345
  8
AM_0
 10
399.72394404809597
 20
543.85344232283535
 30
0.0
 11
400.72333404809598
 21
542.81854332283535
 31
0.0
  0
LINE
  5
3346
  8
AM_0
 10
321.72333404809598
 20
594.09133332283523
 30
0.0
 11
338.72333404809598
 21
594.09133332283523
 31
0.0
  0
LINE
  5
3347
  8
AM_0
 10
402.72333404809598
 20
562.09133338278775
 30
0.0
 11
346.59245004809588
 21
563.56117232283543
 31
0.0
  0
ARC
  5
3348
  8
AM_0
 10
346.72333404809598
 20
560.89417632283528
 30
0.0
 40
5.0
 50
180.0
 51
245.95480699999951
  0
ARC
  5
3349
  8
AM_0
 10
346.72333404809598
 20
568.5594593228351
 30
0.0
 40
5.0
 50
180.0
 51
268.50000000001029
  0
ARC
  5
334A
  8
AM_0
 10
338.72333404809598
 20
591.09133332283523
 30
0.0
 40
3.0
 50
0.0
 51
90.0
  0
LINE
  5
334B
  8
AM_0
 10
415.72335404809598
 20
515.92379532283519
 30
0.0
 11
460.72335404809598
 21
515.92379532283519
 31
0.0
  0
LINE
  5
334C
  8
AM_0
 10
415.72335404809598
 20
535.17428532283509
 30
0.0
 11
460.72335404809598
 21
535.17428532283509
 31
0.0
  0
ARC
  5
334D
  8
AM_0
 10
413.72337404809622
 20
526.26217332283511
 30
0.0
 40
2.0000000399999962
 50
0.0
 51
90.000003000010722
  0
ARC
  5
334E
  8
AM_0
 10
413.72337404809622
 20
541.81857132283517
 30
0.0
 40
2.0000000399999962
 50
0.0
 51
90.000003000010722
  0
LINE
  5
334F
  8
AM_0
 10
527.22333404809604
 20
548.37801732283515
 30
0.0
 11
511.22337404809639
 21
548.37801732283515
 31
0.0
  0
LINE
  5
3350
  8
AM_0
 10
527.22333404809604
 20
515.78560932283506
 30
0.0
 11
511.22337404809639
 21
515.78560932283506
 31
0.0
  0
LINE
  5
3351
  8
AM_0
 10
509.70699404809608
 20
630.49017732283505
 30
0.0
 11
464.51439404809582
 21
594.69405732283519
 31
0.0
  0
LINE
  5
3352
  8
AM_0
 10
416.23203404809578
 20
560.100247322835
 30
0.0
 11
455.81061404809589
 21
560.79110532283516
 31
0.0
  0
ARC
  5
3353
  8
AM_0
 10
414.72333404809598
 20
561.09133932283521
 30
0.0
 40
1.000000019999997
 50
0.0
 51
90.000003000010722
  0
ARC
  5
3354
  8
AM_0
 10
416.22333404809598
 20
560.6001253228352
 30
0.0
 40
0.500000016
 50
179.9999899999988
 51
271.00000000000171
  0
LINE
  5
3355
  8
AM_0
 10
460.72335404809598
 20
586.85519532283513
 30
0.0
 11
460.72335404809598
 21
565.79031132283524
 31
0.0
  0
ARC
  5
3356
  8
AM_0
 10
455.7233740480961
 20
565.79031132283524
 30
0.0
 40
4.9999996800000002
 50
271.00000000000171
 51
0.0
  0
ARC
  5
3357
  8
AM_0
 10
470.72337404809639
 20
586.85519532283513
 30
0.0
 40
9.9999996000000007
 50
128.38200999999691
 51
180.00001000000091
  0
ARC
  5
3358
  8
AM_0
 10
481.2233740480961
 20
613.03173732283517
 30
0.0
 40
4.00000014
 50
308.3820099999968
 51
0.0
  0
LINE
  5
3359
  8
AM_0
 10
527.22333404809604
 20
627.97719732283474
 30
0.0
 11
511.22337404809639
 21
627.97719732283474
 31
0.0
  0
ARC
  5
335A
  8
AM_0
 10
507.22335404809598
 20
633.6258373228352
 30
0.0
 40
4.00000014
 50
308.3820099999968
 51
0.0
  0
ARC
  5
335B
  8
AM_0
 10
660.22335404809564
 20
343.20516132283518
 30
0.0
 40
9.9999996000000007
 50
0.0
 51
88.499996999987587
  0
LINE
  5
335C
  8
AM_0
 10
668.36691404809574
 20
275.61955932283507
 30
0.0
 11
640.54887404809608
 21
259.55879532283512
 31
0.0
  0
ARC
  5
335D
  8
AM_0
 10
650.88777404809605
 20
263.1890773228352
 30
0.0
 40
8.0000003999999976
 50
88.499996999987587
 51
163.0088800000008
  0
LINE
  5
335E
  8
AM_0
 10
620.30985404809564
 20
250.15401132283509
 30
0.0
 11
620.30985404809564
 21
267.7210273228352
 31
0.0
  0
LINE
  5
335F
  8
AM_0
 10
672.3669340480958
 20
276.69133332283502
 30
0.0
 11
702.22335404809598
 21
276.69133332283502
 31
0.0
  0
ARC
  5
3360
  8
AM_0
 10
658.24221404809612
 20
260.53645932283519
 30
0.0
 40
8.0000003999999976
 50
120.0000000000005
 51
174.92325999999809
  0
ARC
  5
3361
  8
AM_0
 10
680.22333404809604
 20
278.51583132283503
 30
0.0
 40
1.000000019999997
 50
0.0
 51
90.000003000010722
  0
LINE
  5
3362
  8
AM_0
 10
681.22335404809598
 20
278.99602332283501
 30
0.0
 11
681.22335404809598
 21
278.69133732283512
 31
0.0
  0
LINE
  5
3363
  8
AM_0
 10
681.22335404809598
 20
278.51583132283503
 30
0.0
 11
681.22335404809598
 21
277.69133532283507
 31
0.0
  0
ARC
  5
3364
  8
AM_0
 10
682.22331404809586
 20
277.69133532283507
 30
0.0
 40
1.000000019999997
 50
179.9999899999988
 51
270.0
  0
ARC
  5
3365
  8
AM_0
 10
673.22331404809597
 20
282.51585732283502
 30
0.0
 40
3.0000000600000001
 50
179.9999899999988
 51
270.0
  0
ARC
  5
3366
  8
AM_0
 10
672.3669340480958
 20
268.69133532283519
 30
0.0
 40
8.0000003999999976
 50
90.000003000010722
 51
120.0000000000005
  0
LINE
  5
3367
  8
AM_0
 10
673.22331404809597
 20
279.51582732283521
 30
0.0
 11
680.22333404809604
 21
279.51582732283521
 31
0.0
  0
ARC
  5
3368
  8
AM_0
 10
678.22335404809598
 20
346.1886493228352
 30
0.0
 40
3.0000000600000001
 50
270.0
 51
0.0
  0
ARC
  5
3369
  8
AM_0
 10
673.22331404809597
 20
340.1886493228352
 30
0.0
 40
3.0000000600000001
 50
90.000003000010722
 51
180.00001000000091
  0
LINE
  5
336A
  8
AM_0
 10
673.22331404809597
 20
343.18864932283492
 30
0.0
 11
678.22335404809598
 21
343.18864932283492
 31
0.0
  0
LINE
  5
336B
  8
AM_0
 10
702.22335404809598
 20
311.69133732283518
 30
0.0
 11
708.22335404809587
 21
311.69133732283518
 31
0.0
  0
ARC
  5
336C
  8
AM_0
 10
660.22335404809564
 20
404.17754532283521
 30
0.0
 40
9.9999996000000007
 50
271.49999999998948
 51
0.0
  0
ARC
  5
336D
  8
AM_0
 10
678.22335404809598
 20
374.40770532283523
 30
0.0
 40
3.0000000600000001
 50
270.0
 51
0.0
  0
LINE
  5
336E
  8
AM_0
 10
670.22337404809639
 20
371.40767532283508
 30
0.0
 11
678.22335404809598
 21
371.40767532283508
 31
0.0
  0
LINE
  5
336F
  8
AM_0
 10
824.22333404809615
 20
471.6913693228351
 30
0.0
 11
714.22335404809564
 21
471.6913693228351
 31
0.0
  0
LINE
  5
3370
  8
AM_0
 10
714.22335404809564
 20
541.69131132283519
 30
0.0
 11
824.22333404809615
 21
541.69131132283519
 31
0.0
  0
LINE
  5
3371
  8
AM_0
 10
714.22335404809564
 20
469.19137332283509
 30
0.0
 11
714.22335404809564
 21
544.19137332283515
 31
0.0
  0
LINE
  5
3372
  8
AM_0
 10
708.22335404809587
 20
469.19137332283509
 30
0.0
 11
714.22335404809564
 21
469.19137332283509
 31
0.0
  0
ARC
  5
3373
  8
AM_0
 10
660.22335404809564
 20
502.29946332283509
 30
0.0
 40
9.9999996000000007
 50
0.0
 51
88.499996999987587
  0
LINE
  5
3374
  8
AM_0
 10
708.22335404809587
 20
544.19137332283515
 30
0.0
 11
714.22335404809564
 21
544.19137332283515
 31
0.0
  0
LINE
  5
3375
  8
AM_0
 10
634.35993404809642
 20
578.6248453228352
 30
0.0
 11
665.22333404809604
 21
578.6248453228352
 31
0.0
  0
LINE
  5
3376
  8
AM_0
 10
631.42371404809558
 20
579.35854932283507
 30
0.0
 11
667.83051404809601
 21
601.60719732283519
 31
0.0
  0
LINE
  5
3377
  8
AM_0
 10
631.43451404809582
 20
591.12331932283507
 30
0.0
 11
667.85973404809567
 21
613.72695732283523
 31
0.0
  0
ARC
  5
3378
  8
AM_0
 10
628.81641404809614
 20
583.62484932283508
 30
0.0
 40
4.9999996800000002
 50
270.0
 51
301.42962999999969
  0
ARC
  5
3379
  8
AM_0
 10
628.79805404809611
 20
595.37181732283511
 30
0.0
 40
4.9999996800000002
 50
270.0
 51
301.82161000000002
  0
ARC
  5
337A
  8
AM_0
 10
660.22335404809564
 20
561.86422332283507
 30
0.0
 40
9.9999996000000007
 50
271.49999999998948
 51
0.0
  0
ARC
  5
337B
  8
AM_0
 10
665.22333404809604
 20
583.62484932283508
 30
0.0
 40
4.9999996800000002
 50
270.0
 51
337.66196999999693
  0
ARC
  5
337C
  8
AM_0
 10
660.22335404809564
 20
615.65421732283505
 30
0.0
 40
9.9999996000000007
 50
7.8228145999959668
 51
89.000000999989069
  0
ARC
  5
337D
  8
AM_0
 10
678.22335404809598
 20
608.91519732283518
 30
0.0
 40
3.0000000600000001
 50
0.0
 51
90.000003000010722
  0
ARC
  5
337E
  8
AM_0
 10
665.22333404809604
 20
605.87355732283527
 30
0.0
 40
4.9999996800000002
 50
301.42962999999969
 51
0.0
  0
ARC
  5
337F
  8
AM_0
 10
665.22333404809604
 20
617.97543732283521
 30
0.0
 40
4.9999996800000002
 50
301.82161000000002
 51
0.0
  0
LINE
  5
3380
  8
AM_0
 10
670.22337404809639
 20
611.91519732283507
 30
0.0
 11
678.22335404809598
 21
611.91519732283507
 31
0.0
  0
LINE
  5
3381
  8
AM_0
 10
739.22337404809605
 20
546.19131132283519
 30
0.0
 11
824.22333404809615
 21
546.19131132283519
 31
0.0
  0
LINE
  5
3382
  8
AM_0
 10
739.22337404809605
 20
541.69131132283519
 30
0.0
 11
739.22337404809605
 21
546.19131132283519
 31
0.0
  0
LINE
  5
3383
  8
AM_0
 10
824.22333404809615
 20
541.69131132283519
 30
0.0
 11
824.22333404809615
 21
471.6913693228351
 31
0.0
  0
LINE
  5
3384
  8
AM_0
 10
824.22333404809615
 20
546.19131132283519
 30
0.0
 11
824.22333404809615
 21
541.69131132283519
 31
0.0
  0
LINE
  5
3385
  8
AM_0
 10
527.22333404809604
 20
651.69129732283488
 30
0.0
 11
658.53753404809629
 21
655.12989732283529
 31
0.0
  0
LINE
  5
3386
  8
AM_0
 10
527.22333404809604
 20
657.69129732283511
 30
0.0
 11
658.53747404809587
 21
661.12989732283506
 31
0.0
  0
CIRCLE
  5
3387
  8
AM_0
 10
505.22337404809622
 20
687.69135732283507
 30
0.0
 40
17.499998399999999
  0
LINE
  5
3388
  8
AM_0
 10
527.22333404809604
 20
657.69135732283519
 30
0.0
 11
485.22333404809598
 21
657.69135732283519
 31
0.0
  0
ARC
  5
3389
  8
AM_0
 10
505.22337404809622
 20
687.69135732283507
 30
0.0
 40
30.000000599999989
 50
304.5987100000068
 51
235.40128999999291
  0
LINE
  5
338A
  8
AM_0
 10
511.22337404809639
 20
651.69135732283507
 30
0.0
 11
527.22333404809604
 21
651.69135732283507
 31
0.0
  0
LINE
  5
338B
  8
AM_0
 10
515.20197404809585
 20
669.06237732283512
 30
0.0
 11
505.22337404809622
 21
670.19133732283524
 31
0.0
  0
LINE
  5
338C
  8
AM_0
 10
516.31233404809632
 20
668.69133732283524
 30
0.0
 11
494.13435404809599
 21
668.69133732283524
 31
0.0
  0
LINE
  5
338D
  8
AM_0
 10
491.44929404809602
 20
665.43195732283505
 30
0.0
 11
490.22337404809639
 21
657.69129732283511
 31
0.0
  0
ARC
  5
338E
  8
AM_0
 10
485.34945404809639
 20
658.88109732283488
 30
0.0
 40
4.9999996800000002
 50
351.00000000000119
 51
55.401289999993068
  0
ARC
  5
338F
  8
AM_0
 10
496.24743404809612
 20
664.21491732283528
 30
0.0
 40
4.9499999399999961
 50
101.6876299999912
 51
165.7674300000013
  0
LINE
  5
3390
  8
AM_0
 10
505.22325404809561
 20
670.19139732283475
 30
0.0
 11
495.24459404809602
 21
669.06237732283512
 31
0.0
  0
LINE
  5
3391
  8
AM_0
 10
520.22337404809639
 20
657.69135732283519
 30
0.0
 11
518.99727404809607
 21
665.43195732283505
 31
0.0
  0
ARC
  5
3392
  8
AM_0
 10
525.09723404809586
 20
658.88109732283488
 30
0.0
 40
4.9999996800000002
 50
124.5987200000077
 51
188.99999999999861
  0
ARC
  5
3393
  8
AM_0
 10
515.22333404809604
 20
653.69133732283524
 30
0.0
 40
4.00000014
 50
90.000003000010722
 51
180.00001000000091
  0
ARC
  5
3394
  8
AM_0
 10
514.1993140480962
 20
664.21491732283528
 30
0.0
 40
4.9499999399999961
 50
14.232568000000819
 51
78.312366999990047
  0
LINE
  5
3395
  8
AM_0
 10
635.86551404809643
 20
666.03063732283522
 30
0.0
 11
667.2944140480962
 21
697.45953732283522
 31
0.0
  0
ARC
  5
3396
  8
AM_0
 10
621.72345404809607
 20
680.1727573228352
 30
0.0
 40
19.999998599999991
 50
271.49999999998948
 51
315.0000000000046
  0
ARC
  5
3397
  8
AM_0
 10
660.22335404809564
 20
704.53059732283509
 30
0.0
 40
9.9999996000000007
 50
315.0000000000046
 51
0.0
  0
ARC
  5
3398
  8
AM_0
 10
673.22331404809597
 20
676.31769732283522
 30
0.0
 40
3.0000000600000001
 50
179.9999899999988
 51
270.0
  0
ARC
  5
3399
  8
AM_0
 10
658.22331404809574
 20
667.12581732283525
 30
0.0
 40
12.0000006
 50
271.49999999998948
 51
0.0
  0
ARC
  5
339A
  8
AM_0
 10
658.22331404809574
 20
673.12575732283528
 30
0.0
 40
12.0000006
 50
271.49999999998948
 51
0.0
  0
ARC
  5
339B
  8
AM_0
 10
678.22335404809598
 20
670.31769732283522
 30
0.0
 40
3.0000000600000001
 50
0.0
 51
90.000003000010722
  0
LINE
  5
339C
  8
AM_0
 10
673.22331404809597
 20
673.31769732283522
 30
0.0
 11
678.22335404809598
 21
673.31769732283522
 31
0.0
  0
LINE
  5
339D
  8
AM_0
 10
682.22331404809586
 20
736.69131732283518
 30
0.0
 11
702.22335404809598
 21
736.69131732283518
 31
0.0
  0
ARC
  5
339E
  8
AM_0
 10
680.22333404809604
 20
735.14871732283518
 30
0.0
 40
1.000000019999997
 50
270.0
 51
0.0
  0
LINE
  5
339F
  8
AM_0
 10
681.22335404809598
 20
735.14871732283518
 30
0.0
 11
681.22335404809598
 21
735.69129732283477
 31
0.0
  0
ARC
  5
33A0
  8
AM_0
 10
682.22331404809586
 20
735.69129732283477
 30
0.0
 40
1.000000019999997
 50
90.000003000010722
 51
180.00001000000091
  0
ARC
  5
33A1
  8
AM_0
 10
673.22331404809597
 20
731.14869732283478
 30
0.0
 40
3.0000000600000001
 50
90.000003000010722
 51
180.00001000000091
  0
LINE
  5
33A2
  8
AM_0
 10
673.22331404809597
 20
734.14863732283493
 30
0.0
 11
680.22333404809604
 21
734.14863732283493
 31
0.0
  0
LINE
  5
33A3
  8
AM_0
 10
702.22335404809598
 20
701.69139732283497
 30
0.0
 11
708.22335404809587
 21
701.69139732283497
 31
0.0
  0
LINE
  5
33A4
  8
ﾁｭｳｼﾝｾﾝ
 10
1244.6242165980391
 20
741.69129732283488
 30
0.0
 11
1244.6242165980391
 21
231.76333932283509
 31
0.0
  0
CIRCLE
  5
33A5
  8
AM_0
 10
1244.6242165980391
 20
506.69137332283509
 30
0.0
 40
184.99999199999991
  0
CIRCLE
  5
33A6
  8
AM_0
 10
1244.6242165980391
 20
506.69137332283509
 30
0.0
 40
195.0000059999999
  0
LINE
  5
33A7
  8
AM_0
 10
1014.624206598039
 20
606.69135732283519
 30
0.0
 11
1018.624226598038
 21
711.50589732283515
 31
0.0
  0
LINE
  5
33A8
  8
AM_0
 10
1470.624236598039
 20
711.50589732283515
 30
0.0
 11
1474.624238598039
 21
606.69135732283519
 31
0.0
  0
ARC
  5
33A9
  8
AM_0
 10
1244.6242165980391
 20
251.6913373228351
 30
0.0
 40
19.437555599999971
 50
179.9999899999988
 51
237.53583999999839
  0
ARC
  5
33AA
  8
AM_0
 10
1244.6242165980391
 20
251.6913373228351
 30
0.0
 40
19.437555599999971
 50
302.46415000000798
 51
0.0
  0
LINE
  5
33AB
  8
AM_0
 10
1234.190714598039
 20
235.29135732283521
 30
0.0
 11
1255.057778598039
 21
235.29135732283521
 31
0.0
  0
LINE
  5
33AC
  8
AM_0
 10
1254.624248598039
 20
546.19131132283519
 30
0.0
 11
1234.6242145980391
 21
546.19131132283519
 31
0.0
  0
LINE
  5
33AD
  8
AM_0
 10
1234.6242145980391
 20
534.19131132283508
 30
0.0
 11
1254.624248598039
 21
534.19131132283508
 31
0.0
  0
CIRCLE
  5
33AE
  8
AM_5
 10
1244.6242165980391
 20
506.69137332283509
 30
0.0
 40
6.0
  0
CIRCLE
  5
33AF
  8
AM_0
 10
1244.6242165980391
 20
506.69137332283509
 30
0.0
 40
4.9999996800000002
  0
ARC
  5
33B0
  8
AM_0
 10
1244.6242165980391
 20
506.69137332283509
 30
0.0
 40
34.999997399999991
 50
106.6015499999924
 51
73.398451999991579
  0
ARC
  5
33B1
  8
AM_0
 10
1244.6242165980391
 20
506.69137332283509
 30
0.0
 40
79.99999200000002
 50
33.737306000009809
 51
146.2626999999932
  0
CIRCLE
  5
33B2
  8
AM_0
 10
1244.6242165980391
 20
506.69137332283509
 30
0.0
 40
60.0
  0
LINE
  5
33B3
  8
ﾁｭｳｼﾝｾﾝ
 10
1476.331496598038
 20
506.69137332283509
 30
0.0
 11
1009.624286598038
 21
506.69137332283509
 31
0.0
  0
LINE
  5
33B4
  8
AM_0
 10
1344.6242185980391
 20
276.69133332283508
 30
0.0
 11
1144.624274598038
 21
276.69133332283508
 31
0.0
  0
LINE
  5
33B5
  8
ﾁｭｳｼﾝｾﾝ
 10
1142.851118881146
 20
444.09133332283511
 30
0.0
 11
1346.39731787099
 21
444.09133332283511
 31
0.0
  0
LINE
  5
33B6
  8
AM_0
 10
1014.624266598038
 20
406.69134132283511
 30
0.0
 11
1014.624266598038
 21
606.69135732283519
 31
0.0
  0
LINE
  5
33B7
  8
AM_0
 10
1178.0968405980391
 20
551.12221932283512
 30
0.0
 11
1102.149056598038
 21
437.40380532283518
 31
0.0
  0
LINE
  5
33B8
  8
AM_0
 10
1144.624244598039
 20
276.69133332283508
 30
0.0
 11
1039.809686598039
 21
280.69133532283519
 31
0.0
  0
LINE
  5
33B9
  8
AM_0
 10
1018.624226598038
 20
301.87678932283512
 30
0.0
 11
1014.624206598039
 21
406.69134132283511
 31
0.0
  0
ARC
  5
33BA
  8
AM_0
 10
1244.6242165980391
 20
506.69137332283509
 30
0.0
 40
304.99997999999999
 50
222.18473000000679
 51
227.81526999999301
  0
CIRCLE
  5
33BB
  8
AM_0
 10
1053.705386598039
 20
315.7725133228351
 30
0.0
 40
12.0000006
  0
LINE
  5
33BC
  8
ﾁｭｳｼﾝｾﾝ1
 10
1069.2617245980391
 20
331.32888132283512
 30
0.0
 11
1038.1490665980391
 21
300.21617532283511
 31
0.0
  0
ARC
  5
33BD
  8
ﾁｭｳｼﾝｾﾝ1
 10
1244.6242165980391
 20
506.69137332283509
 30
0.0
 40
270.00000599999998
 50
220.3301599999981
 51
229.66984000000571
  0
ARC
  5
33BE
  8
AM_0
 10
1193.6242165980391
 20
376.31136132283518
 30
0.0
 40
128.43754799999999
 50
250.34186999999429
 51
270.0
  0
ARC
  5
33BF
  8
AM_0
 10
1134.624242598039
 20
266.69133732283501
 30
0.0
 40
19.437555599999971
 50
179.9999899999988
 51
0.0000100179138904
  0
LINE
  5
33C0
  8
AM_0
 10
1115.186714598038
 20
266.69133732283501
 30
0.0
 11
1115.186714598038
 21
270.74736732283509
 31
0.0
  0
ARC
  5
33C1
  8
AM_0
 10
1107.1867105980391
 20
270.74736732283509
 30
0.0
 40
8.0000003999999976
 50
0.0
 51
50.688810999995432
  0
ARC
  5
33C2
  8
AM_0
 10
1193.6242165980391
 20
376.31136132283518
 30
0.0
 40
128.43754799999999
 50
229.9639899999888
 51
230.68881000000869
  0
ARC
  5
33C3
  8
AM_0
 10
1162.0618045980391
 20
266.69133732283501
 30
0.0
 40
8.0000003999999976
 50
141.82987999999941
 51
180.00001000000091
  0
LINE
  5
33C4
  8
AM_0
 10
1193.6242165980391
 20
247.8737713228351
 30
0.0
 11
1225.565258598039
 21
247.8737713228351
 31
0.0
  0
ARC
  5
33C5
  8
AM_0
 10
1217.186684598038
 20
257.21672532283509
 30
0.0
 40
8.0000003999999976
 50
0.0
 51
90.000003000010722
  0
LINE
  5
33C6
  8
AM_0
 10
1225.186688598038
 20
251.6913373228351
 30
0.0
 11
1225.186688598038
 21
257.21672532283509
 31
0.0
  0
ARC
  5
33C7
  8
AM_0
 10
1193.6242165980391
 20
376.31136132283518
 30
0.0
 40
110.000004
 50
146.2626999999932
 51
160.73435999999771
  0
ARC
  5
33C8
  8
AM_0
 10
1099.224374598039
 20
409.30617732283508
 30
0.0
 40
9.9999996000000007
 50
160.73435999999771
 51
192.21112999999951
  0
ARC
  5
33C9
  8
AM_0
 10
1244.6242165980391
 20
496.69134132283511
 30
0.0
 40
143.999988
 50
134.97171999999591
 51
196.49544000000131
  0
ARC
  5
33CA
  8
AM_0
 10
1110.3863005980379
 20
456.93984732283508
 30
0.0
 40
4.00000014
 50
196.49545000000069
 51
270.67263999999079
  0
LINE
  5
33CB
  8
AM_0
 10
1234.6242145980391
 20
546.19131132283519
 30
0.0
 11
1234.6242145980391
 21
534.19131132283508
 31
0.0
  0
ARC
  5
33CC
  8
AM_0
 10
1244.6242165980391
 20
496.69134132283511
 30
0.0
 40
143.999988
 50
50.60764799999361
 51
129.39235000000369
  0
LINE
  5
33CD
  8
AM_0
 10
1189.2682285980391
 20
570.53268132283506
 30
0.0
 11
1121.8255045980379
 21
637.9752973228351
 31
0.0
  0
LINE
  5
33CE
  8
AM_0
 10
1180.782938598039
 20
562.04739132283521
 30
0.0
 11
1113.340280598039
 21
629.49009732283525
 31
0.0
  0
ARC
  5
33CF
  8
AM_0
 10
1125.3611545980391
 20
641.51085732283525
 30
0.0
 40
4.9999996800000002
 50
168.8411599999977
 51
224.9999999999952
  0
ARC
  5
33D0
  8
AM_0
 10
1109.8046965980391
 20
625.95447732283515
 30
0.0
 40
4.9999996800000002
 50
45.000000999994569
 51
101.1588399999894
  0
ARC
  5
33D1
  8
AM_0
 10
1177.247384598038
 20
558.51180732283501
 30
0.0
 40
4.9999996800000002
 50
358.28216000000077
 51
45.000000999994569
  0
ARC
  5
33D2
  8
AM_0
 10
1192.803752598039
 20
574.06820532283518
 30
0.0
 40
4.9999996800000002
 50
224.9999999999952
 51
271.71784000000582
  0
LINE
  5
33D3
  8
AM_0
 10
1474.624238598039
 20
606.69135732283519
 30
0.0
 11
1474.624238598039
 21
406.69134132283511
 31
0.0
  0
LINE
  5
33D4
  8
AM_0
 10
1311.151652598038
 20
551.12221932283512
 30
0.0
 11
1387.0994425980391
 21
437.40380532283518
 31
0.0
  0
ARC
  5
33D5
  8
AM_0
 10
1295.6242465980381
 20
376.31136132283518
 30
0.0
 40
110.000004
 50
19.265641000005719
 51
33.737306000009809
  0
LINE
  5
33D6
  8
AM_0
 10
1449.4387825980391
 20
280.69133532283519
 30
0.0
 11
1344.6242185980391
 21
276.69133332283508
 31
0.0
  0
ARC
  5
33D7
  8
AM_0
 10
1295.6242465980381
 20
376.31136132283518
 30
0.0
 40
128.43754799999999
 50
270.0
 51
289.65811999999772
  0
LINE
  5
33D8
  8
AM_0
 10
1263.683240598039
 20
247.8737713228351
 30
0.0
 11
1295.6242465980381
 21
247.8737713228351
 31
0.0
  0
LINE
  5
33D9
  8
AM_0
 10
1264.0618105980391
 20
251.6913373228351
 30
0.0
 11
1264.0618105980391
 21
257.21672532283509
 31
0.0
  0
ARC
  5
33DA
  8
AM_0
 10
1272.061778598038
 20
257.21672532283509
 30
0.0
 40
8.0000003999999976
 50
90.000003000010722
 51
180.00001000000091
  0
ARC
  5
33DB
  8
AM_0
 10
1354.6242205980391
 20
266.69133732283501
 30
0.0
 40
19.437555599999971
 50
179.9999899999988
 51
0.0000100179138904
  0
ARC
  5
33DC
  8
AM_0
 10
1327.186688598038
 20
266.69133732283501
 30
0.0
 40
8.0000003999999976
 50
0.0
 51
38.170125999991761
  0
LINE
  5
33DD
  8
AM_0
 10
1374.061784598038
 20
266.69133732283501
 30
0.0
 11
1374.061784598038
 21
270.74736732283509
 31
0.0
  0
ARC
  5
33DE
  8
AM_0
 10
1295.6242465980381
 20
376.31136132283518
 30
0.0
 40
128.43754799999999
 50
309.31118999999092
 51
310.03601000001112
  0
ARC
  5
33DF
  8
AM_0
 10
1382.061782598038
 20
270.74736732283509
 30
0.0
 40
8.0000003999999976
 50
129.3111899999912
 51
180.00001000000091
  0
LINE
  5
33E0
  8
AM_0
 10
1474.624238598039
 20
406.69134132283511
 30
0.0
 11
1470.624236598039
 21
301.87678932283512
 31
0.0
  0
ARC
  5
33E1
  8
AM_0
 10
1244.6242165980391
 20
506.69137332283509
 30
0.0
 40
304.99997999999999
 50
312.18473000000688
 51
317.81526999999312
  0
CIRCLE
  5
33E2
  8
AM_0
 10
1435.543058598038
 20
315.7725133228351
 30
0.0
 40
12.0000006
  0
ARC
  5
33E3
  8
AM_0
 10
1390.024124598038
 20
409.30617732283508
 30
0.0
 40
9.9999996000000007
 50
347.788880000002
 51
19.265641000005719
  0
ARC
  5
33E4
  8
AM_0
 10
1244.6242165980391
 20
496.69134132283511
 30
0.0
 40
143.999988
 50
343.5045499999992
 51
45.028277999996241
  0
LINE
  5
33E5
  8
AM_0
 10
1254.624248598039
 20
534.19131132283508
 30
0.0
 11
1254.624248598039
 21
546.19131132283519
 31
0.0
  0
ARC
  5
33E6
  8
AM_0
 10
1378.862168598039
 20
456.93984732283508
 30
0.0
 40
4.00000014
 50
269.3273499999965
 51
343.5045499999992
  0
LINE
  5
33E7
  8
AM_0
 10
1299.980234598039
 20
570.53268132283506
 30
0.0
 11
1367.4229285980391
 21
637.9752973228351
 31
0.0
  0
LINE
  5
33E8
  8
AM_0
 10
1308.465560598039
 20
562.04733132283513
 30
0.0
 11
1375.9082485980391
 21
629.49003732283506
 31
0.0
  0
ARC
  5
33E9
  8
AM_0
 10
1296.444746598039
 20
574.06820532283518
 30
0.0
 40
4.9999996800000002
 50
268.28215999999401
 51
315.0000000000046
  0
ARC
  5
33EA
  8
AM_0
 10
1312.001078598038
 20
558.51180732283501
 30
0.0
 40
4.9999996800000002
 50
135.0000000000046
 51
181.7178399999992
  0
ARC
  5
33EB
  8
AM_0
 10
1379.4437425980391
 20
625.95447732283515
 30
0.0
 40
4.9999996800000002
 50
78.841153999999761
 51
135.0000000000046
  0
ARC
  5
33EC
  8
AM_0
 10
1363.887404598039
 20
641.51085732283525
 30
0.0
 40
4.9999996800000002
 50
315.0000000000046
 51
11.158846999997991
  0
LINE
  5
33ED
  8
AM_0
 10
1144.624274598038
 20
736.69131732283518
 30
0.0
 11
1344.6242185980391
 21
736.69131732283518
 31
0.0
  0
LINE
  5
33EE
  8
AM_0
 10
1039.809686598039
 20
732.69129732283466
 30
0.0
 11
1144.624244598039
 21
736.69131732283518
 31
0.0
  0
CIRCLE
  5
33EF
  8
AM_0
 10
1053.705386598039
 20
697.61019732283512
 30
0.0
 40
12.0000006
  0
ARC
  5
33F0
  8
AM_0
 10
1244.6242165980391
 20
506.69137332283509
 30
0.0
 40
304.99997999999999
 50
132.18473000000671
 51
137.81526999999301
  0
LINE
  5
33F1
  8
AM_0
 10
1344.624248598039
 20
736.69137732283491
 30
0.0
 11
1449.4388005980391
 21
732.69135732283519
 31
0.0
  0
CIRCLE
  5
33F2
  8
AM_0
 10
1435.543058598038
 20
697.61019732283512
 30
0.0
 40
12.0000006
  0
LINE
  5
33F3
  8
ﾁｭｳｼﾝｾﾝ1
 10
1419.986726598039
 20
682.05387732283475
 30
0.0
 11
1451.099414598038
 21
713.16651732283515
 31
0.0
  0
ARC
  5
33F4
  8
ﾁｭｳｼﾝｾﾝ1
 10
1244.6242165980391
 20
506.69137332283509
 30
0.0
 40
270.00000599999998
 50
40.330163000001342
 51
49.669835999991491
  0
ARC
  5
33F5
  8
AM_0
 10
1244.6242165980391
 20
506.69137332283509
 30
0.0
 40
304.99997999999999
 50
42.184730000006837
 51
47.815271999996433
  0
LINE
  5
33F6
  8
AM_0
 10
321.72333404809598
 20
594.09133332283523
 30
0.0
 11
321.72333404809598
 21
294.09133332283523
 31
0.0
  0
LINE
  5
33F7
  8
AM_0
 10
402.72332404809617
 20
1218.911624513069
 30
0.0
 11
346.59244004809602
 21
1220.381463453117
 31
0.0
  0
LINE
  5
33F8
  8
AM_0
 10
371.3191140480954
 20
1201.665651453116
 30
0.0
 11
399.72393404809623
 21
1200.673733453116
 31
0.0
  0
LINE
  5
33F9
  8
AM_0
 10
399.72393404809623
 20
1185.117384453117
 30
0.0
 11
371.3191140480954
 21
1186.109302453116
 31
0.0
  0
LINE
  5
33FA
  8
AM_0
 10
399.02633204809598
 20
1175.4453854531171
 30
0.0
 11
346.59244004809602
 21
1176.8184154531159
 31
0.0
  0
LINE
  5
33FB
  8
AM_0
 10
399.72393404809623
 20
1016.705865453116
 30
0.0
 11
371.3191140480954
 21
1015.713946453117
 31
0.0
  0
LINE
  5
33FC
  8
AM_0
 10
399.02633204809598
 20
1026.377864453116
 30
0.0
 11
346.59244004809602
 21
1025.004834453116
 31
0.0
  0
LINE
  5
33FD
  8
AM_0
 10
371.3191140480954
 20
1000.157597453117
 30
0.0
 11
399.72393404809623
 21
1001.149515453117
 31
0.0
  0
LINE
  5
33FE
  8
AM_0
 10
402.72332404809617
 20
982.91162439316486
 30
0.0
 11
346.59244004809602
 21
981.44178545311684
 31
0.0
  0
LINE
  5
33FF
  8
AM_0
 10
321.723324048096
 20
1250.911624453116
 30
0.0
 11
321.723324048096
 21
950.91162445311693
 31
0.0
  0
LINE
  5
3400
  8
AM_0
 10
341.723324048096
 20
1247.911624453116
 30
0.0
 11
341.723324048096
 21
1100.911624453116
 31
0.0
  0
LINE
  5
3401
  8
AM_0
 10
344.68603904809572
 20
1004.231253453117
 30
0.0
 11
369.456326048096
 21
1015.283114453117
 31
0.0
  0
LINE
  5
3402
  8
AM_0
 10
341.723324048096
 20
953.91162445311704
 30
0.0
 11
341.723324048096
 21
1100.911624453116
 31
0.0
  0
LINE
  5
3403
  8
AM_0
 10
372.723324048096
 20
1002.190666453117
 30
0.0
 11
372.723324048096
 21
1013.670868453117
 31
0.0
  0
LINE
  5
3404
  8
AM_0
 10
321.723324048096
 20
950.91162445311693
 30
0.0
 11
338.723324048096
 21
950.91162445311693
 31
0.0
  0
ARC
  5
3405
  8
AM_0
 10
338.723324048096
 20
953.91162445311704
 30
0.0
 40
3.0
 50
270.0
 51
0.0
  0
ARC
  5
3406
  8
AM_0
 10
346.723324048096
 20
984.10878245311699
 30
0.0
 40
5.0
 50
114.0451930000003
 51
180.0
  0
ARC
  5
3407
  8
AM_0
 10
346.723324048096
 20
976.44349945311683
 30
0.0
 40
5.0
 50
91.499999999989626
 51
180.0
  0
LINE
  5
3408
  8
AM_0
 10
344.68603904809572
 20
988.67490345311671
 30
0.0
 11
369.456326048096
 21
999.72676545311708
 31
0.0
  0
ARC
  5
3409
  8
AM_0
 10
346.723324048096
 20
999.66513145311706
 30
0.0
 40
5.0
 50
114.0451930000003
 51
180.0
  0
ARC
  5
340A
  8
AM_0
 10
371.49361204809571
 20
995.16064345311702
 30
0.0
 40
5.0
 50
92.000000000003666
 51
114.0451930000003
  0
ARC
  5
340B
  8
AM_0
 10
346.723324048096
 20
1020.006547453117
 30
0.0
 40
5.0
 50
91.499999999989626
 51
150.72089099998681
  0
ARC
  5
340C
  8
AM_0
 10
371.49361204809571
 20
1010.716992453117
 30
0.0
 40
5.0
 50
92.000000000003666
 51
114.0451930000003
  0
LINE
  5
340D
  8
AM_0
 10
372.723324048096
 20
1199.6325824531159
 30
0.0
 11
372.723324048096
 21
1188.152381453116
 31
0.0
  0
LINE
  5
340E
  8
AM_0
 10
344.68603904809572
 20
1197.591996453117
 30
0.0
 11
369.456326048096
 21
1186.540135453115
 31
0.0
  0
ARC
  5
340F
  8
AM_0
 10
346.723324048096
 20
1181.816701453117
 30
0.0
 40
5.0
 50
209.27910900001291
 51
268.50000000001029
  0
ARC
  5
3410
  8
AM_0
 10
371.49361204809571
 20
1191.1062564531171
 30
0.0
 40
5.0
 50
245.95480699999951
 51
267.99999999999631
  0
LINE
  5
3411
  8
AM_0
 10
344.68603904809572
 20
1213.148345453116
 30
0.0
 11
369.456326048096
 21
1202.096484453117
 31
0.0
  0
ARC
  5
3412
  8
AM_0
 10
346.723324048096
 20
1217.7144674531171
 30
0.0
 40
5.0
 50
180.0
 51
245.95480699999951
  0
ARC
  5
3413
  8
AM_0
 10
346.723324048096
 20
1202.158118453116
 30
0.0
 40
5.0
 50
180.0
 51
245.95480699999951
  0
ARC
  5
3414
  8
AM_0
 10
371.49361204809571
 20
1206.6626054531171
 30
0.0
 40
5.0
 50
245.95480699999951
 51
267.99999999999631
  0
LINE
  5
3415
  8
AM_0
 10
321.723324048096
 20
1250.911624453116
 30
0.0
 11
338.723324048096
 21
1250.911624453116
 31
0.0
  0
ARC
  5
3416
  8
AM_0
 10
346.723324048096
 20
1225.379750453116
 30
0.0
 40
5.0
 50
180.0
 51
268.50000000001029
  0
ARC
  5
3417
  8
AM_0
 10
338.723324048096
 20
1247.911624453116
 30
0.0
 40
3.0
 50
0.0
 51
90.0
  0
LINE
  5
3418
  8
AM_0
 10
399.72393404809623
 20
1016.705865453116
 30
0.0
 11
399.72393404809623
 21
1001.149515453117
 31
0.0
  0
LINE
  5
3419
  8
AM_0
 10
400.72332404809578
 20
1017.740764453117
 30
0.0
 11
400.72332404809578
 21
1002.184415453116
 31
0.0
  0
LINE
  5
341A
  8
AM_0
 10
399.72393404809623
 20
1001.149515453117
 30
0.0
 11
400.72332404809578
 21
1002.184415453116
 31
0.0
  0
LINE
  5
341B
  8
AM_0
 10
400.72332404809578
 20
1024.888117453117
 30
0.0
 11
400.72332404809578
 21
1017.740764453117
 31
0.0
  0
LINE
  5
341C
  8
AM_0
 10
399.72393404809623
 20
1016.705865453116
 30
0.0
 11
400.72332404809578
 21
1017.740764453117
 31
0.0
  0
LINE
  5
341D
  8
AM_0
 10
399.72393404809623
 20
1185.117384453117
 30
0.0
 11
399.72393404809623
 21
1200.673733453116
 31
0.0
  0
LINE
  5
341E
  8
AM_0
 10
400.72332404809578
 20
1184.082485453117
 30
0.0
 11
400.72332404809578
 21
1199.638834453116
 31
0.0
  0
LINE
  5
341F
  8
AM_0
 10
399.72393404809623
 20
1185.117384453117
 30
0.0
 11
400.72332404809578
 21
1184.082485453117
 31
0.0
  0
LINE
  5
3420
  8
AM_0
 10
400.72332404809578
 20
1176.9351314531159
 30
0.0
 11
400.72332404809578
 21
1184.082485453117
 31
0.0
  0
LINE
  5
3421
  8
AM_0
 10
399.72393404809623
 20
1200.673733453116
 30
0.0
 11
400.72332404809578
 21
1199.638834453116
 31
0.0
  0
ARC
  5
3422
  8
ﾁｭｳｼﾝｾﾝ1
 10
1244.6242165980391
 20
506.69137332283509
 30
0.0
 40
270.00000599999998
 50
130.33016400000841
 51
139.66983699999849
  0
LINE
  5
3423
  8
ﾁｭｳｼﾝｾﾝ1
 10
1069.261706598038
 20
682.05387732283475
 30
0.0
 11
1038.149018598039
 21
713.16651732283515
 31
0.0
  0
ARC
  5
3424
  8
ﾁｭｳｼﾝｾﾝ1
 10
1244.6242165980391
 20
506.69137332283509
 30
0.0
 40
270.00000599999998
 50
310.33015999999401
 51
319.66984000000173
  0
LINE
  5
3425
  8
ﾁｭｳｼﾝｾﾝ1
 10
1419.9867085980391
 20
331.32888132283512
 30
0.0
 11
1451.0993665980391
 21
300.21617532283511
 31
0.0
  0
TEXT
  5
36C4
  8
AM_0
 10
1064.5302297948799
 20
1209.33881225443
 30
0.0
 40
20.0
  1
VX55-080AF~VX55-120AF
  0
ENDSEC
  0
EOF
