  0
SECTION
  2
HEADER
  9
$ACADVER
  1
AC1009
  9
$INSBASE
 10
0.0
 20
0.0
 30
0.0
  9
$EXTMIN
 10
377.23512709424273
 20
310.66360849730518
 30
-0.0000000000112498
  9
$EXTMAX
 10
1408.816776088225
 20
1158.1690565334959
 30
0.0000000000002956
  9
$LIMMIN
 10
0.0
 20
0.0
  9
$LIMMAX
 10
1707.0
 20
1110.0
  9
$ORTHOMODE
 70
     0
  9
$REGENMODE
 70
     1
  9
$FILLMODE
 70
     1
  9
$QTEXTMODE
 70
     0
  9
$MIRRTEXT
 70
     1
  9
$DRAGMODE
 70
     2
  9
$LTSCALE
 40
6.0
  9
$OSMODE
 70
   551
  9
$ATTMODE
 70
     1
  9
$TEXTSIZE
 40
2.5
  9
$TRACEWID
 40
1.0
  9
$TEXTSTYLE
  7
STANDARD
  9
$CLAYER
  8
AM_0
  9
$CELTYPE
  6
BYLAYER
  9
$CECOLOR
 62
   256
  9
$DIMSCALE
 40
6.0
  9
$DIMASZ
 40
2.5
  9
$DIMEXO
 40
1.0
  9
$DIMDLI
 40
8.0
  9
$DIMRND
 40
0.0
  9
$DIMDLE
 40
0.0
  9
$DIMEXE
 40
0.6
  9
$DIMTP
 40
0.1
  9
$DIMTM
 40
0.1
  9
$DIMTXT
 40
2.5
  9
$DIMCEN
 40
0.0
  9
$DIMTSZ
 40
0.0
  9
$DIMTOL
 70
     0
  9
$DIMLIM
 70
     0
  9
$DIMTIH
 70
     0
  9
$DIMTOH
 70
     0
  9
$DIMSE1
 70
     0
  9
$DIMSE2
 70
     0
  9
$DIMTAD
 70
     1
  9
$DIMZIN
 70
     8
  9
$DIMBLK
  1

  9
$DIMASO
 70
     1
  9
$DIMSHO
 70
     1
  9
$DIMPOST
  1

  9
$DIMAPOST
  1
"
  9
$DIMALT
 70
     0
  9
$DIMALTD
 70
     2
  9
$DIMALTF
 40
0.0393701
  9
$DIMLFAC
 40
1.0
  9
$DIMTOFL
 70
     1
  9
$DIMTVP
 40
0.0
  9
$DIMTIX
 70
     0
  9
$DIMSOXD
 70
     0
  9
$DIMSAH
 70
     0
  9
$DIMBLK1
  1

  9
$DIMBLK2
  1

  9
$DIMSTYLE
  2
AM_ISO
  9
$DIMCLRD
 70
   256
  9
$DIMCLRE
 70
   256
  9
$DIMCLRT
 70
     4
  9
$DIMTFAC
 40
0.71
  9
$DIMGAP
 40
0.8
  9
$LUNITS
 70
     2
  9
$LUPREC
 70
     2
  9
$SKETCHINC
 40
1.0
  9
$FILLETRAD
 40
30.0
  9
$AUNITS
 70
     0
  9
$AUPREC
 70
     0
  9
$MENU
  1
.
  9
$ELEVATION
 40
0.0
  9
$PELEVATION
 40
0.0
  9
$THICKNESS
 40
0.0
  9
$LIMCHECK
 70
     0
  9
$BLIPMODE
 70
     0
  9
$CHAMFERA
 40
12.0
  9
$CHAMFERB
 40
6.0
  9
$SKPOLY
 70
     0
  9
$TDCREATE
 40
2452067.388413264
  9
$TDUPDATE
 40
2458541.5592965158
  9
$TDINDWG
 40
0.1422924421
  9
$TDUSRTIMER
 40
0.142292419
  9
$USRTIMER
 70
     1
  9
$ANGBASE
 50
0.0
  9
$ANGDIR
 70
     0
  9
$PDMODE
 70
     0
  9
$PDSIZE
 40
0.0
  9
$PLINEWID
 40
0.0
  9
$COORDS
 70
     1
  9
$SPLFRAME
 70
     0
  9
$SPLINETYPE
 70
     6
  9
$SPLINESEGS
 70
     8
  9
$ATTDIA
 70
     1
  9
$ATTREQ
 70
     1
  9
$HANDLING
 70
     1
  9
$HANDSEED
  5
399D
  9
$SURFTAB1
 70
     6
  9
$SURFTAB2
 70
     6
  9
$SURFTYPE
 70
     6
  9
$SURFU
 70
     6
  9
$SURFV
 70
     6
  9
$UCSNAME
  2

  9
$UCSORG
 10
0.0
 20
0.0
 30
0.0
  9
$UCSXDIR
 10
1.0
 20
0.0
 30
0.0
  9
$UCSYDIR
 10
0.0
 20
1.0
 30
0.0
  9
$PUCSNAME
  2

  9
$PUCSORG
 10
0.0
 20
0.0
 30
0.0
  9
$PUCSXDIR
 10
1.0
 20
0.0
 30
0.0
  9
$PUCSYDIR
 10
0.0
 20
1.0
 30
0.0
  9
$USERI1
 70
     0
  9
$USERI2
 70
     0
  9
$USERI3
 70
     0
  9
$USERI4
 70
     0
  9
$USERI5
 70
     0
  9
$USERR1
 40
0.0
  9
$USERR2
 40
0.0
  9
$USERR3
 40
0.0
  9
$USERR4
 40
0.0
  9
$USERR5
 40
0.0
  9
$WORLDVIEW
 70
     1
  9
$SHADEDGE
 70
     3
  9
$SHADEDIF
 70
    70
  9
$TILEMODE
 70
     1
  9
$MAXACTVP
 70
    64
  9
$PLIMCHECK
 70
     0
  9
$PEXTMIN
 10
1.0000000000000000E+020
 20
1.0000000000000000E+020
 30
1.0000000000000000E+020
  9
$PEXTMAX
 10
-1.0000000000000000E+020
 20
-1.0000000000000000E+020
 30
-1.0000000000000000E+020
  9
$PLIMMIN
 10
0.0
 20
0.0
  9
$PLIMMAX
 10
420.0
 20
297.0
  9
$UNITMODE
 70
     0
  9
$VISRETAIN
 70
     1
  9
$PLINEGEN
 70
     0
  9
$PSLTSCALE
 70
     1
  0
ENDSEC
  0
SECTION
  2
TABLES
  0
TABLE
  2
VPORT
 70
     1
  0
VPORT
  2
*ACTIVE
 70
     0
 10
0.0
 20
0.0
 11
1.0
 21
1.0
 12
893.02595159123393
 22
734.41633251540065
 13
0.0
 23
0.0
 14
15.0
 24
15.0
 15
60.0
 25
60.0
 16
0.0
 26
0.0
 36
1.0
 17
0.0
 27
0.0
 37
0.0
 40
853.3235632401005
 41
1.7571592210767459
 42
50.0
 43
0.0
 44
0.0
 50
0.0
 51
0.0
 71
     0
 72
   100
 73
     1
 74
     3
 75
     0
 76
     0
 77
     0
 78
     0
  0
ENDTAB
  0
TABLE
  2
LTYPE
 70
    26
  0
LTYPE
  2
CONTINUOUS
 70
     0
  3
Solid line
 72
    65
 73
     0
 40
0.0
  0
LTYPE
  2
AM_ISO02W050
 70
     0
  3
__ __ __ __ __ __ __ __ __ __ __ __ __ __ __
 72
    65
 73
     2
 40
7.5
 49
6.0
 49
-1.5
  0
LTYPE
  2
AM_ISO08W050
 70
     0
  3
____ . ____ . ____ . ____ . ____ . ____ . ____
 72
    65
 73
     4
 40
18.0
 49
12.0
 49
-1.5
 49
3.0
 49
-1.5
  0
LTYPE
  2
AM_ISO09W050
 70
     0
  3
_____ . . _____ . . _____ . . ____ .. ____
 72
    65
 73
     6
 40
22.5
 49
12.0
 49
-1.5
 49
3.0
 49
-1.5
 49
3.0
 49
-1.5
  0
LTYPE
  2
AMCONSTR
 70
     0
  3
_______________________
 72
    65
 73
     2
 40
9999.0
 49
9999.0
 49
0.0
  0
LTYPE
  2
AM_ISO08W050X2
 70
     0
  3
__ . __ . __ . __ . __ . __
 72
    65
 73
     4
 40
9.0
 49
6.0
 49
-0.75
 49
1.5
 49
-0.75
  0
LTYPE
  2
AM_ISO02W050X2
 70
     0
  3
 _ _ _ _ _ _ _ _ _ _ _ _
 72
    65
 73
     2
 40
3.75
 49
3.0
 49
-0.75
  0
LTYPE
  2
AMZIGZAG
 70
     0
  3
/\/-/\/-/\/-/\/-/\/-/\/
 72
    65
 73
     2
 40
11.000099999999991
 49
0.0001
 49
-11.0
  0
LTYPE
  2
ACISOWELD
 70
     0
  3
_ _ _ _ _
 72
    65
 73
     2
 40
2.0
 49
2.0
 49
-1.0
  0
LTYPE
  2
ACISOTGB
 70
     0
  3
__ . . __ . .
 72
    65
 73
     6
 40
9.0
 49
4.0
 49
-1.0
 49
1.0
 49
-1.0
 49
1.0
 49
-1.0
  0
LTYPE
  2
ACISOTGL
 70
     0
  3
_ _ _ _ _
 72
    65
 73
     2
 40
3.0
 49
2.0
 49
-1.0
  0
LTYPE
  2
CENTER
 70
     0
  3
__ . __
 72
    65
 73
     4
 40
7.0
 49
4.0
 49
-1.0
 49
1.0
 49
-1.0
  0
LTYPE
  2
PHANTOM2
 70
     0
  3
Phantom (.5x) ___ _ _ ___ _ _ ___ _ _ ___ _ _
 72
    65
 73
     6
 40
31.75
 49
15.875
 49
-3.174999999999998
 49
3.174999999999998
 49
-3.174999999999998
 49
3.174999999999998
 49
-3.174999999999998
  0
LTYPE
  2
ACANSTGBM
 70
     0
  3
__ . . __ . .
 72
    65
 73
     6
 40
9.0
 49
4.0
 49
-1.0
 49
1.0
 49
-1.0
 49
1.0
 49
-1.0
  0
LTYPE
  2
ACANSTGLM
 70
     0
  3
_ _ _ _ _
 72
    65
 73
     2
 40
3.0
 49
2.0
 49
-1.0
  0
LTYPE
  2
GEN7
 70
     0
  3
____ . ____ . ____ . ____ . ____ . ____ . ____
 72
    65
 73
     4
 40
14.25
 49
9.75
 49
-1.5
 49
1.5
 49
-1.5
  0
LTYPE
  2
GEN7A
 70
     0
  3
__ . __ . __
 72
    65
 73
     4
 40
7.375
 49
4.75
 49
-0.875
 49
0.875
 49
-0.875
  0
LTYPE
  2
ACJISTGB
 70
     0
  3
__ . . __ . .
 72
    65
 73
     6
 40
9.0
 49
4.0
 49
-1.0
 49
1.0
 49
-1.0
 49
1.0
 49
-1.0
  0
LTYPE
  2
ACJISTGL
 70
     0
  3
_ _ _ _ _
 72
    65
 73
     2
 40
3.0
 49
2.0
 49
-1.0
  0
LTYPE
  2
HIDDEN
 70
     0
  3
Hidden __ __ __ __ __ __ __ __ __ __ __ __ __ _
 72
    65
 73
     2
 40
0.375
 49
0.25
 49
-0.125
  0
LTYPE
  2
CENTER2
 70
     0
  3
Center (.5x) ___ _ ___ _ ___ _ ___ _ ___ _ ___
 72
    65
 73
     4
 40
1.125
 49
0.75
 49
-0.125
 49
0.125
 49
-0.125
  0
LTYPE
  2
HIDDEN2
 70
     0
  3
Hidden (.5x) _ _ _ _ _ _ _ _ _ _ _ _ _ _ _ _ _
 72
    65
 73
     2
 40
0.1875
 49
0.125
 49
-0.0625
  0
LTYPE
  2
AMZIGZAG2
 70
     0
  3
/\/-/\/-/\/-/\/-/\/-/\/
 72
    65
 73
     2
 40
0.4401
 49
0.0001
 49
-0.4400000000000002
  0
LTYPE
  2
ACANSTGB
 70
     0
  3
__ . . __ . .
 72
    65
 73
     6
 40
0.35433070866
 49
0.15748031496
 49
-0.03937007874
 49
0.03937007874
 49
-0.03937007874
 49
0.03937007874
 49
-0.03937007874
  0
LTYPE
  2
ACANSTGL
 70
     0
  3
_ _ _ _ _
 72
    65
 73
     2
 40
0.11811023622
 49
0.07874015748
 49
-0.03937007874
  0
ENDTAB
  0
TABLE
  2
LAYER
 70
     6
  0
LAYER
  2
0
 70
     0
 62
     7
  6
CONTINUOUS
  0
LAYER
  2
AM_0
 70
     0
 62
     7
  6
CONTINUOUS
  0
LAYER
  2
AM_5
 70
     0
 62
     2
  6
CONTINUOUS
  0
LAYER
  2
DEFPOINTS
 70
     0
 62
     7
  6
CONTINUOUS
  0
LAYER
  2
ﾁｭｳｼﾝｾﾝ
 70
     0
 62
     1
  6
GEN7
  0
LAYER
  2
ﾁｭｳｼﾝｾﾝ1
 70
     0
 62
     1
  6
GEN7A
  0
ENDTAB
  0
TABLE
  2
STYLE
 70
     9
  0
STYLE
  2
STANDARD
 70
     0
 40
0.0
 41
0.8299999999999999
 50
0.0
 71
     0
 42
2.5
  3
txt.shx
  4
bigfont.shx
  0
STYLE
  2
ANNOTATIVE
 70
     0
 40
0.0
 41
1.0
 50
0.0
 71
     0
 42
0.2
  3
txt
  4

  0
STYLE
  2

 70
     1
 40
0.0
 41
1.0
 50
0.0
 71
     0
 42
2.5
  3
ltypeshp.shx
  4

  0
STYLE
  2
ACISOTS
 70
     0
 40
1.0
 41
1.0
 50
0.0
 71
     0
 42
2.5
  3
isocp.shx
  4
extfont.shx
  0
STYLE
  2
ACISOGDT
 70
     0
 40
0.0
 41
1.0
 50
0.0
 71
     0
 42
2.5
  3
amgdt.shx
  4

  0
STYLE
  2
ACANSTS
 70
     0
 40
1.0
 41
1.0
 50
0.0
 71
     0
 42
2.5
  3
romans.shx
  4
bigfont.shx
  0
STYLE
  2
ACANSGDT
 70
     0
 40
0.0
 41
1.0
 50
0.0
 71
     0
 42
2.5
  3
amgdt.shx
  4

  0
STYLE
  2
ACJISTS
 70
     0
 40
1.0
 41
1.0
 50
0.0
 71
     0
 42
2.5
  3
isocp.shx
  4
bigfont.shx
  0
STYLE
  2
ACJISGDT
 70
     0
 40
0.0
 41
1.0
 50
0.0
 71
     0
 42
2.5
  3
amgdt.shx
  4

  0
ENDTAB
  0
TABLE
  2
VIEW
 70
     6
  0
VIEW
  2
AM_VIEW1
 70
     0
 40
555.00000000000011
 10
499.2955801104971
 20
832.50000000000011
 41
998.59116022099431
 11
0.0
 21
0.0
 31
1.0
 12
0.0
 22
0.0
 32
0.0
 42
50.0
 43
0.0
 44
0.0
 50
0.0
 71
     0
  0
VIEW
  2
AM_VIEW2
 70
     0
 40
555.00000000000011
 10
1207.704419889501
 20
832.50000000000011
 41
998.59116022099431
 11
0.0
 21
0.0
 31
1.0
 12
0.0
 22
0.0
 32
0.0
 42
50.0
 43
0.0
 44
0.0
 50
0.0
 71
     0
  0
VIEW
  2
AM_VIEW3
 70
     0
 40
555.00000000000011
 10
499.2955801104971
 20
277.49999999999989
 41
998.59116022099431
 11
0.0
 21
0.0
 31
1.0
 12
0.0
 22
0.0
 32
0.0
 42
50.0
 43
0.0
 44
0.0
 50
0.0
 71
     0
  0
VIEW
  2
AM_VIEW4
 70
     0
 40
555.00000000000011
 10
1207.704419889501
 20
277.49999999999989
 41
998.59116022099431
 11
0.0
 21
0.0
 31
1.0
 12
0.0
 22
0.0
 32
0.0
 42
50.0
 43
0.0
 44
0.0
 50
0.0
 71
     0
  0
VIEW
  2
AM_VIEW5
 70
     0
 40
555.00000000000011
 10
853.5
 20
555.00000000000011
 41
998.59116022099431
 11
0.0
 21
0.0
 31
1.0
 12
0.0
 22
0.0
 32
0.0
 42
50.0
 43
0.0
 44
0.0
 50
0.0
 71
     0
  0
VIEW
  2
AM_VIEW6
 70
     0
 40
1109.9889000000001
 10
853.5
 20
555.0
 41
1997.162348618785
 11
0.0
 21
0.0
 31
1.0
 12
0.0
 22
0.0
 32
0.0
 42
50.0
 43
0.0
 44
0.0
 50
0.0
 71
     0
  0
ENDTAB
  0
TABLE
  2
UCS
 70
     0
  0
ENDTAB
  0
TABLE
  2
APPID
 70
    95
  0
APPID
  2
ACAD
 70
     0
  0
APPID
  2
ACADANNOTATIVE
 70
     0
  0
APPID
  2
MCAD_NO_VIS
 70
     0
  0
APPID
  2
ACAD_TEMP_GRAPHIC
 70
     0
  0
APPID
  2
ACATTRIBSERVICES
 70
     0
  0
APPID
  2
GENIUS_GENREC_14
 70
     0
  0
APPID
  2
GENIUS_GENOBJ-N-REC_13
 70
     0
  0
APPID
  2
GENIUS_GENODEF_13
 70
     0
  0
APPID
  2
GENIUS_GENOLIS_13
 70
     0
  0
APPID
  2
GENIUS_GENOBJ-N-TIT_13
 70
     0
  0
APPID
  2
GENIUS_GENOENT_13
 70
     0
  0
APPID
  2
GENIUS_GENTITLE_13
 70
     0
  0
APPID
  2
GENIUS_GENOREF_13
 70
     0
  0
APPID
  2
GENIUS_GENSCREG_15
 70
     0
  0
APPID
  2
GENIUS_GENOBJ-N-SDF_13
 70
     0
  0
APPID
  2
GENIUS_GENFIL_13
 70
     0
  0
APPID
  2
GENIUS_GENOBJ-N-CHA_13
 70
     0
  0
APPID
  2
GENIUS_GENDTOL_13
 70
     0
  0
APPID
  2
GENIUS_GENOBJ-N-FIL_13
 70
     0
  0
APPID
  2
AD_DRAW
 70
     0
  0
APPID
  2
DESIGNERASSEMBLIES
 70
     0
  0
APPID
  2
ASURF_PCURVE_APPNAME
 70
     0
  0
APPID
  2
GENIUS_GE3SECT_13
 70
     0
  0
APPID
  2
GENIUS_GENCFG_13
 70
     0
  0
APPID
  2
GENIUS_GE3CFG0_13
 70
     0
  0
APPID
  2
GENIUS_GENCFG0_13
 70
     0
  0
APPID
  2
GENIUS_GENCFG1_13
 70
     0
  0
APPID
  2
GENIUS_GENCFG2_13
 70
     0
  0
APPID
  2
GENIUS_GENCFG3_13
 70
     0
  0
APPID
  2
GENIUS_GENCFG4_13
 70
     0
  0
APPID
  2
GENIUS_GEVCFG0_13
 70
     0
  0
APPID
  2
GENIUS_GENHINW_13
 70
     0
  0
APPID
  2
GENIUS_FIRSTVISTXT_14
 70
     0
  0
APPID
  2
GENIUS_GENOBJ-N-LEADER_13
 70
     0
  0
APPID
  2
GEV_VCCNULL_SWITCH_OFF
 70
     0
  0
APPID
  2
GENIUS_GEFCFG0_13
 70
     0
  0
APPID
  2
GENIUS_GENZVEED_13
 70
     0
  0
APPID
  2
GENIUS_GENSCREG_13
 70
     0
  0
APPID
  2
GENIUS_DUMCFG0_13
 70
     0
  0
APPID
  2
GEVID936201362
 70
     0
  0
APPID
  2
GEVDC
 70
     0
  0
APPID
  2
GEVCON
 70
     0
  0
APPID
  2
VCC
 70
     0
  0
APPID
  2
GEVPT
 70
     0
  0
APPID
  2
GEVIT
 70
     0
  0
APPID
  2
GENBH
 70
     0
  0
APPID
  2
GEVMK
 70
     0
  0
APPID
  2
GENIUS_GENBH_13
 70
     0
  0
APPID
  2
GENIUS_GENOBJ-NBEHI-BHF_13
 70
     0
  0
APPID
  2
GENIUS_GENOBJ-NBEHI-BHB_13
 70
     0
  0
APPID
  2
GENIUS_GENOBJ-F-DESC_13
 70
     0
  0
APPID
  2
GENIUS_GEFDESC_14
 70
     0
  0
APPID
  2
GENIUS_GENOBJ-F-PART_13
 70
     0
  0
APPID
  2
GENIUS_GEFSTDP_13
 70
     0
  0
APPID
  2
GENIUS_GEFPARTINS_13
 70
     0
  0
APPID
  2
GENIUS_GENTRA_14
 70
     0
  0
APPID
  2
GENIUS_GENINF13_13
 70
     0
  0
APPID
  2
GENIUS_GENOBJ-N-INFOPT_13
 70
     0
  0
APPID
  2
GENIUS_GENOBJ-N-RSSYM_13
 70
     0
  0
APPID
  2
GENIUS_GENSYMENT_13
 70
     0
  0
APPID
  2
GENIUS_GENSCSYM_13
 70
     0
  0
APPID
  2
GENIUS_GEFINFNAM_13
 70
     0
  0
APPID
  2
GENIUS_GENOBJ-N-CEN_13
 70
     0
  0
APPID
  2
GENIUS_GENOBJ-N-CRS_13
 70
     0
  0
APPID
  2
GENIUS_GENOBJ-N-CRC_13
 70
     0
  0
APPID
  2
GENIUS_GENCRC_14
 70
     0
  0
APPID
  2
GEVID942827039
 70
     0
  0
APPID
  2
GEVID942827040
 70
     0
  0
APPID
  2
GEVID942827041
 70
     0
  0
APPID
  2
GENIUS_GENOBJ-F-SCPASSM_13
 70
     0
  0
APPID
  2
GENIUS_GENDIMSH_14
 70
     0
  0
APPID
  2
GEVID942827042
 70
     0
  0
APPID
  2
GEVID946020473
 70
     0
  0
APPID
  2
GEVID946020474
 70
     0
  0
APPID
  2
GEVID946020475
 70
     0
  0
APPID
  2
GENIUS_GENOBJ-N-HTC_13
 70
     0
  0
APPID
  2
GENIUS_GENHATCH_13
 70
     0
  0
APPID
  2
GEVID948854295
 70
     0
  0
APPID
  2
GEVID939402019
 70
     0
  0
APPID
  2
GEVID952919491
 70
     0
  0
APPID
  2
GEVID952919492
 70
     0
  0
APPID
  2
GENIUS_GEFWELD_13
 70
     0
  0
APPID
  2
GENIUS_GENOBJ-F-WELS_13
 70
     0
  0
APPID
  2
GEVID952919493
 70
     0
  0
APPID
  2
GENIUS_GENOBJ-N-RSBK_13
 70
     0
  0
APPID
  2
GENIUS_GENOBJ-N-LIB_13
 70
     0
  0
APPID
  2
GENIUS_GENSCALE_13
 70
     0
  0
APPID
  2
GEVID986376691
 70
     0
  0
APPID
  2
DCO15
 70
     0
  0
APPID
  2
ACAD_DSTYLE_DIMBREAK
 70
     0
  0
APPID
  2
ACAD_DSTYLE_DIMJAG
 70
     0
  0
APPID
  2
ACAD_NAV_VCDISPLAY
 70
     0
  0
APPID
  2
ACADANNOPO
 70
     0
  0
APPID
  2
ACAD_EXEMPT_FROM_CAD_STANDARDS
 70
     0
  0
APPID
  2
ACAD_MLEADERVER
 70
     0
  0
ENDTAB
  0
TABLE
  2
DIMSTYLE
 70
    22
  0
DIMSTYLE
  2
STANDARD
 70
     0
  3

  4

  5

  6

  7

 40
1.0
 41
0.18
 42
0.0625
 43
0.38
 44
0.18
 45
0.0
 46
0.0
 47
0.0
 48
0.0
140
0.18
141
0.09
142
0.0
143
25.399999999999999
144
1.0
145
0.0
146
1.0
147
0.09
 71
     0
 72
     0
 73
     1
 74
     1
 75
     0
 76
     0
 77
     0
 78
     0
170
     0
171
     2
172
     0
173
     0
174
     0
175
     0
176
     0
177
     0
178
     0
  0
DIMSTYLE
  2
ANNOTATIVE
 70
     0
  3

  4

  5

  6

  7

 40
1.0
 41
0.18
 42
0.0625
 43
0.38
 44
0.18
 45
0.0
 46
0.0
 47
0.0
 48
0.0
140
0.18
141
0.09
142
0.0
143
25.399999999999999
144
1.0
145
0.0
146
1.0
147
0.09
 71
     0
 72
     0
 73
     1
 74
     1
 75
     0
 76
     0
 77
     0
 78
     0
170
     0
171
     2
172
     0
173
     0
174
     0
175
     0
176
     0
177
     0
178
     0
  0
DIMSTYLE
  2
AM_ISO
 70
     0
  3

  4
"
  5

  6

  7

 40
1.0
 41
2.5
 42
1.0
 43
8.0
 44
0.6
 45
0.0
 46
0.0
 47
0.1
 48
0.1
140
2.5
141
0.0
142
0.0
143
0.0393701
144
1.0
145
0.0
146
0.71
147
0.8
 71
     0
 72
     0
 73
     0
 74
     0
 75
     0
 76
     0
 77
     1
 78
     8
170
     0
171
     2
172
     1
173
     0
174
     0
175
     0
176
   256
177
   256
178
     4
  0
DIMSTYLE
  2
AM_ISO$3
 70
     0
  3

  4
"
  5

  6

  7

 40
1.0
 41
2.5
 42
1.0
 43
8.0
 44
0.6
 45
0.0
 46
0.0
 47
0.1
 48
0.1
140
2.5
141
0.0
142
0.0
143
0.0393701
144
1.0
145
0.0
146
0.71
147
0.8
 71
     0
 72
     0
 73
     0
 74
     1
 75
     0
 76
     0
 77
     1
 78
     8
170
     0
171
     2
172
     0
173
     0
174
     0
175
     0
176
   256
177
   256
178
     4
  0
DIMSTYLE
  2
AM_ISO$4
 70
     0
  3

  4
"
  5

  6

  7

 40
1.0
 41
2.5
 42
1.0
 43
8.0
 44
0.6
 45
0.0
 46
0.0
 47
0.1
 48
0.1
140
2.5
141
0.0
142
0.0
143
0.0393701
144
1.0
145
0.0
146
0.71
147
0.8
 71
     0
 72
     0
 73
     0
 74
     1
 75
     0
 76
     0
 77
     1
 78
     8
170
     0
171
     2
172
     0
173
     0
174
     0
175
     0
176
   256
177
   256
178
     4
  0
DIMSTYLE
  2
AM_ISO$6
 70
     0
  3

  4
"
  5

  6

  7

 40
1.0
 41
2.5
 42
1.0
 43
8.0
 44
0.6
 45
0.0
 46
0.0
 47
0.1
 48
0.1
140
2.5
141
0.0
142
0.0
143
0.0393701
144
1.0
145
0.0
146
0.71
147
0.8
 71
     0
 72
     0
 73
     0
 74
     0
 75
     0
 76
     0
 77
     0
 78
     8
170
     0
171
     2
172
     1
173
     0
174
     0
175
     0
176
   256
177
   256
178
     4
  0
DIMSTYLE
  2
AM_ISO$7
 70
     0
  3

  4
"
  5

  6

  7

 40
1.0
 41
2.5
 42
1.0
 43
8.0
 44
0.6
 45
0.0
 46
0.0
 47
0.1
 48
0.1
140
2.5
141
0.0
142
0.0
143
0.0393701
144
1.0
145
0.0
146
0.71
147
0.8
 71
     0
 72
     0
 73
     0
 74
     0
 75
     0
 76
     0
 77
     1
 78
     8
170
     0
171
     2
172
     1
173
     0
174
     0
175
     0
176
   256
177
   256
178
     4
  0
DIMSTYLE
  2
AM_ISO$SF
 70
     0
  3

  4
"
  5

  6

  7

 40
1.0
 41
2.5
 42
1.0
 43
10.0
 44
1.0
 45
0.0
 46
0.0
 47
0.1
 48
0.1
140
3.5
141
0.0
142
0.0
143
0.0393701
144
1.0
145
0.0
146
0.71
147
1.5
 71
     0
 72
     0
 73
     0
 74
     0
 75
     1
 76
     1
 77
     1
 78
     8
170
     0
171
     2
172
     1
173
     0
174
     0
175
     0
176
   256
177
   256
178
     2
  0
DIMSTYLE
  2
AM_ISO$SH
 70
     0
  3

  4
"
  5

  6

  7

 40
1.0
 41
2.5
 42
1.0
 43
10.0
 44
1.0
 45
0.0
 46
0.0
 47
0.1
 48
0.1
140
3.5
141
0.0
142
0.0
143
0.0393701
144
2.0
145
0.0
146
0.71
147
1.5
 71
     0
 72
     0
 73
     0
 74
     0
 75
     1
 76
     1
 77
     1
 78
     8
170
     0
171
     2
172
     1
173
     1
174
     0
175
     0
176
   256
177
   256
178
     2
  0
DIMSTYLE
  2
AM_JIS
 70
     0
  3

  4
"
  5

  6

  7

 40
1.0
 41
2.5
 42
1.0
 43
7.0
 44
1.0
 45
0.0
 46
0.0
 47
0.1
 48
0.1000000001
140
2.5
141
0.0
142
0.0
143
0.0393701
144
1.0
145
0.0
146
0.71
147
1.0
 71
     0
 72
     0
 73
     0
 74
     0
 75
     0
 76
     0
 77
     3
 78
     8
170
     0
171
     2
172
     1
173
     0
174
     0
175
     0
176
   256
177
   256
178
     4
  0
DIMSTYLE
  2
AM_JIS$3
 70
     0
  3

  4
"
  5

  6

  7

 40
1.0
 41
2.5
 42
1.0
 43
7.0
 44
1.0
 45
0.0
 46
0.0
 47
0.1
 48
0.1000000001
140
2.5
141
0.0
142
0.0
143
0.0393701
144
1.0
145
0.0
146
0.71
147
1.0
 71
     0
 72
     0
 73
     0
 74
     1
 75
     0
 76
     0
 77
     3
 78
     8
170
     0
171
     2
172
     0
173
     0
174
     0
175
     0
176
   256
177
   256
178
     4
  0
DIMSTYLE
  2
AM_JIS$4
 70
     0
  3

  4
"
  5

  6

  7

 40
1.0
 41
2.5
 42
1.0
 43
7.0
 44
1.0
 45
0.0
 46
0.0
 47
0.1
 48
0.1000000001
140
2.5
141
0.0
142
0.0
143
0.0393701
144
1.0
145
0.0
146
0.71
147
1.0
 71
     0
 72
     0
 73
     0
 74
     0
 75
     0
 76
     0
 77
     3
 78
     8
170
     0
171
     2
172
     0
173
     0
174
     0
175
     0
176
   256
177
   256
178
     4
  0
DIMSTYLE
  2
AM_JIS$6
 70
     0
  3

  4
"
  5

  6

  7

 40
1.0
 41
2.5
 42
1.0
 43
7.0
 44
1.0
 45
0.0
 46
0.0
 47
0.1
 48
0.1000000001
140
2.5
141
0.0
142
0.0
143
0.0393701
144
1.0
145
0.0
146
0.71
147
1.0
 71
     0
 72
     0
 73
     0
 74
     0
 75
     0
 76
     0
 77
     0
 78
     8
170
     0
171
     2
172
     1
173
     0
174
     0
175
     0
176
   256
177
   256
178
     4
  0
DIMSTYLE
  2
AM_JIS$7
 70
     0
  3

  4
"
  5

  6

  7

 40
1.0
 41
2.5
 42
1.0
 43
7.0
 44
1.0
 45
0.0
 46
0.0
 47
0.1
 48
0.1000000001
140
2.5
141
0.0
142
0.0
143
0.0393701
144
1.0
145
0.0
146
0.71
147
1.0
 71
     0
 72
     0
 73
     0
 74
     0
 75
     0
 76
     0
 77
     3
 78
     8
170
     0
171
     2
172
     1
173
     0
174
     0
175
     0
176
   256
177
   256
178
     4
  0
DIMSTYLE
  2
AM_JIS$SF
 70
     0
  3

  4
"
  5

  6

  7

 40
1.0
 41
2.5
 42
1.0
 43
10.0
 44
1.0
 45
0.0
 46
0.0
 47
0.1
 48
0.1
140
3.5
141
0.0
142
0.0
143
0.0393701
144
1.0
145
0.0
146
0.71
147
1.5
 71
     0
 72
     0
 73
     0
 74
     0
 75
     1
 76
     1
 77
     3
 78
     8
170
     0
171
     2
172
     1
173
     0
174
     0
175
     0
176
   256
177
   256
178
     4
  0
DIMSTYLE
  2
AM_JIS$SH
 70
     0
  3

  4
"
  5

  6

  7

 40
1.0
 41
2.5
 42
1.0
 43
10.0
 44
1.0
 45
0.0
 46
0.0
 47
0.1
 48
0.1
140
3.5
141
0.0
142
0.0
143
0.0393701
144
1.0
145
0.0
146
0.71
147
1.5
 71
     0
 72
     0
 73
     0
 74
     0
 75
     1
 76
     0
 77
     3
 78
     8
170
     0
171
     2
172
     1
173
     1
174
     0
175
     0
176
   256
177
   256
178
     4
  0
DIMSTYLE
  2
AM_ANSI
 70
     0
  3

  4
mm
  5

  6

  7

 40
1.0
 41
0.1
 42
0.05
 43
0.5
 44
0.1
 45
0.0
 46
0.0
 47
0.1
 48
0.1
140
0.12
141
0.0
142
0.0
143
25.399999999999999
144
1.0
145
0.0
146
0.71
147
0.06
 71
     0
 72
     0
 73
     1
 74
     1
 75
     0
 76
     0
 77
     0
 78
     7
170
     0
171
     2
172
     0
173
     0
174
     0
175
     0
176
   256
177
   256
178
     2
  0
DIMSTYLE
  2
AM_ANSI$3
 70
     0
  3

  4
mm
  5

  6

  7

 40
1.0
 41
0.1
 42
0.05
 43
0.5
 44
0.1
 45
0.0
 46
0.0
 47
0.1
 48
0.1
140
0.12
141
0.0
142
0.0
143
25.399999999999999
144
1.0
145
0.0
146
0.71
147
0.06
 71
     0
 72
     0
 73
     1
 74
     1
 75
     0
 76
     0
 77
     0
 78
     7
170
     0
171
     2
172
     0
173
     0
174
     0
175
     0
176
   256
177
   256
178
     2
  0
DIMSTYLE
  2
AM_ANSI$4
 70
     0
  3

  4
mm
  5

  6

  7

 40
1.0
 41
0.1
 42
0.05
 43
0.5
 44
0.1
 45
0.0
 46
0.0
 47
0.1
 48
0.1
140
0.12
141
0.0
142
0.0
143
25.399999999999999
144
1.0
145
0.0
146
0.71
147
0.06
 71
     0
 72
     0
 73
     1
 74
     1
 75
     0
 76
     0
 77
     0
 78
     7
170
     0
171
     2
172
     0
173
     0
174
     0
175
     0
176
   256
177
   256
178
     2
  0
DIMSTYLE
  2
AM_ANSI$7
 70
     0
  3

  4
mm
  5

  6

  7

 40
1.0
 41
0.1
 42
0.05
 43
0.5
 44
0.1
 45
0.0
 46
0.0
 47
0.1
 48
0.1
140
0.24
141
0.0
142
0.0
143
25.399999999999999
144
1.0
145
0.0
146
0.71
147
0.06
 71
     0
 72
     0
 73
     1
 74
     1
 75
     0
 76
     0
 77
     0
 78
     7
170
     0
171
     2
172
     0
173
     0
174
     0
175
     0
176
   256
177
   256
178
     2
  0
DIMSTYLE
  2
AM_ANSI$SF
 70
     0
  3

  4
mm
  5

  6

  7

 40
1.0
 41
0.1
 42
0.05
 43
0.5
 44
0.1
 45
0.0
 46
0.0
 47
0.1
 48
0.1
140
0.12
141
0.0
142
0.0
143
25.399999999999999
144
1.0
145
0.0
146
0.71
147
0.06
 71
     0
 72
     0
 73
     1
 74
     1
 75
     1
 76
     1
 77
     0
 78
     7
170
     0
171
     2
172
     0
173
     0
174
     0
175
     0
176
   256
177
   256
178
     2
  0
DIMSTYLE
  2
AM_ANSI$SH
 70
     0
  3

  4
mm
  5

  6

  7

 40
1.0
 41
0.1
 42
0.05
 43
0.5
 44
0.1
 45
0.0
 46
0.0
 47
0.1
 48
0.1
140
0.12
141
0.0
142
0.0
143
25.399999999999999
144
1.0
145
0.0
146
0.71
147
0.06
 71
     0
 72
     0
 73
     1
 74
     1
 75
     1
 76
     1
 77
     0
 78
     7
170
     0
171
     2
172
     0
173
     1
174
     0
175
     0
176
   256
177
   256
178
     2
  0
ENDTAB
  0
ENDSEC
  0
SECTION
  2
BLOCKS
  0
BLOCK
  8
0
  2
$MODEL_SPACE
 70
     0
 10
0.0
 20
0.0
 30
0.0
  3
$MODEL_SPACE
  1

  0
ENDBLK
  5
3803
  8
0
  0
BLOCK
 67
     1
  8
0
  2
$PAPER_SPACE
 70
     0
 10
0.0
 20
0.0
 30
0.0
  3
$PAPER_SPACE
  1

  0
ENDBLK
  5
37FF
 67
     1
  8
0
  0
BLOCK
  8
0
  2
GENAXEH
 70
     0
 10
0.0
 20
0.0
 30
0.0
  3
GENAXEH
  1

  0
LINE
  5
3587
  8
0
 10
-1.0
 20
0.0
 30
0.0
 11
1.0
 21
0.0
 31
0.0
  0
ENDBLK
  5
3588
  8
0
  0
BLOCK
  8
0
  2
_OPEN30
 70
     0
 10
0.0
 20
0.0
 30
0.0
  3
_OPEN30
  1

  0
LINE
  5
358B
  8
0
 62
     0
 10
-1.0
 20
0.26794919
 30
0.0
 11
0.0
 21
0.0
 31
0.0
  0
LINE
  5
358C
  8
0
 62
     0
 10
0.0
 20
0.0
 30
0.0
 11
-1.0
 21
-0.26794919
 31
0.0
  0
LINE
  5
358D
  8
0
 62
     0
 10
0.0
 20
0.0
 30
0.0
 11
-1.0
 21
0.0
 31
0.0
  0
ENDBLK
  5
358E
  8
0
  0
BLOCK
  8
0
  2
_NONE
 70
     0
 10
0.0
 20
0.0
 30
0.0
  3
_NONE
  1

  0
ENDBLK
  5
3591
  8
0
  0
BLOCK
  8
0
  2
*U5
 70
     1
 10
0.0
 20
0.0
 30
0.0
  3
*U5
  1

  0
TEXT
  5
3594
  8
AM_0
 62
     4
 10
317.79227545639719
 20
347.27350534921402
 30
0.0
 40
12.5
  1
\U+2205
 50
90.0
 41
0.8299999999999999
  0
TEXT
  5
3595
  8
AM_0
 62
     4
 10
317.79227545639719
 20
357.64850534921402
 30
0.0
 40
12.5
  1
300
 50
90.0
 41
0.8299999999999999
  0
ENDBLK
  5
3596
  8
0
  0
BLOCK
  8
0
  2
*U6
 70
     1
 10
0.0
 20
0.0
 30
0.0
  3
*U6
  1

  0
TEXT
  5
3599
  8
AM_0
 62
     4
 10
352.05530883961518
 20
334.65058868254738
 30
0.0
 40
12.5
  1
\U+2205
 50
90.0
 41
0.8299999999999999
  0
TEXT
  5
359A
  8
AM_0
 62
     4
 10
352.05530883961518
 20
345.02558868254721
 30
0.0
 40
12.5
  1
230 
 50
90.0
 41
0.8299999999999999
  0
TEXT
  5
359B
  8
AM_0
 62
     4
 10
352.05530883961518
 20
380.64642201588072
 30
0.0
 40
10.0
  1
G7
 50
90.0
 41
0.8299999999999999
  0
ENDBLK
  5
359C
  8
0
  0
BLOCK
  8
0
  2
*U7
 70
     1
 10
0.0
 20
0.0
 30
0.0
  3
*U7
  1

  0
TEXT
  5
359F
  8
AM_0
 62
     4
 10
769.59701912717605
 20
295.84525720171052
 30
0.0
 40
12.5
  1
\U+2205
 50
90.0
 41
0.8299999999999999
  0
TEXT
  5
35A0
  8
AM_0
 62
     4
 10
769.59701912717605
 20
306.22025720171052
 30
0.0
 40
12.5
  1
280
 50
90.0
 41
0.8299999999999999
  0
TEXT
  5
35A1
  8
AM_0
 62
     4
 10
769.59701912717605
 20
335.6160905350439
 30
0.0
 40
10.0
  1
h7
 50
90.0
 41
0.8299999999999999
  0
ENDBLK
  5
35A2
  8
0
  0
BLOCK
  8
0
  2
*U8
 70
     1
 10
0.0
 20
0.0
 30
0.0
  3
*U8
  1

  0
TEXT
  5
35A5
  8
AM_0
 62
     4
 10
1062.288641728783
 20
648.91590493630451
 30
0.0
 40
12.5
  1
o
 41
0.8299999999999999
  0
TEXT
  5
35A6
  8
AM_0
 62
     4
 10
1074.639832204972
 20
648.91590493630451
 30
0.0
 40
12.5
  1
 330
 41
0.8299999999999999
  0
ENDBLK
  5
35A7
  8
0
  0
BLOCK
  8
0
  2
*U9
 70
     1
 10
0.0
 20
0.0
 30
0.0
  3
*U9
  1

  0
TEXT
  5
35AA
  8
AM_0
 62
     4
 10
314.17315062528689
 20
455.47045537755372
 30
0.0
 40
12.5
  1
\U+2205
 50
90.0
 41
0.8299999999999999
  0
TEXT
  5
35AB
  8
AM_0
 62
     4
 10
314.17315062528689
 20
465.84545537755378
 30
0.0
 40
12.5
  1
300
 50
90.0
 41
0.8299999999999999
  0
ENDBLK
  5
35AC
  8
0
  0
BLOCK
  8
0
  2
*U10
 70
     1
 10
0.0
 20
0.0
 30
0.0
  3
*U10
  1

  0
TEXT
  5
35AF
  8
AM_0
 62
     4
 10
348.43618400850482
 20
442.84753871088708
 30
0.0
 40
12.5
  1
\U+2205
 50
90.0
 41
0.8299999999999999
  0
TEXT
  5
35B0
  8
AM_0
 62
     4
 10
348.43618400850482
 20
453.22253871088719
 30
0.0
 40
12.5
  1
230 
 50
90.0
 41
0.8299999999999999
  0
TEXT
  5
35B1
  8
AM_0
 62
     4
 10
348.43618400850482
 20
488.84337204422047
 30
0.0
 40
10.0
  1
G7
 50
90.0
 41
0.8299999999999999
  0
ENDBLK
  5
35B2
  8
0
  0
BLOCK
  8
0
  2
*U11
 70
     1
 10
0.0
 20
0.0
 30
0.0
  3
*U11
  1

  0
TEXT
  5
35B5
  8
AM_0
 62
     4
 10
765.97789429606564
 20
404.04220723005022
 30
0.0
 40
12.5
  1
\U+2205
 50
90.0
 41
0.8299999999999999
  0
TEXT
  5
35B6
  8
AM_0
 62
     4
 10
765.97789429606564
 20
414.41720723005022
 30
0.0
 40
12.5
  1
280
 50
90.0
 41
0.8299999999999999
  0
TEXT
  5
35B7
  8
AM_0
 62
     4
 10
765.97789429606564
 20
443.81304056338359
 30
0.0
 40
10.0
  1
h7
 50
90.0
 41
0.8299999999999999
  0
ENDBLK
  5
35B8
  8
0
  0
BLOCK
  8
0
  2
*U12
 70
     1
 10
0.0
 20
0.0
 30
0.0
  3
*U12
  1

  0
TEXT
  5
35BB
  8
AM_0
 62
     4
 10
1058.6695168976721
 20
757.11285496464404
 30
0.0
 40
12.5
  1
o
 41
0.8299999999999999
  0
TEXT
  5
35BC
  8
AM_0
 62
     4
 10
1071.020707373862
 20
757.11285496464404
 30
0.0
 40
12.5
  1
 330
 41
0.8299999999999999
  0
ENDBLK
  5
35BD
  8
0
  0
BLOCK
  8
0
  2
_ACMFILLEDHALF
 70
     0
 10
0.0
 20
0.0
 30
0.0
  3
_ACMFILLEDHALF
  1

  0
TRACE
  5
3909
  8
AM_0
 62
     0
 10
-0.8
 20
0.0
 30
0.0
 11
-1.0
 21
0.166666666
 31
0.0
 12
0.0
 22
0.0
 32
0.0
 13
0.0
 23
0.0
 33
0.0
  0
LINE
  5
390A
  8
AM_0
 62
     0
 10
-1.0
 20
0.0
 30
0.0
 11
-0.8
 21
0.0
 31
0.0
  0
ENDBLK
  5
3908
  8
0
  0
ENDSEC
  0
SECTION
  2
ENTITIES
  0
LINE
  5
35BE
  8
AM_0
 10
706.37095887344753
 20
1020.629913340711
 30
0.0
 11
788.37095887344753
 21
1020.629913340711
 31
0.0
  0
LINE
  5
35BF
  8
AM_0
 10
706.37095887344753
 20
965.62991334071239
 30
0.0
 11
788.37095887344753
 21
965.62991334071239
 31
0.0
  0
LINE
  5
35C0
  8
AM_0
 10
726.37101887344727
 20
985.12985334071243
 30
0.0
 11
788.37095887344753
 21
985.12985334071243
 31
0.0
  0
LINE
  5
35C1
  8
AM_0
 10
726.37101887344727
 20
1001.129853340712
 30
0.0
 11
788.37095887344753
 21
1001.129853340712
 31
0.0
  0
LINE
  5
35C2
  8
ﾁｭｳｼﾝｾﾝ
 10
377.28439570106639
 20
993.12991334071262
 30
0.0
 11
798.98820887344755
 21
993.12991334071262
 31
0.0
  0
POLYLINE
  5
35C3
  8
AM_0
 66
     1
 10
0.0
 20
0.0
 30
0.0
  0
VERTEX
  5
35C4
  8
AM_0
 10
664.27384887344715
 20
1079.5181633407119
 30
0.0
 42
0.01720808
  0
VERTEX
  5
35C5
  8
AM_0
 10
659.85757887344766
 20
1022.142973340711
 30
0.0
 42
0.0088311605
  0
VERTEX
  5
35C6
  8
AM_0
 10
659.14072887344753
 20
993.12991334071262
 30
0.0
 42
0.025919753
  0
VERTEX
  5
35C7
  8
AM_0
 10
663.00955887344753
 20
907.16622334071235
 30
0.0
  0
SEQEND
  5
35C8
  8
AM_0
  0
LINE
  5
35C9
  8
AM_0
 10
685.37107887344735
 20
1117.479033340712
 30
0.0
 11
685.37107887344735
 21
868.78079334071253
 31
0.0
  0
LINE
  5
35CA
  8
AM_0
 10
703.37101887344761
 20
1133.1299133407119
 30
0.0
 11
703.37101887344761
 21
853.12991334071239
 31
0.0
  0
LINE
  5
35CB
  8
AM_0
 10
698.37101887344761
 20
1158.129873340712
 30
0.0
 11
698.37101887344761
 21
828.12985334071243
 31
0.0
  0
LINE
  5
35CC
  8
AM_0
 10
676.37101887344727
 20
1152.533173340712
 30
0.0
 11
676.37101887344727
 21
833.72665334071269
 31
0.0
  0
LINE
  5
35CD
  8
AM_0
 10
706.37095887344753
 20
1023.1299133407121
 30
0.0
 11
706.37095887344753
 21
963.12991334071228
 31
0.0
  0
LINE
  5
35CE
  8
AM_0
 10
533.8710188734475
 20
892.70095334071243
 30
0.0
 11
533.8710188734475
 21
974.21560334071228
 31
0.0
  0
LINE
  5
35CF
  8
AM_0
 10
543.37095887344753
 20
863.3761833407126
 30
0.0
 11
543.37095887344753
 21
970.12991334071239
 31
0.0
  0
LINE
  5
35D0
  8
AM_0
 10
474.3710188734475
 20
1113.129913340711
 30
0.0
 11
474.3710188734475
 21
873.12991334071273
 31
0.0
  0
LINE
  5
35D1
  8
AM_0
 10
487.37095887344731
 20
1111.129913340711
 30
0.0
 11
487.37095887344731
 21
875.12991334071262
 31
0.0
  0
LINE
  5
35D2
  8
AM_0
 10
553.3710188734475
 20
988.12991334071228
 30
0.0
 11
553.3710188734475
 21
860.12991334071262
 31
0.0
  0
LINE
  5
35D3
  8
AM_0
 10
487.37095887344731
 20
906.45498334071249
 30
0.0
 11
533.8710188734475
 21
906.45498334071249
 31
0.0
  0
LINE
  5
35D4
  8
AM_0
 10
487.37095887344731
 20
922.19705334071273
 30
0.0
 11
533.8710188734475
 21
922.19705334071273
 31
0.0
  0
LINE
  5
35D5
  8
AM_0
 10
489.37101887344721
 20
881.12991334071273
 30
0.0
 11
541.37095887344753
 21
881.12991334071273
 31
0.0
  0
LINE
  5
35D6
  8
AM_0
 10
474.3710188734475
 20
873.12991334071273
 30
0.0
 11
485.37101887344721
 21
873.12991334071273
 31
0.0
  0
ARC
  5
35D7
  8
AM_0
 10
489.37101887344721
 20
879.12991334071228
 30
0.0
 40
2.0
 50
90.00000299999769
 51
180.00001000000091
  0
ARC
  5
35D8
  8
AM_0
 10
485.37101887344721
 20
875.12991334071262
 30
0.0
 40
2.0
 50
269.999989999999
 51
0.0000006832495047
  0
LINE
  5
35D9
  8
AM_0
 10
474.3710188734475
 20
893.40267334071245
 30
0.0
 11
485.37101887344721
 21
893.40267334071245
 31
0.0
  0
LINE
  5
35DA
  8
AM_0
 10
474.3710188734475
 20
908.95901334071243
 30
0.0
 11
485.37101887344721
 21
908.95901334071243
 31
0.0
  0
LINE
  5
35DB
  8
AM_0
 10
475.3498988734475
 20
918.69296334071248
 30
0.0
 11
486.37876887344731
 21
918.69296334071248
 31
0.0
  0
ARC
  5
35DC
  8
AM_0
 10
485.37101887344721
 20
910.95901334071243
 30
0.0
 40
2.0
 50
269.999989999999
 51
0.0000006832495047
  0
ARC
  5
35DD
  8
AM_0
 10
485.37101887344721
 20
895.40261334071261
 30
0.0
 40
2.0
 50
269.999989999999
 51
0.0000006832495047
  0
LINE
  5
35DE
  8
AM_0
 10
553.37107887344735
 20
860.12985334071243
 30
0.0
 11
669.52781887344747
 21
856.07357334071264
 31
0.0
  0
ARC
  5
35DF
  8
AM_0
 10
538.87101887344727
 20
892.70095334071243
 30
0.0
 40
5.0
 50
180.00001000000091
 51
225.0
  0
ARC
  5
35E0
  8
AM_0
 10
546.37095887344753
 20
863.3761833407126
 30
0.0
 40
3.0
 50
180.00001000000091
 51
268.00000000000261
  0
LINE
  5
35E1
  8
AM_0
 10
553.3710188734475
 20
860.12991334071262
 30
0.0
 11
546.26627887344739
 21
860.3780133407123
 31
0.0
  0
ARC
  5
35E2
  8
AM_0
 10
541.37095887344753
 20
879.12991334071228
 30
0.0
 40
2.0
 50
0.0
 51
90.00000299999769
  0
ARC
  5
35E3
  8
AM_0
 10
538.37095887344753
 20
879.05886334071215
 30
0.0
 40
5.0
 50
0.0
 51
44.999998000001611
  0
LINE
  5
35E4
  8
AM_0
 10
541.90653887344752
 20
882.59432334071255
 30
0.0
 11
535.33549887344725
 21
889.16537334071245
 31
0.0
  0
LINE
  5
35E5
  8
AM_0
 10
638.30015887344734
 20
905.47946334071264
 30
0.0
 11
673.86924887344753
 21
883.95297334071245
 31
0.0
  0
LINE
  5
35E6
  8
AM_0
 10
635.72056887344752
 20
895.76583334071245
 30
0.0
 11
673.95981887344749
 21
872.62338334071262
 31
0.0
  0
ARC
  5
35E7
  8
AM_0
 10
677.3710188734475
 20
868.78079334071253
 30
0.0
 40
8.0
 50
270.0
 51
0.0
  0
ARC
  5
35E8
  8
AM_0
 10
681.3710188734475
 20
833.72665334071269
 30
0.0
 40
5.0
 50
179.9999899999988
 51
268.00000999999861
  0
LINE
  5
35E9
  8
AM_0
 10
672.88883887344753
 20
854.61215334071244
 30
0.0
 11
676.37107887344735
 21
851.12991334071262
 31
0.0
  0
POLYLINE
  5
35EA
  8
AM_0
 66
     1
 10
0.0
 20
0.0
 30
0.0
  0
VERTEX
  5
35EB
  8
AM_0
 10
666.45455887344735
 20
877.16561334071275
 30
0.0
 42
0.0020909347
  0
VERTEX
  5
35EC
  8
AM_0
 10
667.42040887344751
 20
870.1251033407126
 30
0.0
 42
0.0020881749
  0
VERTEX
  5
35ED
  8
AM_0
 10
668.44498887344753
 20
863.09348334071262
 30
0.0
 42
0.0020849591
  0
VERTEX
  5
35EE
  8
AM_0
 10
669.52775887344751
 20
856.0736333407126
 30
0.0
  0
SEQEND
  5
35EF
  8
AM_0
  0
ARC
  5
35F0
  8
AM_0
 10
671.3710188734475
 20
868.34579334071259
 30
0.0
 40
5.0
 50
0.0
 51
58.817640999998339
  0
ARC
  5
35F1
  8
AM_0
 10
669.35325887344754
 20
851.07668334071263
 30
0.0
 40
5.0
 50
45.000001000003799
 51
88.000000000002785
  0
LINE
  5
35F2
  8
AM_0
 10
681.19657887344738
 20
828.72964334071264
 30
0.0
 11
698.37113887344753
 21
828.12985334071243
 31
0.0
  0
LINE
  5
35F3
  8
AM_0
 10
698.37101887344761
 20
853.12991334071239
 30
0.0
 11
703.37101887344761
 21
853.12991334071239
 31
0.0
  0
ARC
  5
35F4
  8
AM_0
 10
677.3710188734475
 20
926.79324334071271
 30
0.0
 40
8.0
 50
270.0
 51
0.0
  0
LINE
  5
35F5
  8
AM_0
 10
638.30942887344747
 20
907.25637334071234
 30
0.0
 11
662.06424887344747
 21
907.25637334071234
 31
0.0
  0
ARC
  5
35F6
  8
AM_0
 10
638.30942887344747
 20
900.04348334071244
 30
0.0
 40
5.0
 50
179.9999899999988
 51
238.81764999999689
  0
ARC
  5
35F7
  8
AM_0
 10
638.30942887344747
 20
902.25637334071246
 30
0.0
 40
5.0
 50
90.00000299999769
 51
180.00001000000091
  0
LINE
  5
35F8
  8
AM_0
 10
633.30942887344725
 20
900.04348334071244
 30
0.0
 11
633.30942887344725
 21
902.25637334071246
 31
0.0
  0
LINE
  5
35F9
  8
AM_0
 10
665.02115887344746
 20
906.28823334071262
 30
0.0
 11
676.37107887344735
 21
897.96450334071233
 31
0.0
  0
ARC
  5
35FA
  8
AM_0
 10
662.06424887344747
 20
902.25637334071246
 30
0.0
 40
5.0
 50
53.744453000003212
 51
90.00000299999769
  0
LINE
  5
35FB
  8
AM_0
 10
703.37101887344761
 20
963.12991334071228
 30
0.0
 11
706.37095887344753
 21
963.12991334071228
 31
0.0
  0
ARC
  5
35FC
  8
AM_0
 10
528.8710188734475
 20
1012.044153340712
 30
0.0
 40
5.0
 50
288.96566000000053
 51
0.0
  0
ARC
  5
35FD
  8
AM_0
 10
528.8710188734475
 20
974.21560334071228
 30
0.0
 40
5.0
 50
0.0
 51
71.034342999998159
  0
ARC
  5
35FE
  8
AM_0
 10
535.37101887344716
 20
993.12991334071262
 30
0.0
 40
15.0
 50
199.4712300000005
 51
269.99984999999782
  0
ARC
  5
35FF
  8
AM_0
 10
535.37101887344716
 20
993.12991334071262
 30
0.0
 40
12.5
 50
203.5781799999973
 51
336.42183000000068
  0
ARC
  5
3600
  8
AM_0
 10
535.37101887344716
 20
993.12991334071262
 30
0.0
 40
12.5
 50
23.578179999997531
 51
156.42182000000241
  0
ARC
  5
3601
  8
AM_0
 10
535.37101887344716
 20
993.12991334071262
 30
0.0
 40
15.0
 50
90.000146000002943
 51
160.52876999999901
  0
LINE
  5
3602
  8
AM_0
 10
487.37095887344731
 20
1064.062713340712
 30
0.0
 11
533.8710188734475
 21
1064.062713340712
 31
0.0
  0
LINE
  5
3603
  8
AM_0
 10
487.37095887344731
 20
1079.804773340712
 30
0.0
 11
533.8710188734475
 21
1079.804773340712
 31
0.0
  0
LINE
  5
3604
  8
AM_0
 10
489.37101887344721
 20
1105.1298533407121
 30
0.0
 11
541.37095887344753
 21
1105.1298533407121
 31
0.0
  0
LINE
  5
3605
  8
AM_0
 10
515.3710188734475
 20
998.12991334071273
 30
0.0
 11
555.37101887344727
 21
998.12991334071273
 31
0.0
  0
LINE
  5
3606
  8
AM_0
 10
515.3710188734475
 20
988.12991334071228
 30
0.0
 11
555.37101887344727
 21
988.12991334071228
 31
0.0
  0
ARC
  5
3607
  8
AM_0
 10
515.3710188734475
 20
993.12991334071262
 30
0.0
 40
5.0
 50
90.00000299999769
 51
270.0
  0
LINE
  5
3608
  8
AM_0
 10
474.3710188734475
 20
1113.129913340711
 30
0.0
 11
485.37101887344721
 21
1113.129913340711
 31
0.0
  0
LINE
  5
3609
  8
AM_0
 10
475.3498988734475
 20
1067.566863340712
 30
0.0
 11
486.37876887344731
 21
1067.566863340712
 31
0.0
  0
LINE
  5
360A
  8
AM_0
 10
474.3710188734475
 20
1092.8570833407121
 30
0.0
 11
485.37101887344721
 21
1092.8570833407121
 31
0.0
  0
LINE
  5
360B
  8
AM_0
 10
474.3710188734475
 20
1077.300743340712
 30
0.0
 11
485.37101887344721
 21
1077.300743340712
 31
0.0
  0
ARC
  5
360C
  8
AM_0
 10
485.37101887344721
 20
1075.300683340711
 30
0.0
 40
2.0
 50
0.0
 51
90.00000299999769
  0
ARC
  5
360D
  8
AM_0
 10
489.37101887344721
 20
1107.1298533407121
 30
0.0
 40
2.0
 50
179.9999899999988
 51
270.0
  0
ARC
  5
360E
  8
AM_0
 10
485.37101887344721
 20
1090.8570833407121
 30
0.0
 40
2.0
 50
0.0
 51
90.00000299999769
  0
ARC
  5
360F
  8
AM_0
 10
485.37101887344721
 20
1111.129913340711
 30
0.0
 40
2.0
 50
0.0
 51
90.00000299999769
  0
POLYLINE
  5
3610
  8
AM_0
 66
     1
 10
0.0
 20
0.0
 30
0.0
  0
VERTEX
  5
3611
  8
AM_0
 10
671.49613887344753
 20
1130.2549133407119
 30
0.0
  0
VERTEX
  5
3612
  8
AM_0
 10
668.26587887344749
 20
1110.1904033407111
 30
0.0
 42
-1.0
  0
SEQEND
  5
3613
  8
AM_0
  0
ARC
  5
3614
  8
AM_0
 10
677.3710188734475
 20
1117.479033340712
 30
0.0
 40
8.0
 50
0.0
 51
90.00000299999769
  0
LINE
  5
3615
  8
AM_0
 10
553.3710188734475
 20
1126.129913340711
 30
0.0
 11
669.52775887344751
 21
1130.186183340712
 31
0.0
  0
LINE
  5
3616
  8
AM_0
 10
533.8710188734475
 20
1012.044153340712
 30
0.0
 11
533.8710188734475
 21
1093.5588633407119
 31
0.0
  0
LINE
  5
3617
  8
AM_0
 10
543.37095887344753
 20
1016.1299133407121
 30
0.0
 11
543.37095887344753
 21
1122.883633340711
 31
0.0
  0
LINE
  5
3618
  8
AM_0
 10
553.3710188734475
 20
1126.129913340711
 30
0.0
 11
553.3710188734475
 21
998.12991334071273
 31
0.0
  0
ARC
  5
3619
  8
AM_0
 10
535.37095887344753
 20
1016.1299133407121
 30
0.0
 40
8.0
 50
270.0001500000019
 51
0.0
  0
ARC
  5
361A
  8
AM_0
 10
555.37101887344727
 20
993.12991334071262
 30
0.0
 40
5.0
 50
270.0
 51
90.00000299999769
  0
ARC
  5
361B
  8
AM_0
 10
535.37095887344753
 20
970.12991334071239
 30
0.0
 40
8.0
 50
0.0
 51
89.999858999997556
  0
ARC
  5
361C
  8
AM_0
 10
541.37095887344753
 20
1107.1298533407121
 30
0.0
 40
2.0
 50
270.0
 51
0.0
  0
ARC
  5
361D
  8
AM_0
 10
538.37095887344753
 20
1107.200953340712
 30
0.0
 40
5.0
 50
315.0
 51
0.0
  0
ARC
  5
361E
  8
AM_0
 10
538.87101887344727
 20
1093.5588633407119
 30
0.0
 40
5.0
 50
135.0
 51
180.00001000000091
  0
LINE
  5
361F
  8
AM_0
 10
535.33542887344754
 20
1097.0943833407121
 30
0.0
 11
541.90647887344755
 21
1103.6654333407121
 31
0.0
  0
ARC
  5
3620
  8
AM_0
 10
546.37095887344753
 20
1122.883633340711
 30
0.0
 40
3.0
 50
91.999998000000545
 51
180.00001000000091
  0
LINE
  5
3621
  8
AM_0
 10
553.37095887344753
 20
1126.129913340711
 30
0.0
 11
546.26627887344739
 21
1125.8818033407119
 31
0.0
  0
ARC
  5
3622
  8
AM_0
 10
726.37101887344727
 20
993.12985334071243
 30
0.0
 40
8.0000113999999982
 50
90.00000299999769
 51
270.0
  0
LINE
  5
3623
  8
AM_0
 10
726.37095887344753
 20
1001.129853340712
 30
0.0
 11
726.37095887344753
 21
985.12985334071243
 31
0.0
  0
LINE
  5
3624
  8
AM_0
 10
703.37101887344761
 20
1023.1299133407121
 30
0.0
 11
706.37095887344753
 21
1023.1299133407121
 31
0.0
  0
ARC
  5
3625
  8
AM_0
 10
677.3710188734475
 20
1059.466523340712
 30
0.0
 40
8.0
 50
0.0
 51
90.00000299999769
  0
ARC
  5
3626
  8
AM_0
 10
638.30942887344747
 20
1086.216273340711
 30
0.0
 40
5.0
 50
121.18235999999619
 51
180.00001000000091
  0
LINE
  5
3627
  8
AM_0
 10
638.30015887344734
 20
1080.780303340712
 30
0.0
 11
673.86924887344753
 21
1102.3067333407121
 31
0.0
  0
LINE
  5
3628
  8
AM_0
 10
665.02122887344751
 20
1079.971463340712
 30
0.0
 11
676.37107887344735
 21
1088.295193340711
 31
0.0
  0
LINE
  5
3629
  8
AM_0
 10
638.30942887344747
 20
1079.003443340712
 30
0.0
 11
662.06424887344747
 21
1079.003443340712
 31
0.0
  0
ARC
  5
362A
  8
AM_0
 10
638.30942887344747
 20
1084.003443340712
 30
0.0
 40
5.0
 50
179.9999899999988
 51
270.0
  0
LINE
  5
362B
  8
AM_0
 10
633.30942887344725
 20
1086.216273340711
 30
0.0
 11
633.30942887344725
 21
1084.003443340712
 31
0.0
  0
ARC
  5
362C
  8
AM_0
 10
662.06424887344747
 20
1084.003443340712
 30
0.0
 40
5.0
 50
270.0
 51
306.25554999999889
  0
LINE
  5
362D
  8
AM_0
 10
635.72056887344752
 20
1090.4939233407119
 30
0.0
 11
673.95981887344749
 21
1113.636383340712
 31
0.0
  0
ARC
  5
362E
  8
AM_0
 10
671.3710188734475
 20
1117.9139633407119
 30
0.0
 40
5.0
 50
301.18235999999632
 51
0.0
  0
ARC
  5
362F
  8
AM_0
 10
681.3710188734475
 20
1152.533173340712
 30
0.0
 40
5.0
 50
91.999998000000545
 51
180.00001000000091
  0
ARC
  5
3630
  8
AM_0
 10
669.35325887344754
 20
1135.1831333407119
 30
0.0
 40
5.0
 50
271.9999999999971
 51
315.0
  0
LINE
  5
3631
  8
AM_0
 10
672.88883887344753
 20
1131.6475533407111
 30
0.0
 11
676.37107887344735
 21
1135.1298533407121
 31
0.0
  0
LINE
  5
3632
  8
AM_0
 10
698.37101887344761
 20
1133.1299133407119
 30
0.0
 11
703.37101887344761
 21
1133.1299133407119
 31
0.0
  0
LINE
  5
3633
  8
AM_0
 10
681.19663887344745
 20
1157.5300733407121
 30
0.0
 11
698.37107887344735
 21
1158.129873340712
 31
0.0
  0
LINE
  5
3634
  8
AM_0
 10
788.37095887344753
 20
1020.629913340711
 30
0.0
 11
788.37095887344753
 21
965.62991334071239
 31
0.0
  0
ARC
  5
3636
  8
AM_0
 10
535.37095887344731
 20
665.76211204422032
 30
0.0
 40
25.000000499999999
 50
306.46672000000012
 51
233.5332900000034
  0
CIRCLE
  5
3637
  8
AM_0
 10
535.37095887344731
 20
665.76211204422032
 30
0.0
 40
15.0
  0
LINE
  5
3638
  8
AM_0
 10
676.37095887344731
 20
677.16541204422015
 30
0.0
 11
676.37095887344731
 21
483.49875704421999
 31
0.0
  0
LINE
  5
3639
  8
AM_0
 10
698.37095887344742
 20
682.7621620442203
 30
0.0
 11
698.37095887344742
 21
352.76212204422029
 31
0.0
  0
LINE
  5
363A
  8
AM_0
 10
543.37095887344731
 20
526.2285270442203
 30
0.0
 11
670.97225887344769
 21
526.2285270442203
 31
0.0
  0
LINE
  5
363B
  8
AM_0
 10
553.37100887344752
 20
324.76213704422031
 30
0.0
 11
635.21430887344752
 21
322.61899204422031
 31
0.0
  0
LINE
  5
363C
  8
AM_0
 10
553.37095887344731
 20
639.76211204422009
 30
0.0
 11
655.15240887344783
 21
642.4273620442201
 31
0.0
  0
LINE
  5
363D
  8
AM_0
 10
543.37095887344731
 20
424.43293204422031
 30
0.0
 11
676.37095887344731
 21
424.43293204422031
 31
0.0
  0
LINE
  5
363E
  8
ﾁｭｳｼﾝｾﾝ
 10
515.96265887344725
 20
517.7621220442204
 30
0.0
 11
793.79980887344755
 21
517.7621220442204
 31
0.0
  0
LINE
  5
363F
  8
AM_0
 10
413.37100887344752
 20
619.76212204422052
 30
0.0
 11
413.37100887344752
 21
472.76212204422052
 31
0.0
  0
LINE
  5
3640
  8
AM_0
 10
393.37100887344752
 20
622.76212204422052
 30
0.0
 11
393.37100887344752
 21
322.7621220442204
 31
0.0
  0
LINE
  5
3641
  8
AM_0
 10
553.37095887344731
 20
639.76211204422009
 30
0.0
 11
553.37095887344731
 21
324.76212204422012
 31
0.0
  0
LINE
  5
3642
  8
AM_0
 10
533.87095887344731
 20
602.31196204422008
 30
0.0
 11
533.87095887344731
 21
348.2122720442203
 31
0.0
  0
LINE
  5
3643
  8
AM_0
 10
474.37100887344718
 20
592.76212704422028
 30
0.0
 11
474.37100887344718
 21
352.76212204422029
 31
0.0
  0
LINE
  5
3644
  8
AM_0
 10
487.37095887344719
 20
590.76212704422051
 30
0.0
 11
487.37095887344719
 21
354.76212204422029
 31
0.0
  0
LINE
  5
3645
  8
AM_0
 10
543.37095887344731
 20
637.48151204422015
 30
0.0
 11
543.37095887344731
 21
327.04270204422039
 31
0.0
  0
LINE
  5
3646
  8
AM_0
 10
470.67401687344721
 20
398.22836204422038
 30
0.0
 11
418.24012487344771
 21
396.85533204422052
 31
0.0
  0
LINE
  5
3647
  8
AM_0
 10
471.37161887344729
 20
388.55636304422052
 30
0.0
 11
442.9667988734472
 21
387.56444404422052
 31
0.0
  0
LINE
  5
3648
  8
AM_0
 10
442.9667988734472
 20
372.00809504422051
 30
0.0
 11
471.37161887344729
 21
373.00001304422051
 31
0.0
  0
LINE
  5
3649
  8
AM_0
 10
474.37100887344718
 20
354.76212198426828
 30
0.0
 11
418.24012487344771
 21
353.29228304422043
 31
0.0
  0
LINE
  5
364A
  8
ﾁｭｳｼﾝｾﾝ
 10
377.28439570106627
 20
472.76212204422029
 30
0.0
 11
538.3676280761465
 21
472.76212204422029
 31
0.0
  0
LINE
  5
364B
  8
AM_0
 10
413.37100887344752
 20
325.76212204422018
 30
0.0
 11
413.37100887344752
 21
472.76212204422052
 31
0.0
  0
ARC
  5
364C
  8
AM_0
 10
418.37100887344752
 20
355.95928004422029
 30
0.0
 40
5.0
 50
114.0451930000003
 51
180.0
  0
ARC
  5
364D
  8
AM_0
 10
418.37100887344752
 20
348.29399704422048
 30
0.0
 40
5.0
 50
91.499999999996135
 51
180.0
  0
LINE
  5
364E
  8
AM_0
 10
393.37100887344752
 20
322.7621220442204
 30
0.0
 11
410.37100887344752
 21
322.7621220442204
 31
0.0
  0
ARC
  5
364F
  8
AM_0
 10
410.37100887344752
 20
325.76212204422018
 30
0.0
 40
3.0
 50
270.0
 51
0.0
  0
LINE
  5
3650
  8
AM_0
 10
416.33372387344758
 20
376.08175104422031
 30
0.0
 11
441.10401087344718
 21
387.13361204422051
 31
0.0
  0
LINE
  5
3651
  8
AM_0
 10
416.33372387344758
 20
360.5254010442203
 30
0.0
 11
441.10401087344718
 21
371.57726304422027
 31
0.0
  0
ARC
  5
3652
  8
AM_0
 10
418.37100887344752
 20
391.85704504422051
 30
0.0
 40
5.0
 50
91.499999999996135
 51
150.7208910000015
  0
ARC
  5
3653
  8
AM_0
 10
418.37100887344752
 20
371.51562904422047
 30
0.0
 40
5.0
 50
114.0451930000003
 51
180.0
  0
LINE
  5
3654
  8
AM_0
 10
444.37100887344752
 20
374.04116404422052
 30
0.0
 11
444.37100887344752
 21
385.52136604422037
 31
0.0
  0
ARC
  5
3655
  8
AM_0
 10
443.14129687344757
 20
367.01114104422049
 30
0.0
 40
5.0
 50
91.999999999997186
 51
114.0451930000003
  0
ARC
  5
3656
  8
AM_0
 10
443.14129687344757
 20
382.56749004422051
 30
0.0
 40
5.0
 50
91.999999999997186
 51
114.0451930000003
  0
LINE
  5
3657
  8
AM_0
 10
487.37095887344719
 20
386.0872270442203
 30
0.0
 11
533.87095887344731
 21
386.0872270442203
 31
0.0
  0
LINE
  5
3658
  8
AM_0
 10
487.37095887344719
 20
401.82929204422032
 30
0.0
 11
533.87095887344731
 21
401.82929204422032
 31
0.0
  0
LINE
  5
3659
  8
AM_0
 10
489.37100887344752
 20
360.76212204422029
 30
0.0
 11
531.49950887344755
 21
360.76212204422029
 31
0.0
  0
ARC
  5
365A
  8
AM_0
 10
489.37100887344752
 20
358.76212204422029
 30
0.0
 40
2.0000000500000001
 50
90.00000299999769
 51
180.00001000000091
  0
LINE
  5
365B
  8
AM_0
 10
474.37100887344718
 20
352.76212204422029
 30
0.0
 11
485.37095887344731
 21
352.76212204422029
 31
0.0
  0
ARC
  5
365C
  8
AM_0
 10
485.37095887344731
 20
354.76212204422029
 30
0.0
 40
2.0000000500000001
 50
270.0
 51
0.0
  0
LINE
  5
365D
  8
AM_0
 10
475.3498588734472
 20
398.32517204422021
 30
0.0
 11
486.37875887344768
 21
398.32517204422021
 31
0.0
  0
LINE
  5
365E
  8
AM_0
 10
474.37100887344718
 20
388.59125704422007
 30
0.0
 11
485.37095887344731
 21
388.59125704422007
 31
0.0
  0
LINE
  5
365F
  8
AM_0
 10
474.37100887344718
 20
373.03488704422023
 30
0.0
 11
485.37095887344731
 21
373.03488704422023
 31
0.0
  0
LINE
  5
3660
  8
AM_0
 10
472.37100887344752
 20
389.59126204422051
 30
0.0
 11
472.37100887344752
 21
374.0349130442205
 31
0.0
  0
LINE
  5
3661
  8
AM_0
 10
471.37161887344729
 20
388.55636304422052
 30
0.0
 11
471.37161887344729
 21
373.00001304422051
 31
0.0
  0
LINE
  5
3662
  8
AM_0
 10
471.37161887344729
 20
373.00001304422051
 30
0.0
 11
472.37100887344752
 21
374.0349130442205
 31
0.0
  0
LINE
  5
3663
  8
AM_0
 10
471.37161887344729
 20
388.55636304422052
 30
0.0
 11
472.37100887344752
 21
389.59126204422051
 31
0.0
  0
LINE
  5
3664
  8
AM_0
 10
472.37100887344752
 20
396.73861504422052
 30
0.0
 11
472.37100887344752
 21
389.59126204422051
 31
0.0
  0
ARC
  5
3665
  8
AM_0
 10
485.37095887344731
 20
375.03491704422021
 30
0.0
 40
2.0000000500000001
 50
270.0
 51
0.0
  0
ARC
  5
3666
  8
AM_0
 10
485.37095887344731
 20
390.59125704422019
 30
0.0
 40
2.0000000500000001
 50
270.0
 51
0.0
  0
ARC
  5
3667
  8
AM_0
 10
531.87100887344752
 20
358.76212204422029
 30
0.0
 40
2.0000000500000001
 50
0.0
 51
90.00000299999769
  0
LINE
  5
3668
  8
AM_0
 10
545.30115887344755
 20
325.0439070442203
 30
0.0
 11
553.37090887344766
 21
324.76210704422022
 31
0.0
  0
LINE
  5
3669
  8
AM_0
 10
542.59500887344757
 20
332.98728204422031
 30
0.0
 11
534.64690887344761
 21
345.5370370442202
 31
0.0
  0
ARC
  5
366A
  8
AM_0
 10
538.37095887344731
 20
330.3119720442204
 30
0.0
 40
5.0
 50
0.0
 51
32.347444999999489
  0
ARC
  5
366B
  8
AM_0
 10
545.37095887344731
 20
327.04270204422039
 30
0.0
 40
2.0000000500000001
 50
179.9999899999988
 51
268.00000999999861
  0
ARC
  5
366C
  8
AM_0
 10
538.87095887344731
 20
348.2122720442203
 30
0.0
 40
5.0
 50
179.9999899999988
 51
212.34743999999651
  0
LINE
  5
366D
  8
AM_0
 10
470.67401687344721
 20
547.29588304422032
 30
0.0
 11
418.24012487344771
 21
548.66891304422018
 31
0.0
  0
LINE
  5
366E
  8
AM_0
 10
471.37161887344729
 20
556.96788204422035
 30
0.0
 11
442.9667988734472
 21
557.95980004422051
 31
0.0
  0
LINE
  5
366F
  8
AM_0
 10
442.9667988734472
 20
573.51614904422036
 30
0.0
 11
471.37161887344729
 21
572.5242310442203
 31
0.0
  0
LINE
  5
3670
  8
AM_0
 10
474.37100887344718
 20
590.76212210417248
 30
0.0
 11
418.24012487344771
 21
592.23196104422061
 31
0.0
  0
LINE
  5
3671
  8
AM_0
 10
416.33372387344758
 20
584.99884304422051
 30
0.0
 11
441.10401087344718
 21
573.94698204422025
 31
0.0
  0
LINE
  5
3672
  8
AM_0
 10
416.33372387344758
 20
569.44249404422055
 30
0.0
 11
441.10401087344718
 21
558.39063304422041
 31
0.0
  0
ARC
  5
3673
  8
AM_0
 10
418.37100887344752
 20
553.66719904422064
 30
0.0
 40
5.0
 50
209.2791089999983
 51
268.49999999999733
  0
ARC
  5
3674
  8
AM_0
 10
418.37100887344752
 20
574.0086160442205
 30
0.0
 40
5.0
 50
180.0
 51
245.95480699999951
  0
LINE
  5
3675
  8
AM_0
 10
444.37100887344752
 20
571.4830800442204
 30
0.0
 11
444.37100887344752
 21
560.00287904422055
 31
0.0
  0
ARC
  5
3676
  8
AM_0
 10
443.14129687344757
 20
578.51310304422032
 30
0.0
 40
5.0
 50
245.95480699999951
 51
268.00000000000261
  0
ARC
  5
3677
  8
AM_0
 10
443.14129687344757
 20
562.95675404422025
 30
0.0
 40
5.0
 50
245.95480699999951
 51
268.00000000000261
  0
ARC
  5
3678
  8
AM_0
 10
410.37100887344752
 20
619.76212204422052
 30
0.0
 40
3.0
 50
0.0
 51
90.0
  0
ARC
  5
3679
  8
AM_0
 10
418.37100887344752
 20
597.2302480442205
 30
0.0
 40
5.0
 50
180.0
 51
268.49999999999733
  0
ARC
  5
367A
  8
AM_0
 10
418.37100887344752
 20
589.56496504422034
 30
0.0
 40
5.0
 50
180.0
 51
245.95480699999951
  0
LINE
  5
367B
  8
AM_0
 10
393.37100887344752
 20
622.76212204422052
 30
0.0
 11
410.37100887344752
 21
622.76212204422052
 31
0.0
  0
LINE
  5
367C
  8
AM_0
 10
487.37095887344719
 20
543.69495704422025
 30
0.0
 11
533.87095887344731
 21
543.69495704422025
 31
0.0
  0
LINE
  5
367D
  8
AM_0
 10
487.37095887344719
 20
559.43702204422004
 30
0.0
 11
533.87095887344731
 21
559.43702204422004
 31
0.0
  0
LINE
  5
367E
  8
AM_0
 10
474.37100887344718
 20
556.9329620442204
 30
0.0
 11
485.37095887344731
 21
556.9329620442204
 31
0.0
  0
LINE
  5
367F
  8
AM_0
 10
474.37100887344718
 20
572.48935704422036
 30
0.0
 11
485.37095887344731
 21
572.48935704422036
 31
0.0
  0
LINE
  5
3680
  8
AM_0
 10
475.3498588734472
 20
547.1990770442203
 30
0.0
 11
486.37875887344768
 21
547.1990770442203
 31
0.0
  0
LINE
  5
3681
  8
AM_0
 10
472.37100887344752
 20
548.7856290442204
 30
0.0
 11
472.37100887344752
 21
555.93298304422035
 31
0.0
  0
LINE
  5
3682
  8
AM_0
 10
471.37161887344729
 20
572.5242310442203
 30
0.0
 11
472.37100887344752
 21
571.48933204422053
 31
0.0
  0
LINE
  5
3683
  8
AM_0
 10
471.37161887344729
 20
556.96788204422035
 30
0.0
 11
472.37100887344752
 21
555.93298304422035
 31
0.0
  0
LINE
  5
3684
  8
AM_0
 10
472.37100887344752
 20
555.93298304422035
 30
0.0
 11
472.37100887344752
 21
571.48933204422053
 31
0.0
  0
LINE
  5
3685
  8
AM_0
 10
471.37161887344729
 20
556.96788204422035
 30
0.0
 11
471.37161887344729
 21
572.5242310442203
 31
0.0
  0
ARC
  5
3686
  8
AM_0
 10
485.37095887344731
 20
554.9329620442204
 30
0.0
 40
2.0000000500000001
 50
0.0
 51
90.00000299999769
  0
ARC
  5
3687
  8
AM_0
 10
485.37095887344731
 20
570.48932704422032
 30
0.0
 40
2.0000000500000001
 50
0.0
 51
90.00000299999769
  0
LINE
  5
3688
  8
AM_0
 10
489.37100887344752
 20
584.76209704422035
 30
0.0
 11
518.37095887344731
 21
584.76209704422035
 31
0.0
  0
LINE
  5
3689
  8
AM_0
 10
474.37100887344718
 20
592.76212704422028
 30
0.0
 11
485.37095887344731
 21
592.76212704422028
 31
0.0
  0
ARC
  5
368A
  8
AM_0
 10
485.37095887344731
 20
590.76212704422051
 30
0.0
 40
2.0000000500000001
 50
0.0
 51
90.00000299999769
  0
ARC
  5
368B
  8
AM_0
 10
489.37100887344752
 20
586.76212704422005
 30
0.0
 40
2.0000000500000001
 50
179.9999899999988
 51
270.0
  0
ARC
  5
368C
  8
AM_0
 10
538.37095887344731
 20
620.21231204422031
 30
0.0
 40
5.0
 50
327.65256000000318
 51
0.0
  0
LINE
  5
368D
  8
AM_0
 10
520.37095887344731
 20
634.76211204422032
 30
0.0
 11
520.37095887344731
 21
586.76212704422005
 31
0.0
  0
ARC
  5
368E
  8
AM_0
 10
531.87100887344752
 20
586.76212704422005
 30
0.0
 40
2.0000000500000001
 50
270.0
 51
0.0
  0
ARC
  5
368F
  8
AM_0
 10
518.37095887344731
 20
586.76212704422005
 30
0.0
 40
2.0000000500000001
 50
270.0
 51
0.0
  0
LINE
  5
3690
  8
AM_0
 10
518.37095887344731
 20
584.76209704422035
 30
0.0
 11
531.87100887344752
 21
584.76209704422035
 31
0.0
  0
ARC
  5
3691
  8
AM_0
 10
538.87095887344731
 20
602.31196204422008
 30
0.0
 40
5.0
 50
147.65256000000309
 51
180.00001000000091
  0
LINE
  5
3692
  8
AM_0
 10
542.59500887344757
 20
617.53701204422009
 30
0.0
 11
534.64685887344751
 21
604.98725204422055
 31
0.0
  0
ARC
  5
3693
  8
AM_0
 10
553.7959588734476
 20
640.8318620442202
 30
0.0
 40
6.0
 50
126.46669999999671
 51
190.27005999999909
  0
LINE
  5
3694
  8
AM_0
 10
545.30120887344765
 20
639.48031204422045
 30
0.0
 11
553.07100887344757
 21
639.75166204422055
 31
0.0
  0
LINE
  5
3695
  8
AM_0
 10
525.37095887344731
 20
639.76211204422009
 30
0.0
 11
553.07095887344769
 21
639.76211204422009
 31
0.0
  0
ARC
  5
3696
  8
AM_0
 10
516.94590887344759
 20
640.8318620442202
 30
0.0
 40
6.0
 50
349.72994999999878
 51
53.533291000004859
  0
LINE
  5
3697
  8
AM_0
 10
547.87095887344731
 20
639.76211204422009
 30
0.0
 11
545.62045887344732
 21
648.16106204422044
 31
0.0
  0
LINE
  5
3698
  8
AM_0
 10
522.65630887344753
 20
638.9610120442203
 30
0.0
 11
525.12145887344752
 21
648.16101204422034
 31
0.0
  0
ARC
  5
3699
  8
AM_0
 10
525.37095887344731
 20
634.76211204422032
 30
0.0
 40
5.0
 50
90.00000299999769
 51
180.00001000000091
  0
ARC
  5
369A
  8
AM_0
 10
545.37095887344731
 20
637.48151204422015
 30
0.0
 40
2.0000000500000001
 50
91.999998000000545
 51
180.00001000000091
  0
LINE
  5
369B
  8
AM_0
 10
525.89285887344761
 20
648.88306204422031
 30
0.0
 11
535.37090887344766
 21
650.76211204422032
 31
0.0
  0
LINE
  5
369C
  8
AM_0
 10
525.57690887344791
 20
648.76211204421998
 30
0.0
 11
545.16495887344774
 21
648.76211204421998
 31
0.0
  0
ARC
  5
369D
  8
AM_0
 10
526.08740887344766
 20
647.90221204422051
 30
0.0
 40
1.0
 50
101.21328999999869
 51
164.99999000000491
  0
ARC
  5
369E
  8
AM_0
 10
544.65460887344773
 20
647.90221204422051
 30
0.0
 40
1.0
 50
15.000000000000741
 51
78.786710000001207
  0
LINE
  5
369F
  8
AM_0
 10
535.37095887344731
 20
650.76211204422032
 30
0.0
 11
544.84905887344758
 21
648.88306204422031
 31
0.0
  0
LINE
  5
36A0
  8
AM_0
 10
553.07095887344769
 20
639.76211204422009
 30
0.0
 11
553.37095887344731
 21
639.76211204422009
 31
0.0
  0
LINE
  5
36A1
  8
AM_0
 10
703.37095887344742
 20
657.7621620442203
 30
0.0
 11
703.37095887344742
 21
377.76212204422029
 31
0.0
  0
LINE
  5
36A2
  8
AM_0
 10
685.37095887344731
 20
642.1112620442201
 30
0.0
 11
685.37095887344731
 21
393.41297204422023
 31
0.0
  0
LINE
  5
36A3
  8
AM_0
 10
675.69760887344717
 20
475.2740270442203
 30
0.0
 11
663.79385887344745
 21
603.63569204422015
 31
0.0
  0
LINE
  5
36A4
  8
AM_0
 10
706.37095887344742
 20
547.76212704422016
 30
0.0
 11
706.37095887344742
 21
487.76212204422018
 31
0.0
  0
LINE
  5
36A5
  8
AM_0
 10
676.37095887344731
 20
425.48822704422042
 30
0.0
 11
676.37095887344731
 21
357.76212204422012
 31
0.0
  0
LINE
  5
36A6
  8
AM_0
 10
598.37095887344719
 20
398.00803204422022
 30
0.0
 11
676.37095887344731
 21
398.00803204422022
 31
0.0
  0
LINE
  5
36A7
  8
AM_0
 10
598.37095887344719
 20
373.36319704422021
 30
0.0
 11
676.37095887344731
 21
373.36319704422021
 31
0.0
  0
LINE
  5
36A8
  8
AM_0
 10
640.47605887344764
 20
323.95531204422031
 30
0.0
 11
690.37095887344742
 21
352.7621370442202
 31
0.0
  0
ARC
  5
36A9
  8
AM_0
 10
635.47610887344763
 20
332.61556204422038
 30
0.0
 40
10.0
 50
268.49999999999733
 51
300.00000000000051
  0
LINE
  5
36AA
  8
AM_0
 10
593.37095887344731
 20
393.00803204422027
 30
0.0
 11
593.37095887344731
 21
378.36319704422021
 31
0.0
  0
ARC
  5
36AB
  8
AM_0
 10
598.37095887344719
 20
378.36319704422021
 30
0.0
 40
5.0
 50
179.9999899999988
 51
270.0
  0
ARC
  5
36AC
  8
AM_0
 10
598.37095887344719
 20
393.00803204422027
 30
0.0
 40
5.0
 50
90.00000299999769
 51
180.00001000000091
  0
LINE
  5
36AD
  8
AM_0
 10
681.37095887344719
 20
352.76212204422029
 30
0.0
 11
698.37095887344742
 21
352.76212204422029
 31
0.0
  0
ARC
  5
36AE
  8
AM_0
 10
681.37095887344719
 20
357.76212204422012
 30
0.0
 40
5.0
 50
179.9999899999988
 51
270.0
  0
ARC
  5
36AF
  8
AM_0
 10
677.37095887344719
 20
393.41297204422023
 30
0.0
 40
8.0
 50
270.0
 51
0.0
  0
LINE
  5
36B0
  8
AM_0
 10
698.37095887344742
 20
377.76212204422029
 30
0.0
 11
703.37095887344742
 21
377.76212204422029
 31
0.0
  0
ARC
  5
36B1
  8
AM_0
 10
677.37095887344719
 20
433.4254820442203
 30
0.0
 40
8.0
 50
270.0
 51
0.0
  0
ARC
  5
36B2
  8
AM_0
 10
683.66335887344769
 20
476.01276704422008
 30
0.0
 40
8.0
 50
185.2982400000015
 51
270.0
  0
LINE
  5
36B3
  8
AM_0
 10
703.37095887344742
 20
487.76212204422018
 30
0.0
 11
706.37095887344742
 21
487.76212204422018
 31
0.0
  0
LINE
  5
36B4
  8
AM_0
 10
706.37095887344742
 20
545.26212704422039
 30
0.0
 11
788.37095887344742
 21
545.26212704422039
 31
0.0
  0
LINE
  5
36B5
  8
AM_0
 10
706.37095887344742
 20
490.26212204422029
 30
0.0
 11
788.37095887344742
 21
490.26212204422029
 31
0.0
  0
LINE
  5
36B6
  8
AM_0
 10
703.37095887344742
 20
547.76212704422016
 30
0.0
 11
706.37095887344742
 21
547.76212704422016
 31
0.0
  0
LINE
  5
36B7
  8
AM_0
 10
638.3000588734476
 20
605.41254704422056
 30
0.0
 11
673.86910887344754
 21
626.93901204422025
 31
0.0
  0
LINE
  5
36B8
  8
AM_0
 10
638.30935887344731
 20
603.63566204422045
 30
0.0
 11
662.06420887344757
 21
603.63566204422045
 31
0.0
  0
LINE
  5
36B9
  8
AM_0
 10
635.72045887344757
 20
615.12616204422034
 30
0.0
 11
673.95975887344775
 21
638.26861204422039
 31
0.0
  0
ARC
  5
36BA
  8
AM_0
 10
638.30935887344731
 20
608.63566204422045
 30
0.0
 40
5.0
 50
179.9999899999988
 51
270.0
  0
ARC
  5
36BB
  8
AM_0
 10
638.30935887344731
 20
610.84851204422034
 30
0.0
 40
5.0
 50
121.18235999999619
 51
180.00001000000091
  0
LINE
  5
36BC
  8
AM_0
 10
633.30935887344731
 20
610.84851204422034
 30
0.0
 11
633.30935887344731
 21
608.63566204422045
 31
0.0
  0
ARC
  5
36BD
  8
AM_0
 10
677.37095887344719
 20
584.09876704422015
 30
0.0
 40
8.0
 50
0.0
 51
90.00000299999769
  0
LINE
  5
36BE
  8
AM_0
 10
665.02110887344793
 20
604.60373704422034
 30
0.0
 11
676.37100887344752
 21
612.92751204422007
 31
0.0
  0
ARC
  5
36BF
  8
AM_0
 10
662.06420887344757
 20
608.63566204422045
 30
0.0
 40
5.0
 50
270.0
 51
306.25554999999889
  0
ARC
  5
36C0
  8
AM_0
 10
677.37095887344719
 20
642.1112620442201
 30
0.0
 40
8.0
 50
0.0
 51
90.00000299999769
  0
ARC
  5
36C1
  8
AM_0
 10
671.37095887344731
 20
642.54621204422028
 30
0.0
 40
5.0
 50
301.18235999999632
 51
0.0
  0
LINE
  5
36C2
  8
AM_0
 10
661.16885887344745
 20
631.94146204422032
 30
0.0
 11
660.09800887344716
 21
643.4890620442203
 31
0.0
  0
LINE
  5
36C3
  8
AM_0
 10
661.96170887344761
 20
645.35286204422005
 30
0.0
 11
676.37100887344752
 21
659.76211204422032
 31
0.0
  0
ARC
  5
36C4
  8
AM_0
 10
654.8906088734476
 20
652.42391204422029
 30
0.0
 40
10.0
 50
271.50000000000261
 51
315.0
  0
LINE
  5
36C5
  8
AM_0
 10
698.37095887344742
 20
657.7621620442203
 30
0.0
 11
703.37095887344742
 21
657.7621620442203
 31
0.0
  0
LINE
  5
36C6
  8
AM_0
 10
726.37095887344742
 20
549.26212704422005
 30
0.0
 11
788.37095887344742
 21
549.26212704422005
 31
0.0
  0
LINE
  5
36C7
  8
AM_0
 10
726.37095887344742
 20
549.26212704422005
 30
0.0
 11
726.37095887344742
 21
545.26212704422039
 31
0.0
  0
LINE
  5
36C8
  8
AM_0
 10
788.37095887344742
 20
549.26212704422005
 30
0.0
 11
788.37095887344742
 21
490.26212204422029
 31
0.0
  0
LINE
  5
36C9
  8
AM_0
 10
681.19645887344734
 20
682.16241204422045
 30
0.0
 11
698.37095887344742
 21
682.7621620442203
 31
0.0
  0
ARC
  5
36CA
  8
AM_0
 10
681.37095887344719
 20
677.16541204422015
 30
0.0
 40
5.0
 50
91.999998000000545
 51
180.00001000000091
  0
CIRCLE
  5
36CB
  8
AM_0
 10
1255.9394527317691
 20
655.64796204422032
 30
0.0
 40
9.5
  0
CIRCLE
  5
36CC
  8
AM_0
 10
980.16781273177025
 20
655.64796204422032
 30
0.0
 40
9.5
  0
ARC
  5
36CD
  8
ﾁｭｳｼﾝｾﾝ1
 10
1118.053647731768
 20
517.7621220442204
 30
0.0
 40
195.0000049999999
 50
39.367219000001782
 51
50.896188999998408
  0
ARC
  5
36CE
  8
AM_0
 10
1258.5457327317699
 20
658.25421204422025
 30
0.0
 40
20.000000499999999
 50
3.0000000999988461
 51
86.99999899999699
  0
ARC
  5
36CF
  8
AM_0
 10
977.56155273176955
 20
658.25421204422025
 30
0.0
 40
20.000000499999999
 50
92.999999000001679
 51
176.99999000000011
  0
LINE
  5
36D0
  8
ﾁｭｳｼﾝｾﾝ
 10
1118.053647731768
 20
310.73694204422031
 30
0.0
 11
1118.053647731768
 21
695.95734173617427
 31
0.0
  0
LINE
  5
36D1
  8
ﾁｭｳｼﾝｾﾝ1
 10
1240.6321277317691
 20
640.34056204422041
 30
0.0
 11
1270.1701527317689
 21
669.87861204422029
 31
0.0
  0
ARC
  5
36D2
  8
AM_0
 10
1118.053647731768
 20
517.7621220442204
 30
0.0
 40
75.0
 50
52.903206000003003
 51
127.0967900000017
  0
CIRCLE
  5
36D3
  8
AM_0
 10
1118.053647731768
 20
517.7621220442204
 30
0.0
 40
132.0
  0
ARC
  5
36D4
  8
AM_0
 10
1118.053647731768
 20
517.7621220442204
 30
0.0
 40
60.0
 50
270.0
 51
90.00000299999769
  0
CIRCLE
  5
36D5
  8
AM_0
 10
1118.053647731768
 20
517.7621220442204
 30
0.0
 40
140.0
  0
LINE
  5
36D6
  8
AM_0
 10
1056.206602731768
 20
321.94212704422017
 30
0.0
 11
1179.9006327317691
 21
321.94212704422017
 31
0.0
  0
LINE
  5
36D7
  8
ﾁｭｳｼﾝｾﾝ
 10
1025.731704650113
 20
472.76212204422052
 30
0.0
 11
1210.3755908134251
 21
472.76212204422052
 31
0.0
  0
LINE
  5
36D8
  8
ﾁｭｳｼﾝｾﾝ
 10
942.07192773176951
 20
517.7621220442204
 30
0.0
 11
1295.480212731768
 21
517.7621220442204
 31
0.0
  0
LINE
  5
36D9
  8
AM_0
 10
1063.053647731768
 20
352.76212204422029
 30
0.0
 11
1173.0536177317681
 21
352.76212204422029
 31
0.0
  0
ARC
  5
36DA
  8
AM_0
 10
1118.053647731768
 20
517.7621220442204
 30
0.0
 40
60.0
 50
90.00000299999769
 51
270.0
  0
LINE
  5
36DB
  8
AM_0
 10
953.05362773176955
 20
462.76212204422018
 30
0.0
 11
953.05362773176955
 21
572.76212704422016
 31
0.0
  0
ARC
  5
36DC
  8
AM_0
 10
1085.0536177317699
 20
424.43293204422031
 30
0.0
 40
102.81999499999991
 50
222.0151799999984
 51
235.0000000000025
  0
LINE
  5
36DD
  8
AM_0
 10
1063.053617731769
 20
352.76212204422029
 30
0.0
 11
976.51482773176951
 21
357.29743204422027
 31
0.0
  0
LINE
  5
36DE
  8
AM_0
 10
953.05362773176955
 20
462.76209204422008
 30
0.0
 11
957.58892773176956
 21
376.2233020442203
 31
0.0
  0
ARC
  5
36DF
  8
AM_0
 10
977.56155273176955
 20
377.27002704422023
 30
0.0
 40
20.000000499999999
 50
183.00000999999961
 51
267.00000000000108
  0
CIRCLE
  5
36E0
  8
AM_0
 10
980.16781273177025
 20
379.87628704422019
 30
0.0
 40
9.5
  0
ARC
  5
36E1
  8
ﾁｭｳｼﾝｾﾝ1
 10
1118.053647731768
 20
517.7621220442204
 30
0.0
 40
195.0000049999999
 50
218.16532000000149
 51
232.1288600000004
  0
LINE
  5
36E2
  8
ﾁｭｳｼﾝｾﾝ1
 10
996.37716273176954
 20
396.08563704422022
 30
0.0
 11
965.93707773176993
 21
365.64557704422032
 31
0.0
  0
ARC
  5
36E3
  8
AM_0
 10
1056.206602731768
 20
334.76212204422018
 30
0.0
 40
12.82
 50
235.0000000000025
 51
270.0
  0
LINE
  5
36E4
  8
AM_0
 10
1048.8533927317681
 20
324.26058204422031
 30
0.0
 11
1026.078487731769
 21
340.20772204422019
 31
0.0
  0
ARC
  5
36E5
  8
AM_0
 10
1020.810362731768
 20
599.44904704422038
 30
0.0
 40
5.0
 50
45.000001000003799
 51
139.96885000000219
  0
LINE
  5
36E6
  8
AM_0
 10
991.44796273176985
 20
502.76212204422029
 30
0.0
 11
1038.053647731768
 21
502.76212204422029
 31
0.0
  0
LINE
  5
36E7
  8
AM_0
 10
953.05362773176955
 20
572.76212704422016
 30
0.0
 11
957.58897773176955
 21
659.30091204422035
 31
0.0
  0
ARC
  5
36E8
  8
AM_0
 10
991.44796273176985
 20
507.76212204422012
 30
0.0
 40
5.0
 50
184.5161599999995
 51
270.0
  0
ARC
  5
36E9
  8
AM_0
 10
1069.8005377317691
 20
581.57154204422045
 30
0.0
 40
5.0
 50
225.0
 51
307.0967900000017
  0
LINE
  5
36EA
  8
AM_0
 10
1057.779752731768
 20
569.55073204422035
 30
0.0
 11
1024.345912731769
 21
602.98453704422025
 31
0.0
  0
ARC
  5
36EB
  8
AM_0
 10
1118.053647731768
 20
517.7621220442204
 30
0.0
 40
75.0
 50
142.9032099999981
 51
180.00001000000091
  0
LINE
  5
36EC
  8
AM_0
 10
1043.053647731768
 20
517.7621220442204
 30
0.0
 11
1043.053647731768
 21
507.76212204422012
 31
0.0
  0
ARC
  5
36ED
  8
AM_0
 10
1038.053647731768
 20
507.76212204422012
 30
0.0
 40
5.0
 50
270.0
 51
0.0
  0
ARC
  5
36EE
  8
AM_0
 10
1054.2441977317701
 20
566.01520704422046
 30
0.0
 40
5.0
 50
322.9032099999983
 51
45.000001000003799
  0
ARC
  5
36EF
  8
AM_0
 10
1118.053647731768
 20
517.7621220442204
 30
0.0
 40
27.500000499999999
 50
106.91238999999661
 51
73.087596999997956
  0
CIRCLE
  5
36F0
  8
AM_5
 10
1118.053647731768
 20
517.7621220442204
 30
0.0
 40
6.0
  0
CIRCLE
  5
36F1
  8
AM_0
 10
1118.053647731768
 20
517.7621220442204
 30
0.0
 40
4.500000049999997
  0
LINE
  5
36F2
  8
AM_0
 10
1110.0536177317699
 20
539.26212704422016
 30
0.0
 11
1126.0536177317699
 21
539.26212704422016
 31
0.0
  0
LINE
  5
36F3
  8
AM_0
 10
1110.0536177317699
 20
549.26212704422005
 30
0.0
 11
1126.0536177317699
 21
549.26212704422005
 31
0.0
  0
LINE
  5
36F4
  8
AM_0
 10
1110.0536177317699
 20
539.26212704422016
 30
0.0
 11
1110.0536177317699
 21
549.26212704422005
 31
0.0
  0
LINE
  5
36F5
  8
AM_0
 10
1126.0536177317699
 20
539.26212704422016
 30
0.0
 11
1126.0536177317699
 21
549.26212704422005
 31
0.0
  0
LINE
  5
36F6
  8
AM_0
 10
1066.265042731769
 20
578.03599204422039
 30
0.0
 11
1032.8312027317691
 21
611.46981204422025
 31
0.0
  0
ARC
  5
36F7
  8
AM_0
 10
1036.36672773177
 20
615.00536204422031
 30
0.0
 40
5.0
 50
130.03114999999761
 51
225.0
  0
LINE
  5
36F8
  8
AM_0
 10
1283.0536227317691
 20
462.76212204422018
 30
0.0
 11
1283.0536227317691
 21
572.76212704422016
 31
0.0
  0
LINE
  5
36F9
  8
AM_0
 10
1283.0536227317691
 20
462.76212204422018
 30
0.0
 11
1278.518312731768
 21
376.2233020442203
 31
0.0
  0
ARC
  5
36FA
  8
AM_0
 10
1151.0536177317699
 20
424.43293204422031
 30
0.0
 40
102.81999499999991
 50
304.99999999999739
 51
317.98482000000149
  0
LINE
  5
36FB
  8
AM_0
 10
1173.0536177317681
 20
352.76212204422029
 30
0.0
 11
1259.592437731769
 21
357.29743204422027
 31
0.0
  0
ARC
  5
36FC
  8
AM_0
 10
1179.9006327317691
 20
334.76212204422018
 30
0.0
 40
12.82
 50
270.0
 51
304.99999999999739
  0
LINE
  5
36FD
  8
AM_0
 10
1187.2538777317691
 20
324.26059704422039
 30
0.0
 11
1210.028747731769
 21
340.20772204422019
 31
0.0
  0
ARC
  5
36FE
  8
AM_0
 10
1258.5457327317699
 20
377.27002704422023
 30
0.0
 40
20.000000499999999
 50
272.99999999999892
 51
357.00000000000108
  0
CIRCLE
  5
36FF
  8
AM_0
 10
1255.9394527317691
 20
379.87628704422019
 30
0.0
 40
9.5
  0
ARC
  5
3700
  8
AM_0
 10
1166.3067027317691
 20
581.57154204422045
 30
0.0
 40
5.0
 50
232.90320999999821
 51
315.0
  0
LINE
  5
3701
  8
AM_0
 10
1178.327512731769
 20
569.55073204422035
 30
0.0
 11
1211.761322731769
 21
602.98453704422025
 31
0.0
  0
LINE
  5
3702
  8
AM_0
 10
1283.0536227317691
 20
572.76209704422035
 30
0.0
 11
1278.518312731768
 21
659.30091204422035
 31
0.0
  0
LINE
  5
3703
  8
AM_0
 10
1244.6593177317691
 20
502.76212204422029
 30
0.0
 11
1198.053617731769
 21
502.76212204422029
 31
0.0
  0
ARC
  5
3704
  8
AM_0
 10
1118.053647731768
 20
517.7621220442204
 30
0.0
 40
75.0
 50
0.0
 51
37.096792999996879
  0
LINE
  5
3705
  8
AM_0
 10
1193.0536177317699
 20
517.7621220442204
 30
0.0
 11
1193.0536177317699
 21
507.76212204422012
 31
0.0
  0
ARC
  5
3706
  8
AM_0
 10
1198.053617731769
 20
507.76212204422012
 30
0.0
 40
5.0
 50
179.9999899999988
 51
270.0
  0
ARC
  5
3707
  8
AM_0
 10
1181.8630377317691
 20
566.01520704422046
 30
0.0
 40
5.0
 50
135.0
 51
217.09680000000159
  0
ARC
  5
3708
  8
AM_0
 10
1244.6593177317691
 20
507.76212204422012
 30
0.0
 40
5.0
 50
270.0
 51
355.48384999999831
  0
LINE
  5
3709
  8
AM_0
 10
1169.842252731768
 20
578.03599204422039
 30
0.0
 11
1203.276062731768
 21
611.46981204422025
 31
0.0
  0
ARC
  5
370A
  8
AM_0
 10
1199.7405377317691
 20
615.00536204422031
 30
0.0
 40
5.0
 50
315.0
 51
49.96885100000106
  0
ARC
  5
370B
  8
AM_0
 10
1215.296877731769
 20
599.44904704422038
 30
0.0
 40
5.0
 50
40.031148000000073
 51
135.0
  0
LINE
  5
370C
  8
AM_0
 10
1063.053647731768
 20
682.7621620442203
 30
0.0
 11
1173.0536177317681
 21
682.7621620442203
 31
0.0
  0
LINE
  5
370D
  8
AM_0
 10
1063.0535877317691
 20
682.76211204422032
 30
0.0
 11
976.51479773176948
 21
678.22681204422031
 31
0.0
  0
ARC
  5
370E
  8
AM_0
 10
1118.053647731768
 20
685.76211204422032
 30
0.0
 40
5.0
 50
359.999989999999
 51
179.9999899999988
  0
LINE
  5
370F
  8
AM_0
 10
1113.053647731768
 20
685.76211204422032
 30
0.0
 11
1113.053647731768
 21
682.7621620442203
 31
0.0
  0
LINE
  5
3710
  8
AM_0
 10
1123.053647731768
 20
685.76211204422032
 30
0.0
 11
1123.053647731768
 21
682.7621620442203
 31
0.0
  0
LINE
  5
3711
  8
AM_0
 10
1173.053647731768
 20
682.76211204422032
 30
0.0
 11
1259.592437731769
 21
678.22681204422031
 31
0.0
  0
LINE
  5
3712
  8
AM_0
 10
416.33373387344773
 20
1105.3666343407119
 30
0.0
 11
441.10402087344733
 21
1094.3147733407111
 31
0.0
  0
LINE
  5
3713
  8
AM_0
 10
393.3710188734475
 20
1143.1299133407119
 30
0.0
 11
393.3710188734475
 21
843.12991334071262
 31
0.0
  0
LINE
  5
3714
  8
AM_0
 10
413.37101887344733
 20
1140.1299133407131
 30
0.0
 11
413.37101887344733
 21
993.12991334071262
 31
0.0
  0
LINE
  5
3715
  8
AM_0
 10
413.37101887344733
 20
846.12991334071228
 30
0.0
 11
413.37101887344733
 21
993.12991334071262
 31
0.0
  0
LINE
  5
3716
  8
AM_0
 10
474.3710188734475
 20
875.12991328076021
 30
0.0
 11
418.2401348734478
 21
873.66007434071275
 31
0.0
  0
LINE
  5
3717
  8
AM_0
 10
442.96680887344712
 20
892.37588634071244
 30
0.0
 11
471.37162887344732
 21
893.36780434071227
 31
0.0
  0
LINE
  5
3718
  8
AM_0
 10
471.37162887344732
 20
908.92415434071245
 30
0.0
 11
442.96680887344712
 21
907.93223534071274
 31
0.0
  0
LINE
  5
3719
  8
AM_0
 10
470.6740268734473
 20
918.5961533407127
 30
0.0
 11
418.2401348734478
 21
917.22312334071285
 31
0.0
  0
ARC
  5
371A
  8
AM_0
 10
418.37101887344721
 20
868.66178834071275
 30
0.0
 40
5.0
 50
91.499999999996135
 51
180.0
  0
LINE
  5
371B
  8
AM_0
 10
393.3710188734475
 20
843.12991334071262
 30
0.0
 11
410.37101887344721
 21
843.12991334071262
 31
0.0
  0
ARC
  5
371C
  8
AM_0
 10
410.37101887344721
 20
846.12991334071228
 30
0.0
 40
3.0
 50
270.0
 51
0.0
  0
LINE
  5
371D
  8
AM_0
 10
416.33373387344773
 20
880.89319234071263
 30
0.0
 11
441.10402087344733
 21
891.94505434071243
 31
0.0
  0
LINE
  5
371E
  8
AM_0
 10
416.33373387344773
 20
896.4495423407127
 30
0.0
 11
441.10402087344733
 21
907.50140334071273
 31
0.0
  0
ARC
  5
371F
  8
AM_0
 10
418.37101887344721
 20
891.88342034071263
 30
0.0
 40
5.0
 50
114.0451930000003
 51
180.0
  0
ARC
  5
3720
  8
AM_0
 10
418.37101887344721
 20
876.32707134071234
 30
0.0
 40
5.0
 50
114.0451930000003
 51
180.0
  0
ARC
  5
3721
  8
AM_0
 10
418.37101887344721
 20
912.22483634071273
 30
0.0
 40
5.0
 50
91.499999999996135
 51
150.7208910000015
  0
LINE
  5
3722
  8
AM_0
 10
444.3710188734475
 20
894.40895534071285
 30
0.0
 11
444.3710188734475
 21
905.8891573407127
 31
0.0
  0
ARC
  5
3723
  8
AM_0
 10
443.1413068734476
 20
887.37893234071248
 30
0.0
 40
5.0
 50
91.999999999997186
 51
114.0451930000003
  0
ARC
  5
3724
  8
AM_0
 10
443.1413068734476
 20
902.93528134071244
 30
0.0
 40
5.0
 50
91.999999999997186
 51
114.0451930000003
  0
LINE
  5
3725
  8
AM_0
 10
471.37162887344732
 20
908.92415434071245
 30
0.0
 11
471.37162887344732
 21
893.36780434071227
 31
0.0
  0
LINE
  5
3726
  8
AM_0
 10
472.37101887344733
 20
909.95905334071233
 30
0.0
 11
472.37101887344733
 21
894.4027043407126
 31
0.0
  0
LINE
  5
3727
  8
AM_0
 10
471.37162887344732
 20
893.36780434071227
 30
0.0
 11
472.37101887344733
 21
894.4027043407126
 31
0.0
  0
LINE
  5
3728
  8
AM_0
 10
472.37101887344733
 20
917.10640634071274
 30
0.0
 11
472.37101887344733
 21
909.95905334071233
 31
0.0
  0
LINE
  5
3729
  8
AM_0
 10
471.37162887344732
 20
908.92415434071245
 30
0.0
 11
472.37101887344733
 21
909.95905334071233
 31
0.0
  0
LINE
  5
372A
  8
AM_0
 10
442.96680887344712
 20
1093.883940340711
 30
0.0
 11
471.37162887344732
 21
1092.8920223407119
 31
0.0
  0
LINE
  5
372B
  8
AM_0
 10
471.37162887344732
 20
1077.335673340712
 30
0.0
 11
442.96680887344712
 21
1078.327591340711
 31
0.0
  0
LINE
  5
372C
  8
AM_0
 10
470.6740268734473
 20
1067.6636743407121
 30
0.0
 11
418.2401348734478
 21
1069.036704340712
 31
0.0
  0
LINE
  5
372D
  8
AM_0
 10
416.33373387344773
 20
1089.810285340712
 30
0.0
 11
441.10402087344733
 21
1078.7584243407121
 31
0.0
  0
ARC
  5
372E
  8
AM_0
 10
418.37101887344721
 20
1074.0349903407121
 30
0.0
 40
5.0
 50
209.2791089999985
 51
268.49999999999733
  0
ARC
  5
372F
  8
AM_0
 10
418.37101887344721
 20
1094.3764073407119
 30
0.0
 40
5.0
 50
180.0
 51
245.95480699999951
  0
ARC
  5
3730
  8
AM_0
 10
443.1413068734476
 20
1083.3245453407119
 30
0.0
 40
5.0
 50
245.95480699999951
 51
268.00000000000261
  0
ARC
  5
3731
  8
AM_0
 10
443.1413068734476
 20
1098.8808943407121
 30
0.0
 40
5.0
 50
245.95480699999951
 51
268.00000000000261
  0
LINE
  5
3732
  8
AM_0
 10
444.3710188734475
 20
1091.850871340712
 30
0.0
 11
444.3710188734475
 21
1080.3706703407111
 31
0.0
  0
LINE
  5
3733
  8
AM_0
 10
472.37101887344733
 20
1076.300774340712
 30
0.0
 11
472.37101887344733
 21
1091.857123340711
 31
0.0
  0
LINE
  5
3734
  8
AM_0
 10
471.37162887344732
 20
1077.335673340712
 30
0.0
 11
472.37101887344733
 21
1076.300774340712
 31
0.0
  0
LINE
  5
3735
  8
AM_0
 10
472.37101887344733
 20
1069.153420340712
 30
0.0
 11
472.37101887344733
 21
1076.300774340712
 31
0.0
  0
LINE
  5
3736
  8
AM_0
 10
471.37162887344732
 20
1077.335673340712
 30
0.0
 11
471.37162887344732
 21
1092.8920223407119
 31
0.0
  0
LINE
  5
3737
  8
AM_0
 10
471.37162887344732
 20
1092.8920223407119
 30
0.0
 11
472.37101887344733
 21
1091.857123340711
 31
0.0
  0
LINE
  5
3738
  8
AM_0
 10
474.3710188734475
 20
1111.1299134006649
 30
0.0
 11
418.2401348734478
 21
1112.599752340712
 31
0.0
  0
ARC
  5
3739
  8
AM_0
 10
418.37101887344721
 20
1109.932756340711
 30
0.0
 40
5.0
 50
180.0
 51
245.95480699999951
  0
ARC
  5
373A
  8
AM_0
 10
418.37101887344721
 20
1117.598039340711
 30
0.0
 40
5.0
 50
180.0
 51
268.49999999999733
  0
LINE
  5
373B
  8
AM_0
 10
393.3710188734475
 20
1143.1299133407119
 30
0.0
 11
410.37101887344721
 21
1143.1299133407119
 31
0.0
  0
ARC
  5
373C
  8
AM_0
 10
410.37101887344721
 20
1140.1299133407131
 30
0.0
 40
3.0
 50
0.0
 51
90.0
  0
ARC
  5
373D
  8
ﾁｭｳｼﾝｾﾝ1
 10
1118.053647731768
 20
517.7621220442204
 30
0.0
 40
195.0000049999999
 50
129.1038110000016
 51
140.6327809999982
  0
LINE
  5
373E
  8
ﾁｭｳｼﾝｾﾝ1
 10
995.4751677317696
 20
640.34056204422041
 30
0.0
 11
965.9371427317692
 21
669.87861204422029
 31
0.0
  0
ARC
  5
373F
  8
ﾁｭｳｼﾝｾﾝ1
 10
1118.053647731768
 20
517.7621220442204
 30
0.0
 40
195.0000049999999
 50
307.87113999999951
 51
321.83467999999817
  0
LINE
  5
3740
  8
ﾁｭｳｼﾝｾﾝ1
 10
1239.7301327317689
 20
396.08563704422022
 30
0.0
 11
1270.1702177317691
 21
365.64557704422032
 31
0.0
  0
TEXT
  5
392E
  8
AM_0
 10
995.45274407549766
 20
1051.529308608827
 30
0.0
 40
20.0
  1
VX75-003AF~VX75-020AF
  0
ENDSEC
  0
EOF
