  0
SECTION
  2
HEADER
  9
$ACADVER
  1
AC1009
  9
$INSBASE
 10
0.0
 20
0.0
 30
0.0
  9
$EXTMIN
 10
364.34198437903751
 20
307.2691498916102
 30
-0.0000000000112498
  9
$EXTMAX
 10
1425.8773992770321
 20
1204.6355617057779
 30
0.0000000000002956
  9
$LIMMIN
 10
0.0
 20
0.0
  9
$LIMMAX
 10
1707.0
 20
1110.0
  9
$ORTHOMODE
 70
     0
  9
$REGENMODE
 70
     1
  9
$FILLMODE
 70
     1
  9
$QTEXTMODE
 70
     0
  9
$MIRRTEXT
 70
     1
  9
$DRAGMODE
 70
     2
  9
$LTSCALE
 40
6.0
  9
$OSMODE
 70
   551
  9
$ATTMODE
 70
     1
  9
$TEXTSIZE
 40
2.5
  9
$TRACEWID
 40
1.0
  9
$TEXTSTYLE
  7
STANDARD
  9
$CLAYER
  8
AM_0
  9
$CELTYPE
  6
BYLAYER
  9
$CECOLOR
 62
   256
  9
$DIMSCALE
 40
6.0
  9
$DIMASZ
 40
2.5
  9
$DIMEXO
 40
1.0
  9
$DIMDLI
 40
8.0
  9
$DIMRND
 40
0.0
  9
$DIMDLE
 40
0.0
  9
$DIMEXE
 40
0.6
  9
$DIMTP
 40
0.1
  9
$DIMTM
 40
0.1
  9
$DIMTXT
 40
2.5
  9
$DIMCEN
 40
0.0
  9
$DIMTSZ
 40
0.0
  9
$DIMTOL
 70
     0
  9
$DIMLIM
 70
     0
  9
$DIMTIH
 70
     0
  9
$DIMTOH
 70
     0
  9
$DIMSE1
 70
     0
  9
$DIMSE2
 70
     0
  9
$DIMTAD
 70
     1
  9
$DIMZIN
 70
     8
  9
$DIMBLK
  1

  9
$DIMASO
 70
     1
  9
$DIMSHO
 70
     1
  9
$DIMPOST
  1

  9
$DIMAPOST
  1
"
  9
$DIMALT
 70
     0
  9
$DIMALTD
 70
     2
  9
$DIMALTF
 40
0.0393701
  9
$DIMLFAC
 40
1.0
  9
$DIMTOFL
 70
     1
  9
$DIMTVP
 40
0.0
  9
$DIMTIX
 70
     0
  9
$DIMSOXD
 70
     0
  9
$DIMSAH
 70
     0
  9
$DIMBLK1
  1

  9
$DIMBLK2
  1

  9
$DIMSTYLE
  2
AM_ISO
  9
$DIMCLRD
 70
   256
  9
$DIMCLRE
 70
   256
  9
$DIMCLRT
 70
     4
  9
$DIMTFAC
 40
0.71
  9
$DIMGAP
 40
0.8
  9
$LUNITS
 70
     2
  9
$LUPREC
 70
     2
  9
$SKETCHINC
 40
1.0
  9
$FILLETRAD
 40
30.0
  9
$AUNITS
 70
     0
  9
$AUPREC
 70
     0
  9
$MENU
  1
.
  9
$ELEVATION
 40
0.0
  9
$PELEVATION
 40
0.0
  9
$THICKNESS
 40
0.0
  9
$LIMCHECK
 70
     0
  9
$BLIPMODE
 70
     0
  9
$CHAMFERA
 40
12.0
  9
$CHAMFERB
 40
6.0
  9
$SKPOLY
 70
     0
  9
$TDCREATE
 40
2452067.4012635532
  9
$TDUPDATE
 40
2458541.559666655
  9
$TDINDWG
 40
0.1472622106
  9
$TDUSRTIMER
 40
0.1472620139
  9
$USRTIMER
 70
     1
  9
$ANGBASE
 50
0.0
  9
$ANGDIR
 70
     0
  9
$PDMODE
 70
     0
  9
$PDSIZE
 40
0.0
  9
$PLINEWID
 40
0.0
  9
$COORDS
 70
     1
  9
$SPLFRAME
 70
     0
  9
$SPLINETYPE
 70
     6
  9
$SPLINESEGS
 70
     8
  9
$ATTDIA
 70
     1
  9
$ATTREQ
 70
     1
  9
$HANDLING
 70
     1
  9
$HANDSEED
  5
3903
  9
$SURFTAB1
 70
     6
  9
$SURFTAB2
 70
     6
  9
$SURFTYPE
 70
     6
  9
$SURFU
 70
     6
  9
$SURFV
 70
     6
  9
$UCSNAME
  2

  9
$UCSORG
 10
0.0
 20
0.0
 30
0.0
  9
$UCSXDIR
 10
1.0
 20
0.0
 30
0.0
  9
$UCSYDIR
 10
0.0
 20
1.0
 30
0.0
  9
$PUCSNAME
  2

  9
$PUCSORG
 10
0.0
 20
0.0
 30
0.0
  9
$PUCSXDIR
 10
1.0
 20
0.0
 30
0.0
  9
$PUCSYDIR
 10
0.0
 20
1.0
 30
0.0
  9
$USERI1
 70
     0
  9
$USERI2
 70
     0
  9
$USERI3
 70
     0
  9
$USERI4
 70
     0
  9
$USERI5
 70
     0
  9
$USERR1
 40
0.0
  9
$USERR2
 40
0.0
  9
$USERR3
 40
0.0
  9
$USERR4
 40
0.0
  9
$USERR5
 40
0.0
  9
$WORLDVIEW
 70
     1
  9
$SHADEDGE
 70
     3
  9
$SHADEDIF
 70
    70
  9
$TILEMODE
 70
     1
  9
$MAXACTVP
 70
    64
  9
$PLIMCHECK
 70
     0
  9
$PEXTMIN
 10
1.0000000000000000E+020
 20
1.0000000000000000E+020
 30
1.0000000000000000E+020
  9
$PEXTMAX
 10
-1.0000000000000000E+020
 20
-1.0000000000000000E+020
 30
-1.0000000000000000E+020
  9
$PLIMMIN
 10
0.0
 20
0.0
  9
$PLIMMAX
 10
420.0
 20
297.0
  9
$UNITMODE
 70
     0
  9
$VISRETAIN
 70
     1
  9
$PLINEGEN
 70
     0
  9
$PSLTSCALE
 70
     1
  0
ENDSEC
  0
SECTION
  2
TABLES
  0
TABLE
  2
VPORT
 70
     1
  0
VPORT
  2
*ACTIVE
 70
     0
 10
0.0
 20
0.0
 11
1.0
 21
1.0
 12
895.10969182803467
 22
755.95235579869404
 13
0.0
 23
0.0
 14
15.0
 24
15.0
 15
60.0
 25
60.0
 16
0.0
 26
0.0
 36
1.0
 17
0.0
 27
0.0
 37
0.0
 40
903.52682196392186
 41
1.7571592210767459
 42
50.0
 43
0.0
 44
0.0
 50
0.0
 51
0.0
 71
     0
 72
   100
 73
     1
 74
     3
 75
     0
 76
     0
 77
     0
 78
     0
  0
ENDTAB
  0
TABLE
  2
LTYPE
 70
    26
  0
LTYPE
  2
CONTINUOUS
 70
     0
  3
Solid line
 72
    65
 73
     0
 40
0.0
  0
LTYPE
  2
AM_ISO02W050
 70
     0
  3
__ __ __ __ __ __ __ __ __ __ __ __ __ __ __
 72
    65
 73
     2
 40
7.5
 49
6.0
 49
-1.5
  0
LTYPE
  2
AM_ISO08W050
 70
     0
  3
____ . ____ . ____ . ____ . ____ . ____ . ____
 72
    65
 73
     4
 40
18.0
 49
12.0
 49
-1.5
 49
3.0
 49
-1.5
  0
LTYPE
  2
AM_ISO09W050
 70
     0
  3
_____ . . _____ . . _____ . . ____ .. ____
 72
    65
 73
     6
 40
22.5
 49
12.0
 49
-1.5
 49
3.0
 49
-1.5
 49
3.0
 49
-1.5
  0
LTYPE
  2
AMCONSTR
 70
     0
  3
_______________________
 72
    65
 73
     2
 40
9999.0
 49
9999.0
 49
0.0
  0
LTYPE
  2
AM_ISO08W050X2
 70
     0
  3
__ . __ . __ . __ . __ . __
 72
    65
 73
     4
 40
9.0
 49
6.0
 49
-0.75
 49
1.5
 49
-0.75
  0
LTYPE
  2
AM_ISO02W050X2
 70
     0
  3
 _ _ _ _ _ _ _ _ _ _ _ _
 72
    65
 73
     2
 40
3.75
 49
3.0
 49
-0.75
  0
LTYPE
  2
AMZIGZAG
 70
     0
  3
/\/-/\/-/\/-/\/-/\/-/\/
 72
    65
 73
     2
 40
11.000099999999991
 49
0.0001
 49
-11.0
  0
LTYPE
  2
ACISOWELD
 70
     0
  3
_ _ _ _ _
 72
    65
 73
     2
 40
2.0
 49
2.0
 49
-1.0
  0
LTYPE
  2
ACISOTGB
 70
     0
  3
__ . . __ . .
 72
    65
 73
     6
 40
9.0
 49
4.0
 49
-1.0
 49
1.0
 49
-1.0
 49
1.0
 49
-1.0
  0
LTYPE
  2
ACISOTGL
 70
     0
  3
_ _ _ _ _
 72
    65
 73
     2
 40
3.0
 49
2.0
 49
-1.0
  0
LTYPE
  2
CENTER
 70
     0
  3
__ . __
 72
    65
 73
     4
 40
7.0
 49
4.0
 49
-1.0
 49
1.0
 49
-1.0
  0
LTYPE
  2
PHANTOM2
 70
     0
  3
Phantom (.5x) ___ _ _ ___ _ _ ___ _ _ ___ _ _
 72
    65
 73
     6
 40
31.75
 49
15.875
 49
-3.174999999999998
 49
3.174999999999998
 49
-3.174999999999998
 49
3.174999999999998
 49
-3.174999999999998
  0
LTYPE
  2
ACANSTGBM
 70
     0
  3
__ . . __ . .
 72
    65
 73
     6
 40
9.0
 49
4.0
 49
-1.0
 49
1.0
 49
-1.0
 49
1.0
 49
-1.0
  0
LTYPE
  2
ACANSTGLM
 70
     0
  3
_ _ _ _ _
 72
    65
 73
     2
 40
3.0
 49
2.0
 49
-1.0
  0
LTYPE
  2
GEN7
 70
     0
  3
____ . ____ . ____ . ____ . ____ . ____ . ____
 72
    65
 73
     4
 40
14.25
 49
9.75
 49
-1.5
 49
1.5
 49
-1.5
  0
LTYPE
  2
GEN7A
 70
     0
  3
__ . __ . __
 72
    65
 73
     4
 40
7.375
 49
4.75
 49
-0.875
 49
0.875
 49
-0.875
  0
LTYPE
  2
ACJISTGB
 70
     0
  3
__ . . __ . .
 72
    65
 73
     6
 40
9.0
 49
4.0
 49
-1.0
 49
1.0
 49
-1.0
 49
1.0
 49
-1.0
  0
LTYPE
  2
ACJISTGL
 70
     0
  3
_ _ _ _ _
 72
    65
 73
     2
 40
3.0
 49
2.0
 49
-1.0
  0
LTYPE
  2
HIDDEN
 70
     0
  3
Hidden __ __ __ __ __ __ __ __ __ __ __ __ __ _
 72
    65
 73
     2
 40
0.375
 49
0.25
 49
-0.125
  0
LTYPE
  2
CENTER2
 70
     0
  3
Center (.5x) ___ _ ___ _ ___ _ ___ _ ___ _ ___
 72
    65
 73
     4
 40
1.125
 49
0.75
 49
-0.125
 49
0.125
 49
-0.125
  0
LTYPE
  2
HIDDEN2
 70
     0
  3
Hidden (.5x) _ _ _ _ _ _ _ _ _ _ _ _ _ _ _ _ _
 72
    65
 73
     2
 40
0.1875
 49
0.125
 49
-0.0625
  0
LTYPE
  2
AMZIGZAG2
 70
     0
  3
/\/-/\/-/\/-/\/-/\/-/\/
 72
    65
 73
     2
 40
0.4401
 49
0.0001
 49
-0.4400000000000002
  0
LTYPE
  2
ACANSTGB
 70
     0
  3
__ . . __ . .
 72
    65
 73
     6
 40
0.35433070866
 49
0.15748031496
 49
-0.03937007874
 49
0.03937007874
 49
-0.03937007874
 49
0.03937007874
 49
-0.03937007874
  0
LTYPE
  2
ACANSTGL
 70
     0
  3
_ _ _ _ _
 72
    65
 73
     2
 40
0.11811023622
 49
0.07874015748
 49
-0.03937007874
  0
ENDTAB
  0
TABLE
  2
LAYER
 70
     6
  0
LAYER
  2
0
 70
     0
 62
     7
  6
CONTINUOUS
  0
LAYER
  2
AM_0
 70
     0
 62
     7
  6
CONTINUOUS
  0
LAYER
  2
AM_5
 70
     0
 62
     2
  6
CONTINUOUS
  0
LAYER
  2
DEFPOINTS
 70
     0
 62
     7
  6
CONTINUOUS
  0
LAYER
  2
ﾁｭｳｼﾝｾﾝ
 70
     0
 62
     1
  6
GEN7
  0
LAYER
  2
ﾁｭｳｼﾝｾﾝ1
 70
     0
 62
     1
  6
GEN7A
  0
ENDTAB
  0
TABLE
  2
STYLE
 70
     9
  0
STYLE
  2
STANDARD
 70
     0
 40
0.0
 41
0.8299999999999999
 50
0.0
 71
     0
 42
2.5
  3
txt.shx
  4
bigfont.shx
  0
STYLE
  2
ANNOTATIVE
 70
     0
 40
0.0
 41
1.0
 50
0.0
 71
     0
 42
0.2
  3
txt
  4

  0
STYLE
  2

 70
     1
 40
0.0
 41
1.0
 50
0.0
 71
     0
 42
2.5
  3
ltypeshp.shx
  4

  0
STYLE
  2
ACISOTS
 70
     0
 40
1.0
 41
1.0
 50
0.0
 71
     0
 42
2.5
  3
isocp.shx
  4
extfont.shx
  0
STYLE
  2
ACISOGDT
 70
     0
 40
0.0
 41
1.0
 50
0.0
 71
     0
 42
2.5
  3
amgdt.shx
  4

  0
STYLE
  2
ACANSTS
 70
     0
 40
1.0
 41
1.0
 50
0.0
 71
     0
 42
2.5
  3
romans.shx
  4
bigfont.shx
  0
STYLE
  2
ACANSGDT
 70
     0
 40
0.0
 41
1.0
 50
0.0
 71
     0
 42
2.5
  3
amgdt.shx
  4

  0
STYLE
  2
ACJISTS
 70
     0
 40
1.0
 41
1.0
 50
0.0
 71
     0
 42
2.5
  3
isocp.shx
  4
bigfont.shx
  0
STYLE
  2
ACJISGDT
 70
     0
 40
0.0
 41
1.0
 50
0.0
 71
     0
 42
2.5
  3
amgdt.shx
  4

  0
ENDTAB
  0
TABLE
  2
VIEW
 70
     6
  0
VIEW
  2
AM_VIEW1
 70
     0
 40
555.00000000000011
 10
499.2955801104971
 20
832.50000000000011
 41
998.59116022099431
 11
0.0
 21
0.0
 31
1.0
 12
0.0
 22
0.0
 32
0.0
 42
50.0
 43
0.0
 44
0.0
 50
0.0
 71
     0
  0
VIEW
  2
AM_VIEW2
 70
     0
 40
555.00000000000011
 10
1207.704419889501
 20
832.50000000000011
 41
998.59116022099431
 11
0.0
 21
0.0
 31
1.0
 12
0.0
 22
0.0
 32
0.0
 42
50.0
 43
0.0
 44
0.0
 50
0.0
 71
     0
  0
VIEW
  2
AM_VIEW3
 70
     0
 40
555.00000000000011
 10
499.2955801104971
 20
277.49999999999989
 41
998.59116022099431
 11
0.0
 21
0.0
 31
1.0
 12
0.0
 22
0.0
 32
0.0
 42
50.0
 43
0.0
 44
0.0
 50
0.0
 71
     0
  0
VIEW
  2
AM_VIEW4
 70
     0
 40
555.00000000000011
 10
1207.704419889501
 20
277.49999999999989
 41
998.59116022099431
 11
0.0
 21
0.0
 31
1.0
 12
0.0
 22
0.0
 32
0.0
 42
50.0
 43
0.0
 44
0.0
 50
0.0
 71
     0
  0
VIEW
  2
AM_VIEW5
 70
     0
 40
555.00000000000011
 10
853.5
 20
555.00000000000011
 41
998.59116022099431
 11
0.0
 21
0.0
 31
1.0
 12
0.0
 22
0.0
 32
0.0
 42
50.0
 43
0.0
 44
0.0
 50
0.0
 71
     0
  0
VIEW
  2
AM_VIEW6
 70
     0
 40
1109.9889000000001
 10
853.5
 20
555.0
 41
1997.162348618785
 11
0.0
 21
0.0
 31
1.0
 12
0.0
 22
0.0
 32
0.0
 42
50.0
 43
0.0
 44
0.0
 50
0.0
 71
     0
  0
ENDTAB
  0
TABLE
  2
UCS
 70
     0
  0
ENDTAB
  0
TABLE
  2
APPID
 70
    95
  0
APPID
  2
ACAD
 70
     0
  0
APPID
  2
ACADANNOTATIVE
 70
     0
  0
APPID
  2
MCAD_NO_VIS
 70
     0
  0
APPID
  2
ACAD_TEMP_GRAPHIC
 70
     0
  0
APPID
  2
ACATTRIBSERVICES
 70
     0
  0
APPID
  2
GENIUS_GENREC_14
 70
     0
  0
APPID
  2
GENIUS_GENOBJ-N-REC_13
 70
     0
  0
APPID
  2
GENIUS_GENODEF_13
 70
     0
  0
APPID
  2
GENIUS_GENOLIS_13
 70
     0
  0
APPID
  2
GENIUS_GENOBJ-N-TIT_13
 70
     0
  0
APPID
  2
GENIUS_GENOENT_13
 70
     0
  0
APPID
  2
GENIUS_GENTITLE_13
 70
     0
  0
APPID
  2
GENIUS_GENOREF_13
 70
     0
  0
APPID
  2
GENIUS_GENSCREG_15
 70
     0
  0
APPID
  2
GENIUS_GENOBJ-N-SDF_13
 70
     0
  0
APPID
  2
GENIUS_GENFIL_13
 70
     0
  0
APPID
  2
GENIUS_GENOBJ-N-CHA_13
 70
     0
  0
APPID
  2
GENIUS_GENDTOL_13
 70
     0
  0
APPID
  2
GENIUS_GENOBJ-N-FIL_13
 70
     0
  0
APPID
  2
AD_DRAW
 70
     0
  0
APPID
  2
DESIGNERASSEMBLIES
 70
     0
  0
APPID
  2
ASURF_PCURVE_APPNAME
 70
     0
  0
APPID
  2
GENIUS_GE3SECT_13
 70
     0
  0
APPID
  2
GENIUS_GENCFG_13
 70
     0
  0
APPID
  2
GENIUS_GE3CFG0_13
 70
     0
  0
APPID
  2
GENIUS_GENCFG0_13
 70
     0
  0
APPID
  2
GENIUS_GENCFG1_13
 70
     0
  0
APPID
  2
GENIUS_GENCFG2_13
 70
     0
  0
APPID
  2
GENIUS_GENCFG3_13
 70
     0
  0
APPID
  2
GENIUS_GENCFG4_13
 70
     0
  0
APPID
  2
GENIUS_GEVCFG0_13
 70
     0
  0
APPID
  2
GENIUS_GENHINW_13
 70
     0
  0
APPID
  2
GENIUS_FIRSTVISTXT_14
 70
     0
  0
APPID
  2
GENIUS_GENOBJ-N-LEADER_13
 70
     0
  0
APPID
  2
GEV_VCCNULL_SWITCH_OFF
 70
     0
  0
APPID
  2
GENIUS_GEFCFG0_13
 70
     0
  0
APPID
  2
GENIUS_GENZVEED_13
 70
     0
  0
APPID
  2
GENIUS_GENSCREG_13
 70
     0
  0
APPID
  2
GENIUS_DUMCFG0_13
 70
     0
  0
APPID
  2
GEVID936201362
 70
     0
  0
APPID
  2
GEVDC
 70
     0
  0
APPID
  2
GEVCON
 70
     0
  0
APPID
  2
VCC
 70
     0
  0
APPID
  2
GEVPT
 70
     0
  0
APPID
  2
GEVIT
 70
     0
  0
APPID
  2
GENBH
 70
     0
  0
APPID
  2
GEVMK
 70
     0
  0
APPID
  2
GENIUS_GENBH_13
 70
     0
  0
APPID
  2
GENIUS_GENOBJ-NBEHI-BHF_13
 70
     0
  0
APPID
  2
GENIUS_GENOBJ-NBEHI-BHB_13
 70
     0
  0
APPID
  2
GENIUS_GENOBJ-F-DESC_13
 70
     0
  0
APPID
  2
GENIUS_GEFDESC_14
 70
     0
  0
APPID
  2
GENIUS_GENOBJ-F-PART_13
 70
     0
  0
APPID
  2
GENIUS_GEFSTDP_13
 70
     0
  0
APPID
  2
GENIUS_GEFPARTINS_13
 70
     0
  0
APPID
  2
GENIUS_GENTRA_14
 70
     0
  0
APPID
  2
GENIUS_GENINF13_13
 70
     0
  0
APPID
  2
GENIUS_GENOBJ-N-INFOPT_13
 70
     0
  0
APPID
  2
GENIUS_GENOBJ-N-RSSYM_13
 70
     0
  0
APPID
  2
GENIUS_GENSYMENT_13
 70
     0
  0
APPID
  2
GENIUS_GENSCSYM_13
 70
     0
  0
APPID
  2
GENIUS_GEFINFNAM_13
 70
     0
  0
APPID
  2
GENIUS_GENOBJ-N-CEN_13
 70
     0
  0
APPID
  2
GENIUS_GENOBJ-N-CRS_13
 70
     0
  0
APPID
  2
GENIUS_GENOBJ-N-CRC_13
 70
     0
  0
APPID
  2
GENIUS_GENCRC_14
 70
     0
  0
APPID
  2
GEVID942827039
 70
     0
  0
APPID
  2
GEVID942827040
 70
     0
  0
APPID
  2
GEVID942827041
 70
     0
  0
APPID
  2
GENIUS_GENOBJ-F-SCPASSM_13
 70
     0
  0
APPID
  2
GENIUS_GENDIMSH_14
 70
     0
  0
APPID
  2
GEVID942827042
 70
     0
  0
APPID
  2
GEVID946020473
 70
     0
  0
APPID
  2
GEVID946020474
 70
     0
  0
APPID
  2
GEVID946020475
 70
     0
  0
APPID
  2
GENIUS_GENOBJ-N-HTC_13
 70
     0
  0
APPID
  2
GENIUS_GENHATCH_13
 70
     0
  0
APPID
  2
GEVID948854295
 70
     0
  0
APPID
  2
GEVID939402019
 70
     0
  0
APPID
  2
GEVID952919491
 70
     0
  0
APPID
  2
GEVID952919492
 70
     0
  0
APPID
  2
GENIUS_GEFWELD_13
 70
     0
  0
APPID
  2
GENIUS_GENOBJ-F-WELS_13
 70
     0
  0
APPID
  2
GEVID952919493
 70
     0
  0
APPID
  2
GENIUS_GENOBJ-N-RSBK_13
 70
     0
  0
APPID
  2
GENIUS_GENOBJ-N-LIB_13
 70
     0
  0
APPID
  2
GENIUS_GENSCALE_13
 70
     0
  0
APPID
  2
GEVID986376691
 70
     0
  0
APPID
  2
DCO15
 70
     0
  0
APPID
  2
ACAD_DSTYLE_DIMBREAK
 70
     0
  0
APPID
  2
ACAD_DSTYLE_DIMJAG
 70
     0
  0
APPID
  2
ACAD_NAV_VCDISPLAY
 70
     0
  0
APPID
  2
ACADANNOPO
 70
     0
  0
APPID
  2
ACAD_EXEMPT_FROM_CAD_STANDARDS
 70
     0
  0
APPID
  2
ACAD_MLEADERVER
 70
     0
  0
ENDTAB
  0
TABLE
  2
DIMSTYLE
 70
    22
  0
DIMSTYLE
  2
STANDARD
 70
     0
  3

  4

  5

  6

  7

 40
1.0
 41
0.18
 42
0.0625
 43
0.38
 44
0.18
 45
0.0
 46
0.0
 47
0.0
 48
0.0
140
0.18
141
0.09
142
0.0
143
25.399999999999999
144
1.0
145
0.0
146
1.0
147
0.09
 71
     0
 72
     0
 73
     1
 74
     1
 75
     0
 76
     0
 77
     0
 78
     0
170
     0
171
     2
172
     0
173
     0
174
     0
175
     0
176
     0
177
     0
178
     0
  0
DIMSTYLE
  2
ANNOTATIVE
 70
     0
  3

  4

  5

  6

  7

 40
1.0
 41
0.18
 42
0.0625
 43
0.38
 44
0.18
 45
0.0
 46
0.0
 47
0.0
 48
0.0
140
0.18
141
0.09
142
0.0
143
25.399999999999999
144
1.0
145
0.0
146
1.0
147
0.09
 71
     0
 72
     0
 73
     1
 74
     1
 75
     0
 76
     0
 77
     0
 78
     0
170
     0
171
     2
172
     0
173
     0
174
     0
175
     0
176
     0
177
     0
178
     0
  0
DIMSTYLE
  2
AM_ISO
 70
     0
  3

  4
"
  5

  6

  7

 40
1.0
 41
2.5
 42
1.0
 43
8.0
 44
0.6
 45
0.0
 46
0.0
 47
0.1
 48
0.1
140
2.5
141
0.0
142
0.0
143
0.0393701
144
1.0
145
0.0
146
0.71
147
0.8
 71
     0
 72
     0
 73
     0
 74
     0
 75
     0
 76
     0
 77
     1
 78
     8
170
     0
171
     2
172
     1
173
     0
174
     0
175
     0
176
   256
177
   256
178
     4
  0
DIMSTYLE
  2
AM_ISO$3
 70
     0
  3

  4
"
  5

  6

  7

 40
1.0
 41
2.5
 42
1.0
 43
8.0
 44
0.6
 45
0.0
 46
0.0
 47
0.1
 48
0.1
140
2.5
141
0.0
142
0.0
143
0.0393701
144
1.0
145
0.0
146
0.71
147
0.8
 71
     0
 72
     0
 73
     0
 74
     1
 75
     0
 76
     0
 77
     1
 78
     8
170
     0
171
     2
172
     0
173
     0
174
     0
175
     0
176
   256
177
   256
178
     4
  0
DIMSTYLE
  2
AM_ISO$4
 70
     0
  3

  4
"
  5

  6

  7

 40
1.0
 41
2.5
 42
1.0
 43
8.0
 44
0.6
 45
0.0
 46
0.0
 47
0.1
 48
0.1
140
2.5
141
0.0
142
0.0
143
0.0393701
144
1.0
145
0.0
146
0.71
147
0.8
 71
     0
 72
     0
 73
     0
 74
     1
 75
     0
 76
     0
 77
     1
 78
     8
170
     0
171
     2
172
     0
173
     0
174
     0
175
     0
176
   256
177
   256
178
     4
  0
DIMSTYLE
  2
AM_ISO$6
 70
     0
  3

  4
"
  5

  6

  7

 40
1.0
 41
2.5
 42
1.0
 43
8.0
 44
0.6
 45
0.0
 46
0.0
 47
0.1
 48
0.1
140
2.5
141
0.0
142
0.0
143
0.0393701
144
1.0
145
0.0
146
0.71
147
0.8
 71
     0
 72
     0
 73
     0
 74
     0
 75
     0
 76
     0
 77
     0
 78
     8
170
     0
171
     2
172
     1
173
     0
174
     0
175
     0
176
   256
177
   256
178
     4
  0
DIMSTYLE
  2
AM_ISO$7
 70
     0
  3

  4
"
  5

  6

  7

 40
1.0
 41
2.5
 42
1.0
 43
8.0
 44
0.6
 45
0.0
 46
0.0
 47
0.1
 48
0.1
140
2.5
141
0.0
142
0.0
143
0.0393701
144
1.0
145
0.0
146
0.71
147
0.8
 71
     0
 72
     0
 73
     0
 74
     0
 75
     0
 76
     0
 77
     1
 78
     8
170
     0
171
     2
172
     1
173
     0
174
     0
175
     0
176
   256
177
   256
178
     4
  0
DIMSTYLE
  2
AM_ISO$SF
 70
     0
  3

  4
"
  5

  6

  7

 40
1.0
 41
2.5
 42
1.0
 43
10.0
 44
1.0
 45
0.0
 46
0.0
 47
0.1
 48
0.1
140
3.5
141
0.0
142
0.0
143
0.0393701
144
1.0
145
0.0
146
0.71
147
1.5
 71
     0
 72
     0
 73
     0
 74
     0
 75
     1
 76
     1
 77
     1
 78
     8
170
     0
171
     2
172
     1
173
     0
174
     0
175
     0
176
   256
177
   256
178
     2
  0
DIMSTYLE
  2
AM_ISO$SH
 70
     0
  3

  4
"
  5

  6

  7

 40
1.0
 41
2.5
 42
1.0
 43
10.0
 44
1.0
 45
0.0
 46
0.0
 47
0.1
 48
0.1
140
3.5
141
0.0
142
0.0
143
0.0393701
144
2.0
145
0.0
146
0.71
147
1.5
 71
     0
 72
     0
 73
     0
 74
     0
 75
     1
 76
     1
 77
     1
 78
     8
170
     0
171
     2
172
     1
173
     1
174
     0
175
     0
176
   256
177
   256
178
     2
  0
DIMSTYLE
  2
AM_JIS
 70
     0
  3

  4
"
  5

  6

  7

 40
1.0
 41
2.5
 42
1.0
 43
7.0
 44
1.0
 45
0.0
 46
0.0
 47
0.1
 48
0.1000000001
140
2.5
141
0.0
142
0.0
143
0.0393701
144
1.0
145
0.0
146
0.71
147
1.0
 71
     0
 72
     0
 73
     0
 74
     0
 75
     0
 76
     0
 77
     3
 78
     8
170
     0
171
     2
172
     1
173
     0
174
     0
175
     0
176
   256
177
   256
178
     4
  0
DIMSTYLE
  2
AM_JIS$3
 70
     0
  3

  4
"
  5

  6

  7

 40
1.0
 41
2.5
 42
1.0
 43
7.0
 44
1.0
 45
0.0
 46
0.0
 47
0.1
 48
0.1000000001
140
2.5
141
0.0
142
0.0
143
0.0393701
144
1.0
145
0.0
146
0.71
147
1.0
 71
     0
 72
     0
 73
     0
 74
     1
 75
     0
 76
     0
 77
     3
 78
     8
170
     0
171
     2
172
     0
173
     0
174
     0
175
     0
176
   256
177
   256
178
     4
  0
DIMSTYLE
  2
AM_JIS$4
 70
     0
  3

  4
"
  5

  6

  7

 40
1.0
 41
2.5
 42
1.0
 43
7.0
 44
1.0
 45
0.0
 46
0.0
 47
0.1
 48
0.1000000001
140
2.5
141
0.0
142
0.0
143
0.0393701
144
1.0
145
0.0
146
0.71
147
1.0
 71
     0
 72
     0
 73
     0
 74
     0
 75
     0
 76
     0
 77
     3
 78
     8
170
     0
171
     2
172
     0
173
     0
174
     0
175
     0
176
   256
177
   256
178
     4
  0
DIMSTYLE
  2
AM_JIS$6
 70
     0
  3

  4
"
  5

  6

  7

 40
1.0
 41
2.5
 42
1.0
 43
7.0
 44
1.0
 45
0.0
 46
0.0
 47
0.1
 48
0.1000000001
140
2.5
141
0.0
142
0.0
143
0.0393701
144
1.0
145
0.0
146
0.71
147
1.0
 71
     0
 72
     0
 73
     0
 74
     0
 75
     0
 76
     0
 77
     0
 78
     8
170
     0
171
     2
172
     1
173
     0
174
     0
175
     0
176
   256
177
   256
178
     4
  0
DIMSTYLE
  2
AM_JIS$7
 70
     0
  3

  4
"
  5

  6

  7

 40
1.0
 41
2.5
 42
1.0
 43
7.0
 44
1.0
 45
0.0
 46
0.0
 47
0.1
 48
0.1000000001
140
2.5
141
0.0
142
0.0
143
0.0393701
144
1.0
145
0.0
146
0.71
147
1.0
 71
     0
 72
     0
 73
     0
 74
     0
 75
     0
 76
     0
 77
     3
 78
     8
170
     0
171
     2
172
     1
173
     0
174
     0
175
     0
176
   256
177
   256
178
     4
  0
DIMSTYLE
  2
AM_JIS$SF
 70
     0
  3

  4
"
  5

  6

  7

 40
1.0
 41
2.5
 42
1.0
 43
10.0
 44
1.0
 45
0.0
 46
0.0
 47
0.1
 48
0.1
140
3.5
141
0.0
142
0.0
143
0.0393701
144
1.0
145
0.0
146
0.71
147
1.5
 71
     0
 72
     0
 73
     0
 74
     0
 75
     1
 76
     1
 77
     3
 78
     8
170
     0
171
     2
172
     1
173
     0
174
     0
175
     0
176
   256
177
   256
178
     4
  0
DIMSTYLE
  2
AM_JIS$SH
 70
     0
  3

  4
"
  5

  6

  7

 40
1.0
 41
2.5
 42
1.0
 43
10.0
 44
1.0
 45
0.0
 46
0.0
 47
0.1
 48
0.1
140
3.5
141
0.0
142
0.0
143
0.0393701
144
1.0
145
0.0
146
0.71
147
1.5
 71
     0
 72
     0
 73
     0
 74
     0
 75
     1
 76
     0
 77
     3
 78
     8
170
     0
171
     2
172
     1
173
     1
174
     0
175
     0
176
   256
177
   256
178
     4
  0
DIMSTYLE
  2
AM_ANSI
 70
     0
  3

  4
mm
  5

  6

  7

 40
1.0
 41
0.1
 42
0.05
 43
0.5
 44
0.1
 45
0.0
 46
0.0
 47
0.1
 48
0.1
140
0.12
141
0.0
142
0.0
143
25.399999999999999
144
1.0
145
0.0
146
0.71
147
0.06
 71
     0
 72
     0
 73
     1
 74
     1
 75
     0
 76
     0
 77
     0
 78
     7
170
     0
171
     2
172
     0
173
     0
174
     0
175
     0
176
   256
177
   256
178
     2
  0
DIMSTYLE
  2
AM_ANSI$3
 70
     0
  3

  4
mm
  5

  6

  7

 40
1.0
 41
0.1
 42
0.05
 43
0.5
 44
0.1
 45
0.0
 46
0.0
 47
0.1
 48
0.1
140
0.12
141
0.0
142
0.0
143
25.399999999999999
144
1.0
145
0.0
146
0.71
147
0.06
 71
     0
 72
     0
 73
     1
 74
     1
 75
     0
 76
     0
 77
     0
 78
     7
170
     0
171
     2
172
     0
173
     0
174
     0
175
     0
176
   256
177
   256
178
     2
  0
DIMSTYLE
  2
AM_ANSI$4
 70
     0
  3

  4
mm
  5

  6

  7

 40
1.0
 41
0.1
 42
0.05
 43
0.5
 44
0.1
 45
0.0
 46
0.0
 47
0.1
 48
0.1
140
0.12
141
0.0
142
0.0
143
25.399999999999999
144
1.0
145
0.0
146
0.71
147
0.06
 71
     0
 72
     0
 73
     1
 74
     1
 75
     0
 76
     0
 77
     0
 78
     7
170
     0
171
     2
172
     0
173
     0
174
     0
175
     0
176
   256
177
   256
178
     2
  0
DIMSTYLE
  2
AM_ANSI$7
 70
     0
  3

  4
mm
  5

  6

  7

 40
1.0
 41
0.1
 42
0.05
 43
0.5
 44
0.1
 45
0.0
 46
0.0
 47
0.1
 48
0.1
140
0.24
141
0.0
142
0.0
143
25.399999999999999
144
1.0
145
0.0
146
0.71
147
0.06
 71
     0
 72
     0
 73
     1
 74
     1
 75
     0
 76
     0
 77
     0
 78
     7
170
     0
171
     2
172
     0
173
     0
174
     0
175
     0
176
   256
177
   256
178
     2
  0
DIMSTYLE
  2
AM_ANSI$SF
 70
     0
  3

  4
mm
  5

  6

  7

 40
1.0
 41
0.1
 42
0.05
 43
0.5
 44
0.1
 45
0.0
 46
0.0
 47
0.1
 48
0.1
140
0.12
141
0.0
142
0.0
143
25.399999999999999
144
1.0
145
0.0
146
0.71
147
0.06
 71
     0
 72
     0
 73
     1
 74
     1
 75
     1
 76
     1
 77
     0
 78
     7
170
     0
171
     2
172
     0
173
     0
174
     0
175
     0
176
   256
177
   256
178
     2
  0
DIMSTYLE
  2
AM_ANSI$SH
 70
     0
  3

  4
mm
  5

  6

  7

 40
1.0
 41
0.1
 42
0.05
 43
0.5
 44
0.1
 45
0.0
 46
0.0
 47
0.1
 48
0.1
140
0.12
141
0.0
142
0.0
143
25.399999999999999
144
1.0
145
0.0
146
0.71
147
0.06
 71
     0
 72
     0
 73
     1
 74
     1
 75
     1
 76
     1
 77
     0
 78
     7
170
     0
171
     2
172
     0
173
     1
174
     0
175
     0
176
   256
177
   256
178
     2
  0
ENDTAB
  0
ENDSEC
  0
SECTION
  2
BLOCKS
  0
BLOCK
  8
0
  2
$MODEL_SPACE
 70
     0
 10
0.0
 20
0.0
 30
0.0
  3
$MODEL_SPACE
  1

  0
ENDBLK
  5
3769
  8
0
  0
BLOCK
 67
     1
  8
0
  2
$PAPER_SPACE
 70
     0
 10
0.0
 20
0.0
 30
0.0
  3
$PAPER_SPACE
  1

  0
ENDBLK
  5
3765
 67
     1
  8
0
  0
BLOCK
  8
0
  2
GENAXEH
 70
     0
 10
0.0
 20
0.0
 30
0.0
  3
GENAXEH
  1

  0
LINE
  5
34EF
  8
0
 10
-1.0
 20
0.0
 30
0.0
 11
1.0
 21
0.0
 31
0.0
  0
ENDBLK
  5
34F0
  8
0
  0
BLOCK
  8
0
  2
_OPEN30
 70
     0
 10
0.0
 20
0.0
 30
0.0
  3
_OPEN30
  1

  0
LINE
  5
34F3
  8
0
 62
     0
 10
-1.0
 20
0.26794919
 30
0.0
 11
0.0
 21
0.0
 31
0.0
  0
LINE
  5
34F4
  8
0
 62
     0
 10
0.0
 20
0.0
 30
0.0
 11
-1.0
 21
-0.26794919
 31
0.0
  0
LINE
  5
34F5
  8
0
 62
     0
 10
0.0
 20
0.0
 30
0.0
 11
-1.0
 21
0.0
 31
0.0
  0
ENDBLK
  5
34F6
  8
0
  0
BLOCK
  8
0
  2
_NONE
 70
     0
 10
0.0
 20
0.0
 30
0.0
  3
_NONE
  1

  0
ENDBLK
  5
34F9
  8
0
  0
BLOCK
  8
0
  2
*U5
 70
     1
 10
0.0
 20
0.0
 30
0.0
  3
*U5
  1

  0
TEXT
  5
34FC
  8
AM_0
 62
     4
 10
985.02429019176634
 20
484.37550197647772
 30
0.0
 40
15.0
  1
\U+2205
 50
90.0
 41
0.8299999999999999
  0
TEXT
  5
34FD
  8
AM_0
 62
     4
 10
985.02429019176634
 20
496.8255019764776
 30
0.0
 40
15.0
  1
310
 50
90.0
 41
0.8299999999999999
  0
TEXT
  5
34FE
  8
AM_0
 62
     4
 10
985.02429019176634
 20
527.95050197647765
 30
0.0
 40
12.0
  1
h7
 50
90.0
 41
0.8299999999999999
  0
ENDBLK
  5
34FF
  8
0
  0
BLOCK
  8
0
  2
*U6
 70
     1
 10
0.0
 20
0.0
 30
0.0
  3
*U6
  1

  0
TEXT
  5
3502
  8
AM_0
 62
     4
 10
421.06578637406318
 20
430.5654944764778
 30
0.0
 40
15.0
  1
\U+2205
 50
90.0
 41
0.8299999999999999
  0
TEXT
  5
3503
  8
AM_0
 62
     4
 10
421.06578637406318
 20
443.01549447647761
 30
0.0
 40
15.0
  1
230 
 50
90.0
 41
0.8299999999999999
  0
TEXT
  5
3504
  8
AM_0
 62
     4
 10
421.06578637406318
 20
485.76049447647762
 30
0.0
 40
12.0
  1
G7
 50
90.0
 41
0.8299999999999999
  0
ENDBLK
  5
3505
  8
0
  0
BLOCK
  8
0
  2
*U7
 70
     1
 10
0.0
 20
0.0
 30
0.0
  3
*U7
  1

  0
TEXT
  5
3508
  8
AM_0
 62
     4
 10
381.18711916168161
 20
445.7129944764776
 30
0.0
 40
15.0
  1
\U+2205
 50
90.0
 41
0.8299999999999999
  0
TEXT
  5
3509
  8
AM_0
 62
     4
 10
381.18711916168161
 20
458.16299447647771
 30
0.0
 40
15.0
  1
300
 50
90.0
 41
0.8299999999999999
  0
ENDBLK
  5
350A
  8
0
  0
BLOCK
  8
0
  2
*U8
 70
     1
 10
0.0
 20
0.0
 30
0.0
  3
*U8
  1

  0
TEXT
  5
350D
  8
AM_0
 62
     4
 10
1270.600465627225
 20
785.09327658244001
 30
0.0
 40
15.0
  1
o
 41
0.8299999999999999
  0
TEXT
  5
350E
  8
AM_0
 62
     4
 10
1285.4218941986539
 20
785.09327658244001
 30
0.0
 40
15.0
  1
 370
 41
0.8299999999999999
  0
ENDBLK
  5
350F
  8
0
  0
BLOCK
  8
0
  2
*U9
 70
     1
 10
0.0
 20
0.0
 30
0.0
  3
*U9
  1

  0
TEXT
  5
3512
  8
AM_0
 62
     4
 10
899.51895997706652
 20
506.13509055537202
 30
0.0
 40
15.0
  1
\U+2205
 50
90.0
 41
0.8299999999999999
  0
TEXT
  5
3513
  8
AM_0
 62
     4
 10
899.51895997706652
 20
518.58509055537218
 30
0.0
 40
15.0
  1
310
 50
90.0
 41
0.8299999999999999
  0
TEXT
  5
3514
  8
AM_0
 62
     4
 10
899.51895997706652
 20
549.71009055537195
 30
0.0
 40
12.0
  1
h7
 50
90.0
 41
0.8299999999999999
  0
ENDBLK
  5
3515
  8
0
  0
BLOCK
  8
0
  2
*U10
 70
     1
 10
0.0
 20
0.0
 30
0.0
  3
*U10
  1

  0
TEXT
  5
3518
  8
AM_0
 62
     4
 10
295.68178894698173
 20
467.47258305537201
 30
0.0
 40
15.0
  1
\U+2205
 50
90.0
 41
0.8299999999999999
  0
TEXT
  5
3519
  8
AM_0
 62
     4
 10
295.68178894698173
 20
479.92258305537189
 30
0.0
 40
15.0
  1
300
 50
90.0
 41
0.8299999999999999
  0
ENDBLK
  5
351A
  8
0
  0
BLOCK
  8
0
  2
*U11
 70
     1
 10
0.0
 20
0.0
 30
0.0
  3
*U11
  1

  0
TEXT
  5
351D
  8
AM_0
 62
     4
 10
335.56045615936318
 20
452.32508305537198
 30
0.0
 40
15.0
  1
\U+2205
 50
90.0
 41
0.8299999999999999
  0
TEXT
  5
351E
  8
AM_0
 62
     4
 10
335.56045615936318
 20
464.77508305537208
 30
0.0
 40
15.0
  1
230 
 50
90.0
 41
0.8299999999999999
  0
TEXT
  5
351F
  8
AM_0
 62
     4
 10
335.56045615936318
 20
507.52008305537203
 30
0.0
 40
12.0
  1
G7
 50
90.0
 41
0.8299999999999999
  0
ENDBLK
  5
3520
  8
0
  0
BLOCK
  8
0
  2
*U12
 70
     1
 10
0.0
 20
0.0
 30
0.0
  3
*U12
  1

  0
TEXT
  5
3523
  8
AM_0
 62
     4
 10
1185.0951354125241
 20
806.85286516133408
 30
0.0
 40
15.0
  1
o
 41
0.8299999999999999
  0
TEXT
  5
3524
  8
AM_0
 62
     4
 10
1199.9165639839539
 20
806.85286516133408
 30
0.0
 40
15.0
  1
 370
 41
0.8299999999999999
  0
ENDBLK
  5
3525
  8
0
  0
BLOCK
  8
0
  2
_ACMFILLEDHALF
 70
     0
 10
0.0
 20
0.0
 30
0.0
  3
_ACMFILLEDHALF
  1

  0
TRACE
  5
386F
  8
AM_0
 62
     0
 10
-0.8
 20
0.0
 30
0.0
 11
-1.0
 21
0.166666666
 31
0.0
 12
0.0
 22
0.0
 32
0.0
 13
0.0
 23
0.0
 33
0.0
  0
LINE
  5
3870
  8
AM_0
 62
     0
 10
-1.0
 20
0.0
 30
0.0
 11
-0.8
 21
0.0
 31
0.0
  0
ENDBLK
  5
386E
  8
0
  0
ENDSEC
  0
SECTION
  2
ENTITIES
  0
LINE
  5
3527
  8
AM_0
 10
707.79528102430595
 20
989.54753195861144
 30
0.0
 11
812.79528102430572
 21
989.54753195861144
 31
0.0
  0
LINE
  5
3528
  8
AM_0
 10
731.79528102430572
 20
1028.547531958611
 30
0.0
 11
812.79528102430572
 21
1028.547531958611
 31
0.0
  0
LINE
  5
3529
  8
AM_0
 10
731.79528102430572
 20
1010.547531958611
 30
0.0
 11
812.79528102430572
 21
1010.547531958611
 31
0.0
  0
LINE
  5
352A
  8
AM_0
 10
707.79528102430595
 20
1049.5475319586101
 30
0.0
 11
812.79528102430572
 21
1049.5475319586101
 31
0.0
  0
LINE
  5
352B
  8
ﾁｭｳｼﾝｾﾝ
 10
364.4583983515995
 20
1019.547531958611
 30
0.0
 11
828.61822102430563
 21
1019.547531958611
 31
0.0
  0
POLYLINE
  5
352C
  8
AM_0
 66
     1
 10
0.0
 20
0.0
 30
0.0
  0
VERTEX
  5
352D
  8
AM_0
 10
652.17878102430586
 20
1114.136761958611
 30
0.0
 42
0.034282229
  0
VERTEX
  5
352E
  8
AM_0
 10
643.13448102430607
 20
1051.29045195861
 30
0.0
 42
0.072426646
  0
VERTEX
  5
352F
  8
AM_0
 10
652.17878102430586
 20
924.95836195861148
 30
0.0
  0
SEQEND
  5
3530
  8
AM_0
  0
LINE
  5
3531
  8
AM_0
 10
702.79528102430561
 20
864.54753195861144
 30
0.0
 11
702.79528102430561
 21
1174.54756195861
 31
0.0
  0
LINE
  5
3532
  8
AM_0
 10
672.79528102430595
 20
1201.54756195861
 30
0.0
 11
672.79528102430595
 21
837.54753195861133
 31
0.0
  0
LINE
  5
3533
  8
AM_0
 10
681.79528102430561
 20
1166.10636195861
 30
0.0
 11
681.79528102430561
 21
872.97759195861147
 31
0.0
  0
LINE
  5
3534
  8
AM_0
 10
697.79528102430595
 20
1204.54756195861
 30
0.0
 11
697.79528102430595
 21
834.54753195861144
 31
0.0
  0
LINE
  5
3535
  8
AM_0
 10
707.79528102430595
 20
1052.047531958611
 30
0.0
 11
707.79528102430595
 21
987.04753195861144
 31
0.0
  0
LINE
  5
3536
  8
AM_0
 10
559.29528102430595
 20
1014.547531958611
 30
0.0
 11
559.29528102430595
 21
860.60051195861138
 31
0.0
  0
LINE
  5
3537
  8
AM_0
 10
519.29522102430565
 20
894.61614195861148
 30
0.0
 11
519.29522102430565
 21
1014.964951958611
 31
0.0
  0
LINE
  5
3538
  8
AM_0
 10
539.29522102430565
 20
866.12737195861143
 30
0.0
 11
539.29522102430565
 21
1000.812551958611
 31
0.0
  0
LINE
  5
3539
  8
AM_0
 10
462.29528102430572
 20
1139.54756195861
 30
0.0
 11
462.29528102430572
 21
899.54753195861144
 31
0.0
  0
LINE
  5
353A
  8
AM_0
 10
475.2952210243057
 20
1137.54756195861
 30
0.0
 11
475.2952210243057
 21
901.54753195861144
 31
0.0
  0
LINE
  5
353B
  8
AM_0
 10
667.9697210243055
 20
856.80547195861129
 30
0.0
 11
559.29528102430595
 21
860.60051195861138
 31
0.0
  0
LINE
  5
353C
  8
AM_0
 10
477.29528102430572
 20
907.54753195861144
 30
0.0
 11
514.29522102430565
 21
907.54753195861144
 31
0.0
  0
LINE
  5
353D
  8
AM_0
 10
475.2952210243057
 20
948.6147319586114
 30
0.0
 11
519.29522102430565
 21
948.6147319586114
 31
0.0
  0
LINE
  5
353E
  8
AM_0
 10
475.2952210243057
 20
932.87267195861125
 30
0.0
 11
519.29522102430565
 21
932.87267195861125
 31
0.0
  0
ARC
  5
353F
  8
AM_0
 10
473.29528102430572
 20
901.54753195861144
 30
0.0
 40
2.0
 50
270.0
 51
0.0
  0
LINE
  5
3540
  8
AM_0
 10
462.29528102430572
 20
899.54753195861144
 30
0.0
 11
473.29528102430572
 21
899.54753195861144
 31
0.0
  0
LINE
  5
3541
  8
AM_0
 10
462.29528102430572
 20
919.82030195861148
 30
0.0
 11
475.2952210243057
 21
919.82030195861148
 31
0.0
  0
ARC
  5
3542
  8
AM_0
 10
477.29528102430572
 20
905.54753195861144
 30
0.0
 40
2.0
 50
90.00000299999769
 51
180.00001000000091
  0
LINE
  5
3543
  8
AM_0
 10
462.29528102430572
 20
935.37664195861146
 30
0.0
 11
475.2952210243057
 21
935.37664195861146
 31
0.0
  0
LINE
  5
3544
  8
AM_0
 10
462.29528102430572
 20
943.53081195861159
 30
0.0
 11
475.2952210243057
 21
943.53081195861159
 31
0.0
  0
LINE
  5
3545
  8
AM_0
 10
523.96124102430565
 20
889.62731195861136
 30
0.0
 11
534.62926102430595
 21
888.91295195861153
 31
0.0
  0
ARC
  5
3546
  8
AM_0
 10
524.29522102430565
 20
894.61614195861148
 30
0.0
 40
5.0
 50
180.00001000000091
 51
266.16915999999748
  0
LINE
  5
3547
  8
AM_0
 10
559.29528102430595
 20
860.60057195861145
 30
0.0
 11
544.12072102430568
 21
861.13048195861154
 31
0.0
  0
ARC
  5
3548
  8
AM_0
 10
544.29522102430565
 20
866.12737195861143
 30
0.0
 40
5.0
 50
180.00001000000091
 51
268.00000999999878
  0
ARC
  5
3549
  8
AM_0
 10
534.29522102430565
 20
883.92412195861141
 30
0.0
 40
5.0
 50
0.0
 51
86.16916099999878
  0
ARC
  5
354A
  8
AM_0
 10
514.29522102430565
 20
902.54753195861144
 30
0.0
 40
5.0
 50
0.0
 51
90.00000299999769
  0
LINE
  5
354B
  8
AM_0
 10
675.79528102430595
 20
834.54747195861137
 30
0.0
 11
697.79528102430595
 21
834.54747195861137
 31
0.0
  0
LINE
  5
354C
  8
AM_0
 10
670.42742102430589
 20
890.80046195861144
 30
0.0
 11
615.4904110243059
 21
924.81688195861125
 31
0.0
  0
LINE
  5
354D
  8
AM_0
 10
670.42748102430596
 20
878.83495195861144
 30
0.0
 11
614.16308102430571
 21
913.67333195861147
 31
0.0
  0
POLYLINE
  5
354E
  8
AM_0
 66
     1
 10
0.0
 20
0.0
 30
0.0
  0
VERTEX
  5
354F
  8
AM_0
 10
662.96859102430585
 20
883.45322195861149
 30
0.0
 42
0.0050438079
  0
VERTEX
  5
3550
  8
AM_0
 10
666.05060102430593
 20
873.75283195861152
 30
0.0
 42
0.0050105797
  0
VERTEX
  5
3551
  8
AM_0
 10
669.32702102430585
 20
864.11637195861147
 30
0.0
 42
0.0049830203
  0
VERTEX
  5
3552
  8
AM_0
 10
672.79528102430595
 20
854.54753195861144
 30
0.0
  0
SEQEND
  5
3553
  8
AM_0
  0
ARC
  5
3554
  8
AM_0
 10
667.79528102430595
 20
851.80858195861128
 30
0.0
 40
5.0
 50
0.0
 51
88.000000000002998
  0
ARC
  5
3555
  8
AM_0
 10
675.79528102430595
 20
837.54753195861133
 30
0.0
 40
3.0
 50
179.9999899999988
 51
270.0
  0
LINE
  5
3556
  8
AM_0
 10
674.79528102430595
 20
870.98863195861145
 30
0.0
 11
679.79528102430595
 21
870.98863195861145
 31
0.0
  0
ARC
  5
3557
  8
AM_0
 10
674.79528102430595
 20
868.98863195861145
 30
0.0
 40
2.0
 50
90.00000299999769
 51
180.00001000000091
  0
ARC
  5
3558
  8
AM_0
 10
667.79528102430595
 20
874.58391195861145
 30
0.0
 40
5.0
 50
0.0
 51
58.234630000004231
  0
ARC
  5
3559
  8
AM_0
 10
679.79528102430595
 20
872.98863195861145
 30
0.0
 40
2.0
 50
270.0
 51
0.0
  0
LINE
  5
355A
  8
AM_0
 10
616.79528102430561
 20
927.10491195861141
 30
0.0
 11
647.63555102430587
 21
927.10491195861141
 31
0.0
  0
ARC
  5
355B
  8
AM_0
 10
616.79528102430561
 20
922.10491195861141
 30
0.0
 40
5.0
 50
90.00000299999769
 51
180.00001000000091
  0
ARC
  5
355C
  8
AM_0
 10
616.79528102430561
 20
917.92436195861148
 30
0.0
 40
5.0
 50
179.9999899999988
 51
238.23464999999609
  0
LINE
  5
355D
  8
AM_0
 10
611.79528102430595
 20
917.92436195861148
 30
0.0
 11
611.79528102430595
 21
922.10491195861141
 31
0.0
  0
LINE
  5
355E
  8
AM_0
 10
672.79528102430595
 20
909.64073195861147
 30
0.0
 11
650.61755102430561
 21
926.11833195861141
 31
0.0
  0
ARC
  5
355F
  8
AM_0
 10
647.63555102430587
 20
922.10491195861141
 30
0.0
 40
5.0
 50
53.388504999994019
 51
90.00000299999769
  0
LINE
  5
3560
  8
AM_0
 10
672.79528102430595
 20
933.2761719586116
 30
0.0
 11
679.79528102430595
 21
933.2761719586116
 31
0.0
  0
ARC
  5
3561
  8
AM_0
 10
679.79528102430595
 20
935.2761719586116
 30
0.0
 40
2.0
 50
270.0
 51
0.0
  0
LINE
  5
3562
  8
AM_0
 10
697.79528102430595
 20
864.54753195861144
 30
0.0
 11
702.79528102430561
 21
864.54753195861144
 31
0.0
  0
LINE
  5
3563
  8
AM_0
 10
702.79528102430561
 20
987.04753195861144
 30
0.0
 11
707.79528102430595
 21
987.04753195861144
 31
0.0
  0
LINE
  5
3564
  8
AM_0
 10
667.9697210243055
 20
1182.28946195861
 30
0.0
 11
559.29528102430595
 21
1178.494561958611
 31
0.0
  0
LINE
  5
3565
  8
AM_0
 10
539.29522102430565
 20
1038.28252195861
 30
0.0
 11
539.29522102430565
 21
1172.967661958611
 31
0.0
  0
LINE
  5
3566
  8
AM_0
 10
559.29528102430595
 20
1178.494561958611
 30
0.0
 11
559.29528102430595
 21
1024.547531958611
 31
0.0
  0
LINE
  5
3567
  8
AM_0
 10
477.29528102430572
 20
1131.54756195861
 30
0.0
 11
514.29522102430565
 21
1131.54756195861
 31
0.0
  0
LINE
  5
3568
  8
AM_0
 10
475.2952210243057
 20
1106.22236195861
 30
0.0
 11
519.29522102430565
 21
1106.22236195861
 31
0.0
  0
LINE
  5
3569
  8
AM_0
 10
475.2952210243057
 20
1090.480261958611
 30
0.0
 11
519.29522102430565
 21
1090.480261958611
 31
0.0
  0
LINE
  5
356A
  8
AM_0
 10
462.29528102430572
 20
1095.564261958609
 30
0.0
 11
475.2952210243057
 21
1095.564261958609
 31
0.0
  0
LINE
  5
356B
  8
AM_0
 10
462.29528102430572
 20
1119.274661958611
 30
0.0
 11
475.2952210243057
 21
1119.274661958611
 31
0.0
  0
LINE
  5
356C
  8
AM_0
 10
462.29528102430572
 20
1103.718361958611
 30
0.0
 11
475.2952210243057
 21
1103.718361958611
 31
0.0
  0
LINE
  5
356D
  8
AM_0
 10
462.29528102430572
 20
1139.54756195861
 30
0.0
 11
473.29528102430572
 21
1139.54756195861
 31
0.0
  0
ARC
  5
356E
  8
AM_0
 10
477.29528102430572
 20
1133.54756195861
 30
0.0
 40
2.0
 50
179.9999899999988
 51
270.0
  0
ARC
  5
356F
  8
AM_0
 10
473.29528102430572
 20
1137.54756195861
 30
0.0
 40
2.0
 50
0.0
 51
90.00000299999769
  0
LINE
  5
3570
  8
AM_0
 10
519.29522102430565
 20
1024.130111958611
 30
0.0
 11
519.29522102430565
 21
1144.4789619586111
 31
0.0
  0
ARC
  5
3571
  8
AM_0
 10
541.29528102430595
 20
1019.547531958611
 30
0.0
 40
15.0
 50
199.4712300000005
 51
249.5126300000021
  0
ARC
  5
3572
  8
AM_0
 10
541.29528102430595
 20
1019.547531958611
 30
0.0
 40
15.0
 50
110.4873699999977
 51
160.52876999999901
  0
ARC
  5
3573
  8
AM_0
 10
541.29528102430595
 20
1019.547531958611
 30
0.0
 40
12.5
 50
203.5781799999973
 51
336.42182999999471
  0
ARC
  5
3574
  8
AM_0
 10
541.29528102430595
 20
1019.547531958611
 30
0.0
 40
12.5
 50
23.578179999997531
 51
156.42182000000241
  0
LINE
  5
3575
  8
AM_0
 10
521.29528102430595
 20
1024.547531958611
 30
0.0
 11
561.29528102430572
 21
1024.547531958611
 31
0.0
  0
LINE
  5
3576
  8
AM_0
 10
521.29528102430595
 20
1014.547531958611
 30
0.0
 11
561.29528102430572
 21
1014.547531958611
 31
0.0
  0
ARC
  5
3577
  8
AM_0
 10
521.29528102430595
 20
1019.547531958611
 30
0.0
 40
5.0
 50
90.00000299999769
 51
270.0
  0
ARC
  5
3578
  8
AM_0
 10
534.29522102430565
 20
1038.28252195861
 30
0.0
 40
5.0
 50
290.4873799999977
 51
0.0
  0
ARC
  5
3579
  8
AM_0
 10
561.29528102430572
 20
1019.547531958611
 30
0.0
 40
5.0
 50
270.0
 51
90.00000299999769
  0
ARC
  5
357A
  8
AM_0
 10
534.29522102430565
 20
1000.812551958611
 30
0.0
 40
5.0
 50
0.0
 51
69.512624999999204
  0
LINE
  5
357B
  8
AM_0
 10
523.96117102430594
 20
1149.4676619586089
 30
0.0
 11
534.62926102430595
 21
1150.182061958611
 31
0.0
  0
ARC
  5
357C
  8
AM_0
 10
524.29522102430565
 20
1144.4789619586111
 30
0.0
 40
5.0
 50
93.830836999998056
 51
180.00001000000091
  0
ARC
  5
357D
  8
AM_0
 10
514.29522102430565
 20
1136.5475619586121
 30
0.0
 40
5.0
 50
270.0
 51
0.0
  0
ARC
  5
357E
  8
AM_0
 10
534.29522102430565
 20
1155.1709619586111
 30
0.0
 40
5.0
 50
273.83084000000241
 51
0.0
  0
LINE
  5
357F
  8
AM_0
 10
559.29528102430595
 20
1178.494561958611
 30
0.0
 11
544.12072102430568
 21
1177.964661958609
 31
0.0
  0
ARC
  5
3580
  8
AM_0
 10
544.29522102430565
 20
1172.967661958611
 30
0.0
 40
5.0
 50
91.999998000000787
 51
180.00001000000091
  0
POLYLINE
  5
3581
  8
AM_0
 66
     1
 10
0.0
 20
0.0
 30
0.0
  0
VERTEX
  5
3582
  8
AM_0
 10
672.79528102430595
 20
1184.54756195861
 30
0.0
  0
VERTEX
  5
3583
  8
AM_0
 10
662.96864102430595
 20
1155.6419619586111
 30
0.0
 42
-1.0
  0
SEQEND
  5
3584
  8
AM_0
  0
ARC
  5
3585
  8
AM_0
 10
674.79528102430595
 20
1170.10636195861
 30
0.0
 40
2.0
 50
179.9999899999988
 51
270.0
  0
LINE
  5
3586
  8
AM_0
 10
616.79528102430561
 20
1111.990161958611
 30
0.0
 11
647.63555102430587
 21
1111.990161958611
 31
0.0
  0
LINE
  5
3587
  8
AM_0
 10
670.42742102430589
 20
1148.29476195861
 30
0.0
 11
615.4904110243059
 21
1114.2782619586089
 31
0.0
  0
LINE
  5
3588
  8
AM_0
 10
670.42754102430615
 20
1160.260061958609
 30
0.0
 11
614.16308102430571
 21
1125.42166195861
 31
0.0
  0
ARC
  5
3589
  8
AM_0
 10
616.79528102430561
 20
1121.17066195861
 30
0.0
 40
5.0
 50
121.76535999999901
 51
180.00001000000091
  0
ARC
  5
358A
  8
AM_0
 10
616.79528102430561
 20
1116.990161958611
 30
0.0
 40
5.0
 50
179.9999899999988
 51
270.0
  0
LINE
  5
358B
  8
AM_0
 10
611.79528102430595
 20
1121.17066195861
 30
0.0
 11
611.79528102430595
 21
1116.990161958611
 31
0.0
  0
LINE
  5
358C
  8
AM_0
 10
672.79534102430591
 20
1129.45426195861
 30
0.0
 11
650.61749102430588
 21
1112.976761958608
 31
0.0
  0
ARC
  5
358D
  8
AM_0
 10
647.63555102430587
 20
1116.990161958611
 30
0.0
 40
5.0
 50
270.0
 51
306.61150000000521
  0
LINE
  5
358E
  8
AM_0
 10
672.79528102430595
 20
1105.818861958611
 30
0.0
 11
679.79528102430595
 21
1105.818861958611
 31
0.0
  0
ARC
  5
358F
  8
AM_0
 10
679.79528102430595
 20
1103.818861958611
 30
0.0
 40
2.0
 50
0.0
 51
90.00000299999769
  0
LINE
  5
3590
  8
AM_0
 10
674.79528102430595
 20
1168.10636195861
 30
0.0
 11
679.79528102430595
 21
1168.10636195861
 31
0.0
  0
ARC
  5
3591
  8
AM_0
 10
667.79528102430595
 20
1164.5111619586089
 30
0.0
 40
5.0
 50
301.7653699999957
 51
0.0
  0
ARC
  5
3592
  8
AM_0
 10
679.79528102430595
 20
1166.10636195861
 30
0.0
 40
2.0
 50
0.0
 51
90.00000299999769
  0
ARC
  5
3593
  8
AM_0
 10
731.79528102430572
 20
1019.547531958611
 30
0.0
 40
9.0
 50
90.00000299999769
 51
270.0
  0
LINE
  5
3594
  8
AM_0
 10
731.79528102430572
 20
1028.547531958611
 30
0.0
 11
731.79528102430572
 21
1010.547531958611
 31
0.0
  0
LINE
  5
3595
  8
AM_0
 10
702.79528102430561
 20
1052.047531958611
 30
0.0
 11
707.79528102430595
 21
1052.047531958611
 31
0.0
  0
LINE
  5
3596
  8
AM_0
 10
675.79528102430595
 20
1204.54756195861
 30
0.0
 11
697.79528102430595
 21
1204.54756195861
 31
0.0
  0
ARC
  5
3597
  8
AM_0
 10
667.79528102430595
 20
1187.28656195861
 30
0.0
 40
5.0
 50
271.99999999999682
 51
0.0
  0
ARC
  5
3598
  8
AM_0
 10
675.79528102430595
 20
1201.54756195861
 30
0.0
 40
3.0
 50
90.00000299999769
 51
180.00001000000091
  0
LINE
  5
3599
  8
AM_0
 10
697.79528102430595
 20
1174.54756195861
 30
0.0
 11
702.79528102430561
 21
1174.54756195861
 31
0.0
  0
LINE
  5
359A
  8
AM_0
 10
812.79528102430572
 20
1049.5475319586101
 30
0.0
 11
812.79528102430572
 21
989.54753195861144
 31
0.0
  0
LINE
  5
359B
  8
ﾁｭｳｼﾝｾﾝ
 10
820.38150460048212
 20
536.22258305537196
 30
0.0
 11
500.94323102430542
 21
536.22258305537196
 31
0.0
  0
LINE
  5
359C
  8
AM_0
 10
731.79523102430574
 20
570.22261305537199
 30
0.0
 11
812.79528102430572
 21
570.22261305537199
 31
0.0
  0
LINE
  5
359D
  8
AM_0
 10
707.79523102430574
 20
506.22258305537167
 30
0.0
 11
812.79528102430572
 21
506.22258305537167
 31
0.0
  0
LINE
  5
359E
  8
AM_0
 10
707.79523102430574
 20
566.22258305537196
 30
0.0
 11
812.79528102430572
 21
566.22258305537196
 31
0.0
  0
LINE
  5
359F
  8
AM_0
 10
432.29528102430572
 20
586.94354105537184
 30
0.0
 11
432.29528102430572
 21
575.46334005537199
 31
0.0
  0
LINE
  5
35A0
  8
AM_0
 10
460.29528102430572
 20
571.39344405537202
 30
0.0
 11
460.29528102430572
 21
586.94979305537186
 31
0.0
  0
LINE
  5
35A1
  8
AM_0
 10
459.29589102430572
 20
572.42834305537201
 30
0.0
 11
459.29589102430572
 21
587.98469205537197
 31
0.0
  0
LINE
  5
35A2
  8
AM_0
 10
404.2579960243059
 20
584.90295505537165
 30
0.0
 11
429.02828302430561
 21
573.85109405537185
 31
0.0
  0
LINE
  5
35A3
  8
AM_0
 10
401.29528102430561
 20
635.22258305537196
 30
0.0
 11
401.29528102430561
 21
488.22258305537201
 31
0.0
  0
LINE
  5
35A4
  8
AM_0
 10
381.29528102430572
 20
638.22258305537196
 30
0.0
 11
381.29528102430572
 21
338.22258305537167
 31
0.0
  0
LINE
  5
35A5
  8
AM_0
 10
539.29523102430574
 20
665.60325305537185
 30
0.0
 11
539.29523102430574
 21
316.85236805537193
 31
0.0
  0
LINE
  5
35A6
  8
AM_0
 10
519.29523102430574
 20
616.41630305537205
 30
0.0
 11
519.29523102430574
 21
356.12319805537192
 31
0.0
  0
LINE
  5
35A7
  8
AM_0
 10
475.29523102430568
 20
606.22260305537191
 30
0.0
 11
475.29523102430568
 21
370.22257805537191
 31
0.0
  0
LINE
  5
35A8
  8
AM_0
 10
462.29528102430572
 20
608.22260305537191
 30
0.0
 11
462.29528102430572
 21
368.22257805537191
 31
0.0
  0
LINE
  5
35A9
  8
AM_0
 10
697.79523102430574
 20
721.22265305537201
 30
0.0
 11
697.79523102430574
 21
351.22257805537191
 31
0.0
  0
LINE
  5
35AA
  8
AM_0
 10
681.79523102430574
 20
682.78150305537167
 30
0.0
 11
681.79523102430574
 21
389.66371305537189
 31
0.0
  0
LINE
  5
35AB
  8
AM_0
 10
672.79523102430574
 20
718.22260305537191
 30
0.0
 11
672.79523102430574
 21
478.28556805537193
 31
0.0
  0
LINE
  5
35AC
  8
AM_0
 10
702.79523102430574
 20
381.22257805537191
 30
0.0
 11
702.79523102430574
 21
691.22260305537191
 31
0.0
  0
LINE
  5
35AD
  8
AM_0
 10
559.29523102430574
 20
668.22260305537191
 30
0.0
 11
559.29523102430574
 21
314.22257805537191
 31
0.0
  0
LINE
  5
35AE
  8
AM_0
 10
649.28968102430588
 20
628.66520305537165
 30
0.0
 11
672.53278102430545
 21
478.67945805537198
 31
0.0
  0
LINE
  5
35AF
  8
AM_0
 10
477.29528102430572
 20
376.22257805537191
 30
0.0
 11
514.29523102430574
 21
376.22257805537191
 31
0.0
  0
LINE
  5
35B0
  8
AM_0
 10
475.29523102430568
 20
401.54771305537167
 30
0.0
 11
519.29523102430574
 21
401.54771305537167
 31
0.0
  0
LINE
  5
35B1
  8
ﾁｭｳｼﾝｾﾝ
 10
364.45839835159921
 20
488.22258305537201
 30
0.0
 11
514.81102855627955
 21
488.22258305537179
 31
0.0
  0
LINE
  5
35B2
  8
AM_0
 10
475.29523102430568
 20
574.89747805537195
 30
0.0
 11
519.29523102430574
 21
574.89747805537195
 31
0.0
  0
LINE
  5
35B3
  8
AM_0
 10
475.29523102430568
 20
559.15541305537192
 30
0.0
 11
519.29523102430574
 21
559.15541305537192
 31
0.0
  0
LINE
  5
35B4
  8
AM_0
 10
475.29523102430568
 20
417.28977805537193
 30
0.0
 11
519.29523102430574
 21
417.28977805537193
 31
0.0
  0
LINE
  5
35B5
  8
AM_0
 10
460.29528102430572
 20
405.05172305537212
 30
0.0
 11
460.29528102430572
 21
389.495374055372
 31
0.0
  0
LINE
  5
35B6
  8
AM_0
 10
459.29589102430572
 20
404.01682405537201
 30
0.0
 11
459.29589102430572
 21
388.460474055372
 31
0.0
  0
LINE
  5
35B7
  8
AM_0
 10
459.29589102430572
 20
404.01682405537201
 30
0.0
 11
430.89107102430569
 21
403.02490505537179
 31
0.0
  0
LINE
  5
35B8
  8
AM_0
 10
401.29528102430561
 20
341.22258305537167
 30
0.0
 11
401.29528102430561
 21
488.22258305537201
 31
0.0
  0
LINE
  5
35B9
  8
AM_0
 10
462.29528102430572
 20
370.22258299541971
 30
0.0
 11
406.16439702430603
 21
368.75274405537198
 31
0.0
  0
LINE
  5
35BA
  8
AM_0
 10
430.89107102430569
 20
387.46855605537201
 30
0.0
 11
459.29589102430572
 21
388.460474055372
 31
0.0
  0
ARC
  5
35BB
  8
AM_0
 10
398.29528102430572
 20
341.22258305537167
 30
0.0
 40
3.0
 50
270.0
 51
0.0
  0
LINE
  5
35BC
  8
AM_0
 10
381.29528102430572
 20
338.22258305537167
 30
0.0
 11
398.29528102430572
 21
338.22258305537167
 31
0.0
  0
ARC
  5
35BD
  8
AM_0
 10
406.29528102430572
 20
363.7544580553718
 30
0.0
 40
5.0
 50
91.500000000002629
 51
180.0
  0
ARC
  5
35BE
  8
AM_0
 10
406.29528102430572
 20
371.41974105537201
 30
0.0
 40
5.0
 50
114.0451930000003
 51
180.0
  0
ARC
  5
35BF
  8
AM_0
 10
406.29528102430572
 20
386.97609005537203
 30
0.0
 40
5.0
 50
114.0451930000003
 51
180.0
  0
LINE
  5
35C0
  8
AM_0
 10
404.2579960243059
 20
375.98586205537202
 30
0.0
 11
429.02828302430561
 21
387.037724055372
 31
0.0
  0
LINE
  5
35C1
  8
AM_0
 10
404.2579960243059
 20
391.54221205537198
 30
0.0
 11
429.02828302430561
 21
402.59407305537201
 31
0.0
  0
LINE
  5
35C2
  8
AM_0
 10
432.29528102430572
 20
389.50162505537202
 30
0.0
 11
432.29528102430572
 21
400.98182705537198
 31
0.0
  0
ARC
  5
35C3
  8
AM_0
 10
431.06556902430572
 20
398.027951055372
 30
0.0
 40
5.0
 50
92.000000000003666
 51
114.0451930000003
  0
ARC
  5
35C4
  8
AM_0
 10
431.06556902430572
 20
382.47160205537199
 30
0.0
 40
5.0
 50
92.000000000003666
 51
114.0451930000003
  0
LINE
  5
35C5
  8
AM_0
 10
462.29528102430572
 20
368.22257805537191
 30
0.0
 11
473.29523102430568
 21
368.22257805537191
 31
0.0
  0
LINE
  5
35C6
  8
AM_0
 10
462.29528102430572
 20
388.49537805537187
 30
0.0
 11
475.29523102430568
 21
388.49537805537187
 31
0.0
  0
LINE
  5
35C7
  8
AM_0
 10
459.29589102430572
 20
388.460474055372
 30
0.0
 11
460.29528102430572
 21
389.495374055372
 31
0.0
  0
ARC
  5
35C8
  8
AM_0
 10
477.29528102430572
 20
374.22257805537191
 30
0.0
 40
2.0000000500000001
 50
90.00000299999769
 51
180.00001000000091
  0
ARC
  5
35C9
  8
AM_0
 10
473.29523102430568
 20
370.22257805537191
 30
0.0
 40
2.0000000500000001
 50
270.0
 51
0.0
  0
LINE
  5
35CA
  8
AM_0
 10
458.5982890243057
 20
413.68882305537198
 30
0.0
 11
406.16439702430603
 21
412.31579305537213
 31
0.0
  0
ARC
  5
35CB
  8
AM_0
 10
406.29528102430572
 20
407.31750605537212
 30
0.0
 40
5.0
 50
91.500000000002629
 51
150.7208910000015
  0
LINE
  5
35CC
  8
AM_0
 10
462.29528102430572
 20
412.20588805537187
 30
0.0
 11
475.29523102430568
 21
412.20588805537187
 31
0.0
  0
LINE
  5
35CD
  8
AM_0
 10
462.29528102430572
 20
404.05171305537198
 30
0.0
 11
475.29523102430568
 21
404.05171305537198
 31
0.0
  0
LINE
  5
35CE
  8
AM_0
 10
459.29589102430572
 20
404.01682405537201
 30
0.0
 11
460.29528102430572
 21
405.05172305537212
 31
0.0
  0
LINE
  5
35CF
  8
AM_0
 10
460.29528102430572
 20
412.19907605537179
 30
0.0
 11
460.29528102430572
 21
405.05172305537212
 31
0.0
  0
LINE
  5
35D0
  8
AM_0
 10
458.5982890243057
 20
562.75634405537198
 30
0.0
 11
406.16439702430603
 21
564.12937405537195
 31
0.0
  0
LINE
  5
35D1
  8
AM_0
 10
459.29589102430572
 20
572.42834305537201
 30
0.0
 11
430.89107102430569
 21
573.42026105537218
 31
0.0
  0
ARC
  5
35D2
  8
AM_0
 10
406.29528102430572
 20
569.12766005537185
 30
0.0
 40
5.0
 50
209.2791089999983
 51
268.49999999999733
  0
ARC
  5
35D3
  8
AM_0
 10
431.06556902430572
 20
578.41721505537191
 30
0.0
 40
5.0
 50
245.95480699999951
 51
267.99999999999631
  0
LINE
  5
35D4
  8
AM_0
 10
462.29528102430572
 20
572.39341805537185
 30
0.0
 11
475.29523102430568
 21
572.39341805537185
 31
0.0
  0
LINE
  5
35D5
  8
AM_0
 10
462.29528102430572
 20
564.23927305537177
 30
0.0
 11
475.29523102430568
 21
564.23927305537177
 31
0.0
  0
LINE
  5
35D6
  8
AM_0
 10
459.29589102430572
 20
572.42834305537201
 30
0.0
 11
460.29528102430572
 21
571.39344405537202
 31
0.0
  0
LINE
  5
35D7
  8
AM_0
 10
460.29528102430572
 20
564.24609005537218
 30
0.0
 11
460.29528102430572
 21
571.39344405537202
 31
0.0
  0
ARC
  5
35D8
  8
AM_0
 10
626.17513102430564
 20
386.26554805537199
 30
0.0
 40
20.3124945
 50
90.00000299999769
 51
270.0
  0
LINE
  5
35D9
  8
AM_0
 10
627.79523102430574
 20
404.41932805537169
 30
0.0
 11
627.79523102430574
 21
368.29933305537179
 31
0.0
  0
LINE
  5
35DA
  8
AM_0
 10
672.79523102430574
 20
424.43931805537198
 30
0.0
 11
672.79523102430574
 21
354.22257805537191
 31
0.0
  0
LINE
  5
35DB
  8
AM_0
 10
622.82783102430574
 20
312.55892805537172
 30
0.0
 11
689.79523102430574
 21
351.22257805537191
 31
0.0
  0
LINE
  5
35DC
  8
AM_0
 10
626.17513102430564
 20
365.95304805537199
 30
0.0
 11
672.79523102430574
 21
365.95304805537199
 31
0.0
  0
ARC
  5
35DD
  8
AM_0
 10
541.29528102430572
 20
316.85236805537193
 30
0.0
 40
2.0000000500000001
 50
179.9999899999988
 51
268.00000999999861
  0
LINE
  5
35DE
  8
AM_0
 10
559.29528102430572
 20
314.22260805537172
 30
0.0
 11
622.82783102430574
 21
312.55894305537191
 31
0.0
  0
LINE
  5
35DF
  8
AM_0
 10
541.22548102430562
 20
314.85357305537173
 30
0.0
 11
559.29528102430572
 21
314.22257805537191
 31
0.0
  0
LINE
  5
35E0
  8
AM_0
 10
538.16938102430561
 20
336.24732805537172
 30
0.0
 11
523.5938310243057
 21
347.90778805537178
 31
0.0
  0
ARC
  5
35E1
  8
AM_0
 10
529.29523102430574
 20
356.12319805537192
 30
0.0
 40
10.0
 50
179.9999899999988
 51
235.23949999999829
  0
ARC
  5
35E2
  8
AM_0
 10
536.29528102430572
 20
333.90472305537168
 30
0.0
 40
3.0000000500000001
 50
0.0
 51
51.340192999999537
  0
ARC
  5
35E3
  8
AM_0
 10
514.29523102430574
 20
371.22257805537191
 30
0.0
 40
5.0
 50
0.0
 51
90.00000299999769
  0
LINE
  5
35E4
  8
AM_0
 10
589.71443102430555
 20
377.123548055372
 30
0.0
 11
608.03613102430575
 21
377.123548055372
 31
0.0
  0
LINE
  5
35E5
  8
AM_0
 10
589.71443102430555
 20
394.244248055372
 30
0.0
 11
607.49523102430601
 21
394.244248055372
 31
0.0
  0
ARC
  5
35E6
  8
AM_0
 10
589.71443102430555
 20
385.68391305537199
 30
0.0
 40
8.5603475000000007
 50
90.00000299999769
 51
270.0
  0
LINE
  5
35E7
  8
AM_0
 10
592.79523102430574
 20
392.65934805537188
 30
0.0
 11
592.79523102430574
 21
379.00932305537179
 31
0.0
  0
LINE
  5
35E8
  8
AM_0
 10
697.79523102430574
 20
381.22257805537191
 30
0.0
 11
702.79523102430574
 21
381.22257805537191
 31
0.0
  0
LINE
  5
35E9
  8
AM_0
 10
697.79523102430574
 20
351.22257805537191
 30
0.0
 11
675.79523102430574
 21
351.22257805537191
 31
0.0
  0
ARC
  5
35EA
  8
AM_0
 10
675.79523102430574
 20
354.22257805537191
 30
0.0
 40
3.0000000500000001
 50
179.9999899999988
 51
270.0
  0
LINE
  5
35EB
  8
AM_0
 10
674.79528102430561
 20
387.66371305537189
 30
0.0
 11
679.79528102430561
 21
387.66371305537189
 31
0.0
  0
ARC
  5
35EC
  8
AM_0
 10
674.79528102430561
 20
385.66371305537189
 30
0.0
 40
2.0000000500000001
 50
90.00000299999769
 51
180.00001000000091
  0
ARC
  5
35ED
  8
AM_0
 10
679.79528102430561
 20
389.66371305537189
 30
0.0
 40
2.0000000500000001
 50
270.0
 51
0.0
  0
LINE
  5
35EE
  8
AM_0
 10
626.17513102430564
 20
406.57807805537192
 30
0.0
 11
672.79523102430574
 21
406.57807805537192
 31
0.0
  0
LINE
  5
35EF
  8
AM_0
 10
674.79528102430561
 20
425.62867805537189
 30
0.0
 11
679.79528102430561
 21
425.62867805537189
 31
0.0
  0
ARC
  5
35F0
  8
AM_0
 10
679.79528102430561
 20
427.62867805537189
 30
0.0
 40
2.0000000500000001
 50
270.0
 51
0.0
  0
LINE
  5
35F1
  8
AM_0
 10
674.50918102430569
 20
476.98576305537188
 30
0.0
 11
679.79528102430561
 21
476.98576305537188
 31
0.0
  0
ARC
  5
35F2
  8
AM_0
 10
673.79528102430561
 20
478.28556805537193
 30
0.0
 40
1.0
 50
179.9999899999988
 51
224.44399999999951
  0
ARC
  5
35F3
  8
AM_0
 10
674.50918102430569
 20
478.98576305537188
 30
0.0
 40
2.0000000500000001
 50
188.80899999999801
 51
270.0
  0
ARC
  5
35F4
  8
AM_0
 10
679.79528102430561
 20
474.9857930553718
 30
0.0
 40
2.0000000500000001
 50
0.0
 51
90.00000299999769
  0
LINE
  5
35F5
  8
AM_0
 10
707.79523102430574
 20
568.72258305537196
 30
0.0
 11
707.79523102430574
 21
503.72258305537167
 31
0.0
  0
LINE
  5
35F6
  8
AM_0
 10
702.79523102430574
 20
503.72258305537167
 30
0.0
 11
707.79523102430574
 21
503.72258305537167
 31
0.0
  0
LINE
  5
35F7
  8
AM_0
 10
702.79523102430574
 20
568.72258305537196
 30
0.0
 11
707.79523102430574
 21
568.72258305537196
 31
0.0
  0
LINE
  5
35F8
  8
AM_0
 10
731.79523102430574
 20
570.22261305537199
 30
0.0
 11
731.79523102430574
 21
566.22258305537196
 31
0.0
  0
LINE
  5
35F9
  8
AM_0
 10
477.29528102430572
 20
600.22261305537199
 30
0.0
 11
514.29523102430574
 21
600.22261305537199
 31
0.0
  0
LINE
  5
35FA
  8
AM_0
 10
462.29528102430572
 20
606.22258311532426
 30
0.0
 11
406.16439702430603
 21
607.69242205537205
 31
0.0
  0
LINE
  5
35FB
  8
AM_0
 10
430.89107102430569
 20
588.97661005537179
 30
0.0
 11
459.29589102430572
 21
587.98469205537197
 31
0.0
  0
ARC
  5
35FC
  8
AM_0
 10
406.29528102430572
 20
589.46907705537205
 30
0.0
 40
5.0
 50
180.0
 51
245.95480699999951
  0
ARC
  5
35FD
  8
AM_0
 10
406.29528102430572
 20
605.02542605537167
 30
0.0
 40
5.0
 50
180.0
 51
245.95480699999951
  0
ARC
  5
35FE
  8
AM_0
 10
406.29528102430572
 20
612.69070905537205
 30
0.0
 40
5.0
 50
180.0
 51
268.49999999999733
  0
LINE
  5
35FF
  8
AM_0
 10
404.2579960243059
 20
600.45930405537217
 30
0.0
 11
429.02828302430561
 21
589.40744305537203
 31
0.0
  0
ARC
  5
3600
  8
AM_0
 10
431.06556902430572
 20
593.97356405537187
 30
0.0
 40
5.0
 50
245.95480699999951
 51
267.99999999999631
  0
ARC
  5
3601
  8
AM_0
 10
398.29528102430572
 20
635.22258305537196
 30
0.0
 40
3.0
 50
0.0
 51
90.0
  0
LINE
  5
3602
  8
AM_0
 10
381.29528102430572
 20
638.22258305537196
 30
0.0
 11
398.29528102430572
 21
638.22258305537196
 31
0.0
  0
LINE
  5
3603
  8
AM_0
 10
462.29528102430572
 20
587.94981805537191
 30
0.0
 11
475.29523102430568
 21
587.94981805537191
 31
0.0
  0
LINE
  5
3604
  8
AM_0
 10
462.29528102430572
 20
608.22260305537191
 30
0.0
 11
473.29523102430568
 21
608.22260305537191
 31
0.0
  0
LINE
  5
3605
  8
AM_0
 10
459.29589102430572
 20
587.98469205537197
 30
0.0
 11
460.29528102430572
 21
586.94979305537186
 31
0.0
  0
ARC
  5
3606
  8
AM_0
 10
477.29528102430572
 20
602.22260305537191
 30
0.0
 40
2.0000000500000001
 50
179.9999899999988
 51
270.0
  0
ARC
  5
3607
  8
AM_0
 10
473.29523102430568
 20
606.22260305537191
 30
0.0
 40
2.0000000500000001
 50
0.0
 51
90.00000299999769
  0
LINE
  5
3608
  8
AM_0
 10
559.29528102430572
 20
668.22260305537191
 30
0.0
 11
637.97168102430555
 21
670.28280305537203
 31
0.0
  0
LINE
  5
3609
  8
AM_0
 10
616.79523102430574
 20
628.66520305537165
 30
0.0
 11
647.63558102430557
 21
628.66520305537165
 31
0.0
  0
LINE
  5
360A
  8
AM_0
 10
670.42748102430585
 20
676.93510305537188
 30
0.0
 11
614.16308102430548
 21
642.09680305537177
 31
0.0
  0
LINE
  5
360B
  8
AM_0
 10
670.42748102430585
 20
664.96965305537185
 30
0.0
 11
615.49043102430585
 21
630.95315305537179
 31
0.0
  0
LINE
  5
360C
  8
AM_0
 10
526.29528102430561
 20
666.22260305537191
 30
0.0
 11
526.29528102430561
 21
629.22570305537204
 31
0.0
  0
ARC
  5
360D
  8
AM_0
 10
529.29523102430574
 20
616.41630305537205
 30
0.0
 40
10.0
 50
128.65980999999641
 51
180.00001000000091
  0
ARC
  5
360E
  8
AM_0
 10
514.29523102430574
 20
605.22260305537156
 30
0.0
 40
5.0
 50
270.0
 51
0.0
  0
LINE
  5
360F
  8
AM_0
 10
538.16938102430561
 20
636.32190305537199
 30
0.0
 11
523.04828102430565
 21
624.22500305537176
 31
0.0
  0
ARC
  5
3610
  8
AM_0
 10
521.29528102430572
 20
629.22570305537204
 30
0.0
 40
5.0
 50
308.65987999999749
 51
0.0
  0
ARC
  5
3611
  8
AM_0
 10
536.29528102430572
 20
638.66440305537185
 30
0.0
 40
3.0000000500000001
 50
308.65980999999641
 51
0.0
  0
ARC
  5
3612
  8
AM_0
 10
616.79523102430574
 20
637.84575305537203
 30
0.0
 40
5.0
 50
121.7653600000025
 51
180.00001000000091
  0
LINE
  5
3613
  8
AM_0
 10
611.79523102430574
 20
637.84575305537203
 30
0.0
 11
611.79523102430574
 21
633.66520305537199
 31
0.0
  0
ARC
  5
3614
  8
AM_0
 10
616.79523102430574
 20
633.66520305537199
 30
0.0
 40
5.0
 50
179.9999899999988
 51
270.0
  0
ARC
  5
3615
  8
AM_0
 10
541.29528102430572
 20
694.22260305537191
 30
0.0
 40
25.000000499999999
 50
306.46672000000012
 51
233.5332899999996
  0
CIRCLE
  5
3616
  8
AM_0
 10
541.29528102430572
 20
694.22260305537191
 30
0.0
 40
15.0
  0
LINE
  5
3617
  8
AM_0
 10
528.29523102430574
 20
668.22260305537191
 30
0.0
 11
558.99523102430555
 21
668.22260305537191
 31
0.0
  0
LINE
  5
3618
  8
AM_0
 10
531.50123102430541
 20
677.22260305537191
 30
0.0
 11
551.08933102430569
 21
677.22260305537191
 31
0.0
  0
LINE
  5
3619
  8
AM_0
 10
531.81713102430592
 20
677.3435530553719
 30
0.0
 11
541.29528102430572
 21
679.22260305537179
 31
0.0
  0
LINE
  5
361A
  8
AM_0
 10
528.79528102430572
 20
668.22265305537201
 30
0.0
 11
531.04573102430527
 21
676.62150305537216
 31
0.0
  0
ARC
  5
361B
  8
AM_0
 10
528.29523102430574
 20
666.22260305537191
 30
0.0
 40
2.0000000500000001
 50
90.00000299999769
 51
180.00001000000091
  0
ARC
  5
361C
  8
AM_0
 10
532.01168102430563
 20
676.36270305537198
 30
0.0
 40
1.0
 50
101.21328999999869
 51
164.99998999999869
  0
ARC
  5
361D
  8
AM_0
 10
522.87023102430578
 20
669.2923030553718
 30
0.0
 40
6.0
 50
349.72994999999878
 51
53.533291000000993
  0
LINE
  5
361E
  8
AM_0
 10
541.22543102430575
 20
667.60205305537204
 30
0.0
 11
558.99533102430576
 21
668.22260305537191
 31
0.0
  0
ARC
  5
361F
  8
AM_0
 10
550.57883102430594
 20
676.36270305537198
 30
0.0
 40
1.0
 50
15.000000000000741
 51
78.786710000001207
  0
LINE
  5
3620
  8
AM_0
 10
541.29528102430572
 20
679.22260305537179
 30
0.0
 11
550.77338102430565
 21
677.3435530553719
 31
0.0
  0
ARC
  5
3621
  8
AM_0
 10
541.29528102430572
 20
665.60325305537185
 30
0.0
 40
2.0000000500000001
 50
91.999998000000545
 51
180.00001000000091
  0
LINE
  5
3622
  8
AM_0
 10
558.99523102430555
 20
668.22260305537191
 30
0.0
 11
559.29523102430574
 21
668.22260305537191
 31
0.0
  0
LINE
  5
3623
  8
AM_0
 10
553.79523102430574
 20
668.22250305537182
 30
0.0
 11
551.54473102430563
 21
676.62145305537194
 31
0.0
  0
ARC
  5
3624
  8
AM_0
 10
559.72028102430545
 20
669.2923030553718
 30
0.0
 40
6.0
 50
126.46669999999671
 51
190.27005999999909
  0
LINE
  5
3625
  8
AM_0
 10
642.7080810243059
 20
671.13550305537206
 30
0.0
 11
644.31493102430602
 21
660.766603055372
 31
0.0
  0
LINE
  5
3626
  8
AM_0
 10
672.7952810243055
 20
646.12940305537188
 30
0.0
 11
650.61743102430557
 21
629.65170305537197
 31
0.0
  0
ARC
  5
3627
  8
AM_0
 10
647.63558102430557
 20
633.66520305537199
 30
0.0
 40
5.0
 50
270.0
 51
306.61150000000112
  0
LINE
  5
3628
  8
AM_0
 10
672.79523102430574
 20
622.49395305537189
 30
0.0
 11
679.79528102430561
 21
622.49395305537189
 31
0.0
  0
ARC
  5
3629
  8
AM_0
 10
679.79528102430561
 20
620.49395305537155
 30
0.0
 40
2.0000000500000001
 50
0.0
 51
90.00000299999769
  0
LINE
  5
362A
  8
AM_0
 10
697.79523102430574
 20
691.22260305537191
 30
0.0
 11
702.79523102430574
 21
691.22260305537191
 31
0.0
  0
LINE
  5
362B
  8
AM_0
 10
644.78103102430555
 20
673.20830305537174
 30
0.0
 11
671.33083102430589
 21
699.75810305537175
 31
0.0
  0
ARC
  5
362C
  8
AM_0
 10
637.70993102430555
 20
680.27935305537164
 30
0.0
 40
10.0
 50
271.50000000000261
 51
315.0
  0
ARC
  5
362D
  8
AM_0
 10
679.79528102430561
 20
682.78150305537167
 30
0.0
 40
2.0000000500000001
 50
0.0
 51
90.00000299999769
  0
ARC
  5
362E
  8
AM_0
 10
674.79528102430561
 20
686.78150305537179
 30
0.0
 40
2.0000000500000001
 50
179.9999899999988
 51
270.0
  0
LINE
  5
362F
  8
AM_0
 10
674.79528102430561
 20
684.7815030553719
 30
0.0
 11
679.79528102430561
 21
684.7815030553719
 31
0.0
  0
ARC
  5
3630
  8
AM_0
 10
667.79523102430574
 20
681.18620305537195
 30
0.0
 40
5.0
 50
301.7653699999957
 51
0.0
  0
ARC
  5
3631
  8
AM_0
 10
667.79523102430574
 20
703.29365305537181
 30
0.0
 40
5.0
 50
315.0
 51
0.0
  0
LINE
  5
3632
  8
AM_0
 10
675.79523102430574
 20
721.22265305537201
 30
0.0
 11
697.79523102430574
 21
721.22265305537201
 31
0.0
  0
ARC
  5
3633
  8
AM_0
 10
675.79523102430574
 20
718.22260305537191
 30
0.0
 40
3.0000000500000001
 50
90.00000299999769
 51
180.00001000000091
  0
LINE
  5
3634
  8
AM_0
 10
990.39959636074423
 20
376.22257805537191
 30
0.0
 11
990.39959636074423
 21
696.22260305537145
 31
0.0
  0
LINE
  5
3635
  8
AM_0
 10
1360.399576360744
 20
696.22260305537145
 30
0.0
 11
1360.399576360744
 21
376.22257805537191
 31
0.0
  0
LINE
  5
3636
  8
ﾁｭｳｼﾝｾﾝ
 10
1175.399596360744
 20
730.48846584050921
 30
0.0
 11
1175.399596360744
 21
307.31385805537172
 31
0.0
  0
ARC
  5
3637
  8
AM_0
 10
1175.399596360744
 20
536.22258305537196
 30
0.0
 40
82.0
 50
144.59407000000161
 51
180.00001000000091
  0
ARC
  5
3638
  8
AM_0
 10
1152.604551360743
 20
543.72380305537206
 30
0.0
 40
112.0
 50
133.04830999999911
 51
169.9999899999988
  0
ARC
  5
3639
  8
AM_0
 10
1198.1946113607439
 20
543.72380305537206
 30
0.0
 40
112.0
 50
9.9999997000015846
 51
46.951682999999022
  0
ARC
  5
363A
  8
AM_0
 10
1175.399596360744
 20
536.22258305537196
 30
0.0
 40
82.0
 50
0.0
 51
35.405932000002579
  0
ARC
  5
363B
  8
AM_0
 10
1175.399596360744
 20
536.22258305537196
 30
0.0
 40
146.0
 50
270.0
 51
90.00000299999769
  0
ARC
  5
363C
  8
AM_0
 10
1175.399596360744
 20
536.22258305537196
 30
0.0
 40
146.0
 50
90.00000299999769
 51
270.0
  0
ARC
  5
363D
  8
AM_0
 10
1175.399596360744
 20
536.22258305537196
 30
0.0
 40
65.0
 50
90.00000299999769
 51
270.0
  0
ARC
  5
363E
  8
AM_0
 10
1175.399596360744
 20
536.22258305537196
 30
0.0
 40
155.0
 50
270.0
 51
90.00000299999769
  0
ARC
  5
363F
  8
AM_0
 10
1175.399596360744
 20
536.22258305537196
 30
0.0
 40
65.0
 50
270.0
 51
90.00000299999769
  0
ARC
  5
3640
  8
AM_0
 10
1175.399596360744
 20
536.22258305537196
 30
0.0
 40
155.0
 50
90.00000299999769
 51
270.0
  0
LINE
  5
3641
  8
AM_0
 10
1335.399586360744
 20
351.22257805537191
 30
0.0
 11
1015.399596360744
 21
351.22257805537191
 31
0.0
  0
LINE
  5
3642
  8
ﾁｭｳｼﾝｾﾝ
 10
977.66348136074419
 20
536.22258305537196
 30
0.0
 11
1374.8316013607439
 21
536.22258305537196
 31
0.0
  0
LINE
  5
3643
  8
AM_0
 10
1246.130966360744
 20
314.78330805537172
 30
0.0
 11
1281.7556913607441
 21
340.41784805537168
 31
0.0
  0
ARC
  5
3644
  8
AM_0
 10
1267.3995663607441
 20
526.22258305537196
 30
0.0
 40
10.0
 50
179.9999899999988
 51
270.0
  0
ARC
  5
3645
  8
AM_0
 10
1015.399596360744
 20
376.22257805537191
 30
0.0
 40
25.000000499999999
 50
179.9999899999988
 51
270.0
  0
LINE
  5
3646
  8
AM_0
 10
812.79528102430572
 20
570.22261305537199
 30
0.0
 11
812.79528102430572
 21
506.22258305537167
 31
0.0
  0
LINE
  5
3647
  8
AM_0
 10
1112.899596360744
 20
312.12959305537191
 30
0.0
 11
1237.8995813607439
 21
312.12959305537191
 31
0.0
  0
LINE
  5
3648
  8
AM_0
 10
1104.668181360744
 20
314.78329305537198
 30
0.0
 11
1069.0434863607441
 21
340.41781305537199
 31
0.0
  0
ARC
  5
3649
  8
AM_0
 10
1112.899596360744
 20
326.22257805537191
 30
0.0
 40
14.092999499999999
 50
234.26227999999759
 51
270.0
  0
ARC
  5
364A
  8
AM_0
 10
1175.399596360744
 20
488.22258305537201
 30
0.0
 40
182.0929899999999
 50
228.7954700000013
 51
234.26227999999759
  0
LINE
  5
364B
  8
ﾁｭｳｼﾝｾﾝ1
 10
1001.0977463607441
 20
361.920758055372
 30
0.0
 11
1031.503356360744
 21
392.32636805537197
 31
0.0
  0
ARC
  5
364C
  8
ﾁｭｳｼﾝｾﾝ1
 10
1175.399596360744
 20
536.22258305537196
 30
0.0
 40
225.00000499999999
 50
219.5229799999978
 51
230.47702000000189
  0
CIRCLE
  5
364D
  8
AM_0
 10
1016.300536360744
 20
377.123548055372
 30
0.0
 40
12.0
  0
ARC
  5
364E
  8
AM_0
 10
1237.8995813607439
 20
326.22257805537191
 30
0.0
 40
14.092999499999999
 50
270.0
 51
305.73772000000218
  0
LINE
  5
364F
  8
ﾁｭｳｼﾝｾﾝ
 10
1280.9516560752029
 20
488.22258305537201
 30
0.0
 11
1069.8475366462851
 21
488.22258305537179
 31
0.0
  0
LINE
  5
3650
  8
AM_0
 10
1035.1997363607441
 20
516.22258305537196
 30
0.0
 11
1083.3995663607441
 21
516.22258305537196
 31
0.0
  0
LINE
  5
3651
  8
AM_0
 10
1034.051146360744
 20
516.35630805537198
 30
0.0
 11
1042.3060913607439
 21
563.1724430553719
 31
0.0
  0
ARC
  5
3652
  8
AM_0
 10
1035.1997363607441
 20
521.22258305537196
 30
0.0
 40
5.0
 50
186.10684999999799
 51
270.0
  0
LINE
  5
3653
  8
AM_0
 10
1093.3995663607441
 20
536.22258305537196
 30
0.0
 11
1093.3995663607441
 21
526.22258305537196
 31
0.0
  0
ARC
  5
3654
  8
AM_0
 10
1083.3995663607441
 20
526.22258305537196
 30
0.0
 40
10.0
 50
270.0
 51
0.0
  0
ARC
  5
3655
  8
AM_0
 10
1175.399596360744
 20
536.22258305537196
 30
0.0
 40
30.000000499999999
 50
107.45760000000089
 51
72.542383999997952
  0
CIRCLE
  5
3656
  8
AM_0
 10
1175.399596360744
 20
536.22258305537196
 30
0.0
 40
4.500000049999997
  0
CIRCLE
  5
3657
  8
AM_5
 10
1175.399596360744
 20
536.22258305537196
 30
0.0
 40
6.0
  0
LINE
  5
3658
  8
AM_0
 10
1166.3995663607441
 20
570.22261305537199
 30
0.0
 11
1184.399596360744
 21
570.22261305537199
 31
0.0
  0
LINE
  5
3659
  8
AM_0
 10
1166.3995663607441
 20
559.22258305537196
 30
0.0
 11
1184.399596360744
 21
559.22258305537196
 31
0.0
  0
LINE
  5
365A
  8
AM_0
 10
1166.3995663607441
 20
570.22261305537199
 30
0.0
 11
1166.3995663607441
 21
559.22258305537196
 31
0.0
  0
LINE
  5
365B
  8
AM_0
 10
1184.399596360744
 20
570.22261305537199
 30
0.0
 11
1184.399596360744
 21
559.22258305537196
 31
0.0
  0
LINE
  5
365C
  8
AM_0
 10
1257.3995663607441
 20
536.22258305537196
 30
0.0
 11
1257.3995663607441
 21
526.22258305537196
 31
0.0
  0
CIRCLE
  5
365D
  8
AM_0
 10
1334.498611360744
 20
377.123548055372
 30
0.0
 40
12.0
  0
ARC
  5
365E
  8
AM_0
 10
1175.399596360744
 20
488.22258305537201
 30
0.0
 40
182.0929899999999
 50
305.73772000000218
 51
311.20452999999861
  0
ARC
  5
365F
  8
AM_0
 10
1335.399586360744
 20
376.22257805537191
 30
0.0
 40
25.000000499999999
 50
270.0
 51
0.0
  0
LINE
  5
3660
  8
AM_0
 10
1316.748016360744
 20
516.35630805537198
 30
0.0
 11
1308.493076360744
 21
563.17238305537205
 31
0.0
  0
LINE
  5
3661
  8
AM_0
 10
1315.5994413607441
 20
516.22258305537196
 30
0.0
 11
1267.3995663607441
 21
516.22258305537196
 31
0.0
  0
ARC
  5
3662
  8
AM_0
 10
1315.5994413607441
 20
521.22258305537196
 30
0.0
 40
5.0
 50
270.0
 51
353.89315000000181
  0
LINE
  5
3663
  8
AM_0
 10
1015.399596360744
 20
721.22265305537201
 30
0.0
 11
1335.399586360744
 21
721.22265305537201
 31
0.0
  0
LINE
  5
3664
  8
AM_0
 10
1243.098816360744
 20
594.02232805537199
 30
0.0
 11
1277.351901360744
 21
628.27540305537207
 31
0.0
  0
LINE
  5
3665
  8
AM_0
 10
1233.1993113607441
 20
603.92185305537203
 30
0.0
 11
1267.4523913607441
 21
638.17490305537206
 31
0.0
  0
ARC
  5
3666
  8
AM_0
 10
1015.399596360744
 20
696.22260305537145
 30
0.0
 40
25.000000499999999
 50
90.00000299999769
 51
180.00001000000091
  0
ARC
  5
3667
  8
AM_0
 10
1175.399596360744
 20
536.22258305537196
 30
0.0
 40
82.0
 50
54.5940669999991
 51
125.40592999999841
  0
ARC
  5
3668
  8
AM_0
 10
1067.7904013607431
 20
622.61860305537175
 30
0.0
 40
8.0
 50
45.000001000003799
 51
141.24012999999991
  0
LINE
  5
3669
  8
AM_0
 10
1107.700316360743
 20
594.02235805537191
 30
0.0
 11
1073.4472613607441
 21
628.27545305537205
 31
0.0
  0
LINE
  5
366A
  8
AM_0
 10
1117.5997913607439
 20
603.92185305537203
 30
0.0
 11
1083.3467413607441
 21
638.17490305537206
 31
0.0
  0
ARC
  5
366B
  8
AM_0
 10
1102.0434863607441
 20
588.36549805537186
 30
0.0
 40
8.0
 50
324.59407000000141
 51
45.000001000003799
  0
ARC
  5
366C
  8
AM_0
 10
1123.2566813607441
 20
609.57870305537188
 30
0.0
 40
8.0
 50
225.0
 51
305.40592999999831
  0
ARC
  5
366D
  8
AM_0
 10
1175.399596360744
 20
488.22258305537241
 30
0.0
 40
172.0000049999999
 50
58.770287999991858
 51
121.2297100000072
  0
ARC
  5
366E
  8
AM_0
 10
1089.0036013607439
 20
643.83175305537168
 30
0.0
 40
8.0
 50
128.75986999999981
 51
225.0
  0
CIRCLE
  5
366F
  8
AM_0
 10
1016.300536360744
 20
695.32165305537217
 30
0.0
 40
12.0
  0
ARC
  5
3670
  8
AM_0
 10
1227.5424663607439
 20
609.57870305537188
 30
0.0
 40
8.0
 50
234.59407000000161
 51
315.0
  0
ARC
  5
3671
  8
AM_0
 10
1248.755676360744
 20
588.36549805537186
 30
0.0
 40
8.0
 50
135.0
 51
215.40592999999831
  0
ARC
  5
3672
  8
AM_0
 10
1261.7955463607441
 20
643.83175305537168
 30
0.0
 40
8.0
 50
315.0
 51
51.240129999999972
  0
ARC
  5
3673
  8
AM_0
 10
1283.0087613607441
 20
622.61860305537175
 30
0.0
 40
8.0
 50
38.759868999999149
 51
135.0
  0
LINE
  5
3674
  8
ﾁｭｳｼﾝｾﾝ1
 10
1349.7014013607441
 20
710.52440305537175
 30
0.0
 11
1317.0651575698651
 21
677.88818639584781
 31
0.0
  0
ARC
  5
3675
  8
ﾁｭｳｼﾝｾﾝ1
 10
1175.399596360744
 20
536.22258305537196
 30
0.0
 40
225.00000499999999
 50
38.696152999996329
 51
50.477014000001581
  0
CIRCLE
  5
3676
  8
AM_0
 10
1334.498611360744
 20
695.32165305537217
 30
0.0
 40
12.0
  0
ARC
  5
3677
  8
AM_0
 10
1335.399586360744
 20
696.22260305537145
 30
0.0
 40
25.000000499999999
 50
0.0
 51
90.00000299999769
  0
ARC
  5
3678
  8
AM_0
 10
406.29528102430572
 20
1136.350389958611
 30
0.0
 40
5.0
 50
180.0
 51
245.95480699999951
  0
LINE
  5
3679
  8
AM_0
 10
381.29528102430572
 20
1169.5475469586111
 30
0.0
 11
381.29528102430572
 21
869.54754695861141
 31
0.0
  0
LINE
  5
367A
  8
AM_0
 10
401.29528102430561
 20
1166.5475469586111
 30
0.0
 11
401.29528102430561
 21
1019.547546958611
 31
0.0
  0
LINE
  5
367B
  8
AM_0
 10
401.29528102430561
 20
872.54754695861129
 30
0.0
 11
401.29528102430561
 21
1019.547546958611
 31
0.0
  0
LINE
  5
367C
  8
AM_0
 10
458.5982890243057
 20
945.01378695861195
 30
0.0
 11
406.1643970243062
 21
943.64075695861186
 31
0.0
  0
LINE
  5
367D
  8
AM_0
 10
430.8910710243058
 20
918.79351995861145
 30
0.0
 11
459.29589102430572
 21
919.78543795861185
 31
0.0
  0
LINE
  5
367E
  8
AM_0
 10
462.29528102430572
 20
901.54754689865922
 30
0.0
 11
406.1643970243062
 21
900.07770795861143
 31
0.0
  0
LINE
  5
367F
  8
AM_0
 10
459.29589102430572
 20
935.3417879586118
 30
0.0
 11
430.8910710243058
 21
934.34986895861141
 31
0.0
  0
LINE
  5
3680
  8
AM_0
 10
381.29528102430572
 20
869.54754695861141
 30
0.0
 11
398.29528102430572
 21
869.54754695861141
 31
0.0
  0
ARC
  5
3681
  8
AM_0
 10
406.29528102430572
 20
895.07942195861142
 30
0.0
 40
5.0
 50
91.500000000002629
 51
180.0
  0
ARC
  5
3682
  8
AM_0
 10
398.29528102430572
 20
872.54754695861129
 30
0.0
 40
3.0
 50
270.0
 51
0.0
  0
LINE
  5
3683
  8
AM_0
 10
404.25799602430601
 20
922.86717595861182
 30
0.0
 11
429.02828302430561
 21
933.91903695861185
 31
0.0
  0
LINE
  5
3684
  8
AM_0
 10
404.25799602430601
 20
907.31082595861187
 30
0.0
 11
429.02828302430561
 21
918.36268795861145
 31
0.0
  0
ARC
  5
3685
  8
AM_0
 10
406.29528102430572
 20
918.30105395861187
 30
0.0
 40
5.0
 50
114.0451930000003
 51
180.0
  0
ARC
  5
3686
  8
AM_0
 10
406.29528102430572
 20
902.74470495861181
 30
0.0
 40
5.0
 50
114.0451930000003
 51
180.0
  0
ARC
  5
3687
  8
AM_0
 10
406.29528102430572
 20
938.64246995861185
 30
0.0
 40
5.0
 50
91.500000000002629
 51
150.7208910000015
  0
LINE
  5
3688
  8
AM_0
 10
432.29528102430572
 20
920.82658895861186
 30
0.0
 11
432.29528102430572
 21
932.30679095861205
 31
0.0
  0
ARC
  5
3689
  8
AM_0
 10
431.065569024306
 20
913.79656595861195
 30
0.0
 40
5.0
 50
92.000000000003666
 51
114.0451930000003
  0
ARC
  5
368A
  8
AM_0
 10
431.065569024306
 20
929.35291495861145
 30
0.0
 40
5.0
 50
92.000000000003666
 51
114.0451930000003
  0
LINE
  5
368B
  8
AM_0
 10
430.8910710243058
 20
1120.301573958611
 30
0.0
 11
459.29589102430572
 21
1119.3096559586111
 31
0.0
  0
LINE
  5
368C
  8
AM_0
 10
459.29589102430572
 20
1103.75330695861
 30
0.0
 11
430.8910710243058
 21
1104.7452249586111
 31
0.0
  0
LINE
  5
368D
  8
AM_0
 10
458.5982890243057
 20
1094.0813079586119
 30
0.0
 11
406.1643970243062
 21
1095.45433795861
 31
0.0
  0
LINE
  5
368E
  8
AM_0
 10
404.25799602430601
 20
1131.7842679586111
 30
0.0
 11
429.02828302430561
 21
1120.73240695861
 31
0.0
  0
LINE
  5
368F
  8
AM_0
 10
404.25799602430601
 20
1116.2279189586111
 30
0.0
 11
429.02828302430561
 21
1105.176057958611
 31
0.0
  0
ARC
  5
3690
  8
AM_0
 10
406.29528102430572
 20
1100.45262395861
 30
0.0
 40
5.0
 50
209.2791089999985
 51
268.49999999999733
  0
ARC
  5
3691
  8
AM_0
 10
406.29528102430572
 20
1120.794040958611
 30
0.0
 40
5.0
 50
180.0
 51
245.95480699999951
  0
LINE
  5
3692
  8
AM_0
 10
432.29528102430572
 20
1118.26850495861
 30
0.0
 11
432.29528102430572
 21
1106.7883039586111
 31
0.0
  0
ARC
  5
3693
  8
AM_0
 10
431.065569024306
 20
1109.742178958611
 30
0.0
 40
5.0
 50
245.95480699999951
 51
267.99999999999631
  0
ARC
  5
3694
  8
AM_0
 10
431.065569024306
 20
1125.2985279586101
 30
0.0
 40
5.0
 50
245.95480699999951
 51
267.99999999999631
  0
LINE
  5
3695
  8
AM_0
 10
462.29528102430572
 20
1137.547547018564
 30
0.0
 11
406.1643970243062
 21
1139.01738595861
 31
0.0
  0
LINE
  5
3696
  8
AM_0
 10
381.29528102430572
 20
1169.5475469586111
 30
0.0
 11
398.29528102430572
 21
1169.5475469586111
 31
0.0
  0
ARC
  5
3697
  8
AM_0
 10
406.29528102430572
 20
1144.015672958611
 30
0.0
 40
5.0
 50
180.0
 51
268.49999999999733
  0
ARC
  5
3698
  8
AM_0
 10
398.29528102430572
 20
1166.5475469586111
 30
0.0
 40
3.0
 50
0.0
 51
90.0
  0
LINE
  5
3699
  8
AM_0
 10
459.29589102430572
 20
935.3417879586118
 30
0.0
 11
459.29589102430572
 21
919.78543795861185
 31
0.0
  0
LINE
  5
369A
  8
AM_0
 10
460.29528102430572
 20
936.3766869586118
 30
0.0
 11
460.29528102430572
 21
920.82033795861207
 31
0.0
  0
LINE
  5
369B
  8
AM_0
 10
459.29589102430572
 20
919.78543795861185
 30
0.0
 11
460.29528102430572
 21
920.82033795861207
 31
0.0
  0
LINE
  5
369C
  8
AM_0
 10
460.29528102430572
 20
943.52403995861187
 30
0.0
 11
460.29528102430572
 21
936.3766869586118
 31
0.0
  0
LINE
  5
369D
  8
AM_0
 10
459.29589102430572
 20
935.3417879586118
 30
0.0
 11
460.29528102430572
 21
936.3766869586118
 31
0.0
  0
LINE
  5
369E
  8
AM_0
 10
459.29589102430572
 20
1103.75330695861
 30
0.0
 11
459.29589102430572
 21
1119.3096559586111
 31
0.0
  0
LINE
  5
369F
  8
AM_0
 10
460.29528102430572
 20
1102.71840795861
 30
0.0
 11
460.29528102430572
 21
1118.2747569586111
 31
0.0
  0
LINE
  5
36A0
  8
AM_0
 10
460.29528102430572
 20
1095.57105395861
 30
0.0
 11
460.29528102430572
 21
1102.71840795861
 31
0.0
  0
LINE
  5
36A1
  8
AM_0
 10
459.29589102430572
 20
1103.75330695861
 30
0.0
 11
460.29528102430572
 21
1102.71840795861
 31
0.0
  0
LINE
  5
36A2
  8
AM_0
 10
459.29589102430572
 20
1119.3096559586111
 30
0.0
 11
460.29528102430572
 21
1118.2747569586111
 31
0.0
  0
ARC
  5
36A3
  8
ﾁｭｳｼﾝｾﾝ1
 10
1175.399596360744
 20
536.22258305537196
 30
0.0
 40
225.00000499999999
 50
129.52298599999841
 51
141.3038470000036
  0
LINE
  5
36A4
  8
ﾁｭｳｼﾝｾﾝ1
 10
1001.0977913607441
 20
710.52440305537175
 30
0.0
 11
1033.734035151622
 21
677.88818639584781
 31
0.0
  0
ARC
  5
36A5
  8
ﾁｭｳｼﾝｾﾝ1
 10
1175.399596360744
 20
536.22258305537196
 30
0.0
 40
225.00000499999999
 50
309.52297999999792
 51
320.47702000000208
  0
LINE
  5
36A6
  8
ﾁｭｳｼﾝｾﾝ1
 10
1349.7014463607441
 20
361.920758055372
 30
0.0
 11
1319.295836360744
 21
392.32636805537197
 31
0.0
  0
TEXT
  5
3894
  8
AM_0
 10
1009.187837434441
 20
1076.600006288063
 30
0.0
 40
20.0
  1
VX75-025AF~VX75-030AF
  0
ENDSEC
  0
EOF
