  0
SECTION
  2
HEADER
  9
$ACADVER
  1
AC1009
  9
$INSBASE
 10
0.0
 20
0.0
 30
0.0
  9
$EXTMIN
 10
338.30825545791049
 20
247.9796818216482
 30
-0.0000000000112498
  9
$EXTMAX
 10
1508.393512985544
 20
1370.2456149296961
 30
0.0000000000002956
  9
$LIMMIN
 10
0.0
 20
0.0
  9
$LIMMAX
 10
1991.5
 20
1295.0
  9
$ORTHOMODE
 70
     0
  9
$REGENMODE
 70
     1
  9
$FILLMODE
 70
     1
  9
$QTEXTMODE
 70
     0
  9
$MIRRTEXT
 70
     1
  9
$DRAGMODE
 70
     2
  9
$LTSCALE
 40
7.0
  9
$OSMODE
 70
   551
  9
$ATTMODE
 70
     1
  9
$TEXTSIZE
 40
2.5
  9
$TRACEWID
 40
1.0
  9
$TEXTSTYLE
  7
STANDARD
  9
$CLAYER
  8
AM_0
  9
$CELTYPE
  6
BYLAYER
  9
$CECOLOR
 62
   256
  9
$DIMSCALE
 40
7.0
  9
$DIMASZ
 40
2.5
  9
$DIMEXO
 40
1.0
  9
$DIMDLI
 40
8.0
  9
$DIMRND
 40
0.0
  9
$DIMDLE
 40
0.0
  9
$DIMEXE
 40
0.6
  9
$DIMTP
 40
0.1
  9
$DIMTM
 40
0.1
  9
$DIMTXT
 40
2.5
  9
$DIMCEN
 40
0.0
  9
$DIMTSZ
 40
0.0
  9
$DIMTOL
 70
     0
  9
$DIMLIM
 70
     0
  9
$DIMTIH
 70
     0
  9
$DIMTOH
 70
     0
  9
$DIMSE1
 70
     0
  9
$DIMSE2
 70
     0
  9
$DIMTAD
 70
     1
  9
$DIMZIN
 70
     8
  9
$DIMBLK
  1

  9
$DIMASO
 70
     1
  9
$DIMSHO
 70
     1
  9
$DIMPOST
  1

  9
$DIMAPOST
  1
"
  9
$DIMALT
 70
     0
  9
$DIMALTD
 70
     2
  9
$DIMALTF
 40
0.0393701
  9
$DIMLFAC
 40
1.0
  9
$DIMTOFL
 70
     1
  9
$DIMTVP
 40
0.0
  9
$DIMTIX
 70
     0
  9
$DIMSOXD
 70
     0
  9
$DIMSAH
 70
     0
  9
$DIMBLK1
  1

  9
$DIMBLK2
  1

  9
$DIMSTYLE
  2
AM_ISO
  9
$DIMCLRD
 70
   256
  9
$DIMCLRE
 70
   256
  9
$DIMCLRT
 70
     4
  9
$DIMTFAC
 40
0.71
  9
$DIMGAP
 40
0.8
  9
$LUNITS
 70
     2
  9
$LUPREC
 70
     2
  9
$SKETCHINC
 40
1.0
  9
$FILLETRAD
 40
35.0
  9
$AUNITS
 70
     0
  9
$AUPREC
 70
     0
  9
$MENU
  1
.
  9
$ELEVATION
 40
0.0
  9
$PELEVATION
 40
0.0
  9
$THICKNESS
 40
0.0
  9
$LIMCHECK
 70
     0
  9
$BLIPMODE
 70
     0
  9
$CHAMFERA
 40
14.0
  9
$CHAMFERB
 40
7.0
  9
$SKPOLY
 70
     0
  9
$TDCREATE
 40
2452067.4143838538
  9
$TDUPDATE
 40
2458541.5601337841
  9
$TDINDWG
 40
0.1876971759
  9
$TDUSRTIMER
 40
0.1876969676
  9
$USRTIMER
 70
     1
  9
$ANGBASE
 50
0.0
  9
$ANGDIR
 70
     0
  9
$PDMODE
 70
     0
  9
$PDSIZE
 40
0.0
  9
$PLINEWID
 40
0.0
  9
$COORDS
 70
     1
  9
$SPLFRAME
 70
     0
  9
$SPLINETYPE
 70
     6
  9
$SPLINESEGS
 70
     8
  9
$ATTDIA
 70
     1
  9
$ATTREQ
 70
     1
  9
$HANDLING
 70
     1
  9
$HANDSEED
  5
3988
  9
$SURFTAB1
 70
     6
  9
$SURFTAB2
 70
     6
  9
$SURFTYPE
 70
     6
  9
$SURFU
 70
     6
  9
$SURFV
 70
     6
  9
$UCSNAME
  2

  9
$UCSORG
 10
0.0
 20
0.0
 30
0.0
  9
$UCSXDIR
 10
1.0
 20
0.0
 30
0.0
  9
$UCSYDIR
 10
0.0
 20
1.0
 30
0.0
  9
$PUCSNAME
  2

  9
$PUCSORG
 10
0.0
 20
0.0
 30
0.0
  9
$PUCSXDIR
 10
1.0
 20
0.0
 30
0.0
  9
$PUCSYDIR
 10
0.0
 20
1.0
 30
0.0
  9
$USERI1
 70
     0
  9
$USERI2
 70
     0
  9
$USERI3
 70
     0
  9
$USERI4
 70
     0
  9
$USERI5
 70
     0
  9
$USERR1
 40
0.0
  9
$USERR2
 40
0.0
  9
$USERR3
 40
0.0
  9
$USERR4
 40
0.0
  9
$USERR5
 40
0.0
  9
$WORLDVIEW
 70
     1
  9
$SHADEDGE
 70
     3
  9
$SHADEDIF
 70
    70
  9
$TILEMODE
 70
     1
  9
$MAXACTVP
 70
    64
  9
$PLIMCHECK
 70
     0
  9
$PEXTMIN
 10
1.0000000000000000E+020
 20
1.0000000000000000E+020
 30
1.0000000000000000E+020
  9
$PEXTMAX
 10
-1.0000000000000000E+020
 20
-1.0000000000000000E+020
 30
-1.0000000000000000E+020
  9
$PLIMMIN
 10
0.0
 20
0.0
  9
$PLIMMAX
 10
420.0
 20
297.0
  9
$UNITMODE
 70
     0
  9
$VISRETAIN
 70
     1
  9
$PLINEGEN
 70
     0
  9
$PSLTSCALE
 70
     1
  0
ENDSEC
  0
SECTION
  2
TABLES
  0
TABLE
  2
VPORT
 70
     1
  0
VPORT
  2
*ACTIVE
 70
     0
 10
0.0
 20
0.0
 11
1.0
 21
1.0
 12
923.35088422172748
 22
809.11264837567205
 13
0.0
 23
0.0
 14
17.5
 24
17.5
 15
70.0
 25
70.0
 16
0.0
 26
0.0
 36
1.0
 17
0.0
 27
0.0
 37
0.0
 40
1129.970275898263
 41
1.7571592210767459
 42
50.0
 43
0.0
 44
0.0
 50
0.0
 51
0.0
 71
     0
 72
   100
 73
     1
 74
     3
 75
     0
 76
     0
 77
     0
 78
     0
  0
ENDTAB
  0
TABLE
  2
LTYPE
 70
    26
  0
LTYPE
  2
CONTINUOUS
 70
     0
  3
Solid line
 72
    65
 73
     0
 40
0.0
  0
LTYPE
  2
AM_ISO02W050
 70
     0
  3
__ __ __ __ __ __ __ __ __ __ __ __ __ __ __
 72
    65
 73
     2
 40
7.5
 49
6.0
 49
-1.5
  0
LTYPE
  2
AM_ISO08W050
 70
     0
  3
____ . ____ . ____ . ____ . ____ . ____ . ____
 72
    65
 73
     4
 40
18.0
 49
12.0
 49
-1.5
 49
3.0
 49
-1.5
  0
LTYPE
  2
AM_ISO09W050
 70
     0
  3
_____ . . _____ . . _____ . . ____ .. ____
 72
    65
 73
     6
 40
22.5
 49
12.0
 49
-1.5
 49
3.0
 49
-1.5
 49
3.0
 49
-1.5
  0
LTYPE
  2
AMCONSTR
 70
     0
  3
_______________________
 72
    65
 73
     2
 40
9999.0
 49
9999.0
 49
0.0
  0
LTYPE
  2
AM_ISO08W050X2
 70
     0
  3
__ . __ . __ . __ . __ . __
 72
    65
 73
     4
 40
9.0
 49
6.0
 49
-0.75
 49
1.5
 49
-0.75
  0
LTYPE
  2
AM_ISO02W050X2
 70
     0
  3
 _ _ _ _ _ _ _ _ _ _ _ _
 72
    65
 73
     2
 40
3.75
 49
3.0
 49
-0.75
  0
LTYPE
  2
AMZIGZAG
 70
     0
  3
/\/-/\/-/\/-/\/-/\/-/\/
 72
    65
 73
     2
 40
11.000099999999991
 49
0.0001
 49
-11.0
  0
LTYPE
  2
ACISOWELD
 70
     0
  3
_ _ _ _ _
 72
    65
 73
     2
 40
2.0
 49
2.0
 49
-1.0
  0
LTYPE
  2
ACISOTGB
 70
     0
  3
__ . . __ . .
 72
    65
 73
     6
 40
9.0
 49
4.0
 49
-1.0
 49
1.0
 49
-1.0
 49
1.0
 49
-1.0
  0
LTYPE
  2
ACISOTGL
 70
     0
  3
_ _ _ _ _
 72
    65
 73
     2
 40
3.0
 49
2.0
 49
-1.0
  0
LTYPE
  2
CENTER
 70
     0
  3
__ . __
 72
    65
 73
     4
 40
7.0
 49
4.0
 49
-1.0
 49
1.0
 49
-1.0
  0
LTYPE
  2
PHANTOM2
 70
     0
  3
Phantom (.5x) ___ _ _ ___ _ _ ___ _ _ ___ _ _
 72
    65
 73
     6
 40
31.75
 49
15.875
 49
-3.174999999999998
 49
3.174999999999998
 49
-3.174999999999998
 49
3.174999999999998
 49
-3.174999999999998
  0
LTYPE
  2
ACANSTGBM
 70
     0
  3
__ . . __ . .
 72
    65
 73
     6
 40
9.0
 49
4.0
 49
-1.0
 49
1.0
 49
-1.0
 49
1.0
 49
-1.0
  0
LTYPE
  2
ACANSTGLM
 70
     0
  3
_ _ _ _ _
 72
    65
 73
     2
 40
3.0
 49
2.0
 49
-1.0
  0
LTYPE
  2
GEN7
 70
     0
  3
____ . ____ . ____ . ____ . ____ . ____ . ____
 72
    65
 73
     4
 40
14.25
 49
9.75
 49
-1.5
 49
1.5
 49
-1.5
  0
LTYPE
  2
GEN7A
 70
     0
  3
__ . __ . __
 72
    65
 73
     4
 40
7.375
 49
4.75
 49
-0.875
 49
0.875
 49
-0.875
  0
LTYPE
  2
ACJISTGB
 70
     0
  3
__ . . __ . .
 72
    65
 73
     6
 40
9.0
 49
4.0
 49
-1.0
 49
1.0
 49
-1.0
 49
1.0
 49
-1.0
  0
LTYPE
  2
ACJISTGL
 70
     0
  3
_ _ _ _ _
 72
    65
 73
     2
 40
3.0
 49
2.0
 49
-1.0
  0
LTYPE
  2
HIDDEN
 70
     0
  3
Hidden __ __ __ __ __ __ __ __ __ __ __ __ __ _
 72
    65
 73
     2
 40
0.375
 49
0.25
 49
-0.125
  0
LTYPE
  2
CENTER2
 70
     0
  3
Center (.5x) ___ _ ___ _ ___ _ ___ _ ___ _ ___
 72
    65
 73
     4
 40
1.125
 49
0.75
 49
-0.125
 49
0.125
 49
-0.125
  0
LTYPE
  2
HIDDEN2
 70
     0
  3
Hidden (.5x) _ _ _ _ _ _ _ _ _ _ _ _ _ _ _ _ _
 72
    65
 73
     2
 40
0.1875
 49
0.125
 49
-0.0625
  0
LTYPE
  2
AMZIGZAG2
 70
     0
  3
/\/-/\/-/\/-/\/-/\/-/\/
 72
    65
 73
     2
 40
0.4401
 49
0.0001
 49
-0.4400000000000002
  0
LTYPE
  2
ACANSTGB
 70
     0
  3
__ . . __ . .
 72
    65
 73
     6
 40
0.35433070866
 49
0.15748031496
 49
-0.03937007874
 49
0.03937007874
 49
-0.03937007874
 49
0.03937007874
 49
-0.03937007874
  0
LTYPE
  2
ACANSTGL
 70
     0
  3
_ _ _ _ _
 72
    65
 73
     2
 40
0.11811023622
 49
0.07874015748
 49
-0.03937007874
  0
ENDTAB
  0
TABLE
  2
LAYER
 70
     6
  0
LAYER
  2
0
 70
     0
 62
     7
  6
CONTINUOUS
  0
LAYER
  2
AM_0
 70
     0
 62
     7
  6
CONTINUOUS
  0
LAYER
  2
AM_5
 70
     0
 62
     2
  6
CONTINUOUS
  0
LAYER
  2
DEFPOINTS
 70
     0
 62
     7
  6
CONTINUOUS
  0
LAYER
  2
ﾁｭｳｼﾝｾﾝ
 70
     0
 62
     1
  6
GEN7
  0
LAYER
  2
ﾁｭｳｼﾝｾﾝ1
 70
     0
 62
     1
  6
GEN7A
  0
ENDTAB
  0
TABLE
  2
STYLE
 70
     9
  0
STYLE
  2
STANDARD
 70
     0
 40
0.0
 41
0.8299999999999999
 50
0.0
 71
     0
 42
2.5
  3
txt.shx
  4
bigfont.shx
  0
STYLE
  2
ANNOTATIVE
 70
     0
 40
0.0
 41
1.0
 50
0.0
 71
     0
 42
0.2
  3
txt
  4

  0
STYLE
  2

 70
     1
 40
0.0
 41
1.0
 50
0.0
 71
     0
 42
2.5
  3
ltypeshp.shx
  4

  0
STYLE
  2
ACISOTS
 70
     0
 40
1.0
 41
1.0
 50
0.0
 71
     0
 42
2.5
  3
isocp.shx
  4
extfont.shx
  0
STYLE
  2
ACISOGDT
 70
     0
 40
0.0
 41
1.0
 50
0.0
 71
     0
 42
2.5
  3
amgdt.shx
  4

  0
STYLE
  2
ACANSTS
 70
     0
 40
1.0
 41
1.0
 50
0.0
 71
     0
 42
2.5
  3
romans.shx
  4
bigfont.shx
  0
STYLE
  2
ACANSGDT
 70
     0
 40
0.0
 41
1.0
 50
0.0
 71
     0
 42
2.5
  3
amgdt.shx
  4

  0
STYLE
  2
ACJISTS
 70
     0
 40
1.0
 41
1.0
 50
0.0
 71
     0
 42
2.5
  3
isocp.shx
  4
bigfont.shx
  0
STYLE
  2
ACJISGDT
 70
     0
 40
0.0
 41
1.0
 50
0.0
 71
     0
 42
2.5
  3
amgdt.shx
  4

  0
ENDTAB
  0
TABLE
  2
VIEW
 70
     6
  0
VIEW
  2
AM_VIEW1
 70
     0
 40
647.50000000000011
 10
582.51151012891353
 20
971.25000000000023
 41
1165.0230202578271
 11
0.0
 21
0.0
 31
1.0
 12
0.0
 22
0.0
 32
0.0
 42
50.0
 43
0.0
 44
0.0
 50
0.0
 71
     0
  0
VIEW
  2
AM_VIEW2
 70
     0
 40
647.50000000000011
 10
1408.9884898710859
 20
971.25000000000023
 41
1165.0230202578271
 11
0.0
 21
0.0
 31
1.0
 12
0.0
 22
0.0
 32
0.0
 42
50.0
 43
0.0
 44
0.0
 50
0.0
 71
     0
  0
VIEW
  2
AM_VIEW3
 70
     0
 40
647.50000000000011
 10
582.51151012891353
 20
323.75
 41
1165.0230202578271
 11
0.0
 21
0.0
 31
1.0
 12
0.0
 22
0.0
 32
0.0
 42
50.0
 43
0.0
 44
0.0
 50
0.0
 71
     0
  0
VIEW
  2
AM_VIEW4
 70
     0
 40
647.50000000000011
 10
1408.9884898710859
 20
323.75
 41
1165.0230202578271
 11
0.0
 21
0.0
 31
1.0
 12
0.0
 22
0.0
 32
0.0
 42
50.0
 43
0.0
 44
0.0
 50
0.0
 71
     0
  0
VIEW
  2
AM_VIEW5
 70
     0
 40
647.50000000000011
 10
995.74999999999989
 20
647.50000000000011
 41
1165.0230202578259
 11
0.0
 21
0.0
 31
1.0
 12
0.0
 22
0.0
 32
0.0
 42
50.0
 43
0.0
 44
0.0
 50
0.0
 71
     0
  0
VIEW
  2
AM_VIEW6
 70
     0
 40
1294.98705
 10
995.74999999999989
 20
647.50000000000011
 41
2330.0227400552481
 11
0.0
 21
0.0
 31
1.0
 12
0.0
 22
0.0
 32
0.0
 42
50.0
 43
0.0
 44
0.0
 50
0.0
 71
     0
  0
ENDTAB
  0
TABLE
  2
UCS
 70
     0
  0
ENDTAB
  0
TABLE
  2
APPID
 70
    95
  0
APPID
  2
ACAD
 70
     0
  0
APPID
  2
ACADANNOTATIVE
 70
     0
  0
APPID
  2
MCAD_NO_VIS
 70
     0
  0
APPID
  2
ACAD_TEMP_GRAPHIC
 70
     0
  0
APPID
  2
ACATTRIBSERVICES
 70
     0
  0
APPID
  2
GENIUS_GENREC_14
 70
     0
  0
APPID
  2
GENIUS_GENOBJ-N-REC_13
 70
     0
  0
APPID
  2
GENIUS_GENODEF_13
 70
     0
  0
APPID
  2
GENIUS_GENOLIS_13
 70
     0
  0
APPID
  2
GENIUS_GENOBJ-N-TIT_13
 70
     0
  0
APPID
  2
GENIUS_GENOENT_13
 70
     0
  0
APPID
  2
GENIUS_GENTITLE_13
 70
     0
  0
APPID
  2
GENIUS_GENOREF_13
 70
     0
  0
APPID
  2
GENIUS_GENSCREG_15
 70
     0
  0
APPID
  2
GENIUS_GENOBJ-N-SDF_13
 70
     0
  0
APPID
  2
GENIUS_GENFIL_13
 70
     0
  0
APPID
  2
GENIUS_GENOBJ-N-CHA_13
 70
     0
  0
APPID
  2
GENIUS_GENDTOL_13
 70
     0
  0
APPID
  2
GENIUS_GENOBJ-N-FIL_13
 70
     0
  0
APPID
  2
AD_DRAW
 70
     0
  0
APPID
  2
DESIGNERASSEMBLIES
 70
     0
  0
APPID
  2
ASURF_PCURVE_APPNAME
 70
     0
  0
APPID
  2
GENIUS_GE3SECT_13
 70
     0
  0
APPID
  2
GENIUS_GENCFG_13
 70
     0
  0
APPID
  2
GENIUS_GE3CFG0_13
 70
     0
  0
APPID
  2
GENIUS_GENCFG0_13
 70
     0
  0
APPID
  2
GENIUS_GENCFG1_13
 70
     0
  0
APPID
  2
GENIUS_GENCFG2_13
 70
     0
  0
APPID
  2
GENIUS_GENCFG3_13
 70
     0
  0
APPID
  2
GENIUS_GENCFG4_13
 70
     0
  0
APPID
  2
GENIUS_GEVCFG0_13
 70
     0
  0
APPID
  2
GENIUS_GENHINW_13
 70
     0
  0
APPID
  2
GENIUS_FIRSTVISTXT_14
 70
     0
  0
APPID
  2
GENIUS_GENOBJ-N-LEADER_13
 70
     0
  0
APPID
  2
GEV_VCCNULL_SWITCH_OFF
 70
     0
  0
APPID
  2
GENIUS_GEFCFG0_13
 70
     0
  0
APPID
  2
GENIUS_GENZVEED_13
 70
     0
  0
APPID
  2
GENIUS_GENSCREG_13
 70
     0
  0
APPID
  2
GENIUS_DUMCFG0_13
 70
     0
  0
APPID
  2
GEVID936201362
 70
     0
  0
APPID
  2
GEVDC
 70
     0
  0
APPID
  2
GEVCON
 70
     0
  0
APPID
  2
VCC
 70
     0
  0
APPID
  2
GEVPT
 70
     0
  0
APPID
  2
GEVIT
 70
     0
  0
APPID
  2
GENBH
 70
     0
  0
APPID
  2
GEVMK
 70
     0
  0
APPID
  2
GENIUS_GENBH_13
 70
     0
  0
APPID
  2
GENIUS_GENOBJ-NBEHI-BHF_13
 70
     0
  0
APPID
  2
GENIUS_GENOBJ-NBEHI-BHB_13
 70
     0
  0
APPID
  2
GENIUS_GENOBJ-F-DESC_13
 70
     0
  0
APPID
  2
GENIUS_GEFDESC_14
 70
     0
  0
APPID
  2
GENIUS_GENOBJ-F-PART_13
 70
     0
  0
APPID
  2
GENIUS_GEFSTDP_13
 70
     0
  0
APPID
  2
GENIUS_GEFPARTINS_13
 70
     0
  0
APPID
  2
GENIUS_GENTRA_14
 70
     0
  0
APPID
  2
GENIUS_GENINF13_13
 70
     0
  0
APPID
  2
GENIUS_GENOBJ-N-INFOPT_13
 70
     0
  0
APPID
  2
GENIUS_GENOBJ-N-RSSYM_13
 70
     0
  0
APPID
  2
GENIUS_GENSYMENT_13
 70
     0
  0
APPID
  2
GENIUS_GENSCSYM_13
 70
     0
  0
APPID
  2
GENIUS_GEFINFNAM_13
 70
     0
  0
APPID
  2
GENIUS_GENOBJ-N-CEN_13
 70
     0
  0
APPID
  2
GENIUS_GENOBJ-N-CRS_13
 70
     0
  0
APPID
  2
GENIUS_GENOBJ-N-CRC_13
 70
     0
  0
APPID
  2
GENIUS_GENCRC_14
 70
     0
  0
APPID
  2
GEVID942827039
 70
     0
  0
APPID
  2
GEVID942827040
 70
     0
  0
APPID
  2
GEVID942827041
 70
     0
  0
APPID
  2
GENIUS_GENOBJ-F-SCPASSM_13
 70
     0
  0
APPID
  2
GENIUS_GENDIMSH_14
 70
     0
  0
APPID
  2
GEVID942827042
 70
     0
  0
APPID
  2
GEVID946020473
 70
     0
  0
APPID
  2
GEVID946020474
 70
     0
  0
APPID
  2
GEVID946020475
 70
     0
  0
APPID
  2
GENIUS_GENOBJ-N-HTC_13
 70
     0
  0
APPID
  2
GENIUS_GENHATCH_13
 70
     0
  0
APPID
  2
GEVID948854295
 70
     0
  0
APPID
  2
GEVID939402019
 70
     0
  0
APPID
  2
GEVID952919491
 70
     0
  0
APPID
  2
GEVID952919492
 70
     0
  0
APPID
  2
GENIUS_GEFWELD_13
 70
     0
  0
APPID
  2
GENIUS_GENOBJ-F-WELS_13
 70
     0
  0
APPID
  2
GEVID952919493
 70
     0
  0
APPID
  2
GENIUS_GENOBJ-N-RSBK_13
 70
     0
  0
APPID
  2
GENIUS_GENOBJ-N-LIB_13
 70
     0
  0
APPID
  2
GENIUS_GENSCALE_13
 70
     0
  0
APPID
  2
GEVID986376691
 70
     0
  0
APPID
  2
DCO15
 70
     0
  0
APPID
  2
ACAD_DSTYLE_DIMBREAK
 70
     0
  0
APPID
  2
ACAD_DSTYLE_DIMJAG
 70
     0
  0
APPID
  2
ACAD_NAV_VCDISPLAY
 70
     0
  0
APPID
  2
ACADANNOPO
 70
     0
  0
APPID
  2
ACAD_EXEMPT_FROM_CAD_STANDARDS
 70
     0
  0
APPID
  2
ACAD_MLEADERVER
 70
     0
  0
ENDTAB
  0
TABLE
  2
DIMSTYLE
 70
    22
  0
DIMSTYLE
  2
STANDARD
 70
     0
  3

  4

  5

  6

  7

 40
1.0
 41
0.18
 42
0.0625
 43
0.38
 44
0.18
 45
0.0
 46
0.0
 47
0.0
 48
0.0
140
0.18
141
0.09
142
0.0
143
25.399999999999999
144
1.0
145
0.0
146
1.0
147
0.09
 71
     0
 72
     0
 73
     1
 74
     1
 75
     0
 76
     0
 77
     0
 78
     0
170
     0
171
     2
172
     0
173
     0
174
     0
175
     0
176
     0
177
     0
178
     0
  0
DIMSTYLE
  2
ANNOTATIVE
 70
     0
  3

  4

  5

  6

  7

 40
1.0
 41
0.18
 42
0.0625
 43
0.38
 44
0.18
 45
0.0
 46
0.0
 47
0.0
 48
0.0
140
0.18
141
0.09
142
0.0
143
25.399999999999999
144
1.0
145
0.0
146
1.0
147
0.09
 71
     0
 72
     0
 73
     1
 74
     1
 75
     0
 76
     0
 77
     0
 78
     0
170
     0
171
     2
172
     0
173
     0
174
     0
175
     0
176
     0
177
     0
178
     0
  0
DIMSTYLE
  2
AM_ISO
 70
     0
  3

  4
"
  5

  6

  7

 40
1.0
 41
2.5
 42
1.0
 43
8.0
 44
0.6
 45
0.0
 46
0.0
 47
0.1
 48
0.1
140
2.5
141
0.0
142
0.0
143
0.0393701
144
1.0
145
0.0
146
0.71
147
0.8
 71
     0
 72
     0
 73
     0
 74
     0
 75
     0
 76
     0
 77
     1
 78
     8
170
     0
171
     2
172
     1
173
     0
174
     0
175
     0
176
   256
177
   256
178
     4
  0
DIMSTYLE
  2
AM_ISO$3
 70
     0
  3

  4
"
  5

  6

  7

 40
1.0
 41
2.5
 42
1.0
 43
8.0
 44
0.6
 45
0.0
 46
0.0
 47
0.1
 48
0.1
140
2.5
141
0.0
142
0.0
143
0.0393701
144
1.0
145
0.0
146
0.71
147
0.8
 71
     0
 72
     0
 73
     0
 74
     1
 75
     0
 76
     0
 77
     1
 78
     8
170
     0
171
     2
172
     0
173
     0
174
     0
175
     0
176
   256
177
   256
178
     4
  0
DIMSTYLE
  2
AM_ISO$4
 70
     0
  3

  4
"
  5

  6

  7

 40
1.0
 41
2.5
 42
1.0
 43
8.0
 44
0.6
 45
0.0
 46
0.0
 47
0.1
 48
0.1
140
2.5
141
0.0
142
0.0
143
0.0393701
144
1.0
145
0.0
146
0.71
147
0.8
 71
     0
 72
     0
 73
     0
 74
     1
 75
     0
 76
     0
 77
     1
 78
     8
170
     0
171
     2
172
     0
173
     0
174
     0
175
     0
176
   256
177
   256
178
     4
  0
DIMSTYLE
  2
AM_ISO$6
 70
     0
  3

  4
"
  5

  6

  7

 40
1.0
 41
2.5
 42
1.0
 43
8.0
 44
0.6
 45
0.0
 46
0.0
 47
0.1
 48
0.1
140
2.5
141
0.0
142
0.0
143
0.0393701
144
1.0
145
0.0
146
0.71
147
0.8
 71
     0
 72
     0
 73
     0
 74
     0
 75
     0
 76
     0
 77
     0
 78
     8
170
     0
171
     2
172
     1
173
     0
174
     0
175
     0
176
   256
177
   256
178
     4
  0
DIMSTYLE
  2
AM_ISO$7
 70
     0
  3

  4
"
  5

  6

  7

 40
1.0
 41
2.5
 42
1.0
 43
8.0
 44
0.6
 45
0.0
 46
0.0
 47
0.1
 48
0.1
140
2.5
141
0.0
142
0.0
143
0.0393701
144
1.0
145
0.0
146
0.71
147
0.8
 71
     0
 72
     0
 73
     0
 74
     0
 75
     0
 76
     0
 77
     1
 78
     8
170
     0
171
     2
172
     1
173
     0
174
     0
175
     0
176
   256
177
   256
178
     4
  0
DIMSTYLE
  2
AM_ISO$SF
 70
     0
  3

  4
"
  5

  6

  7

 40
1.0
 41
2.5
 42
1.0
 43
10.0
 44
1.0
 45
0.0
 46
0.0
 47
0.1
 48
0.1
140
3.5
141
0.0
142
0.0
143
0.0393701
144
1.0
145
0.0
146
0.71
147
1.5
 71
     0
 72
     0
 73
     0
 74
     0
 75
     1
 76
     1
 77
     1
 78
     8
170
     0
171
     2
172
     1
173
     0
174
     0
175
     0
176
   256
177
   256
178
     2
  0
DIMSTYLE
  2
AM_ISO$SH
 70
     0
  3

  4
"
  5

  6

  7

 40
1.0
 41
2.5
 42
1.0
 43
10.0
 44
1.0
 45
0.0
 46
0.0
 47
0.1
 48
0.1
140
3.5
141
0.0
142
0.0
143
0.0393701
144
2.0
145
0.0
146
0.71
147
1.5
 71
     0
 72
     0
 73
     0
 74
     0
 75
     1
 76
     1
 77
     1
 78
     8
170
     0
171
     2
172
     1
173
     1
174
     0
175
     0
176
   256
177
   256
178
     2
  0
DIMSTYLE
  2
AM_JIS
 70
     0
  3

  4
"
  5

  6

  7

 40
1.0
 41
2.5
 42
1.0
 43
7.0
 44
1.0
 45
0.0
 46
0.0
 47
0.1
 48
0.1000000001
140
2.5
141
0.0
142
0.0
143
0.0393701
144
1.0
145
0.0
146
0.71
147
1.0
 71
     0
 72
     0
 73
     0
 74
     0
 75
     0
 76
     0
 77
     3
 78
     8
170
     0
171
     2
172
     1
173
     0
174
     0
175
     0
176
   256
177
   256
178
     4
  0
DIMSTYLE
  2
AM_JIS$3
 70
     0
  3

  4
"
  5

  6

  7

 40
1.0
 41
2.5
 42
1.0
 43
7.0
 44
1.0
 45
0.0
 46
0.0
 47
0.1
 48
0.1000000001
140
2.5
141
0.0
142
0.0
143
0.0393701
144
1.0
145
0.0
146
0.71
147
1.0
 71
     0
 72
     0
 73
     0
 74
     1
 75
     0
 76
     0
 77
     3
 78
     8
170
     0
171
     2
172
     0
173
     0
174
     0
175
     0
176
   256
177
   256
178
     4
  0
DIMSTYLE
  2
AM_JIS$4
 70
     0
  3

  4
"
  5

  6

  7

 40
1.0
 41
2.5
 42
1.0
 43
7.0
 44
1.0
 45
0.0
 46
0.0
 47
0.1
 48
0.1000000001
140
2.5
141
0.0
142
0.0
143
0.0393701
144
1.0
145
0.0
146
0.71
147
1.0
 71
     0
 72
     0
 73
     0
 74
     0
 75
     0
 76
     0
 77
     3
 78
     8
170
     0
171
     2
172
     0
173
     0
174
     0
175
     0
176
   256
177
   256
178
     4
  0
DIMSTYLE
  2
AM_JIS$6
 70
     0
  3

  4
"
  5

  6

  7

 40
1.0
 41
2.5
 42
1.0
 43
7.0
 44
1.0
 45
0.0
 46
0.0
 47
0.1
 48
0.1000000001
140
2.5
141
0.0
142
0.0
143
0.0393701
144
1.0
145
0.0
146
0.71
147
1.0
 71
     0
 72
     0
 73
     0
 74
     0
 75
     0
 76
     0
 77
     0
 78
     8
170
     0
171
     2
172
     1
173
     0
174
     0
175
     0
176
   256
177
   256
178
     4
  0
DIMSTYLE
  2
AM_JIS$7
 70
     0
  3

  4
"
  5

  6

  7

 40
1.0
 41
2.5
 42
1.0
 43
7.0
 44
1.0
 45
0.0
 46
0.0
 47
0.1
 48
0.1000000001
140
2.5
141
0.0
142
0.0
143
0.0393701
144
1.0
145
0.0
146
0.71
147
1.0
 71
     0
 72
     0
 73
     0
 74
     0
 75
     0
 76
     0
 77
     3
 78
     8
170
     0
171
     2
172
     1
173
     0
174
     0
175
     0
176
   256
177
   256
178
     4
  0
DIMSTYLE
  2
AM_JIS$SF
 70
     0
  3

  4
"
  5

  6

  7

 40
1.0
 41
2.5
 42
1.0
 43
10.0
 44
1.0
 45
0.0
 46
0.0
 47
0.1
 48
0.1
140
3.5
141
0.0
142
0.0
143
0.0393701
144
1.0
145
0.0
146
0.71
147
1.5
 71
     0
 72
     0
 73
     0
 74
     0
 75
     1
 76
     1
 77
     3
 78
     8
170
     0
171
     2
172
     1
173
     0
174
     0
175
     0
176
   256
177
   256
178
     4
  0
DIMSTYLE
  2
AM_JIS$SH
 70
     0
  3

  4
"
  5

  6

  7

 40
1.0
 41
2.5
 42
1.0
 43
10.0
 44
1.0
 45
0.0
 46
0.0
 47
0.1
 48
0.1
140
3.5
141
0.0
142
0.0
143
0.0393701
144
1.0
145
0.0
146
0.71
147
1.5
 71
     0
 72
     0
 73
     0
 74
     0
 75
     1
 76
     0
 77
     3
 78
     8
170
     0
171
     2
172
     1
173
     1
174
     0
175
     0
176
   256
177
   256
178
     4
  0
DIMSTYLE
  2
AM_ANSI
 70
     0
  3

  4
mm
  5

  6

  7

 40
1.0
 41
0.1
 42
0.05
 43
0.5
 44
0.1
 45
0.0
 46
0.0
 47
0.1
 48
0.1
140
0.12
141
0.0
142
0.0
143
25.399999999999999
144
1.0
145
0.0
146
0.71
147
0.06
 71
     0
 72
     0
 73
     1
 74
     1
 75
     0
 76
     0
 77
     0
 78
     7
170
     0
171
     2
172
     0
173
     0
174
     0
175
     0
176
   256
177
   256
178
     2
  0
DIMSTYLE
  2
AM_ANSI$3
 70
     0
  3

  4
mm
  5

  6

  7

 40
1.0
 41
0.1
 42
0.05
 43
0.5
 44
0.1
 45
0.0
 46
0.0
 47
0.1
 48
0.1
140
0.12
141
0.0
142
0.0
143
25.399999999999999
144
1.0
145
0.0
146
0.71
147
0.06
 71
     0
 72
     0
 73
     1
 74
     1
 75
     0
 76
     0
 77
     0
 78
     7
170
     0
171
     2
172
     0
173
     0
174
     0
175
     0
176
   256
177
   256
178
     2
  0
DIMSTYLE
  2
AM_ANSI$4
 70
     0
  3

  4
mm
  5

  6

  7

 40
1.0
 41
0.1
 42
0.05
 43
0.5
 44
0.1
 45
0.0
 46
0.0
 47
0.1
 48
0.1
140
0.12
141
0.0
142
0.0
143
25.399999999999999
144
1.0
145
0.0
146
0.71
147
0.06
 71
     0
 72
     0
 73
     1
 74
     1
 75
     0
 76
     0
 77
     0
 78
     7
170
     0
171
     2
172
     0
173
     0
174
     0
175
     0
176
   256
177
   256
178
     2
  0
DIMSTYLE
  2
AM_ANSI$7
 70
     0
  3

  4
mm
  5

  6

  7

 40
1.0
 41
0.1
 42
0.05
 43
0.5
 44
0.1
 45
0.0
 46
0.0
 47
0.1
 48
0.1
140
0.24
141
0.0
142
0.0
143
25.399999999999999
144
1.0
145
0.0
146
0.71
147
0.06
 71
     0
 72
     0
 73
     1
 74
     1
 75
     0
 76
     0
 77
     0
 78
     7
170
     0
171
     2
172
     0
173
     0
174
     0
175
     0
176
   256
177
   256
178
     2
  0
DIMSTYLE
  2
AM_ANSI$SF
 70
     0
  3

  4
mm
  5

  6

  7

 40
1.0
 41
0.1
 42
0.05
 43
0.5
 44
0.1
 45
0.0
 46
0.0
 47
0.1
 48
0.1
140
0.12
141
0.0
142
0.0
143
25.399999999999999
144
1.0
145
0.0
146
0.71
147
0.06
 71
     0
 72
     0
 73
     1
 74
     1
 75
     1
 76
     1
 77
     0
 78
     7
170
     0
171
     2
172
     0
173
     0
174
     0
175
     0
176
   256
177
   256
178
     2
  0
DIMSTYLE
  2
AM_ANSI$SH
 70
     0
  3

  4
mm
  5

  6

  7

 40
1.0
 41
0.1
 42
0.05
 43
0.5
 44
0.1
 45
0.0
 46
0.0
 47
0.1
 48
0.1
140
0.12
141
0.0
142
0.0
143
25.399999999999999
144
1.0
145
0.0
146
0.71
147
0.06
 71
     0
 72
     0
 73
     1
 74
     1
 75
     1
 76
     1
 77
     0
 78
     7
170
     0
171
     2
172
     0
173
     1
174
     0
175
     0
176
   256
177
   256
178
     2
  0
ENDTAB
  0
ENDSEC
  0
SECTION
  2
BLOCKS
  0
BLOCK
  8
0
  2
$MODEL_SPACE
 70
     0
 10
0.0
 20
0.0
 30
0.0
  3
$MODEL_SPACE
  1

  0
ENDBLK
  5
37FE
  8
0
  0
BLOCK
 67
     1
  8
0
  2
$PAPER_SPACE
 70
     0
 10
0.0
 20
0.0
 30
0.0
  3
$PAPER_SPACE
  1

  0
ENDBLK
  5
37FA
 67
     1
  8
0
  0
BLOCK
  8
0
  2
GENAXEH
 70
     0
 10
0.0
 20
0.0
 30
0.0
  3
GENAXEH
  1

  0
LINE
  5
3569
  8
0
 10
-1.0
 20
0.0
 30
0.0
 11
1.0
 21
0.0
 31
0.0
  0
ENDBLK
  5
356A
  8
0
  0
BLOCK
  8
0
  2
_OPEN30
 70
     0
 10
0.0
 20
0.0
 30
0.0
  3
_OPEN30
  1

  0
LINE
  5
356D
  8
0
 62
     0
 10
-1.0
 20
0.26794919
 30
0.0
 11
0.0
 21
0.0
 31
0.0
  0
LINE
  5
356E
  8
0
 62
     0
 10
0.0
 20
0.0
 30
0.0
 11
-1.0
 21
-0.26794919
 31
0.0
  0
LINE
  5
356F
  8
0
 62
     0
 10
0.0
 20
0.0
 30
0.0
 11
-1.0
 21
0.0
 31
0.0
  0
ENDBLK
  5
3570
  8
0
  0
BLOCK
  8
0
  2
_NONE
 70
     0
 10
0.0
 20
0.0
 30
0.0
  3
_NONE
  1

  0
ENDBLK
  5
3573
  8
0
  0
BLOCK
  8
0
  2
_ACMFILLEDHALF
 70
     0
 10
0.0
 20
0.0
 30
0.0
  3
_ACMFILLEDHALF
  1

  0
TRACE
  5
38F4
  8
AM_0
 62
     0
 10
-0.8
 20
0.0
 30
0.0
 11
-1.0
 21
0.166666666
 31
0.0
 12
0.0
 22
0.0
 32
0.0
 13
0.0
 23
0.0
 33
0.0
  0
LINE
  5
38F5
  8
AM_0
 62
     0
 10
-1.0
 20
0.0
 30
0.0
 11
-0.8
 21
0.0
 31
0.0
  0
ENDBLK
  5
38F3
  8
0
  0
ENDSEC
  0
SECTION
  2
ENTITIES
  0
LINE
  5
3575
  8
AM_0
 10
771.02032111863423
 20
1130.226714331636
 30
0.0
 11
856.02032111863446
 21
1130.226714331636
 31
0.0
  0
LINE
  5
3576
  8
AM_0
 10
856.02032111863446
 20
1150.2267143316369
 30
0.0
 11
771.02032111863423
 21
1150.2267143316369
 31
0.0
  0
LINE
  5
3577
  8
AM_0
 10
856.02032111863446
 20
1105.226714331638
 30
0.0
 11
746.02032111863423
 21
1105.226714331638
 31
0.0
  0
LINE
  5
3578
  8
AM_0
 10
746.02032111863423
 20
1175.2267143316369
 30
0.0
 11
856.02032111863446
 21
1175.2267143316369
 31
0.0
  0
LINE
  5
3579
  8
ﾁｭｳｼﾝｾﾝ
 10
860.72760111863408
 20
1140.226714331636
 30
0.0
 11
338.35019708472282
 21
1140.226714331636
 31
0.0
  0
ARC
  5
357A
  8
AM_0
 10
537.02031111863425
 20
1140.226714331636
 30
0.0
 40
20.0
 50
198.2099599999984
 51
341.79004000000128
  0
ARC
  5
357B
  8
AM_0
 10
537.02031111863425
 20
1140.226714331636
 30
0.0
 40
15.0
 50
204.6243199999974
 51
335.37568000000249
  0
LINE
  5
357C
  8
AM_0
 10
702.02032111863446
 20
917.76937433163823
 30
0.0
 11
702.02032111863446
 21
1362.6841143316381
 31
0.0
  0
LINE
  5
357D
  8
AM_0
 10
702.02032111863446
 20
1362.6841143316381
 30
0.0
 11
702.02032111863446
 21
917.76937433163823
 31
0.0
  0
LINE
  5
357E
  8
AM_0
 10
740.02032111863423
 20
945.22671433163805
 30
0.0
 11
740.02032111863423
 21
1335.226714331636
 31
0.0
  0
LINE
  5
357F
  8
AM_0
 10
713.02032111863434
 20
1302.853014331637
 30
0.0
 11
713.02032111863434
 21
977.60031433163817
 31
0.0
  0
LINE
  5
3580
  8
AM_0
 10
734.02032111863423
 20
1370.2267143316369
 30
0.0
 11
734.02032111863423
 21
910.22671433163816
 31
0.0
  0
LINE
  5
3581
  8
AM_0
 10
746.02032111863423
 20
1177.7267143316369
 30
0.0
 11
746.02032111863423
 21
1102.726714331638
 31
0.0
  0
LINE
  5
3582
  8
AM_0
 10
492.52031111863448
 20
1256.9808143316379
 30
0.0
 11
492.52031111863448
 21
1026.0412843316381
 31
0.0
  0
LINE
  5
3583
  8
AM_0
 10
434.52031111863539
 20
1023.226714331638
 30
0.0
 11
434.52031111863539
 21
1140.226714331636
 31
0.0
  0
LINE
  5
3584
  8
AM_0
 10
447.52031111863528
 20
1023.226714331638
 30
0.0
 11
447.52031111863528
 21
1140.226714331636
 31
0.0
  0
LINE
  5
3585
  8
AM_0
 10
559.02032111863446
 20
951.22671433163816
 30
0.0
 11
559.02032111863446
 21
1133.976714331636
 31
0.0
  0
LINE
  5
3586
  8
AM_0
 10
492.52031111863448
 20
1265.226714331636
 30
0.0
 11
492.52031111863448
 21
1015.226714331638
 31
0.0
  0
LINE
  5
3587
  8
AM_0
 10
559.02032111863446
 20
973.22671433163805
 30
0.0
 11
694.2227811186342
 21
970.86679433163806
 31
0.0
  0
LINE
  5
3588
  8
AM_0
 10
545.96801111863431
 20
951.45455433163818
 30
0.0
 11
690.22980111863433
 21
948.93649433163807
 31
0.0
  0
LINE
  5
3589
  8
AM_0
 10
559.02032111863446
 20
1083.538784331638
 30
0.0
 11
690.22973111863439
 21
1085.8290743316379
 31
0.0
  0
LINE
  5
358A
  8
AM_0
 10
559.02032111863446
 20
1054.7491743316371
 30
0.0
 11
690.22973111863439
 21
1052.458894331638
 31
0.0
  0
LINE
  5
358B
  8
AM_0
 10
559.02032111863446
 20
987.79598433163824
 30
0.0
 11
677.29754111863451
 21
984.69876433163813
 31
0.0
  0
LINE
  5
358C
  8
AM_0
 10
545.9417111186342
 20
964.33193433163763
 30
0.0
 11
697.15118111863433
 21
960.37240433163834
 31
0.0
  0
ARC
  5
358D
  8
AM_0
 10
488.52031111863448
 20
1019.510464331637
 30
0.0
 40
4.0
 50
0.0
 51
89.000001000002214
  0
ARC
  5
358E
  8
AM_0
 10
502.52031111863431
 20
1015.226714331638
 30
0.0
 40
10.0
 50
179.9999899999988
 51
270.0
  0
LINE
  5
358F
  8
AM_0
 10
435.52031111863522
 20
1022.226714331638
 30
0.0
 11
446.52031111863448
 21
1022.226714331638
 31
0.0
  0
LINE
  5
3590
  8
AM_0
 10
434.52031111863539
 20
1023.226774331638
 30
0.0
 11
435.52031111863522
 21
1022.226774331637
 31
0.0
  0
LINE
  5
3591
  8
AM_0
 10
448.02911111863432
 20
1024.2178643316381
 30
0.0
 11
488.59011111863452
 21
1023.5098543316381
 31
0.0
  0
ARC
  5
3592
  8
AM_0
 10
448.02031111863522
 20
1023.717924331638
 30
0.0
 40
0.5
 50
89.000001000002214
 51
180.00001000000091
  0
ARC
  5
3593
  8
AM_0
 10
446.52031111863448
 20
1023.226714331638
 30
0.0
 40
1.0
 50
270.0
 51
0.0
  0
LINE
  5
3594
  8
AM_0
 10
435.49921111863421
 20
1065.789764331638
 30
0.0
 11
446.52811111863429
 21
1065.789764331638
 31
0.0
  0
LINE
  5
3595
  8
AM_0
 10
434.52031111863539
 20
1056.0558743316381
 30
0.0
 11
445.52031111863539
 21
1056.0558743316381
 31
0.0
  0
LINE
  5
3596
  8
AM_0
 10
434.52031111863539
 20
1040.499544331637
 30
0.0
 11
445.52031111863539
 21
1040.499544331637
 31
0.0
  0
LINE
  5
3597
  8
AM_0
 10
447.52031111863528
 20
1068.394314331638
 30
0.0
 11
492.52031111863448
 21
1068.394314331638
 31
0.0
  0
LINE
  5
3598
  8
AM_0
 10
447.52031111863528
 20
1049.1437643316381
 30
0.0
 11
492.52031111863448
 21
1049.1437643316381
 31
0.0
  0
ARC
  5
3599
  8
AM_0
 10
445.52031111863539
 20
1042.4995443316379
 30
0.0
 40
2.0
 50
270.0
 51
0.0
  0
ARC
  5
359A
  8
AM_0
 10
445.52031111863539
 20
1058.0558743316381
 30
0.0
 40
2.0
 50
270.0
 51
0.0
  0
LINE
  5
359B
  8
AM_0
 10
543.02031111863425
 20
1112.298214331636
 30
0.0
 11
543.02031111863425
 21
954.45407433163825
 31
0.0
  0
LINE
  5
359C
  8
AM_0
 10
546.02031111863425
 20
973.22671433163805
 30
0.0
 11
559.02032111863446
 21
973.22671433163805
 31
0.0
  0
LINE
  5
359D
  8
AM_0
 10
546.02031111863425
 20
987.79598433163824
 30
0.0
 11
559.02032111863446
 21
987.79598433163824
 31
0.0
  0
ARC
  5
359E
  8
AM_0
 10
546.02031111863425
 20
954.45407433163825
 30
0.0
 40
3.0
 50
179.9999899999988
 51
269.0000099999981
  0
ARC
  5
359F
  8
AM_0
 10
546.02031111863425
 20
967.33096433163814
 30
0.0
 40
3.0
 50
179.9999899999988
 51
268.50000999999878
  0
ARC
  5
35A0
  8
AM_0
 10
546.02031111863425
 20
976.22671433163816
 30
0.0
 40
3.0
 50
179.9999899999988
 51
270.0
  0
LINE
  5
35A1
  8
AM_0
 10
502.52031111863431
 20
1005.226714331638
 30
0.0
 11
539.02031111863437
 21
1005.226714331638
 31
0.0
  0
ARC
  5
35A2
  8
AM_0
 10
539.02031111863437
 20
1001.226714331638
 30
0.0
 40
4.0
 50
0.0
 51
90.00000299999769
  0
ARC
  5
35A3
  8
AM_0
 10
546.02031111863425
 20
990.79598433163744
 30
0.0
 40
3.0
 50
179.9999899999988
 51
270.0
  0
LINE
  5
35A4
  8
AM_0
 10
543.02031111863425
 20
1055.226714331638
 30
0.0
 11
559.02032111863446
 21
1055.226714331638
 31
0.0
  0
LINE
  5
35A5
  8
AM_0
 10
559.02032111863446
 20
1083.5388443316381
 30
0.0
 11
543.02031111863425
 21
1083.5388443316381
 31
0.0
  0
ARC
  5
35A6
  8
AM_0
 10
535.02031111863437
 20
1112.298214331636
 30
0.0
 40
8.0
 50
0.0
 51
85.903958999999659
  0
LINE
  5
35A7
  8
AM_0
 10
734.02032111863423
 20
910.22671433163816
 30
0.0
 11
714.02032111863434
 21
910.22671433163816
 31
0.0
  0
ARC
  5
35A8
  8
AM_0
 10
707.02032111863434
 20
917.76937433163823
 30
0.0
 40
5.0
 50
179.9999899999988
 51
270.0
  0
ARC
  5
35A9
  8
AM_0
 10
714.02032111863434
 20
911.22671433163805
 30
0.0
 40
1.0
 50
179.9999899999988
 51
270.0
  0
ARC
  5
35AA
  8
AM_0
 10
712.02032111863446
 20
911.76937433163812
 30
0.0
 40
1.0
 50
0.0
 51
90.00000299999769
  0
LINE
  5
35AB
  8
AM_0
 10
713.02032111863434
 20
911.22671433163805
 30
0.0
 11
713.02032111863434
 21
911.76937433163812
 31
0.0
  0
LINE
  5
35AC
  8
AM_0
 10
712.02032111863446
 20
912.76937433163789
 30
0.0
 11
707.02032111863434
 21
912.76937433163789
 31
0.0
  0
LINE
  5
35AD
  8
AM_0
 10
660.23443111863435
 20
1009.287934331638
 30
0.0
 11
694.28644111863434
 21
1009.287934331638
 31
0.0
  0
LINE
  5
35AE
  8
AM_0
 10
656.57489111863447
 20
1001.634184331636
 30
0.0
 11
702.02032111863446
 21
964.49435433163808
 31
0.0
  0
LINE
  5
35AF
  8
AM_0
 10
656.57489111863447
 20
1009.287934331638
 30
0.0
 11
702.02032111863446
 21
971.49435433163808
 31
0.0
  0
ARC
  5
35B0
  8
AM_0
 10
690.02032111863434
 20
936.93826433163815
 30
0.0
 40
12.0
 50
0.0
 51
89.000001000002214
  0
LINE
  5
35B1
  8
AM_0
 10
702.02032111863446
 20
973.60031433163806
 30
0.0
 11
709.02032111863446
 21
973.60031433163806
 31
0.0
  0
ARC
  5
35B2
  8
AM_0
 10
697.02032111863434
 20
955.37411433163766
 30
0.0
 40
5.0
 50
0.0
 51
88.499997000000647
  0
ARC
  5
35B3
  8
AM_0
 10
709.02032111863446
 20
977.60031433163817
 30
0.0
 40
4.0
 50
270.0
 51
0.0
  0
ARC
  5
35B4
  8
AM_0
 10
697.02032111863434
 20
1004.287934331637
 30
0.0
 40
5.0
 50
0.0
 51
90.00000299999769
  0
ARC
  5
35B5
  8
AM_0
 10
690.02032111863434
 20
1040.460724331637
 30
0.0
 40
12.0
 50
0.0
 51
89.000001000002214
  0
LINE
  5
35B6
  8
AM_0
 10
702.02032111863446
 20
1035.0028943316379
 30
0.0
 11
709.02032111863446
 21
1035.0028943316379
 31
0.0
  0
ARC
  5
35B7
  8
AM_0
 10
690.02032111863434
 20
1097.8272143316381
 30
0.0
 40
12.0
 50
271.00000000000171
 51
0.0
  0
LINE
  5
35B8
  8
AM_0
 10
734.02032111863423
 20
945.22671433163805
 30
0.0
 11
740.02032111863423
 21
945.22671433163805
 31
0.0
  0
LINE
  5
35B9
  8
AM_0
 10
740.02032111863423
 20
1102.726714331638
 30
0.0
 11
746.02032111863423
 21
1102.726714331638
 31
0.0
  0
LINE
  5
35BA
  8
AM_0
 10
559.02032111863446
 20
1225.704214331638
 30
0.0
 11
690.22973111863439
 21
1227.994514331637
 31
0.0
  0
LINE
  5
35BB
  8
AM_0
 10
559.02032111863446
 20
1196.9146143316359
 30
0.0
 11
690.22980111863433
 21
1194.624314331636
 31
0.0
  0
LINE
  5
35BC
  8
AM_0
 10
545.94181111863429
 20
1316.1214143316381
 30
0.0
 11
697.15118111863433
 21
1320.080914331638
 31
0.0
  0
LINE
  5
35BD
  8
AM_0
 10
559.02032111863446
 20
1292.657514331637
 30
0.0
 11
677.29754111863451
 21
1295.7547143316381
 31
0.0
  0
LINE
  5
35BE
  8
AM_0
 10
545.96791111863536
 20
1328.9989143316379
 30
0.0
 11
690.22973111863439
 21
1331.517014331637
 31
0.0
  0
LINE
  5
35BF
  8
AM_0
 10
559.02032111863446
 20
1307.226714331638
 30
0.0
 11
694.22284111863451
 21
1309.586614331638
 31
0.0
  0
ARC
  5
35C0
  8
AM_0
 10
487.52031111863539
 20
1261.9257143316379
 30
0.0
 40
5.0
 50
271.00000000000171
 51
0.0
  0
ARC
  5
35C1
  8
AM_0
 10
502.52031111863431
 20
1265.226714331636
 30
0.0
 40
10.0
 50
90.00000299999769
 51
180.00001000000091
  0
LINE
  5
35C2
  8
AM_0
 10
434.52031111863539
 20
1257.226714331636
 30
0.0
 11
434.52031111863539
 21
1140.226714331636
 31
0.0
  0
LINE
  5
35C3
  8
AM_0
 10
447.52031111863528
 20
1257.226714331636
 30
0.0
 11
447.52031111863528
 21
1140.226714331636
 31
0.0
  0
LINE
  5
35C4
  8
AM_0
 10
434.52031111863539
 20
1224.397614331637
 30
0.0
 11
445.52031111863539
 21
1224.397614331637
 31
0.0
  0
LINE
  5
35C5
  8
AM_0
 10
435.49921111863421
 20
1214.6637143316379
 30
0.0
 11
446.52811111863429
 21
1214.6637143316379
 31
0.0
  0
LINE
  5
35C6
  8
AM_0
 10
447.52031111863528
 20
1212.0591143316369
 30
0.0
 11
492.52031111863448
 21
1212.0591143316369
 31
0.0
  0
ARC
  5
35C7
  8
AM_0
 10
445.52031111863539
 20
1222.397614331637
 30
0.0
 40
2.0
 50
0.0
 51
90.00000299999769
  0
LINE
  5
35C8
  8
AM_0
 10
435.52031111863522
 20
1258.2267143316369
 30
0.0
 11
446.52031111863448
 21
1258.2267143316369
 31
0.0
  0
LINE
  5
35C9
  8
AM_0
 10
434.52031111863539
 20
1239.9540143316381
 30
0.0
 11
445.52031111863539
 21
1239.9540143316381
 31
0.0
  0
LINE
  5
35CA
  8
AM_0
 10
448.02911111863432
 20
1256.235614331637
 30
0.0
 11
487.60761111863428
 21
1256.9264143316379
 31
0.0
  0
LINE
  5
35CB
  8
AM_0
 10
447.52031111863528
 20
1231.3097143316361
 30
0.0
 11
492.52031111863448
 21
1231.3097143316361
 31
0.0
  0
ARC
  5
35CC
  8
AM_0
 10
445.52031111863539
 20
1237.954014331636
 30
0.0
 40
2.0
 50
0.0
 51
90.00000299999769
  0
ARC
  5
35CD
  8
AM_0
 10
446.52031111863448
 20
1257.226714331636
 30
0.0
 40
1.0
 50
0.0
 51
90.00000299999769
  0
ARC
  5
35CE
  8
AM_0
 10
448.02031111863522
 20
1256.7355143316361
 30
0.0
 40
0.5
 50
179.9999899999988
 51
271.00000000000171
  0
LINE
  5
35CF
  8
AM_0
 10
543.02031111863425
 20
1325.999314331636
 30
0.0
 11
543.02031111863425
 21
1168.155214331636
 31
0.0
  0
LINE
  5
35D0
  8
AM_0
 10
559.02032111863446
 20
1329.226714331636
 30
0.0
 11
559.02032111863446
 21
1146.4767143316369
 31
0.0
  0
ARC
  5
35D1
  8
AM_0
 10
537.02031111863425
 20
1140.226714331636
 30
0.0
 40
15.0
 50
24.624318000003381
 51
155.3756800000024
  0
ARC
  5
35D2
  8
AM_0
 10
537.02031111863425
 20
1140.226714331636
 30
0.0
 40
20.0
 50
18.209957000000301
 51
161.7900400000014
  0
LINE
  5
35D3
  8
AM_0
 10
559.02032111863446
 20
1196.9147143316361
 30
0.0
 11
543.02031111863425
 21
1196.9147143316361
 31
0.0
  0
LINE
  5
35D4
  8
AM_0
 10
543.02031111863425
 20
1225.2267143316369
 30
0.0
 11
559.02032111863446
 21
1225.2267143316369
 31
0.0
  0
LINE
  5
35D5
  8
AM_0
 10
513.27031111863505
 20
1146.4767143316369
 30
0.0
 11
560.77032111863446
 21
1146.4767143316369
 31
0.0
  0
LINE
  5
35D6
  8
AM_0
 10
513.27031111863505
 20
1133.976714331636
 30
0.0
 11
560.77032111863446
 21
1133.976714331636
 31
0.0
  0
ARC
  5
35D7
  8
AM_0
 10
513.27031111863505
 20
1140.226714331636
 30
0.0
 40
6.25
 50
90.00000299999769
 51
270.0
  0
ARC
  5
35D8
  8
AM_0
 10
535.02031111863437
 20
1168.155214331636
 30
0.0
 40
8.0
 50
274.09603999999791
 51
0.0
  0
ARC
  5
35D9
  8
AM_0
 10
560.77032111863446
 20
1140.226714331636
 30
0.0
 40
6.25
 50
270.0
 51
90.00000299999769
  0
CIRCLE
  5
35DA
  8
AM_0
 10
589.02032111863446
 20
1140.226714331636
 30
0.0
 40
10.0
  0
LINE
  5
35DB
  8
AM_0
 10
594.79382111863436
 20
1140.226714331636
 30
0.0
 11
591.90710111863439
 21
1145.2267143316369
 31
0.0
  0
LINE
  5
35DC
  8
AM_0
 10
591.90704111863431
 20
1135.2267143316369
 30
0.0
 11
594.79382111863436
 21
1140.226714331636
 31
0.0
  0
LINE
  5
35DD
  8
AM_0
 10
591.90710111863439
 20
1145.2267143316369
 30
0.0
 11
586.1335411186343
 21
1145.2267143316369
 31
0.0
  0
LINE
  5
35DE
  8
AM_0
 10
586.1335411186343
 20
1135.2267143316369
 30
0.0
 11
591.90710111863439
 21
1135.2267143316369
 31
0.0
  0
LINE
  5
35DF
  8
AM_0
 10
583.24682111863433
 20
1140.226714331636
 30
0.0
 11
586.1335411186343
 21
1135.2267143316369
 31
0.0
  0
LINE
  5
35E0
  8
AM_0
 10
586.1335411186343
 20
1145.2267143316369
 30
0.0
 11
583.24682111863433
 21
1140.226714331636
 31
0.0
  0
LINE
  5
35E1
  8
AM_0
 10
546.02031111863425
 20
1307.226714331638
 30
0.0
 11
559.02032111863446
 21
1307.226714331638
 31
0.0
  0
LINE
  5
35E2
  8
AM_0
 10
546.02031111863425
 20
1292.657514331637
 30
0.0
 11
559.02032111863446
 21
1292.657514331637
 31
0.0
  0
LINE
  5
35E3
  8
AM_0
 10
539.02031111863437
 20
1275.2267143316369
 30
0.0
 11
502.52031111863431
 21
1275.2267143316369
 31
0.0
  0
ARC
  5
35E4
  8
AM_0
 10
539.02031111863437
 20
1279.226714331636
 30
0.0
 40
4.0
 50
270.0
 51
0.0
  0
ARC
  5
35E5
  8
AM_0
 10
546.02031111863425
 20
1304.2267143316369
 30
0.0
 40
3.0
 50
90.00000299999769
 51
180.00001000000091
  0
ARC
  5
35E6
  8
AM_0
 10
546.02031111863425
 20
1289.657514331637
 30
0.0
 40
3.0
 50
90.00000299999769
 51
180.00001000000091
  0
ARC
  5
35E7
  8
AM_0
 10
546.02031111863425
 20
1325.999314331636
 30
0.0
 40
3.0
 50
90.999997000003077
 51
180.00001000000091
  0
ARC
  5
35E8
  8
AM_0
 10
546.02031111863425
 20
1313.1225143316381
 30
0.0
 40
3.0
 50
91.500001000001546
 51
180.00001000000091
  0
ARC
  5
35E9
  8
AM_0
 10
690.02032111863434
 20
1343.5152143316379
 30
0.0
 40
12.0
 50
271.00000000000171
 51
0.0
  0
ARC
  5
35EA
  8
AM_0
 10
690.02032111863434
 20
1239.992714331637
 30
0.0
 40
12.0
 50
271.00000000000171
 51
0.0
  0
LINE
  5
35EB
  8
AM_0
 10
659.57489111863435
 20
1147.2267143316369
 30
0.0
 11
702.02032111863446
 21
1147.2267143316369
 31
0.0
  0
LINE
  5
35EC
  8
AM_0
 10
659.57489111863435
 20
1133.2267143316369
 30
0.0
 11
702.02032111863446
 21
1133.2267143316369
 31
0.0
  0
ARC
  5
35ED
  8
AM_0
 10
659.57489111863435
 20
1150.2267143316369
 30
0.0
 40
3.0
 50
179.9999899999988
 51
270.0
  0
ARC
  5
35EE
  8
AM_0
 10
659.57489111863435
 20
1130.226714331636
 30
0.0
 40
3.0
 50
90.00000299999769
 51
180.00001000000091
  0
ARC
  5
35EF
  8
AM_0
 10
690.02032111863434
 20
1182.6261143316381
 30
0.0
 40
12.0
 50
0.0
 51
89.000001000002214
  0
LINE
  5
35F0
  8
AM_0
 10
656.57483111863439
 20
1271.1655143316359
 30
0.0
 11
702.02026111863427
 21
1308.9591143316379
 31
0.0
  0
LINE
  5
35F1
  8
AM_0
 10
656.57489111863447
 20
1278.819214331638
 30
0.0
 11
702.02032111863446
 21
1315.9591143316379
 31
0.0
  0
LINE
  5
35F2
  8
AM_0
 10
660.23443111863435
 20
1271.1655143316359
 30
0.0
 11
694.28644111863434
 21
1271.1655143316359
 31
0.0
  0
LINE
  5
35F3
  8
AM_0
 10
702.02032111863446
 20
1245.4506143316371
 30
0.0
 11
709.02032111863446
 21
1245.4506143316371
 31
0.0
  0
ARC
  5
35F4
  8
AM_0
 10
697.02032111863434
 20
1276.165514331638
 30
0.0
 40
5.0
 50
270.0
 51
0.0
  0
ARC
  5
35F5
  8
AM_0
 10
709.02032111863446
 20
1302.853014331637
 30
0.0
 40
4.0
 50
0.0
 51
90.00000299999769
  0
LINE
  5
35F6
  8
AM_0
 10
702.02032111863446
 20
1306.853014331638
 30
0.0
 11
709.02032111863446
 21
1306.853014331638
 31
0.0
  0
LINE
  5
35F7
  8
AM_0
 10
702.02032111863446
 20
1306.853014331638
 30
0.0
 11
709.02032111863446
 21
1306.853014331638
 31
0.0
  0
ARC
  5
35F8
  8
AM_0
 10
697.02032111863434
 20
1325.079214331638
 30
0.0
 40
5.0
 50
271.50000000000261
 51
0.0
  0
LINE
  5
35F9
  8
AM_0
 10
740.02032111863423
 20
1177.7267143316369
 30
0.0
 11
746.02032111863423
 21
1177.7267143316369
 31
0.0
  0
ARC
  5
35FA
  8
AM_0
 10
771.02032111863423
 20
1140.226714331636
 30
0.0
 40
10.0
 50
90.00000299999769
 51
270.0
  0
LINE
  5
35FB
  8
AM_0
 10
771.02032111863423
 20
1150.2267143316369
 30
0.0
 11
771.02032111863423
 21
1130.226714331636
 31
0.0
  0
LINE
  5
35FC
  8
AM_0
 10
734.02032111863423
 20
1370.2267143316369
 30
0.0
 11
714.02032111863434
 21
1370.2267143316369
 31
0.0
  0
ARC
  5
35FD
  8
AM_0
 10
707.02032111863434
 20
1362.6841143316381
 30
0.0
 40
5.0
 50
90.00000299999769
 51
180.00001000000091
  0
ARC
  5
35FE
  8
AM_0
 10
707.02032111863434
 20
1362.6841143316381
 30
0.0
 40
5.0
 50
90.00000299999769
 51
180.00001000000091
  0
ARC
  5
35FF
  8
AM_0
 10
712.02032111863446
 20
1368.6841143316369
 30
0.0
 40
1.0
 50
270.0
 51
0.0
  0
ARC
  5
3600
  8
AM_0
 10
714.02032111863434
 20
1369.2267143316369
 30
0.0
 40
1.0
 50
90.00000299999769
 51
180.00001000000091
  0
LINE
  5
3601
  8
AM_0
 10
712.02032111863446
 20
1367.6841143316369
 30
0.0
 11
707.02032111863434
 21
1367.6841143316369
 31
0.0
  0
LINE
  5
3602
  8
AM_0
 10
713.02032111863434
 20
1369.2267143316369
 30
0.0
 11
713.02032111863434
 21
1368.6841143316369
 31
0.0
  0
LINE
  5
3603
  8
AM_0
 10
740.02032111863423
 20
1335.226714331636
 30
0.0
 11
734.02032111863423
 21
1335.226714331636
 31
0.0
  0
LINE
  5
3604
  8
AM_0
 10
856.02032111863446
 20
1175.2267143316369
 30
0.0
 11
856.02032111863446
 21
1105.226714331638
 31
0.0
  0
LINE
  5
3605
  8
AM_0
 10
434.52031111863539
 20
1257.226714331636
 30
0.0
 11
435.52031111863522
 21
1258.2267143316369
 31
0.0
  0
LINE
  5
3606
  8
AM_0
 10
559.02032111863434
 20
673.97028091442985
 30
0.0
 11
559.02032111863434
 21
254.00782291442979
 31
0.0
  0
LINE
  5
3607
  8
AM_0
 10
734.02034111863429
 20
752.97024091443006
 30
0.0
 11
734.02034111863429
 21
292.97025691443002
 31
0.0
  0
LINE
  5
3608
  8
AM_0
 10
740.02034111863429
 20
327.97026091443001
 30
0.0
 11
740.02034111863429
 21
717.97032091442998
 31
0.0
  0
LINE
  5
3609
  8
AM_0
 10
713.02034111863429
 20
686.59662091442999
 30
0.0
 11
713.02034111863429
 21
362.46757291442992
 31
0.0
  0
LINE
  5
360A
  8
AM_0
 10
702.02036111863481
 20
298.79478091442991
 30
0.0
 11
702.02036111863481
 21
747.42762091442978
 31
0.0
  0
LINE
  5
360B
  8
AM_0
 10
543.0203611186347
 20
669.97026091443001
 30
0.0
 11
543.0203611186347
 21
256.00783891442973
 31
0.0
  0
LINE
  5
360C
  8
AM_0
 10
517.02032111863434
 20
673.97028091442985
 30
0.0
 11
517.02032111863434
 21
629.31066091443006
 31
0.0
  0
ARC
  5
360D
  8
AM_0
 10
650.25368111863452
 20
289.37769691442992
 30
0.0
 40
25.911341399999991
 50
274.10136000000182
 51
343.0088899999987
  0
ARC
  5
360E
  8
AM_0
 10
653.66330111863431
 20
280.0469469144299
 30
0.0
 40
28.5191868
 50
266.87149999999912
 51
354.92327000000222
  0
LINE
  5
360F
  8
AM_0
 10
652.10684111863395
 20
251.57028091442999
 30
0.0
 11
652.10684111863395
 21
263.53274491442983
 31
0.0
  0
LINE
  5
3610
  8
AM_0
 10
559.02032111863434
 20
254.0078109144298
 30
0.0
 11
652.10684111863395
 21
251.5702629144298
 31
0.0
  0
LINE
  5
3611
  8
AM_0
 10
545.02034111863406
 20
254.00782291442979
 30
0.0
 11
559.02032111863434
 21
254.00782291442979
 31
0.0
  0
ARC
  5
3612
  8
AM_0
 10
545.02034111863406
 20
256.00783891442973
 30
0.0
 40
2.0000000399999971
 50
179.9999899999988
 51
270.0
  0
LINE
  5
3613
  8
AM_0
 10
559.02032111863434
 20
406.97026291442972
 30
0.0
 11
692.28212111863422
 21
410.45985691442979
 31
0.0
  0
LINE
  5
3614
  8
AM_0
 10
559.02032111863434
 20
372.97026091443001
 30
0.0
 11
692.28206111863426
 21
369.48066691443
 31
0.0
  0
LINE
  5
3615
  8
AM_0
 10
652.10678111863433
 20
263.53271491442968
 30
0.0
 11
543.0203611186347
 21
266.38923691442972
 31
0.0
  0
LINE
  5
3616
  8
AM_0
 10
543.0203611186347
 20
291.12800491442982
 30
0.0
 11
676.10684111863395
 21
287.64301891442989
 31
0.0
  0
LINE
  5
3617
  8
AM_0
 10
559.02032111863434
 20
644.25612091442974
 30
0.0
 11
692.19488111863404
 21
641.93160091442985
 31
0.0
  0
LINE
  5
3618
  8
AM_0
 10
559.02032111863434
 20
564.65694091442981
 30
0.0
 11
692.28200111863418
 21
568.14656491442975
 31
0.0
  0
LINE
  5
3619
  8
AM_0
 10
559.02032111863434
 20
532.06459291442991
 30
0.0
 11
692.28212111863422
 21
528.57496891442975
 31
0.0
  0
LINE
  5
361A
  8
ﾁｭｳｼﾝｾﾝ
 10
522.73402532801697
 20
522.97029691442992
 30
0.0
 11
861.02030111863439
 21
522.97029691442992
 31
0.0
  0
LINE
  5
361B
  8
AM_0
 10
373.52032111863429
 20
607.37025691443012
 30
0.0
 11
373.52032111863429
 21
460.37025691442989
 31
0.0
  0
LINE
  5
361C
  8
AM_0
 10
353.52032111863417
 20
610.37025691443012
 30
0.0
 11
353.52032111863417
 21
310.37025691442972
 31
0.0
  0
LINE
  5
361D
  8
AM_0
 10
447.52034111863429
 20
577.37026291442999
 30
0.0
 11
447.52034111863429
 21
460.37025691442977
 31
0.0
  0
LINE
  5
361E
  8
AM_0
 10
434.52032111863429
 20
578.37019891443003
 30
0.0
 11
434.52032111863429
 21
342.37025491443001
 31
0.0
  0
LINE
  5
361F
  8
AM_0
 10
492.52034111863429
 20
577.12441291442985
 30
0.0
 11
492.52034111863429
 21
346.18479691442991
 31
0.0
  0
LINE
  5
3620
  8
AM_0
 10
434.52032111863429
 20
360.64305091442992
 30
0.0
 11
445.52036111863458
 21
360.64305091442992
 31
0.0
  0
LINE
  5
3621
  8
AM_0
 10
434.52032111863429
 20
342.37025491443001
 30
0.0
 11
446.52032111863429
 21
342.37025491443001
 31
0.0
  0
LINE
  5
3622
  8
ﾁｭｳｼﾝｾﾝ
 10
340.65630090273078
 20
460.37025691442977
 30
0.0
 11
552.0671393911523
 21
460.37025691442977
 31
0.0
  0
LINE
  5
3623
  8
AM_0
 10
434.52032111863429
 20
376.19941891442971
 30
0.0
 11
445.52036111863458
 21
376.19941891442971
 31
0.0
  0
LINE
  5
3624
  8
AM_0
 10
435.49934111863428
 20
385.9333029144297
 30
0.0
 11
446.52818111863428
 21
385.9333029144297
 31
0.0
  0
LINE
  5
3625
  8
AM_0
 10
404.52032111863429
 20
361.64929891443001
 30
0.0
 11
404.52032111863429
 21
373.12950091443003
 31
0.0
  0
LINE
  5
3626
  8
AM_0
 10
432.52032111863429
 20
377.19939691443
 30
0.0
 11
432.52032111863429
 21
361.64304791442999
 31
0.0
  0
LINE
  5
3627
  8
AM_0
 10
431.52093111863428
 20
376.16449791443
 30
0.0
 11
431.52093111863428
 21
360.60814791443011
 31
0.0
  0
ARC
  5
3628
  8
AM_0
 10
378.5203211186344
 20
359.12376391443019
 30
0.0
 40
5.0
 50
114.0451930000003
 51
180.0
  0
LINE
  5
3629
  8
AM_0
 10
373.52032111863429
 20
313.37025691442989
 30
0.0
 11
373.52032111863429
 21
460.37025691442989
 31
0.0
  0
LINE
  5
362A
  8
AM_0
 10
353.52032111863417
 20
310.37025691442972
 30
0.0
 11
370.52032111863429
 21
310.37025691442972
 31
0.0
  0
ARC
  5
362B
  8
AM_0
 10
370.52032111863429
 20
313.37025691442989
 30
0.0
 40
3.0
 50
270.0
 51
0.0
  0
LINE
  5
362C
  8
AM_0
 10
434.52032111863429
 20
342.37025685447782
 30
0.0
 11
378.38943711863419
 21
340.90041791443002
 31
0.0
  0
ARC
  5
362D
  8
AM_0
 10
403.29060911863399
 20
354.61927591442998
 30
0.0
 40
5.0
 50
92.000000000003666
 51
114.0451930000003
  0
ARC
  5
362E
  8
AM_0
 10
378.5203211186344
 20
335.90213191443002
 30
0.0
 40
5.0
 50
91.499999999989626
 51
180.0
  0
LINE
  5
362F
  8
AM_0
 10
376.48303611863412
 20
348.13353591443001
 30
0.0
 11
401.25332311863428
 21
359.18539791443021
 31
0.0
  0
ARC
  5
3630
  8
AM_0
 10
378.5203211186344
 20
343.56741491442989
 30
0.0
 40
5.0
 50
114.0451930000003
 51
180.0
  0
LINE
  5
3631
  8
AM_0
 10
403.11611111863363
 20
359.61622991442999
 30
0.0
 11
431.52093111863428
 21
360.60814791443011
 31
0.0
  0
LINE
  5
3632
  8
AM_0
 10
431.52093111863428
 20
360.60814791443011
 30
0.0
 11
432.52032111863429
 21
361.64304791442999
 31
0.0
  0
LINE
  5
3633
  8
AM_0
 10
430.82332911863432
 20
385.83649691443009
 30
0.0
 11
378.38943711863419
 21
384.46346691443
 31
0.0
  0
ARC
  5
3634
  8
AM_0
 10
403.29060911863399
 20
370.17562491442982
 30
0.0
 40
5.0
 50
92.000000000003666
 51
114.0451930000003
  0
LINE
  5
3635
  8
AM_0
 10
376.48303611863412
 20
363.68988591443002
 30
0.0
 11
401.25332311863428
 21
374.74174691443011
 31
0.0
  0
ARC
  5
3636
  8
AM_0
 10
378.5203211186344
 20
379.46517991443
 30
0.0
 40
5.0
 50
91.499999999989626
 51
150.72089099998681
  0
LINE
  5
3637
  8
AM_0
 10
431.52093111863428
 20
376.16449791443
 30
0.0
 11
403.11611111863363
 21
375.17257891443001
 31
0.0
  0
LINE
  5
3638
  8
AM_0
 10
431.52093111863428
 20
376.16449791443
 30
0.0
 11
432.52032111863429
 21
377.19939691443
 31
0.0
  0
LINE
  5
3639
  8
AM_0
 10
432.52032111863429
 20
384.34674991443001
 30
0.0
 11
432.52032111863429
 21
377.19939691443
 31
0.0
  0
POINT
  5
363A
  8
AM_0
 10
434.52032111863429
 20
460.37025691442977
 30
0.0
  0
LINE
  5
363B
  8
AM_0
 10
447.52034111863429
 20
343.37025691442989
 30
0.0
 11
447.52034111863429
 21
460.37025691442977
 31
0.0
  0
LINE
  5
363C
  8
AM_0
 10
541.08236111863425
 20
288.75614491442991
 30
0.0
 11
497.36534111863449
 21
315.05555491442982
 31
0.0
  0
LINE
  5
363D
  8
AM_0
 10
448.0290211186342
 20
344.36137291442992
 30
0.0
 11
488.59016111863428
 21
343.65339691443
 31
0.0
  0
ARC
  5
363E
  8
AM_0
 10
445.52036111863458
 20
362.64304891442993
 30
0.0
 40
2.0000000399999971
 50
270.0
 51
0.0
  0
ARC
  5
363F
  8
AM_0
 10
446.52032111863429
 20
343.37025691442989
 30
0.0
 40
1.0000000199999981
 50
270.0
 51
0.0
  0
ARC
  5
3640
  8
AM_0
 10
448.02032111863429
 20
343.86146491442992
 30
0.0
 40
0.500000016
 50
89.000000999989069
 51
180.00001000000091
  0
LINE
  5
3641
  8
AM_0
 10
492.52034111863429
 20
339.65400691442989
 30
0.0
 11
492.52034111863429
 21
323.62449691442993
 31
0.0
  0
ARC
  5
3642
  8
AM_0
 10
502.5203611186347
 20
323.62449691442993
 30
0.0
 40
9.9999996000000007
 50
179.9999899999988
 51
238.96955000001051
  0
ARC
  5
3643
  8
AM_0
 10
488.52044111863449
 20
339.65400691442989
 30
0.0
 40
4.00000014
 50
0.0
 51
89.000000999989069
  0
ARC
  5
3644
  8
AM_0
 10
539.02034111863429
 20
285.32856691442993
 30
0.0
 40
4.00000014
 50
0.0
 51
58.969551999996732
  0
LINE
  5
3645
  8
AM_0
 10
447.52034111863429
 20
369.28731091443001
 30
0.0
 11
492.52034111863429
 21
369.28731091443001
 31
0.0
  0
LINE
  5
3646
  8
AM_0
 10
447.52034111863429
 20
388.53789091442991
 30
0.0
 11
492.52034111863429
 21
388.53789091442991
 31
0.0
  0
ARC
  5
3647
  8
AM_0
 10
445.52036111863458
 20
378.19941691442972
 30
0.0
 40
2.0000000399999971
 50
270.0
 51
0.0
  0
LINE
  5
3648
  8
AM_0
 10
543.0203611186347
 20
372.97026091443001
 30
0.0
 11
559.02032111863434
 21
372.97026091443001
 31
0.0
  0
LINE
  5
3649
  8
AM_0
 10
543.0203611186347
 20
406.97029291442959
 30
0.0
 11
559.02032111863434
 21
406.97029291442959
 31
0.0
  0
LINE
  5
364A
  8
AM_0
 10
435.49934111863428
 20
534.8072109144299
 30
0.0
 11
446.52818111863428
 21
534.8072109144299
 31
0.0
  0
LINE
  5
364B
  8
AM_0
 10
434.52032111863429
 20
544.54109491442978
 30
0.0
 11
445.52036111863458
 21
544.54109491442978
 31
0.0
  0
LINE
  5
364C
  8
AM_0
 10
434.52032111863429
 20
560.09743291442999
 30
0.0
 11
445.52036111863458
 21
560.09743291442999
 31
0.0
  0
LINE
  5
364D
  8
AM_0
 10
434.52032111863429
 20
578.37019891443003
 30
0.0
 11
446.52032111863429
 21
578.37019891443003
 31
0.0
  0
LINE
  5
364E
  8
AM_0
 10
376.48303611863412
 20
572.60697791442999
 30
0.0
 11
401.25332311863428
 21
561.55511691443019
 31
0.0
  0
LINE
  5
364F
  8
AM_0
 10
430.82332911863432
 20
534.90401791443003
 30
0.0
 11
378.38943711863419
 21
536.27704791443
 31
0.0
  0
ARC
  5
3650
  8
AM_0
 10
403.29060911863399
 20
566.12123791443003
 30
0.0
 40
5.0
 50
245.95480699999951
 51
267.99999999999631
  0
ARC
  5
3651
  8
AM_0
 10
403.29060911863399
 20
550.56488891443007
 30
0.0
 40
5.0
 50
245.95480699999951
 51
267.99999999999631
  0
ARC
  5
3652
  8
AM_0
 10
378.5203211186344
 20
541.27533391443023
 30
0.0
 40
5.0
 50
209.27910900001291
 51
268.50000000001029
  0
LINE
  5
3653
  8
AM_0
 10
376.48303611863412
 20
557.05062891443015
 30
0.0
 11
401.25332311863428
 21
545.99876791442978
 31
0.0
  0
ARC
  5
3654
  8
AM_0
 10
378.5203211186344
 20
561.61675091442964
 30
0.0
 40
5.0
 50
180.0
 51
245.95480699999951
  0
LINE
  5
3655
  8
AM_0
 10
432.52032111863429
 20
536.39376391443
 30
0.0
 11
432.52032111863429
 21
543.54111791443017
 31
0.0
  0
LINE
  5
3656
  8
AM_0
 10
403.11611111863363
 20
561.12428391442995
 30
0.0
 11
431.52093111863428
 21
560.13236591443012
 31
0.0
  0
LINE
  5
3657
  8
AM_0
 10
431.52093111863428
 20
544.57601691443017
 30
0.0
 11
403.11611111863363
 21
545.56793491443
 31
0.0
  0
LINE
  5
3658
  8
AM_0
 10
404.52032111863429
 20
559.09121491442977
 30
0.0
 11
404.52032111863429
 21
547.61101391443015
 31
0.0
  0
LINE
  5
3659
  8
AM_0
 10
431.52093111863428
 20
560.13236591443012
 30
0.0
 11
432.52032111863429
 21
559.09746691443002
 31
0.0
  0
LINE
  5
365A
  8
AM_0
 10
431.52093111863428
 20
544.57601691443017
 30
0.0
 11
432.52032111863429
 21
543.54111791443017
 31
0.0
  0
LINE
  5
365B
  8
AM_0
 10
432.52032111863429
 20
543.54111791443017
 30
0.0
 11
432.52032111863429
 21
559.09746691443002
 31
0.0
  0
LINE
  5
365C
  8
AM_0
 10
431.52093111863428
 20
544.57601691443017
 30
0.0
 11
431.52093111863428
 21
560.13236591443012
 31
0.0
  0
LINE
  5
365D
  8
AM_0
 10
353.52032111863417
 20
610.37025691443012
 30
0.0
 11
370.52032111863429
 21
610.37025691443012
 31
0.0
  0
LINE
  5
365E
  8
AM_0
 10
434.52032111863429
 20
578.37025697438241
 30
0.0
 11
378.38943711863419
 21
579.84009591443009
 31
0.0
  0
ARC
  5
365F
  8
AM_0
 10
378.5203211186344
 20
577.17309991443017
 30
0.0
 40
5.0
 50
180.0
 51
245.95480699999951
  0
ARC
  5
3660
  8
AM_0
 10
378.5203211186344
 20
584.83838291442987
 30
0.0
 40
5.0
 50
180.0
 51
268.50000000001029
  0
ARC
  5
3661
  8
AM_0
 10
370.52032111863429
 20
607.37025691443012
 30
0.0
 40
3.0
 50
0.0
 51
90.0
  0
LINE
  5
3662
  8
AM_0
 10
447.52034111863429
 20
532.20271891442974
 30
0.0
 11
492.52034111863429
 21
532.20271891442974
 31
0.0
  0
LINE
  5
3663
  8
AM_0
 10
447.52034111863429
 20
551.45320891442975
 30
0.0
 11
492.52034111863429
 21
551.45320891442975
 31
0.0
  0
ARC
  5
3664
  8
AM_0
 10
445.52036111863458
 20
542.54109691442954
 30
0.0
 40
2.0000000399999971
 50
0.0
 51
90.000003000010722
  0
ARC
  5
3665
  8
AM_0
 10
445.52036111863458
 20
558.09749491442994
 30
0.0
 40
2.0000000399999971
 50
0.0
 51
90.000003000010722
  0
LINE
  5
3666
  8
AM_0
 10
559.02032111863434
 20
532.06453291442995
 30
0.0
 11
543.0203611186347
 21
532.06453291442995
 31
0.0
  0
LINE
  5
3667
  8
AM_0
 10
559.02032111863434
 20
564.65694091442981
 30
0.0
 11
543.0203611186347
 21
564.65694091442981
 31
0.0
  0
LINE
  5
3668
  8
AM_0
 10
541.50398111863456
 20
646.76910091442983
 30
0.0
 11
496.3113811186343
 21
610.97298091442985
 31
0.0
  0
LINE
  5
3669
  8
AM_0
 10
448.0290211186342
 20
576.37917091442989
 30
0.0
 11
487.60760111863431
 21
577.07002891442983
 31
0.0
  0
ARC
  5
366A
  8
AM_0
 10
448.02032111863429
 20
576.87904891442997
 30
0.0
 40
0.500000016
 50
179.9999899999988
 51
271.00000000000171
  0
ARC
  5
366B
  8
AM_0
 10
446.52032111863429
 20
577.37026291442999
 30
0.0
 40
1.0000000199999981
 50
0.0
 51
90.000003000010722
  0
LINE
  5
366C
  8
AM_0
 10
492.52034111863429
 20
603.13411891442991
 30
0.0
 11
492.52034111863429
 21
582.06923491443001
 31
0.0
  0
ARC
  5
366D
  8
AM_0
 10
487.52036111863453
 20
582.06923491443001
 30
0.0
 40
4.9999996800000002
 50
271.00000000000171
 51
0.0
  0
ARC
  5
366E
  8
AM_0
 10
502.5203611186347
 20
603.13411891442991
 30
0.0
 40
9.9999996000000007
 50
128.38200999999691
 51
180.00001000000091
  0
ARC
  5
366F
  8
AM_0
 10
513.02036111863436
 20
629.31066091443006
 30
0.0
 40
4.00000014
 50
308.3820099999968
 51
0.0
  0
LINE
  5
3670
  8
AM_0
 10
559.02032111863434
 20
644.25612091442974
 30
0.0
 11
543.0203611186347
 21
644.25612091442974
 31
0.0
  0
ARC
  5
3671
  8
AM_0
 10
539.02034111863429
 20
649.90476091442974
 30
0.0
 40
4.00000014
 50
308.3820099999968
 51
0.0
  0
ARC
  5
3672
  8
AM_0
 10
692.02034111863406
 20
359.48408491442979
 30
0.0
 40
9.9999996000000007
 50
0.0
 51
88.499996999987616
  0
ARC
  5
3673
  8
AM_0
 10
682.68476111863436
 20
279.46800091442998
 30
0.0
 40
8.0000003999999976
 50
88.499996999987616
 51
163.0088800000008
  0
LINE
  5
3674
  8
AM_0
 10
700.16390111863404
 20
291.89848291442991
 30
0.0
 11
672.3458611186345
 21
275.8377189144299
 31
0.0
  0
LINE
  5
3675
  8
AM_0
 10
652.10684111863395
 20
266.43293491442989
 30
0.0
 11
652.10684111863395
 21
283.99995091442992
 31
0.0
  0
LINE
  5
3676
  8
AM_0
 10
704.16392111863422
 20
292.97025691443002
 30
0.0
 11
734.02034111863429
 21
292.97025691443002
 31
0.0
  0
ARC
  5
3677
  8
AM_0
 10
690.03920111863431
 20
276.8153829144299
 30
0.0
 40
8.0000003999999976
 50
120.0000000000005
 51
174.92325999999809
  0
ARC
  5
3678
  8
AM_0
 10
705.02030111863439
 20
298.79478091442991
 30
0.0
 40
3.0000000600000001
 50
179.9999899999988
 51
270.0
  0
ARC
  5
3679
  8
AM_0
 10
712.02032111863434
 20
294.79475491442992
 30
0.0
 40
1.0000000199999981
 50
0.0
 51
90.000003000010722
  0
ARC
  5
367A
  8
AM_0
 10
714.02030111863428
 20
293.97025891442991
 30
0.0
 40
1.0000000199999981
 50
179.9999899999988
 51
270.0
  0
ARC
  5
367B
  8
AM_0
 10
704.16392111863422
 20
284.97025891442991
 30
0.0
 40
8.0000003999999976
 50
90.000003000010722
 51
120.0000000000005
  0
LINE
  5
367C
  8
AM_0
 10
713.02034111863429
 20
294.79475491442992
 30
0.0
 11
713.02034111863429
 21
293.97025891442991
 31
0.0
  0
LINE
  5
367D
  8
AM_0
 10
713.02034111863429
 20
295.2749469144299
 30
0.0
 11
713.02034111863429
 21
294.9702609144299
 31
0.0
  0
LINE
  5
367E
  8
AM_0
 10
705.02030111863439
 20
295.79475091442993
 30
0.0
 11
712.02032111863434
 21
295.79475091442993
 31
0.0
  0
ARC
  5
367F
  8
AM_0
 10
710.02034111863429
 20
362.46757291442992
 30
0.0
 40
3.0000000600000001
 50
270.0
 51
0.0
  0
ARC
  5
3680
  8
AM_0
 10
705.02030111863439
 20
356.46757291442992
 30
0.0
 40
3.0000000600000001
 50
90.000003000010722
 51
180.00001000000091
  0
LINE
  5
3681
  8
AM_0
 10
705.02030111863439
 20
359.46757291442992
 30
0.0
 11
710.02034111863429
 21
359.46757291442992
 31
0.0
  0
LINE
  5
3682
  8
AM_0
 10
734.02034111863429
 20
327.97026091443001
 30
0.0
 11
740.02034111863429
 21
327.97026091443001
 31
0.0
  0
ARC
  5
3683
  8
AM_0
 10
692.02034111863406
 20
420.45646891442959
 30
0.0
 40
9.9999996000000007
 50
271.49999999998948
 51
0.0
  0
ARC
  5
3684
  8
AM_0
 10
710.02034111863429
 20
390.68662891442972
 30
0.0
 40
3.0000000600000001
 50
270.0
 51
0.0
  0
LINE
  5
3685
  8
AM_0
 10
702.02036111863481
 20
387.68659891442991
 30
0.0
 11
710.02034111863429
 21
387.68659891442991
 31
0.0
  0
LINE
  5
3686
  8
AM_0
 10
856.02032111863446
 20
487.97029291442971
 30
0.0
 11
746.02034111863384
 21
487.97029291442971
 31
0.0
  0
LINE
  5
3687
  8
AM_0
 10
746.02034111863384
 20
557.97023491442974
 30
0.0
 11
856.02032111863446
 21
557.97023491442974
 31
0.0
  0
LINE
  5
3688
  8
AM_0
 10
746.02034111863384
 20
485.47029691442992
 30
0.0
 11
746.02034111863384
 21
560.47029691442992
 31
0.0
  0
LINE
  5
3689
  8
AM_0
 10
740.02034111863429
 20
485.47029691442992
 30
0.0
 11
746.02034111863384
 21
485.47029691442992
 31
0.0
  0
ARC
  5
368A
  8
AM_0
 10
692.02034111863406
 20
518.57838691442964
 30
0.0
 40
9.9999996000000007
 50
0.0
 51
88.499996999987616
  0
LINE
  5
368B
  8
AM_0
 10
740.02034111863429
 20
560.47029691442992
 30
0.0
 11
746.02034111863384
 21
560.47029691442992
 31
0.0
  0
LINE
  5
368C
  8
AM_0
 10
663.220701118634
 20
595.63747291442985
 30
0.0
 11
699.62750111863431
 21
617.88612091442985
 31
0.0
  0
LINE
  5
368D
  8
AM_0
 10
663.23150111863413
 20
607.40224291442985
 30
0.0
 11
699.6567211186341
 21
630.00588091442989
 31
0.0
  0
LINE
  5
368E
  8
AM_0
 10
666.15692111863439
 20
594.90376891442975
 30
0.0
 11
697.02032111863434
 21
594.90376891442975
 31
0.0
  0
ARC
  5
368F
  8
AM_0
 10
660.59504111863396
 20
611.65074091443
 30
0.0
 40
4.9999996800000002
 50
270.0
 51
301.82161000000002
  0
ARC
  5
3690
  8
AM_0
 10
660.61340111863433
 20
599.90377291442996
 30
0.0
 40
4.9999996800000002
 50
270.0
 51
301.42962999999969
  0
ARC
  5
3691
  8
AM_0
 10
692.02034111863406
 20
578.14314691442985
 30
0.0
 40
9.9999996000000007
 50
271.49999999998948
 51
0.0
  0
ARC
  5
3692
  8
AM_0
 10
697.02032111863434
 20
599.90377291442996
 30
0.0
 40
4.9999996800000002
 50
270.0
 51
337.66196999999693
  0
ARC
  5
3693
  8
AM_0
 10
692.02034111863406
 20
631.93314091442983
 30
0.0
 40
9.9999996000000007
 50
7.8228145999959668
 51
89.000000999989069
  0
ARC
  5
3694
  8
AM_0
 10
710.02034111863429
 20
625.19412091442985
 30
0.0
 40
3.0000000600000001
 50
0.0
 51
90.000003000010722
  0
ARC
  5
3695
  8
AM_0
 10
697.02032111863434
 20
634.25436091442998
 30
0.0
 40
4.9999996800000002
 50
301.82161000000002
 51
0.0
  0
ARC
  5
3696
  8
AM_0
 10
697.02032111863434
 20
622.15248091442982
 30
0.0
 40
4.9999996800000002
 50
301.42962999999969
 51
0.0
  0
LINE
  5
3697
  8
AM_0
 10
702.02036111863481
 20
628.19412091442985
 30
0.0
 11
710.02034111863429
 21
628.19412091442985
 31
0.0
  0
LINE
  5
3698
  8
AM_0
 10
771.02036111863436
 20
562.47023491442974
 30
0.0
 11
856.02032111863446
 21
562.47023491442974
 31
0.0
  0
LINE
  5
3699
  8
AM_0
 10
771.02036111863436
 20
557.97023491442974
 30
0.0
 11
771.02036111863436
 21
562.47023491442974
 31
0.0
  0
LINE
  5
369A
  8
AM_0
 10
856.02032111863446
 20
557.97023491442974
 30
0.0
 11
856.02032111863446
 21
487.97029291442971
 31
0.0
  0
LINE
  5
369B
  8
AM_0
 10
856.02032111863446
 20
562.47023491442974
 30
0.0
 11
856.02032111863446
 21
557.97023491442974
 31
0.0
  0
LINE
  5
369C
  8
AM_0
 10
559.02032111863434
 20
673.97022091442955
 30
0.0
 11
690.33446111863429
 21
677.40882091442995
 31
0.0
  0
LINE
  5
369D
  8
AM_0
 10
559.02032111863434
 20
667.97022091442989
 30
0.0
 11
690.3345211186346
 21
671.40882091442995
 31
0.0
  0
CIRCLE
  5
369E
  8
AM_0
 10
537.02036111863458
 20
703.97028091442996
 30
0.0
 40
17.499998399999999
  0
ARC
  5
369F
  8
AM_0
 10
537.02036111863458
 20
703.97028091442996
 30
0.0
 40
30.000000599999989
 50
304.5987100000068
 51
235.40128999999291
  0
LINE
  5
36A0
  8
AM_0
 10
559.02032111863434
 20
673.97028091442985
 30
0.0
 11
517.02032111863434
 21
673.97028091442985
 31
0.0
  0
LINE
  5
36A1
  8
AM_0
 10
543.0203611186347
 20
667.97028091442985
 30
0.0
 11
559.02032111863434
 21
667.97028091442985
 31
0.0
  0
LINE
  5
36A2
  8
AM_0
 10
548.10932111863474
 20
684.97026091443001
 30
0.0
 11
525.93134111863435
 21
684.97026091443001
 31
0.0
  0
LINE
  5
36A3
  8
AM_0
 10
546.99896111863416
 20
685.34130091442989
 30
0.0
 11
537.02036111863458
 21
686.47026091443001
 31
0.0
  0
LINE
  5
36A4
  8
AM_0
 10
537.02024111863398
 20
686.47032091442975
 30
0.0
 11
527.04158111863433
 21
685.34130091442989
 31
0.0
  0
ARC
  5
36A5
  8
AM_0
 10
517.1464411186347
 20
675.16002091442988
 30
0.0
 40
4.9999996800000002
 50
351.00000000000119
 51
55.401289999993061
  0
ARC
  5
36A6
  8
AM_0
 10
528.04442111863432
 20
680.49384091443005
 30
0.0
 40
4.949999939999997
 50
101.6876299999912
 51
165.7674300000013
  0
LINE
  5
36A7
  8
AM_0
 10
523.24628111863456
 20
681.71088091442982
 30
0.0
 11
522.0203611186347
 21
673.97022091442955
 31
0.0
  0
ARC
  5
36A8
  8
AM_0
 10
547.02032111863434
 20
669.97026091443001
 30
0.0
 40
4.00000014
 50
90.000003000010722
 51
180.00001000000091
  0
ARC
  5
36A9
  8
AM_0
 10
556.89422111863428
 20
675.16002091442988
 30
0.0
 40
4.9999996800000002
 50
124.5987200000077
 51
188.99999999999861
  0
ARC
  5
36AA
  8
AM_0
 10
545.99630111863451
 20
680.49384091443005
 30
0.0
 40
4.949999939999997
 50
14.232568000000819
 51
78.312366999990047
  0
LINE
  5
36AB
  8
AM_0
 10
552.0203611186347
 20
673.97028091442985
 30
0.0
 11
550.79426111863438
 21
681.71088091442982
 31
0.0
  0
LINE
  5
36AC
  8
AM_0
 10
667.66250111863451
 20
682.30956091442977
 30
0.0
 11
699.09140111863451
 21
713.73846091442965
 31
0.0
  0
ARC
  5
36AD
  8
AM_0
 10
653.52044111863427
 20
696.45168091442986
 30
0.0
 40
19.999998599999991
 50
271.49999999998948
 51
315.0000000000046
  0
ARC
  5
36AE
  8
AM_0
 10
692.02034111863406
 20
720.80952091442975
 30
0.0
 40
9.9999996000000007
 50
315.0000000000046
 51
0.0
  0
ARC
  5
36AF
  8
AM_0
 10
705.02030111863439
 20
692.59662091442988
 30
0.0
 40
3.0000000600000001
 50
179.9999899999988
 51
270.0
  0
ARC
  5
36B0
  8
AM_0
 10
690.02030111863428
 20
689.40468091442995
 30
0.0
 40
12.0000006
 50
271.49999999998948
 51
0.0
  0
ARC
  5
36B1
  8
AM_0
 10
690.02030111863428
 20
683.40474091443002
 30
0.0
 40
12.0000006
 50
271.49999999998948
 51
0.0
  0
ARC
  5
36B2
  8
AM_0
 10
710.02034111863429
 20
686.59662091442999
 30
0.0
 40
3.0000000600000001
 50
0.0
 51
90.000003000010722
  0
LINE
  5
36B3
  8
AM_0
 10
705.02030111863439
 20
689.59662091442965
 30
0.0
 11
710.02034111863429
 21
689.59662091442965
 31
0.0
  0
LINE
  5
36B4
  8
AM_0
 10
714.02030111863428
 20
752.97024091443006
 30
0.0
 11
734.02034111863429
 21
752.97024091443006
 31
0.0
  0
ARC
  5
36B5
  8
AM_0
 10
705.02030111863439
 20
747.42762091442978
 30
0.0
 40
3.0000000600000001
 50
90.000003000010722
 51
180.00001000000091
  0
ARC
  5
36B6
  8
AM_0
 10
714.02030111863428
 20
751.97022091442966
 30
0.0
 40
1.0000000199999981
 50
90.000003000010722
 51
180.00001000000091
  0
ARC
  5
36B7
  8
AM_0
 10
712.02032111863434
 20
751.42764091443007
 30
0.0
 40
1.0000000199999981
 50
270.0
 51
0.0
  0
LINE
  5
36B8
  8
AM_0
 10
705.02030111863439
 20
750.42756091442993
 30
0.0
 11
712.02032111863434
 21
750.42756091442993
 31
0.0
  0
LINE
  5
36B9
  8
AM_0
 10
713.02034111863429
 20
751.42764091443007
 30
0.0
 11
713.02034111863429
 21
751.97022091442966
 31
0.0
  0
LINE
  5
36BA
  8
AM_0
 10
734.02034111863429
 20
717.97032091442998
 30
0.0
 11
740.02034111863429
 21
717.97032091442998
 31
0.0
  0
CIRCLE
  5
36BB
  8
AM_0
 10
1269.3425134914751
 20
522.97029691442992
 30
0.0
 40
195.0000059999999
  0
CIRCLE
  5
36BC
  8
AM_0
 10
1269.3425134914751
 20
522.97029691442992
 30
0.0
 40
184.99999199999991
  0
LINE
  5
36BD
  8
ﾁｭｳｼﾝｾﾝ
 10
1269.3425134914751
 20
757.97022091442989
 30
0.0
 11
1269.3425134914751
 21
248.0422629144299
 31
0.0
  0
LINE
  5
36BE
  8
AM_0
 10
1039.342503491476
 20
622.97028091442985
 30
0.0
 11
1043.342523491475
 21
727.78482091442993
 31
0.0
  0
LINE
  5
36BF
  8
AM_0
 10
1495.3425334914759
 20
727.78482091442993
 30
0.0
 11
1499.3425354914759
 21
622.97028091442985
 31
0.0
  0
ARC
  5
36C0
  8
AM_0
 10
1269.3425134914751
 20
267.97026091443001
 30
0.0
 40
19.437555599999971
 50
179.9999899999988
 51
237.53583999999839
  0
ARC
  5
36C1
  8
AM_0
 10
1269.3425134914751
 20
267.97026091443001
 30
0.0
 40
19.437555599999971
 50
302.46415000000798
 51
0.0
  0
LINE
  5
36C2
  8
AM_0
 10
1258.9090114914759
 20
251.57028091442999
 30
0.0
 11
1279.7760754914759
 21
251.57028091442999
 31
0.0
  0
CIRCLE
  5
36C3
  8
AM_0
 10
1269.3425134914751
 20
522.97029691442992
 30
0.0
 40
60.0
  0
LINE
  5
36C4
  8
ﾁｭｳｼﾝｾﾝ
 10
1167.569415774582
 20
460.37025691442989
 30
0.0
 11
1371.1156147644269
 21
460.37025691442989
 31
0.0
  0
LINE
  5
36C5
  8
AM_0
 10
1369.342515491476
 20
292.97025691443002
 30
0.0
 11
1169.3425714914761
 21
292.97025691443002
 31
0.0
  0
ARC
  5
36C6
  8
AM_0
 10
1269.3425134914751
 20
522.97029691442992
 30
0.0
 40
79.999992000000006
 50
33.737306000009809
 51
146.2626999999932
  0
ARC
  5
36C7
  8
AM_0
 10
1269.3425134914751
 20
522.97029691442992
 30
0.0
 40
34.999997399999991
 50
106.6015499999924
 51
73.398451999991579
  0
LINE
  5
36C8
  8
ﾁｭｳｼﾝｾﾝ
 10
1501.0497934914761
 20
522.97029691442992
 30
0.0
 11
1034.342583491476
 21
522.97029691442992
 31
0.0
  0
CIRCLE
  5
36C9
  8
AM_5
 10
1269.3425134914751
 20
522.97029691442992
 30
0.0
 40
6.0
  0
CIRCLE
  5
36CA
  8
AM_0
 10
1269.3425134914751
 20
522.97029691442992
 30
0.0
 40
4.9999996800000002
  0
LINE
  5
36CB
  8
AM_0
 10
1279.342545491475
 20
562.47023491442974
 30
0.0
 11
1259.342511491476
 21
562.47023491442974
 31
0.0
  0
LINE
  5
36CC
  8
AM_0
 10
1259.342511491476
 20
550.47023491442997
 30
0.0
 11
1279.342545491475
 21
550.47023491442997
 31
0.0
  0
LINE
  5
36CD
  8
AM_0
 10
1202.815137491476
 20
567.40114291442978
 30
0.0
 11
1126.867353491476
 21
453.68272891442967
 31
0.0
  0
LINE
  5
36CE
  8
AM_0
 10
1039.3425634914761
 20
422.97026491442972
 30
0.0
 11
1039.3425634914761
 21
622.97028091442985
 31
0.0
  0
LINE
  5
36CF
  8
AM_0
 10
1169.342541491475
 20
292.97025691443002
 30
0.0
 11
1064.5279834914741
 21
296.97025891443002
 31
0.0
  0
LINE
  5
36D0
  8
AM_0
 10
1043.342523491475
 20
318.1557129144299
 30
0.0
 11
1039.342503491476
 21
422.97026491442972
 31
0.0
  0
ARC
  5
36D1
  8
AM_0
 10
1269.3425134914751
 20
522.97029691442992
 30
0.0
 40
304.99997999999999
 50
222.18473000000679
 51
227.81526999999301
  0
CIRCLE
  5
36D2
  8
AM_0
 10
1078.423683491475
 20
332.05143691442993
 30
0.0
 40
12.0000006
  0
ARC
  5
36D3
  8
ﾁｭｳｼﾝｾﾝ1
 10
1269.3425134914751
 20
522.97029691442992
 30
0.0
 40
270.00000599999998
 50
220.3301599999981
 51
229.66984000000571
  0
LINE
  5
36D4
  8
ﾁｭｳｼﾝｾﾝ1
 10
1093.980021491476
 20
347.60780491442978
 30
0.0
 11
1062.867363491476
 21
316.49509891442989
 31
0.0
  0
ARC
  5
36D5
  8
AM_0
 10
1218.342513491476
 20
392.59028491442979
 30
0.0
 40
128.43754799999999
 50
250.34186999999429
 51
270.0
  0
ARC
  5
36D6
  8
AM_0
 10
1159.342539491475
 20
282.97026091443001
 30
0.0
 40
19.437555599999971
 50
179.9999899999988
 51
0.0000100179138904
  0
LINE
  5
36D7
  8
AM_0
 10
1139.9050114914751
 20
282.97026091443001
 30
0.0
 11
1139.9050114914751
 21
287.02629091442992
 31
0.0
  0
ARC
  5
36D8
  8
AM_0
 10
1218.342513491476
 20
392.59028491442979
 30
0.0
 40
128.43754799999999
 50
229.9639899999888
 51
230.68881000000869
  0
ARC
  5
36D9
  8
AM_0
 10
1131.905007491476
 20
287.02629091442992
 30
0.0
 40
8.0000003999999976
 50
0.0
 51
50.688810999995432
  0
ARC
  5
36DA
  8
AM_0
 10
1186.780101491476
 20
282.97026091443001
 30
0.0
 40
8.0000003999999976
 50
141.82987999999941
 51
180.00001000000091
  0
LINE
  5
36DB
  8
AM_0
 10
1218.342513491476
 20
264.15269491442967
 30
0.0
 11
1250.283555491475
 21
264.15269491442967
 31
0.0
  0
ARC
  5
36DC
  8
AM_0
 10
1241.9049814914761
 20
273.49564891443009
 30
0.0
 40
8.0000003999999976
 50
0.0
 51
90.000003000010722
  0
LINE
  5
36DD
  8
AM_0
 10
1249.9049854914761
 20
267.97026091443001
 30
0.0
 11
1249.9049854914761
 21
273.49564891443009
 31
0.0
  0
ARC
  5
36DE
  8
AM_0
 10
1218.342513491476
 20
392.59028491442979
 30
0.0
 40
110.000004
 50
146.2626999999932
 51
160.73435999999771
  0
ARC
  5
36DF
  8
AM_0
 10
1123.942671491475
 20
425.58510091442992
 30
0.0
 40
9.9999996000000007
 50
160.73435999999771
 51
192.21112999999951
  0
ARC
  5
36E0
  8
AM_0
 10
1269.3425134914751
 20
512.97026491443
 30
0.0
 40
143.999988
 50
134.97171999999591
 51
196.49544000000131
  0
ARC
  5
36E1
  8
AM_0
 10
1135.104597491475
 20
473.21877091442991
 30
0.0
 40
4.00000014
 50
196.49545000000069
 51
270.67263999999079
  0
LINE
  5
36E2
  8
AM_0
 10
1259.342511491476
 20
562.47023491442974
 30
0.0
 11
1259.342511491476
 21
550.47023491442997
 31
0.0
  0
LINE
  5
36E3
  8
AM_0
 10
1205.5012354914761
 20
578.32631491442999
 30
0.0
 11
1138.058577491475
 21
645.76902091442957
 31
0.0
  0
LINE
  5
36E4
  8
AM_0
 10
1213.986525491476
 20
586.81160491442995
 30
0.0
 11
1146.5438014914751
 21
654.25422091442999
 31
0.0
  0
ARC
  5
36E5
  8
AM_0
 10
1269.3425134914751
 20
512.97026491443
 30
0.0
 40
143.999988
 50
50.60764799999361
 51
129.39235000000369
  0
ARC
  5
36E6
  8
AM_0
 10
1150.079451491476
 20
657.78978091443003
 30
0.0
 40
4.9999996800000002
 50
168.8411599999977
 51
224.9999999999952
  0
ARC
  5
36E7
  8
AM_0
 10
1134.522993491476
 20
642.23340091442958
 30
0.0
 40
4.9999996800000002
 50
45.000000999994569
 51
101.1588399999894
  0
ARC
  5
36E8
  8
AM_0
 10
1201.9656814914761
 20
574.7907309144299
 30
0.0
 40
4.9999996800000002
 50
358.28216000000077
 51
45.000000999994569
  0
ARC
  5
36E9
  8
AM_0
 10
1217.5220494914761
 20
590.34712891442985
 30
0.0
 40
4.9999996800000002
 50
224.9999999999952
 51
271.71784000000582
  0
LINE
  5
36EA
  8
AM_0
 10
1335.8699494914761
 20
567.40114291442978
 30
0.0
 11
1411.817739491476
 21
453.68272891442967
 31
0.0
  0
LINE
  5
36EB
  8
AM_0
 10
1499.3425354914759
 20
622.97028091442985
 30
0.0
 11
1499.3425354914759
 21
422.97026491442972
 31
0.0
  0
LINE
  5
36EC
  8
AM_0
 10
1474.157079491476
 20
296.97025891443002
 30
0.0
 11
1369.342515491476
 21
292.97025691443002
 31
0.0
  0
ARC
  5
36ED
  8
AM_0
 10
1320.342543491475
 20
392.59028491442979
 30
0.0
 40
110.000004
 50
19.265641000005719
 51
33.737306000009809
  0
ARC
  5
36EE
  8
AM_0
 10
1320.342543491475
 20
392.59028491442979
 30
0.0
 40
128.43754799999999
 50
270.0
 51
289.65811999999772
  0
LINE
  5
36EF
  8
AM_0
 10
1288.401537491475
 20
264.15269491442967
 30
0.0
 11
1320.342543491475
 21
264.15269491442967
 31
0.0
  0
ARC
  5
36F0
  8
AM_0
 10
1296.7800754914761
 20
273.49564891443009
 30
0.0
 40
8.0000003999999976
 50
90.000003000010722
 51
180.00001000000091
  0
LINE
  5
36F1
  8
AM_0
 10
1288.780107491476
 20
267.97026091443001
 30
0.0
 11
1288.780107491476
 21
273.49564891443009
 31
0.0
  0
ARC
  5
36F2
  8
AM_0
 10
1379.3425174914751
 20
282.97026091443001
 30
0.0
 40
19.437555599999971
 50
179.9999899999988
 51
0.0000100179138904
  0
ARC
  5
36F3
  8
AM_0
 10
1351.9049854914761
 20
282.97026091443001
 30
0.0
 40
8.0000003999999976
 50
0.0
 51
38.170125999991761
  0
LINE
  5
36F4
  8
AM_0
 10
1398.780081491474
 20
282.97026091443001
 30
0.0
 11
1398.780081491474
 21
287.02629091442992
 31
0.0
  0
ARC
  5
36F5
  8
AM_0
 10
1320.342543491475
 20
392.59028491442979
 30
0.0
 40
128.43754799999999
 50
309.31118999999092
 51
310.03601000001112
  0
ARC
  5
36F6
  8
AM_0
 10
1406.780079491474
 20
287.02629091442992
 30
0.0
 40
8.0000003999999976
 50
129.3111899999912
 51
180.00001000000091
  0
LINE
  5
36F7
  8
AM_0
 10
1499.3425354914759
 20
422.97026491442972
 30
0.0
 11
1495.3425334914759
 21
318.1557129144299
 31
0.0
  0
ARC
  5
36F8
  8
AM_0
 10
1269.3425134914751
 20
522.97029691442992
 30
0.0
 40
304.99997999999999
 50
312.18473000000688
 51
317.81526999999312
  0
CIRCLE
  5
36F9
  8
AM_0
 10
1460.261355491476
 20
332.05143691442993
 30
0.0
 40
12.0000006
  0
ARC
  5
36FA
  8
AM_0
 10
1414.742421491474
 20
425.58510091442992
 30
0.0
 40
9.9999996000000007
 50
347.788880000002
 51
19.265641000005719
  0
ARC
  5
36FB
  8
AM_0
 10
1269.3425134914751
 20
512.97026491443
 30
0.0
 40
143.999988
 50
343.5045499999992
 51
45.028277999996241
  0
LINE
  5
36FC
  8
AM_0
 10
1279.342545491475
 20
550.47023491442997
 30
0.0
 11
1279.342545491475
 21
562.47023491442974
 31
0.0
  0
ARC
  5
36FD
  8
AM_0
 10
1403.5804654914759
 20
473.21877091442991
 30
0.0
 40
4.00000014
 50
269.3273499999965
 51
343.5045499999992
  0
LINE
  5
36FE
  8
AM_0
 10
1324.6985314914759
 20
586.81160491442995
 30
0.0
 11
1392.141225491476
 21
654.25422091442999
 31
0.0
  0
LINE
  5
36FF
  8
AM_0
 10
1333.1838574914759
 20
578.32625491443002
 30
0.0
 11
1400.626545491476
 21
645.76896091442995
 31
0.0
  0
ARC
  5
3700
  8
AM_0
 10
1321.1630434914759
 20
590.34712891442985
 30
0.0
 40
4.9999996800000002
 50
268.28215999999401
 51
315.0000000000046
  0
ARC
  5
3701
  8
AM_0
 10
1336.7193754914761
 20
574.7907309144299
 30
0.0
 40
4.9999996800000002
 50
135.0000000000046
 51
181.7178399999992
  0
ARC
  5
3702
  8
AM_0
 10
1404.162039491476
 20
642.23340091442958
 30
0.0
 40
4.9999996800000002
 50
78.841153999999761
 51
135.0000000000046
  0
ARC
  5
3703
  8
AM_0
 10
1388.6057014914761
 20
657.78978091443003
 30
0.0
 40
4.9999996800000002
 50
315.0000000000046
 51
11.158846999997991
  0
LINE
  5
3704
  8
AM_0
 10
1169.3425714914761
 20
752.97024091443006
 30
0.0
 11
1369.342515491476
 21
752.97024091443006
 31
0.0
  0
LINE
  5
3705
  8
AM_0
 10
1064.5279834914741
 20
748.97022091442955
 30
0.0
 11
1169.342541491475
 21
752.97024091443006
 31
0.0
  0
CIRCLE
  5
3706
  8
AM_0
 10
1078.423683491475
 20
713.8891209144299
 30
0.0
 40
12.0000006
  0
ARC
  5
3707
  8
AM_0
 10
1269.3425134914751
 20
522.97029691442992
 30
0.0
 40
304.99997999999999
 50
132.18473000000671
 51
137.81526999999301
  0
LINE
  5
3708
  8
AM_0
 10
1369.3425454914759
 20
752.97030091442991
 30
0.0
 11
1474.157097491476
 21
748.97028091442974
 31
0.0
  0
CIRCLE
  5
3709
  8
AM_0
 10
1460.261355491476
 20
713.8891209144299
 30
0.0
 40
12.0000006
  0
ARC
  5
370A
  8
ﾁｭｳｼﾝｾﾝ1
 10
1269.3425134914751
 20
522.97029691442992
 30
0.0
 40
270.00000599999998
 50
40.330163000001342
 51
49.669835999991491
  0
LINE
  5
370B
  8
ﾁｭｳｼﾝｾﾝ1
 10
1444.7050234914759
 20
698.33280091442975
 30
0.0
 11
1475.8177114914761
 21
729.44544091443004
 31
0.0
  0
ARC
  5
370C
  8
AM_0
 10
1269.3425134914751
 20
522.97029691442992
 30
0.0
 40
304.99997999999999
 50
42.184730000006837
 51
47.815271999996433
  0
ARC
  5
370D
  8
AM_0
 10
370.52032111863429
 20
1287.2267443316359
 30
0.0
 40
3.0
 50
0.0
 51
90.0
  0
ARC
  5
370E
  8
AM_0
 10
378.5203211186344
 20
1264.694870331637
 30
0.0
 40
5.0
 50
180.0
 51
268.50000000001029
  0
ARC
  5
370F
  8
AM_0
 10
378.5203211186344
 20
1257.0295873316361
 30
0.0
 40
5.0
 50
180.0
 51
245.95480699999951
  0
ARC
  5
3710
  8
AM_0
 10
378.5203211186344
 20
1241.4732383316359
 30
0.0
 40
5.0
 50
180.0
 51
245.95480699999951
  0
ARC
  5
3711
  8
AM_0
 10
378.5203211186344
 20
1023.423902331636
 30
0.0
 40
5.0
 50
114.0451930000003
 51
180.0
  0
ARC
  5
3712
  8
AM_0
 10
378.5203211186344
 20
1015.758619331637
 30
0.0
 40
5.0
 50
91.499999999989626
 51
180.0
  0
ARC
  5
3713
  8
AM_0
 10
370.52032111863429
 20
993.22674433163684
 30
0.0
 40
3.0
 50
270.0
 51
0.0
  0
ARC
  5
3714
  8
AM_0
 10
378.5203211186344
 20
1038.980251331637
 30
0.0
 40
5.0
 50
114.0451930000003
 51
180.0
  0
LINE
  5
3715
  8
AM_0
 10
353.52032111863429
 20
1290.2267443316359
 30
0.0
 11
353.52032111863429
 21
990.22674433163684
 31
0.0
  0
LINE
  5
3716
  8
AM_0
 10
353.52032111863429
 20
990.22674433163684
 30
0.0
 11
370.52032111863429
 21
990.22674433163684
 31
0.0
  0
LINE
  5
3717
  8
AM_0
 10
353.52032111863429
 20
1290.2267443316359
 30
0.0
 11
370.52032111863429
 21
1290.2267443316359
 31
0.0
  0
LINE
  5
3718
  8
AM_0
 10
373.52032111863429
 20
1287.2267443316359
 30
0.0
 11
373.52032111863429
 21
1140.2267443316359
 31
0.0
  0
LINE
  5
3719
  8
AM_0
 10
376.48303611863412
 20
1043.5463733316369
 30
0.0
 11
401.25332311863428
 21
1054.5982343316359
 31
0.0
  0
LINE
  5
371A
  8
AM_0
 10
373.52032111863429
 20
993.22674433163684
 30
0.0
 11
373.52032111863429
 21
1140.2267443316359
 31
0.0
  0
LINE
  5
371B
  8
AM_0
 10
431.52093111863428
 20
1056.020985331636
 30
0.0
 11
431.52093111863428
 21
1040.4646353316371
 31
0.0
  0
LINE
  5
371C
  8
AM_0
 10
404.52032111863429
 20
1041.505786331637
 30
0.0
 11
404.52032111863429
 21
1052.9859883316369
 31
0.0
  0
LINE
  5
371D
  8
AM_0
 10
403.1161111186338
 20
1039.472717331636
 30
0.0
 11
431.52093111863428
 21
1040.4646353316371
 31
0.0
  0
LINE
  5
371E
  8
AM_0
 10
434.52032111863429
 20
1022.2267442716829
 30
0.0
 11
378.38943711863419
 21
1020.7569053316359
 31
0.0
  0
LINE
  5
371F
  8
AM_0
 10
376.48303611863412
 20
1027.990023331635
 30
0.0
 11
401.25332311863428
 21
1039.041885331636
 31
0.0
  0
ARC
  5
3720
  8
AM_0
 10
403.29060911863399
 20
1034.475763331636
 30
0.0
 40
5.0
 50
92.000000000003666
 51
114.0451930000003
  0
LINE
  5
3721
  8
AM_0
 10
431.52093111863428
 20
1040.4646353316371
 30
0.0
 11
432.52032111863429
 21
1041.499535331636
 31
0.0
  0
LINE
  5
3722
  8
AM_0
 10
431.52093111863428
 20
1056.020985331636
 30
0.0
 11
403.1161111186338
 21
1055.0290663316371
 31
0.0
  0
LINE
  5
3723
  8
AM_0
 10
430.82332911863432
 20
1065.692984331637
 30
0.0
 11
378.38943711863419
 21
1064.3199543316359
 31
0.0
  0
ARC
  5
3724
  8
AM_0
 10
378.5203211186344
 20
1059.321667331636
 30
0.0
 40
5.0
 50
91.499999999989626
 51
150.72089099998681
  0
ARC
  5
3725
  8
AM_0
 10
403.29060911863399
 20
1050.032112331636
 30
0.0
 40
5.0
 50
92.000000000003666
 51
114.0451930000003
  0
LINE
  5
3726
  8
AM_0
 10
431.52093111863428
 20
1056.020985331636
 30
0.0
 11
432.52032111863429
 21
1057.0558843316369
 31
0.0
  0
LINE
  5
3727
  8
AM_0
 10
431.52093111863428
 20
1224.4325043316369
 30
0.0
 11
403.1161111186338
 21
1225.4244223316359
 31
0.0
  0
LINE
  5
3728
  8
AM_0
 10
403.1161111186338
 20
1240.9807713316361
 30
0.0
 11
431.52093111863428
 21
1239.9888533316371
 31
0.0
  0
LINE
  5
3729
  8
AM_0
 10
430.82332911863432
 20
1214.760505331637
 30
0.0
 11
378.38943711863419
 21
1216.133535331636
 31
0.0
  0
LINE
  5
372A
  8
AM_0
 10
404.52032111863429
 20
1238.9477023316349
 30
0.0
 11
404.52032111863429
 21
1227.467501331636
 31
0.0
  0
LINE
  5
372B
  8
AM_0
 10
376.48303611863412
 20
1236.9071163316371
 30
0.0
 11
401.25332311863428
 21
1225.855255331636
 31
0.0
  0
ARC
  5
372C
  8
AM_0
 10
378.5203211186344
 20
1221.131821331637
 30
0.0
 40
5.0
 50
209.27910900001291
 51
268.50000000001029
  0
ARC
  5
372D
  8
AM_0
 10
403.29060911863399
 20
1230.421376331637
 30
0.0
 40
5.0
 50
245.95480699999951
 51
267.99999999999631
  0
LINE
  5
372E
  8
AM_0
 10
376.48303611863412
 20
1252.4634653316371
 30
0.0
 11
401.25332311863428
 21
1241.411604331636
 31
0.0
  0
ARC
  5
372F
  8
AM_0
 10
403.29060911863399
 20
1245.977725331637
 30
0.0
 40
5.0
 50
245.95480699999951
 51
267.99999999999631
  0
LINE
  5
3730
  8
AM_0
 10
431.52093111863428
 20
1224.4325043316369
 30
0.0
 11
431.52093111863428
 21
1239.9888533316371
 31
0.0
  0
LINE
  5
3731
  8
AM_0
 10
431.52093111863428
 20
1224.4325043316369
 30
0.0
 11
432.52032111863429
 21
1223.3976053316351
 31
0.0
  0
LINE
  5
3732
  8
AM_0
 10
431.52093111863428
 20
1239.9888533316371
 30
0.0
 11
432.52032111863429
 21
1238.9539543316371
 31
0.0
  0
LINE
  5
3733
  8
AM_0
 10
434.52032111863429
 20
1258.226744391588
 30
0.0
 11
378.38943711863419
 21
1259.696583331636
 31
0.0
  0
LINE
  5
3734
  8
AM_0
 10
432.52032111863429
 20
1057.0558843316369
 30
0.0
 11
432.52032111863429
 21
1041.499535331636
 31
0.0
  0
LINE
  5
3735
  8
AM_0
 10
432.52032111863429
 20
1064.203237331637
 30
0.0
 11
432.52032111863429
 21
1057.0558843316369
 31
0.0
  0
LINE
  5
3736
  8
AM_0
 10
432.52032111863429
 20
1223.3976053316351
 30
0.0
 11
432.52032111863429
 21
1238.9539543316371
 31
0.0
  0
LINE
  5
3737
  8
AM_0
 10
432.52032111863429
 20
1216.250251331636
 30
0.0
 11
432.52032111863429
 21
1223.3976053316351
 31
0.0
  0
ARC
  5
3738
  8
ﾁｭｳｼﾝｾﾝ1
 10
1269.3425134914751
 20
522.97029691442992
 30
0.0
 40
270.00000599999998
 50
130.33016400000841
 51
139.66983699999849
  0
LINE
  5
3739
  8
ﾁｭｳｼﾝｾﾝ1
 10
1093.980003491474
 20
698.33280091442975
 30
0.0
 11
1062.8673154914759
 21
729.44544091443004
 31
0.0
  0
ARC
  5
373A
  8
ﾁｭｳｼﾝｾﾝ1
 10
1269.3425134914751
 20
522.97029691442992
 30
0.0
 40
270.00000599999998
 50
310.33015999999401
 51
319.66984000000173
  0
LINE
  5
373B
  8
ﾁｭｳｼﾝｾﾝ1
 10
1444.7050054914739
 20
347.60780491442978
 30
0.0
 11
1475.8176634914751
 21
316.49509891442989
 31
0.0
  0
TEXT
  5
3919
  8
AM_0
 10
1094.980468724807
 20
1136.8189825754259
 30
0.0
 40
20.0
  1
VX75-040AF~VX75-080AF
  0
ENDSEC
  0
EOF
