  0
SECTION
  2
HEADER
  9
$ACADVER
  1
AC1009
  9
$INSBASE
 10
0.0
 20
0.0
 30
0.0
  9
$EXTMIN
 10
0.0
 20
0.0
 30
0.0
  9
$EXTMAX
 10
697.63272009161335
 20
471.96402363148292
 30
0.0
  9
$LIMMIN
 10
0.0
 20
0.0
  9
$LIMMAX
 10
408.0
 20
284.0
  9
$ORTHOMODE
 70
     0
  9
$REGENMODE
 70
     1
  9
$FILLMODE
 70
     1
  9
$QTEXTMODE
 70
     0
  9
$MIRRTEXT
 70
     1
  9
$DRAGMODE
 70
     2
  9
$LTSCALE
 40
1.0
  9
$OSMODE
 70
   551
  9
$ATTMODE
 70
     1
  9
$TEXTSIZE
 40
2.5
  9
$TRACEWID
 40
1.0
  9
$TEXTSTYLE
  7
STANDARD
  9
$CLAYER
  8
AM_0
  9
$CELTYPE
  6
BYLAYER
  9
$CECOLOR
 62
   256
  9
$DIMSCALE
 40
1.0
  9
$DIMASZ
 40
2.5
  9
$DIMEXO
 40
1.0
  9
$DIMDLI
 40
7.0
  9
$DIMRND
 40
0.0
  9
$DIMDLE
 40
0.0
  9
$DIMEXE
 40
1.0
  9
$DIMTP
 40
0.1
  9
$DIMTM
 40
0.1000000001
  9
$DIMTXT
 40
2.5
  9
$DIMCEN
 40
0.0
  9
$DIMTSZ
 40
0.0
  9
$DIMTOL
 70
     0
  9
$DIMLIM
 70
     0
  9
$DIMTIH
 70
     0
  9
$DIMTOH
 70
     0
  9
$DIMSE1
 70
     0
  9
$DIMSE2
 70
     0
  9
$DIMTAD
 70
     3
  9
$DIMZIN
 70
     8
  9
$DIMBLK
  1

  9
$DIMASO
 70
     1
  9
$DIMSHO
 70
     1
  9
$DIMPOST
  1

  9
$DIMAPOST
  1
"
  9
$DIMALT
 70
     0
  9
$DIMALTD
 70
     2
  9
$DIMALTF
 40
0.0393701
  9
$DIMLFAC
 40
1.0
  9
$DIMTOFL
 70
     1
  9
$DIMTVP
 40
0.0
  9
$DIMTIX
 70
     0
  9
$DIMSOXD
 70
     0
  9
$DIMSAH
 70
     0
  9
$DIMBLK1
  1

  9
$DIMBLK2
  1

  9
$DIMSTYLE
  2
AM_JIS
  9
$DIMCLRD
 70
   256
  9
$DIMCLRE
 70
   256
  9
$DIMCLRT
 70
     4
  9
$DIMTFAC
 40
0.71
  9
$DIMGAP
 40
1.0
  9
$LUNITS
 70
     2
  9
$LUPREC
 70
     2
  9
$SKETCHINC
 40
1.0
  9
$FILLETRAD
 40
2.5
  9
$AUNITS
 70
     0
  9
$AUPREC
 70
     3
  9
$MENU
  1
.
  9
$ELEVATION
 40
0.0
  9
$PELEVATION
 40
0.0
  9
$THICKNESS
 40
0.0
  9
$LIMCHECK
 70
     0
  9
$BLIPMODE
 70
     0
  9
$CHAMFERA
 40
2.5
  9
$CHAMFERB
 40
2.5
  9
$SKPOLY
 70
     0
  9
$TDCREATE
 40
2453061.5927672801
  9
$TDUPDATE
 40
2458540.700338704
  9
$TDINDWG
 40
0.0677378472
  9
$TDUSRTIMER
 40
0.0677376389
  9
$USRTIMER
 70
     1
  9
$ANGBASE
 50
0.0
  9
$ANGDIR
 70
     0
  9
$PDMODE
 70
     0
  9
$PDSIZE
 40
0.0
  9
$PLINEWID
 40
0.0
  9
$COORDS
 70
     1
  9
$SPLFRAME
 70
     0
  9
$SPLINETYPE
 70
     6
  9
$SPLINESEGS
 70
     8
  9
$ATTDIA
 70
     1
  9
$ATTREQ
 70
     1
  9
$HANDLING
 70
     1
  9
$HANDSEED
  5
A63E
  9
$SURFTAB1
 70
     6
  9
$SURFTAB2
 70
     6
  9
$SURFTYPE
 70
     6
  9
$SURFU
 70
     6
  9
$SURFV
 70
     6
  9
$UCSNAME
  2

  9
$UCSORG
 10
0.0
 20
0.0
 30
0.0
  9
$UCSXDIR
 10
1.0
 20
0.0
 30
0.0
  9
$UCSYDIR
 10
0.0
 20
1.0
 30
0.0
  9
$PUCSNAME
  2

  9
$PUCSORG
 10
0.0
 20
0.0
 30
0.0
  9
$PUCSXDIR
 10
1.0
 20
0.0
 30
0.0
  9
$PUCSYDIR
 10
0.0
 20
1.0
 30
0.0
  9
$USERI1
 70
     0
  9
$USERI2
 70
     0
  9
$USERI3
 70
     0
  9
$USERI4
 70
     0
  9
$USERI5
 70
     0
  9
$USERR1
 40
0.0
  9
$USERR2
 40
0.0
  9
$USERR3
 40
0.0
  9
$USERR4
 40
0.0
  9
$USERR5
 40
0.0
  9
$WORLDVIEW
 70
     1
  9
$SHADEDGE
 70
     3
  9
$SHADEDIF
 70
    70
  9
$TILEMODE
 70
     1
  9
$MAXACTVP
 70
    48
  9
$PLIMCHECK
 70
     0
  9
$PEXTMIN
 10
1.0000000000000000E+020
 20
1.0000000000000000E+020
 30
1.0000000000000000E+020
  9
$PEXTMAX
 10
-1.0000000000000000E+020
 20
-1.0000000000000000E+020
 30
-1.0000000000000000E+020
  9
$PLIMMIN
 10
0.0
 20
0.0
  9
$PLIMMAX
 10
420.0
 20
297.0
  9
$UNITMODE
 70
     0
  9
$VISRETAIN
 70
     1
  9
$PLINEGEN
 70
     0
  9
$PSLTSCALE
 70
     1
  0
ENDSEC
  0
SECTION
  2
TABLES
  0
TABLE
  2
VPORT
 70
     1
  0
VPORT
  2
*ACTIVE
 70
     0
 10
0.0
 20
0.0
 11
1.0
 21
1.0
 12
363.55809341450743
 22
239.20906004511539
 13
0.0
 23
0.0
 14
1.0
 24
1.0
 15
10.0
 25
10.0
 16
0.0
 26
0.0
 36
1.0
 17
0.0
 27
0.0
 37
0.0
 40
468.83881773295809
 41
1.7571592210767459
 42
50.0
 43
0.0
 44
0.0
 50
0.0
 51
0.0
 71
     0
 72
   100
 73
     1
 74
     1
 75
     0
 76
     0
 77
     0
 78
     0
  0
ENDTAB
  0
TABLE
  2
LTYPE
 70
    26
  0
LTYPE
  2
CONTINUOUS
 70
     0
  3
Solid line
 72
    65
 73
     0
 40
0.0
  0
LTYPE
  2
PHANTOM2
 70
     0
  3
Phantom (.5x) ___ _ _ ___ _ _ ___ _ _ ___ _ _
 72
    65
 73
     6
 40
31.75
 49
15.875
 49
-3.174999999999998
 49
3.174999999999998
 49
-3.174999999999998
 49
3.174999999999998
 49
-3.174999999999998
  0
LTYPE
  2
CENTER
 70
     0
  3
Center ____ _ ____ _ ____ _ ____ _ ____ _ ____
 72
    65
 73
     4
 40
50.799999999999997
 49
31.75
 49
-6.349999999999997
 49
6.349999999999997
 49
-6.349999999999997
  0
LTYPE
  2
ACANSTGBM
 70
     0
  3
__ . . __ . .
 72
    65
 73
     6
 40
9.0
 49
4.0
 49
-1.0
 49
1.0
 49
-1.0
 49
1.0
 49
-1.0
  0
LTYPE
  2
ACANSTGLM
 70
     0
  3
_ _ _ _ _
 72
    65
 73
     2
 40
3.0
 49
2.0
 49
-1.0
  0
LTYPE
  2
GEN7
 70
     0
  3
____ . ____ . ____ . ____ . ____ . ____ . ____
 72
    65
 73
     4
 40
14.25
 49
9.75
 49
-1.5
 49
1.5
 49
-1.5
  0
LTYPE
  2
GEN3B
 70
     0
  3
 - - - - -
 72
    65
 73
     2
 40
1.0
 49
0.5
 49
-0.5
  0
LTYPE
  2
AM_ISO02W050
 70
     0
  3
__ __ __ __ __ __ __ __ __ __ __ __ __ __ __
 72
    65
 73
     2
 40
7.5
 49
6.0
 49
-1.5
  0
LTYPE
  2
AM_ISO08W050
 70
     0
  3
____ . ____ . ____ . ____ . ____ . ____ . ____
 72
    65
 73
     4
 40
18.0
 49
12.0
 49
-1.5
 49
3.0
 49
-1.5
  0
LTYPE
  2
AM_ISO09W050
 70
     0
  3
_____ . . _____ . . _____ . . ____ .. ____
 72
    65
 73
     6
 40
22.5
 49
12.0
 49
-1.5
 49
3.0
 49
-1.5
 49
3.0
 49
-1.5
  0
LTYPE
  2
AMCONSTR
 70
     0
  3
_______________________
 72
    65
 73
     2
 40
9999.0
 49
9999.0
 49
0.0
  0
LTYPE
  2
AM_ISO02W050X2
 70
     0
  3
 _ _ _ _ _ _ _ _ _ _ _ _
 72
    65
 73
     2
 40
3.75
 49
3.0
 49
-0.75
  0
LTYPE
  2
AM_ISO08W050X2
 70
     0
  3
__ . __ . __ . __ . __ . __
 72
    65
 73
     4
 40
9.0
 49
6.0
 49
-0.75
 49
1.5
 49
-0.75
  0
LTYPE
  2
AMZIGZAG
 70
     0
  3
/\/-/\/-/\/-/\/-/\/-/\/
 72
    65
 73
     2
 40
11.000099999999991
 49
0.0001
 49
-11.0
  0
LTYPE
  2
ACJISTGB
 70
     0
  3
__ . . __ . .
 72
    65
 73
     6
 40
9.0
 49
4.0
 49
-1.0
 49
1.0
 49
-1.0
 49
1.0
 49
-1.0
  0
LTYPE
  2
ACJISTGL
 70
     0
  3
_ _ _ _ _
 72
    65
 73
     2
 40
3.0
 49
2.0
 49
-1.0
  0
LTYPE
  2
ACISOWELD
 70
     0
  3
_ _ _ _ _
 72
    65
 73
     2
 40
2.0
 49
2.0
 49
-1.0
  0
LTYPE
  2
ACISOTGB
 70
     0
  3
__ . . __ . .
 72
    65
 73
     6
 40
9.0
 49
4.0
 49
-1.0
 49
1.0
 49
-1.0
 49
1.0
 49
-1.0
  0
LTYPE
  2
ACISOTGL
 70
     0
  3
_ _ _ _ _
 72
    65
 73
     2
 40
3.0
 49
2.0
 49
-1.0
  0
LTYPE
  2
HIDDEN
 70
     0
  3
Hidden __ __ __ __ __ __ __ __ __ __ __ __ __ _
 72
    65
 73
     2
 40
0.375
 49
0.25
 49
-0.125
  0
LTYPE
  2
CENTER2
 70
     0
  3
Center (.5x) ___ _ ___ _ ___ _ ___ _ ___ _ ___
 72
    65
 73
     4
 40
1.125
 49
0.75
 49
-0.125
 49
0.125
 49
-0.125
  0
LTYPE
  2
HIDDEN2
 70
     0
  3
Hidden (.5x) _ _ _ _ _ _ _ _ _ _ _ _ _ _ _ _ _
 72
    65
 73
     2
 40
0.1875
 49
0.125
 49
-0.0625
  0
LTYPE
  2
AMZIGZAG2
 70
     0
  3
/\/-/\/-/\/-/\/-/\/-/\/
 72
    65
 73
     2
 40
0.4401
 49
0.0001
 49
-0.4400000000000002
  0
LTYPE
  2
ACANSTGB
 70
     0
  3
__ . . __ . .
 72
    65
 73
     6
 40
0.35433070866
 49
0.15748031496
 49
-0.03937007874
 49
0.03937007874
 49
-0.03937007874
 49
0.03937007874
 49
-0.03937007874
  0
LTYPE
  2
ACANSTGL
 70
     0
  3
_ _ _ _ _
 72
    65
 73
     2
 40
0.11811023622
 49
0.07874015748
 49
-0.03937007874
  0
ENDTAB
  0
TABLE
  2
LAYER
 70
     7
  0
LAYER
  2
0
 70
     0
 62
     7
  6
CONTINUOUS
  0
LAYER
  2
AM_0
 70
     0
 62
     7
  6
CONTINUOUS
  0
LAYER
  2
DEFPOINTS
 70
     0
 62
     7
  6
CONTINUOUS
  0
LAYER
  2
ｶｸﾚｾﾝ2
 70
     0
 62
     3
  6
GEN3B
  0
LAYER
  2
ﾁｭｳｼﾝｾﾝ
 70
     0
 62
     1
  6
GEN7
  0
LAYER
  2
AM_0N
 70
     0
 62
     7
  6
CONTINUOUS
  0
LAYER
  2
AM_5
 70
     0
 62
     2
  6
CONTINUOUS
  0
ENDTAB
  0
TABLE
  2
STYLE
 70
    10
  0
STYLE
  2
STANDARD
 70
     0
 40
0.0
 41
0.8299999999999999
 50
0.0
 71
     0
 42
2.5
  3
txt.shx
  4
bigfont.shx
  0
STYLE
  2
ANNOTATIVE
 70
     0
 40
0.0
 41
1.0
 50
0.0
 71
     0
 42
0.2
  3
txt
  4

  0
STYLE
  2
ACANSTS
 70
     0
 40
1.0
 41
1.0
 50
0.0
 71
     0
 42
2.5
  3
romans.shx
  4
bigfont.shx
  0
STYLE
  2
ACANSGDT
 70
     0
 40
0.0
 41
1.0
 50
0.0
 71
     0
 42
2.5
  3
amgdt.shx
  4

  0
STYLE
  2

 70
     1
 40
0.0
 41
1.0
 50
0.0
 71
     0
 42
2.5
  3
ltypeshp.shx
  4

  0
STYLE
  2
ACJISTS
 70
     0
 40
1.0
 41
0.8299999999999999
 50
0.0
 71
     0
 42
2.5
  3
txt.shx
  4
bigfont.shx
  0
STYLE
  2
ACJISGDT
 70
     0
 40
0.0
 41
1.0
 50
0.0
 71
     0
 42
2.5
  3
amgdt.shx
  4

  0
STYLE
  2
ACISOTS
 70
     0
 40
1.0
 41
1.0
 50
0.0
 71
     0
 42
2.5
  3
isocp.shx
  4
extfont.shx
  0
STYLE
  2
ACISOGDT
 70
     0
 40
0.0
 41
1.0
 50
0.0
 71
     0
 42
2.5
  3
amgdt.shx
  4

  0
STYLE
  2

 70
     1
 40
0.0
 41
1.0
 50
0.0
 71
     0
 42
2.5
  3
genltshp.shx
  4

  0
ENDTAB
  0
TABLE
  2
VIEW
 70
    12
  0
VIEW
  2
GEN1
 70
     0
 40
95.824742268041234
 10
71.5
 20
137.08762886597941
 41
143.0
 11
0.0
 21
0.0
 31
1.0
 12
0.0
 22
0.0
 32
0.0
 42
50.0
 43
0.0
 44
0.0
 50
0.0
 71
     0
  0
VIEW
  2
GEN2
 70
     0
 40
95.824742268041234
 10
214.5
 20
137.08762886597941
 41
143.0
 11
0.0
 21
0.0
 31
1.0
 12
0.0
 22
0.0
 32
0.0
 42
50.0
 43
0.0
 44
0.0
 50
0.0
 71
     0
  0
VIEW
  2
GEN3
 70
     0
 40
95.824742268041234
 10
71.5
 20
47.912371134020603
 41
143.0
 11
0.0
 21
0.0
 31
1.0
 12
0.0
 22
0.0
 32
0.0
 42
50.0
 43
0.0
 44
0.0
 50
0.0
 71
     0
  0
VIEW
  2
GEN4
 70
     0
 40
95.824742268041234
 10
214.5
 20
47.912371134020603
 41
143.0
 11
0.0
 21
0.0
 31
1.0
 12
0.0
 22
0.0
 32
0.0
 42
50.0
 43
0.0
 44
0.0
 50
0.0
 71
     0
  0
VIEW
  2
GEN5
 70
     0
 40
95.824742268041234
 10
143.0
 20
92.500000000000057
 41
143.0
 11
0.0
 21
0.0
 31
1.0
 12
0.0
 22
0.0
 32
0.0
 42
50.0
 43
0.0
 44
0.0
 50
0.0
 71
     0
  0
VIEW
  2
GEN6
 70
     0
 40
191.64756804123709
 10
143.0
 20
92.5
 41
285.99713999999989
 11
0.0
 21
0.0
 31
1.0
 12
0.0
 22
0.0
 32
0.0
 42
50.0
 43
0.0
 44
0.0
 50
0.0
 71
     0
  0
VIEW
  2
AM_VIEW1
 70
     0
 40
142.0
 10
119.7777777777777
 20
213.0
 41
239.55555555555549
 11
0.0
 21
0.0
 31
1.0
 12
0.0
 22
0.0
 32
0.0
 42
50.0
 43
0.0
 44
0.0
 50
0.0
 71
     0
  0
VIEW
  2
AM_VIEW2
 70
     0
 40
142.0
 10
288.22222222222211
 20
213.0
 41
239.55555555555549
 11
0.0
 21
0.0
 31
1.0
 12
0.0
 22
0.0
 32
0.0
 42
50.0
 43
0.0
 44
0.0
 50
0.0
 71
     0
  0
VIEW
  2
AM_VIEW3
 70
     0
 40
142.0
 10
119.7777777777777
 20
71.0
 41
239.55555555555549
 11
0.0
 21
0.0
 31
1.0
 12
0.0
 22
0.0
 32
0.0
 42
50.0
 43
0.0
 44
0.0
 50
0.0
 71
     0
  0
VIEW
  2
AM_VIEW4
 70
     0
 40
142.0
 10
288.22222222222211
 20
71.0
 41
239.55555555555549
 11
0.0
 21
0.0
 31
1.0
 12
0.0
 22
0.0
 32
0.0
 42
50.0
 43
0.0
 44
0.0
 50
0.0
 71
     0
  0
VIEW
  2
AM_VIEW5
 70
     0
 40
142.0
 10
204.0
 20
142.0
 41
239.55555555555549
 11
0.0
 21
0.0
 31
1.0
 12
0.0
 22
0.0
 32
0.0
 42
50.0
 43
0.0
 44
0.0
 50
0.0
 71
     0
  0
VIEW
  2
AM_VIEW6
 70
     0
 40
283.99716000000001
 10
204.0
 20
142.0
 41
479.10631999999993
 11
0.0
 21
0.0
 31
1.0
 12
0.0
 22
0.0
 32
0.0
 42
50.0
 43
0.0
 44
0.0
 50
0.0
 71
     0
  0
ENDTAB
  0
TABLE
  2
UCS
 70
     0
  0
ENDTAB
  0
TABLE
  2
APPID
 70
   107
  0
APPID
  2
ACAD
 70
     0
  0
APPID
  2
ACADANNOTATIVE
 70
     0
  0
APPID
  2
MCAD_NO_VIS
 70
     0
  0
APPID
  2
ACAD_TEMP_GRAPHIC
 70
     0
  0
APPID
  2
AD_DRAW
 70
     0
  0
APPID
  2
DESIGNERASSEMBLIES
 70
     0
  0
APPID
  2
ASURF_PCURVE_APPNAME
 70
     0
  0
APPID
  2
GENIUS_GE3SECT_13
 70
     0
  0
APPID
  2
GENIUS_GENCFG_13
 70
     0
  0
APPID
  2
GENIUS_GE3CFG0_13
 70
     0
  0
APPID
  2
GENIUS_GENCFG0_13
 70
     0
  0
APPID
  2
GENIUS_GENCFG1_13
 70
     0
  0
APPID
  2
GENIUS_GENCFG2_13
 70
     0
  0
APPID
  2
GENIUS_GENCFG3_13
 70
     0
  0
APPID
  2
GENIUS_GENCFG4_13
 70
     0
  0
APPID
  2
GENIUS_GEVCFG0_13
 70
     0
  0
APPID
  2
GENIUS_GENOENT_13
 70
     0
  0
APPID
  2
GENIUS_GENREC_14
 70
     0
  0
APPID
  2
GENIUS_GENODEF_13
 70
     0
  0
APPID
  2
GENIUS_GENOBJ-N-REC_13
 70
     0
  0
APPID
  2
GENIUS_GENHINW_13
 70
     0
  0
APPID
  2
GENIUS_FIRSTVISTXT_14
 70
     0
  0
APPID
  2
GENIUS_GENOBJ-N-LEADER_13
 70
     0
  0
APPID
  2
GENIUS_GENOREF_13
 70
     0
  0
APPID
  2
GENIUS_GENOLIS_13
 70
     0
  0
APPID
  2
GEV_VCCNULL_SWITCH_OFF
 70
     0
  0
APPID
  2
GENIUS_GENDTOL_13
 70
     0
  0
APPID
  2
GENIUS_GEFCFG0_13
 70
     0
  0
APPID
  2
GENIUS_GENOBJ-N-TIT_13
 70
     0
  0
APPID
  2
GENIUS_GENTITLE_13
 70
     0
  0
APPID
  2
GENIUS_GENZVEED_13
 70
     0
  0
APPID
  2
GENIUS_GENOBJ-N-SDF_13
 70
     0
  0
APPID
  2
GENIUS_GENSCREG_13
 70
     0
  0
APPID
  2
GENIUS_DUMCFG0_13
 70
     0
  0
APPID
  2
GEVID936201362
 70
     0
  0
APPID
  2
GEVDC
 70
     0
  0
APPID
  2
GEVCON
 70
     0
  0
APPID
  2
VCC
 70
     0
  0
APPID
  2
GEVPT
 70
     0
  0
APPID
  2
GEVIT
 70
     0
  0
APPID
  2
GENBH
 70
     0
  0
APPID
  2
GEVMK
 70
     0
  0
APPID
  2
GENIUS_GENBH_13
 70
     0
  0
APPID
  2
GENIUS_GENOBJ-NBEHI-BHF_13
 70
     0
  0
APPID
  2
GENIUS_GENOBJ-NBEHI-BHB_13
 70
     0
  0
APPID
  2
GENIUS_GENOBJ-F-DESC_13
 70
     0
  0
APPID
  2
GENIUS_GEFDESC_14
 70
     0
  0
APPID
  2
GENIUS_GENOBJ-F-PART_13
 70
     0
  0
APPID
  2
GENIUS_GEFSTDP_13
 70
     0
  0
APPID
  2
GENIUS_GEFPARTINS_13
 70
     0
  0
APPID
  2
GENIUS_GENTRA_14
 70
     0
  0
APPID
  2
GENIUS_GENINF13_13
 70
     0
  0
APPID
  2
GENIUS_GENOBJ-N-INFOPT_13
 70
     0
  0
APPID
  2
GENIUS_GENOBJ-N-RSSYM_13
 70
     0
  0
APPID
  2
GENIUS_GENSYMENT_13
 70
     0
  0
APPID
  2
GENIUS_GENSCSYM_13
 70
     0
  0
APPID
  2
GENIUS_GEFINFNAM_13
 70
     0
  0
APPID
  2
GENIUS_GENSCREG_15
 70
     0
  0
APPID
  2
GENIUS_GENOBJ-N-CEN_13
 70
     0
  0
APPID
  2
GENIUS_GENOBJ-N-CRS_13
 70
     0
  0
APPID
  2
GENIUS_GENOBJ-N-CRC_13
 70
     0
  0
APPID
  2
GENIUS_GENCRC_14
 70
     0
  0
APPID
  2
GEVID942827039
 70
     0
  0
APPID
  2
GEVID942827040
 70
     0
  0
APPID
  2
GEVID942827041
 70
     0
  0
APPID
  2
GENIUS_GENOBJ-F-SCPASSM_13
 70
     0
  0
APPID
  2
GENIUS_GENDIMSH_14
 70
     0
  0
APPID
  2
GENIUS_GENFIL_13
 70
     0
  0
APPID
  2
GENIUS_GENOBJ-N-CHA_13
 70
     0
  0
APPID
  2
GENIUS_GENOBJ-N-FIL_13
 70
     0
  0
APPID
  2
GEVID942827042
 70
     0
  0
APPID
  2
GEVID946020473
 70
     0
  0
APPID
  2
GEVID946020474
 70
     0
  0
APPID
  2
GEVID946020475
 70
     0
  0
APPID
  2
GENIUS_GENOBJ-N-HTC_13
 70
     0
  0
APPID
  2
GENIUS_GENHATCH_13
 70
     0
  0
APPID
  2
GEVID948854295
 70
     0
  0
APPID
  2
GEVID939402019
 70
     0
  0
APPID
  2
GEVID952919491
 70
     0
  0
APPID
  2
GEVID952919492
 70
     0
  0
APPID
  2
GENIUS_GEFWELD_13
 70
     0
  0
APPID
  2
GENIUS_GENOBJ-F-WELS_13
 70
     0
  0
APPID
  2
GEVID952919493
 70
     0
  0
APPID
  2
GENIUS_GENOBJ-N-RSBK_13
 70
     0
  0
APPID
  2
GENIUS_GENOBJ-N-LIB_13
 70
     0
  0
APPID
  2
GENIUS_GENSCALE_13
 70
     0
  0
APPID
  2
GEVID986376691
 70
     0
  0
APPID
  2
ACATTRIBSERVICES
 70
     0
  0
APPID
  2
GENIUS_AMGTXT_16
 70
     0
  0
APPID
  2
ACADM_DIM_EDIT
 70
     0
  0
APPID
  2
AMDT_DM_ADJ
 70
     0
  0
APPID
  2
GEVID1057795304
 70
     0
  0
APPID
  2
GENIUS_GEFSH_13
 70
     0
  0
APPID
  2
GENIUS_GENOBJ-F-SHS_13
 70
     0
  0
APPID
  2
GENIUS_GENOBJ-N-ADDLEAD_13
 70
     0
  0
APPID
  2
GENIUS_GENMAINADDLEADER_14
 70
     0
  0
APPID
  2
GENIUS_GENADDLEADER_14
 70
     0
  0
APPID
  2
GENIUS_GENDREL_13
 70
     0
  0
APPID
  2
GEVID1121934822
 70
     0
  0
APPID
  2
GEVID1121934823
 70
     0
  0
APPID
  2
GEVID1121934824
 70
     0
  0
APPID
  2
ACAD_DSTYLE_DIMJAG
 70
     0
  0
APPID
  2
ACAD_DSTYLE_DIMBREAK
 70
     0
  0
APPID
  2
ACAD_NAV_VCDISPLAY
 70
     0
  0
APPID
  2
ACADANNOPO
 70
     0
  0
APPID
  2
ACAD_EXEMPT_FROM_CAD_STANDARDS
 70
     0
  0
APPID
  2
ACAD_MLEADERVER
 70
     0
  0
ENDTAB
  0
TABLE
  2
DIMSTYLE
 70
    29
  0
DIMSTYLE
  2
STANDARD
 70
     0
  3

  4

  5

  6

  7

 40
1.0
 41
0.18
 42
0.0625
 43
0.38
 44
0.18
 45
0.0
 46
0.0
 47
0.0
 48
0.0
140
0.18
141
0.09
142
0.0
143
25.399999999999999
144
1.0
145
0.0
146
1.0
147
0.09
 71
     0
 72
     0
 73
     1
 74
     1
 75
     0
 76
     0
 77
     0
 78
     0
170
     0
171
     2
172
     0
173
     0
174
     0
175
     0
176
     0
177
     0
178
     0
  0
DIMSTYLE
  2
ANNOTATIVE
 70
     0
  3

  4

  5

  6

  7

 40
1.0
 41
0.18
 42
0.0625
 43
0.38
 44
0.18
 45
0.0
 46
0.0
 47
0.0
 48
0.0
140
0.18
141
0.09
142
0.0
143
25.399999999999999
144
1.0
145
0.0
146
1.0
147
0.09
 71
     0
 72
     0
 73
     1
 74
     1
 75
     0
 76
     0
 77
     0
 78
     0
170
     0
171
     2
172
     0
173
     0
174
     0
175
     0
176
     0
177
     0
178
     0
  0
DIMSTYLE
  2
AM_JIS
 70
     0
  3

  4
"
  5

  6

  7

 40
1.0
 41
2.0
 42
1.0
 43
8.0
 44
1.0
 45
0.0
 46
0.0
 47
0.1
 48
0.1
140
2.5
141
0.0
142
0.0
143
0.0393701
144
1.0
145
0.0
146
0.71
147
1.5
 71
     0
 72
     0
 73
     0
 74
     0
 75
     0
 76
     0
 77
     3
 78
     8
170
     0
171
     2
172
     1
173
     0
174
     0
175
     0
176
   256
177
   256
178
     4
  0
DIMSTYLE
  2
AM_JIS$3
 70
     0
  3

  4
"
  5

  6

  7

 40
1.0
 41
2.0
 42
1.0
 43
10.0
 44
1.0
 45
0.0
 46
0.0
 47
0.1
 48
0.1
140
2.5
141
0.0
142
0.0
143
0.0393701
144
1.0
145
0.0
146
0.71
147
1.5
 71
     0
 72
     0
 73
     0
 74
     1
 75
     0
 76
     0
 77
     3
 78
     8
170
     0
171
     2
172
     0
173
     0
174
     0
175
     0
176
   256
177
   256
178
     4
  0
DIMSTYLE
  2
AM_JIS$4
 70
     0
  3

  4
"
  5

  6

  7

 40
1.0
 41
2.0
 42
1.0
 43
10.0
 44
1.0
 45
0.0
 46
0.0
 47
0.1
 48
0.1
140
2.5
141
0.0
142
0.0
143
0.0393701
144
1.0
145
0.0
146
0.71
147
1.5
 71
     0
 72
     0
 73
     0
 74
     0
 75
     0
 76
     0
 77
     3
 78
     8
170
     0
171
     2
172
     0
173
     0
174
     0
175
     0
176
   256
177
   256
178
     4
  0
DIMSTYLE
  2
AM_JIS$6
 70
     0
  3

  4
"
  5

  6

  7

 40
1.0
 41
2.0
 42
1.0
 43
10.0
 44
1.0
 45
0.0
 46
0.0
 47
0.1
 48
0.1
140
2.5
141
0.0
142
0.0
143
0.0393701
144
1.0
145
0.0
146
0.71
147
1.5
 71
     0
 72
     0
 73
     0
 74
     0
 75
     0
 76
     0
 77
     0
 78
     8
170
     0
171
     2
172
     1
173
     0
174
     0
175
     0
176
   256
177
   256
178
     4
  0
DIMSTYLE
  2
AM_JIS$7
 70
     0
  3

  4
"
  5

  6

  7

 40
1.0
 41
2.0
 42
1.0
 43
10.0
 44
1.0
 45
0.0
 46
0.0
 47
0.1
 48
0.1
140
2.5
141
0.0
142
0.0
143
0.0393701
144
1.0
145
0.0
146
0.71
147
1.5
 71
     0
 72
     0
 73
     0
 74
     0
 75
     0
 76
     0
 77
     3
 78
     8
170
     0
171
     2
172
     1
173
     0
174
     0
175
     0
176
   256
177
   256
178
     4
  0
DIMSTYLE
  2
AM_JIS$SF
 70
     0
  3

  4
"
  5

  6

  7

 40
1.0
 41
2.0
 42
1.0
 43
10.0
 44
1.0
 45
0.0
 46
0.0
 47
0.1
 48
0.1
140
2.5
141
0.0
142
0.0
143
0.0393701
144
1.0
145
0.0
146
0.71
147
1.5
 71
     0
 72
     0
 73
     0
 74
     0
 75
     1
 76
     1
 77
     3
 78
     8
170
     0
171
     2
172
     1
173
     0
174
     0
175
     0
176
   256
177
   256
178
     4
  0
DIMSTYLE
  2
AM_JIS$SH
 70
     0
  3

  4
"
  5

  6

  7

 40
1.0
 41
2.0
 42
1.0
 43
10.0
 44
1.0
 45
0.0
 46
0.0
 47
0.1
 48
0.1
140
2.5
141
0.0
142
0.0
143
0.0393701
144
2.0
145
0.0
146
0.71
147
1.5
 71
     0
 72
     0
 73
     0
 74
     0
 75
     1
 76
     1
 77
     3
 78
     8
170
     0
171
     2
172
     1
173
     1
174
     0
175
     0
176
   256
177
   256
178
     4
  0
DIMSTYLE
  2
AM_ISO
 70
     0
  3

  4
"
  5

  6

  7

 40
1.0
 41
2.5
 42
1.0
 43
10.0
 44
1.0
 45
0.0
 46
0.0
 47
0.1
 48
0.1
140
3.5
141
0.0
142
0.0
143
0.0393701
144
1.0
145
0.0
146
0.71
147
1.5
 71
     0
 72
     0
 73
     0
 74
     0
 75
     0
 76
     0
 77
     1
 78
     8
170
     0
171
     2
172
     1
173
     0
174
     0
175
     0
176
   256
177
   256
178
     2
  0
DIMSTYLE
  2
AM_ISO$3
 70
     0
  3

  4
"
  5

  6

  7

 40
1.0
 41
2.5
 42
1.0
 43
10.0
 44
1.0
 45
0.0
 46
0.0
 47
0.1
 48
0.1
140
3.5
141
0.0
142
0.0
143
0.0393701
144
1.0
145
0.0
146
0.71
147
1.5
 71
     0
 72
     0
 73
     0
 74
     1
 75
     0
 76
     0
 77
     1
 78
     8
170
     0
171
     2
172
     0
173
     0
174
     0
175
     0
176
   256
177
   256
178
     2
  0
DIMSTYLE
  2
AM_ISO$4
 70
     0
  3

  4
"
  5

  6

  7

 40
1.0
 41
2.5
 42
1.0
 43
10.0
 44
1.0
 45
0.0
 46
0.0
 47
0.1
 48
0.1
140
3.5
141
0.0
142
0.0
143
0.0393701
144
1.0
145
0.0
146
0.71
147
1.5
 71
     0
 72
     0
 73
     0
 74
     1
 75
     0
 76
     0
 77
     1
 78
     8
170
     0
171
     2
172
     0
173
     0
174
     0
175
     0
176
   256
177
   256
178
     2
  0
DIMSTYLE
  2
AM_ISO$6
 70
     0
  3

  4
"
  5

  6

  7

 40
1.0
 41
2.5
 42
1.0
 43
10.0
 44
1.0
 45
0.0
 46
0.0
 47
0.1
 48
0.1
140
3.5
141
0.0
142
0.0
143
0.0393701
144
1.0
145
0.0
146
0.71
147
1.5
 71
     0
 72
     0
 73
     0
 74
     0
 75
     0
 76
     0
 77
     0
 78
     8
170
     0
171
     2
172
     1
173
     0
174
     0
175
     0
176
   256
177
   256
178
     2
  0
DIMSTYLE
  2
AM_ISO$7
 70
     0
  3

  4
"
  5

  6

  7

 40
1.0
 41
2.5
 42
1.0
 43
10.0
 44
1.0
 45
0.0
 46
0.0
 47
0.1
 48
0.1
140
5.0
141
0.0
142
0.0
143
0.0393701
144
1.0
145
0.0
146
0.71
147
1.5
 71
     0
 72
     0
 73
     0
 74
     0
 75
     0
 76
     0
 77
     1
 78
     8
170
     0
171
     2
172
     1
173
     0
174
     0
175
     0
176
   256
177
   256
178
     2
  0
DIMSTYLE
  2
AM_ISO$SF
 70
     0
  3

  4
"
  5

  6

  7

 40
1.0
 41
2.5
 42
1.0
 43
10.0
 44
1.0
 45
0.0
 46
0.0
 47
0.1
 48
0.1
140
3.5
141
0.0
142
0.0
143
0.0393701
144
1.0
145
0.0
146
0.71
147
1.5
 71
     0
 72
     0
 73
     0
 74
     0
 75
     1
 76
     1
 77
     1
 78
     8
170
     0
171
     2
172
     1
173
     0
174
     0
175
     0
176
   256
177
   256
178
     2
  0
DIMSTYLE
  2
AM_ISO$SH
 70
     0
  3

  4
"
  5

  6

  7

 40
1.0
 41
2.5
 42
1.0
 43
10.0
 44
1.0
 45
0.0
 46
0.0
 47
0.1
 48
0.1
140
3.5
141
0.0
142
0.0
143
0.0393701
144
2.0
145
0.0
146
0.71
147
1.5
 71
     0
 72
     0
 73
     0
 74
     0
 75
     1
 76
     1
 77
     1
 78
     8
170
     0
171
     2
172
     1
173
     1
174
     0
175
     0
176
   256
177
   256
178
     2
  0
DIMSTYLE
  2
GEN-ANSI
 70
     0
  3

  4
"
  5

  6

  7

 40
1.0
 41
2.0
 42
0.5
 43
10.0
 44
0.5
 45
0.0
 46
0.0
 47
0.1
 48
0.1
140
2.5
141
0.0
142
0.0
143
0.0393701
144
1.0
145
0.0
146
0.71
147
1.5
 71
     0
 72
     0
 73
     1
 74
     1
 75
     0
 76
     0
 77
     0
 78
     8
170
     0
171
     2
172
     0
173
     0
174
     0
175
     0
176
   256
177
   256
178
     4
  0
DIMSTYLE
  2
GEN-ANSI$3
 70
     0
  3

  4
"
  5

  6

  7

 40
1.0
 41
2.0
 42
0.5
 43
10.0
 44
0.5
 45
0.0
 46
0.0
 47
0.1
 48
0.1
140
2.5
141
0.0
142
0.0
143
0.0393701
144
1.0
145
0.0
146
0.71
147
1.5
 71
     0
 72
     0
 73
     1
 74
     1
 75
     0
 76
     0
 77
     0
 78
     8
170
     0
171
     2
172
     0
173
     0
174
     0
175
     0
176
   256
177
   256
178
     4
  0
DIMSTYLE
  2
GEN-ANSI$4
 70
     0
  3

  4
"
  5

  6

  7

 40
1.0
 41
2.0
 42
0.5
 43
10.0
 44
0.5
 45
0.0
 46
0.0
 47
0.1
 48
0.1
140
2.5
141
0.0
142
0.0
143
0.0393701
144
1.0
145
0.0
146
0.71
147
1.5
 71
     0
 72
     0
 73
     1
 74
     1
 75
     0
 76
     0
 77
     0
 78
     8
170
     0
171
     2
172
     0
173
     0
174
     0
175
     0
176
   256
177
   256
178
     4
  0
DIMSTYLE
  2
GEN-ANSI$6
 70
     0
  3

  4
"
  5

  6

  7

 40
1.0
 41
2.0
 42
0.5
 43
10.0
 44
0.5
 45
0.0
 46
0.0
 47
0.1
 48
0.1
140
2.5
141
0.0
142
0.0
143
0.0393701
144
1.0
145
0.0
146
0.71
147
1.5
 71
     0
 72
     0
 73
     1
 74
     1
 75
     0
 76
     0
 77
     0
 78
     8
170
     0
171
     2
172
     0
173
     0
174
     0
175
     0
176
   256
177
   256
178
     4
  0
DIMSTYLE
  2
GEN-ANSI-POS
 70
     0
  3

  4
"
  5

  6

  7

 40
1.0
 41
2.5
 42
0.5
 43
10.0
 44
0.5
 45
0.0
 46
0.0
 47
0.1
 48
0.1
140
5.0
141
0.0
142
0.0
143
0.0393701
144
1.0
145
0.0
146
0.71
147
1.5
 71
     0
 72
     0
 73
     0
 74
     0
 75
     0
 76
     0
 77
     0
 78
     8
170
     0
171
     2
172
     0
173
     0
174
     0
175
     0
176
   256
177
   256
178
     4
  0
DIMSTYLE
  2
GEN-ANSI-AXE-F
 70
     0
  3

  4
"
  5

  6

  7

 40
1.0
 41
2.0
 42
0.5
 43
10.0
 44
0.5
 45
0.0
 46
0.0
 47
0.1
 48
0.1
140
2.5
141
0.0
142
0.0
143
0.0393701
144
1.0
145
0.0
146
0.71
147
1.5
 71
     0
 72
     0
 73
     1
 74
     1
 75
     1
 76
     1
 77
     0
 78
     8
170
     0
171
     2
172
     0
173
     1
174
     0
175
     0
176
   256
177
   256
178
     4
  0
DIMSTYLE
  2
GEN-ANSI-AXE-H
 70
     0
  3

  4
"
  5

  6

  7

 40
1.0
 41
2.0
 42
0.5
 43
10.0
 44
0.5
 45
0.0
 46
0.0
 47
0.1
 48
0.1
140
2.5
141
0.0
142
0.0
143
0.0393701
144
2.0
145
0.0
146
0.71
147
1.5
 71
     0
 72
     0
 73
     0
 74
     0
 75
     1
 76
     1
 77
     0
 78
     8
170
     0
171
     2
172
     1
173
     1
174
     0
175
     0
176
   256
177
   256
178
     4
  0
DIMSTYLE
  2
AM_ANSI
 70
     0
  3

  4
mm
  5

  6

  7

 40
1.0
 41
0.12
 42
0.05
 43
0.5
 44
0.1
 45
0.0
 46
0.0
 47
0.1
 48
0.1
140
0.12
141
0.0
142
0.0
143
25.399999999999999
144
1.0
145
0.0
146
0.71
147
0.06
 71
     0
 72
     0
 73
     1
 74
     1
 75
     0
 76
     0
 77
     0
 78
     7
170
     0
171
     2
172
     0
173
     0
174
     0
175
     0
176
   256
177
   256
178
     2
  0
DIMSTYLE
  2
AM_ANSI$3
 70
     0
  3

  4
mm
  5

  6

  7

 40
1.0
 41
0.12
 42
0.05
 43
0.5
 44
0.1
 45
0.0
 46
0.0
 47
0.1
 48
0.1
140
0.12
141
0.0
142
0.0
143
25.399999999999999
144
1.0
145
0.0
146
0.71
147
0.06
 71
     0
 72
     0
 73
     1
 74
     1
 75
     0
 76
     0
 77
     0
 78
     7
170
     0
171
     2
172
     0
173
     0
174
     0
175
     0
176
   256
177
   256
178
     2
  0
DIMSTYLE
  2
AM_ANSI$4
 70
     0
  3

  4
mm
  5

  6

  7

 40
1.0
 41
0.12
 42
0.05
 43
0.5
 44
0.1
 45
0.0
 46
0.0
 47
0.1
 48
0.1
140
0.12
141
0.0
142
0.0
143
25.399999999999999
144
1.0
145
0.0
146
0.71
147
0.06
 71
     0
 72
     0
 73
     1
 74
     1
 75
     0
 76
     0
 77
     0
 78
     7
170
     0
171
     2
172
     0
173
     0
174
     0
175
     0
176
   256
177
   256
178
     2
  0
DIMSTYLE
  2
AM_ANSI$7
 70
     0
  3

  4
mm
  5

  6

  7

 40
1.0
 41
0.12
 42
0.05
 43
0.5
 44
0.1
 45
0.0
 46
0.0
 47
0.1
 48
0.1
140
0.12
141
0.0
142
0.0
143
25.399999999999999
144
1.0
145
0.0
146
0.71
147
0.06
 71
     0
 72
     0
 73
     1
 74
     1
 75
     0
 76
     0
 77
     0
 78
     7
170
     0
171
     2
172
     0
173
     0
174
     0
175
     0
176
   256
177
   256
178
     2
  0
DIMSTYLE
  2
AM_ANSI$SF
 70
     0
  3

  4
mm
  5

  6

  7

 40
1.0
 41
0.12
 42
0.05
 43
0.5
 44
0.1
 45
0.0
 46
0.0
 47
0.1
 48
0.1
140
0.12
141
0.0
142
0.0
143
25.399999999999999
144
1.0
145
0.0
146
0.71
147
0.06
 71
     0
 72
     0
 73
     1
 74
     1
 75
     1
 76
     1
 77
     0
 78
     7
170
     0
171
     2
172
     0
173
     0
174
     0
175
     0
176
   256
177
   256
178
     2
  0
DIMSTYLE
  2
AM_ANSI$SH
 70
     0
  3

  4
mm
  5

  6

  7

 40
1.0
 41
0.12
 42
0.05
 43
0.5
 44
0.1
 45
0.0
 46
0.0
 47
0.1
 48
0.1
140
0.12
141
0.0
142
0.0
143
25.399999999999999
144
1.0
145
0.0
146
0.71
147
0.06
 71
     0
 72
     0
 73
     1
 74
     1
 75
     1
 76
     1
 77
     0
 78
     7
170
     0
171
     2
172
     0
173
     1
174
     0
175
     0
176
   256
177
   256
178
     2
  0
ENDTAB
  0
ENDSEC
  0
SECTION
  2
BLOCKS
  0
BLOCK
  8
0
  2
$MODEL_SPACE
 70
     0
 10
0.0
 20
0.0
 30
0.0
  3
$MODEL_SPACE
  1

  0
ENDBLK
  5
A4B9
  8
0
  0
BLOCK
 67
     1
  8
0
  2
$PAPER_SPACE
 70
     0
 10
0.0
 20
0.0
 30
0.0
  3
$PAPER_SPACE
  1

  0
ENDBLK
  5
A4B5
 67
     1
  8
0
  0
BLOCK
  8
0
  2
GENAXEH
 70
     0
 10
0.0
 20
0.0
 30
0.0
  3
GENAXEH
  1

  0
LINE
  5
A1FB
  8
0
 10
-1.0
 20
0.0
 30
0.0
 11
1.0
 21
0.0
 31
0.0
  0
ENDBLK
  5
A1FD
  8
0
  0
BLOCK
  8
0
  2
_ACMFILLEDHALF
 70
     0
 10
0.0
 20
0.0
 30
0.0
  3
_ACMFILLEDHALF
  1

  0
TRACE
  5
A3C2
  8
AM_0
 62
     0
 10
-0.8
 20
0.0
 30
0.0
 11
-1.0
 21
0.166666666
 31
0.0
 12
0.0
 22
0.0
 32
0.0
 13
0.0
 23
0.0
 33
0.0
  0
LINE
  5
A3C3
  8
AM_0
 62
     0
 10
-1.0
 20
0.0
 30
0.0
 11
-0.8
 21
0.0
 31
0.0
  0
ENDBLK
  5
A3C1
  8
0
  0
ENDSEC
  0
SECTION
  2
ENTITIES
  0
POINT
  5
1B94
  8
0
 10
0.0
 20
0.0
 30
0.0
1001
GENIUS_GENODEF_13
1002
{
1000
HIER
1070
     1
1002
}
1002
{
1000
MANEDIT
1070
     0
1002
}
1002
{
1000
NOSEL
1070
     0
1002
}
1002
{
1000
BEHIND
1070
     0
1002
}
1002
{
1000
REACTOR
1002
}
1001
GENIUS_GENOBJ-N-SDF_13
1002
{
1000
OWNER
1000
GEN
1002
}
1001
GENIUS_GENOENT_13
1002
{
1000
MYREF
1005
1B94
1002
}
1002
{
1000
GRP
1005
0
1002
}
1001
GENIUS_GENOLIS_13
1002
{
1000
ENT
1005
89
1002
}
  0
ARC
  5
8C98
  8
AM_0
 10
382.67481722694617
 20
137.2245642925171
 30
0.0
 40
10.000000199999979
 50
90.00000299999769
 51
180.00001000000091
  0
ARC
  5
8C99
  8
AM_0
 10
377.67477722694628
 20
29.991250292517289
 30
0.0
 40
5.0000000999999958
 50
179.99998999999889
 51
270.0
  0
LINE
  5
8C9A
  8
AM_0
 10
329.67477722694628
 20
173.7912642925171
 30
0.0
 11
385.8056772269465
 21
172.3214442925171
 31
0.0
  0
LINE
  5
8C9B
  8
AM_0
 10
372.6747972269464
 20
37.604548292517279
 30
0.0
 11
385.67481722694617
 21
37.604548292517279
 31
0.0
  0
LINE
  5
8C9C
  8
AM_0
 10
323.67477722694628
 20
10.991266292517251
 30
0.0
 11
377.67477722694628
 21
10.991266292517251
 31
0.0
  0
LINE
  5
8C9D
  8
ﾁｭｳｼﾝｾﾝ
 10
298.40172722694678
 20
115.9912692925171
 30
0.0
 11
455.62257722694631
 21
115.9912692925171
 31
0.0
  0
ARC
  5
8C9E
  8
AM_0
 10
109.746823002963
 20
115.900369684746
 30
0.0
 40
254.9267902494928
 50
357.14248769308739
 51
358.57883848710748
  0
LINE
  5
8CA3
  8
AM_0
 10
267.41628722694651
 20
85.854274292517175
 30
0.0
 11
277.17477722694628
 21
105.2912862925171
 31
0.0
  0
LINE
  5
8CA4
  8
AM_0
 10
286.17477722694628
 20
28.79125329251724
 30
0.0
 11
286.17477722694628
 21
156.7912542925171
 31
0.0
  0
LINE
  5
8CA5
  8
AM_0
 10
277.17477722694628
 20
153.02109429251701
 30
0.0
 11
277.17477722694628
 21
31.581658292517201
 31
0.0
  0
LINE
  5
8CA6
  8
AM_0
 10
217.67484722694661
 20
61.291240292517273
 30
0.0
 11
217.67484722694661
 21
174.29124429251709
 31
0.0
  0
LINE
  5
8CA7
  8
AM_0
 10
322.67481722694617
 20
123.9404562925173
 30
0.0
 11
322.67481722694617
 21
33.247276292517199
 31
0.0
  0
LINE
  5
8CA8
  8
AM_0
 10
312.67479722694628
 20
163.6136142925171
 30
0.0
 11
312.67479722694628
 21
24.991264292517261
 31
0.0
  0
LINE
  5
8CA9
  8
AM_0
 10
329.67477722694628
 20
173.79129429251711
 30
0.0
 11
329.67477722694628
 21
46.134133292517397
 31
0.0
  0
LINE
  5
8CAA
  8
AM_0
 10
372.6747972269464
 20
29.991250292517289
 30
0.0
 11
372.6747972269464
 21
137.2245642925171
 31
0.0
  0
LINE
  5
8CAD
  8
AM_0
 10
217.67484722694661
 20
85.854259292517426
 30
0.0
 11
267.41634722694681
 21
85.854259292517426
 31
0.0
  0
LINE
  5
8CAE
  8
AM_0
 10
217.67484722694661
 20
71.791255292517121
 30
0.0
 11
269.40822722694668
 21
71.791255292517121
 31
0.0
  0
LINE
  5
8CAF
  8
AM_0
 10
217.67478722694651
 20
61.29127029251709
 30
0.0
 11
244.77951722694641
 21
60.344752292517221
 31
0.0
  0
LINE
  5
8CB0
  8
AM_0
 10
209.67477722694639
 20
61.79125329251724
 30
0.0
 11
217.67484722694661
 21
61.79125329251724
 31
0.0
  0
LINE
  5
8CB1
  8
AM_0
 10
209.67477722694639
 20
71.791255292517121
 30
0.0
 11
217.67484722694661
 21
71.791255292517121
 31
0.0
  0
LINE
  5
8CB2
  8
AM_0
 10
209.67477722694639
 20
85.851238292517223
 30
0.0
 11
217.67484722694661
 21
85.851238292517223
 31
0.0
  0
LINE
  5
8CB3
  8
ﾁｭｳｼﾝｾﾝ
 10
310.67481722694617
 20
27.991264292517261
 30
0.0
 11
310.6748172269464
 21
6.991279292517107
 31
0.0
  0
LINE
  5
8CB4
  8
AM_0
 10
295.67481722694617
 20
22.991266292517249
 30
0.0
 11
295.67481722694617
 21
9.9912642925172541
 31
0.0
  0
LINE
  5
8CB5
  8
ｶｸﾚｾﾝ2
 10
316.67481722694617
 20
24.991264292517261
 30
0.0
 11
316.67481722694617
 21
9.9912642925172541
 31
0.0
  0
LINE
  5
8CB6
  8
ｶｸﾚｾﾝ2
 10
304.67481722694617
 20
24.991264292517261
 30
0.0
 11
304.67481722694617
 21
9.9912642925172541
 31
0.0
  0
LINE
  5
8CB7
  8
AM_0
 10
295.67481722694617
 20
9.9912642925172541
 30
0.0
 11
322.67481722694617
 21
9.9912642925172541
 31
0.0
  0
ARC
  5
8CBC
  8
AM_0
 10
323.67477722694628
 20
9.9912642925172541
 30
0.0
 40
1.0000000199999941
 50
90.00000299999769
 51
180.00001000000091
  0
LINE
  5
8CBD
  8
AM_0
 10
322.67481722694617
 20
9.9912642925172541
 30
0.0
 11
322.67481722694617
 21
9.9912642925172541
 31
0.0
  0
LINE
  5
8CBF
  8
AM_0
 10
286.17477722694628
 20
41.291269292517207
 30
0.0
 11
312.67479722694628
 21
41.291269292517207
 31
0.0
  0
LINE
  5
8CC0
  8
AM_0
 10
286.17477722694628
 20
55.643350292517077
 30
0.0
 11
312.67479722694628
 21
55.643350292517077
 31
0.0
  0
LINE
  5
8CC1
  8
AM_0
 10
308.81787722694639
 20
28.471354292517269
 30
0.0
 11
310.19577722694618
 21
28.22840229251721
 31
0.0
  0
LINE
  5
8CC2
  8
AM_0
 10
297.67479722694628
 20
24.991264292517261
 30
0.0
 11
323.18913722694651
 21
24.991264292517261
 31
0.0
  0
ARC
  5
8CC3
  8
AM_0
 10
252.3805872269464
 20
55.07627229251738
 30
0.0
 40
5.0000000999999958
 50
45.000001000003799
 51
88.000000000002785
  0
ARC
  5
8CC4
  8
AM_0
 10
244.67484722694681
 20
57.34656729251742
 30
0.0
 40
3.0
 50
0.0
 51
88.000000000002785
  0
LINE
  5
8CC5
  8
AM_0
 10
244.77951722694641
 20
60.344752292517221
 30
0.0
 11
252.5550972269464
 21
60.073222292517123
 31
0.0
  0
ARC
  5
8CC6
  8
AM_0
 10
274.34352722694649
 20
30.58982229251728
 30
0.0
 40
3.0
 50
13.61892499999786
 51
88.000000000002785
  0
LINE
  5
8CC7
  8
AM_0
 10
255.9161172269464
 20
58.611796292517283
 30
0.0
 11
276.2961072269465
 21
38.23179129251708
 31
0.0
  0
LINE
  5
8CC8
  8
AM_0
 10
247.6748472269465
 20
37.420021292517291
 30
0.0
 11
247.6748472269465
 21
57.34656729251742
 31
0.0
  0
LINE
  5
8CC9
  8
AM_0
 10
250.5700872269465
 20
34.421839292517227
 30
0.0
 11
274.44822722694681
 21
33.588007292517197
 31
0.0
  0
ARC
  5
8CCA
  8
AM_0
 10
250.67484722694641
 20
37.420021292517291
 30
0.0
 40
3.0
 50
179.99998999999889
 51
268.00000999999861
  0
LINE
  5
8CCB
  8
AM_0
 10
286.17477722694628
 20
29.291284292517268
 30
0.0
 11
308.4016572269465
 21
28.515115292517059
 31
0.0
  0
LINE
  5
8CCC
  8
AM_0
 10
280.07010722694639
 20
29.004448292517051
 30
0.0
 11
286.17477722694628
 21
28.791268292517199
 31
0.0
  0
ARC
  5
8CCD
  8
AM_0
 10
274.17477722694639
 20
36.110482292517297
 30
0.0
 40
3.0
 50
0.0
 51
45.000001000003799
  0
ARC
  5
8CCE
  8
AM_0
 10
280.17477722694639
 20
32.002618292517241
 30
0.0
 40
3.0
 50
193.61893000000151
 51
268.00000000000267
  0
ARC
  5
8CCF
  8
AM_0
 10
297.67479722694628
 20
22.991266292517249
 30
0.0
 40
2.00000007
 50
90.00000299999769
 51
180.00001000000091
  0
ARC
  5
8CD0
  8
AM_0
 10
308.29692722694648
 20
25.516930292517252
 30
0.0
 40
3.0
 50
79.999998000001099
 51
88.000000000002785
  0
LINE
  5
8CD1
  8
AM_0
 10
277.17477722694628
 20
41.291269292517207
 30
0.0
 11
286.17477722694628
 21
41.291269292517207
 31
0.0
  0
LINE
  5
8CD2
  8
AM_0
 10
277.17477722694628
 20
55.642909292517061
 30
0.0
 11
286.17477722694628
 21
55.642909292517061
 31
0.0
  0
LINE
  5
8CD3
  8
AM_0
 10
267.41628722694651
 20
85.854274292517175
 30
0.0
 11
272.9437572269465
 21
80.326792292517325
 31
0.0
  0
LINE
  5
8CD4
  8
AM_0
 10
254.52339722694651
 20
60.174127292517248
 30
0.0
 11
260.35587722694629
 21
71.791270292517083
 31
0.0
  0
ARC
  5
8CD5
  8
AM_0
 10
269.40822722694668
 20
76.791256292517431
 30
0.0
 40
5.0000000999999958
 50
270.0
 51
45.000001000003799
  0
ARC
  5
8CD6
  8
AM_0
 10
214.0394500600357
 20
99.466700890728134
 30
0.0
 40
149.17610385561079
 50
344.28475358753923
 51
346.73867975375811
  0
LINE
  5
8CD7
  8
AM_0
 10
332.5876872269464
 20
61.530619292517258
 30
0.0
 11
326.13687722694652
 21
27.433588292517239
 31
0.0
  0
ARC
  5
8CD8
  8
AM_0
 10
328.29020204560061
 20
44.955118560374089
 30
0.0
 40
21.08641144155618
 50
299.79776983467281
 51
317.1533718509566
  0
ARC
  5
8CD9
  8
AM_0
 10
323.18913722694651
 20
27.991264292517251
 30
0.0
 40
3.0
 50
270.0
 51
349.2868799999996
  0
ARC
  5
8CDA
  8
AM_0
 10
309.67479722694628
 20
25.273981292517298
 30
0.0
 40
3.0
 50
0.0
 51
79.999998000001099
  0
LINE
  5
8CDB
  8
AM_0
 10
314.67477722694628
 20
31.24729329251727
 30
0.0
 11
320.67477722694628
 21
31.24729329251727
 31
0.0
  0
ARC
  5
8CDC
  8
AM_0
 10
314.67477722694628
 20
29.247292292517379
 30
0.0
 40
2.00000007
 50
90.00000299999769
 51
180.00001000000091
  0
ARC
  5
8CDD
  8
AM_0
 10
320.67477722694628
 20
33.247276292517199
 30
0.0
 40
2.00000007
 50
270.0
 51
0.0
  0
ARC
  5
8CDE
  8
AM_0
 10
332.52009447673981
 20
37.539792363914437
 30
0.0
 40
12.549508771859211
 50
270.70637124858638
 51
299.863227568708
  0
ARC
  5
8CDF
  8
AM_0
 10
300.78708025754457
 20
66.409356841676754
 30
0.0
 40
56.099781561303523
 50
326.72855927631252
 51
333.25041594111372
  0
ARC
  5
8CE0
  8
AM_0
 10
317.21315501463278
 20
55.515746275671951
 30
0.0
 40
36.390080175334241
 50
316.82274170373017
 51
326.8804889703278
  0
ARC
  5
8CE1
  8
AM_0
 10
259.07110051183241
 20
85.48537045953681
 30
0.0
 40
102.0086913711597
 50
337.8177857536142
 51
341.40563852403159
  0
ARC
  5
8CE2
  8
AM_0
 10
280.90374740595411
 20
76.534016088031876
 30
0.0
 40
78.412325550713504
 50
333.18332874799108
 51
337.85129268338318
  0
ARC
  5
8CE3
  8
AM_0
 10
236.4714962448204
 20
93.130589983651234
 30
0.0
 40
125.8663988242229
 50
341.38747958877877
 51
344.29540427893937
  0
LINE
  5
8CE4
  8
AM_0
 10
332.67477722694639
 20
62.460094292517283
 30
0.0
 11
332.67477722694639
 21
97.779904292517145
 31
0.0
  0
ARC
  5
8CE5
  8
AM_0
 10
327.67479722694628
 20
62.460094292517283
 30
0.0
 40
5.0000000999999958
 50
349.2868799999996
 51
0.0
  0
ARC
  5
8CE6
  8
AM_0
 10
154.56011876711571
 20
111.4387880581355
 30
0.0
 40
209.8734586736953
 50
350.77116423512092
 51
352.5157161850251
  0
ARC
  5
8CE7
  8
AM_0
 10
192.5216062141599
 20
104.558828399368
 30
0.0
 40
171.28825000421369
 50
346.73188799609648
 51
348.86885202321167
  0
ARC
  5
8CE8
  8
AM_0
 10
172.5314801933514
 20
108.50685279511799
 30
0.0
 40
191.66450691551481
 50
348.86450194931763
 51
350.77468358094308
  0
ARC
  5
8CE9
  8
AM_0
 10
126.2080152850705
 20
114.8136198236899
 30
0.0
 40
238.4285063685337
 50
354.13471247148811
 51
355.67039145158202
  0
ARC
  5
8CEA
  8
AM_0
 10
139.01279518715751
 20
113.4897230644459
 30
0.0
 40
225.5554719343412
 50
352.51359318329469
 51
354.13685821465032
  0
ARC
  5
8CEB
  8
AM_0
 10
116.3928305725435
 20
115.561944489875
 30
0.0
 40
248.2721751340988
 50
355.66919110547173
 51
357.14403055139502
  0
LINE
  5
8CED
  8
ﾁｭｳｼﾝｾﾝ
 10
311.18796722694651
 20
117.7912242925172
 30
0.0
 11
39.976477226946422
 21
117.7912242925172
 31
0.0
  0
LINE
  5
8CFD
  8
AM_0
 10
242.6747772269465
 20
109.8512532925174
 30
0.0
 11
277.17477722694628
 21
109.8512532925174
 31
0.0
  0
LINE
  5
8CFE
  8
AM_0
 10
239.85795722694641
 20
168.86565429251701
 30
0.0
 11
277.0296972269465
 21
156.5251542925171
 31
0.0
  0
LINE
  5
8CFF
  8
AM_0
 10
241.8144372269465
 20
149.8549242925171
 30
0.0
 11
275.24460722694653
 21
151.0223442925174
 31
0.0
  0
LINE
  5
8D02
  8
AM_0
 10
237.67482722694649
 20
169.7301042925171
 30
0.0
 11
237.67482722694649
 21
114.8512542925171
 31
0.0
  0
ARC
  5
8D03
  8
AM_0
 10
242.6747772269465
 20
114.8512542925171
 30
0.0
 40
5.0000000999999958
 50
179.99998999999889
 51
270.0
  0
LINE
  5
8D04
  8
AM_0
 10
217.67484722694661
 20
163.79124429251709
 30
0.0
 11
237.67482722694649
 21
163.79124429251709
 31
0.0
  0
LINE
  5
8D05
  8
AM_0
 10
217.67484722694661
 20
149.72826429251739
 30
0.0
 11
237.67482722694649
 21
149.72826429251739
 31
0.0
  0
LINE
  5
8D06
  8
AM_0
 10
209.67477722694639
 20
149.7312342925174
 30
0.0
 11
217.67484722694661
 21
149.7312342925174
 31
0.0
  0
LINE
  5
8D07
  8
AM_0
 10
209.67477722694639
 20
163.79124429251709
 30
0.0
 11
217.67484722694661
 21
163.79124429251709
 31
0.0
  0
ARC
  5
8D08
  8
AM_0
 10
241.67484722694681
 20
153.85248429251709
 30
0.0
 40
4.000000199999997
 50
179.99998999999889
 51
271.99999000000139
  0
LINE
  5
8D09
  8
AM_0
 10
217.67484722694661
 20
174.29127429251699
 30
0.0
 11
233.81436722694639
 21
173.72766429251709
 31
0.0
  0
LINE
  5
8D0A
  8
AM_0
 10
209.67477722694639
 20
173.7912642925171
 30
0.0
 11
217.67484722694661
 21
173.7912642925171
 31
0.0
  0
ARC
  5
8D0B
  8
AM_0
 10
233.67477722694639
 20
169.7301042925171
 30
0.0
 40
4.000000199999997
 50
0.0
 51
88.000000000002785
  0
ARC
  5
8D0C
  8
AM_0
 10
241.11819722694639
 20
172.6618842925173
 30
0.0
 40
4.000000199999997
 50
201.49854999999911
 51
251.63458000000301
  0
LINE
  5
8D10
  8
AM_0
 10
286.17477722694628
 20
129.9392052925171
 30
0.0
 11
312.67479722694628
 21
129.9392052925171
 31
0.0
  0
LINE
  5
8D11
  8
AM_0
 10
286.17477722694628
 20
144.29124429251709
 30
0.0
 11
312.67479722694628
 21
144.29124429251709
 31
0.0
  0
LINE
  5
8D12
  8
AM_0
 10
308.95566722694639
 20
157.13547429251699
 30
0.0
 11
310.19574722694642
 21
157.3541142925171
 31
0.0
  0
LINE
  5
8D16
  8
AM_0
 10
277.17477722694628
 20
129.93960129251721
 30
0.0
 11
286.17477722694628
 21
129.93960129251721
 31
0.0
  0
LINE
  5
8D17
  8
AM_0
 10
277.17477722694628
 20
144.29124429251709
 30
0.0
 11
286.17477722694628
 21
144.29124429251709
 31
0.0
  0
ARC
  5
8D19
  8
AM_0
 10
275.17482722694638
 20
153.02109429251701
 30
0.0
 40
2.00000007
 50
271.99999999999721
 51
0.0
  0
LINE
  5
8D1A
  8
AM_0
 10
286.17477722694628
 20
156.29124429251709
 30
0.0
 11
308.26191722694642
 21
157.06254429251709
 31
0.0
  0
LINE
  5
8D1B
  8
AM_0
 10
280.07010722694639
 20
156.578104292517
 30
0.0
 11
286.17477722694628
 21
156.7912542925171
 31
0.0
  0
ARC
  5
8D1C
  8
AM_0
 10
278.29008722694653
 20
160.32141429251709
 30
0.0
 40
4.000000199999997
 50
251.63458000000301
 51
285.61970000000002
  0
ARC
  5
8D1D
  8
AM_0
 10
280.17477722694639
 20
153.57993429251709
 30
0.0
 40
3.0
 50
91.999998000000502
 51
180.00001000000091
  0
LINE
  5
8D1E
  8
AM_0
 10
277.17477722694628
 20
153.57993429251709
 30
0.0
 11
277.17477722694628
 21
153.02109429251701
 31
0.0
  0
ARC
  5
8D1F
  8
AM_0
 10
308.08743722694618
 20
162.0595242925171
 30
0.0
 40
5.0000000999999958
 50
271.99999999999721
 51
279.99999999999852
  0
ARC
  5
8D20
  8
AM_0
 10
335.16786485130109
 20
132.4981985566873
 30
0.0
 40
29.661084637074421
 50
26.57523547532708
 51
32.825932143120468
  0
ARC
  5
8D21
  8
AM_0
 10
320.67477722694628
 20
149.12532429251709
 30
0.0
 40
2.00000007
 50
270.0
 51
0.0
  0
ARC
  5
8D22
  8
AM_0
 10
314.67477722694628
 20
145.12536429251711
 30
0.0
 40
2.00000007
 50
90.00000299999769
 51
180.00001000000091
  0
ARC
  5
8D23
  8
AM_0
 10
331.67485653122748
 20
-28.739930839569521
 30
0.0
 40
167.73092128434479
 50
85.67426328557282
 51
86.388715667100854
  0
ARC
  5
8D24
  8
AM_0
 10
320.67477722694628
 20
123.9404562925173
 30
0.0
 40
2.00000007
 50
0.0
 51
90.00000299999769
  0
LINE
  5
8D25
  8
AM_0
 10
313.5902472269463
 20
119.4633432925171
 30
0.0
 11
320.67477722694628
 21
119.4633432925171
 31
0.0
  0
ARC
  5
8D26
  8
AM_0
 10
320.67477722694628
 20
117.4633752925171
 30
0.0
 40
2.00000007
 50
0.0
 51
90.00000299999769
  0
LINE
  5
8D27
  8
AM_0
 10
314.67477722694628
 20
125.9404872925174
 30
0.0
 11
320.67477722694628
 21
125.9404872925174
 31
0.0
  0
ARC
  5
8D28
  8
AM_0
 10
314.67477722694628
 20
127.940488292517
 30
0.0
 40
2.00000007
 50
179.99998999999889
 51
270.0
  0
ARC
  5
8D29
  8
AM_0
 10
329.78775985999249
 20
-66.988152572922104
 30
0.0
 40
206.02839275366679
 50
88.27992117125234
 51
88.861596118231617
  0
ARC
  5
8D2A
  8
AM_0
 10
329.67604048443349
 20
-73.667312888562037
 30
0.0
 40
212.70855830813139
 50
89.430668921722486
 51
89.994101831427855
  0
ARC
  5
8D2B
  8
AM_0
 10
329.69898522927122
 20
-71.425305737411691
 30
0.0
 40
210.46643385148701
 50
88.861432350216219
 51
89.430850180061014
  0
ARC
  5
8D2C
  8
AM_0
 10
329.98839018531999
 20
-60.415639683622771
 30
0.0
 40
199.4528192230068
 50
87.680007966755056
 51
88.280856474943675
  0
ARC
  5
8D2D
  8
AM_0
 10
330.34118029812691
 20
-51.772495493830647
 30
0.0
 40
190.80247846909279
 50
87.052730556138883
 51
87.680795532764634
  0
ARC
  5
8D2E
  8
AM_0
 10
330.886073667966
 20
-41.172022775878283
 30
0.0
 40
180.1880105207652
 50
86.387394323016395
 51
87.052453744042381
  0
LINE
  5
8D2F
  8
AM_0
 10
364.67475722694638
 20
133.29126429251701
 30
0.0
 11
364.67475722694638
 21
115.9912362925174
 31
0.0
  0
ARC
  5
8D30
  8
AM_0
 10
106.388655079618
 20
115.9881758955255
 30
0.0
 40
258.28610294960129
 50
358.57784204125198
 51
359.99548405925782
  0
ARC
  5
8D31
  8
AM_0
 10
351.44559452047548
 20
106.31048054856539
 30
0.0
 40
31.052923655337871
 50
72.453023769145616
 51
76.306180005069635
  0
ARC
  5
8D32
  8
AM_0
 10
338.05496476701501
 20
35.296635043288461
 30
0.0
 40
103.3678856390159
 50
81.88925582948815
 51
83.047563159916024
  0
ARC
  5
8D33
  8
AM_0
 10
332.74385163791692
 20
-14.64982193248715
 30
0.0
 40
153.6003194391653
 50
84.895429872335185
 51
85.675449585974647
  0
ARC
  5
8D34
  8
AM_0
 10
334.13780031846892
 20
0.8869743618960226
 30
0.0
 40
138.00111781751639
 50
84.030648925223559
 51
84.897943100442703
  0
ARC
  5
8D35
  8
AM_0
 10
335.89168745574619
 20
17.63407071589597
 30
0.0
 40
121.1624317690205
 50
83.043118377592975
 51
84.031943843574453
  0
ARC
  5
8D36
  8
AM_0
 10
340.65838571782342
 20
53.499710959373033
 30
0.0
 40
84.979583071999173
 50
80.486994317465658
 51
81.895434685149567
  0
ARC
  5
8D37
  8
AM_0
 10
343.74063610601041
 20
71.810008613523905
 30
0.0
 40
66.411679913678924
 50
78.696737266399055
 51
80.498808305528186
  0
ARC
  5
8D38
  8
AM_0
 10
347.3313451661009
 20
89.661523133365463
 30
0.0
 40
48.202641292926913
 50
76.239690904950081
 51
78.723041456824674
  0
ARC
  5
8D39
  8
AM_0
 10
337.35480066899828
 20
133.29031158219479
 30
0.0
 40
27.319956574559821
 50
0.0019980368714427
 51
6.7903932110338134
  0
ARC
  5
8D3A
  8
AM_0
 10
356.06516710924592
 20
120.6841465010323
 30
0.0
 40
15.95547772310862
 50
65.215538324624333
 51
72.70849266315993
  0
ARC
  5
8D3B
  8
AM_0
 10
335.96600094883001
 20
132.8984116553768
 30
0.0
 40
28.76822911557344
 50
20.126134303692702
 51
26.573511797579808
  0
ARC
  5
8D3C
  8
AM_0
 10
336.6297284789153
 20
133.14285017806091
 30
0.0
 40
28.060922172065979
 50
13.516677474933021
 51
20.123823379455789
  0
ARC
  5
8D3D
  8
AM_0
 10
337.10594734371278
 20
133.2588236649878
 30
0.0
 40
27.570787393580112
 50
6.7942237335139328
 51
13.51365300657719
  0
ARC
  5
8D3E
  8
AM_0
 10
330.19393734083292
 20
126.63604286754349
 30
0.0
 40
37.484939907147563
 50
66.040448373509918
 51
70.990304827731237
  0
ARC
  5
8D3F
  8
AM_0
 10
317.67477722694639
 20
163.6136142925171
 30
0.0
 40
5.0000000999999958
 50
91.999998000000502
 51
180.00001000000091
  0
ARC
  5
8D40
  8
AM_0
 10
317.97093722694638
 20
173.63007429251701
 30
0.0
 40
5.0000000999999958
 50
271.99999999999721
 51
343.27366000000251
  0
LINE
  5
8D41
  8
AM_0
 10
322.67481722694617
 20
171.61545429251709
 30
0.0
 11
322.67481722694617
 21
149.12532429251709
 31
0.0
  0
ARC
  5
8D42
  8
AM_0
 10
309.67479722694628
 20
160.3086042925174
 30
0.0
 40
3.0
 50
279.99999999999852
 51
0.0
  0
LINE
  5
8D43
  8
AM_0
 10
314.67477722694628
 20
147.12537429251739
 30
0.0
 11
320.67477722694628
 21
147.12537429251739
 31
0.0
  0
ARC
  5
8D44
  8
AM_0
 10
329.69498283833462
 20
124.80649617550461
 30
0.0
 40
39.385412204712928
 50
80.594184279039226
 51
85.305397123369062
  0
ARC
  5
8D45
  8
AM_0
 10
329.67538356292818
 20
124.58374659387501
 30
0.0
 40
39.609018600765381
 50
85.303512774150903
 51
89.987771490168129
  0
ARC
  5
8D46
  8
AM_0
 10
329.76776353313062
 20
125.2397160756606
 30
0.0
 40
38.94612244321717
 50
75.831164415109015
 51
80.595659495665984
  0
ARC
  5
8D47
  8
AM_0
 10
329.92557724096002
 20
125.86025835747451
 30
0.0
 40
38.305828274379962
 50
70.988764473648033
 51
75.832834310891982
  0
LINE
  5
8D48
  8
AM_0
 10
329.67477722694628
 20
173.7912642925171
 30
0.0
 11
324.60498722694632
 21
173.6142342925171
 31
0.0
  0
LINE
  5
8D49
  8
AM_0
 10
317.50029722694649
 20
168.6105642925171
 30
0.0
 11
318.14544722694649
 21
168.63309429251709
 31
0.0
  0
ARC
  5
8D4A
  8
AM_0
 10
324.67479722694628
 20
171.61545429251709
 30
0.0
 40
2.00000007
 50
91.999998000000502
 51
163.27364999999941
  0
ARC
  5
8D4B
  8
AM_0
 10
334.29472675203351
 20
131.9344782850973
 30
0.0
 40
30.70038754747701
 50
32.82665620175883
 51
38.86731396496193
  0
ARC
  5
8D4C
  8
AM_0
 10
331.78047592529123
 20
129.44523931920071
 30
0.0
 40
34.250082040903742
 50
50.309107005292717
 51
55.725718081936492
  0
ARC
  5
8D4D
  8
AM_0
 10
332.55244479264161
 20
130.37437424467899
 30
0.0
 40
33.0420972672785
 50
44.695569624159532
 51
50.310222017835827
  0
ARC
  5
8D4E
  8
AM_0
 10
333.4051185890541
 20
131.21765679872971
 30
0.0
 40
31.84285667668242
 50
38.867083835910741
 51
44.69605311293931
  0
ARC
  5
8D4F
  8
AM_0
 10
330.58963399831453
 20
127.5241883862822
 30
0.0
 40
36.512634700171311
 50
60.960491113750741
 51
66.041910814276463
  0
ARC
  5
8D50
  8
AM_0
 10
331.12040705408589
 20
128.4781005605364
 30
0.0
 40
35.420999491120547
 50
55.724424887861304
 51
60.962118429411802
  0
LINE
  5
8D53
  8
AM_0
 10
405.67479722694628
 20
87.965419292517154
 30
0.0
 11
405.67479722694628
 21
144.0171042925171
 31
0.0
  0
LINE
  5
8D54
  8
AM_0
 10
390.67479722694628
 20
42.604561292517239
 30
0.0
 11
390.67479722694628
 21
167.3231442925171
 31
0.0
  0
LINE
  5
8D55
  8
AM_0
 10
402.67479722694628
 20
26.86425129251711
 30
0.0
 11
402.67479722694628
 21
152.24223429251711
 31
0.0
  0
LINE
  5
8D56
  8
AM_0
 10
408.67479722694628
 20
130.99125429251711
 30
0.0
 11
408.67479722694628
 21
100.9912662925171
 31
0.0
  0
LINE
  5
8D57
  8
AM_0
 10
450.67482722694638
 20
132.991264292517
 30
0.0
 11
450.67482722694638
 21
101.99126829251711
 31
0.0
  0
LINE
  5
8D59
  8
ﾁｭｳｼﾝｾﾝ
 10
390.67476722694641
 20
27.991264292517261
 30
0.0
 11
390.67476722694641
 21
6.991279292517107
 31
0.0
  0
LINE
  5
8D5A
  8
ｶｸﾚｾﾝ2
 10
384.67479722694628
 20
24.991264292517261
 30
0.0
 11
384.67479722694628
 21
9.9912642925172541
 31
0.0
  0
LINE
  5
8D5B
  8
ｶｸﾚｾﾝ2
 10
396.67479722694628
 20
24.991264292517261
 30
0.0
 11
396.67479722694628
 21
9.9912642925172541
 31
0.0
  0
LINE
  5
8D5C
  8
AM_0
 10
405.67479722694628
 20
22.991266292517249
 30
0.0
 11
405.67479722694628
 21
9.9912642925172541
 31
0.0
  0
LINE
  5
8D63
  8
AM_0
 10
378.67479722694628
 20
9.9912642925172541
 30
0.0
 11
405.67479722694628
 21
9.9912642925172541
 31
0.0
  0
ARC
  5
8D64
  8
AM_0
 10
377.67477722694628
 20
9.9912642925172541
 30
0.0
 40
1.0000000199999941
 50
0.0
 51
90.00000299999769
  0
LINE
  5
8D65
  8
AM_0
 10
378.67479722694628
 20
9.9912642925172541
 30
0.0
 11
378.67479722694628
 21
9.9912642925172541
 31
0.0
  0
LINE
  5
8D68
  8
AM_0
 10
408.67479722694628
 20
101.99126829251711
 30
0.0
 11
450.67482722694638
 21
101.99126829251711
 31
0.0
  0
ARC
  5
8D69
  8
AM_0
 10
385.67481722694617
 20
42.604561292517239
 30
0.0
 40
5.0000000999999958
 50
270.0
 51
0.0
  0
LINE
  5
8D6A
  8
AM_0
 10
377.67477722694628
 20
24.991264292517261
 30
0.0
 11
403.67481722694617
 21
24.991264292517261
 31
0.0
  0
ARC
  5
8D6B
  8
AM_0
 10
404.67477722694639
 20
26.86425129251711
 30
0.0
 40
2.00000007
 50
179.99998999999889
 51
255.52248999999699
  0
ARC
  5
8D6C
  8
AM_0
 10
403.67481722694617
 20
22.991266292517249
 30
0.0
 40
2.00000007
 50
0.0
 51
90.00000299999769
  0
ARC
  5
8D6D
  8
AM_0
 10
403.67481722694617
 20
85.938532292517152
 30
0.0
 40
1.0000000199999941
 50
91.500001000001546
 51
180.00001000000091
  0
ARC
  5
8D6E
  8
AM_0
 10
404.67477722694639
 20
87.965419292517154
 30
0.0
 40
1.0000000199999941
 50
271.50000000000261
 51
0.0
  0
LINE
  5
8D6F
  8
AM_0
 10
403.64859722694632
 20
86.938198292517427
 30
0.0
 11
404.70096722694637
 21
86.965753292517206
 31
0.0
  0
LINE
  5
8D70
  8
AM_0
 10
405.67479722694628
 20
100.9912662925171
 30
0.0
 11
408.67479722694628
 21
100.9912662925171
 31
0.0
  0
LINE
  5
8D79
  8
AM_0
 10
418.67481722694629
 20
132.991264292517
 30
0.0
 11
450.67482722694638
 21
132.991264292517
 31
0.0
  0
LINE
  5
8D7A
  8
AM_0
 10
408.67479722694628
 20
129.99126729251711
 30
0.0
 11
450.67482722694638
 21
129.99126729251711
 31
0.0
  0
LINE
  5
8D7C
  8
AM_0
 10
405.67479722694628
 20
130.99125429251711
 30
0.0
 11
408.67479722694628
 21
130.99125429251711
 31
0.0
  0
ARC
  5
8D7D
  8
AM_0
 10
404.67477722694639
 20
144.0171042925171
 30
0.0
 40
1.0000000199999941
 50
0.0
 51
88.499997000000647
  0
ARC
  5
8D7E
  8
AM_0
 10
403.67481722694617
 20
146.0439642925173
 30
0.0
 40
1.0000000199999941
 50
179.99998999999889
 51
268.50000999999878
  0
LINE
  5
8D7F
  8
AM_0
 10
403.64859722694632
 20
145.0443042925171
 30
0.0
 11
404.70096722694637
 21
145.01676429251711
 31
0.0
  0
LINE
  5
8D80
  8
AM_0
 10
418.67481722694629
 20
132.991264292517
 30
0.0
 11
418.67481722694629
 21
129.99126729251711
 31
0.0
  0
ARC
  5
8D81
  8
AM_0
 10
385.67481722694617
 20
167.3231442925171
 30
0.0
 40
5.0000000999999958
 50
0.0
 51
88.499997000000647
  0
ARC
  5
8D82
  8
AM_0
 10
395.67477722694639
 20
160.62279429251711
 30
0.0
 40
5.0000000999999958
 50
179.99998999999889
 51
265.0
  0
LINE
  5
8D83
  8
AM_0
 10
382.67481722694617
 20
147.2245542925171
 30
0.0
 11
390.67479722694628
 21
147.2245542925171
 31
0.0
  0
ARC
  5
8D84
  8
AM_0
 10
399.6747972269464
 20
152.24223429251711
 30
0.0
 40
3.0
 50
0.0
 51
84.999996999998885
  0
LINE
  5
8D85
  8
AM_0
 10
395.23902722694652
 20
155.64180429251709
 30
0.0
 11
399.9362772269464
 21
155.23086429251711
 31
0.0
  0
CIRCLE
  5
8D94
  8
AM_0
 10
607.63270209161351
 20
115.9912692925171
 30
0.0
 40
29.000001000000001
  0
ARC
  5
8D95
  8
AM_0
 10
607.63270209161351
 20
100.9912662925171
 30
0.0
 40
54.000003000000007
 50
0.0
 51
180.00001000000091
  0
ARC
  5
8D96
  8
AM_0
 10
607.63270209161351
 20
92.791285292517145
 30
0.0
 40
81.000003000000035
 50
7.0485985999975602
 51
172.95140000000089
  0
ARC
  5
8D97
  8
AM_0
 10
607.63270209161351
 20
115.9912692925171
 30
0.0
 40
14.000001299999999
 50
106.60154000000129
 51
73.398451999997818
  0
LINE
  5
8D98
  8
AM_0
 10
547.63271409161348
 20
145.24125429251711
 30
0.0
 11
547.63269909161352
 21
63.791284292517282
 31
0.0
  0
LINE
  5
8D99
  8
AM_0
 10
697.63272009161335
 20
24.991249292517409
 30
0.0
 11
689.84157309161355
 21
132.20094429251711
 31
0.0
  0
LINE
  5
8D9A
  8
AM_0
 10
517.63269909161363
 20
24.991264292517261
 30
0.0
 11
525.42386709161349
 21
132.200974292517
 31
0.0
  0
LINE
  5
8D9B
  8
ﾁｭｳｼﾝｾﾝ
 10
607.63270209161351
 20
6.4565352925172883
 30
0.0
 11
607.63270209161351
 21
183.71870430519189
 31
0.0
  0
LINE
  5
8D9C
  8
AM_0
 10
667.63271709161381
 20
63.791269292517221
 30
0.0
 11
667.63271709161381
 21
145.2412242925171
 31
0.0
  0
LINE
  5
8D9F
  8
AM_0
 10
570.63271509161359
 20
22.991266292517249
 30
0.0
 11
644.63271609161325
 21
22.991266292517249
 31
0.0
  0
LINE
  5
8DA0
  8
AM_0
 10
660.63271809161324
 20
11.99128029251721
 30
0.0
 11
554.6327130916136
 21
11.99128029251721
 31
0.0
  0
ARC
  5
8DA1
  8
AM_0
 10
560.63271309161382
 20
16.991281292517211
 30
0.0
 40
5.0000000999999958
 50
270.0
 51
0.0
  0
LINE
  5
8DA2
  8
AM_0
 10
552.63271509161336
 20
9.9912792925171061
 30
0.0
 11
552.63271509161336
 21
22.991266292517249
 31
0.0
  0
LINE
  5
8DA3
  8
ﾁｭｳｼﾝｾﾝ
 10
532.63269909161295
 20
6.991279292517107
 30
0.0
 11
532.63269909161318
 21
27.991264292517261
 31
0.0
  0
LINE
  5
8DA4
  8
ｶｸﾚｾﾝ2
 10
526.63269909161352
 20
24.991264292517261
 30
0.0
 11
526.63269909161352
 21
9.9912792925171061
 31
0.0
  0
LINE
  5
8DA5
  8
ｶｸﾚｾﾝ2
 10
538.63269909161295
 20
24.991264292517261
 30
0.0
 11
538.63269909161295
 21
9.9912792925171061
 31
0.0
  0
LINE
  5
8DA6
  8
AM_0
 10
517.63269909161363
 20
9.9912792925171061
 30
0.0
 11
517.63269909161363
 21
24.991264292517261
 31
0.0
  0
LINE
  5
8DA8
  8
AM_0
 10
552.63271509161336
 20
9.9912792925171061
 30
0.0
 11
517.63269909161363
 21
9.9912792925171061
 31
0.0
  0
ARC
  5
8DAB
  8
AM_0
 10
554.6327130916136
 20
9.9912792925171061
 30
0.0
 40
2.00000007
 50
90.00000299999769
 51
180.00001000000091
  0
ARC
  5
8DAE
  8
AM_0
 10
607.63270209161351
 20
92.791255292517135
 30
0.0
 40
81.000003000000035
 50
265.97274999999752
 51
274.02725000000231
  0
ARC
  5
8DAF
  8
AM_0
 10
607.63270209161351
 20
63.791269292517221
 30
0.0
 40
60.000002999999992
 50
180.00001000000091
 51
205.84193000000329
  0
LINE
  5
8DB0
  8
AM_0
 10
553.63269909161352
 20
29.99128029251721
 30
0.0
 11
553.63269909161352
 21
100.9912662925171
 31
0.0
  0
LINE
  5
8DB1
  8
AM_0
 10
517.63272909161367
 20
24.99127929251722
 30
0.0
 11
527.24488209161382
 21
102.7308912925171
 31
0.0
  0
LINE
  5
8DB2
  8
AM_0
 10
550.63269909161352
 20
24.991264292517261
 30
0.0
 11
519.63272709161311
 21
24.991264292517261
 31
0.0
  0
ARC
  5
8DB3
  8
AM_0
 10
519.63272709161311
 20
22.991266292517249
 30
0.0
 40
2.00000007
 50
90.00000299999769
 51
180.00001000000091
  0
ARC
  5
8DB4
  8
AM_0
 10
548.63271309161382
 20
29.99128029251721
 30
0.0
 40
5.0000000999999958
 50
270.0
 51
0.0
  0
ARC
  5
8DB5
  8
AM_0
 10
550.63269909161352
 20
22.991266292517249
 30
0.0
 40
2.00000007
 50
0.0
 51
90.00000299999769
  0
ARC
  5
8DB6
  8
AM_0
 10
570.63271509161359
 20
17.9912802925171
 30
0.0
 40
5.0000000999999958
 50
90.00000299999769
 51
180.00001000000091
  0
LINE
  5
8DB7
  8
AM_0
 10
565.6326990916134
 20
16.991281292517211
 30
0.0
 11
565.6326990916134
 21
17.9912802925171
 31
0.0
  0
ARC
  5
8DBD
  8
AM_0
 10
654.63271809161347
 20
16.991281292517211
 30
0.0
 40
5.0000000999999958
 50
179.99998999999889
 51
270.0
  0
LINE
  5
8DBE
  8
AM_0
 10
697.63272009161335
 20
9.9912792925171061
 30
0.0
 11
697.63272009161335
 21
24.991264292517261
 31
0.0
  0
LINE
  5
8DBF
  8
AM_0
 10
662.63271609161325
 20
9.9912792925171061
 30
0.0
 11
662.63271609161325
 21
22.991266292517249
 31
0.0
  0
LINE
  5
8DC0
  8
ｶｸﾚｾﾝ2
 10
688.63271709161347
 20
24.991264292517261
 30
0.0
 11
688.63271709161347
 21
9.9912792925171061
 31
0.0
  0
LINE
  5
8DC1
  8
ｶｸﾚｾﾝ2
 10
676.63271709161381
 20
24.991264292517261
 30
0.0
 11
676.63271709161381
 21
9.9912792925171061
 31
0.0
  0
LINE
  5
8DC2
  8
ﾁｭｳｼﾝｾﾝ
 10
682.63270209161362
 20
6.991279292517107
 30
0.0
 11
682.63270209161374
 21
27.991264292517251
 31
0.0
  0
LINE
  5
8DC9
  8
AM_0
 10
662.63271609161325
 20
9.9912792925171061
 30
0.0
 11
697.63272009161335
 21
9.9912792925171061
 31
0.0
  0
ARC
  5
8DCA
  8
AM_0
 10
660.63271809161324
 20
9.9912792925171061
 30
0.0
 40
2.00000007
 50
0.0
 51
90.00000299999769
  0
ARC
  5
8DD3
  8
AM_0
 10
607.63270209161351
 20
63.791269292517221
 30
0.0
 40
60.000002999999992
 50
334.15806999999683
 51
0.0
  0
LINE
  5
8DD4
  8
AM_0
 10
661.63271709161359
 20
29.99128029251721
 30
0.0
 11
661.63271709161359
 21
100.9912662925171
 31
0.0
  0
LINE
  5
8DD5
  8
AM_0
 10
697.63272009161335
 20
24.99127929251722
 30
0.0
 11
688.02055809161334
 21
102.7308912925171
 31
0.0
  0
LINE
  5
8DD6
  8
AM_0
 10
664.63271709161381
 20
24.991264292517261
 30
0.0
 11
695.63271009161338
 21
24.991264292517261
 31
0.0
  0
ARC
  5
8DD7
  8
AM_0
 10
644.63271609161325
 20
17.9912802925171
 30
0.0
 40
5.0000000999999958
 50
0.0
 51
90.00000299999769
  0
LINE
  5
8DD8
  8
AM_0
 10
649.63271709161381
 20
16.991281292517211
 30
0.0
 11
649.63271709161381
 21
17.9912802925171
 31
0.0
  0
ARC
  5
8DD9
  8
AM_0
 10
666.63271809161336
 20
29.99128029251721
 30
0.0
 40
5.0000000999999958
 50
179.99998999999889
 51
270.0
  0
ARC
  5
8DDA
  8
AM_0
 10
664.63271709161381
 20
22.991266292517249
 30
0.0
 40
2.00000007
 50
90.00000299999769
 51
180.00001000000091
  0
ARC
  5
8DDB
  8
AM_0
 10
695.63271009161338
 20
22.991266292517249
 30
0.0
 40
2.00000007
 50
0.0
 51
90.00000299999769
  0
LINE
  5
8DE3
  8
ﾁｭｳｼﾝｾﾝ
 10
561.39709867292117
 20
115.9912692925171
 30
0.0
 11
653.86830551030562
 21
115.9912692925171
 31
0.0
  0
ARC
  5
8DE5
  8
AM_0
 10
552.63271509161336
 20
145.2412242925171
 30
0.0
 40
5.0000000999999958
 50
136.35948999999979
 51
180.00001000000091
  0
LINE
  5
8DE6
  8
AM_0
 10
533.82685209161366
 20
145.14525429251711
 30
0.0
 11
569.38584309161365
 21
164.19273429251709
 31
0.0
  0
ARC
  5
8DE7
  8
AM_0
 10
541.38178209161356
 20
131.0412642925171
 30
0.0
 40
16.000000499999999
 50
118.17614000000221
 51
175.84351000000129
  0
LINE
  5
8DE8
  8
AM_0
 10
573.1326990916134
 20
166.076674292517
 30
0.0
 11
573.1326990916134
 21
173.7831342925171
 31
0.0
  0
CIRCLE
  5
8DE9
  8
AM_0
 10
607.63270209161351
 20
115.9912692925171
 30
0.0
 40
3.0
  0
CIRCLE
  5
8DEA
  8
AM_5
 10
607.63270209161351
 20
115.9912692925171
 30
0.0
 40
4.000000199999997
  0
LINE
  5
8DEB
  8
AM_0
 10
603.63270009161317
 20
125.99126829251711
 30
0.0
 11
611.63268609161378
 21
125.99126829251711
 31
0.0
  0
LINE
  5
8DEC
  8
AM_0
 10
603.63270009161317
 20
132.991264292517
 30
0.0
 11
611.63268609161378
 21
132.991264292517
 31
0.0
  0
LINE
  5
8DED
  8
AM_0
 10
603.63270009161317
 20
125.99126829251711
 30
0.0
 11
603.63270009161317
 21
132.991264292517
 31
0.0
  0
LINE
  5
8DEE
  8
AM_0
 10
611.63268609161378
 20
125.99126829251711
 30
0.0
 11
611.63268609161378
 21
132.991264292517
 31
0.0
  0
LINE
  5
8DEF
  8
AM_0
 10
583.13271609161325
 20
169.99716429251711
 30
0.0
 11
583.13271609161325
 21
176.8591542925171
 31
0.0
  0
LINE
  5
8DF0
  8
AM_0
 10
603.1326990916134
 20
173.6661642925171
 30
0.0
 11
603.1326990916134
 21
179.79123429251709
 31
0.0
  0
LINE
  5
8DF1
  8
AM_0
 10
593.13270009161329
 20
172.48287429251701
 30
0.0
 11
593.13270009161329
 21
178.8402342925171
 31
0.0
  0
LINE
  5
8DF2
  8
AM_0
 10
642.1327170916137
 20
166.076674292517
 30
0.0
 11
642.1327170916137
 21
173.7831342925171
 31
0.0
  0
LINE
  5
8DF3
  8
AM_0
 10
612.13270209161362
 20
173.6661642925171
 30
0.0
 11
612.13270209161362
 21
179.79123429251709
 31
0.0
  0
LINE
  5
8DF4
  8
AM_0
 10
622.13271609161359
 20
172.48287429251701
 30
0.0
 11
622.13271609161359
 21
178.8402342925171
 31
0.0
  0
LINE
  5
8DF5
  8
AM_0
 10
632.13271809161336
 20
169.99716429251711
 30
0.0
 11
632.13271809161336
 21
176.8591542925171
 31
0.0
  0
ARC
  5
8DF8
  8
AM_0
 10
662.63271609161325
 20
145.2412242925171
 30
0.0
 40
5.0000000999999958
 50
0.0
 51
43.640500000002987
  0
LINE
  5
8DF9
  8
AM_0
 10
681.43858809161361
 20
145.14525429251711
 30
0.0
 11
645.87958809161341
 21
164.1927642925171
 31
0.0
  0
ARC
  5
8DFA
  8
AM_0
 10
673.88364909161362
 20
131.0412642925171
 30
0.0
 40
16.000000499999999
 50
4.156491600004049
 51
61.823859999997808
  0
ARC
  5
8DFE
  8
AM_0
 10
102.9986472269466
 20
132.80123529251711
 30
0.0
 40
1.335016049999999
 50
89.732355000002002
 51
270.26763000000221
  0
LINE
  5
8DFF
  8
ﾁｭｳｼﾝｾﾝ
 10
158.67483722694641
 20
158.41623879251719
 30
0.0
 11
158.67483722694641
 21
77.166209792517122
 31
0.0
  0
LINE
  5
8E00
  8
AM_0
 10
199.4448672269464
 20
147.7862202925173
 30
0.0
 11
199.4448672269464
 21
87.786217292517421
 31
0.0
  0
LINE
  5
8E01
  8
AM_0
 10
101.67483722694649
 20
170.7862092925171
 30
0.0
 11
101.67483722694649
 21
68.346229292517251
 31
0.0
  0
LINE
  5
8E02
  8
AM_0
 10
209.6748672269465
 20
173.79121929251721
 30
0.0
 11
209.6748672269465
 21
61.79120829251724
 31
0.0
  0
LINE
  5
8E03
  8
AM_0
 10
202.9149017829593
 20
81.791224292517185
 30
0.0
 11
104.31734138386901
 21
81.791224292517185
 31
0.0
  0
LINE
  5
8E04
  8
AM_0
 10
158.67483722694641
 20
81.066217292517194
 30
0.0
 11
206.49486722694661
 21
81.066217292517194
 31
0.0
  0
LINE
  5
8E05
  8
AM_0
 10
104.8748472269464
 20
61.506202292517393
 30
0.0
 11
201.79485722694659
 21
61.506202292517393
 31
0.0
  0
LINE
  5
8E06
  8
AM_0
 10
127.17483722694649
 20
79.566217292517422
 30
0.0
 11
209.6748672269465
 21
79.566217292517422
 31
0.0
  0
ARC
  5
8E07
  8
AM_0
 10
308.72603043420003
 20
119.4787982324389
 30
0.0
 40
204.69842337270771
 50
178.02572260412779
 51
178.71785518950381
  0
ARC
  5
8E08
  8
AM_0
 10
308.64877854603708
 20
116.09925436649149
 30
0.0
 40
204.6212004872653
 50
181.28349981584489
 51
181.9756167481539
  0
ARC
  5
8E09
  8
AM_0
 10
104.21709722694651
 20
82.786219292517217
 30
0.0
 40
1.0000319699999971
 50
89.552707000000495
 51
270.44730000000112
  0
ARC
  5
8E0A
  8
AM_0
 10
104.21709722694651
 20
132.78622029251721
 30
0.0
 40
1.0000319699999971
 50
89.552707000000495
 51
270.44730000000112
  0
ARC
  5
8E0B
  8
AM_0
 10
104.21709722694651
 20
122.7862182925174
 30
0.0
 40
1.0000319699999971
 50
89.552707000000495
 51
270.44730000000112
  0
ARC
  5
8E0C
  8
AM_0
 10
104.21709722694651
 20
112.7862192925174
 30
0.0
 40
1.0000319699999971
 50
89.552707000000495
 51
270.44730000000112
  0
ARC
  5
8E0D
  8
AM_0
 10
104.21709722694651
 20
102.78621729251731
 30
0.0
 40
1.0000319699999971
 50
89.552707000000495
 51
270.44730000000112
  0
ARC
  5
8E0E
  8
AM_0
 10
104.21709722694651
 20
92.786203292517357
 30
0.0
 40
1.0000319699999971
 50
89.552707000000495
 51
270.44730000000112
  0
ARC
  5
8E0F
  8
AM_0
 10
102.9366372269465
 20
122.7961992925171
 30
0.0
 40
1.270028039999999
 50
89.627211000000742
 51
270.37279000000223
  0
ARC
  5
8E10
  8
AM_0
 10
102.9366372269465
 20
112.7862192925174
 30
0.0
 40
1.270028039999999
 50
89.627211000000742
 51
270.37279000000223
  0
ARC
  5
8E11
  8
AM_0
 10
102.9986472269466
 20
102.77620929251719
 30
0.0
 40
1.3300160699999981
 50
89.73134399999789
 51
270.2686499999993
  0
ARC
  5
8E12
  8
AM_0
 10
103.1292672269465
 20
92.766229292517437
 30
0.0
 40
1.4600120099999969
 50
89.778814000002811
 51
270.22118999999998
  0
ARC
  5
8E13
  8
AM_0
 10
104.9669772269465
 20
57.89669229251728
 30
0.0
 40
2.000475929999999
 50
187.77046000000081
 51
269.93969000000249
  0
ARC
  5
8E14
  8
AM_0
 10
104.8794972269465
 20
63.50521029251729
 30
0.0
 40
1.999007999999999
 50
190.63741000000331
 51
269.86655000000292
  0
ARC
  5
8E15
  8
AM_0
 10
104.9308272269465
 20
60.656395292517217
 30
0.0
 40
2.0001841200000001
 50
188.92099999999621
 51
269.8285299999992
  0
ARC
  5
8E16
  8
AM_0
 10
104.9383872269465
 20
58.813546292517223
 30
0.0
 40
1.997348129999998
 50
188.85146999999961
 51
270.18467999999763
  0
LINE
  5
8E17
  8
AM_0
 10
107.67483722694649
 20
133.78621929251739
 30
0.0
 11
104.0349072269464
 21
133.78621929251739
 31
0.0
  0
LINE
  5
8E18
  8
AM_0
 10
107.67483722694649
 20
131.7862182925173
 30
0.0
 11
104.0349072269464
 21
131.7862182925173
 31
0.0
  0
LINE
  5
8E19
  8
AM_0
 10
107.67483722694649
 20
123.7862202925172
 30
0.0
 11
104.0349072269464
 21
123.7862202925172
 31
0.0
  0
LINE
  5
8E1A
  8
AM_0
 10
107.67483722694649
 20
121.7862192925174
 30
0.0
 11
104.0349072269464
 21
121.7862192925174
 31
0.0
  0
LINE
  5
8E1B
  8
AM_0
 10
103.0048572269465
 20
131.4662112925171
 30
0.0
 11
107.67483722694649
 21
131.4662112925171
 31
0.0
  0
LINE
  5
8E1C
  8
AM_0
 10
102.9448572269463
 20
124.0662192925171
 30
0.0
 11
107.67483722694649
 21
124.0662192925171
 31
0.0
  0
LINE
  5
8E1D
  8
AM_0
 10
102.9448572269463
 20
121.52620929251719
 30
0.0
 11
107.67483722694649
 21
121.52620929251719
 31
0.0
  0
LINE
  5
8E1E
  8
AM_0
 10
102.9448572269463
 20
114.0562092925172
 30
0.0
 11
107.67483722694649
 21
114.0562092925172
 31
0.0
  0
LINE
  5
8E1F
  8
AM_0
 10
107.67483722694649
 20
113.7862182925174
 30
0.0
 11
104.0349072269464
 21
113.7862182925174
 31
0.0
  0
LINE
  5
8E20
  8
AM_0
 10
107.67483722694649
 20
111.7862202925172
 30
0.0
 11
104.0349072269464
 21
111.7862202925172
 31
0.0
  0
LINE
  5
8E21
  8
AM_0
 10
102.9448572269463
 20
111.51622929251739
 30
0.0
 11
107.67483722694649
 21
111.51622929251739
 31
0.0
  0
LINE
  5
8E22
  8
AM_0
 10
103.0048572269465
 20
104.10622629251731
 30
0.0
 11
107.67483722694649
 21
104.10622629251731
 31
0.0
  0
LINE
  5
8E23
  8
AM_0
 10
107.67483722694649
 20
103.7862192925172
 30
0.0
 11
104.0349072269464
 21
103.7862192925172
 31
0.0
  0
LINE
  5
8E24
  8
AM_0
 10
107.67483722694649
 20
101.7862032925173
 30
0.0
 11
104.0349072269464
 21
101.7862032925173
 31
0.0
  0
LINE
  5
8E25
  8
AM_0
 10
103.0048572269465
 20
101.44622229251711
 30
0.0
 11
107.67483722694649
 21
101.44622229251711
 31
0.0
  0
LINE
  5
8E26
  8
AM_0
 10
107.67483722694649
 20
93.786217292517449
 30
0.0
 11
104.0349072269464
 21
93.786217292517449
 31
0.0
  0
LINE
  5
8E27
  8
AM_0
 10
103.1348772269465
 20
94.226221292517153
 30
0.0
 11
107.67483722694649
 21
94.226221292517153
 31
0.0
  0
LINE
  5
8E28
  8
AM_0
 10
107.67483722694649
 20
91.78621929251743
 30
0.0
 11
104.0349072269464
 21
91.78621929251743
 31
0.0
  0
LINE
  5
8E29
  8
AM_0
 10
103.1348772269465
 20
91.3062072925172
 30
0.0
 11
107.67483722694649
 21
91.3062072925172
 31
0.0
  0
LINE
  5
8E2A
  8
AM_0
 10
103.3448472269465
 20
81.066217292517194
 30
0.0
 11
158.67483722694641
 21
81.066217292517194
 31
0.0
  0
LINE
  5
8E2B
  8
AM_0
 10
103.3448472269465
 20
84.42623229251717
 30
0.0
 11
107.7817412553604
 21
84.42623229251717
 31
0.0
  0
LINE
  5
8E2C
  8
AM_0
 10
108.0122063880513
 20
83.786203292517342
 30
0.0
 11
104.0349072269464
 21
83.786203292517342
 31
0.0
  0
LINE
  5
8E2D
  8
AM_0
 10
107.0348472269465
 20
81.136225292517125
 30
0.0
 11
101.67483722694649
 21
69.696220292517296
 31
0.0
  0
LINE
  5
8E2E
  8
AM_0
 10
101.67483722694649
 20
69.69620529251722
 30
0.0
 11
102.9148272269464
 21
63.136207292517383
 31
0.0
  0
LINE
  5
8E2F
  8
AM_0
 10
101.67483722694649
 20
67.00623429251722
 30
0.0
 11
102.9848472269464
 21
57.626230292517221
 31
0.0
  0
LINE
  5
8E30
  8
AM_0
 10
93.674857226946514
 20
64.79120829251724
 30
0.0
 11
101.67483722694649
 21
64.79120829251724
 31
0.0
  0
LINE
  5
8E31
  8
AM_0
 10
93.674857226946514
 20
64.786216292517224
 30
0.0
 11
101.67483722694649
 21
64.786216292517224
 31
0.0
  0
LINE
  5
8E32
  8
AM_0
 10
101.67483722694649
 20
68.346214292517288
 30
0.0
 11
102.9548172269464
 21
60.346216292517283
 31
0.0
  0
LINE
  5
8E33
  8
AM_0
 10
101.67483722694649
 20
67.006204292517282
 30
0.0
 11
102.9648972269465
 21
58.506217292517249
 31
0.0
  0
LINE
  5
8E34
  8
AM_0
 10
94.364857226946285
 20
74.59621629251717
 30
0.0
 11
100.5948972269466
 21
74.59621629251717
 31
0.0
  0
ARC
  5
8E35
  8
AM_0
 10
103.3448472269465
 20
82.746208292517139
 30
0.0
 40
1.679999999999999
 50
90.00000299999769
 51
270.0
  0
ARC
  5
8E36
  8
AM_0
 10
305.63856186832493
 20
119.4990648580404
 30
0.0
 40
201.61085738285439
 50
179.42527489174191
 51
180.13294661222409
  0
ARC
  5
8E37
  8
AM_0
 10
308.66848114645848
 20
119.4984476361565
 30
0.0
 40
204.64076721509861
 50
180.13080539050139
 51
180.4794013531876
  0
ARC
  5
8E38
  8
AM_0
 10
306.92181519731122
 20
116.07347555552541
 30
0.0
 40
202.89403267033549
 50
180.21919094446349
 51
180.57069649463509
  0
ARC
  5
8E39
  8
AM_0
 10
307.95845475911682
 20
116.08171888804689
 30
0.0
 40
203.93069622692141
 50
179.8707732720535
 51
180.22039274125001
  0
ARC
  5
8E3A
  8
AM_0
 10
307.58046026854748
 20
116.0844885060427
 30
0.0
 40
203.55269646012371
 50
179.52099544220221
 51
179.87131288696011
  0
ARC
  5
8E3B
  8
AM_0
 10
308.99392903172969
 20
116.08601680158149
 30
0.0
 40
204.96200297080929
 50
186.9448831660539
 51
187.59240971812881
  0
LINE
  5
8E3C
  8
AM_0
 10
104.9248572269464
 20
58.656211292517241
 30
0.0
 11
138.6748572269465
 21
58.656211292517241
 31
0.0
  0
LINE
  5
8E3D
  8
AM_0
 10
104.9448672269464
 20
56.816215292517207
 30
0.0
 11
138.6748572269465
 21
56.816215292517207
 31
0.0
  0
LINE
  5
8E3E
  8
AM_0
 10
104.9648772269466
 20
55.896217292517242
 30
0.0
 11
138.6748572269465
 21
55.896217292517242
 31
0.0
  0
LINE
  5
8E3F
  8
AM_0
 10
127.17483722694649
 20
79.566217292517422
 30
0.0
 11
107.00205722694641
 21
81.066217292517194
 31
0.0
  0
ARC
  5
8E40
  8
AM_0
 10
309.47616439447569
 20
116.1563332624203
 30
0.0
 40
205.44930125633391
 50
187.59407870998189
 51
188.8860675939209
  0
ARC
  5
8E41
  8
AM_0
 10
138.6715572269465
 20
58.819498292517217
 30
0.0
 40
2.003279969999999
 50
270.09378999999711
 51
359.90621000000289
  0
LINE
  5
8E42
  8
AM_0
 10
140.67483722694649
 20
57.896218292517219
 30
0.0
 11
140.67483722694649
 21
61.506202292517393
 31
0.0
  0
ARC
  5
8E43
  8
AM_0
 10
138.6668472269464
 20
57.904228292517239
 30
0.0
 40
2.0080361999999981
 50
270.22878999999938
 51
359.77121000000051
  0
ARC
  5
8E44
  8
AM_0
 10
138.6676572269464
 20
60.663400292517281
 30
0.0
 40
2.007180029999998
 50
270.20461999999759
 51
359.79537999999582
  0
ARC
  5
8E46
  8
AM_0
 10
308.58119509927241
 20
116.0946108241082
 30
0.0
 40
204.55326957220879
 50
185.46031399634279
 51
186.1370008544784
  0
ARC
  5
8E47
  8
AM_0
 10
309.2345639930333
 20
116.1538158724982
 30
0.0
 40
205.2093074617344
 50
184.78473638767409
 51
185.45941055423361
  0
ARC
  5
8E48
  8
AM_0
 10
308.66420025834162
 20
116.1038924218855
 30
0.0
 40
204.63676715666841
 50
184.10764570184199
 51
184.78412767205279
  0
ARC
  5
8E49
  8
AM_0
 10
308.4055569104616
 20
116.092150799373
 30
0.0
 40
204.37787853975311
 50
181.97597713469739
 51
183.3618692197046
  0
ARC
  5
8E4A
  8
AM_0
 10
308.7343801361867
 20
119.4761473187078
 30
0.0
 40
204.70684984457009
 50
176.6408431394282
 51
177.33301926919839
  0
ARC
  5
8E4B
  8
AM_0
 10
310.0512458091668
 20
119.4219723094855
 30
0.0
 40
206.0248100930055
 50
177.3350100486411
 51
178.0226252694244
  0
LINE
  5
8E4C
  8
AM_0
 10
206.49486722694661
 20
84.42623229251717
 30
0.0
 11
196.67483722694649
 21
84.42623229251717
 31
0.0
  0
LINE
  5
8E4D
  8
AM_0
 10
208.17486722694639
 20
79.566217292517422
 30
0.0
 11
203.72484722694651
 21
62.98621329251727
 31
0.0
  0
ARC
  5
8E4E
  8
AM_0
 10
201.79197722694639
 20
63.508354292517197
 30
0.0
 40
2.0021281800000001
 50
270.0815199999999
 51
344.88329999999883
  0
LINE
  5
8E4F
  8
AM_0
 10
203.01486722694651
 20
83.786203292517342
 30
0.0
 11
196.67483722694649
 21
83.786203292517342
 31
0.0
  0
LINE
  5
8E50
  8
AM_0
 10
196.67483722694649
 20
87.708512208190427
 30
0.0
 11
199.4448672269464
 21
87.786202292517146
 31
0.0
  0
ARC
  5
8E51
  8
AM_0
 10
203.01486722694651
 20
82.786219292517217
 30
0.0
 40
1.000004069999999
 50
270.0
 51
90.00000299999769
  0
LINE
  5
8E52
  8
AM_0
 10
204.21483722694629
 20
64.786216292517224
 30
0.0
 11
209.6748672269465
 21
64.786216292517224
 31
0.0
  0
ARC
  5
8E53
  8
AM_0
 10
206.49486722694661
 20
82.746208292517139
 30
0.0
 40
1.680008099999998
 50
270.0
 51
90.00000299999769
  0
ARC
  5
8E54
  8
AM_0
 10
206.49486722694661
 20
82.746208292517139
 30
0.0
 40
1.675004159999999
 50
270.0
 51
90.00000299999769
  0
LINE
  5
8E55
  8
AM_0
 10
104.22490413279949
 20
153.7862227891375
 30
0.0
 11
203.0148671745865
 21
153.78622536251709
 31
0.0
  0
LINE
  5
8E56
  8
AM_0
 10
103.3448472269465
 20
154.5161892925172
 30
0.0
 11
206.49486722694661
 21
154.5161892925172
 31
0.0
  0
LINE
  5
8E57
  8
AM_0
 10
104.8748472269464
 20
174.07621929251741
 30
0.0
 11
201.79485722694659
 21
174.07621929251741
 31
0.0
  0
LINE
  5
8E58
  8
AM_0
 10
127.17483722694649
 20
156.0161892925174
 30
0.0
 11
209.6748672269465
 21
156.0161892925174
 31
0.0
  0
ARC
  5
8E59
  8
AM_0
 10
104.21709722694651
 20
152.7862212925171
 30
0.0
 40
1.0000319699999971
 50
89.552707000000495
 51
270.44730000000112
  0
ARC
  5
8E5A
  8
AM_0
 10
104.21709722694651
 20
142.78621929251739
 30
0.0
 40
1.0000319699999971
 50
89.552707000000495
 51
270.44730000000112
  0
ARC
  5
8E5B
  8
AM_0
 10
103.12920722694651
 20
142.81621929251719
 30
0.0
 40
1.4600120099999969
 50
89.777016999998949
 51
270.22298999999867
  0
ARC
  5
8E5C
  8
AM_0
 10
104.8777272269464
 20
172.07929929251711
 30
0.0
 40
1.9969040699999969
 50
90.083473999999597
 51
169.41256000000109
  0
ARC
  5
8E5D
  8
AM_0
 10
104.92326722694651
 20
174.92308929251709
 30
0.0
 40
1.9931281199999991
 50
89.953373000000497
 51
170.96118000000021
  0
ARC
  5
8E5E
  8
AM_0
 10
104.9376072269465
 20
176.77162929251739
 30
0.0
 40
1.9945880699999969
 50
89.790753000002425
 51
171.507090000001
  0
ARC
  5
8E5F
  8
AM_0
 10
104.9595072269462
 20
177.68272929251731
 30
0.0
 40
1.9934921999999999
 50
89.846091000001394
 51
172.11473999999609
  0
LINE
  5
8E60
  8
AM_0
 10
108.010363347978
 20
151.78621929251739
 30
0.0
 11
104.0349072269464
 21
151.78621929251739
 31
0.0
  0
LINE
  5
8E61
  8
AM_0
 10
107.67483722694649
 20
143.78622129251721
 30
0.0
 11
104.0349072269464
 21
143.78622129251721
 31
0.0
  0
LINE
  5
8E62
  8
AM_0
 10
107.67483722694649
 20
141.78622029251741
 30
0.0
 11
104.0349072269464
 21
141.78622029251741
 31
0.0
  0
LINE
  5
8E63
  8
AM_0
 10
103.3448472269465
 20
151.15621629251709
 30
0.0
 11
107.7835098308983
 21
151.15621629251709
 31
0.0
  0
LINE
  5
8E64
  8
AM_0
 10
103.1348772269465
 20
144.2762112925173
 30
0.0
 11
107.67483722694649
 21
144.2762112925173
 31
0.0
  0
LINE
  5
8E65
  8
AM_0
 10
103.1348772269465
 20
141.35619729251741
 30
0.0
 11
107.67483722694649
 21
141.35619729251741
 31
0.0
  0
LINE
  5
8E66
  8
AM_0
 10
103.0048572269465
 20
134.13622629251719
 30
0.0
 11
107.67483722694649
 21
134.13622629251719
 31
0.0
  0
LINE
  5
8E67
  8
AM_0
 10
107.0348472269465
 20
154.43620929251739
 30
0.0
 11
101.67483722694649
 21
165.8861892925174
 31
0.0
  0
LINE
  5
8E68
  8
AM_0
 10
101.67483722694649
 20
168.576199292517
 30
0.0
 11
102.9848472269464
 21
177.9562092925174
 31
0.0
  0
ARC
  5
8E69
  8
AM_0
 10
103.3448472269465
 20
152.8362072925174
 30
0.0
 40
1.679999999999999
 50
90.00000299999769
 51
270.0
  0
LINE
  5
8E6A
  8
AM_0
 10
101.67483722694649
 20
165.8862192925171
 30
0.0
 11
102.9148272269464
 21
172.44622929251719
 31
0.0
  0
LINE
  5
8E6B
  8
AM_0
 10
94.364857226946285
 20
160.9762092925171
 30
0.0
 11
100.5948972269466
 21
160.9762092925171
 31
0.0
  0
LINE
  5
8E6C
  8
AM_0
 10
93.674857226946514
 20
170.79121929251741
 30
0.0
 11
101.67483722694649
 21
170.79121929251741
 31
0.0
  0
LINE
  5
8E6D
  8
AM_0
 10
93.674857226946514
 20
170.7862092925171
 30
0.0
 11
101.67483722694649
 21
170.7862092925171
 31
0.0
  0
LINE
  5
8E6E
  8
AM_0
 10
101.67483722694649
 20
167.2262292925173
 30
0.0
 11
102.9548172269464
 21
175.2361992925174
 31
0.0
  0
LINE
  5
8E6F
  8
AM_0
 10
101.67483722694649
 20
168.5762292925171
 30
0.0
 11
102.9648972269465
 21
177.06622929251711
 31
0.0
  0
ARC
  5
8E70
  8
AM_0
 10
138.67332722694641
 20
176.7646692925172
 30
0.0
 40
2.0015440500000001
 50
0.0442139990008822
 51
89.95578399999907
  0
LINE
  5
8E71
  8
AM_0
 10
140.67483722694649
 20
177.6762192925172
 30
0.0
 11
140.67483722694649
 21
174.07621929251741
 31
0.0
  0
LINE
  5
8E72
  8
AM_0
 10
104.9248572269464
 20
176.91619929251709
 30
0.0
 11
138.6748572269465
 21
176.91619929251709
 31
0.0
  0
LINE
  5
8E73
  8
AM_0
 10
127.17483722694649
 20
156.0161892925174
 30
0.0
 11
106.99740722694651
 21
154.51621929251741
 31
0.0
  0
ARC
  5
8E74
  8
AM_0
 10
308.45584673476151
 20
119.5352941123204
 30
0.0
 40
204.4231110527293
 50
172.39935376234251
 51
173.04804061342691
  0
ARC
  5
8E75
  8
AM_0
 10
309.11212887256801
 20
119.4366211183364
 30
0.0
 40
205.086602105558
 50
173.86479656848479
 51
175.21533938006169
  0
ARC
  5
8E76
  8
AM_0
 10
308.506365212459
 20
119.49414970463719
 30
0.0
 40
204.47815098782999
 50
175.21724497659139
 51
175.89452073852021
  0
ARC
  5
8E77
  8
AM_0
 10
308.78668361540002
 20
119.48600449995
 30
0.0
 40
204.75756069728581
 50
171.10266677356
 51
172.3979273485285
  0
ARC
  5
8E78
  8
AM_0
 10
138.67443722694651
 20
174.91579929251731
 30
0.0
 40
2.0004079799999981
 50
0.0116490000006953
 51
89.98834999999788
  0
LINE
  5
8E79
  8
AM_0
 10
104.9448672269464
 20
178.76620929251729
 30
0.0
 11
138.6748572269465
 21
178.76620929251729
 31
0.0
  0
LINE
  5
8E7A
  8
AM_0
 10
104.9648772269466
 20
179.67622929251709
 30
0.0
 11
138.6748572269465
 21
179.67622929251709
 31
0.0
  0
ARC
  5
8E7B
  8
AM_0
 10
138.67356722694649
 20
177.67492929251719
 30
0.0
 40
2.0012880000000002
 50
0.0368719989956836
 51
89.963125999997985
  0
LINE
  5
8E7C
  8
AM_0
 10
206.49486722694661
 20
151.15621629251709
 30
0.0
 11
196.67483722694649
 21
151.15621629251709
 31
0.0
  0
LINE
  5
8E7D
  8
AM_0
 10
207.87486722694641
 20
157.12621929251711
 30
0.0
 11
203.7249072269465
 21
172.58620929251731
 31
0.0
  0
LINE
  5
8E7E
  8
AM_0
 10
196.67483722694649
 20
147.87392137684441
 30
0.0
 11
199.4448672269464
 21
147.79623129251709
 31
0.0
  0
ARC
  5
8E7F
  8
AM_0
 10
203.01486722694651
 20
152.7862212925171
 30
0.0
 40
1.000004069999999
 50
270.0
 51
90.00000299999769
  0
ARC
  5
8E80
  8
AM_0
 10
201.79203722694649
 20
172.0776192925172
 30
0.0
 40
1.99860411
 50
14.74271599999944
 51
89.919516000001124
  0
ARC
  5
8E81
  8
AM_0
 10
206.49486722694661
 20
152.8362072925174
 30
0.0
 40
1.680008099999998
 50
270.0
 51
90.00000299999769
  0
ARC
  5
8E82
  8
AM_0
 10
206.49486722694661
 20
152.8362072925174
 30
0.0
 40
1.675004159999999
 50
270.0
 51
90.00000299999769
  0
ARC
  5
8E83
  8
AM_0
 10
209.32803722694649
 20
157.5139692925174
 30
0.0
 40
1.502776079999999
 50
194.75642999999971
 51
269.8775900000029
  0
LINE
  5
8E84
  8
AM_0
 10
204.21483722694629
 20
170.7862092925171
 30
0.0
 11
209.6748672269465
 21
170.7862092925171
 31
0.0
  0
LINE
  5
8E85
  8
AM_0
 10
192.17483722694681
 20
140.2912242925174
 30
0.0
 11
192.17483722694629
 21
95.291224292517398
 31
0.0
  0
LINE
  5
8E86
  8
AM_0
 10
190.0748372269465
 20
140.84147682421141
 30
0.0
 11
190.0748372269461
 21
94.740971760823399
 31
0.0
  0
LINE
  5
8E87
  8
AM_0
 10
107.17483722694649
 20
99.791224292517413
 30
0.0
 11
107.17483722694649
 21
89.791214292517466
 31
0.0
  0
LINE
  5
8E88
  8
AM_0
 10
107.67483722694649
 20
85.291218292517414
 30
0.0
 11
107.67483722694649
 21
150.29121429251691
 31
0.0
  0
LINE
  5
8E89
  8
AM_0
 10
179.22508175864101
 20
83.891216292517143
 30
0.0
 11
112.0948172269464
 21
83.891216292517143
 31
0.0
  0
LINE
  5
8E8A
  8
AM_0
 10
112.0948172269464
 20
83.891216292517143
 30
0.0
 11
112.0948172269464
 21
81.791225292517083
 31
0.0
  0
ARC
  5
8E8B
  8
AM_0
 10
111.1674572269465
 20
85.283871292517418
 30
0.0
 40
3.492651899999998
 50
179.8793300000022
 51
270.12067999999482
  0
ARC
  5
8E8C
  8
AM_0
 10
107.6675172269465
 20
89.783874292517439
 30
0.0
 40
0.4927000100000001
 50
179.14455999999711
 51
270.85544000000272
  0
ARC
  5
8E8D
  8
AM_0
 10
194.17483722694621
 20
95.291224292517398
 30
0.0
 40
2.0
 50
180.0
 51
270.0
  0
LINE
  5
8E8E
  8
AM_0
 10
189.66478672060731
 20
93.751022267161346
 30
0.0
 11
180.2150312523022
 21
84.301266798855863
 31
0.0
  0
LINE
  5
8E8F
  8
AM_0
 10
180.21503925230161
 20
84.301274798855957
 30
0.0
 11
189.66478672060791
 21
93.751022267161844
 31
0.0
  0
ARC
  5
8E90
  8
AM_0
 10
179.22508175864101
 20
85.291216292517419
 30
0.0
 40
1.399999999999999
 50
270.0
 51
315.00000000000921
1001
GENIUS_GENODEF_13
1002
{
1000
HIER
1070
     0
1002
}
1002
{
1000
MANEDIT
1070
     0
1002
}
1002
{
1000
NOSEL
1070
     0
1002
}
1002
{
1000
BEHIND
1070
     0
1002
}
1002
{
1000
OTHER
1070
     0
1002
}
1002
{
1000
REACTOR
1002
}
1001
GENIUS_GENOBJ-N-FIL_13
1002
{
1000
OWNER
1000
GEN
1002
}
  0
ARC
  5
8E91
  8
AM_0
 10
188.67483722694629
 20
94.740971760823399
 30
0.0
 40
1.4000000000006301
 50
314.99999999997232
 51
0.0
  0
ARC
  5
8E92
  8
AM_0
 10
194.67483722694649
 20
83.791224292517214
 30
0.0
 40
2.0
 50
270.0
 51
0.0
  0
ARC
  5
8E93
  8
AM_0
 10
194.67483722694649
 20
91.291224292517427
 30
0.0
 40
2.0
 50
0.0
 51
90.0
  0
LINE
  5
8E94
  8
AM_0
 10
194.67483722694649
 20
93.2912242925172
 30
0.0
 11
194.17483722694621
 21
93.2912242925172
 31
0.0
  0
LINE
  5
8E95
  8
AM_0
 10
196.67483722694649
 20
83.791224292517214
 30
0.0
 11
196.67483722694649
 21
91.291224292517427
 31
0.0
  0
LINE
  5
8E96
  8
AM_0
 10
112.0948172269464
 20
151.69120429251711
 30
0.0
 11
179.23257304682181
 21
151.69120429251711
 31
0.0
  0
ARC
  5
8E97
  8
AM_0
 10
107.6753872269464
 20
99.790674292517124
 30
0.0
 40
0.5005480100000002
 50
90.062622000000005
 51
179.93736999999041
  0
ARC
  5
8E98
  8
AM_0
 10
107.6753872269464
 20
145.79067429251711
 30
0.0
 40
0.5005480100000002
 50
90.062622000000005
 51
179.93736999999041
  0
ARC
  5
8E99
  8
AM_0
 10
107.6673272269464
 20
135.783714292517
 30
0.0
 40
0.49254802
 50
179.1265600000018
 51
270.87345000000158
  0
LINE
  5
8E9A
  8
AM_0
 10
107.17483722694649
 20
145.79121429251711
 30
0.0
 11
107.17483722694649
 21
135.791224292517
 31
0.0
  0
LINE
  5
8E9B
  8
AM_0
 10
112.0948172269464
 20
151.69120429251711
 30
0.0
 11
112.0948172269464
 21
153.78620429251711
 31
0.0
  0
ARC
  5
8E9C
  8
AM_0
 10
111.17532722694649
 20
150.29072429251741
 30
0.0
 40
3.5005001999999981
 50
90.008164999996055
 51
179.99183999999781
  0
LINE
  5
8E9D
  8
AM_0
 10
194.17483722694649
 20
123.2912242925171
 30
0.0
 11
192.17483722694649
 21
123.2912242925171
 31
0.0
  0
LINE
  5
8E9E
  8
AM_0
 10
192.17483722694629
 20
112.2912242925174
 30
0.0
 11
194.17483722694681
 21
112.2912242925174
 31
0.0
  0
LINE
  5
8E9F
  8
AM_0
 10
194.17483722694681
 20
112.2912242925174
 30
0.0
 11
194.17483722694649
 21
123.2912242925171
 31
0.0
  0
ARC
  5
8EA0
  8
AM_0
 10
194.17483722694621
 20
140.2912242925174
 30
0.0
 40
2.0
 50
90.0
 51
180.0
  0
CIRCLE
  5
8EA1
  8
AM_0
 10
191.17483722694601
 20
148.79122429251689
 30
0.0
 40
3.4999999999999631
  0
LINE
  5
8EA2
  8
AM_0
 10
180.2150392523028
 20
151.28117378617819
 30
0.0
 11
189.66478672060731
 21
141.83142631787339
 31
0.0
  0
LINE
  5
8EA3
  8
AM_0
 10
188.0748372269461
 20
143.42137581153341
 30
0.0
 11
189.66478672060751
 21
141.83142631787311
 31
0.0
  0
ARC
  5
8EA4
  8
AM_0
 10
188.67483722694629
 20
140.84147682421141
 30
0.0
 40
1.400000000000118
 50
0.0
 51
45.000000000027619
  0
ARC
  5
8EA5
  8
AM_0
 10
179.22508975864051
 20
150.29122429251731
 30
0.0
 40
1.40000000000077
 50
44.999999999972353
 51
89.999999999954383
  0
LINE
  5
8EA6
  8
AM_0
 10
196.67483722694649
 20
144.29122429251709
 30
0.0
 11
196.67483722694649
 21
151.79122429251709
 31
0.0
  0
LINE
  5
8EA7
  8
AM_0
 10
196.67483722694649
 20
144.29122429251709
 30
0.0
 11
196.67483722694649
 21
151.79122429251709
 31
0.0
  0
ARC
  5
8EA8
  8
AM_0
 10
194.67483722694649
 20
144.29122429251709
 30
0.0
 40
2.0
 50
270.0
 51
0.0
  0
LINE
  5
8EA9
  8
AM_0
 10
194.17483722694621
 20
142.29122429251709
 30
0.0
 11
194.67483722694649
 21
142.29122429251709
 31
0.0
  0
ARC
  5
8EAA
  8
AM_0
 10
194.67483722694649
 20
151.79122429251709
 30
0.0
 40
2.0
 50
0.0
 51
90.0
  0
LINE
  5
8EAB
  8
AM_0
 10
188.53626554573941
 20
148.79122429251839
 30
0.0
 11
193.81340890815289
 21
148.79122429251839
 31
0.0
  0
LINE
  5
8EAC
  8
AM_0
 10
191.17483722694601
 20
151.4297959737236
 30
0.0
 11
191.17483722694601
 21
146.1526526113102
 31
0.0
  0
CIRCLE
  5
8EAD
  8
AM_0
 10
191.17483722694601
 20
86.791224292517086
 30
0.0
 40
3.4999999999999631
  0
LINE
  5
8EAE
  8
AM_0
 10
188.53626554573941
 20
86.791224292518351
 30
0.0
 11
193.81340890815289
 21
86.791224292518351
 31
0.0
  0
LINE
  5
8EAF
  8
AM_0
 10
191.17483722694601
 20
89.429795973723898
 30
0.0
 11
191.17483722694601
 21
84.152652611310486
 31
0.0
  0
LINE
  5
8EB0
  8
AM_0
 10
203.01486722694651
 20
151.79624529251711
 30
0.0
 11
196.67483722694649
 21
151.79624529251711
 31
0.0
  0
LINE
  5
8EB5
  8
AM_0
 10
523.97698456123965
 20
112.2912692925164
 30
0.0
 11
516.6327020916134
 21
112.2912692925167
 31
0.0
  0
LINE
  5
8EB6
  8
AM_0
 10
516.6327020916134
 20
123.2912692925169
 30
0.0
 11
524.77637901907372
 21
123.2912692925169
 31
0.0
  0
LINE
  5
8EB7
  8
AM_0
 10
536.63270209161351
 20
153.7912692925153
 30
0.0
 11
504.13270209161311
 21
153.7912692925153
 31
0.0
  0
LINE
  5
8EB8
  8
AM_0
 10
504.13270209161311
 20
81.791269292515139
 30
0.0
 11
521.76048174633593
 21
81.791269292515139
 31
0.0
  0
LINE
  5
8EB9
  8
AM_0
 10
503.63270209161311
 20
149.19126929251701
 30
0.0
 11
503.63270209161311
 21
86.391269292517407
 31
0.0
  0
LINE
  5
8EBA
  8
AM_0
 10
516.63270209161306
 20
81.791269292515139
 30
0.0
 11
516.63270209161306
 21
153.7912692925153
 31
0.0
  0
LINE
  5
8EBB
  8
AM_0
 10
516.63270209161306
 20
142.87126929251659
 30
0.0
 11
515.16770209161325
 21
151.69126929251701
 31
0.0
  0
ARC
  5
8EBC
  8
AM_0
 10
506.13270209161311
 20
149.19126929251709
 30
0.0
 40
2.5
 50
90.0
 51
180.0
  0
LINE
  5
8EBD
  8
AM_0
 10
503.63270209161311
 20
153.29126929251689
 30
0.0
 11
503.63270209161311
 21
149.19126929251701
 31
0.0
  0
ARC
  5
8EBE
  8
AM_0
 10
504.13270209161311
 20
153.29126929251689
 30
0.0
 40
0.5
 50
90.0
 51
180.0
  0
LINE
  5
8EBF
  8
AM_0
 10
515.16770209161325
 20
151.69126929251701
 30
0.0
 11
506.13270209161311
 21
151.69126929251701
 31
0.0
  0
POLYLINE
  5
8EC0
  8
AM_0
 66
     1
 10
0.0
 20
0.0
 30
0.0
 70
     8
  0
VERTEX
  5
8EC1
  8
AM_0
 10
506.13265502653883
 20
141.4216840955599
 30
0.0
 70
    32
  0
VERTEX
  5
8EC2
  8
AM_0
 10
506.12865502653909
 20
141.4216840955599
 30
0.0
 70
    32
  0
VERTEX
  5
8EC3
  8
AM_0
 10
506.12465502653907
 20
141.4216840955599
 30
0.0
 70
    32
  0
VERTEX
  5
8EC4
  8
AM_0
 10
506.11965502653908
 20
141.4216840955599
 30
0.0
 70
    32
  0
VERTEX
  5
8EC5
  8
AM_0
 10
506.11565502653912
 20
141.4216840955599
 30
0.0
 70
    32
  0
VERTEX
  5
8EC6
  8
AM_0
 10
506.11165502653938
 20
141.4216840955599
 30
0.0
 70
    32
  0
VERTEX
  5
8EC7
  8
AM_0
 10
506.1066550265391
 20
141.4216840955599
 30
0.0
 70
    32
  0
VERTEX
  5
8EC8
  8
AM_0
 10
506.10265502653942
 20
141.42068409555969
 30
0.0
 70
    32
  0
VERTEX
  5
8EC9
  8
AM_0
 10
506.09865502653918
 20
141.42068409555969
 30
0.0
 70
    32
  0
VERTEX
  5
8ECA
  8
AM_0
 10
506.0946550265391
 20
141.42068409555969
 30
0.0
 70
    32
  0
VERTEX
  5
8ECB
  8
AM_0
 10
506.08965502653911
 20
141.42068409555969
 30
0.0
 70
    32
  0
VERTEX
  5
8ECC
  8
AM_0
 10
506.08565502653892
 20
141.42068409555969
 30
0.0
 70
    32
  0
VERTEX
  5
8ECD
  8
AM_0
 10
506.08165502653918
 20
141.42068409555969
 30
0.0
 70
    32
  0
VERTEX
  5
8ECE
  8
AM_0
 10
506.07765502653922
 20
141.42068409555969
 30
0.0
 70
    32
  0
VERTEX
  5
8ECF
  8
AM_0
 10
506.07265502653922
 20
141.42068409555969
 30
0.0
 70
    32
  0
VERTEX
  5
8ED0
  8
AM_0
 10
506.06865502653881
 20
141.42068409555969
 30
0.0
 70
    32
  0
VERTEX
  5
8ED1
  8
AM_0
 10
506.0646550265393
 20
141.42068409555969
 30
0.0
 70
    32
  0
VERTEX
  5
8ED2
  8
AM_0
 10
506.05965502653908
 20
141.42068409555969
 30
0.0
 70
    32
  0
VERTEX
  5
8ED3
  8
AM_0
 10
506.05565502653911
 20
141.42068409555969
 30
0.0
 70
    32
  0
VERTEX
  5
8ED4
  8
AM_0
 10
506.05165502653909
 20
141.42068409555969
 30
0.0
 70
    32
  0
VERTEX
  5
8ED5
  8
AM_0
 10
506.04765502653908
 20
141.42068409555969
 30
0.0
 70
    32
  0
VERTEX
  5
8ED6
  8
AM_0
 10
506.04265502653908
 20
141.42068409555969
 30
0.0
 70
    32
  0
VERTEX
  5
8ED7
  8
AM_0
 10
506.03865502653912
 20
141.42068409555969
 30
0.0
 70
    32
  0
VERTEX
  5
8ED8
  8
AM_0
 10
506.0346550265391
 20
141.42068409555969
 30
0.0
 70
    32
  0
VERTEX
  5
8ED9
  8
AM_0
 10
506.03065502653908
 20
141.42068409555969
 30
0.0
 70
    32
  0
VERTEX
  5
8EDA
  8
AM_0
 10
506.02565502653908
 20
141.4196840955598
 30
0.0
 70
    32
  0
VERTEX
  5
8EDB
  8
AM_0
 10
506.02165502653878
 20
141.4196840955598
 30
0.0
 70
    32
  0
VERTEX
  5
8EDC
  8
AM_0
 10
506.0176550265391
 20
141.4196840955598
 30
0.0
 70
    32
  0
VERTEX
  5
8EDD
  8
AM_0
 10
506.01365502653852
 20
141.4196840955598
 30
0.0
 70
    32
  0
VERTEX
  5
8EDE
  8
AM_0
 10
506.00865502653937
 20
141.4196840955598
 30
0.0
 70
    32
  0
VERTEX
  5
8EDF
  8
AM_0
 10
506.00465502653913
 20
141.4196840955598
 30
0.0
 70
    32
  0
VERTEX
  5
8EE0
  8
AM_0
 10
506.00065502653911
 20
141.4196840955598
 30
0.0
 70
    32
  0
VERTEX
  5
8EE1
  8
AM_0
 10
505.99565502653923
 20
141.4196840955598
 30
0.0
 70
    32
  0
VERTEX
  5
8EE2
  8
AM_0
 10
505.99165502653909
 20
141.4196840955598
 30
0.0
 70
    32
  0
VERTEX
  5
8EE3
  8
AM_0
 10
505.98765502653907
 20
141.4196840955598
 30
0.0
 70
    32
  0
VERTEX
  5
8EE4
  8
AM_0
 10
505.98365502653922
 20
141.41868409555971
 30
0.0
 70
    32
  0
VERTEX
  5
8EE5
  8
AM_0
 10
505.97865502653917
 20
141.41868409555971
 30
0.0
 70
    32
  0
VERTEX
  5
8EE6
  8
AM_0
 10
505.97465502653881
 20
141.41868409555971
 30
0.0
 70
    32
  0
VERTEX
  5
8EE7
  8
AM_0
 10
505.9706550265393
 20
141.41868409555971
 30
0.0
 70
    32
  0
VERTEX
  5
8EE8
  8
AM_0
 10
505.96665502653912
 20
141.41868409555971
 30
0.0
 70
    32
  0
VERTEX
  5
8EE9
  8
AM_0
 10
505.96165502653912
 20
141.41868409555971
 30
0.0
 70
    32
  0
VERTEX
  5
8EEA
  8
AM_0
 10
505.9576550265391
 20
141.41868409555971
 30
0.0
 70
    32
  0
VERTEX
  5
8EEB
  8
AM_0
 10
505.95365502653908
 20
141.41768409555991
 30
0.0
 70
    32
  0
VERTEX
  5
8EEC
  8
AM_0
 10
505.94965502653912
 20
141.41768409555991
 30
0.0
 70
    32
  0
VERTEX
  5
8EED
  8
AM_0
 10
505.94465502653901
 20
141.41768409555991
 30
0.0
 70
    32
  0
VERTEX
  5
8EEE
  8
AM_0
 10
505.9406550265391
 20
141.41768409555991
 30
0.0
 70
    32
  0
VERTEX
  5
8EEF
  8
AM_0
 10
505.93665502653931
 20
141.41768409555991
 30
0.0
 70
    32
  0
VERTEX
  5
8EF0
  8
AM_0
 10
505.93165502653937
 20
141.41768409555991
 30
0.0
 70
    32
  0
VERTEX
  5
8EF1
  8
AM_0
 10
505.92765502653913
 20
141.41768409555991
 30
0.0
 70
    32
  0
VERTEX
  5
8EF2
  8
AM_0
 10
505.92365502653911
 20
141.4166840955597
 30
0.0
 70
    32
  0
VERTEX
  5
8EF3
  8
AM_0
 10
505.91965502653937
 20
141.4166840955597
 30
0.0
 70
    32
  0
VERTEX
  5
8EF4
  8
AM_0
 10
505.91465502653909
 20
141.4166840955597
 30
0.0
 70
    32
  0
VERTEX
  5
8EF5
  8
AM_0
 10
505.9106550265393
 20
141.4166840955597
 30
0.0
 70
    32
  0
VERTEX
  5
8EF6
  8
AM_0
 10
505.90665502653911
 20
141.4166840955597
 30
0.0
 70
    32
  0
VERTEX
  5
8EF7
  8
AM_0
 10
505.90265502653909
 20
141.4156840955599
 30
0.0
 70
    32
  0
VERTEX
  5
8EF8
  8
AM_0
 10
505.8976550265391
 20
141.4156840955599
 30
0.0
 70
    32
  0
VERTEX
  5
8EF9
  8
AM_0
 10
505.89365502653908
 20
141.4156840955599
 30
0.0
 70
    32
  0
VERTEX
  5
8EFA
  8
AM_0
 10
505.88965502653917
 20
141.4156840955599
 30
0.0
 70
    32
  0
VERTEX
  5
8EFB
  8
AM_0
 10
505.8856550265391
 20
141.4156840955599
 30
0.0
 70
    32
  0
VERTEX
  5
8EFC
  8
AM_0
 10
505.88065502653922
 20
141.4156840955599
 30
0.0
 70
    32
  0
VERTEX
  5
8EFD
  8
AM_0
 10
505.87665502653908
 20
141.41468409556009
 30
0.0
 70
    32
  0
VERTEX
  5
8EFE
  8
AM_0
 10
505.87265502653878
 20
141.41468409556009
 30
0.0
 70
    32
  0
VERTEX
  5
8EFF
  8
AM_0
 10
505.8686550265391
 20
141.41468409556009
 30
0.0
 70
    32
  0
VERTEX
  5
8F00
  8
AM_0
 10
505.86365502653911
 20
141.41468409556009
 30
0.0
 70
    32
  0
VERTEX
  5
8F01
  8
AM_0
 10
505.85965502653909
 20
141.41368409555989
 30
0.0
 70
    32
  0
VERTEX
  5
8F02
  8
AM_0
 10
505.85565502653913
 20
141.41368409555989
 30
0.0
 70
    32
  0
VERTEX
  5
8F03
  8
AM_0
 10
505.85065502653902
 20
141.41368409555989
 30
0.0
 70
    32
  0
VERTEX
  5
8F04
  8
AM_0
 10
505.84665502653911
 20
141.41368409555989
 30
0.0
 70
    32
  0
VERTEX
  5
8F05
  8
AM_0
 10
505.84265502653909
 20
141.41368409555989
 30
0.0
 70
    32
  0
VERTEX
  5
8F06
  8
AM_0
 10
505.83865502653907
 20
141.41268409555991
 30
0.0
 70
    32
  0
VERTEX
  5
8F07
  8
AM_0
 10
505.83365502653908
 20
141.41268409555991
 30
0.0
 70
    32
  0
VERTEX
  5
8F08
  8
AM_0
 10
505.829655026539
 20
141.41268409555991
 30
0.0
 70
    32
  0
VERTEX
  5
8F09
  8
AM_0
 10
505.8256550265391
 20
141.41268409555991
 30
0.0
 70
    32
  0
VERTEX
  5
8F0A
  8
AM_0
 10
505.82165502653908
 20
141.41168409555991
 30
0.0
 70
    32
  0
VERTEX
  5
8F0B
  8
AM_0
 10
505.81665502653942
 20
141.41168409555991
 30
0.0
 70
    32
  0
VERTEX
  5
8F0C
  8
AM_0
 10
505.81265502653918
 20
141.41168409555991
 30
0.0
 70
    32
  0
VERTEX
  5
8F0D
  8
AM_0
 10
505.80865502653887
 20
141.4106840955599
 30
0.0
 70
    32
  0
VERTEX
  5
8F0E
  8
AM_0
 10
505.80465502653863
 20
141.4106840955599
 30
0.0
 70
    32
  0
VERTEX
  5
8F0F
  8
AM_0
 10
505.79965502653909
 20
141.4106840955599
 30
0.0
 70
    32
  0
VERTEX
  5
8F10
  8
AM_0
 10
505.79565502653918
 20
141.4106840955599
 30
0.0
 70
    32
  0
VERTEX
  5
8F11
  8
AM_0
 10
505.7916550265391
 20
141.4096840955597
 30
0.0
 70
    32
  0
VERTEX
  5
8F12
  8
AM_0
 10
505.78765502653908
 20
141.4096840955597
 30
0.0
 70
    32
  0
VERTEX
  5
8F13
  8
AM_0
 10
505.78265502653909
 20
141.4096840955597
 30
0.0
 70
    32
  0
VERTEX
  5
8F14
  8
AM_0
 10
505.7786550265393
 20
141.4096840955597
 30
0.0
 70
    32
  0
VERTEX
  5
8F15
  8
AM_0
 10
505.77465502653911
 20
141.40868409555989
 30
0.0
 70
    32
  0
VERTEX
  5
8F16
  8
AM_0
 10
505.77065502653909
 20
141.40868409555989
 30
0.0
 70
    32
  0
VERTEX
  5
8F17
  8
AM_0
 10
505.76565502653909
 20
141.40868409555989
 30
0.0
 70
    32
  0
VERTEX
  5
8F18
  8
AM_0
 10
505.76165502653907
 20
141.40768409555989
 30
0.0
 70
    32
  0
VERTEX
  5
8F19
  8
AM_0
 10
505.75765502653871
 20
141.40768409555989
 30
0.0
 70
    32
  0
VERTEX
  5
8F1A
  8
AM_0
 10
505.75265502653912
 20
141.40768409555989
 30
0.0
 70
    32
  0
VERTEX
  5
8F1B
  8
AM_0
 10
505.7486550265391
 20
141.40668409555991
 30
0.0
 70
    32
  0
VERTEX
  5
8F1C
  8
AM_0
 10
505.74465502653908
 20
141.40668409555991
 30
0.0
 70
    32
  0
VERTEX
  5
8F1D
  8
AM_0
 10
505.74065502653912
 20
141.40668409555991
 30
0.0
 70
    32
  0
VERTEX
  5
8F1E
  8
AM_0
 10
505.73565502653901
 20
141.4056840955601
 30
0.0
 70
    32
  0
VERTEX
  5
8F1F
  8
AM_0
 10
505.7316550265391
 20
141.4056840955601
 30
0.0
 70
    32
  0
VERTEX
  5
8F20
  8
AM_0
 10
505.72765502653942
 20
141.4056840955601
 30
0.0
 70
    32
  0
VERTEX
  5
8F21
  8
AM_0
 10
505.72365502653912
 20
141.4046840955599
 30
0.0
 70
    32
  0
VERTEX
  5
8F22
  8
AM_0
 10
505.71865502653918
 20
141.4046840955599
 30
0.0
 70
    32
  0
VERTEX
  5
8F23
  8
AM_0
 10
505.71465502653882
 20
141.4046840955599
 30
0.0
 70
    32
  0
VERTEX
  5
8F24
  8
AM_0
 10
505.71065502653909
 20
141.4036840955599
 30
0.0
 70
    32
  0
VERTEX
  5
8F25
  8
AM_0
 10
505.70665502653918
 20
141.4036840955599
 30
0.0
 70
    32
  0
VERTEX
  5
8F26
  8
AM_0
 10
505.70165502653941
 20
141.4036840955599
 30
0.0
 70
    32
  0
VERTEX
  5
8F27
  8
AM_0
 10
505.69765502653922
 20
141.40268409555989
 30
0.0
 70
    32
  0
VERTEX
  5
8F28
  8
AM_0
 10
505.69365502653909
 20
141.40268409555989
 30
0.0
 70
    32
  0
VERTEX
  5
8F29
  8
AM_0
 10
505.6896550265393
 20
141.40168409555989
 30
0.0
 70
    32
  0
VERTEX
  5
8F2A
  8
AM_0
 10
505.68465502653908
 20
141.40168409555989
 30
0.0
 70
    32
  0
VERTEX
  5
8F2B
  8
AM_0
 10
505.68065502653911
 20
141.40168409555989
 30
0.0
 70
    32
  0
VERTEX
  5
8F2C
  8
AM_0
 10
505.67665502653921
 20
141.40068409555971
 30
0.0
 70
    32
  0
VERTEX
  5
8F2D
  8
AM_0
 10
505.6726550265393
 20
141.40068409555971
 30
0.0
 70
    32
  0
VERTEX
  5
8F2E
  8
AM_0
 10
505.66765502653908
 20
141.39968409555959
 30
0.0
 70
    32
  0
VERTEX
  5
8F2F
  8
AM_0
 10
505.66365502653912
 20
141.39968409555959
 30
0.0
 70
    32
  0
VERTEX
  5
8F30
  8
AM_0
 10
505.6596550265391
 20
141.39968409555959
 30
0.0
 70
    32
  0
VERTEX
  5
8F31
  8
AM_0
 10
505.65565502653908
 20
141.3986840955599
 30
0.0
 70
    32
  0
VERTEX
  5
8F32
  8
AM_0
 10
505.65065502653908
 20
141.3986840955599
 30
0.0
 70
    32
  0
VERTEX
  5
8F33
  8
AM_0
 10
505.64665502653912
 20
141.3976840955599
 30
0.0
 70
    32
  0
VERTEX
  5
8F34
  8
AM_0
 10
505.6426550265391
 20
141.3976840955599
 30
0.0
 70
    32
  0
VERTEX
  5
8F35
  8
AM_0
 10
505.63865502653908
 20
141.39668409555989
 30
0.0
 70
    32
  0
VERTEX
  5
8F36
  8
AM_0
 10
505.63365502653909
 20
141.39668409555989
 30
0.0
 70
    32
  0
VERTEX
  5
8F37
  8
AM_0
 10
505.62965502653913
 20
141.39668409555989
 30
0.0
 70
    32
  0
VERTEX
  5
8F38
  8
AM_0
 10
505.62565502653911
 20
141.3956840955598
 30
0.0
 70
    32
  0
VERTEX
  5
8F39
  8
AM_0
 10
505.62165502653852
 20
141.3956840955598
 30
0.0
 70
    32
  0
VERTEX
  5
8F3A
  8
AM_0
 10
505.61665502653909
 20
141.39468409555991
 30
0.0
 70
    32
  0
VERTEX
  5
8F3B
  8
AM_0
 10
505.61265502653907
 20
141.39468409555991
 30
0.0
 70
    32
  0
VERTEX
  5
8F3C
  8
AM_0
 10
505.60865502653911
 20
141.39368409555991
 30
0.0
 70
    32
  0
VERTEX
  5
8F3D
  8
AM_0
 10
505.60465502653909
 20
141.39368409555991
 30
0.0
 70
    32
  0
VERTEX
  5
8F3E
  8
AM_0
 10
505.60065502653907
 20
141.3926840955599
 30
0.0
 70
    32
  0
VERTEX
  5
8F3F
  8
AM_0
 10
505.5956550265393
 20
141.3926840955599
 30
0.0
 70
    32
  0
VERTEX
  5
8F40
  8
AM_0
 10
505.59165502653917
 20
141.3916840955597
 30
0.0
 70
    32
  0
VERTEX
  5
8F41
  8
AM_0
 10
505.5876550265391
 20
141.3916840955597
 30
0.0
 70
    32
  0
VERTEX
  5
8F42
  8
AM_0
 10
505.58365502653908
 20
141.39068409555961
 30
0.0
 70
    32
  0
VERTEX
  5
8F43
  8
AM_0
 10
505.57865502653908
 20
141.39068409555961
 30
0.0
 70
    32
  0
VERTEX
  5
8F44
  8
AM_0
 10
505.57465502653878
 20
141.38968409555989
 30
0.0
 70
    32
  0
VERTEX
  5
8F45
  8
AM_0
 10
505.5706550265391
 20
141.38968409555989
 30
0.0
 70
    32
  0
VERTEX
  5
8F46
  8
AM_0
 10
505.56665502653908
 20
141.38868409555991
 30
0.0
 70
    32
  0
VERTEX
  5
8F47
  8
AM_0
 10
505.56165502653909
 20
141.38868409555991
 30
0.0
 70
    32
  0
VERTEX
  5
8F48
  8
AM_0
 10
505.55765502653912
 20
141.38768409555991
 30
0.0
 70
    32
  0
VERTEX
  5
8F49
  8
AM_0
 10
505.5536550265391
 20
141.38768409555991
 30
0.0
 70
    32
  0
VERTEX
  5
8F4A
  8
AM_0
 10
505.54965502653909
 20
141.38668409556021
 30
0.0
 70
    32
  0
VERTEX
  5
8F4B
  8
AM_0
 10
505.54465502653937
 20
141.38668409556021
 30
0.0
 70
    32
  0
VERTEX
  5
8F4C
  8
AM_0
 10
505.54065502653913
 20
141.3856840955597
 30
0.0
 70
    32
  0
VERTEX
  5
8F4D
  8
AM_0
 10
505.53665502653882
 20
141.3856840955597
 30
0.0
 70
    32
  0
VERTEX
  5
8F4E
  8
AM_0
 10
505.53265502653909
 20
141.38468409555989
 30
0.0
 70
    32
  0
VERTEX
  5
8F4F
  8
AM_0
 10
505.52765502653909
 20
141.38468409555989
 30
0.0
 70
    32
  0
VERTEX
  5
8F50
  8
AM_0
 10
505.52365502653907
 20
141.38368409555989
 30
0.0
 70
    32
  0
VERTEX
  5
8F51
  8
AM_0
 10
505.51965502653911
 20
141.38368409555989
 30
0.0
 70
    32
  0
VERTEX
  5
8F52
  8
AM_0
 10
505.51565502653909
 20
141.38268409555971
 30
0.0
 70
    32
  0
VERTEX
  5
8F53
  8
AM_0
 10
505.51165502653907
 20
141.38268409555971
 30
0.0
 70
    32
  0
VERTEX
  5
8F54
  8
AM_0
 10
505.50665502653919
 20
141.3816840955603
 30
0.0
 70
    32
  0
VERTEX
  5
8F55
  8
AM_0
 10
505.50265502653917
 20
141.3806840955597
 30
0.0
 70
    32
  0
VERTEX
  5
8F56
  8
AM_0
 10
505.4986550265391
 20
141.3806840955597
 30
0.0
 70
    32
  0
VERTEX
  5
8F57
  8
AM_0
 10
505.49465502653908
 20
141.3796840955599
 30
0.0
 70
    32
  0
VERTEX
  5
8F58
  8
AM_0
 10
505.48965502653908
 20
141.3796840955599
 30
0.0
 70
    32
  0
VERTEX
  5
8F59
  8
AM_0
 10
505.48565502653912
 20
141.37868409555989
 30
0.0
 70
    32
  0
VERTEX
  5
8F5A
  8
AM_0
 10
505.48165502653922
 20
141.37868409555989
 30
0.0
 70
    32
  0
VERTEX
  5
8F5B
  8
AM_0
 10
505.47765502653908
 20
141.37768409555991
 30
0.0
 70
    32
  0
VERTEX
  5
8F5C
  8
AM_0
 10
505.47265502653909
 20
141.37668409555971
 30
0.0
 70
    32
  0
VERTEX
  5
8F5D
  8
AM_0
 10
505.4686550265393
 20
141.37668409555971
 30
0.0
 70
    32
  0
VERTEX
  5
8F5E
  8
AM_0
 10
505.46465502653911
 20
141.3756840955599
 30
0.0
 70
    32
  0
VERTEX
  5
8F5F
  8
AM_0
 10
505.46065502653909
 20
141.3756840955599
 30
0.0
 70
    32
  0
VERTEX
  5
8F60
  8
AM_0
 10
505.45665502653912
 20
141.3746840955599
 30
0.0
 70
    32
  0
VERTEX
  5
8F61
  8
AM_0
 10
505.45165502653907
 20
141.37368409556001
 30
0.0
 70
    32
  0
VERTEX
  5
8F62
  8
AM_0
 10
505.44765502653883
 20
141.37368409556001
 30
0.0
 70
    32
  0
VERTEX
  5
8F63
  8
AM_0
 10
505.44365502653909
 20
141.3726840955602
 30
0.0
 70
    32
  0
VERTEX
  5
8F64
  8
AM_0
 10
505.43965502653913
 20
141.3726840955602
 30
0.0
 70
    32
  0
VERTEX
  5
8F65
  8
AM_0
 10
505.43465502653908
 20
141.3716840955596
 30
0.0
 70
    32
  0
VERTEX
  5
8F66
  8
AM_0
 10
505.43065502653911
 20
141.37068409555991
 30
0.0
 70
    32
  0
VERTEX
  5
8F67
  8
AM_0
 10
505.42665502653909
 20
141.37068409555991
 30
0.0
 70
    32
  0
VERTEX
  5
8F68
  8
AM_0
 10
505.42265502653942
 20
141.3696840955599
 30
0.0
 70
    32
  0
VERTEX
  5
8F69
  8
AM_0
 10
505.41865502653911
 20
141.3686840955599
 30
0.0
 70
    32
  0
VERTEX
  5
8F6A
  8
AM_0
 10
505.41365502653917
 20
141.3686840955599
 30
0.0
 70
    32
  0
VERTEX
  5
8F6B
  8
AM_0
 10
505.40965502653893
 20
141.3676840955597
 30
0.0
 70
    32
  0
VERTEX
  5
8F6C
  8
AM_0
 10
505.40565502653908
 20
141.3676840955597
 30
0.0
 70
    32
  0
VERTEX
  5
8F6D
  8
AM_0
 10
505.40165502653917
 20
141.36668409555969
 30
0.0
 70
    32
  0
VERTEX
  5
8F6E
  8
AM_0
 10
505.39665502653918
 20
141.36568409555991
 30
0.0
 70
    32
  0
VERTEX
  5
8F6F
  8
AM_0
 10
505.39265502653922
 20
141.36568409555991
 30
0.0
 70
    32
  0
VERTEX
  5
8F70
  8
AM_0
 10
505.38865502653908
 20
141.36468409555999
 30
0.0
 70
    32
  0
VERTEX
  5
8F71
  8
AM_0
 10
505.38465502653912
 20
141.3636840955599
 30
0.0
 70
    32
  0
VERTEX
  5
8F72
  8
AM_0
 10
505.3806550265391
 20
141.3636840955599
 30
0.0
 70
    32
  0
VERTEX
  5
8F73
  8
AM_0
 10
505.37565502653911
 20
141.3626840955597
 30
0.0
 70
    32
  0
VERTEX
  5
8F74
  8
AM_0
 10
505.37165502653909
 20
141.36168409555981
 30
0.0
 70
    32
  0
VERTEX
  5
8F75
  8
AM_0
 10
505.36765502653913
 20
141.36168409555981
 30
0.0
 70
    32
  0
VERTEX
  5
8F76
  8
AM_0
 10
505.36365502653911
 20
141.36068409555989
 30
0.0
 70
    32
  0
VERTEX
  5
8F77
  8
AM_0
 10
505.35865502653911
 20
141.3596840955598
 30
0.0
 70
    32
  0
VERTEX
  5
8F78
  8
AM_0
 10
505.35465502653909
 20
141.3596840955598
 30
0.0
 70
    32
  0
VERTEX
  5
8F79
  8
AM_0
 10
505.35065502653907
 20
141.35868409555971
 30
0.0
 70
    32
  0
VERTEX
  5
8F7A
  8
AM_0
 10
505.34665502653911
 20
141.3576840955597
 30
0.0
 70
    32
  0
VERTEX
  5
8F7B
  8
AM_0
 10
505.34265502653909
 20
141.35668409555981
 30
0.0
 70
    32
  0
VERTEX
  5
8F7C
  8
AM_0
 10
505.3376550265391
 20
141.35668409555981
 30
0.0
 70
    32
  0
VERTEX
  5
8F7D
  8
AM_0
 10
505.33365502653879
 20
141.35568409556001
 30
0.0
 70
    32
  0
VERTEX
  5
8F7E
  8
AM_0
 10
505.32965502653911
 20
141.35468409555989
 30
0.0
 70
    32
  0
VERTEX
  5
8F7F
  8
AM_0
 10
505.3256550265391
 20
141.35468409555989
 30
0.0
 70
    32
  0
VERTEX
  5
8F80
  8
AM_0
 10
505.32165502653908
 20
141.35368409555969
 30
0.0
 70
    32
  0
VERTEX
  5
8F81
  8
AM_0
 10
505.31665502653942
 20
141.35268409555971
 30
0.0
 70
    32
  0
VERTEX
  5
8F82
  8
AM_0
 10
505.31265502653918
 20
141.3516840955599
 30
0.0
 70
    32
  0
VERTEX
  5
8F83
  8
AM_0
 10
505.3086550265391
 20
141.3516840955599
 30
0.0
 70
    32
  0
VERTEX
  5
8F84
  8
AM_0
 10
505.30465502653908
 20
141.35068409555981
 30
0.0
 70
    32
  0
VERTEX
  5
8F85
  8
AM_0
 10
505.30065502653918
 20
141.3496840955597
 30
0.0
 70
    32
  0
VERTEX
  5
8F86
  8
AM_0
 10
505.29565502653912
 20
141.34868409555969
 30
0.0
 70
    32
  0
VERTEX
  5
8F87
  8
AM_0
 10
505.29165502653922
 20
141.34868409555969
 30
0.0
 70
    32
  0
VERTEX
  5
8F88
  8
AM_0
 10
505.28765502653908
 20
141.3476840955598
 30
0.0
 70
    32
  0
VERTEX
  5
8F89
  8
AM_0
 10
505.28365502653912
 20
141.34668409556011
 30
0.0
 70
    32
  0
VERTEX
  5
8F8A
  8
AM_0
 10
505.2796550265391
 20
141.3456840955599
 30
0.0
 70
    32
  0
VERTEX
  5
8F8B
  8
AM_0
 10
505.27465502653911
 20
141.3456840955599
 30
0.0
 70
    32
  0
VERTEX
  5
8F8C
  8
AM_0
 10
505.27065502653909
 20
141.3446840955599
 30
0.0
 70
    32
  0
VERTEX
  5
8F8D
  8
AM_0
 10
505.26665502653913
 20
141.34368409555989
 30
0.0
 70
    32
  0
VERTEX
  5
8F8E
  8
AM_0
 10
505.26265502653911
 20
141.3426840955598
 30
0.0
 70
    32
  0
VERTEX
  5
8F8F
  8
AM_0
 10
505.25865502653909
 20
141.3426840955598
 30
0.0
 70
    32
  0
VERTEX
  5
8F90
  8
AM_0
 10
505.25365502653909
 20
141.3416840955598
 30
0.0
 70
    32
  0
VERTEX
  5
8F91
  8
AM_0
 10
505.24965502653907
 20
141.34068409555991
 30
0.0
 70
    32
  0
VERTEX
  5
8F92
  8
AM_0
 10
505.24565502653883
 20
141.3396840955597
 30
0.0
 70
    32
  0
VERTEX
  5
8F93
  8
AM_0
 10
505.24165502653909
 20
141.3386840955599
 30
0.0
 70
    32
  0
VERTEX
  5
8F94
  8
AM_0
 10
505.23765502653879
 20
141.3386840955599
 30
0.0
 70
    32
  0
VERTEX
  5
8F95
  8
AM_0
 10
505.23265502653908
 20
141.33768409556009
 30
0.0
 70
    32
  0
VERTEX
  5
8F96
  8
AM_0
 10
505.22865502653877
 20
141.33668409555989
 30
0.0
 70
    32
  0
VERTEX
  5
8F97
  8
AM_0
 10
505.2246550265391
 20
141.33568409555991
 30
0.0
 70
    32
  0
VERTEX
  5
8F98
  8
AM_0
 10
505.22065502653942
 20
141.33468409555991
 30
0.0
 70
    32
  0
VERTEX
  5
8F99
  8
AM_0
 10
505.21665502653917
 20
141.33468409555991
 30
0.0
 70
    32
  0
VERTEX
  5
8F9A
  8
AM_0
 10
505.21165502653918
 20
141.3336840955599
 30
0.0
 70
    32
  0
VERTEX
  5
8F9B
  8
AM_0
 10
505.2076550265391
 20
141.3326840955597
 30
0.0
 70
    32
  0
VERTEX
  5
8F9C
  8
AM_0
 10
505.20365502653908
 20
141.33168409555961
 30
0.0
 70
    32
  0
VERTEX
  5
8F9D
  8
AM_0
 10
505.19965502653918
 20
141.33068409555989
 30
0.0
 70
    32
  0
VERTEX
  5
8F9E
  8
AM_0
 10
505.19565502653921
 20
141.32968409555991
 30
0.0
 70
    32
  0
VERTEX
  5
8F9F
  8
AM_0
 10
505.19165502653908
 20
141.32968409555991
 30
0.0
 70
    32
  0
VERTEX
  5
8FA0
  8
AM_0
 10
505.18665502653909
 20
141.32868409555979
 30
0.0
 70
    32
  0
VERTEX
  5
8FA1
  8
AM_0
 10
505.18265502653912
 20
141.3276840955599
 30
0.0
 70
    32
  0
VERTEX
  5
8FA2
  8
AM_0
 10
505.1786550265391
 20
141.32668409555981
 30
0.0
 70
    32
  0
VERTEX
  5
8FA3
  8
AM_0
 10
505.17465502653909
 20
141.32568409555989
 30
0.0
 70
    32
  0
VERTEX
  5
8FA4
  8
AM_0
 10
505.17065502653912
 20
141.32468409555989
 30
0.0
 70
    32
  0
VERTEX
  5
8FA5
  8
AM_0
 10
505.16565502653901
 20
141.32368409555971
 30
0.0
 70
    32
  0
VERTEX
  5
8FA6
  8
AM_0
 10
505.16165502653911
 20
141.32368409555971
 30
0.0
 70
    32
  0
VERTEX
  5
8FA7
  8
AM_0
 10
505.15765502653909
 20
141.32268409555959
 30
0.0
 70
    32
  0
VERTEX
  5
8FA8
  8
AM_0
 10
505.15365502653913
 20
141.3216840955599
 30
0.0
 70
    32
  0
VERTEX
  5
8FA9
  8
AM_0
 10
505.14965502653911
 20
141.3206840955599
 30
0.0
 70
    32
  0
VERTEX
  5
8FAA
  8
AM_0
 10
505.14565502653909
 20
141.31968409555989
 30
0.0
 70
    32
  0
VERTEX
  5
8FAB
  8
AM_0
 10
505.1406550265387
 20
141.3186840955598
 30
0.0
 70
    32
  0
VERTEX
  5
8FAC
  8
AM_0
 10
505.13665502653907
 20
141.3176840955598
 30
0.0
 70
    32
  0
VERTEX
  5
8FAD
  8
AM_0
 10
505.13265502653911
 20
141.31668409555991
 30
0.0
 70
    32
  0
VERTEX
  5
8FAE
  8
AM_0
 10
505.12865502653909
 20
141.3156840955599
 30
0.0
 70
    32
  0
VERTEX
  5
8FAF
  8
AM_0
 10
505.12465502653941
 20
141.3156840955599
 30
0.0
 70
    32
  0
VERTEX
  5
8FB0
  8
AM_0
 10
505.12065502653883
 20
141.31468409556001
 30
0.0
 70
    32
  0
VERTEX
  5
8FB1
  8
AM_0
 10
505.11565502653917
 20
141.31368409555961
 30
0.0
 70
    32
  0
VERTEX
  5
8FB2
  8
AM_0
 10
505.1116550265391
 20
141.3126840955598
 30
0.0
 70
    32
  0
VERTEX
  5
8FB3
  8
AM_0
 10
505.10765502653908
 20
141.31168409555991
 30
0.0
 70
    32
  0
VERTEX
  5
8FB4
  8
AM_0
 10
505.10365502653877
 20
141.31068409555991
 30
0.0
 70
    32
  0
VERTEX
  5
8FB5
  8
AM_0
 10
505.0996550265391
 20
141.3096840955599
 30
0.0
 70
    32
  0
VERTEX
  5
8FB6
  8
AM_0
 10
505.0956550265393
 20
141.3086840955597
 30
0.0
 70
    32
  0
VERTEX
  5
8FB7
  8
AM_0
 10
505.09065502653908
 20
141.30768409555989
 30
0.0
 70
    32
  0
VERTEX
  5
8FB8
  8
AM_0
 10
505.08665502653912
 20
141.30668409555989
 30
0.0
 70
    32
  0
VERTEX
  5
8FB9
  8
AM_0
 10
505.0826550265391
 20
141.30568409556
 30
0.0
 70
    32
  0
VERTEX
  5
8FBA
  8
AM_0
 10
505.07865502653908
 20
141.30468409555959
 30
0.0
 70
    32
  0
VERTEX
  5
8FBB
  8
AM_0
 10
505.07465502653912
 20
141.30368409555959
 30
0.0
 70
    32
  0
VERTEX
  5
8FBC
  8
AM_0
 10
505.0706550265391
 20
141.3026840955599
 30
0.0
 70
    32
  0
VERTEX
  5
8FBD
  8
AM_0
 10
505.06565502653871
 20
141.30168409555989
 30
0.0
 70
    32
  0
VERTEX
  5
8FBE
  8
AM_0
 10
505.06165502653909
 20
141.30068409555989
 30
0.0
 70
    32
  0
VERTEX
  5
8FBF
  8
AM_0
 10
505.05765502653912
 20
141.29968409555971
 30
0.0
 70
    32
  0
VERTEX
  5
8FC0
  8
AM_0
 10
505.05365502653882
 20
141.29868409555971
 30
0.0
 70
    32
  0
VERTEX
  5
8FC1
  8
AM_0
 10
505.04965502653909
 20
141.2976840955599
 30
0.0
 70
    32
  0
VERTEX
  5
8FC2
  8
AM_0
 10
505.04565502653872
 20
141.29668409556001
 30
0.0
 70
    32
  0
VERTEX
  5
8FC3
  8
AM_0
 10
505.0416550265391
 20
141.29568409555969
 30
0.0
 70
    32
  0
VERTEX
  5
8FC4
  8
AM_0
 10
505.03665502653882
 20
141.2946840955596
 30
0.0
 70
    32
  0
VERTEX
  5
8FC5
  8
AM_0
 10
505.03265502653909
 20
141.29368409555991
 30
0.0
 70
    32
  0
VERTEX
  5
8FC6
  8
AM_0
 10
505.0286550265393
 20
141.29268409555991
 30
0.0
 70
    32
  0
VERTEX
  5
8FC7
  8
AM_0
 10
505.02465502653911
 20
141.2916840955599
 30
0.0
 70
    32
  0
VERTEX
  5
8FC8
  8
AM_0
 10
505.02065502653892
 20
141.2906840955597
 30
0.0
 70
    32
  0
VERTEX
  5
8FC9
  8
AM_0
 10
505.01665502653913
 20
141.28968409555969
 30
0.0
 70
    32
  0
VERTEX
  5
8FCA
  8
AM_0
 10
505.01165502653907
 20
141.2886840955598
 30
0.0
 70
    32
  0
VERTEX
  5
8FCB
  8
AM_0
 10
505.00765502653923
 20
141.28768409556
 30
0.0
 70
    32
  0
VERTEX
  5
8FCC
  8
AM_0
 10
505.00365502653909
 20
141.28668409555991
 30
0.0
 70
    32
  0
VERTEX
  5
8FCD
  8
AM_0
 10
504.9996550265393
 20
141.28568409556021
 30
0.0
 70
    32
  0
VERTEX
  5
8FCE
  8
AM_0
 10
504.99565502653911
 20
141.2846840955597
 30
0.0
 70
    32
  0
VERTEX
  5
8FCF
  8
AM_0
 10
504.99165502653909
 20
141.28368409555989
 30
0.0
 70
    32
  0
VERTEX
  5
8FD0
  8
AM_0
 10
504.98765502653879
 20
141.28268409555989
 30
0.0
 70
    32
  0
VERTEX
  5
8FD1
  8
AM_0
 10
504.98365502653911
 20
141.28168409555971
 30
0.0
 70
    32
  0
VERTEX
  5
8FD2
  8
AM_0
 10
504.97865502653912
 20
141.28068409555971
 30
0.0
 70
    32
  0
VERTEX
  5
8FD3
  8
AM_0
 10
504.9746550265391
 20
141.2796840955599
 30
0.0
 70
    32
  0
VERTEX
  5
8FD4
  8
AM_0
 10
504.97065502653908
 20
141.27868409556001
 30
0.0
 70
    32
  0
VERTEX
  5
8FD5
  8
AM_0
 10
504.96665502653912
 20
141.27668409556
 30
0.0
 70
    32
  0
VERTEX
  5
8FD6
  8
AM_0
 10
504.9626550265391
 20
141.27568409555971
 30
0.0
 70
    32
  0
VERTEX
  5
8FD7
  8
AM_0
 10
504.95865502653908
 20
141.27468409555979
 30
0.0
 70
    32
  0
VERTEX
  5
8FD8
  8
AM_0
 10
504.954655026539
 20
141.2736840955599
 30
0.0
 70
    32
  0
VERTEX
  5
8FD9
  8
AM_0
 10
504.9506550265391
 20
141.2726840955597
 30
0.0
 70
    32
  0
VERTEX
  5
8FDA
  8
AM_0
 10
504.9456550265391
 20
141.27168409555969
 30
0.0
 70
    32
  0
VERTEX
  5
8FDB
  8
AM_0
 10
504.94165502653942
 20
141.2706840955598
 30
0.0
 70
    32
  0
VERTEX
  5
8FDC
  8
AM_0
 10
504.93765502653918
 20
141.26968409556011
 30
0.0
 70
    32
  0
VERTEX
  5
8FDD
  8
AM_0
 10
504.9336550265391
 20
141.26868409555991
 30
0.0
 70
    32
  0
VERTEX
  5
8FDE
  8
AM_0
 10
504.92965502653908
 20
141.2666840955597
 30
0.0
 70
    32
  0
VERTEX
  5
8FDF
  8
AM_0
 10
504.92565502653918
 20
141.26568409555981
 30
0.0
 70
    32
  0
VERTEX
  5
8FE0
  8
AM_0
 10
504.9216550265391
 20
141.26468409555989
 30
0.0
 70
    32
  0
VERTEX
  5
8FE1
  8
AM_0
 10
504.91765502653908
 20
141.26368409555971
 30
0.0
 70
    32
  0
VERTEX
  5
8FE2
  8
AM_0
 10
504.91265502653908
 20
141.26268409555971
 30
0.0
 70
    32
  0
VERTEX
  5
8FE3
  8
AM_0
 10
504.90865502653918
 20
141.2616840955599
 30
0.0
 70
    32
  0
VERTEX
  5
8FE4
  8
AM_0
 10
504.90465502653922
 20
141.26068409555981
 30
0.0
 70
    32
  0
VERTEX
  5
8FE5
  8
AM_0
 10
504.90065502653908
 20
141.2586840955598
 30
0.0
 70
    32
  0
VERTEX
  5
8FE6
  8
AM_0
 10
504.89665502653912
 20
141.25768409555971
 30
0.0
 70
    32
  0
VERTEX
  5
8FE7
  8
AM_0
 10
504.8926550265391
 20
141.25668409555979
 30
0.0
 70
    32
  0
VERTEX
  5
8FE8
  8
AM_0
 10
504.88865502653908
 20
141.2556840955599
 30
0.0
 70
    32
  0
VERTEX
  5
8FE9
  8
AM_0
 10
504.88465502653912
 20
141.2546840955597
 30
0.0
 70
    32
  0
VERTEX
  5
8FEA
  8
AM_0
 10
504.8806550265391
 20
141.25368409555989
 30
0.0
 70
    32
  0
VERTEX
  5
8FEB
  8
AM_0
 10
504.87665502653908
 20
141.2516840955598
 30
0.0
 70
    32
  0
VERTEX
  5
8FEC
  8
AM_0
 10
504.8716550265388
 20
141.25068409555979
 30
0.0
 70
    32
  0
VERTEX
  5
8FED
  8
AM_0
 10
504.86765502653901
 20
141.24968409555979
 30
0.0
 70
    32
  0
VERTEX
  5
8FEE
  8
AM_0
 10
504.86365502653911
 20
141.2486840955599
 30
0.0
 70
    32
  0
VERTEX
  5
8FEF
  8
AM_0
 10
504.85965502653852
 20
141.24768409555989
 30
0.0
 70
    32
  0
VERTEX
  5
8FF0
  8
AM_0
 10
504.85565502653913
 20
141.2456840955596
 30
0.0
 70
    32
  0
VERTEX
  5
8FF1
  8
AM_0
 10
504.85165502653911
 20
141.24468409555979
 30
0.0
 70
    32
  0
VERTEX
  5
8FF2
  8
AM_0
 10
504.8476550265388
 20
141.2436840955599
 30
0.0
 70
    32
  0
VERTEX
  5
8FF3
  8
AM_0
 10
504.84365502653918
 20
141.24268409555989
 30
0.0
 70
    32
  0
VERTEX
  5
8FF4
  8
AM_0
 10
504.83965502653911
 20
141.2406840955598
 30
0.0
 70
    32
  0
VERTEX
  5
8FF5
  8
AM_0
 10
504.83565502653909
 20
141.23968409555991
 30
0.0
 70
    32
  0
VERTEX
  5
8FF6
  8
AM_0
 10
504.83165502653918
 20
141.2386840955599
 30
0.0
 70
    32
  0
VERTEX
  5
8FF7
  8
AM_0
 10
504.82665502653941
 20
141.2376840955597
 30
0.0
 70
    32
  0
VERTEX
  5
8FF8
  8
AM_0
 10
504.82265502653922
 20
141.23568409555961
 30
0.0
 70
    32
  0
VERTEX
  5
8FF9
  8
AM_0
 10
504.81865502653909
 20
141.23468409555991
 30
0.0
 70
    32
  0
VERTEX
  5
8FFA
  8
AM_0
 10
504.8146550265393
 20
141.23368409555991
 30
0.0
 70
    32
  0
VERTEX
  5
8FFB
  8
AM_0
 10
504.81065502653922
 20
141.23268409555979
 30
0.0
 70
    32
  0
VERTEX
  5
8FFC
  8
AM_0
 10
504.80665502653909
 20
141.23068409555981
 30
0.0
 70
    32
  0
VERTEX
  5
8FFD
  8
AM_0
 10
504.80265502653913
 20
141.22968409555989
 30
0.0
 70
    32
  0
VERTEX
  5
8FFE
  8
AM_0
 10
504.79865502653911
 20
141.22868409555969
 30
0.0
 70
    32
  0
VERTEX
  5
8FFF
  8
AM_0
 10
504.79465502653909
 20
141.2276840955596
 30
0.0
 70
    32
  0
VERTEX
  5
9000
  8
AM_0
 10
504.79065502653913
 20
141.2256840955599
 30
0.0
 70
    32
  0
VERTEX
  5
9001
  8
AM_0
 10
504.78665502653911
 20
141.22468409555989
 30
0.0
 70
    32
  0
VERTEX
  5
9002
  8
AM_0
 10
504.78265502653909
 20
141.22368409555989
 30
0.0
 70
    32
  0
VERTEX
  5
9003
  8
AM_0
 10
504.77865502653913
 20
141.22168409555971
 30
0.0
 70
    32
  0
VERTEX
  5
9004
  8
AM_0
 10
504.77365502653907
 20
141.2206840955599
 30
0.0
 70
    32
  0
VERTEX
  5
9005
  8
AM_0
 10
504.76965502653911
 20
141.21968409556001
 30
0.0
 70
    32
  0
VERTEX
  5
9006
  8
AM_0
 10
504.76565502653909
 20
141.2176840955596
 30
0.0
 70
    32
  0
VERTEX
  5
9007
  8
AM_0
 10
504.76165502653907
 20
141.2166840955598
 30
0.0
 70
    32
  0
VERTEX
  5
9008
  8
AM_0
 10
504.75765502653883
 20
141.21568409555991
 30
0.0
 70
    32
  0
VERTEX
  5
9009
  8
AM_0
 10
504.75365502653909
 20
141.2136840955597
 30
0.0
 70
    32
  0
VERTEX
  5
900A
  8
AM_0
 10
504.7496550265393
 20
141.21268409555969
 30
0.0
 70
    32
  0
VERTEX
  5
900B
  8
AM_0
 10
504.745655026539
 20
141.21168409555989
 30
0.0
 70
    32
  0
VERTEX
  5
900C
  8
AM_0
 10
504.74165502653909
 20
141.20968409555991
 30
0.0
 70
    32
  0
VERTEX
  5
900D
  8
AM_0
 10
504.73765502653879
 20
141.20868409555959
 30
0.0
 70
    32
  0
VERTEX
  5
900E
  8
AM_0
 10
504.73365502653911
 20
141.2076840955597
 30
0.0
 70
    32
  0
VERTEX
  5
900F
  8
AM_0
 10
504.72965502653909
 20
141.20568409555989
 30
0.0
 70
    32
  0
VERTEX
  5
9010
  8
AM_0
 10
504.72565502653879
 20
141.20468409555971
 30
0.0
 70
    32
  0
VERTEX
  5
9011
  8
AM_0
 10
504.72165502653922
 20
141.20368409555971
 30
0.0
 70
    32
  0
VERTEX
  5
9012
  8
AM_0
 10
504.71765502653892
 20
141.20168409556001
 30
0.0
 70
    32
  0
VERTEX
  5
9013
  8
AM_0
 10
504.71365502653907
 20
141.20068409555989
 30
0.0
 70
    32
  0
VERTEX
  5
9014
  8
AM_0
 10
504.70965502653922
 20
141.19868409555971
 30
0.0
 70
    32
  0
VERTEX
  5
9015
  8
AM_0
 10
504.70565502653909
 20
141.19768409555991
 30
0.0
 70
    32
  0
VERTEX
  5
9016
  8
AM_0
 10
504.7016550265393
 20
141.1966840955599
 30
0.0
 70
    32
  0
VERTEX
  5
9017
  8
AM_0
 10
504.69765502653911
 20
141.19468409555969
 30
0.0
 70
    32
  0
VERTEX
  5
9018
  8
AM_0
 10
504.6936550265392
 20
141.19368409555989
 30
0.0
 70
    32
  0
VERTEX
  5
9019
  8
AM_0
 10
504.6896550265393
 20
141.19168409555991
 30
0.0
 70
    32
  0
VERTEX
  5
901A
  8
AM_0
 10
504.68565502653911
 20
141.1906840955599
 30
0.0
 70
    32
  0
VERTEX
  5
901B
  8
AM_0
 10
504.68165502653909
 20
141.18968409556021
 30
0.0
 70
    32
  0
VERTEX
  5
901C
  8
AM_0
 10
504.67765502653901
 20
141.18768409555989
 30
0.0
 70
    32
  0
VERTEX
  5
901D
  8
AM_0
 10
504.67365502653911
 20
141.18668409555971
 30
0.0
 70
    32
  0
VERTEX
  5
901E
  8
AM_0
 10
504.66865502653911
 20
141.1846840955603
 30
0.0
 70
    32
  0
VERTEX
  5
901F
  8
AM_0
 10
504.66465502653909
 20
141.1836840955599
 30
0.0
 70
    32
  0
VERTEX
  5
9020
  8
AM_0
 10
504.66065502653908
 20
141.18168409555989
 30
0.0
 70
    32
  0
VERTEX
  5
9021
  8
AM_0
 10
504.656655026539
 20
141.18068409555991
 30
0.0
 70
    32
  0
VERTEX
  5
9022
  8
AM_0
 10
504.6526550265387
 20
141.1786840955599
 30
0.0
 70
    32
  0
VERTEX
  5
9023
  8
AM_0
 10
504.64865502653907
 20
141.1776840955597
 30
0.0
 70
    32
  0
VERTEX
  5
9024
  8
AM_0
 10
504.64465502653911
 20
141.17568409556
 30
0.0
 70
    32
  0
VERTEX
  5
9025
  8
AM_0
 10
504.64065502653881
 20
141.1746840955598
 30
0.0
 70
    32
  0
VERTEX
  5
9026
  8
AM_0
 10
504.63665502653907
 20
141.1726840955599
 30
0.0
 70
    32
  0
VERTEX
  5
9027
  8
AM_0
 10
504.63265502653923
 20
141.1716840955599
 30
0.0
 70
    32
  0
VERTEX
  5
9028
  8
AM_0
 10
504.62865502653909
 20
141.16968409555969
 30
0.0
 70
    32
  0
VERTEX
  5
9029
  8
AM_0
 10
504.6246550265393
 20
141.1686840955596
 30
0.0
 70
    32
  0
VERTEX
  5
902A
  8
AM_0
 10
504.62065502653923
 20
141.1666840955599
 30
0.0
 70
    32
  0
VERTEX
  5
902B
  8
AM_0
 10
504.61665502653909
 20
141.1656840955599
 30
0.0
 70
    32
  0
VERTEX
  5
902C
  8
AM_0
 10
504.61265502653907
 20
141.16368409555989
 30
0.0
 70
    32
  0
VERTEX
  5
902D
  8
AM_0
 10
504.60865502653922
 20
141.1626840955598
 30
0.0
 70
    32
  0
VERTEX
  5
902E
  8
AM_0
 10
504.6056550265393
 20
141.16068409556041
 30
0.0
 70
    32
  0
VERTEX
  5
902F
  8
AM_0
 10
504.60165502653911
 20
141.15968409555961
 30
0.0
 70
    32
  0
VERTEX
  5
9030
  8
AM_0
 10
504.59765502653909
 20
141.15768409555989
 30
0.0
 70
    32
  0
VERTEX
  5
9031
  8
AM_0
 10
504.5936550265393
 20
141.15668409555991
 30
0.0
 70
    32
  0
VERTEX
  5
9032
  8
AM_0
 10
504.58965502653911
 20
141.1546840955599
 30
0.0
 70
    32
  0
VERTEX
  5
9033
  8
AM_0
 10
504.58565502653909
 20
141.15368409555981
 30
0.0
 70
    32
  0
VERTEX
  5
9034
  8
AM_0
 10
504.58165502653912
 20
141.15168409556031
 30
0.0
 70
    32
  0
VERTEX
  5
9035
  8
AM_0
 10
504.57765502653911
 20
141.14968409555959
 30
0.0
 70
    32
  0
VERTEX
  5
9036
  8
AM_0
 10
504.57365502653909
 20
141.14868409555979
 30
0.0
 70
    32
  0
VERTEX
  5
9037
  8
AM_0
 10
504.56965502653901
 20
141.14668409555989
 30
0.0
 70
    32
  0
VERTEX
  5
9038
  8
AM_0
 10
504.56565502653882
 20
141.1456840955598
 30
0.0
 70
    32
  0
VERTEX
  5
9039
  8
AM_0
 10
504.56165502653909
 20
141.14368409555991
 30
0.0
 70
    32
  0
VERTEX
  5
903A
  8
AM_0
 10
504.55765502653912
 20
141.1416840955597
 30
0.0
 70
    32
  0
VERTEX
  5
903B
  8
AM_0
 10
504.5536550265391
 20
141.14068409555961
 30
0.0
 70
    32
  0
VERTEX
  5
903C
  8
AM_0
 10
504.54965502653909
 20
141.13868409555991
 30
0.0
 70
    32
  0
VERTEX
  5
903D
  8
AM_0
 10
504.54565502653918
 20
141.13768409555991
 30
0.0
 70
    32
  0
VERTEX
  5
903E
  8
AM_0
 10
504.54165502653888
 20
141.1356840955597
 30
0.0
 70
    32
  0
VERTEX
  5
903F
  8
AM_0
 10
504.5376550265388
 20
141.13368409556
 30
0.0
 70
    32
  0
VERTEX
  5
9040
  8
AM_0
 10
504.53365502653918
 20
141.13268409555951
 30
0.0
 70
    32
  0
VERTEX
  5
9041
  8
AM_0
 10
504.5296550265391
 20
141.13068409555979
 30
0.0
 70
    32
  0
VERTEX
  5
9042
  8
AM_0
 10
504.52565502653908
 20
141.12868409555989
 30
0.0
 70
    32
  0
VERTEX
  5
9043
  8
AM_0
 10
504.52165502653918
 20
141.12768409555969
 30
0.0
 70
    32
  0
VERTEX
  5
9044
  8
AM_0
 10
504.51765502653922
 20
141.1256840955599
 30
0.0
 70
    32
  0
VERTEX
  5
9045
  8
AM_0
 10
504.51465502653917
 20
141.1236840955599
 30
0.0
 70
    32
  0
VERTEX
  5
9046
  8
AM_0
 10
504.51065502653921
 20
141.12268409555989
 30
0.0
 70
    32
  0
VERTEX
  5
9047
  8
AM_0
 10
504.50665502653919
 20
141.12068409555991
 30
0.0
 70
    32
  0
VERTEX
  5
9048
  8
AM_0
 10
504.50265502653912
 20
141.1186840955597
 30
0.0
 70
    32
  0
VERTEX
  5
9049
  8
AM_0
 10
504.4986550265391
 20
141.1176840955597
 30
0.0
 70
    32
  0
VERTEX
  5
904A
  8
AM_0
 10
504.49465502653908
 20
141.11568409556011
 30
0.0
 70
    32
  0
VERTEX
  5
904B
  8
AM_0
 10
504.49065502653912
 20
141.1136840955599
 30
0.0
 70
    32
  0
VERTEX
  5
904C
  8
AM_0
 10
504.48665502653921
 20
141.1126840955597
 30
0.0
 70
    32
  0
VERTEX
  5
904D
  8
AM_0
 10
504.48265502653908
 20
141.11068409555989
 30
0.0
 70
    32
  0
VERTEX
  5
904E
  8
AM_0
 10
504.47865502653877
 20
141.10868409555971
 30
0.0
 70
    32
  0
VERTEX
  5
904F
  8
AM_0
 10
504.4746550265391
 20
141.1066840955601
 30
0.0
 70
    32
  0
VERTEX
  5
9050
  8
AM_0
 10
504.47065502653908
 20
141.10568409555989
 30
0.0
 70
    32
  0
VERTEX
  5
9051
  8
AM_0
 10
504.46765502653909
 20
141.10368409555969
 30
0.0
 70
    32
  0
VERTEX
  5
9052
  8
AM_0
 10
504.46365502653907
 20
141.1016840955597
 30
0.0
 70
    32
  0
VERTEX
  5
9053
  8
AM_0
 10
504.45965502653911
 20
141.0996840955597
 30
0.0
 70
    32
  0
VERTEX
  5
9054
  8
AM_0
 10
504.45565502653909
 20
141.09868409555989
 30
0.0
 70
    32
  0
VERTEX
  5
9055
  8
AM_0
 10
504.4516550265393
 20
141.09668409555991
 30
0.0
 70
    32
  0
VERTEX
  5
9056
  8
AM_0
 10
504.447655026539
 20
141.0946840955599
 30
0.0
 70
    32
  0
VERTEX
  5
9057
  8
AM_0
 10
504.44365502653909
 20
141.09268409555969
 30
0.0
 70
    32
  0
VERTEX
  5
9058
  8
AM_0
 10
504.4396550265393
 20
141.09168409555991
 30
0.0
 70
    32
  0
VERTEX
  5
9059
  8
AM_0
 10
504.43565502653911
 20
141.0896840955599
 30
0.0
 70
    32
  0
VERTEX
  5
905A
  8
AM_0
 10
504.43265502653941
 20
141.08768409555981
 30
0.0
 70
    32
  0
VERTEX
  5
905B
  8
AM_0
 10
504.4286550265391
 20
141.08568409555991
 30
0.0
 70
    32
  0
VERTEX
  5
905C
  8
AM_0
 10
504.42465502653909
 20
141.0836840955597
 30
0.0
 70
    32
  0
VERTEX
  5
905D
  8
AM_0
 10
504.42065502653918
 20
141.0826840955597
 30
0.0
 70
    32
  0
VERTEX
  5
905E
  8
AM_0
 10
504.41665502653922
 20
141.0806840955598
 30
0.0
 70
    32
  0
VERTEX
  5
905F
  8
AM_0
 10
504.41265502653908
 20
141.07868409555979
 30
0.0
 70
    32
  0
VERTEX
  5
9060
  8
AM_0
 10
504.40865502653912
 20
141.0766840955599
 30
0.0
 70
    32
  0
VERTEX
  5
9061
  8
AM_0
 10
504.40565502653908
 20
141.07468409555969
 30
0.0
 70
    32
  0
VERTEX
  5
9062
  8
AM_0
 10
504.40165502653912
 20
141.0736840955596
 30
0.0
 70
    32
  0
VERTEX
  5
9063
  8
AM_0
 10
504.3976550265391
 20
141.07168409555979
 30
0.0
 70
    32
  0
VERTEX
  5
9064
  8
AM_0
 10
504.39365502653908
 20
141.06968409555989
 30
0.0
 70
    32
  0
VERTEX
  5
9065
  8
AM_0
 10
504.38965502653912
 20
141.06768409555991
 30
0.0
 70
    32
  0
VERTEX
  5
9066
  8
AM_0
 10
504.3856550265391
 20
141.06568409555999
 30
0.0
 70
    32
  0
VERTEX
  5
9067
  8
AM_0
 10
504.38165502653919
 20
141.06368409555961
 30
0.0
 70
    32
  0
VERTEX
  5
9068
  8
AM_0
 10
504.37865502653909
 20
141.06168409555991
 30
0.0
 70
    32
  0
VERTEX
  5
9069
  8
AM_0
 10
504.37465502653907
 20
141.0596840955597
 30
0.0
 70
    32
  0
VERTEX
  5
906A
  8
AM_0
 10
504.37065502653911
 20
141.0586840955599
 30
0.0
 70
    32
  0
VERTEX
  5
906B
  8
AM_0
 10
504.36665502653909
 20
141.05668409556
 30
0.0
 70
    32
  0
VERTEX
  5
906C
  8
AM_0
 10
504.36265502653907
 20
141.05468409555959
 30
0.0
 70
    32
  0
VERTEX
  5
906D
  8
AM_0
 10
504.3596550265388
 20
141.0526840955599
 30
0.0
 70
    32
  0
VERTEX
  5
906E
  8
AM_0
 10
504.35565502653918
 20
141.05068409555969
 30
0.0
 70
    32
  0
VERTEX
  5
906F
  8
AM_0
 10
504.35165502653911
 20
141.04868409555991
 30
0.0
 70
    32
  0
VERTEX
  5
9070
  8
AM_0
 10
504.34765502653852
 20
141.0466840955599
 30
0.0
 70
    32
  0
VERTEX
  5
9071
  8
AM_0
 10
504.3436550265393
 20
141.04468409555969
 30
0.0
 70
    32
  0
VERTEX
  5
9072
  8
AM_0
 10
504.34065502653908
 20
141.04268409555991
 30
0.0
 70
    32
  0
VERTEX
  5
9073
  8
AM_0
 10
504.33665502653918
 20
141.0406840955597
 30
0.0
 70
    32
  0
VERTEX
  5
9074
  8
AM_0
 10
504.3326550265391
 20
141.03868409556
 30
0.0
 70
    32
  0
VERTEX
  5
9075
  8
AM_0
 10
504.32865502653908
 20
141.03668409555991
 30
0.0
 70
    32
  0
VERTEX
  5
9076
  8
AM_0
 10
504.32465502653918
 20
141.0346840955599
 30
0.0
 70
    32
  0
VERTEX
  5
9077
  8
AM_0
 10
504.32165502653908
 20
141.03268409555989
 30
0.0
 70
    32
  0
VERTEX
  5
9078
  8
AM_0
 10
504.31765502653923
 20
141.03068409555979
 30
0.0
 70
    32
  0
VERTEX
  5
9079
  8
AM_0
 10
504.31365502653853
 20
141.0286840955599
 30
0.0
 70
    32
  0
VERTEX
  5
907A
  8
AM_0
 10
504.30965502653908
 20
141.02668409555989
 30
0.0
 70
    32
  0
VERTEX
  5
907B
  8
AM_0
 10
504.30565502653911
 20
141.02468409555971
 30
0.0
 70
    32
  0
VERTEX
  5
907C
  8
AM_0
 10
504.30265502653913
 20
141.0226840955597
 30
0.0
 70
    32
  0
VERTEX
  5
907D
  8
AM_0
 10
504.29865502653911
 20
141.02068409556011
 30
0.0
 70
    32
  0
VERTEX
  5
907E
  8
AM_0
 10
504.2946550265392
 20
141.01868409555991
 30
0.0
 70
    32
  0
VERTEX
  5
907F
  8
AM_0
 10
504.29065502653913
 20
141.0166840955599
 30
0.0
 70
    32
  0
VERTEX
  5
9080
  8
AM_0
 10
504.28765502653908
 20
141.01468409555969
 30
0.0
 70
    32
  0
VERTEX
  5
9081
  8
AM_0
 10
504.28365502653912
 20
141.01268409555991
 30
0.0
 70
    32
  0
VERTEX
  5
9082
  8
AM_0
 10
504.2796550265391
 20
141.0106840955599
 30
0.0
 70
    32
  0
VERTEX
  5
9083
  8
AM_0
 10
504.27565502653908
 20
141.00868409555989
 30
0.0
 70
    32
  0
VERTEX
  5
9084
  8
AM_0
 10
504.2726550265391
 20
141.00668409556019
 30
0.0
 70
    32
  0
VERTEX
  5
9085
  8
AM_0
 10
504.26865502653908
 20
141.0046840955599
 30
0.0
 70
    32
  0
VERTEX
  5
9086
  8
AM_0
 10
504.264655026539
 20
141.00268409555991
 30
0.0
 70
    32
  0
VERTEX
  5
9087
  8
AM_0
 10
504.26165502653907
 20
141.00068409555971
 30
0.0
 70
    32
  0
VERTEX
  5
9088
  8
AM_0
 10
504.257655026539
 20
140.99768409556
 30
0.0
 70
    32
  0
VERTEX
  5
9089
  8
AM_0
 10
504.25365502653909
 20
140.99568409555991
 30
0.0
 70
    32
  0
VERTEX
  5
908A
  8
AM_0
 10
504.24965502653941
 20
140.9936840955599
 30
0.0
 70
    32
  0
VERTEX
  5
908B
  8
AM_0
 10
504.2466550265388
 20
140.99168409555969
 30
0.0
 70
    32
  0
VERTEX
  5
908C
  8
AM_0
 10
504.24265502653878
 20
140.98968409555991
 30
0.0
 70
    32
  0
VERTEX
  5
908D
  8
AM_0
 10
504.23865502653911
 20
140.9876840955597
 30
0.0
 70
    32
  0
VERTEX
  5
908E
  8
AM_0
 10
504.23565502653918
 20
140.98568409555989
 30
0.0
 70
    32
  0
VERTEX
  5
908F
  8
AM_0
 10
504.2316550265391
 20
140.98368409555991
 30
0.0
 70
    32
  0
VERTEX
  5
9090
  8
AM_0
 10
504.2276550265392
 20
140.98068409555989
 30
0.0
 70
    32
  0
VERTEX
  5
9091
  8
AM_0
 10
504.2246550265391
 20
140.97868409555969
 30
0.0
 70
    32
  0
VERTEX
  5
9092
  8
AM_0
 10
504.2206550265393
 20
140.97668409555979
 30
0.0
 70
    32
  0
VERTEX
  5
9093
  8
AM_0
 10
504.21665502653912
 20
140.97468409555989
 30
0.0
 70
    32
  0
VERTEX
  5
9094
  8
AM_0
 10
504.21365502653907
 20
140.97268409555971
 30
0.0
 70
    32
  0
VERTEX
  5
9095
  8
AM_0
 10
504.20965502653911
 20
140.9696840955599
 30
0.0
 70
    32
  0
VERTEX
  5
9096
  8
AM_0
 10
504.2056550265392
 20
140.9676840955598
 30
0.0
 70
    32
  0
VERTEX
  5
9097
  8
AM_0
 10
504.20265502653911
 20
140.96568409555979
 30
0.0
 70
    32
  0
VERTEX
  5
9098
  8
AM_0
 10
504.19865502653909
 20
140.9636840955597
 30
0.0
 70
    32
  0
VERTEX
  5
9099
  8
AM_0
 10
504.19465502653912
 20
140.96168409556
 30
0.0
 70
    32
  0
VERTEX
  5
909A
  8
AM_0
 10
504.19165502653908
 20
140.9586840955597
 30
0.0
 70
    32
  0
VERTEX
  5
909B
  8
AM_0
 10
504.18765502653912
 20
140.95668409555981
 30
0.0
 70
    32
  0
VERTEX
  5
909C
  8
AM_0
 10
504.1836550265391
 20
140.95468409555971
 30
0.0
 70
    32
  0
VERTEX
  5
909D
  8
AM_0
 10
504.18065502653911
 20
140.9526840955601
 30
0.0
 70
    32
  0
VERTEX
  5
909E
  8
AM_0
 10
504.17665502653909
 20
140.94968409555969
 30
0.0
 70
    32
  0
VERTEX
  5
909F
  8
AM_0
 10
504.17365502653911
 20
140.94768409555979
 30
0.0
 70
    32
  0
VERTEX
  5
90A0
  8
AM_0
 10
504.16965502653937
 20
140.9456840955597
 30
0.0
 70
    32
  0
VERTEX
  5
90A1
  8
AM_0
 10
504.16565502653913
 20
140.9436840955598
 30
0.0
 70
    32
  0
VERTEX
  5
90A2
  8
AM_0
 10
504.16265502653908
 20
140.9406840955599
 30
0.0
 70
    32
  0
VERTEX
  5
90A3
  8
AM_0
 10
504.15865502653918
 20
140.93868409555969
 30
0.0
 70
    32
  0
VERTEX
  5
90A4
  8
AM_0
 10
504.15565502653908
 20
140.93668409555991
 30
0.0
 70
    32
  0
VERTEX
  5
90A5
  8
AM_0
 10
504.15165502653917
 20
140.9336840955599
 30
0.0
 70
    32
  0
VERTEX
  5
90A6
  8
AM_0
 10
504.1476550265391
 20
140.93168409555989
 30
0.0
 70
    32
  0
VERTEX
  5
90A7
  8
AM_0
 10
504.14465502653923
 20
140.92968409555971
 30
0.0
 70
    32
  0
VERTEX
  5
90A8
  8
AM_0
 10
504.14065502653892
 20
140.92668409555989
 30
0.0
 70
    32
  0
VERTEX
  5
90A9
  8
AM_0
 10
504.13765502653911
 20
140.9246840955598
 30
0.0
 70
    32
  0
VERTEX
  5
90AA
  8
AM_0
 10
504.13365502653909
 20
140.9226840955599
 30
0.0
 70
    32
  0
VERTEX
  5
90AB
  8
AM_0
 10
504.1306550265391
 20
140.9196840955596
 30
0.0
 70
    32
  0
VERTEX
  5
90AC
  8
AM_0
 10
504.12665502653908
 20
140.91768409555991
 30
0.0
 70
    32
  0
VERTEX
  5
90AD
  8
AM_0
 10
504.1236550265391
 20
140.91468409555969
 30
0.0
 70
    32
  0
VERTEX
  5
90AE
  8
AM_0
 10
504.11965502653908
 20
140.91268409555991
 30
0.0
 70
    32
  0
VERTEX
  5
90AF
  8
AM_0
 10
504.11565502653912
 20
140.9106840955601
 30
0.0
 70
    32
  0
VERTEX
  5
90B0
  8
AM_0
 10
504.11265502653879
 20
140.90768409555989
 30
0.0
 70
    32
  0
VERTEX
  5
90B1
  8
AM_0
 10
504.10865502653911
 20
140.90568409555971
 30
0.0
 70
    32
  0
VERTEX
  5
90B2
  8
AM_0
 10
504.1056550265393
 20
140.90268409556001
 30
0.0
 70
    32
  0
VERTEX
  5
90B3
  8
AM_0
 10
504.10165502653911
 20
140.9006840955596
 30
0.0
 70
    32
  0
VERTEX
  5
90B4
  8
AM_0
 10
504.09865502653912
 20
140.8976840955599
 30
0.0
 70
    32
  0
VERTEX
  5
90B5
  8
AM_0
 10
504.0946550265391
 20
140.89568409555969
 30
0.0
 70
    32
  0
VERTEX
  5
90B6
  8
AM_0
 10
504.09165502653912
 20
140.89368409555999
 30
0.0
 70
    32
  0
VERTEX
  5
90B7
  8
AM_0
 10
504.0876550265391
 20
140.89068409555969
 30
0.0
 70
    32
  0
VERTEX
  5
90B8
  8
AM_0
 10
504.08465502653911
 20
140.88868409555991
 30
0.0
 70
    32
  0
VERTEX
  5
90B9
  8
AM_0
 10
504.08065502653909
 20
140.8856840955599
 30
0.0
 70
    32
  0
VERTEX
  5
90BA
  8
AM_0
 10
504.07765502653911
 20
140.88368409555989
 30
0.0
 70
    32
  0
VERTEX
  5
90BB
  8
AM_0
 10
504.07465502653901
 20
140.88068409555979
 30
0.0
 70
    32
  0
VERTEX
  5
90BC
  8
AM_0
 10
504.0706550265391
 20
140.87868409555981
 30
0.0
 70
    32
  0
VERTEX
  5
90BD
  8
AM_0
 10
504.06765502653911
 20
140.8756840955599
 30
0.0
 70
    32
  0
VERTEX
  5
90BE
  8
AM_0
 10
504.06365502653881
 20
140.8736840955599
 30
0.0
 70
    32
  0
VERTEX
  5
90BF
  8
AM_0
 10
504.06065502653911
 20
140.87068409555991
 30
0.0
 70
    32
  0
VERTEX
  5
90C0
  8
AM_0
 10
504.05665502653909
 20
140.8686840955597
 30
0.0
 70
    32
  0
VERTEX
  5
90C1
  8
AM_0
 10
504.05365502653888
 20
140.86568409555991
 30
0.0
 70
    32
  0
VERTEX
  5
90C2
  8
AM_0
 10
504.05065502653918
 20
140.86268409556001
 30
0.0
 70
    32
  0
VERTEX
  5
90C3
  8
AM_0
 10
504.0466550265391
 20
140.86068409555961
 30
0.0
 70
    32
  0
VERTEX
  5
90C4
  8
AM_0
 10
504.04365502653923
 20
140.85768409555979
 30
0.0
 70
    32
  0
VERTEX
  5
90C5
  8
AM_0
 10
504.03965502653909
 20
140.85568409555981
 30
0.0
 70
    32
  0
VERTEX
  5
90C6
  8
AM_0
 10
504.03665502653922
 20
140.85268409555979
 30
0.0
 70
    32
  0
VERTEX
  5
90C7
  8
AM_0
 10
504.03365502653918
 20
140.84968409555989
 30
0.0
 70
    32
  0
VERTEX
  5
90C8
  8
AM_0
 10
504.02965502653922
 20
140.8476840955598
 30
0.0
 70
    32
  0
VERTEX
  5
90C9
  8
AM_0
 10
504.02665502653917
 20
140.8446840955599
 30
0.0
 70
    32
  0
VERTEX
  5
90CA
  8
AM_0
 10
504.02265502653921
 20
140.8426840955596
 30
0.0
 70
    32
  0
VERTEX
  5
90CB
  8
AM_0
 10
504.01965502653911
 20
140.8396840955599
 30
0.0
 70
    32
  0
VERTEX
  5
90CC
  8
AM_0
 10
504.01665502653913
 20
140.8366840955598
 30
0.0
 70
    32
  0
VERTEX
  5
90CD
  8
AM_0
 10
504.01265502653911
 20
140.83468409555999
 30
0.0
 70
    32
  0
VERTEX
  5
90CE
  8
AM_0
 10
504.00965502653912
 20
140.83168409555981
 30
0.0
 70
    32
  0
VERTEX
  5
90CF
  8
AM_0
 10
504.00665502653908
 20
140.82868409555971
 30
0.0
 70
    32
  0
VERTEX
  5
90D0
  8
AM_0
 10
504.00265502653912
 20
140.8266840955599
 30
0.0
 70
    32
  0
VERTEX
  5
90D1
  8
AM_0
 10
503.99965502653907
 20
140.8236840955596
 30
0.0
 70
    32
  0
VERTEX
  5
90D2
  8
AM_0
 10
503.99665502653909
 20
140.8206840955599
 30
0.0
 70
    32
  0
VERTEX
  5
90D3
  8
AM_0
 10
503.99365502653882
 20
140.81768409555991
 30
0.0
 70
    32
  0
VERTEX
  5
90D4
  8
AM_0
 10
503.98965502653908
 20
140.8156840955599
 30
0.0
 70
    32
  0
VERTEX
  5
90D5
  8
AM_0
 10
503.9866550265391
 20
140.81268409555989
 30
0.0
 70
    32
  0
VERTEX
  5
90D6
  8
AM_0
 10
503.98365502653911
 20
140.8096840955597
 30
0.0
 70
    32
  0
VERTEX
  5
90D7
  8
AM_0
 10
503.97965502653909
 20
140.80668409555989
 30
0.0
 70
    32
  0
VERTEX
  5
90D8
  8
AM_0
 10
503.97665502653882
 20
140.80468409555971
 30
0.0
 70
    32
  0
VERTEX
  5
90D9
  8
AM_0
 10
503.97365502653912
 20
140.80168409555969
 30
0.0
 70
    32
  0
VERTEX
  5
90DA
  8
AM_0
 10
503.9706550265393
 20
140.79868409555991
 30
0.0
 70
    32
  0
VERTEX
  5
90DB
  8
AM_0
 10
503.96665502653912
 20
140.79568409555969
 30
0.0
 70
    32
  0
VERTEX
  5
90DC
  8
AM_0
 10
503.96365502653907
 20
140.79368409555991
 30
0.0
 70
    32
  0
VERTEX
  5
90DD
  8
AM_0
 10
503.96065502653909
 20
140.79068409556021
 30
0.0
 70
    32
  0
VERTEX
  5
90DE
  8
AM_0
 10
503.9576550265391
 20
140.78768409555991
 30
0.0
 70
    32
  0
VERTEX
  5
90DF
  8
AM_0
 10
503.95465502653911
 20
140.7846840955599
 30
0.0
 70
    32
  0
VERTEX
  5
90E0
  8
AM_0
 10
503.9506550265391
 20
140.78168409556
 30
0.0
 70
    32
  0
VERTEX
  5
90E1
  8
AM_0
 10
503.94765502653911
 20
140.7786840955599
 30
0.0
 70
    32
  0
VERTEX
  5
90E2
  8
AM_0
 10
503.94465502653918
 20
140.77668409555989
 30
0.0
 70
    32
  0
VERTEX
  5
90E3
  8
AM_0
 10
503.94165502653908
 20
140.7736840955597
 30
0.0
 70
    32
  0
VERTEX
  5
90E4
  8
AM_0
 10
503.93865502653892
 20
140.7706840955598
 30
0.0
 70
    32
  0
VERTEX
  5
90E5
  8
AM_0
 10
503.93565502653922
 20
140.7676840955599
 30
0.0
 70
    32
  0
VERTEX
  5
90E6
  8
AM_0
 10
503.93265502653918
 20
140.7646840955596
 30
0.0
 70
    32
  0
VERTEX
  5
90E7
  8
AM_0
 10
503.92865502653922
 20
140.7616840955599
 30
0.0
 70
    32
  0
VERTEX
  5
90E8
  8
AM_0
 10
503.92565502653912
 20
140.75868409555989
 30
0.0
 70
    32
  0
VERTEX
  5
90E9
  8
AM_0
 10
503.9226550265393
 20
140.75568409555959
 30
0.0
 70
    32
  0
VERTEX
  5
90EA
  8
AM_0
 10
503.91965502653909
 20
140.75268409555991
 30
0.0
 70
    32
  0
VERTEX
  5
90EB
  8
AM_0
 10
503.9166550265391
 20
140.7496840955599
 30
0.0
 70
    32
  0
VERTEX
  5
90EC
  8
AM_0
 10
503.91365502653912
 20
140.7466840955596
 30
0.0
 70
    32
  0
VERTEX
  5
90ED
  8
AM_0
 10
503.9106550265393
 20
140.7436840955599
 30
0.0
 70
    32
  0
VERTEX
  5
90EE
  8
AM_0
 10
503.90765502653909
 20
140.74068409555991
 30
0.0
 70
    32
  0
VERTEX
  5
90EF
  8
AM_0
 10
503.9046550265391
 20
140.7376840955597
 30
0.0
 70
    32
  0
VERTEX
  5
90F0
  8
AM_0
 10
503.90165502653912
 20
140.73468409555991
 30
0.0
 70
    32
  0
VERTEX
  5
90F1
  8
AM_0
 10
503.89865502653902
 20
140.73168409555981
 30
0.0
 70
    32
  0
VERTEX
  5
90F2
  8
AM_0
 10
503.89565502653909
 20
140.72868409555969
 30
0.0
 70
    32
  0
VERTEX
  5
90F3
  8
AM_0
 10
503.8926550265391
 20
140.7256840955599
 30
0.0
 70
    32
  0
VERTEX
  5
90F4
  8
AM_0
 10
503.88965502653912
 20
140.7226840955598
 30
0.0
 70
    32
  0
VERTEX
  5
90F5
  8
AM_0
 10
503.88665502653907
 20
140.7196840955599
 30
0.0
 70
    32
  0
VERTEX
  5
90F6
  8
AM_0
 10
503.88365502653909
 20
140.71668409555971
 30
0.0
 70
    32
  0
VERTEX
  5
90F7
  8
AM_0
 10
503.88065502653882
 20
140.7136840955601
 30
0.0
 70
    32
  0
VERTEX
  5
90F8
  8
AM_0
 10
503.877655026539
 20
140.71068409555991
 30
0.0
 70
    32
  0
VERTEX
  5
90F9
  8
AM_0
 10
503.87465502653907
 20
140.7076840955597
 30
0.0
 70
    32
  0
VERTEX
  5
90FA
  8
AM_0
 10
503.8716550265388
 20
140.70468409555991
 30
0.0
 70
    32
  0
VERTEX
  5
90FB
  8
AM_0
 10
503.8686550265391
 20
140.7016840955599
 30
0.0
 70
    32
  0
VERTEX
  5
90FC
  8
AM_0
 10
503.86565502653912
 20
140.69868409555971
 30
0.0
 70
    32
  0
VERTEX
  5
90FD
  8
AM_0
 10
503.86265502653879
 20
140.6956840955597
 30
0.0
 70
    32
  0
VERTEX
  5
90FE
  8
AM_0
 10
503.85965502653852
 20
140.69168409555991
 30
0.0
 70
    32
  0
VERTEX
  5
90FF
  8
AM_0
 10
503.8566550265391
 20
140.68868409555969
 30
0.0
 70
    32
  0
VERTEX
  5
9100
  8
AM_0
 10
503.85365502653917
 20
140.68568409555991
 30
0.0
 70
    32
  0
VERTEX
  5
9101
  8
AM_0
 10
503.85165502653911
 20
140.68268409555989
 30
0.0
 70
    32
  0
VERTEX
  5
9102
  8
AM_0
 10
503.84865502653918
 20
140.67968409555959
 30
0.0
 70
    32
  0
VERTEX
  5
9103
  8
AM_0
 10
503.8456550265393
 20
140.67668409555989
 30
0.0
 70
    32
  0
VERTEX
  5
9104
  8
AM_0
 10
503.84265502653892
 20
140.6726840955599
 30
0.0
 70
    32
  0
VERTEX
  5
9105
  8
AM_0
 10
503.83965502653922
 20
140.6696840955596
 30
0.0
 70
    32
  0
VERTEX
  5
9106
  8
AM_0
 10
503.83665502653918
 20
140.6666840955599
 30
0.0
 70
    32
  0
VERTEX
  5
9107
  8
AM_0
 10
503.83465502653922
 20
140.66368409555989
 30
0.0
 70
    32
  0
VERTEX
  5
9108
  8
AM_0
 10
503.83165502653912
 20
140.6596840955597
 30
0.0
 70
    32
  0
VERTEX
  5
9109
  8
AM_0
 10
503.82865502653908
 20
140.65668409555971
 30
0.0
 70
    32
  0
VERTEX
  5
910A
  8
AM_0
 10
503.8256550265391
 20
140.65368409556001
 30
0.0
 70
    32
  0
VERTEX
  5
910B
  8
AM_0
 10
503.82365502653909
 20
140.65068409555971
 30
0.0
 70
    32
  0
VERTEX
  5
910C
  8
AM_0
 10
503.82065502653921
 20
140.64668409555969
 30
0.0
 70
    32
  0
VERTEX
  5
910D
  8
AM_0
 10
503.81765502653911
 20
140.64368409555991
 30
0.0
 70
    32
  0
VERTEX
  5
910E
  8
AM_0
 10
503.81565502653882
 20
140.64068409555981
 30
0.0
 70
    32
  0
VERTEX
  5
910F
  8
AM_0
 10
503.81265502653912
 20
140.6366840955599
 30
0.0
 70
    32
  0
VERTEX
  5
9110
  8
AM_0
 10
503.80965502653908
 20
140.63368409555989
 30
0.0
 70
    32
  0
VERTEX
  5
9111
  8
AM_0
 10
503.80765502653912
 20
140.6306840955597
 30
0.0
 70
    32
  0
VERTEX
  5
9112
  8
AM_0
 10
503.80465502653908
 20
140.62668409556011
 30
0.0
 70
    32
  0
VERTEX
  5
9113
  8
AM_0
 10
503.80165502653909
 20
140.6236840955599
 30
0.0
 70
    32
  0
VERTEX
  5
9114
  8
AM_0
 10
503.79965502653909
 20
140.62068409555971
 30
0.0
 70
    32
  0
VERTEX
  5
9115
  8
AM_0
 10
503.7966550265391
 20
140.61668409555989
 30
0.0
 70
    32
  0
VERTEX
  5
9116
  8
AM_0
 10
503.7946550265392
 20
140.6136840955599
 30
0.0
 70
    32
  0
VERTEX
  5
9117
  8
AM_0
 10
503.7916550265391
 20
140.60968409555991
 30
0.0
 70
    32
  0
VERTEX
  5
9118
  8
AM_0
 10
503.78865502653912
 20
140.6066840955597
 30
0.0
 70
    32
  0
VERTEX
  5
9119
  8
AM_0
 10
503.78665502653882
 20
140.60368409556
 30
0.0
 70
    32
  0
VERTEX
  5
911A
  8
AM_0
 10
503.78365502653912
 20
140.59968409555989
 30
0.0
 70
    32
  0
VERTEX
  5
911B
  8
AM_0
 10
503.78165502653877
 20
140.59668409555991
 30
0.0
 70
    32
  0
VERTEX
  5
911C
  8
AM_0
 10
503.77865502653913
 20
140.5926840955596
 30
0.0
 70
    32
  0
VERTEX
  5
911D
  8
AM_0
 10
503.77665502653912
 20
140.5896840955599
 30
0.0
 70
    32
  0
VERTEX
  5
911E
  8
AM_0
 10
503.77365502653907
 20
140.58568409556
 30
0.0
 70
    32
  0
VERTEX
  5
911F
  8
AM_0
 10
503.77165502653918
 20
140.58268409555981
 30
0.0
 70
    32
  0
VERTEX
  5
9120
  8
AM_0
 10
503.76965502653911
 20
140.57868409555971
 30
0.0
 70
    32
  0
VERTEX
  5
9121
  8
AM_0
 10
503.76665502653913
 20
140.57568409555989
 30
0.0
 70
    32
  0
VERTEX
  5
9122
  8
AM_0
 10
503.76465502653912
 20
140.57168409555979
 30
0.0
 70
    32
  0
VERTEX
  5
9123
  8
AM_0
 10
503.76165502653907
 20
140.56868409555969
 30
0.0
 70
    32
  0
VERTEX
  5
9124
  8
AM_0
 10
503.75965502653918
 20
140.5646840955599
 30
0.0
 70
    32
  0
VERTEX
  5
9125
  8
AM_0
 10
503.75765502653911
 20
140.56068409555971
 30
0.0
 70
    32
  0
VERTEX
  5
9126
  8
AM_0
 10
503.75465502653873
 20
140.55768409555989
 30
0.0
 70
    32
  0
VERTEX
  5
9127
  8
AM_0
 10
503.75265502653917
 20
140.5536840955597
 30
0.0
 70
    32
  0
VERTEX
  5
9128
  8
AM_0
 10
503.75065502653911
 20
140.55068409555989
 30
0.0
 70
    32
  0
VERTEX
  5
9129
  8
AM_0
 10
503.74765502653918
 20
140.5466840955599
 30
0.0
 70
    32
  0
VERTEX
  5
912A
  8
AM_0
 10
503.74565502653923
 20
140.54268409555991
 30
0.0
 70
    32
  0
VERTEX
  5
912B
  8
AM_0
 10
503.7436550265391
 20
140.53968409555989
 30
0.0
 70
    32
  0
VERTEX
  5
912C
  8
AM_0
 10
503.74165502653909
 20
140.53568409555999
 30
0.0
 70
    32
  0
VERTEX
  5
912D
  8
AM_0
 10
503.73865502653922
 20
140.53168409555991
 30
0.0
 70
    32
  0
VERTEX
  5
912E
  8
AM_0
 10
503.7366550265391
 20
140.5286840955599
 30
0.0
 70
    32
  0
VERTEX
  5
912F
  8
AM_0
 10
503.73465502653909
 20
140.52468409555959
 30
0.0
 70
    32
  0
VERTEX
  5
9130
  8
AM_0
 10
503.73265502653908
 20
140.52068409555969
 30
0.0
 70
    32
  0
VERTEX
  5
9131
  8
AM_0
 10
503.7306550265393
 20
140.51768409556001
 30
0.0
 70
    32
  0
VERTEX
  5
9132
  8
AM_0
 10
503.72865502653912
 20
140.51368409555991
 30
0.0
 70
    32
  0
VERTEX
  5
9133
  8
AM_0
 10
503.72665502653922
 20
140.50968409555989
 30
0.0
 70
    32
  0
VERTEX
  5
9134
  8
AM_0
 10
503.72365502653912
 20
140.50668409555979
 30
0.0
 70
    32
  0
VERTEX
  5
9135
  8
AM_0
 10
503.72165502653911
 20
140.50268409555969
 30
0.0
 70
    32
  0
VERTEX
  5
9136
  8
AM_0
 10
503.71965502653882
 20
140.4986840955599
 30
0.0
 70
    32
  0
VERTEX
  5
9137
  8
AM_0
 10
503.71765502653921
 20
140.4946840955599
 30
0.0
 70
    32
  0
VERTEX
  5
9138
  8
AM_0
 10
503.71565502653908
 20
140.4916840955598
 30
0.0
 70
    32
  0
VERTEX
  5
9139
  8
AM_0
 10
503.71365502653907
 20
140.4876840955597
 30
0.0
 70
    32
  0
VERTEX
  5
913A
  8
AM_0
 10
503.71165502653912
 20
140.48368409555971
 30
0.0
 70
    32
  0
VERTEX
  5
913B
  8
AM_0
 10
503.70965502653911
 20
140.47968409555989
 30
0.0
 70
    32
  0
VERTEX
  5
913C
  8
AM_0
 10
503.7076550265391
 20
140.4756840955597
 30
0.0
 70
    32
  0
VERTEX
  5
913D
  8
AM_0
 10
503.70665502653912
 20
140.4726840955598
 30
0.0
 70
    32
  0
VERTEX
  5
913E
  8
AM_0
 10
503.70465502653911
 20
140.46868409555989
 30
0.0
 70
    32
  0
VERTEX
  5
913F
  8
AM_0
 10
503.70265502653911
 20
140.4646840955599
 30
0.0
 70
    32
  0
VERTEX
  5
9140
  8
AM_0
 10
503.7006550265391
 20
140.46068409555991
 30
0.0
 70
    32
  0
VERTEX
  5
9141
  8
AM_0
 10
503.69865502653909
 20
140.45668409555961
 30
0.0
 70
    32
  0
VERTEX
  5
9142
  8
AM_0
 10
503.69665502653908
 20
140.45268409555979
 30
0.0
 70
    32
  0
VERTEX
  5
9143
  8
AM_0
 10
503.6956550265391
 20
140.4486840955596
 30
0.0
 70
    32
  0
VERTEX
  5
9144
  8
AM_0
 10
503.69365502653909
 20
140.4456840955599
 30
0.0
 70
    32
  0
VERTEX
  5
9145
  8
AM_0
 10
503.69165502653908
 20
140.44168409555991
 30
0.0
 70
    32
  0
VERTEX
  5
9146
  8
AM_0
 10
503.68965502653919
 20
140.43768409555969
 30
0.0
 70
    32
  0
VERTEX
  5
9147
  8
AM_0
 10
503.6886550265391
 20
140.4336840955597
 30
0.0
 70
    32
  0
VERTEX
  5
9148
  8
AM_0
 10
503.68665502653909
 20
140.42968409555959
 30
0.0
 70
    32
  0
VERTEX
  5
9149
  8
AM_0
 10
503.68465502653908
 20
140.42568409555969
 30
0.0
 70
    32
  0
VERTEX
  5
914A
  8
AM_0
 10
503.6836550265391
 20
140.4216840955599
 30
0.0
 70
    32
  0
VERTEX
  5
914B
  8
AM_0
 10
503.68165502653909
 20
140.41768409555991
 30
0.0
 70
    32
  0
VERTEX
  5
914C
  8
AM_0
 10
503.67965502653851
 20
140.41368409555989
 30
0.0
 70
    32
  0
VERTEX
  5
914D
  8
AM_0
 10
503.6786550265391
 20
140.40968409555981
 30
0.0
 70
    32
  0
VERTEX
  5
914E
  8
AM_0
 10
503.67665502653909
 20
140.40568409555979
 30
0.0
 70
    32
  0
VERTEX
  5
914F
  8
AM_0
 10
503.67565502653912
 20
140.40168409556
 30
0.0
 70
    32
  0
VERTEX
  5
9150
  8
AM_0
 10
503.67365502653911
 20
140.3976840955597
 30
0.0
 70
    32
  0
VERTEX
  5
9151
  8
AM_0
 10
503.6726550265393
 20
140.39368409555991
 30
0.0
 70
    32
  0
VERTEX
  5
9152
  8
AM_0
 10
503.67065502653918
 20
140.38968409555969
 30
0.0
 70
    32
  0
VERTEX
  5
9153
  8
AM_0
 10
503.66965502653937
 20
140.3856840955597
 30
0.0
 70
    32
  0
VERTEX
  5
9154
  8
AM_0
 10
503.66865502653911
 20
140.38168409556039
 30
0.0
 70
    32
  0
VERTEX
  5
9155
  8
AM_0
 10
503.6666550265391
 20
140.37768409555991
 30
0.0
 70
    32
  0
VERTEX
  5
9156
  8
AM_0
 10
503.66565502653913
 20
140.3736840955599
 30
0.0
 70
    32
  0
VERTEX
  5
9157
  8
AM_0
 10
503.66465502653909
 20
140.36968409555979
 30
0.0
 70
    32
  0
VERTEX
  5
9158
  8
AM_0
 10
503.66265502653908
 20
140.3656840955598
 30
0.0
 70
    32
  0
VERTEX
  5
9159
  8
AM_0
 10
503.66165502653911
 20
140.36168409555961
 30
0.0
 70
    32
  0
VERTEX
  5
915A
  8
AM_0
 10
503.6606550265393
 20
140.35768409555979
 30
0.0
 70
    32
  0
VERTEX
  5
915B
  8
AM_0
 10
503.65965502653893
 20
140.3526840955596
 30
0.0
 70
    32
  0
VERTEX
  5
915C
  8
AM_0
 10
503.65865502653918
 20
140.34868409555969
 30
0.0
 70
    32
  0
VERTEX
  5
915D
  8
AM_0
 10
503.65665502653923
 20
140.3446840955599
 30
0.0
 70
    32
  0
VERTEX
  5
915E
  8
AM_0
 10
503.65565502653908
 20
140.34068409555991
 30
0.0
 70
    32
  0
VERTEX
  5
915F
  8
AM_0
 10
503.6546550265391
 20
140.33668409556
 30
0.0
 70
    32
  0
VERTEX
  5
9160
  8
AM_0
 10
503.65365502653941
 20
140.3326840955599
 30
0.0
 70
    32
  0
VERTEX
  5
9161
  8
AM_0
 10
503.65265502653892
 20
140.32868409555979
 30
0.0
 70
    32
  0
VERTEX
  5
9162
  8
AM_0
 10
503.65165502653917
 20
140.32468409555989
 30
0.0
 70
    32
  0
VERTEX
  5
9163
  8
AM_0
 10
503.65065502653908
 20
140.31968409555989
 30
0.0
 70
    32
  0
VERTEX
  5
9164
  8
AM_0
 10
503.64965502653922
 20
140.3156840955599
 30
0.0
 70
    32
  0
VERTEX
  5
9165
  8
AM_0
 10
503.64865502653907
 20
140.31168409555971
 30
0.0
 70
    32
  0
VERTEX
  5
9166
  8
AM_0
 10
503.6476550265391
 20
140.30768409555989
 30
0.0
 70
    32
  0
VERTEX
  5
9167
  8
AM_0
 10
503.64665502653918
 20
140.3036840955599
 30
0.0
 70
    32
  0
VERTEX
  5
9168
  8
AM_0
 10
503.64565502653909
 20
140.2996840955598
 30
0.0
 70
    32
  0
VERTEX
  5
9169
  8
AM_0
 10
503.64565502653909
 20
140.2946840955596
 30
0.0
 70
    32
  0
VERTEX
  5
916A
  8
AM_0
 10
503.64465502653923
 20
140.2906840955599
 30
0.0
 70
    32
  0
VERTEX
  5
916B
  8
AM_0
 10
503.64365502653908
 20
140.28668409555999
 30
0.0
 70
    32
  0
VERTEX
  5
916C
  8
AM_0
 10
503.6426550265391
 20
140.28268409555989
 30
0.0
 70
    32
  0
VERTEX
  5
916D
  8
AM_0
 10
503.64165502653913
 20
140.2786840955599
 30
0.0
 70
    32
  0
VERTEX
  5
916E
  8
AM_0
 10
503.64165502653913
 20
140.2736840955599
 30
0.0
 70
    32
  0
VERTEX
  5
916F
  8
AM_0
 10
503.64065502653892
 20
140.26968409555991
 30
0.0
 70
    32
  0
VERTEX
  5
9170
  8
AM_0
 10
503.63965502653917
 20
140.26568409555969
 30
0.0
 70
    32
  0
VERTEX
  5
9171
  8
AM_0
 10
503.63965502653917
 20
140.2616840955597
 30
0.0
 70
    32
  0
VERTEX
  5
9172
  8
AM_0
 10
503.63865502653908
 20
140.25668409555979
 30
0.0
 70
    32
  0
VERTEX
  5
9173
  8
AM_0
 10
503.63765502653922
 20
140.25268409555969
 30
0.0
 70
    32
  0
VERTEX
  5
9174
  8
AM_0
 10
503.63765502653922
 20
140.2486840955599
 30
0.0
 70
    32
  0
VERTEX
  5
9175
  8
AM_0
 10
503.63665502653907
 20
140.2446840955599
 30
0.0
 70
    32
  0
VERTEX
  5
9176
  8
AM_0
 10
503.63665502653907
 20
140.23968409555991
 30
0.0
 70
    32
  0
VERTEX
  5
9177
  8
AM_0
 10
503.6356550265391
 20
140.23568409555989
 30
0.0
 70
    32
  0
VERTEX
  5
9178
  8
AM_0
 10
503.6356550265391
 20
140.2316840955599
 30
0.0
 70
    32
  0
VERTEX
  5
9179
  8
AM_0
 10
503.63465502653912
 20
140.22768409555971
 30
0.0
 70
    32
  0
VERTEX
  5
917A
  8
AM_0
 10
503.63465502653912
 20
140.2226840955598
 30
0.0
 70
    32
  0
VERTEX
  5
917B
  8
AM_0
 10
503.63465502653912
 20
140.21868409556001
 30
0.0
 70
    32
  0
VERTEX
  5
917C
  8
AM_0
 10
503.63365502653909
 20
140.2146840955599
 30
0.0
 70
    32
  0
VERTEX
  5
917D
  8
AM_0
 10
503.63365502653909
 20
140.21068409555991
 30
0.0
 70
    32
  0
VERTEX
  5
917E
  8
AM_0
 10
503.63365502653909
 20
140.20568409555989
 30
0.0
 70
    32
  0
VERTEX
  5
917F
  8
AM_0
 10
503.63365502653909
 20
140.2016840955599
 30
0.0
 70
    32
  0
VERTEX
  5
9180
  8
AM_0
 10
503.6326550265386
 20
140.19768409555991
 30
0.0
 70
    32
  0
VERTEX
  5
9181
  8
AM_0
 10
503.6326550265386
 20
140.19368409555969
 30
0.0
 70
    32
  0
VERTEX
  5
9182
  8
AM_0
 10
503.6326550265386
 20
140.18868409555969
 30
0.0
 70
    32
  0
VERTEX
  5
9183
  8
AM_0
 10
503.6326550265386
 20
140.1846840955597
 30
0.0
 70
    32
  0
VERTEX
  5
9184
  8
AM_0
 10
503.6326550265386
 20
140.18068409555991
 30
0.0
 70
    32
  0
VERTEX
  5
9185
  8
AM_0
 10
503.6326550265386
 20
140.17568409555969
 30
0.0
 70
    32
  0
VERTEX
  5
9186
  8
AM_0
 10
503.6326550265386
 20
140.1716840955599
 30
0.0
 70
    32
  0
VERTEX
  5
9187
  8
AM_0
 10
503.6326550265386
 20
140.16768409555979
 30
0.0
 70
    32
  0
VERTEX
  5
9188
  8
AM_0
 10
503.6326550265386
 20
140.16368409555989
 30
0.0
 70
    32
  0
VERTEX
  5
9189
  8
AM_0
 10
503.6326550265386
 20
140.15868409555961
 30
0.0
 70
    32
  0
VERTEX
  5
918A
  8
AM_0
 10
503.63365502653909
 20
140.1546840955599
 30
0.0
 70
    32
  0
VERTEX
  5
918B
  8
AM_0
 10
503.63365502653909
 20
140.15068409555971
 30
0.0
 70
    32
  0
VERTEX
  5
918C
  8
AM_0
 10
503.63365502653909
 20
140.14668409555989
 30
0.0
 70
    32
  0
VERTEX
  5
918D
  8
AM_0
 10
503.63365502653909
 20
140.14168409556001
 30
0.0
 70
    32
  0
VERTEX
  5
918E
  8
AM_0
 10
503.63465502653912
 20
140.13768409555991
 30
0.0
 70
    32
  0
VERTEX
  5
918F
  8
AM_0
 10
503.63465502653912
 20
140.13368409555989
 30
0.0
 70
    32
  0
VERTEX
  5
9190
  8
AM_0
 10
503.63465502653912
 20
140.1296840955599
 30
0.0
 70
    32
  0
VERTEX
  5
9191
  8
AM_0
 10
503.6356550265391
 20
140.1246840955599
 30
0.0
 70
    32
  0
VERTEX
  5
9192
  8
AM_0
 10
503.6356550265391
 20
140.12068409555991
 30
0.0
 70
    32
  0
VERTEX
  5
9193
  8
AM_0
 10
503.6356550265391
 20
140.11668409555969
 30
0.0
 70
    32
  0
VERTEX
  5
9194
  8
AM_0
 10
503.63665502653907
 20
140.1126840955597
 30
0.0
 70
    32
  0
VERTEX
  5
9195
  8
AM_0
 10
503.63665502653907
 20
140.1076840955597
 30
0.0
 70
    32
  0
VERTEX
  5
9196
  8
AM_0
 10
503.63765502653922
 20
140.10368409556
 30
0.0
 70
    32
  0
VERTEX
  5
9197
  8
AM_0
 10
503.63765502653922
 20
140.0996840955597
 30
0.0
 70
    32
  0
VERTEX
  5
9198
  8
AM_0
 10
503.63865502653908
 20
140.0956840955599
 30
0.0
 70
    32
  0
VERTEX
  5
9199
  8
AM_0
 10
503.63865502653908
 20
140.09068409555971
 30
0.0
 70
    32
  0
VERTEX
  5
919A
  8
AM_0
 10
503.63965502653917
 20
140.08668409555989
 30
0.0
 70
    32
  0
VERTEX
  5
919B
  8
AM_0
 10
503.63965502653917
 20
140.0826840955599
 30
0.0
 70
    32
  0
VERTEX
  5
919C
  8
AM_0
 10
503.64065502653892
 20
140.07868409555979
 30
0.0
 70
    32
  0
VERTEX
  5
919D
  8
AM_0
 10
503.64065502653892
 20
140.0736840955598
 30
0.0
 70
    32
  0
VERTEX
  5
919E
  8
AM_0
 10
503.64165502653913
 20
140.06968409555989
 30
0.0
 70
    32
  0
VERTEX
  5
919F
  8
AM_0
 10
503.64165502653913
 20
140.0656840955599
 30
0.0
 70
    32
  0
VERTEX
  5
91A0
  8
AM_0
 10
503.6426550265391
 20
140.06168409555991
 30
0.0
 70
    32
  0
SEQEND
  5
91A1
  8
AM_0
  0
LINE
  5
91A2
  8
AM_0
 10
516.63270209161306
 20
141.42142081153381
 30
0.0
 11
506.13270209160891
 21
141.42142081153381
 31
0.0
  0
LINE
  5
91A3
  8
AM_0
 10
516.63270209161306
 20
92.711269292516917
 30
0.0
 11
515.16770209161325
 21
83.891269292517435
 31
0.0
  0
POLYLINE
  5
91A4
  8
AM_0
 66
     1
 10
0.0
 20
0.0
 30
0.0
 70
     8
  0
VERTEX
  5
91A5
  8
AM_0
 10
503.6426550265391
 20
95.301084095559787
 30
0.0
 70
    32
  0
VERTEX
  5
91A6
  8
AM_0
 10
503.64365502653908
 20
95.296884095559903
 30
0.0
 70
    32
  0
VERTEX
  5
91A7
  8
AM_0
 10
503.64465502653923
 20
95.29258409555996
 30
0.0
 70
    32
  0
VERTEX
  5
91A8
  8
AM_0
 10
503.64565502653909
 20
95.288384095559877
 30
0.0
 70
    32
  0
VERTEX
  5
91A9
  8
AM_0
 10
503.64665502653918
 20
95.284084095559905
 30
0.0
 70
    32
  0
VERTEX
  5
91AA
  8
AM_0
 10
503.6476550265391
 20
95.279884095559964
 30
0.0
 70
    32
  0
VERTEX
  5
91AB
  8
AM_0
 10
503.64865502653907
 20
95.275584095559793
 30
0.0
 70
    32
  0
VERTEX
  5
91AC
  8
AM_0
 10
503.64965502653922
 20
95.271384095560052
 30
0.0
 70
    32
  0
VERTEX
  5
91AD
  8
AM_0
 10
503.65065502653908
 20
95.267184095559713
 30
0.0
 70
    32
  0
VERTEX
  5
91AE
  8
AM_0
 10
503.65165502653917
 20
95.262884095559926
 30
0.0
 70
    32
  0
VERTEX
  5
91AF
  8
AM_0
 10
503.65265502653892
 20
95.258684095559957
 30
0.0
 70
    32
  0
VERTEX
  5
91B0
  8
AM_0
 10
503.65365502653941
 20
95.254484095559718
 30
0.0
 70
    32
  0
VERTEX
  5
91B1
  8
AM_0
 10
503.6546550265391
 20
95.250184095559788
 30
0.0
 70
    32
  0
VERTEX
  5
91B2
  8
AM_0
 10
503.65565502653908
 20
95.245984095559905
 30
0.0
 70
    32
  0
VERTEX
  5
91B3
  8
AM_0
 10
503.65665502653923
 20
95.241784095560206
 30
0.0
 70
    32
  0
VERTEX
  5
91B4
  8
AM_0
 10
503.65765502653909
 20
95.237584095560138
 30
0.0
 70
    32
  0
VERTEX
  5
91B5
  8
AM_0
 10
503.65865502653918
 20
95.233384095559927
 30
0.0
 70
    32
  0
VERTEX
  5
91B6
  8
AM_0
 10
503.6606550265393
 20
95.229184095559958
 30
0.0
 70
    32
  0
VERTEX
  5
91B7
  8
AM_0
 10
503.66165502653911
 20
95.224984095560089
 30
0.0
 70
    32
  0
VERTEX
  5
91B8
  8
AM_0
 10
503.66265502653908
 20
95.220884095559896
 30
0.0
 70
    32
  0
VERTEX
  5
91B9
  8
AM_0
 10
503.66365502653917
 20
95.216684095559785
 30
0.0
 70
    32
  0
VERTEX
  5
91BA
  8
AM_0
 10
503.66465502653909
 20
95.212484095559944
 30
0.0
 70
    32
  0
VERTEX
  5
91BB
  8
AM_0
 10
503.6666550265391
 20
95.208384095559964
 30
0.0
 70
    32
  0
VERTEX
  5
91BC
  8
AM_0
 10
503.66765502653908
 20
95.204184095559768
 30
0.0
 70
    32
  0
VERTEX
  5
91BD
  8
AM_0
 10
503.66865502653911
 20
95.200084095559717
 30
0.0
 70
    32
  0
VERTEX
  5
91BE
  8
AM_0
 10
503.67065502653918
 20
95.195984095559865
 30
0.0
 70
    32
  0
VERTEX
  5
91BF
  8
AM_0
 10
503.6716550265391
 20
95.191884095559786
 30
0.0
 70
    32
  0
VERTEX
  5
91C0
  8
AM_0
 10
503.6726550265393
 20
95.187684095559916
 30
0.0
 70
    32
  0
VERTEX
  5
91C1
  8
AM_0
 10
503.67465502653909
 20
95.183684095559869
 30
0.0
 70
    32
  0
VERTEX
  5
91C2
  8
AM_0
 10
503.67565502653912
 20
95.179584095560145
 30
0.0
 70
    32
  0
VERTEX
  5
91C3
  8
AM_0
 10
503.67765502653913
 20
95.175484095559881
 30
0.0
 70
    32
  0
VERTEX
  5
91C4
  8
AM_0
 10
503.6786550265391
 20
95.171384095559787
 30
0.0
 70
    32
  0
VERTEX
  5
91C5
  8
AM_0
 10
503.68065502653911
 20
95.167384095560138
 30
0.0
 70
    32
  0
VERTEX
  5
91C6
  8
AM_0
 10
503.68165502653909
 20
95.163284095559789
 30
0.0
 70
    32
  0
VERTEX
  5
91C7
  8
AM_0
 10
503.6836550265391
 20
95.159284095560125
 30
0.0
 70
    32
  0
VERTEX
  5
91C8
  8
AM_0
 10
503.68565502653911
 20
95.155284095560106
 30
0.0
 70
    32
  0
VERTEX
  5
91C9
  8
AM_0
 10
503.68665502653909
 20
95.151284095559717
 30
0.0
 70
    32
  0
VERTEX
  5
91CA
  8
AM_0
 10
503.6886550265391
 20
95.147284095559939
 30
0.0
 70
    32
  0
VERTEX
  5
91CB
  8
AM_0
 10
503.6906550265391
 20
95.143284095559693
 30
0.0
 70
    32
  0
VERTEX
  5
91CC
  8
AM_0
 10
503.69265502653911
 20
95.139284095559901
 30
0.0
 70
    32
  0
VERTEX
  5
91CD
  8
AM_0
 10
503.69365502653909
 20
95.135384095559715
 30
0.0
 70
    32
  0
VERTEX
  5
91CE
  8
AM_0
 10
503.6956550265391
 20
95.131384095559966
 30
0.0
 70
    32
  0
VERTEX
  5
91CF
  8
AM_0
 10
503.69765502653911
 20
95.127484095559794
 30
0.0
 70
    32
  0
VERTEX
  5
91D0
  8
AM_0
 10
503.69965502653878
 20
95.123484095559675
 30
0.0
 70
    32
  0
VERTEX
  5
91D1
  8
AM_0
 10
503.70165502653902
 20
95.119584095559958
 30
0.0
 70
    32
  0
VERTEX
  5
91D2
  8
AM_0
 10
503.70365502653908
 20
95.115684095559942
 30
0.0
 70
    32
  0
VERTEX
  5
91D3
  8
AM_0
 10
503.70565502653909
 20
95.11178409555977
 30
0.0
 70
    32
  0
VERTEX
  5
91D4
  8
AM_0
 10
503.7076550265391
 20
95.107884095559939
 30
0.0
 70
    32
  0
VERTEX
  5
91D5
  8
AM_0
 10
503.70965502653911
 20
95.103984095559866
 30
0.0
 70
    32
  0
VERTEX
  5
91D6
  8
AM_0
 10
503.71165502653912
 20
95.100084095559694
 30
0.0
 70
    32
  0
VERTEX
  5
91D7
  8
AM_0
 10
503.71365502653907
 20
95.096284095559881
 30
0.0
 70
    32
  0
VERTEX
  5
91D8
  8
AM_0
 10
503.71565502653908
 20
95.092384095559709
 30
0.0
 70
    32
  0
VERTEX
  5
91D9
  8
AM_0
 10
503.71765502653921
 20
95.088584095560137
 30
0.0
 70
    32
  0
VERTEX
  5
91DA
  8
AM_0
 10
503.71965502653882
 20
95.084784095559939
 30
0.0
 70
    32
  0
VERTEX
  5
91DB
  8
AM_0
 10
503.72165502653911
 20
95.080884095560137
 30
0.0
 70
    32
  0
VERTEX
  5
91DC
  8
AM_0
 10
503.72365502653912
 20
95.077084095559925
 30
0.0
 70
    32
  0
VERTEX
  5
91DD
  8
AM_0
 10
503.72565502653907
 20
95.073284095559984
 30
0.0
 70
    32
  0
VERTEX
  5
91DE
  8
AM_0
 10
503.7276550265392
 20
95.069584095559904
 30
0.0
 70
    32
  0
VERTEX
  5
91DF
  8
AM_0
 10
503.72965502653909
 20
95.065784095559906
 30
0.0
 70
    32
  0
VERTEX
  5
91E0
  8
AM_0
 10
503.73265502653908
 20
95.061984095560206
 30
0.0
 70
    32
  0
VERTEX
  5
91E1
  8
AM_0
 10
503.73465502653909
 20
95.058284095559614
 30
0.0
 70
    32
  0
VERTEX
  5
91E2
  8
AM_0
 10
503.7366550265391
 20
95.054484095559786
 30
0.0
 70
    32
  0
VERTEX
  5
91E3
  8
AM_0
 10
503.73865502653922
 20
95.050784095559905
 30
0.0
 70
    32
  0
VERTEX
  5
91E4
  8
AM_0
 10
503.74165502653909
 20
95.047084095559953
 30
0.0
 70
    32
  0
VERTEX
  5
91E5
  8
AM_0
 10
503.7436550265391
 20
95.043284095559883
 30
0.0
 70
    32
  0
VERTEX
  5
91E6
  8
AM_0
 10
503.74565502653923
 20
95.039584095559917
 30
0.0
 70
    32
  0
VERTEX
  5
91E7
  8
AM_0
 10
503.74765502653918
 20
95.035984095559925
 30
0.0
 70
    32
  0
VERTEX
  5
91E8
  8
AM_0
 10
503.75065502653911
 20
95.032284095560058
 30
0.0
 70
    32
  0
VERTEX
  5
91E9
  8
AM_0
 10
503.75265502653917
 20
95.02858409555985
 30
0.0
 70
    32
  0
VERTEX
  5
91EA
  8
AM_0
 10
503.75465502653873
 20
95.024984095559944
 30
0.0
 70
    32
  0
VERTEX
  5
91EB
  8
AM_0
 10
503.75765502653911
 20
95.021284095559963
 30
0.0
 70
    32
  0
VERTEX
  5
91EC
  8
AM_0
 10
503.75965502653918
 20
95.017684095559957
 30
0.0
 70
    32
  0
VERTEX
  5
91ED
  8
AM_0
 10
503.76265502653882
 20
95.013984095559707
 30
0.0
 70
    32
  0
VERTEX
  5
91EE
  8
AM_0
 10
503.76465502653912
 20
95.010384095559715
 30
0.0
 70
    32
  0
VERTEX
  5
91EF
  8
AM_0
 10
503.76665502653913
 20
95.006784095559709
 30
0.0
 70
    32
  0
VERTEX
  5
91F0
  8
AM_0
 10
503.76965502653911
 20
95.003184095559703
 30
0.0
 70
    32
  0
VERTEX
  5
91F1
  8
AM_0
 10
503.77165502653918
 20
94.999684095559957
 30
0.0
 70
    32
  0
VERTEX
  5
91F2
  8
AM_0
 10
503.77465502653911
 20
94.996084095559794
 30
0.0
 70
    32
  0
VERTEX
  5
91F3
  8
AM_0
 10
503.77665502653912
 20
94.992484095559917
 30
0.0
 70
    32
  0
VERTEX
  5
91F4
  8
AM_0
 10
503.7796550265391
 20
94.988984095559886
 30
0.0
 70
    32
  0
VERTEX
  5
91F5
  8
AM_0
 10
503.78165502653877
 20
94.985484095559954
 30
0.0
 70
    32
  0
VERTEX
  5
91F6
  8
AM_0
 10
503.7846550265391
 20
94.981984095559923
 30
0.0
 70
    32
  0
VERTEX
  5
91F7
  8
AM_0
 10
503.78765502653931
 20
94.978384095559804
 30
0.0
 70
    32
  0
VERTEX
  5
91F8
  8
AM_0
 10
503.78965502653909
 20
94.974984095560316
 30
0.0
 70
    32
  0
VERTEX
  5
91F9
  8
AM_0
 10
503.79265502653908
 20
94.971484095559745
 30
0.0
 70
    32
  0
VERTEX
  5
91FA
  8
AM_0
 10
503.7946550265392
 20
94.967984095559913
 30
0.0
 70
    32
  0
VERTEX
  5
91FB
  8
AM_0
 10
503.79765502653908
 20
94.964484095559882
 30
0.0
 70
    32
  0
VERTEX
  5
91FC
  8
AM_0
 10
503.80065502653912
 20
94.961084095559954
 30
0.0
 70
    32
  0
VERTEX
  5
91FD
  8
AM_0
 10
503.80265502653913
 20
94.957584095559923
 30
0.0
 70
    32
  0
VERTEX
  5
91FE
  8
AM_0
 10
503.80565502653911
 20
94.954184095559796
 30
0.0
 70
    32
  0
VERTEX
  5
91FF
  8
AM_0
 10
503.8086550265391
 20
94.950784095560067
 30
0.0
 70
    32
  0
VERTEX
  5
9200
  8
AM_0
 10
503.81065502653911
 20
94.947384095559755
 30
0.0
 70
    32
  0
VERTEX
  5
9201
  8
AM_0
 10
503.8136550265391
 20
94.943984095559827
 30
0.0
 70
    32
  0
VERTEX
  5
9202
  8
AM_0
 10
503.81665502653908
 20
94.940584095560212
 30
0.0
 70
    32
  0
VERTEX
  5
9203
  8
AM_0
 10
503.81965502653912
 20
94.937284095559889
 30
0.0
 70
    32
  0
VERTEX
  5
9204
  8
AM_0
 10
503.82165502653908
 20
94.933884095559705
 30
0.0
 70
    32
  0
VERTEX
  5
9205
  8
AM_0
 10
503.82465502653878
 20
94.93058409555988
 30
0.0
 70
    32
  0
VERTEX
  5
9206
  8
AM_0
 10
503.82765502653922
 20
94.927184095559923
 30
0.0
 70
    32
  0
VERTEX
  5
9207
  8
AM_0
 10
503.83065502653909
 20
94.923884095559984
 30
0.0
 70
    32
  0
VERTEX
  5
9208
  8
AM_0
 10
503.83265502653921
 20
94.920584095560145
 30
0.0
 70
    32
  0
VERTEX
  5
9209
  8
AM_0
 10
503.83565502653909
 20
94.917284095559793
 30
0.0
 70
    32
  0
VERTEX
  5
920A
  8
AM_0
 10
503.83865502653907
 20
94.913984095559954
 30
0.0
 70
    32
  0
VERTEX
  5
920B
  8
AM_0
 10
503.84165502653917
 20
94.910684095560072
 30
0.0
 70
    32
  0
VERTEX
  5
920C
  8
AM_0
 10
503.84465502653887
 20
94.907384095559905
 30
0.0
 70
    32
  0
VERTEX
  5
920D
  8
AM_0
 10
503.8476550265388
 20
94.904184095559884
 30
0.0
 70
    32
  0
VERTEX
  5
920E
  8
AM_0
 10
503.85065502653907
 20
94.900884095559945
 30
0.0
 70
    32
  0
VERTEX
  5
920F
  8
AM_0
 10
503.85365502653917
 20
94.897684095559953
 30
0.0
 70
    32
  0
VERTEX
  5
9210
  8
AM_0
 10
503.8566550265391
 20
94.894484095560074
 30
0.0
 70
    32
  0
VERTEX
  5
9211
  8
AM_0
 10
503.85865502653911
 20
94.891284095559953
 30
0.0
 70
    32
  0
VERTEX
  5
9212
  8
AM_0
 10
503.86165502653938
 20
94.888084095559705
 30
0.0
 70
    32
  0
VERTEX
  5
9213
  8
AM_0
 10
503.86465502653942
 20
94.884884095559755
 30
0.0
 70
    32
  0
VERTEX
  5
9214
  8
AM_0
 10
503.86765502653918
 20
94.881684095559876
 30
0.0
 70
    32
  0
VERTEX
  5
9215
  8
AM_0
 10
503.870655026539
 20
94.878484095559784
 30
0.0
 70
    32
  0
VERTEX
  5
9216
  8
AM_0
 10
503.8736550265391
 20
94.87538409555998
 30
0.0
 70
    32
  0
VERTEX
  5
9217
  8
AM_0
 10
503.87665502653857
 20
94.872184095559774
 30
0.0
 70
    32
  0
VERTEX
  5
9218
  8
AM_0
 10
503.87965502653913
 20
94.869084095559955
 30
0.0
 70
    32
  0
VERTEX
  5
9219
  8
AM_0
 10
503.88265502653883
 20
94.865984095559725
 30
0.0
 70
    32
  0
VERTEX
  5
921A
  8
AM_0
 10
503.8856550265391
 20
94.862784095559959
 30
0.0
 70
    32
  0
VERTEX
  5
921B
  8
AM_0
 10
503.88865502653908
 20
94.859684095559942
 30
0.0
 70
    32
  0
VERTEX
  5
921C
  8
AM_0
 10
503.89165502653901
 20
94.856584095559924
 30
0.0
 70
    32
  0
VERTEX
  5
921D
  8
AM_0
 10
503.89465502653911
 20
94.853584095560123
 30
0.0
 70
    32
  0
VERTEX
  5
921E
  8
AM_0
 10
503.89865502653902
 20
94.850484095559963
 30
0.0
 70
    32
  0
VERTEX
  5
921F
  8
AM_0
 10
503.90165502653912
 20
94.847384095559704
 30
0.0
 70
    32
  0
VERTEX
  5
9220
  8
AM_0
 10
503.9046550265391
 20
94.844384095559889
 30
0.0
 70
    32
  0
VERTEX
  5
9221
  8
AM_0
 10
503.90765502653909
 20
94.841284095559914
 30
0.0
 70
    32
  0
VERTEX
  5
9222
  8
AM_0
 10
503.9106550265393
 20
94.838284095559956
 30
0.0
 70
    32
  0
VERTEX
  5
9223
  8
AM_0
 10
503.91365502653912
 20
94.835284095559715
 30
0.0
 70
    32
  0
VERTEX
  5
9224
  8
AM_0
 10
503.9166550265391
 20
94.832284095559885
 30
0.0
 70
    32
  0
VERTEX
  5
9225
  8
AM_0
 10
503.91965502653909
 20
94.829284095559956
 30
0.0
 70
    32
  0
VERTEX
  5
9226
  8
AM_0
 10
503.92365502653922
 20
94.826284095559686
 30
0.0
 70
    32
  0
VERTEX
  5
9227
  8
AM_0
 10
503.92665502653909
 20
94.823284095559984
 30
0.0
 70
    32
  0
VERTEX
  5
9228
  8
AM_0
 10
503.92965502653908
 20
94.820284095559941
 30
0.0
 70
    32
  0
VERTEX
  5
9229
  8
AM_0
 10
503.93265502653918
 20
94.817384095560328
 30
0.0
 70
    32
  0
VERTEX
  5
922A
  8
AM_0
 10
503.93565502653922
 20
94.814384095559944
 30
0.0
 70
    32
  0
VERTEX
  5
922B
  8
AM_0
 10
503.93865502653892
 20
94.811484095559749
 30
0.0
 70
    32
  0
VERTEX
  5
922C
  8
AM_0
 10
503.94265502653923
 20
94.808484095559933
 30
0.0
 70
    32
  0
VERTEX
  5
922D
  8
AM_0
 10
503.9456550265391
 20
94.805584095559666
 30
0.0
 70
    32
  0
VERTEX
  5
922E
  8
AM_0
 10
503.94865502653909
 20
94.802684095559925
 30
0.0
 70
    32
  0
VERTEX
  5
922F
  8
AM_0
 10
503.95165502653941
 20
94.799784095559744
 30
0.0
 70
    32
  0
VERTEX
  5
9230
  8
AM_0
 10
503.95565502653909
 20
94.796884095559903
 30
0.0
 70
    32
  0
VERTEX
  5
9231
  8
AM_0
 10
503.95865502653908
 20
94.793984095559949
 30
0.0
 70
    32
  0
VERTEX
  5
9232
  8
AM_0
 10
503.96165502653918
 20
94.791184095559714
 30
0.0
 70
    32
  0
VERTEX
  5
9233
  8
AM_0
 10
503.96465502653911
 20
94.788284095559902
 30
0.0
 70
    32
  0
VERTEX
  5
9234
  8
AM_0
 10
503.96865502653918
 20
94.785484095559923
 30
0.0
 70
    32
  0
VERTEX
  5
9235
  8
AM_0
 10
503.97165502653911
 20
94.782584095559756
 30
0.0
 70
    32
  0
VERTEX
  5
9236
  8
AM_0
 10
503.9746550265391
 20
94.77978409555989
 30
0.0
 70
    32
  0
VERTEX
  5
9237
  8
AM_0
 10
503.978655026539
 20
94.776984095559897
 30
0.0
 70
    32
  0
VERTEX
  5
9238
  8
AM_0
 10
503.9816550265391
 20
94.774184095559917
 30
0.0
 70
    32
  0
VERTEX
  5
9239
  8
AM_0
 10
503.98465502653909
 20
94.771384095559938
 30
0.0
 70
    32
  0
VERTEX
  5
923A
  8
AM_0
 10
503.98865502653911
 20
94.768584095559959
 30
0.0
 70
    32
  0
VERTEX
  5
923B
  8
AM_0
 10
503.99165502653909
 20
94.765784095560093
 30
0.0
 70
    32
  0
VERTEX
  5
923C
  8
AM_0
 10
503.99465502653908
 20
94.762984095560128
 30
0.0
 70
    32
  0
VERTEX
  5
923D
  8
AM_0
 10
503.99865502653847
 20
94.760284095560124
 30
0.0
 70
    32
  0
VERTEX
  5
923E
  8
AM_0
 10
504.00165502653908
 20
94.757484095559676
 30
0.0
 70
    32
  0
VERTEX
  5
923F
  8
AM_0
 10
504.00465502653913
 20
94.754784095559785
 30
0.0
 70
    32
  0
VERTEX
  5
9240
  8
AM_0
 10
504.00865502653909
 20
94.751984095559706
 30
0.0
 70
    32
  0
VERTEX
  5
9241
  8
AM_0
 10
504.01165502653907
 20
94.749284095559688
 30
0.0
 70
    32
  0
VERTEX
  5
9242
  8
AM_0
 10
504.01565502653881
 20
94.746584095559882
 30
0.0
 70
    32
  0
VERTEX
  5
9243
  8
AM_0
 10
504.0186550265388
 20
94.743884095559679
 30
0.0
 70
    32
  0
VERTEX
  5
9244
  8
AM_0
 10
504.02165502653912
 20
94.741184095559888
 30
0.0
 70
    32
  0
VERTEX
  5
9245
  8
AM_0
 10
504.02565502653908
 20
94.738484095559883
 30
0.0
 70
    32
  0
VERTEX
  5
9246
  8
AM_0
 10
504.0286550265393
 20
94.735784095559879
 30
0.0
 70
    32
  0
VERTEX
  5
9247
  8
AM_0
 10
504.03265502653909
 20
94.733184095559764
 30
0.0
 70
    32
  0
VERTEX
  5
9248
  8
AM_0
 10
504.0356550265393
 20
94.730484095559703
 30
0.0
 70
    32
  0
VERTEX
  5
9249
  8
AM_0
 10
504.03965502653909
 20
94.727784095559713
 30
0.0
 70
    32
  0
VERTEX
  5
924A
  8
AM_0
 10
504.04265502653908
 20
94.725184095560053
 30
0.0
 70
    32
  0
VERTEX
  5
924B
  8
AM_0
 10
504.04565502653872
 20
94.722584095559895
 30
0.0
 70
    32
  0
VERTEX
  5
924C
  8
AM_0
 10
504.04965502653909
 20
94.719984095559767
 30
0.0
 70
    32
  0
VERTEX
  5
924D
  8
AM_0
 10
504.05265502653913
 20
94.717284095559776
 30
0.0
 70
    32
  0
VERTEX
  5
924E
  8
AM_0
 10
504.05665502653909
 20
94.714684095559718
 30
0.0
 70
    32
  0
VERTEX
  5
924F
  8
AM_0
 10
504.05965502653908
 20
94.712084095559788
 30
0.0
 70
    32
  0
VERTEX
  5
9250
  8
AM_0
 10
504.06365502653881
 20
94.709584095559762
 30
0.0
 70
    32
  0
VERTEX
  5
9251
  8
AM_0
 10
504.06665502653942
 20
94.70698409555996
 30
0.0
 70
    32
  0
VERTEX
  5
9252
  8
AM_0
 10
504.0706550265391
 20
94.704384095559945
 30
0.0
 70
    32
  0
VERTEX
  5
9253
  8
AM_0
 10
504.07365502653909
 20
94.701884095559876
 30
0.0
 70
    32
  0
VERTEX
  5
9254
  8
AM_0
 10
504.07765502653911
 20
94.699284095559705
 30
0.0
 70
    32
  0
VERTEX
  5
9255
  8
AM_0
 10
504.08065502653909
 20
94.696784095559806
 30
0.0
 70
    32
  0
VERTEX
  5
9256
  8
AM_0
 10
504.08465502653911
 20
94.694184095559876
 30
0.0
 70
    32
  0
VERTEX
  5
9257
  8
AM_0
 10
504.0876550265391
 20
94.691684095559921
 30
0.0
 70
    32
  0
VERTEX
  5
9258
  8
AM_0
 10
504.09165502653912
 20
94.689184095559867
 30
0.0
 70
    32
  0
VERTEX
  5
9259
  8
AM_0
 10
504.09565502653908
 20
94.686684095559727
 30
0.0
 70
    32
  0
VERTEX
  5
925A
  8
AM_0
 10
504.09865502653912
 20
94.684184095559786
 30
0.0
 70
    32
  0
VERTEX
  5
925B
  8
AM_0
 10
504.1026550265392
 20
94.681684095559845
 30
0.0
 70
    32
  0
VERTEX
  5
925C
  8
AM_0
 10
504.1056550265393
 20
94.679184095559904
 30
0.0
 70
    32
  0
VERTEX
  5
925D
  8
AM_0
 10
504.10965502653909
 20
94.676784095559924
 30
0.0
 70
    32
  0
VERTEX
  5
925E
  8
AM_0
 10
504.11265502653879
 20
94.674284095559756
 30
0.0
 70
    32
  0
VERTEX
  5
925F
  8
AM_0
 10
504.11665502653909
 20
94.671884095559776
 30
0.0
 70
    32
  0
VERTEX
  5
9260
  8
AM_0
 10
504.12065502653883
 20
94.669384095559963
 30
0.0
 70
    32
  0
VERTEX
  5
9261
  8
AM_0
 10
504.1236550265391
 20
94.666984095559883
 30
0.0
 70
    32
  0
VERTEX
  5
9262
  8
AM_0
 10
504.12765502653917
 20
94.664584095559917
 30
0.0
 70
    32
  0
VERTEX
  5
9263
  8
AM_0
 10
504.1306550265391
 20
94.662084095559962
 30
0.0
 70
    32
  0
VERTEX
  5
9264
  8
AM_0
 10
504.13465502653941
 20
94.659684095559683
 30
0.0
 70
    32
  0
VERTEX
  5
9265
  8
AM_0
 10
504.13865502653908
 20
94.657284095559916
 30
0.0
 70
    32
  0
VERTEX
  5
9266
  8
AM_0
 10
504.14165502653913
 20
94.654884095559964
 30
0.0
 70
    32
  0
VERTEX
  5
9267
  8
AM_0
 10
504.14565502653909
 20
94.652484095559629
 30
0.0
 70
    32
  0
VERTEX
  5
9268
  8
AM_0
 10
504.14965502653911
 20
94.650184095559794
 30
0.0
 70
    32
  0
VERTEX
  5
9269
  8
AM_0
 10
504.15265502653909
 20
94.647784095559956
 30
0.0
 70
    32
  0
VERTEX
  5
926A
  8
AM_0
 10
504.15665502653911
 20
94.645384095559976
 30
0.0
 70
    32
  0
VERTEX
  5
926B
  8
AM_0
 10
504.1606550265393
 20
94.643084095559715
 30
0.0
 70
    32
  0
VERTEX
  5
926C
  8
AM_0
 10
504.16365502653912
 20
94.640684095559905
 30
0.0
 70
    32
  0
VERTEX
  5
926D
  8
AM_0
 10
504.16765502653908
 20
94.638384095559886
 30
0.0
 70
    32
  0
VERTEX
  5
926E
  8
AM_0
 10
504.17165502653882
 20
94.636084095559923
 30
0.0
 70
    32
  0
VERTEX
  5
926F
  8
AM_0
 10
504.17465502653909
 20
94.633784095560046
 30
0.0
 70
    32
  0
VERTEX
  5
9270
  8
AM_0
 10
504.1786550265391
 20
94.631484095559827
 30
0.0
 70
    32
  0
VERTEX
  5
9271
  8
AM_0
 10
504.18265502653912
 20
94.629084095559705
 30
0.0
 70
    32
  0
VERTEX
  5
9272
  8
AM_0
 10
504.18565502653911
 20
94.626884095559717
 30
0.0
 70
    32
  0
VERTEX
  5
9273
  8
AM_0
 10
504.18965502653901
 20
94.624584095559712
 30
0.0
 70
    32
  0
VERTEX
  5
9274
  8
AM_0
 10
504.19365502653909
 20
94.622284095559706
 30
0.0
 70
    32
  0
VERTEX
  5
9275
  8
AM_0
 10
504.19665502653908
 20
94.619984095559957
 30
0.0
 70
    32
  0
VERTEX
  5
9276
  8
AM_0
 10
504.2006550265391
 20
94.617684095559994
 30
0.0
 70
    32
  0
VERTEX
  5
9277
  8
AM_0
 10
504.20465502653911
 20
94.615484095559964
 30
0.0
 70
    32
  0
VERTEX
  5
9278
  8
AM_0
 10
504.20865502653879
 20
94.613184095559987
 30
0.0
 70
    32
  0
VERTEX
  5
9279
  8
AM_0
 10
504.21165502653912
 20
94.610984095559957
 30
0.0
 70
    32
  0
VERTEX
  5
927A
  8
AM_0
 10
504.21565502653908
 20
94.608784095559926
 30
0.0
 70
    32
  0
VERTEX
  5
927B
  8
AM_0
 10
504.21965502653921
 20
94.606484095559964
 30
0.0
 70
    32
  0
VERTEX
  5
927C
  8
AM_0
 10
504.22265502653909
 20
94.604284095559919
 30
0.0
 70
    32
  0
VERTEX
  5
927D
  8
AM_0
 10
504.22665502653922
 20
94.602084095559789
 30
0.0
 70
    32
  0
VERTEX
  5
927E
  8
AM_0
 10
504.2306550265393
 20
94.599884095559659
 30
0.0
 70
    32
  0
VERTEX
  5
927F
  8
AM_0
 10
504.23465502653909
 20
94.597684095559885
 30
0.0
 70
    32
  0
VERTEX
  5
9280
  8
AM_0
 10
504.23765502653879
 20
94.595484095560039
 30
0.0
 70
    32
  0
VERTEX
  5
9281
  8
AM_0
 10
504.24165502653909
 20
94.593384095559799
 30
0.0
 70
    32
  0
VERTEX
  5
9282
  8
AM_0
 10
504.24565502653911
 20
94.591184095559925
 30
0.0
 70
    32
  0
VERTEX
  5
9283
  8
AM_0
 10
504.24965502653941
 20
94.58898409555988
 30
0.0
 70
    32
  0
VERTEX
  5
9284
  8
AM_0
 10
504.25365502653909
 20
94.586884095559981
 30
0.0
 70
    32
  0
VERTEX
  5
9285
  8
AM_0
 10
504.25665502653942
 20
94.584684095560107
 30
0.0
 70
    32
  0
VERTEX
  5
9286
  8
AM_0
 10
504.2606550265391
 20
94.582584095559795
 30
0.0
 70
    32
  0
VERTEX
  5
9287
  8
AM_0
 10
504.264655026539
 20
94.580384095559793
 30
0.0
 70
    32
  0
VERTEX
  5
9288
  8
AM_0
 10
504.26865502653908
 20
94.578284095559766
 30
0.0
 70
    32
  0
VERTEX
  5
9289
  8
AM_0
 10
504.27165502653912
 20
94.576184095559938
 30
0.0
 70
    32
  0
VERTEX
  5
928A
  8
AM_0
 10
504.27565502653908
 20
94.574084095559783
 30
0.0
 70
    32
  0
VERTEX
  5
928B
  8
AM_0
 10
504.2796550265391
 20
94.571984095559714
 30
0.0
 70
    32
  0
VERTEX
  5
928C
  8
AM_0
 10
504.28365502653912
 20
94.569884095559956
 30
0.0
 70
    32
  0
VERTEX
  5
928D
  8
AM_0
 10
504.28765502653908
 20
94.567784095559773
 30
0.0
 70
    32
  0
VERTEX
  5
928E
  8
AM_0
 10
504.2916550265391
 20
94.565684095559718
 30
0.0
 70
    32
  0
VERTEX
  5
928F
  8
AM_0
 10
504.2946550265392
 20
94.563584095559946
 30
0.0
 70
    32
  0
VERTEX
  5
9290
  8
AM_0
 10
504.29865502653911
 20
94.561584095559709
 30
0.0
 70
    32
  0
VERTEX
  5
9291
  8
AM_0
 10
504.30265502653913
 20
94.559484095560066
 30
0.0
 70
    32
  0
VERTEX
  5
9292
  8
AM_0
 10
504.30665502653909
 20
94.557384095559755
 30
0.0
 70
    32
  0
VERTEX
  5
9293
  8
AM_0
 10
504.31065502653911
 20
94.555384095559916
 30
0.0
 70
    32
  0
VERTEX
  5
9294
  8
AM_0
 10
504.31365502653853
 20
94.553284095559874
 30
0.0
 70
    32
  0
VERTEX
  5
9295
  8
AM_0
 10
504.31765502653923
 20
94.551284095559922
 30
0.0
 70
    32
  0
VERTEX
  5
9296
  8
AM_0
 10
504.32165502653908
 20
94.54928409555977
 30
0.0
 70
    32
  0
VERTEX
  5
9297
  8
AM_0
 10
504.3256550265391
 20
94.547284095559917
 30
0.0
 70
    32
  0
VERTEX
  5
9298
  8
AM_0
 10
504.32965502653923
 20
94.545284095559708
 30
0.0
 70
    32
  0
VERTEX
  5
9299
  8
AM_0
 10
504.33365502653879
 20
94.543284095559883
 30
0.0
 70
    32
  0
VERTEX
  5
929A
  8
AM_0
 10
504.3376550265391
 20
94.541284095559789
 30
0.0
 70
    32
  0
VERTEX
  5
929B
  8
AM_0
 10
504.34065502653908
 20
94.539284095559879
 30
0.0
 70
    32
  0
VERTEX
  5
929C
  8
AM_0
 10
504.34465502653887
 20
94.537284095559684
 30
0.0
 70
    32
  0
VERTEX
  5
929D
  8
AM_0
 10
504.34865502653918
 20
94.535284095559973
 30
0.0
 70
    32
  0
VERTEX
  5
929E
  8
AM_0
 10
504.35265502653908
 20
94.533284095559907
 30
0.0
 70
    32
  0
VERTEX
  5
929F
  8
AM_0
 10
504.3566550265391
 20
94.531384095559943
 30
0.0
 70
    32
  0
VERTEX
  5
92A0
  8
AM_0
 10
504.36065502653912
 20
94.529384095560104
 30
0.0
 70
    32
  0
VERTEX
  5
92A1
  8
AM_0
 10
504.36465502653908
 20
94.527484095559785
 30
0.0
 70
    32
  0
VERTEX
  5
92A2
  8
AM_0
 10
504.36865502653882
 20
94.525484095559946
 30
0.0
 70
    32
  0
VERTEX
  5
92A3
  8
AM_0
 10
504.37265502653912
 20
94.523584095559954
 30
0.0
 70
    32
  0
VERTEX
  5
92A4
  8
AM_0
 10
504.37565502653911
 20
94.521684095559962
 30
0.0
 70
    32
  0
VERTEX
  5
92A5
  8
AM_0
 10
504.37965502653901
 20
94.519684095559924
 30
0.0
 70
    32
  0
VERTEX
  5
92A6
  8
AM_0
 10
504.38365502653909
 20
94.517784095559904
 30
0.0
 70
    32
  0
VERTEX
  5
92A7
  8
AM_0
 10
504.38765502653911
 20
94.515884095559954
 30
0.0
 70
    32
  0
VERTEX
  5
92A8
  8
AM_0
 10
504.39165502653913
 20
94.513984095559749
 30
0.0
 70
    32
  0
VERTEX
  5
92A9
  8
AM_0
 10
504.39565502653909
 20
94.512084095559885
 30
0.0
 70
    32
  0
VERTEX
  5
92AA
  8
AM_0
 10
504.39965502653911
 20
94.510184095559879
 30
0.0
 70
    32
  0
VERTEX
  5
92AB
  8
AM_0
 10
504.4036550265393
 20
94.508384095559677
 30
0.0
 70
    32
  0
VERTEX
  5
92AC
  8
AM_0
 10
504.40765502653909
 20
94.506484095559927
 30
0.0
 70
    32
  0
VERTEX
  5
92AD
  8
AM_0
 10
504.41165502653882
 20
94.504584095559963
 30
0.0
 70
    32
  0
VERTEX
  5
92AE
  8
AM_0
 10
504.41565502653879
 20
94.502784095559946
 30
0.0
 70
    32
  0
VERTEX
  5
92AF
  8
AM_0
 10
504.41865502653923
 20
94.500884095559954
 30
0.0
 70
    32
  0
VERTEX
  5
92B0
  8
AM_0
 10
504.4226550265393
 20
94.499084095559965
 30
0.0
 70
    32
  0
VERTEX
  5
92B1
  8
AM_0
 10
504.42665502653909
 20
94.497184095559717
 30
0.0
 70
    32
  0
VERTEX
  5
92B2
  8
AM_0
 10
504.43065502653923
 20
94.495384095559771
 30
0.0
 70
    32
  0
VERTEX
  5
92B3
  8
AM_0
 10
504.43465502653908
 20
94.493584095559754
 30
0.0
 70
    32
  0
VERTEX
  5
92B4
  8
AM_0
 10
504.43865502653892
 20
94.491684095559762
 30
0.0
 70
    32
  0
VERTEX
  5
92B5
  8
AM_0
 10
504.44265502653911
 20
94.489884095559887
 30
0.0
 70
    32
  0
VERTEX
  5
92B6
  8
AM_0
 10
504.44665502653908
 20
94.488084095559785
 30
0.0
 70
    32
  0
VERTEX
  5
92B7
  8
AM_0
 10
504.4506550265391
 20
94.486284095559768
 30
0.0
 70
    32
  0
VERTEX
  5
92B8
  8
AM_0
 10
504.45465502653911
 20
94.484484095559765
 30
0.0
 70
    32
  0
VERTEX
  5
92B9
  8
AM_0
 10
504.45865502653879
 20
94.482684095559776
 30
0.0
 70
    32
  0
VERTEX
  5
92BA
  8
AM_0
 10
504.4626550265391
 20
94.480984095559705
 30
0.0
 70
    32
  0
VERTEX
  5
92BB
  8
AM_0
 10
504.466655026539
 20
94.479184095559717
 30
0.0
 70
    32
  0
VERTEX
  5
92BC
  8
AM_0
 10
504.47065502653908
 20
94.477384095559714
 30
0.0
 70
    32
  0
VERTEX
  5
92BD
  8
AM_0
 10
504.4746550265391
 20
94.475584095559725
 30
0.0
 70
    32
  0
VERTEX
  5
92BE
  8
AM_0
 10
504.47865502653877
 20
94.473884095559825
 30
0.0
 70
    32
  0
VERTEX
  5
92BF
  8
AM_0
 10
504.48265502653908
 20
94.472084095559921
 30
0.0
 70
    32
  0
VERTEX
  5
92C0
  8
AM_0
 10
504.48665502653921
 20
94.470384095559879
 30
0.0
 70
    32
  0
VERTEX
  5
92C1
  8
AM_0
 10
504.49065502653912
 20
94.468684095559979
 30
0.0
 70
    32
  0
VERTEX
  5
92C2
  8
AM_0
 10
504.49465502653908
 20
94.466884095559962
 30
0.0
 70
    32
  0
VERTEX
  5
92C3
  8
AM_0
 10
504.4986550265391
 20
94.465184095559906
 30
0.0
 70
    32
  0
VERTEX
  5
92C4
  8
AM_0
 10
504.50265502653912
 20
94.463484095559934
 30
0.0
 70
    32
  0
VERTEX
  5
92C5
  8
AM_0
 10
504.50665502653919
 20
94.461784095559878
 30
0.0
 70
    32
  0
VERTEX
  5
92C6
  8
AM_0
 10
504.51065502653921
 20
94.460084095559964
 30
0.0
 70
    32
  0
VERTEX
  5
92C7
  8
AM_0
 10
504.51465502653917
 20
94.458384095559708
 30
0.0
 70
    32
  0
VERTEX
  5
92C8
  8
AM_0
 10
504.51865502653908
 20
94.456684095559694
 30
0.0
 70
    32
  0
VERTEX
  5
92C9
  8
AM_0
 10
504.5226550265391
 20
94.454984095560135
 30
0.0
 70
    32
  0
VERTEX
  5
92CA
  8
AM_0
 10
504.52665502653917
 20
94.453284095559965
 30
0.0
 70
    32
  0
VERTEX
  5
92CB
  8
AM_0
 10
504.53065502653908
 20
94.451584095559966
 30
0.0
 70
    32
  0
VERTEX
  5
92CC
  8
AM_0
 10
504.53465502653893
 20
94.449884095559923
 30
0.0
 70
    32
  0
VERTEX
  5
92CD
  8
AM_0
 10
504.53865502653917
 20
94.448284095559984
 30
0.0
 70
    32
  0
VERTEX
  5
92CE
  8
AM_0
 10
504.54265502653908
 20
94.446584095559714
 30
0.0
 70
    32
  0
VERTEX
  5
92CF
  8
AM_0
 10
504.5466550265391
 20
94.444984095559676
 30
0.0
 70
    32
  0
VERTEX
  5
92D0
  8
AM_0
 10
504.55065502653912
 20
94.443284095560443
 30
0.0
 70
    32
  0
VERTEX
  5
92D1
  8
AM_0
 10
504.5546550265388
 20
94.441684095559921
 30
0.0
 70
    32
  0
VERTEX
  5
92D2
  8
AM_0
 10
504.5586550265391
 20
94.439984095559794
 30
0.0
 70
    32
  0
VERTEX
  5
92D3
  8
AM_0
 10
504.56265502653901
 20
94.438384095559954
 30
0.0
 70
    32
  0
VERTEX
  5
92D4
  8
AM_0
 10
504.56665502653931
 20
94.436784095559688
 30
0.0
 70
    32
  0
VERTEX
  5
92D5
  8
AM_0
 10
504.5706550265391
 20
94.435184095560089
 30
0.0
 70
    32
  0
VERTEX
  5
92D6
  8
AM_0
 10
504.57465502653878
 20
94.433484095559919
 30
0.0
 70
    32
  0
VERTEX
  5
92D7
  8
AM_0
 10
504.57865502653908
 20
94.431884095559766
 30
0.0
 70
    32
  0
VERTEX
  5
92D8
  8
AM_0
 10
504.5826550265391
 20
94.430284095559955
 30
0.0
 70
    32
  0
VERTEX
  5
92D9
  8
AM_0
 10
504.58665502653912
 20
94.428684095559888
 30
0.0
 70
    32
  0
VERTEX
  5
92DA
  8
AM_0
 10
504.59065502653908
 20
94.427184095559909
 30
0.0
 70
    32
  0
VERTEX
  5
92DB
  8
AM_0
 10
504.59465502653882
 20
94.425584095559756
 30
0.0
 70
    32
  0
VERTEX
  5
92DC
  8
AM_0
 10
504.59865502653912
 20
94.423984095559945
 30
0.0
 70
    32
  0
VERTEX
  5
92DD
  8
AM_0
 10
504.6026550265392
 20
94.422384095559877
 30
0.0
 70
    32
  0
VERTEX
  5
92DE
  8
AM_0
 10
504.60665502653922
 20
94.420884095559913
 30
0.0
 70
    32
  0
VERTEX
  5
92DF
  8
AM_0
 10
504.61065502653912
 20
94.419284095559718
 30
0.0
 70
    32
  0
VERTEX
  5
92E0
  8
AM_0
 10
504.61565502653917
 20
94.41768409555992
 30
0.0
 70
    32
  0
VERTEX
  5
92E1
  8
AM_0
 10
504.61965502653908
 20
94.416184095559714
 30
0.0
 70
    32
  0
VERTEX
  5
92E2
  8
AM_0
 10
504.6236550265391
 20
94.414684095559778
 30
0.0
 70
    32
  0
VERTEX
  5
92E3
  8
AM_0
 10
504.62765502653917
 20
94.413084095559952
 30
0.0
 70
    32
  0
VERTEX
  5
92E4
  8
AM_0
 10
504.63165502653942
 20
94.411584095560016
 30
0.0
 70
    32
  0
VERTEX
  5
92E5
  8
AM_0
 10
504.63565502653893
 20
94.410084095559895
 30
0.0
 70
    32
  0
VERTEX
  5
92E6
  8
AM_0
 10
504.63965502653917
 20
94.408484095559714
 30
0.0
 70
    32
  0
VERTEX
  5
92E7
  8
AM_0
 10
504.64365502653908
 20
94.406984095559764
 30
0.0
 70
    32
  0
VERTEX
  5
92E8
  8
AM_0
 10
504.6476550265391
 20
94.405484095560055
 30
0.0
 70
    32
  0
VERTEX
  5
92E9
  8
AM_0
 10
504.65165502653912
 20
94.403984095559707
 30
0.0
 70
    32
  0
VERTEX
  5
92EA
  8
AM_0
 10
504.65565502653908
 20
94.402484095559771
 30
0.0
 70
    32
  0
VERTEX
  5
92EB
  8
AM_0
 10
504.6596550265387
 20
94.400984095559906
 30
0.0
 70
    32
  0
VERTEX
  5
92EC
  8
AM_0
 10
504.66365502653912
 20
94.399484095559714
 30
0.0
 70
    32
  0
VERTEX
  5
92ED
  8
AM_0
 10
504.66765502653908
 20
94.398084095559966
 30
0.0
 70
    32
  0
VERTEX
  5
92EE
  8
AM_0
 10
504.67265502653908
 20
94.396584095559874
 30
0.0
 70
    32
  0
VERTEX
  5
92EF
  8
AM_0
 10
504.67665502653909
 20
94.395084095559824
 30
0.0
 70
    32
  0
VERTEX
  5
92F0
  8
AM_0
 10
504.68065502653911
 20
94.393584095559959
 30
0.0
 70
    32
  0
VERTEX
  5
92F1
  8
AM_0
 10
504.68465502653908
 20
94.39218409555977
 30
0.0
 70
    32
  0
VERTEX
  5
92F2
  8
AM_0
 10
504.6886550265391
 20
94.390684095559877
 30
0.0
 70
    32
  0
VERTEX
  5
92F3
  8
AM_0
 10
504.69265502653911
 20
94.389284095560114
 30
0.0
 70
    32
  0
VERTEX
  5
92F4
  8
AM_0
 10
504.69665502653908
 20
94.387784095559908
 30
0.0
 70
    32
  0
VERTEX
  5
92F5
  8
AM_0
 10
504.70065502653921
 20
94.386384095559947
 30
0.0
 70
    32
  0
VERTEX
  5
92F6
  8
AM_0
 10
504.70465502653911
 20
94.384984095559744
 30
0.0
 70
    32
  0
VERTEX
  5
92F7
  8
AM_0
 10
504.70865502653908
 20
94.383584095559726
 30
0.0
 70
    32
  0
VERTEX
  5
92F8
  8
AM_0
 10
504.71365502653907
 20
94.382084095560131
 30
0.0
 70
    32
  0
VERTEX
  5
92F9
  8
AM_0
 10
504.71765502653892
 20
94.3806840955599
 30
0.0
 70
    32
  0
VERTEX
  5
92FA
  8
AM_0
 10
504.72165502653922
 20
94.379284095559925
 30
0.0
 70
    32
  0
VERTEX
  5
92FB
  8
AM_0
 10
504.72565502653879
 20
94.377884095559679
 30
0.0
 70
    32
  0
VERTEX
  5
92FC
  8
AM_0
 10
504.72965502653909
 20
94.376484095559917
 30
0.0
 70
    32
  0
VERTEX
  5
92FD
  8
AM_0
 10
504.73365502653911
 20
94.375084095559927
 30
0.0
 70
    32
  0
VERTEX
  5
92FE
  8
AM_0
 10
504.73765502653879
 20
94.373684095559696
 30
0.0
 70
    32
  0
VERTEX
  5
92FF
  8
AM_0
 10
504.74165502653909
 20
94.372284095559976
 30
0.0
 70
    32
  0
VERTEX
  5
9300
  8
AM_0
 10
504.745655026539
 20
94.370984095559834
 30
0.0
 70
    32
  0
VERTEX
  5
9301
  8
AM_0
 10
504.75065502653911
 20
94.369584095559958
 30
0.0
 70
    32
  0
VERTEX
  5
9302
  8
AM_0
 10
504.75465502653913
 20
94.368184095559954
 30
0.0
 70
    32
  0
VERTEX
  5
9303
  8
AM_0
 10
504.75865502653909
 20
94.366884095559953
 30
0.0
 70
    32
  0
VERTEX
  5
9304
  8
AM_0
 10
504.76265502653882
 20
94.365484095559964
 30
0.0
 70
    32
  0
VERTEX
  5
9305
  8
AM_0
 10
504.76665502653913
 20
94.364184095559949
 30
0.0
 70
    32
  0
VERTEX
  5
9306
  8
AM_0
 10
504.77065502653909
 20
94.362784095559945
 30
0.0
 70
    32
  0
VERTEX
  5
9307
  8
AM_0
 10
504.77465502653911
 20
94.361484095559945
 30
0.0
 70
    32
  0
VERTEX
  5
9308
  8
AM_0
 10
504.7796550265391
 20
94.360184095559788
 30
0.0
 70
    32
  0
VERTEX
  5
9309
  8
AM_0
 10
504.78365502653912
 20
94.358784095559784
 30
0.0
 70
    32
  0
VERTEX
  5
930A
  8
AM_0
 10
504.78765502653908
 20
94.357484095559826
 30
0.0
 70
    32
  0
VERTEX
  5
930B
  8
AM_0
 10
504.7916550265391
 20
94.356184095559684
 30
0.0
 70
    32
  0
VERTEX
  5
930C
  8
AM_0
 10
504.79565502653912
 20
94.354884095559768
 30
0.0
 70
    32
  0
VERTEX
  5
930D
  8
AM_0
 10
504.79965502653909
 20
94.353584095560137
 30
0.0
 70
    32
  0
VERTEX
  5
930E
  8
AM_0
 10
504.80365502653922
 20
94.35228409555998
 30
0.0
 70
    32
  0
VERTEX
  5
930F
  8
AM_0
 10
504.8086550265391
 20
94.35098409555971
 30
0.0
 70
    32
  0
VERTEX
  5
9310
  8
AM_0
 10
504.81265502653918
 20
94.349684095559965
 30
0.0
 70
    32
  0
VERTEX
  5
9311
  8
AM_0
 10
504.81665502653908
 20
94.348384095559908
 30
0.0
 70
    32
  0
VERTEX
  5
9312
  8
AM_0
 10
504.8206550265391
 20
94.347084095559936
 30
0.0
 70
    32
  0
VERTEX
  5
9313
  8
AM_0
 10
504.82465502653878
 20
94.345784095559907
 30
0.0
 70
    32
  0
VERTEX
  5
9314
  8
AM_0
 10
504.82865502653908
 20
94.344584095560194
 30
0.0
 70
    32
  0
VERTEX
  5
9315
  8
AM_0
 10
504.83265502653887
 20
94.343284095559966
 30
0.0
 70
    32
  0
VERTEX
  5
9316
  8
AM_0
 10
504.8376550265391
 20
94.34198409555971
 30
0.0
 70
    32
  0
VERTEX
  5
9317
  8
AM_0
 10
504.84165502653912
 20
94.340784095559769
 30
0.0
 70
    32
  0
VERTEX
  5
9318
  8
AM_0
 10
504.8456550265393
 20
94.339484095559797
 30
0.0
 70
    32
  0
VERTEX
  5
9319
  8
AM_0
 10
504.8496550265391
 20
94.338284095559985
 30
0.0
 70
    32
  0
VERTEX
  5
931A
  8
AM_0
 10
504.853655026539
 20
94.336984095559956
 30
0.0
 70
    32
  0
VERTEX
  5
931B
  8
AM_0
 10
504.85765502653908
 20
94.335784095559916
 30
0.0
 70
    32
  0
VERTEX
  5
931C
  8
AM_0
 10
504.86265502653879
 20
94.334584095559649
 30
0.0
 70
    32
  0
VERTEX
  5
931D
  8
AM_0
 10
504.86665502653909
 20
94.333284095559705
 30
0.0
 70
    32
  0
VERTEX
  5
931E
  8
AM_0
 10
504.87065502653911
 20
94.332084095560049
 30
0.0
 70
    32
  0
VERTEX
  5
931F
  8
AM_0
 10
504.87465502653902
 20
94.330884095559881
 30
0.0
 70
    32
  0
VERTEX
  5
9320
  8
AM_0
 10
504.87865502653909
 20
94.329684095559713
 30
0.0
 70
    32
  0
VERTEX
  5
9321
  8
AM_0
 10
504.88265502653911
 20
94.328484095560057
 30
0.0
 70
    32
  0
VERTEX
  5
9322
  8
AM_0
 10
504.88765502653911
 20
94.327284095559904
 30
0.0
 70
    32
  0
VERTEX
  5
9323
  8
AM_0
 10
504.89165502653913
 20
94.326084095559708
 30
0.0
 70
    32
  0
VERTEX
  5
9324
  8
AM_0
 10
504.89565502653909
 20
94.324884095560066
 30
0.0
 70
    32
  0
VERTEX
  5
9325
  8
AM_0
 10
504.89965502653922
 20
94.323684095559884
 30
0.0
 70
    32
  0
VERTEX
  5
9326
  8
AM_0
 10
504.90365502653879
 20
94.322484095559716
 30
0.0
 70
    32
  0
VERTEX
  5
9327
  8
AM_0
 10
504.90865502653918
 20
94.321284095560046
 30
0.0
 70
    32
  0
VERTEX
  5
9328
  8
AM_0
 10
504.91265502653908
 20
94.320184095559696
 30
0.0
 70
    32
  0
VERTEX
  5
9329
  8
AM_0
 10
504.9166550265391
 20
94.318984095559927
 30
0.0
 70
    32
  0
VERTEX
  5
932A
  8
AM_0
 10
504.92065502653872
 20
94.317784095559887
 30
0.0
 70
    32
  0
VERTEX
  5
932B
  8
AM_0
 10
504.92465502653909
 20
94.316684095559921
 30
0.0
 70
    32
  0
VERTEX
  5
932C
  8
AM_0
 10
504.92865502653888
 20
94.315484095559881
 30
0.0
 70
    32
  0
VERTEX
  5
932D
  8
AM_0
 10
504.9336550265391
 20
94.314384095559845
 30
0.0
 70
    32
  0
VERTEX
  5
932E
  8
AM_0
 10
504.93765502653918
 20
94.313184095559905
 30
0.0
 70
    32
  0
VERTEX
  5
932F
  8
AM_0
 10
504.94165502653942
 20
94.312084095559712
 30
0.0
 70
    32
  0
VERTEX
  5
9330
  8
AM_0
 10
504.9456550265391
 20
94.310884095559956
 30
0.0
 70
    32
  0
VERTEX
  5
9331
  8
AM_0
 10
504.94965502653912
 20
94.309784095559706
 30
0.0
 70
    32
  0
VERTEX
  5
9332
  8
AM_0
 10
504.954655026539
 20
94.308684095559883
 30
0.0
 70
    32
  0
VERTEX
  5
9333
  8
AM_0
 10
504.95865502653908
 20
94.307584095559946
 30
0.0
 70
    32
  0
VERTEX
  5
9334
  8
AM_0
 10
504.9626550265391
 20
94.306384095559906
 30
0.0
 70
    32
  0
VERTEX
  5
9335
  8
AM_0
 10
504.96665502653912
 20
94.305284095559713
 30
0.0
 70
    32
  0
VERTEX
  5
9336
  8
AM_0
 10
504.97065502653908
 20
94.304184095559876
 30
0.0
 70
    32
  0
VERTEX
  5
9337
  8
AM_0
 10
504.97565502653907
 20
94.303084095559939
 30
0.0
 70
    32
  0
VERTEX
  5
9338
  8
AM_0
 10
504.97965502653909
 20
94.301984095560201
 30
0.0
 70
    32
  0
VERTEX
  5
9339
  8
AM_0
 10
504.98365502653911
 20
94.300884095559695
 30
0.0
 70
    32
  0
VERTEX
  5
933A
  8
AM_0
 10
504.98765502653879
 20
94.299784095559986
 30
0.0
 70
    32
  0
VERTEX
  5
933B
  8
AM_0
 10
504.99265502653913
 20
94.298784095560094
 30
0.0
 70
    32
  0
VERTEX
  5
933C
  8
AM_0
 10
504.9966550265388
 20
94.297684095559916
 30
0.0
 70
    32
  0
VERTEX
  5
933D
  8
AM_0
 10
505.00065502653922
 20
94.296584095559965
 30
0.0
 70
    32
  0
VERTEX
  5
933E
  8
AM_0
 10
505.00465502653913
 20
94.295484095559942
 30
0.0
 70
    32
  0
VERTEX
  5
933F
  8
AM_0
 10
505.00865502653909
 20
94.294484095559724
 30
0.0
 70
    32
  0
VERTEX
  5
9340
  8
AM_0
 10
505.01365502653908
 20
94.293384095559944
 30
0.0
 70
    32
  0
VERTEX
  5
9341
  8
AM_0
 10
505.0176550265391
 20
94.292384095559882
 30
0.0
 70
    32
  0
VERTEX
  5
9342
  8
AM_0
 10
505.02165502653918
 20
94.291284095559945
 30
0.0
 70
    32
  0
VERTEX
  5
9343
  8
AM_0
 10
505.02565502653852
 20
94.290284095559954
 30
0.0
 70
    32
  0
VERTEX
  5
9344
  8
AM_0
 10
505.0296550265391
 20
94.28918409555969
 30
0.0
 70
    32
  0
VERTEX
  5
9345
  8
AM_0
 10
505.0346550265391
 20
94.288184095559714
 30
0.0
 70
    32
  0
VERTEX
  5
9346
  8
AM_0
 10
505.03865502653912
 20
94.287184095559965
 30
0.0
 70
    32
  0
VERTEX
  5
9347
  8
AM_0
 10
505.04265502653908
 20
94.286084095559886
 30
0.0
 70
    32
  0
VERTEX
  5
9348
  8
AM_0
 10
505.0466550265391
 20
94.285084095559796
 30
0.0
 70
    32
  0
VERTEX
  5
9349
  8
AM_0
 10
505.05165502653909
 20
94.284084095559905
 30
0.0
 70
    32
  0
VERTEX
  5
934A
  8
AM_0
 10
505.05565502653911
 20
94.283084095559957
 30
0.0
 70
    32
  0
VERTEX
  5
934B
  8
AM_0
 10
505.05965502653908
 20
94.28208409556008
 30
0.0
 70
    32
  0
VERTEX
  5
934C
  8
AM_0
 10
505.0636550265391
 20
94.281084095559649
 30
0.0
 70
    32
  0
VERTEX
  5
934D
  8
AM_0
 10
505.06765502653911
 20
94.280084095559786
 30
0.0
 70
    32
  0
VERTEX
  5
934E
  8
AM_0
 10
505.07265502653911
 20
94.279084095559938
 30
0.0
 70
    32
  0
VERTEX
  5
934F
  8
AM_0
 10
505.07665502653907
 20
94.278084095559961
 30
0.0
 70
    32
  0
VERTEX
  5
9350
  8
AM_0
 10
505.08065502653909
 20
94.277084095559985
 30
0.0
 70
    32
  0
VERTEX
  5
9351
  8
AM_0
 10
505.08465502653911
 20
94.276184095559984
 30
0.0
 70
    32
  0
VERTEX
  5
9352
  8
AM_0
 10
505.08965502653911
 20
94.275184095559879
 30
0.0
 70
    32
  0
VERTEX
  5
9353
  8
AM_0
 10
505.0936550265393
 20
94.274184095559789
 30
0.0
 70
    32
  0
VERTEX
  5
9354
  8
AM_0
 10
505.09765502653909
 20
94.273284095559916
 30
0.0
 70
    32
  0
VERTEX
  5
9355
  8
AM_0
 10
505.10165502653922
 20
94.272284095559925
 30
0.0
 70
    32
  0
VERTEX
  5
9356
  8
AM_0
 10
505.1066550265391
 20
94.271284095560077
 30
0.0
 70
    32
  0
VERTEX
  5
9357
  8
AM_0
 10
505.11065502653918
 20
94.270384095560075
 30
0.0
 70
    32
  0
VERTEX
  5
9358
  8
AM_0
 10
505.11465502653908
 20
94.269384095559786
 30
0.0
 70
    32
  0
VERTEX
  5
9359
  8
AM_0
 10
505.11865502653887
 20
94.268484095559785
 30
0.0
 70
    32
  0
VERTEX
  5
935A
  8
AM_0
 10
505.1236550265391
 20
94.267584095559769
 30
0.0
 70
    32
  0
VERTEX
  5
935B
  8
AM_0
 10
505.12765502653917
 20
94.266584095559878
 30
0.0
 70
    32
  0
VERTEX
  5
935C
  8
AM_0
 10
505.13165502653908
 20
94.265684095559877
 30
0.0
 70
    32
  0
VERTEX
  5
935D
  8
AM_0
 10
505.1356550265391
 20
94.264784095559875
 30
0.0
 70
    32
  0
VERTEX
  5
935E
  8
AM_0
 10
505.1406550265387
 20
94.263884095559874
 30
0.0
 70
    32
  0
VERTEX
  5
935F
  8
AM_0
 10
505.14465502653911
 20
94.262984095559887
 30
0.0
 70
    32
  0
VERTEX
  5
9360
  8
AM_0
 10
505.14865502653907
 20
94.262084095559885
 30
0.0
 70
    32
  0
VERTEX
  5
9361
  8
AM_0
 10
505.15265502653909
 20
94.261184095559884
 30
0.0
 70
    32
  0
VERTEX
  5
9362
  8
AM_0
 10
505.15765502653909
 20
94.260284095559868
 30
0.0
 70
    32
  0
VERTEX
  5
9363
  8
AM_0
 10
505.16165502653911
 20
94.259384095559867
 30
0.0
 70
    32
  0
VERTEX
  5
9364
  8
AM_0
 10
505.16565502653901
 20
94.258484095559865
 30
0.0
 70
    32
  0
VERTEX
  5
9365
  8
AM_0
 10
505.1696550265392
 20
94.257584095559864
 30
0.0
 70
    32
  0
VERTEX
  5
9366
  8
AM_0
 10
505.17465502653909
 20
94.256684095559876
 30
0.0
 70
    32
  0
VERTEX
  5
9367
  8
AM_0
 10
505.1786550265391
 20
94.255784095560017
 30
0.0
 70
    32
  0
VERTEX
  5
9368
  8
AM_0
 10
505.18265502653912
 20
94.254984095559706
 30
0.0
 70
    32
  0
VERTEX
  5
9369
  8
AM_0
 10
505.18665502653909
 20
94.254084095559705
 30
0.0
 70
    32
  0
VERTEX
  5
936A
  8
AM_0
 10
505.19165502653908
 20
94.253184095559504
 30
0.0
 70
    32
  0
VERTEX
  5
936B
  8
AM_0
 10
505.19565502653921
 20
94.252384095560075
 30
0.0
 70
    32
  0
VERTEX
  5
936C
  8
AM_0
 10
505.19965502653918
 20
94.251484095560059
 30
0.0
 70
    32
  0
VERTEX
  5
936D
  8
AM_0
 10
505.20365502653908
 20
94.250684095559905
 30
0.0
 70
    32
  0
VERTEX
  5
936E
  8
AM_0
 10
505.20865502653879
 20
94.249784095559903
 30
0.0
 70
    32
  0
VERTEX
  5
936F
  8
AM_0
 10
505.2126550265391
 20
94.248984095559777
 30
0.0
 70
    32
  0
VERTEX
  5
9370
  8
AM_0
 10
505.21665502653917
 20
94.248084095559776
 30
0.0
 70
    32
  0
VERTEX
  5
9371
  8
AM_0
 10
505.22065502653942
 20
94.247284095559706
 30
0.0
 70
    32
  0
VERTEX
  5
9372
  8
AM_0
 10
505.22565502653862
 20
94.246484095559921
 30
0.0
 70
    32
  0
VERTEX
  5
9373
  8
AM_0
 10
505.22965502653909
 20
94.245684095559923
 30
0.0
 70
    32
  0
VERTEX
  5
9374
  8
AM_0
 10
505.23365502653911
 20
94.244784095559908
 30
0.0
 70
    32
  0
VERTEX
  5
9375
  8
AM_0
 10
505.23865502653911
 20
94.243984095559753
 30
0.0
 70
    32
  0
VERTEX
  5
9376
  8
AM_0
 10
505.24265502653878
 20
94.243184095559954
 30
0.0
 70
    32
  0
VERTEX
  5
9377
  8
AM_0
 10
505.24665502653909
 20
94.242384095559956
 30
0.0
 70
    32
  0
VERTEX
  5
9378
  8
AM_0
 10
505.25065502653911
 20
94.241584095560043
 30
0.0
 70
    32
  0
VERTEX
  5
9379
  8
AM_0
 10
505.2556550265391
 20
94.240784095559874
 30
0.0
 70
    32
  0
VERTEX
  5
937A
  8
AM_0
 10
505.25965502653912
 20
94.239984095559706
 30
0.0
 70
    32
  0
VERTEX
  5
937B
  8
AM_0
 10
505.26365502653908
 20
94.239184095559935
 30
0.0
 70
    32
  0
VERTEX
  5
937C
  8
AM_0
 10
505.2676550265391
 20
94.238384095559923
 30
0.0
 70
    32
  0
VERTEX
  5
937D
  8
AM_0
 10
505.2726550265391
 20
94.237584095559882
 30
0.0
 70
    32
  0
VERTEX
  5
937E
  8
AM_0
 10
505.27665502653912
 20
94.236884095559958
 30
0.0
 70
    32
  0
VERTEX
  5
937F
  8
AM_0
 10
505.28065502653908
 20
94.236084095559946
 30
0.0
 70
    32
  0
VERTEX
  5
9380
  8
AM_0
 10
505.2856550265393
 20
94.235284095560132
 30
0.0
 70
    32
  0
VERTEX
  5
9381
  8
AM_0
 10
505.28965502653909
 20
94.234484095559864
 30
0.0
 70
    32
  0
VERTEX
  5
9382
  8
AM_0
 10
505.29365502653923
 20
94.23378409555994
 30
0.0
 70
    32
  0
VERTEX
  5
9383
  8
AM_0
 10
505.2976550265393
 20
94.232984095559786
 30
0.0
 70
    32
  0
VERTEX
  5
9384
  8
AM_0
 10
505.30265502653913
 20
94.232284095559706
 30
0.0
 70
    32
  0
VERTEX
  5
9385
  8
AM_0
 10
505.30665502653909
 20
94.231484095559964
 30
0.0
 70
    32
  0
VERTEX
  5
9386
  8
AM_0
 10
505.31065502653922
 20
94.230784095560125
 30
0.0
 70
    32
  0
VERTEX
  5
9387
  8
AM_0
 10
505.3156550265391
 20
94.229984095559985
 30
0.0
 70
    32
  0
VERTEX
  5
9388
  8
AM_0
 10
505.31965502653918
 20
94.229284095559791
 30
0.0
 70
    32
  0
VERTEX
  5
9389
  8
AM_0
 10
505.32365502653909
 20
94.228584095559881
 30
0.0
 70
    32
  0
VERTEX
  5
938A
  8
AM_0
 10
505.32765502653911
 20
94.227784095559727
 30
0.0
 70
    32
  0
VERTEX
  5
938B
  8
AM_0
 10
505.3326550265391
 20
94.227084095559917
 30
0.0
 70
    32
  0
VERTEX
  5
938C
  8
AM_0
 10
505.33665502653912
 20
94.226384095560206
 30
0.0
 70
    32
  0
VERTEX
  5
938D
  8
AM_0
 10
505.34065502653908
 20
94.225684095559913
 30
0.0
 70
    32
  0
VERTEX
  5
938E
  8
AM_0
 10
505.34565502653908
 20
94.224884095559901
 30
0.0
 70
    32
  0
VERTEX
  5
938F
  8
AM_0
 10
505.3496550265391
 20
94.224184095559707
 30
0.0
 70
    32
  0
VERTEX
  5
9390
  8
AM_0
 10
505.35365502653877
 20
94.223484095559925
 30
0.0
 70
    32
  0
VERTEX
  5
9391
  8
AM_0
 10
505.35765502653908
 20
94.222784095559973
 30
0.0
 70
    32
  0
VERTEX
  5
9392
  8
AM_0
 10
505.36265502653902
 20
94.222084095559694
 30
0.0
 70
    32
  0
VERTEX
  5
9393
  8
AM_0
 10
505.36665502653909
 20
94.221384095559984
 30
0.0
 70
    32
  0
VERTEX
  5
9394
  8
AM_0
 10
505.37065502653911
 20
94.220684095559946
 30
0.0
 70
    32
  0
VERTEX
  5
9395
  8
AM_0
 10
505.37565502653911
 20
94.220084095559969
 30
0.0
 70
    32
  0
VERTEX
  5
9396
  8
AM_0
 10
505.37965502653913
 20
94.219384095559676
 30
0.0
 70
    32
  0
VERTEX
  5
9397
  8
AM_0
 10
505.38365502653909
 20
94.218684095560107
 30
0.0
 70
    32
  0
VERTEX
  5
9398
  8
AM_0
 10
505.38765502653922
 20
94.217984095559927
 30
0.0
 70
    32
  0
VERTEX
  5
9399
  8
AM_0
 10
505.39265502653922
 20
94.21728409555989
 30
0.0
 70
    32
  0
VERTEX
  5
939A
  8
AM_0
 10
505.39665502653918
 20
94.216684095559927
 30
0.0
 70
    32
  0
VERTEX
  5
939B
  8
AM_0
 10
505.40065502653908
 20
94.215984095559946
 30
0.0
 70
    32
  0
VERTEX
  5
939C
  8
AM_0
 10
505.40565502653908
 20
94.215384095559884
 30
0.0
 70
    32
  0
VERTEX
  5
939D
  8
AM_0
 10
505.40965502653893
 20
94.214684095559974
 30
0.0
 70
    32
  0
VERTEX
  5
939E
  8
AM_0
 10
505.41365502653917
 20
94.213984095559795
 30
0.0
 70
    32
  0
VERTEX
  5
939F
  8
AM_0
 10
505.41765502653908
 20
94.213384095559846
 30
0.0
 70
    32
  0
VERTEX
  5
93A0
  8
AM_0
 10
505.42265502653942
 20
94.212784095559982
 30
0.0
 70
    32
  0
VERTEX
  5
93A1
  8
AM_0
 10
505.42665502653909
 20
94.212084095559774
 30
0.0
 70
    32
  0
VERTEX
  5
93A2
  8
AM_0
 10
505.43065502653911
 20
94.211484095559939
 30
0.0
 70
    32
  0
VERTEX
  5
93A3
  8
AM_0
 10
505.43565502653911
 20
94.210784095559788
 30
0.0
 70
    32
  0
VERTEX
  5
93A4
  8
AM_0
 10
505.43965502653913
 20
94.210184095559711
 30
0.0
 70
    32
  0
VERTEX
  5
93A5
  8
AM_0
 10
505.44365502653909
 20
94.209584095559777
 30
0.0
 70
    32
  0
VERTEX
  5
93A6
  8
AM_0
 10
505.44865502653909
 20
94.208984095559927
 30
0.0
 70
    32
  0
VERTEX
  5
93A7
  8
AM_0
 10
505.45265502653911
 20
94.208384095559964
 30
0.0
 70
    32
  0
VERTEX
  5
93A8
  8
AM_0
 10
505.45665502653912
 20
94.207684095559884
 30
0.0
 70
    32
  0
VERTEX
  5
93A9
  8
AM_0
 10
505.46165502653912
 20
94.207084095559921
 30
0.0
 70
    32
  0
VERTEX
  5
93AA
  8
AM_0
 10
505.46565502653908
 20
94.206484095559958
 30
0.0
 70
    32
  0
VERTEX
  5
93AB
  8
AM_0
 10
505.46965502653882
 20
94.205884095559867
 30
0.0
 70
    32
  0
VERTEX
  5
93AC
  8
AM_0
 10
505.47365502653912
 20
94.205284095559904
 30
0.0
 70
    32
  0
VERTEX
  5
93AD
  8
AM_0
 10
505.47865502653877
 20
94.204684095560054
 30
0.0
 70
    32
  0
VERTEX
  5
93AE
  8
AM_0
 10
505.48265502653908
 20
94.204084095560134
 30
0.0
 70
    32
  0
VERTEX
  5
93AF
  8
AM_0
 10
505.48665502653921
 20
94.203484095559944
 30
0.0
 70
    32
  0
VERTEX
  5
93B0
  8
AM_0
 10
505.49165502653909
 20
94.202984095559955
 30
0.0
 70
    32
  0
VERTEX
  5
93B1
  8
AM_0
 10
505.49565502653923
 20
94.202384095559765
 30
0.0
 70
    32
  0
VERTEX
  5
93B2
  8
AM_0
 10
505.4996550265393
 20
94.201784095559773
 30
0.0
 70
    32
  0
VERTEX
  5
93B3
  8
AM_0
 10
505.50465502653913
 20
94.201184095559782
 30
0.0
 70
    32
  0
VERTEX
  5
93B4
  8
AM_0
 10
505.50865502653909
 20
94.200684095559964
 30
0.0
 70
    32
  0
VERTEX
  5
93B5
  8
AM_0
 10
505.51265502653911
 20
94.200084095559944
 30
0.0
 70
    32
  0
VERTEX
  5
93B6
  8
AM_0
 10
505.51665502653913
 20
94.199484095559882
 30
0.0
 70
    32
  0
VERTEX
  5
93B7
  8
AM_0
 10
505.52165502653918
 20
94.198984095559922
 30
0.0
 70
    32
  0
VERTEX
  5
93B8
  8
AM_0
 10
505.52565502653908
 20
94.198384095559959
 30
0.0
 70
    32
  0
VERTEX
  5
93B9
  8
AM_0
 10
505.5296550265391
 20
94.197884095559715
 30
0.0
 70
    32
  0
VERTEX
  5
93BA
  8
AM_0
 10
505.53465502653881
 20
94.197284095559766
 30
0.0
 70
    32
  0
VERTEX
  5
93BB
  8
AM_0
 10
505.53865502653912
 20
94.196784095559678
 30
0.0
 70
    32
  0
VERTEX
  5
93BC
  8
AM_0
 10
505.54265502653908
 20
94.196284095559946
 30
0.0
 70
    32
  0
VERTEX
  5
93BD
  8
AM_0
 10
505.54765502653908
 20
94.195684095559955
 30
0.0
 70
    32
  0
VERTEX
  5
93BE
  8
AM_0
 10
505.55165502653909
 20
94.195184095559711
 30
0.0
 70
    32
  0
VERTEX
  5
93BF
  8
AM_0
 10
505.55565502653911
 20
94.194684095559964
 30
0.0
 70
    32
  0
VERTEX
  5
93C0
  8
AM_0
 10
505.56065502653911
 20
94.194084095559674
 30
0.0
 70
    32
  0
VERTEX
  5
93C1
  8
AM_0
 10
505.56465502653913
 20
94.193584095559785
 30
0.0
 70
    32
  0
VERTEX
  5
93C2
  8
AM_0
 10
505.56865502653909
 20
94.193084095559925
 30
0.0
 70
    32
  0
VERTEX
  5
93C3
  8
AM_0
 10
505.57365502653909
 20
94.192584095559909
 30
0.0
 70
    32
  0
VERTEX
  5
93C4
  8
AM_0
 10
505.57765502653911
 20
94.192084095559963
 30
0.0
 70
    32
  0
VERTEX
  5
93C5
  8
AM_0
 10
505.58165502653912
 20
94.191584095559705
 30
0.0
 70
    32
  0
VERTEX
  5
93C6
  8
AM_0
 10
505.58665502653912
 20
94.191084095559944
 30
0.0
 70
    32
  0
VERTEX
  5
93C7
  8
AM_0
 10
505.59065502653908
 20
94.190584095559984
 30
0.0
 70
    32
  0
VERTEX
  5
93C8
  8
AM_0
 10
505.59465502653882
 20
94.190084095559754
 30
0.0
 70
    32
  0
VERTEX
  5
93C9
  8
AM_0
 10
505.59865502653918
 20
94.189584095559638
 30
0.0
 70
    32
  0
VERTEX
  5
93CA
  8
AM_0
 10
505.60365502653877
 20
94.189084095559807
 30
0.0
 70
    32
  0
VERTEX
  5
93CB
  8
AM_0
 10
505.60765502653908
 20
94.188684095559637
 30
0.0
 70
    32
  0
VERTEX
  5
93CC
  8
AM_0
 10
505.61165502653921
 20
94.188184095559905
 30
0.0
 70
    32
  0
VERTEX
  5
93CD
  8
AM_0
 10
505.61665502653909
 20
94.187684095559774
 30
0.0
 70
    32
  0
VERTEX
  5
93CE
  8
AM_0
 10
505.62065502653911
 20
94.187284095559804
 30
0.0
 70
    32
  0
VERTEX
  5
93CF
  8
AM_0
 10
505.6246550265393
 20
94.186784095559915
 30
0.0
 70
    32
  0
VERTEX
  5
93D0
  8
AM_0
 10
505.62965502653913
 20
94.186284095559927
 30
0.0
 70
    32
  0
VERTEX
  5
93D1
  8
AM_0
 10
505.63365502653909
 20
94.185884095559786
 30
0.0
 70
    32
  0
VERTEX
  5
93D2
  8
AM_0
 10
505.63765502653911
 20
94.1854840955599
 30
0.0
 70
    32
  0
VERTEX
  5
93D3
  8
AM_0
 10
505.6426550265391
 20
94.184984095559926
 30
0.0
 70
    32
  0
VERTEX
  5
93D4
  8
AM_0
 10
505.64665502653912
 20
94.184584095559785
 30
0.0
 70
    32
  0
VERTEX
  5
93D5
  8
AM_0
 10
505.65065502653908
 20
94.184084095559768
 30
0.0
 70
    32
  0
VERTEX
  5
93D6
  8
AM_0
 10
505.65565502653908
 20
94.183684095559883
 30
0.0
 70
    32
  0
VERTEX
  5
93D7
  8
AM_0
 10
505.6596550265391
 20
94.183284095559614
 30
0.0
 70
    32
  0
VERTEX
  5
93D8
  8
AM_0
 10
505.66365502653912
 20
94.182884095559771
 30
0.0
 70
    32
  0
VERTEX
  5
93D9
  8
AM_0
 10
505.66865502653911
 20
94.182384095559641
 30
0.0
 70
    32
  0
VERTEX
  5
93DA
  8
AM_0
 10
505.6726550265393
 20
94.181984095559756
 30
0.0
 70
    32
  0
VERTEX
  5
93DB
  8
AM_0
 10
505.67665502653921
 20
94.181584095559984
 30
0.0
 70
    32
  0
VERTEX
  5
93DC
  8
AM_0
 10
505.68165502653909
 20
94.181184095559956
 30
0.0
 70
    32
  0
VERTEX
  5
93DD
  8
AM_0
 10
505.68565502653922
 20
94.180784095560057
 30
0.0
 70
    32
  0
VERTEX
  5
93DE
  8
AM_0
 10
505.6896550265393
 20
94.180384095559916
 30
0.0
 70
    32
  0
VERTEX
  5
93DF
  8
AM_0
 10
505.69465502653918
 20
94.179984095559917
 30
0.0
 70
    32
  0
VERTEX
  5
93E0
  8
AM_0
 10
505.69865502653909
 20
94.179684095559665
 30
0.0
 70
    32
  0
VERTEX
  5
93E1
  8
AM_0
 10
505.70265502653911
 20
94.179284095559709
 30
0.0
 70
    32
  0
VERTEX
  5
93E2
  8
AM_0
 10
505.70765502653887
 20
94.178884095559965
 30
0.0
 70
    32
  0
VERTEX
  5
93E3
  8
AM_0
 10
505.71165502653918
 20
94.178484095559966
 30
0.0
 70
    32
  0
VERTEX
  5
93E4
  8
AM_0
 10
505.71565502653908
 20
94.178184095559942
 30
0.0
 70
    32
  0
VERTEX
  5
93E5
  8
AM_0
 10
505.72065502653942
 20
94.177784095559915
 30
0.0
 70
    32
  0
VERTEX
  5
93E6
  8
AM_0
 10
505.7246550265391
 20
94.177384095559773
 30
0.0
 70
    32
  0
VERTEX
  5
93E7
  8
AM_0
 10
505.728655026539
 20
94.177084095559977
 30
0.0
 70
    32
  0
VERTEX
  5
93E8
  8
AM_0
 10
505.73365502653911
 20
94.176684095559963
 30
0.0
 70
    32
  0
VERTEX
  5
93E9
  8
AM_0
 10
505.73765502653907
 20
94.176384095559925
 30
0.0
 70
    32
  0
VERTEX
  5
93EA
  8
AM_0
 10
505.74165502653909
 20
94.176084095559787
 30
0.0
 70
    32
  0
VERTEX
  5
93EB
  8
AM_0
 10
505.74665502653852
 20
94.175684095559745
 30
0.0
 70
    32
  0
VERTEX
  5
93EC
  8
AM_0
 10
505.75065502653911
 20
94.175384095560048
 30
0.0
 70
    32
  0
VERTEX
  5
93ED
  8
AM_0
 10
505.75465502653913
 20
94.175084095559882
 30
0.0
 70
    32
  0
VERTEX
  5
93EE
  8
AM_0
 10
505.75965502653912
 20
94.174784095559744
 30
0.0
 70
    32
  0
VERTEX
  5
93EF
  8
AM_0
 10
505.76365502653908
 20
94.174384095559958
 30
0.0
 70
    32
  0
VERTEX
  5
93F0
  8
AM_0
 10
505.7676550265391
 20
94.17408409555992
 30
0.0
 70
    32
  0
VERTEX
  5
93F1
  8
AM_0
 10
505.77265502653921
 20
94.173784095559768
 30
0.0
 70
    32
  0
VERTEX
  5
93F2
  8
AM_0
 10
505.77665502653912
 20
94.173484095559957
 30
0.0
 70
    32
  0
VERTEX
  5
93F3
  8
AM_0
 10
505.78065502653908
 20
94.173184095559947
 30
0.0
 70
    32
  0
VERTEX
  5
93F4
  8
AM_0
 10
505.7856550265393
 20
94.172884095559766
 30
0.0
 70
    32
  0
VERTEX
  5
93F5
  8
AM_0
 10
505.78965502653909
 20
94.172584095559955
 30
0.0
 70
    32
  0
VERTEX
  5
93F6
  8
AM_0
 10
505.79365502653923
 20
94.172284095559917
 30
0.0
 70
    32
  0
VERTEX
  5
93F7
  8
AM_0
 10
505.79865502653922
 20
94.171984095559765
 30
0.0
 70
    32
  0
VERTEX
  5
93F8
  8
AM_0
 10
505.80265502653913
 20
94.171784095560056
 30
0.0
 70
    32
  0
VERTEX
  5
93F9
  8
AM_0
 10
505.80665502653909
 20
94.171484095559904
 30
0.0
 70
    32
  0
VERTEX
  5
93FA
  8
AM_0
 10
505.81165502653909
 20
94.17118409555971
 30
0.0
 70
    32
  0
VERTEX
  5
93FB
  8
AM_0
 10
505.81565502653882
 20
94.170884095560055
 30
0.0
 70
    32
  0
VERTEX
  5
93FC
  8
AM_0
 10
505.81965502653918
 20
94.170684095559764
 30
0.0
 70
    32
  0
VERTEX
  5
93FD
  8
AM_0
 10
505.82465502653878
 20
94.170384095559939
 30
0.0
 70
    32
  0
VERTEX
  5
93FE
  8
AM_0
 10
505.82865502653908
 20
94.170184095559776
 30
0.0
 70
    32
  0
VERTEX
  5
93FF
  8
AM_0
 10
505.83265502653882
 20
94.169884095559965
 30
0.0
 70
    32
  0
VERTEX
  5
9400
  8
AM_0
 10
505.8376550265391
 20
94.169684095559887
 30
0.0
 70
    32
  0
VERTEX
  5
9401
  8
AM_0
 10
505.84165502653912
 20
94.169384095559707
 30
0.0
 70
    32
  0
VERTEX
  5
9402
  8
AM_0
 10
505.84565502653908
 20
94.169184095559885
 30
0.0
 70
    32
  0
VERTEX
  5
9403
  8
AM_0
 10
505.85065502653902
 20
94.168884095559704
 30
0.0
 70
    32
  0
VERTEX
  5
9404
  8
AM_0
 10
505.85465502653909
 20
94.168684095559925
 30
0.0
 70
    32
  0
VERTEX
  5
9405
  8
AM_0
 10
505.85865502653911
 20
94.168484095559705
 30
0.0
 70
    32
  0
VERTEX
  5
9406
  8
AM_0
 10
505.86365502653911
 20
94.168284095559869
 30
0.0
 70
    32
  0
VERTEX
  5
9407
  8
AM_0
 10
505.86765502653913
 20
94.167984095559703
 30
0.0
 70
    32
  0
VERTEX
  5
9408
  8
AM_0
 10
505.87165502653852
 20
94.167784095559924
 30
0.0
 70
    32
  0
VERTEX
  5
9409
  8
AM_0
 10
505.87665502653908
 20
94.167584095559718
 30
0.0
 70
    32
  0
VERTEX
  5
940A
  8
AM_0
 10
505.88065502653922
 20
94.167384095559868
 30
0.0
 70
    32
  0
VERTEX
  5
940B
  8
AM_0
 10
505.88465502653918
 20
94.167184095559946
 30
0.0
 70
    32
  0
VERTEX
  5
940C
  8
AM_0
 10
505.88965502653917
 20
94.166984095559883
 30
0.0
 70
    32
  0
VERTEX
  5
940D
  8
AM_0
 10
505.89365502653908
 20
94.166784095559905
 30
0.0
 70
    32
  0
VERTEX
  5
940E
  8
AM_0
 10
505.8976550265391
 20
94.166584095559756
 30
0.0
 70
    32
  0
VERTEX
  5
940F
  8
AM_0
 10
505.90265502653909
 20
94.166384095560048
 30
0.0
 70
    32
  0
VERTEX
  5
9410
  8
AM_0
 10
505.90665502653911
 20
94.166184095559515
 30
0.0
 70
    32
  0
VERTEX
  5
9411
  8
AM_0
 10
505.9106550265393
 20
94.165984095559907
 30
0.0
 70
    32
  0
VERTEX
  5
9412
  8
AM_0
 10
505.91565502653913
 20
94.165784095559715
 30
0.0
 70
    32
  0
VERTEX
  5
9413
  8
AM_0
 10
505.91965502653937
 20
94.165584095559865
 30
0.0
 70
    32
  0
VERTEX
  5
9414
  8
AM_0
 10
505.92365502653911
 20
94.165484095560046
 30
0.0
 70
    32
  0
VERTEX
  5
9415
  8
AM_0
 10
505.92865502653882
 20
94.165284095559699
 30
0.0
 70
    32
  0
VERTEX
  5
9416
  8
AM_0
 10
505.93265502653912
 20
94.165084095559905
 30
0.0
 70
    32
  0
VERTEX
  5
9417
  8
AM_0
 10
505.93765502653901
 20
94.164984095559788
 30
0.0
 70
    32
  0
VERTEX
  5
9418
  8
AM_0
 10
505.94165502653908
 20
94.164784095559753
 30
0.0
 70
    32
  0
VERTEX
  5
9419
  8
AM_0
 10
505.9456550265391
 20
94.164584095559917
 30
0.0
 70
    32
  0
VERTEX
  5
941A
  8
AM_0
 10
505.95065502653881
 20
94.164484095559956
 30
0.0
 70
    32
  0
VERTEX
  5
941B
  8
AM_0
 10
505.95465502653911
 20
94.164284095559879
 30
0.0
 70
    32
  0
VERTEX
  5
941C
  8
AM_0
 10
505.95865502653908
 20
94.164184095559904
 30
0.0
 70
    32
  0
VERTEX
  5
941D
  8
AM_0
 10
505.96365502653907
 20
94.163984095559726
 30
0.0
 70
    32
  0
VERTEX
  5
941E
  8
AM_0
 10
505.96765502653852
 20
94.163884095559766
 30
0.0
 70
    32
  0
VERTEX
  5
941F
  8
AM_0
 10
505.97165502653911
 20
94.163784095559876
 30
0.0
 70
    32
  0
VERTEX
  5
9420
  8
AM_0
 10
505.97665502653922
 20
94.163584095559955
 30
0.0
 70
    32
  0
VERTEX
  5
9421
  8
AM_0
 10
505.9806550265393
 20
94.163484095559696
 30
0.0
 70
    32
  0
VERTEX
  5
9422
  8
AM_0
 10
505.98465502653909
 20
94.163384095559877
 30
0.0
 70
    32
  0
VERTEX
  5
9423
  8
AM_0
 10
505.98965502653908
 20
94.163284095559902
 30
0.0
 70
    32
  0
VERTEX
  5
9424
  8
AM_0
 10
505.9936550265391
 20
94.163184095559785
 30
0.0
 70
    32
  0
VERTEX
  5
9425
  8
AM_0
 10
505.99765502653878
 20
94.163084095559725
 30
0.0
 70
    32
  0
VERTEX
  5
9426
  8
AM_0
 10
506.00265502653917
 20
94.162884095559875
 30
0.0
 70
    32
  0
VERTEX
  5
9427
  8
AM_0
 10
506.00665502653908
 20
94.162784095560056
 30
0.0
 70
    32
  0
VERTEX
  5
9428
  8
AM_0
 10
506.0106550265391
 20
94.162684095559939
 30
0.0
 70
    32
  0
VERTEX
  5
9429
  8
AM_0
 10
506.01565502653881
 20
94.162584095559694
 30
0.0
 70
    32
  0
VERTEX
  5
942A
  8
AM_0
 10
506.01965502653911
 20
94.162584095559694
 30
0.0
 70
    32
  0
VERTEX
  5
942B
  8
AM_0
 10
506.02365502653907
 20
94.162484095559876
 30
0.0
 70
    32
  0
VERTEX
  5
942C
  8
AM_0
 10
506.02865502653913
 20
94.162384095559901
 30
0.0
 70
    32
  0
VERTEX
  5
942D
  8
AM_0
 10
506.03265502653909
 20
94.162284095559926
 30
0.0
 70
    32
  0
VERTEX
  5
942E
  8
AM_0
 10
506.03665502653882
 20
94.162184095559724
 30
0.0
 70
    32
  0
VERTEX
  5
942F
  8
AM_0
 10
506.0416550265391
 20
94.162184095559724
 30
0.0
 70
    32
  0
VERTEX
  5
9430
  8
AM_0
 10
506.04565502653878
 20
94.162084095559749
 30
0.0
 70
    32
  0
VERTEX
  5
9431
  8
AM_0
 10
506.04965502653909
 20
94.161984095559873
 30
0.0
 70
    32
  0
VERTEX
  5
9432
  8
AM_0
 10
506.0546550265388
 20
94.161984095559873
 30
0.0
 70
    32
  0
VERTEX
  5
9433
  8
AM_0
 10
506.0586550265391
 20
94.161884095560126
 30
0.0
 70
    32
  0
VERTEX
  5
9434
  8
AM_0
 10
506.06365502653921
 20
94.161784095559938
 30
0.0
 70
    32
  0
VERTEX
  5
9435
  8
AM_0
 10
506.06765502653911
 20
94.161784095559938
 30
0.0
 70
    32
  0
VERTEX
  5
9436
  8
AM_0
 10
506.07165502653908
 20
94.161684095559494
 30
0.0
 70
    32
  0
VERTEX
  5
9437
  8
AM_0
 10
506.0766550265393
 20
94.161684095559494
 30
0.0
 70
    32
  0
VERTEX
  5
9438
  8
AM_0
 10
506.08065502653909
 20
94.161584095560201
 30
0.0
 70
    32
  0
VERTEX
  5
9439
  8
AM_0
 10
506.08465502653922
 20
94.161584095560201
 30
0.0
 70
    32
  0
VERTEX
  5
943A
  8
AM_0
 10
506.08965502653911
 20
94.161484095559885
 30
0.0
 70
    32
  0
VERTEX
  5
943B
  8
AM_0
 10
506.0936550265393
 20
94.161484095559885
 30
0.0
 70
    32
  0
VERTEX
  5
943C
  8
AM_0
 10
506.09765502653909
 20
94.161384095559924
 30
0.0
 70
    32
  0
VERTEX
  5
943D
  8
AM_0
 10
506.10265502653942
 20
94.161384095559924
 30
0.0
 70
    32
  0
VERTEX
  5
943E
  8
AM_0
 10
506.1066550265391
 20
94.161384095559924
 30
0.0
 70
    32
  0
VERTEX
  5
943F
  8
AM_0
 10
506.11065502653918
 20
94.161284095559864
 30
0.0
 70
    32
  0
VERTEX
  5
9440
  8
AM_0
 10
506.11565502653912
 20
94.161284095559864
 30
0.0
 70
    32
  0
VERTEX
  5
9441
  8
AM_0
 10
506.11965502653908
 20
94.161184095559705
 30
0.0
 70
    32
  0
VERTEX
  5
9442
  8
AM_0
 10
506.1236550265387
 20
94.161184095559705
 30
0.0
 70
    32
  0
VERTEX
  5
9443
  8
AM_0
 10
506.12865502653909
 20
94.161184095559705
 30
0.0
 70
    32
  0
VERTEX
  5
9444
  8
AM_0
 10
506.13265502653883
 20
94.161084095559886
 30
0.0
 70
    32
  0
SEQEND
  5
9445
  8
AM_0
  0
LINE
  5
9446
  8
AM_0
 10
516.63270209161306
 20
94.161117773500294
 30
0.0
 11
506.13270209161311
 21
94.161117773500294
 31
0.0
  0
ARC
  5
9447
  8
AM_0
 10
506.13270209161311
 20
86.391269292517407
 30
0.0
 40
2.5
 50
180.0
 51
270.0
  0
LINE
  5
9448
  8
AM_0
 10
503.63270209161311
 20
82.291269292516731
 30
0.0
 11
503.63270209161311
 21
86.391269292517407
 31
0.0
  0
ARC
  5
9449
  8
AM_0
 10
504.13270209161311
 20
82.291269292516958
 30
0.0
 40
0.5
 50
180.0
 51
270.0
  0
LINE
  5
944A
  8
AM_0
 10
506.13270209161311
 20
83.891269292517435
 30
0.0
 11
515.16770209161325
 21
83.891269292517435
 31
0.0
  0
LINE
  5
944B
  8
AM_0
 10
520.63270209161306
 20
142.2912692925153
 30
0.0
 11
520.63270209161306
 21
153.7912692925153
 31
0.0
  0
LINE
  5
944C
  8
AM_0
 10
520.63270209161306
 20
153.79126929251669
 30
0.0
 11
520.63270209161306
 21
123.2912692925167
 31
0.0
  0
ARC
  5
944D
  8
AM_0
 10
536.63270209161351
 20
152.79126929251501
 30
0.0
 40
0.9999999999998864
 50
0.0
 51
90.0
  0
LINE
  5
944E
  8
AM_0
 10
537.63270209161351
 20
151.29120850707599
 30
0.0
 11
539.75792087154605
 21
151.29120850707599
 31
0.0
  0
LINE
  5
944F
  8
AM_0
 10
520.63270209161306
 20
112.2912692925167
 30
0.0
 11
520.63270209161306
 21
81.791269292516986
 31
0.0
  0
LINE
  5
9450
  8
AM_0
 10
530.00472607962138
 20
142.29126929251561
 30
0.0
 11
520.63270209161306
 21
142.2912692925153
 31
0.0
  0
LINE
  5
9451
  8
AM_0
 10
537.63270209161351
 20
147.1838906463438
 30
0.0
 11
537.63270209161351
 21
152.79126929251501
 31
0.0
  0
LINE
  5
9452
  8
AM_0
 10
520.63270209161306
 20
81.791269292515139
 30
0.0
 11
520.63270209161306
 21
93.291269292515338
 31
0.0
  0
LINE
  5
9453
  8
AM_0
 10
522.59621231588972
 20
93.291269292515338
 30
0.0
 11
520.63270209161306
 21
93.291269292515338
 31
0.0
  0
LINE
  5
9454
  8
AM_0
 10
539.75792087154605
 20
151.29120850707599
 30
0.0
 11
539.75792087154605
 21
148.3222824023525
 31
0.0
  0
LINE
  5
945B
  8
AM_0
 10
43.674847226946611
 20
86.121208292517153
 30
0.0
 11
43.674847226946611
 21
152.3211942925173
 31
0.0
  0
LINE
  5
945C
  8
AM_0
 10
46.174837226946572
 20
93.811213292517223
 30
0.0
 11
46.174837226946572
 21
174.79123929251699
 31
0.0
  0
LINE
  5
945D
  8
AM_0
 10
93.674857226946514
 20
174.79123929251699
 30
0.0
 11
93.674857226946514
 21
60.791221292517221
 31
0.0
  0
ARC
  5
945E
  8
AM_0
 10
37.38522722694659
 20
68.490166292517301
 30
0.0
 40
0.30119199
 50
5.9148298000018524
 51
88.175987000000191
  0
ARC
  5
945F
  8
AM_0
 10
37.38669722694658
 20
68.488870292517277
 30
0.0
 40
0.8023920299999998
 50
5.8908350000000427
 51
89.417558000000113
  0
LINE
  5
9460
  8
AM_0
 10
37.174837226946572
 20
69.29120829251724
 30
0.0
 11
37.174837226946572
 21
68.791222292517219
 31
0.0
  0
LINE
  5
9461
  8
AM_0
 10
37.174837226946572
 20
69.29120829251724
 30
0.0
 11
37.39488722694631
 21
69.29120829251724
 31
0.0
  0
LINE
  5
9462
  8
AM_0
 10
52.754857226946292
 20
114.071221292517
 30
0.0
 11
38.294857226946299
 21
69.561211292517228
 31
0.0
  0
LINE
  5
9463
  8
AM_0
 10
57.514807226946573
 20
112.53121329251699
 30
0.0
 11
43.054867226946612
 21
68.021218292517219
 31
0.0
  0
LINE
  5
9464
  8
AM_0
 10
46.174837226946572
 20
73.90120929251735
 30
0.0
 11
93.674857226946514
 21
73.90120929251735
 31
0.0
  0
LINE
  5
9465
  8
AM_0
 10
45.674857226946528
 20
60.791221292517221
 30
0.0
 11
93.674857226946514
 21
60.791221292517221
 31
0.0
  0
ARC
  5
9466
  8
AM_0
 10
40.674847226946603
 20
68.791222292517219
 30
0.0
 40
2.5014601500000002
 50
162.07207999999801
 51
342.07206999999869
  0
LINE
  5
9467
  8
AM_0
 10
43.674847226946611
 20
69.941215292517199
 30
0.0
 11
43.674847226946611
 21
62.791222292517197
 31
0.0
  0
ARC
  5
9468
  8
AM_0
 10
40.67379722694659
 20
68.789680292517218
 30
0.0
 40
3.001016099999998
 50
185.13259999999761
 51
0.0291460009999036
  0
ARC
  5
9469
  8
AM_0
 10
45.672577226946537
 20
62.788903292517261
 30
0.0
 40
1.9976960999999991
 50
179.9338299999965
 51
270.06616999999687
  0
ARC
  5
946A
  8
AM_0
 10
43.723567226946606
 20
80.29113129251742
 30
0.0
 40
4.0507442999999981
 50
99.071790999998854
 51
224.9123400000025
  0
LINE
  5
946B
  8
AM_0
 10
46.174837226946572
 20
77.631205292517151
 30
0.0
 11
46.174837226946572
 21
60.791221292517221
 31
0.0
  0
LINE
  5
946C
  8
AM_0
 10
88.674847226946596
 20
73.90120929251735
 30
0.0
 11
88.674847226946426
 21
60.791221292517221
 31
0.0
  0
ARC
  5
946D
  8
AM_0
 10
76.674367226946586
 20
117.7910112925171
 30
0.0
 40
8.000195699999999
 50
89.996300999997729
 51
161.78902999999599
  0
ARC
  5
946E
  8
AM_0
 10
76.672417226946592
 20
117.7887822925172
 30
0.0
 40
7.997572199999996
 50
198.19734999999929
 51
270.0173099999991
  0
LINE
  5
946F
  8
AM_0
 10
61.324807226946582
 20
120.29119329251699
 30
0.0
 11
71.174857226946514
 21
120.29119329251699
 31
0.0
  0
LINE
  5
9470
  8
AM_0
 10
61.324807226946582
 20
115.2912252925174
 30
0.0
 11
71.174857226946514
 21
115.2912252925174
 31
0.0
  0
ARC
  5
9471
  8
AM_0
 10
61.322617226946299
 20
111.2941242925171
 30
0.0
 40
8.9970875999999986
 50
89.985774999998554
 51
162.02120000000269
  0
ARC
  5
9472
  8
AM_0
 10
61.318087226946602
 20
111.29082729251699
 30
0.0
 40
4.0003919999999971
 50
89.903054999997906
 51
161.93679000000009
  0
LINE
  5
9473
  8
ﾁｭｳｼﾝｾﾝ
 10
76.674847226946611
 20
108.0812262925172
 30
0.0
 11
76.674847226946611
 21
127.5012222925171
 31
0.0
  0
LINE
  5
9474
  8
AM_0
 10
76.674847226946611
 20
109.79119329251699
 30
0.0
 11
93.674857226946514
 21
109.79119329251699
 31
0.0
  0
LINE
  5
9475
  8
AM_0
 10
76.674847226946611
 20
125.7912252925172
 30
0.0
 11
93.674857226946514
 21
125.7912252925172
 31
0.0
  0
ARC
  5
9476
  8
AM_0
 10
76.674847226946611
 20
117.789211292517
 30
0.0
 40
4.998440399999998
 50
23.61099900000109
 51
156.3890000000041
  0
ARC
  5
9477
  8
AM_0
 10
76.674847226946611
 20
117.789211292517
 30
0.0
 40
4.9968401999999958
 50
203.56897999999919
 51
336.43102000000079
  0
LINE
  5
9478
  8
AM_0
 10
71.174857226946514
 20
119.7912252925174
 30
0.0
 11
82.174837226946565
 21
119.7912252925174
 31
0.0
  0
LINE
  5
9479
  8
AM_0
 10
71.174857226946514
 20
115.79119329251699
 30
0.0
 11
82.174837226946565
 21
115.79119329251699
 31
0.0
  0
LINE
  5
947A
  8
AM_0
 10
71.174857226946514
 20
115.2912252925174
 30
0.0
 11
71.174857226946514
 21
120.29119329251699
 31
0.0
  0
LINE
  5
947B
  8
AM_0
 10
84.674857226946585
 20
115.2912252925174
 30
0.0
 11
84.674857226946585
 21
120.29119329251699
 31
0.0
  0
LINE
  5
947C
  8
AM_0
 10
82.174837226946565
 20
115.2912252925174
 30
0.0
 11
82.174837226946565
 21
120.29119329251699
 31
0.0
  0
LINE
  5
947D
  8
AM_0
 10
82.174837226946565
 20
120.29119329251699
 30
0.0
 11
84.674857226946585
 21
120.29119329251699
 31
0.0
  0
LINE
  5
947E
  8
AM_0
 10
82.174837226946565
 20
115.2912252925174
 30
0.0
 11
84.674857226946585
 21
115.2912252925174
 31
0.0
  0
LINE
  5
947F
  8
AM_0
 10
46.174837226946572
 20
161.68120929251739
 30
0.0
 11
93.674857226946514
 21
161.68120929251739
 31
0.0
  0
LINE
  5
9480
  8
AM_0
 10
46.174837226946572
 20
151.4312082925174
 30
0.0
 11
88.674847226946596
 21
151.4312082925174
 31
0.0
  0
LINE
  5
9481
  8
AM_0
 10
45.674857226946528
 20
174.79123929251699
 30
0.0
 11
93.674857226946514
 21
174.79123929251699
 31
0.0
  0
LINE
  5
9482
  8
AM_0
 10
44.874847226946592
 20
152.08123329251731
 30
0.0
 11
44.874847226946592
 21
161.28121929251731
 31
0.0
  0
LINE
  5
9483
  8
AM_0
 10
41.574877226946562
 20
155.18119929251731
 30
0.0
 11
41.574877226946562
 21
158.18119929251711
 31
0.0
  0
LINE
  5
9484
  8
AM_0
 10
44.874847226946592
 20
152.08123329251731
 30
0.0
 11
46.174837226946572
 21
152.08123329251731
 31
0.0
  0
ARC
  5
9485
  8
AM_0
 10
44.570527226946567
 20
155.18137929251731
 30
0.0
 40
2.9956880400000001
 50
180.0036399999974
 51
275.83037000000309
  0
LINE
  5
9486
  8
AM_0
 10
43.674847226946611
 20
161.0512092925174
 30
0.0
 11
43.674847226946611
 21
172.79119929251709
 31
0.0
  0
LINE
  5
9487
  8
AM_0
 10
44.874847226946592
 20
161.28121929251731
 30
0.0
 11
46.174837226946572
 21
161.28121929251731
 31
0.0
  0
ARC
  5
9488
  8
AM_0
 10
44.576527226946602
 20
158.1844092925173
 30
0.0
 40
3.0016479
 50
84.295613000003058
 51
180.06134999999779
  0
ARC
  5
9489
  8
AM_0
 10
45.674347226946558
 20
172.7917092925174
 30
0.0
 40
1.9994960399999999
 50
89.985542999997904
 51
180.0144599999999
  0
LINE
  5
948A
  8
AM_0
 10
88.674847226946596
 20
125.7912252925172
 30
0.0
 11
88.674847226946596
 21
174.79123929251699
 31
0.0
  0
LINE
  5
94BE
  8
ﾁｭｳｼﾝｾﾝ
 10
525.7574943077019
 20
117.7912692925171
 30
0.0
 11
689.507909875525
 21
117.7912692925171
 31
0.0
  0
ARC
  5
976B
  8
AM_0
 10
402.67485722694647
 20
323.96399363148288
 30
0.0
 40
3.0
 50
0.0
 51
75.522487999998262
  0
ARC
  5
976C
  8
AM_0
 10
402.67485722694647
 20
296.79803363148289
 30
0.0
 40
3.0
 50
271.49999999999937
 51
0.0
  0
ARC
  5
976D
  8
AM_0
 10
402.67485722694647
 20
439.96399363148271
 30
0.0
 40
3.0
 50
284.47750999999971
 51
0.0
  0
ARC
  5
976E
  8
AM_0
 10
402.67485722694647
 20
467.12997363148281
 30
0.0
 40
3.0
 50
0.0
 51
88.499997000000747
  0
LINE
  5
976F
  8
AM_0
 10
405.67485722694641
 20
396.96399363148282
 30
0.0
 11
408.6748572269463
 21
396.96399363148282
 31
0.0
  0
LINE
  5
9770
  8
AM_0
 10
405.67485722694641
 20
366.96399363148282
 30
0.0
 11
408.6748572269463
 21
366.96399363148282
 31
0.0
  0
LINE
  5
9771
  8
ﾁｭｳｼﾝｾﾝ
 10
29.517207226946361
 20
381.96399363148282
 30
0.0
 11
456.8276872269463
 21
381.96399363148282
 31
0.0
  0
ARC
  5
98CD
  8
AM_0
 10
274.1747972269464
 20
375.96399363148282
 30
0.0
 40
3.0
 50
0.0
 51
90.000003000000945
  0
ARC
  5
98CE
  8
AM_0
 10
240.67479722694651
 20
375.96399363148282
 30
0.0
 40
3.0
 50
90.000003000000945
 51
180.00001000000091
  0
LINE
  5
98D1
  8
AM_0
 10
237.67479722694631
 20
329.40768363148283
 30
0.0
 11
237.67479722694631
 21
434.52029363148262
 31
0.0
  0
LINE
  5
98D2
  8
AM_0
 10
217.67479722694631
 20
325.96399363148288
 30
0.0
 11
217.67479722694631
 21
437.96399363148282
 31
0.0
  0
LINE
  5
98D3
  8
AM_0
 10
277.17479722694662
 20
321.46399363148288
 30
0.0
 11
277.17479722694662
 21
442.46399363148282
 31
0.0
  0
LINE
  5
98D4
  8
AM_0
 10
286.17485722694641
 20
318.46399363148288
 30
0.0
 11
286.17485722694641
 21
445.46399363148282
 31
0.0
  0
LINE
  5
98D5
  8
AM_0
 10
322.67482722694638
 20
310.8738136314829
 30
0.0
 11
322.67482722694638
 21
453.05417363148291
 31
0.0
  0
LINE
  5
98D6
  8
AM_0
 10
312.6748572269463
 20
305.13513363148292
 30
0.0
 11
312.6748572269463
 21
458.7928236314828
 31
0.0
  0
LINE
  5
98D7
  8
AM_0
 10
390.67485722694641
 20
326.79245363148289
 30
0.0
 11
390.67485722694641
 21
437.13553363148282
 31
0.0
  0
LINE
  5
98D8
  8
AM_0
 10
405.67485722694641
 20
409.98984363148293
 30
0.0
 11
405.67485722694641
 21
353.93814363148277
 31
0.0
  0
LINE
  5
98D9
  8
AM_0
 10
402.67485722694647
 20
327.83697363148281
 30
0.0
 11
402.67485722694647
 21
436.09100363148281
 31
0.0
  0
LINE
  5
98DA
  8
AM_0
 10
329.67485722694641
 20
299.71304363148272
 30
0.0
 11
329.67485722694641
 21
464.21494363148281
 31
0.0
  0
LINE
  5
98DB
  8
AM_0
 10
286.17485722694641
 20
329.92398363148283
 30
0.0
 11
312.67482722694638
 21
329.92398363148283
 31
0.0
  0
LINE
  5
98DC
  8
AM_0
 10
286.17485722694641
 20
344.81607363148282
 30
0.0
 11
312.67482722694638
 21
344.81607363148282
 31
0.0
  0
LINE
  5
98DD
  8
AM_0
 10
286.1748872269464
 20
318.4639636314829
 30
0.0
 11
309.77953722694627
 21
317.63968363148291
 31
0.0
  0
LINE
  5
98E2
  8
AM_0
 10
217.67479722694631
 20
350.00232363148291
 30
0.0
 11
237.67479722694631
 21
350.00232363148291
 31
0.0
  0
LINE
  5
98E3
  8
AM_0
 10
217.67479722694631
 20
335.96368363148281
 30
0.0
 11
237.67479722694631
 21
335.96368363148281
 31
0.0
  0
LINE
  5
98E4
  8
AM_0
 10
217.6748572269463
 20
325.96399363148288
 30
0.0
 11
274.29835722694628
 21
323.9866336314829
 31
0.0
  0
ARC
  5
993A
  8
AM_0
 10
233.67479722694631
 20
329.40768363148283
 30
0.0
 40
4.0
 50
267.9999999999996
 51
0.0000006832462478
  0
LINE
  5
993B
  8
AM_0
 10
286.1748872269464
 20
318.46399363148288
 30
0.0
 11
280.17479722694668
 21
318.46399363148288
 31
0.0
  0
ARC
  5
993C
  8
AM_0
 10
274.19368722694639
 20
320.98849363148281
 30
0.0
 40
3.0
 50
4.545488300001014
 51
87.999999999999659
  0
ARC
  5
993D
  8
AM_0
 10
280.17479722694668
 20
321.46399363148288
 30
0.0
 40
3.0
 50
180.00001000000091
 51
270.0
  0
LINE
  5
993E
  8
AM_0
 10
286.17485722694641
 20
329.92398363148283
 30
0.0
 11
277.17479722694662
 21
329.92398363148283
 31
0.0
  0
LINE
  5
993F
  8
AM_0
 10
286.17485722694641
 20
344.81607363148282
 30
0.0
 11
277.17479722694662
 21
344.81607363148282
 31
0.0
  0
POLYLINE
  5
9940
  8
AM_0
 66
     1
 10
0.0
 20
0.0
 30
0.0
  0
VERTEX
  5
9941
  8
AM_0
 10
329.67485722694641
 20
343.68890363148279
 30
0.0
 42
-0.059991193
  0
VERTEX
  5
9942
  8
AM_0
 10
355.2636672269465
 20
327.75669363148268
 30
0.0
 42
-0.30883796
  0
VERTEX
  5
9943
  8
AM_0
 10
364.67482722694649
 20
311.8159536314829
 30
0.0
 42
-0.25905842
  0
VERTEX
  5
9944
  8
AM_0
 10
330.22515722694618
 20
292.02789363148281
 30
0.0
  0
SEQEND
  5
9945
  8
AM_0
  0
ARC
  5
9946
  8
AM_0
 10
327.67485722694641
 20
297.09665363148281
 30
0.0
 40
5.0
 50
268.5000000000004
 51
0.0000006832462478
  0
ARC
  5
9947
  8
AM_0
 10
377.67485722694641
 20
298.14407363148291
 30
0.0
 40
5.0
 50
180.00001000000091
 51
271.49999999999937
  0
ARC
  5
9948
  8
AM_0
 10
298.67485722694641
 20
295.85532363148292
 30
0.0
 40
3.0
 50
180.00001000000091
 51
268.5000000000004
  0
LINE
  5
9949
  8
AM_0
 10
328.67485722694641
 20
293.09665363148292
 30
0.0
 11
328.67485722694641
 21
296.43979363148293
 31
0.0
  0
LINE
  5
994A
  8
AM_0
 10
332.67485722694641
 20
291.96399363148288
 30
0.0
 11
402.7533772269465
 21
293.79907363148288
 31
0.0
  0
LINE
  5
994B
  8
AM_0
 10
298.59633722694639
 20
292.85638363148291
 30
0.0
 11
332.67485722694641
 21
291.96399363148288
 31
0.0
  0
ARC
  5
994C
  8
AM_0
 10
327.67485722694641
 20
293.09665363148292
 30
0.0
 40
1.0
 50
270.0
 51
0.0
  0
POLYLINE
  5
994D
  8
AM_0
 66
     1
 10
0.0
 20
0.0
 30
0.0
  0
VERTEX
  5
994E
  8
AM_0
 10
330.93839722694662
 20
302.03501363148291
 30
0.0
 42
0.021277534
  0
VERTEX
  5
994F
  8
AM_0
 10
341.76853722694642
 20
304.09153363148289
 30
0.0
 42
0.020622971
  0
VERTEX
  5
9950
  8
AM_0
 10
351.8932972269464
 20
306.90857363148291
 30
0.0
 42
0.022709
  0
VERTEX
  5
9951
  8
AM_0
 10
362.70021722694639
 20
310.95413363148282
 30
0.0
  0
SEQEND
  5
9952
  8
AM_0
  0
LINE
  5
9953
  8
AM_0
 10
312.6748572269463
 20
322.6554936314829
 30
0.0
 11
322.67482722694638
 21
322.6554936314829
 31
0.0
  0
LINE
  5
9954
  8
AM_0
 10
329.67485722694641
 20
299.71304363148272
 30
0.0
 11
317.50035722694639
 21
300.13818363148289
 31
0.0
  0
LINE
  5
9957
  8
AM_0
 10
295.6748572269463
 20
295.85532363148292
 30
0.0
 11
295.6748572269463
 21
314.7478936314829
 31
0.0
  0
ARC
  5
9958
  8
ｶｸﾚｾﾝ2
 10
310.6748572269463
 20
306.96399363148288
 30
0.0
 40
6.0
 50
302.21187999999933
 51
70.528778999998195
  0
ARC
  5
9959
  8
AM_0
 10
317.67485722694641
 20
305.13513363148292
 30
0.0
 40
5.0
 50
180.00001000000091
 51
267.9999999999996
  0
ARC
  5
995A
  8
AM_0
 10
310.6748572269463
 20
306.96399363148288
 30
0.0
 40
6.0
 50
70.528778999998195
 51
302.21187999999933
  0
ARC
  5
995B
  8
AM_0
 10
298.67485722694641
 20
314.7478936314829
 30
0.0
 40
3.0
 50
105.00000000000161
 51
180.00001000000091
  0
LINE
  5
995C
  8
AM_0
 10
297.89839722694637
 20
317.64566363148288
 30
0.0
 11
299.24855722694639
 21
318.00742363148288
 31
0.0
  0
ARC
  5
995D
  8
AM_0
 10
309.67485722694641
 20
314.64151363148289
 30
0.0
 40
3.0
 50
0.0
 51
87.999999999999659
  0
LINE
  5
995E
  8
AM_0
 10
329.67485722694641
 20
299.71304363148272
 30
0.0
 11
332.67485722694641
 21
299.71304363148272
 31
0.0
  0
ARC
  5
995F
  8
AM_0
 10
329.67485722694641
 20
296.43979363148293
 30
0.0
 40
1.0
 50
109.47121999999951
 51
180.00001000000091
  0
ARC
  5
9960
  8
AM_0
 10
327.67485722694641
 20
302.09665363148281
 30
0.0
 40
5.0
 50
289.4712300000017
 51
331.5287600000002
  0
LINE
  5
9961
  8
AM_0
 10
332.67485722694641
 20
297.09665363148281
 30
0.0
 11
332.67485722694641
 21
299.71304363148272
 31
0.0
  0
ARC
  5
9962
  8
AM_0
 10
380.67485722694641
 20
313.60989363148281
 30
0.0
 40
8.0
 50
91.999998000000545
 51
180.00001000000091
  0
LINE
  5
9963
  8
AM_0
 10
372.67485722694641
 20
298.14407363148291
 30
0.0
 11
372.67485722694641
 21
313.60989363148281
 31
0.0
  0
LINE
  5
9965
  8
AM_0
 10
405.67485722694641
 20
296.79803363148289
 30
0.0
 11
405.67485722694641
 21
323.96399363148288
 31
0.0
  0
CIRCLE
  5
9966
  8
AM_0
 10
390.67485722694641
 20
306.96399363148288
 30
0.0
 40
6.0
  0
ARC
  5
9968
  8
AM_0
 10
394.57667722694657
 20
322.23639363148288
 30
0.0
 40
5.0
 50
95.00000199999856
 51
152.896189999999
  0
ARC
  5
9969
  8
AM_0
 10
385.67485722694641
 20
326.79245363148289
 30
0.0
 40
5.0
 50
272.0000000000004
 51
0.0
  0
LINE
  5
996A
  8
AM_0
 10
385.84935722694638
 20
321.79547363148288
 30
0.0
 11
380.39564722694649
 21
321.60504363148289
 31
0.0
  0
LINE
  5
996B
  8
AM_0
 10
399.93632722694639
 20
327.7244036314828
 30
0.0
 11
394.1408872269464
 21
327.2173836314829
 31
0.0
  0
ARC
  5
996C
  8
AM_0
 10
399.67485722694641
 20
330.71298363148293
 30
0.0
 40
3.0
 50
274.99999999999972
 51
0.0
  0
ARC
  5
996D
  8
AM_0
 10
403.67485722694641
 20
327.83697363148281
 30
0.0
 40
1.0
 50
180.00001000000091
 51
255.5224900000002
  0
ARC
  5
996E
  8
AM_0
 10
404.6748572269463
 20
353.93814363148277
 30
0.0
 40
1.0
 50
271.49999999999937
 51
0.0
  0
ARC
  5
996F
  8
AM_0
 10
403.67485722694641
 20
351.91129363148292
 30
0.0
 40
1.0
 50
91.500001000001546
 51
180.00001000000091
  0
LINE
  5
9970
  8
AM_0
 10
403.6486772269464
 20
352.91092363148277
 30
0.0
 11
404.70103722694648
 21
352.93848363148282
 31
0.0
  0
LINE
  5
9971
  8
AM_0
 10
286.1748872269464
 20
445.4640236314828
 30
0.0
 11
309.77956722694648
 21
446.28830363148251
 31
0.0
  0
LINE
  5
9972
  8
AM_0
 10
286.17485722694641
 20
419.11191363148282
 30
0.0
 11
312.67482722694638
 21
419.11191363148282
 31
0.0
  0
LINE
  5
9973
  8
AM_0
 10
286.17485722694641
 20
434.00400363148282
 30
0.0
 11
312.67482722694638
 21
434.00400363148282
 31
0.0
  0
LINE
  5
9974
  8
AM_0
 10
217.67479722694631
 20
413.92566363148279
 30
0.0
 11
237.67479722694631
 21
413.92566363148279
 31
0.0
  0
LINE
  5
9975
  8
AM_0
 10
217.67479722694631
 20
427.9642936314828
 30
0.0
 11
237.67479722694631
 21
427.9642936314828
 31
0.0
  0
LINE
  5
9976
  8
AM_0
 10
274.29835722694628
 20
439.9412836314828
 30
0.0
 11
217.67479722694631
 21
437.96396363148278
 31
0.0
  0
LINE
  5
999D
  8
AM_0
 10
240.67479722694651
 20
384.96399363148282
 30
0.0
 11
274.1747972269464
 21
384.96399363148282
 31
0.0
  0
LINE
  5
999E
  8
AM_0
 10
240.67479722694651
 20
378.96399363148282
 30
0.0
 11
274.1747972269464
 21
378.96399363148282
 31
0.0
  0
ARC
  5
999F
  8
AM_0
 10
240.67479722694651
 20
387.96399363148282
 30
0.0
 40
3.0
 50
180.00001000000091
 51
270.0
  0
ARC
  5
99A0
  8
AM_0
 10
274.1747972269464
 20
387.96399363148282
 30
0.0
 40
3.0
 50
270.0
 51
0.0
  0
ARC
  5
99A1
  8
AM_0
 10
233.67479722694631
 20
434.52029363148262
 30
0.0
 40
4.0
 50
0.0
 51
91.999998000000545
  0
LINE
  5
99A2
  8
AM_0
 10
286.17485722694641
 20
419.11191363148282
 30
0.0
 11
277.17479722694662
 21
419.11191363148282
 31
0.0
  0
LINE
  5
99A3
  8
AM_0
 10
286.17485722694641
 20
434.00400363148282
 30
0.0
 11
277.17479722694662
 21
434.00400363148282
 31
0.0
  0
LINE
  5
99A4
  8
AM_0
 10
286.17485722694641
 20
445.46399363148282
 30
0.0
 11
280.17479722694668
 21
445.46399363148282
 31
0.0
  0
ARC
  5
99A5
  8
AM_0
 10
274.19368722694639
 20
442.9394836314828
 30
0.0
 40
3.0
 50
272.0000000000004
 51
355.45443000000142
  0
ARC
  5
99A6
  8
AM_0
 10
280.17479722694668
 20
442.46399363148282
 30
0.0
 40
3.0
 50
90.000003000000945
 51
180.00001000000091
  0
POLYLINE
  5
99A7
  8
AM_0
 66
     1
 10
0.0
 20
0.0
 30
0.0
  0
VERTEX
  5
99A8
  8
AM_0
 10
330.93839722694662
 20
461.893003631483
 30
0.0
 42
-0.021278282
  0
VERTEX
  5
99A9
  8
AM_0
 10
341.76852722694662
 20
459.83645363148293
 30
0.0
 42
-0.020621993
  0
VERTEX
  5
99AA
  8
AM_0
 10
351.8932972269464
 20
457.01938363148281
 30
0.0
 42
-0.022707914
  0
VERTEX
  5
99AB
  8
AM_0
 10
362.70021722694639
 20
452.97384363148262
 30
0.0
  0
SEQEND
  5
99AC
  8
AM_0
  0
POLYLINE
  5
99AD
  8
AM_0
 66
     1
 10
0.0
 20
0.0
 30
0.0
  0
VERTEX
  5
99AE
  8
AM_0
 10
329.67485722694641
 20
420.23907363148282
 30
0.0
 42
0.059991191
  0
VERTEX
  5
99AF
  8
AM_0
 10
355.2636672269465
 20
436.17129363148291
 30
0.0
 42
0.30883794
  0
VERTEX
  5
99B0
  8
AM_0
 10
364.67482722694649
 20
452.11203363148292
 30
0.0
 42
0.2590583
  0
VERTEX
  5
99B1
  8
AM_0
 10
330.2251772269463
 20
471.90011363148278
 30
0.0
  0
SEQEND
  5
99B2
  8
AM_0
  0
ARC
  5
99B3
  8
ｶｸﾚｾﾝ2
 10
310.6748572269463
 20
456.96396363148278
 30
0.0
 40
6.0
 50
289.4712300000017
 51
57.78807200000049
  0
ARC
  5
99B4
  8
AM_0
 10
317.67485722694641
 20
458.7928236314828
 30
0.0
 40
5.0
 50
91.999998000000545
 51
180.00001000000091
  0
ARC
  5
99B5
  8
AM_0
 10
310.6748572269463
 20
456.96396363148278
 30
0.0
 40
6.0
 50
57.78807200000049
 51
289.4712300000017
  0
CIRCLE
  5
99B6
  8
AM_0
 10
390.67485722694641
 20
456.96396363148278
 30
0.0
 40
6.0
  0
LINE
  5
99B7
  8
AM_0
 10
372.67485722694641
 20
450.31808363148281
 30
0.0
 11
372.67485722694641
 21
465.78390363148281
 31
0.0
  0
LINE
  5
99B8
  8
ﾁｭｳｼﾝｾﾝ
 10
390.67485722694641
 20
468.9639786314828
 30
0.0
 11
390.67485722694641
 21
444.9639786314828
 31
0.0
  0
LINE
  5
99BA
  8
AM_0
 10
405.67485722694641
 20
467.12997363148281
 30
0.0
 11
405.67485722694641
 21
439.96399363148271
 31
0.0
  0
LINE
  5
99BB
  8
AM_0
 10
295.6748572269463
 20
468.07266363148278
 30
0.0
 11
295.6748572269463
 21
449.18008363148277
 31
0.0
  0
LINE
  5
99BC
  8
AM_0
 10
312.6748572269463
 20
441.27249363148292
 30
0.0
 11
322.67482722694638
 21
441.27249363148292
 31
0.0
  0
ARC
  5
99BE
  8
AM_0
 10
298.67485722694641
 20
449.18008363148277
 30
0.0
 40
3.0
 50
180.00001000000091
 51
254.99999000000091
  0
LINE
  5
99BF
  8
AM_0
 10
297.89839722694637
 20
446.28232363148283
 30
0.0
 11
299.24855722694639
 21
445.92056363148282
 31
0.0
  0
ARC
  5
99C0
  8
AM_0
 10
309.67485722694641
 20
449.28647363148281
 30
0.0
 40
3.0
 50
272.0000000000004
 51
0.0
  0
ARC
  5
99C1
  8
AM_0
 10
404.6748572269463
 20
409.98984363148293
 30
0.0
 40
1.0
 50
0.0
 51
88.499997000000747
  0
ARC
  5
99C2
  8
AM_0
 10
403.67485722694641
 20
412.01669363148278
 30
0.0
 40
1.0
 50
180.00001000000091
 51
268.5000000000004
  0
LINE
  5
99C3
  8
AM_0
 10
403.64870722694639
 20
411.01706363148281
 30
0.0
 11
404.70103722694648
 21
410.98950363148288
 31
0.0
  0
ARC
  5
99C4
  8
AM_0
 10
380.67485722694641
 20
450.31808363148281
 30
0.0
 40
8.0
 50
180.00001000000091
 51
267.9999999999996
  0
ARC
  5
99C5
  8
AM_0
 10
394.57667722694657
 20
441.69159363148282
 30
0.0
 40
5.0
 50
207.10381000000089
 51
265.00001000000071
  0
ARC
  5
99C6
  8
AM_0
 10
385.67485722694641
 20
437.13553363148282
 30
0.0
 40
5.0
 50
0.0
 51
87.999999999999659
  0
LINE
  5
99C7
  8
AM_0
 10
399.93629722694641
 20
436.20358363148279
 30
0.0
 11
394.14085722694642
 21
436.71060363148291
 31
0.0
  0
ARC
  5
99C8
  8
AM_0
 10
399.67485722694641
 20
433.21500363148272
 30
0.0
 40
3.0
 50
0.0
 51
85.000004000001198
  0
ARC
  5
99C9
  8
AM_0
 10
403.67485722694641
 20
436.09100363148281
 30
0.0
 40
1.0
 50
104.4775099999998
 51
180.00001000000091
  0
LINE
  5
99CA
  8
ﾁｭｳｼﾝｾﾝ
 10
378.67485722695568
 20
456.96396363148278
 30
0.0
 11
402.67485722693698
 21
456.96396363148278
 31
0.0
  0
LINE
  5
99CB
  8
AM_0
 10
385.84932722694663
 20
442.13251363148282
 30
0.0
 11
380.39564722694649
 21
442.32294363148281
 31
0.0
  0
LINE
  5
99CC
  8
AM_0
 10
332.67485722694641
 20
471.96402363148292
 30
0.0
 11
402.7533772269465
 21
470.1289436314828
 31
0.0
  0
LINE
  5
99CD
  8
AM_0
 10
329.67485722694641
 20
464.21494363148281
 30
0.0
 11
317.50035722694639
 21
463.7897636314828
 31
0.0
  0
LINE
  5
99CE
  8
AM_0
 10
298.59633722694639
 20
471.07156363148272
 30
0.0
 11
332.67485722694641
 21
471.96396363148278
 31
0.0
  0
ARC
  5
99CF
  8
AM_0
 10
298.67485722694641
 20
468.07266363148278
 30
0.0
 40
3.0
 50
91.500001000001546
 51
180.00001000000091
  0
ARC
  5
99D0
  8
AM_0
 10
327.67485722694641
 20
466.83133363148278
 30
0.0
 40
5.0
 50
0.0
 51
91.500001000001546
  0
LINE
  5
99D1
  8
AM_0
 10
329.67485722694641
 20
464.21494363148281
 30
0.0
 11
332.67485722694641
 21
464.21494363148281
 31
0.0
  0
LINE
  5
99D2
  8
AM_0
 10
328.67485722694641
 20
470.83133363148272
 30
0.0
 11
328.67485722694641
 21
467.488193631483
 31
0.0
  0
ARC
  5
99D3
  8
AM_0
 10
329.67485722694641
 20
467.488193631483
 30
0.0
 40
1.0
 50
180.00001000000091
 51
250.52876999999819
  0
ARC
  5
99D4
  8
AM_0
 10
327.67485722694641
 20
461.83133363148278
 30
0.0
 40
5.0
 50
28.471238999999581
 51
70.528778999998195
  0
ARC
  5
99D5
  8
AM_0
 10
327.67485722694641
 20
470.83133363148272
 30
0.0
 40
1.0
 50
0.0
 51
90.000003000000945
  0
LINE
  5
99D6
  8
AM_0
 10
332.67485722694641
 20
466.83133363148278
 30
0.0
 11
332.67485722694641
 21
464.21494363148281
 31
0.0
  0
ARC
  5
99D7
  8
AM_0
 10
377.67485722694641
 20
465.78390363148281
 30
0.0
 40
5.0
 50
88.499997000000747
 51
180.00001000000091
  0
LINE
  5
99D8
  8
AM_0
 10
408.6748572269463
 20
396.96399363148282
 30
0.0
 11
408.6748572269463
 21
366.96399363148282
 31
0.0
  0
LINE
  5
99D9
  8
AM_0
 10
450.67482722694638
 20
395.96402363148292
 30
0.0
 11
450.67482722694638
 21
367.96402363148292
 31
0.0
  0
LINE
  5
99DA
  8
AM_0
 10
408.6748572269463
 20
367.96402363148292
 30
0.0
 11
450.67482722694638
 21
367.96402363148292
 31
0.0
  0
LINE
  5
99DB
  8
AM_0
 10
418.67482722694649
 20
385.96396363148278
 30
0.0
 11
450.67482722694638
 21
385.96396363148278
 31
0.0
  0
LINE
  5
99DC
  8
AM_0
 10
418.67482722694649
 20
377.96399363148282
 30
0.0
 11
450.67482722694638
 21
377.96399363148282
 31
0.0
  0
LINE
  5
99DD
  8
AM_0
 10
408.6748572269463
 20
395.96402363148292
 30
0.0
 11
450.67482722694638
 21
395.96402363148292
 31
0.0
  0
ARC
  5
99DE
  8
AM_0
 10
418.67482722694649
 20
381.96396363148278
 30
0.0
 40
3.9999962
 50
90.000003000000945
 51
270.0
  0
LINE
  5
99DF
  8
AM_0
 10
418.67482722694649
 20
385.96396363148278
 30
0.0
 11
418.67482722694649
 21
377.96399363148282
 31
0.0
  0
LINE
  5
9BB0
  8
AM_0
 10
207.8804872269464
 20
342.64505363148288
 30
0.0
 11
203.73473722694641
 21
327.16394363148282
 31
0.0
  0
LINE
  5
9BB1
  8
AM_0
 10
208.67479722694631
 20
328.9639636314829
 30
0.0
 11
202.94899722694629
 21
320.14700363148279
 31
0.0
  0
LINE
  5
9BB2
  8
AM_0
 10
204.21684722694641
 20
328.96399363148288
 30
0.0
 11
209.6747972269464
 21
328.96399363148288
 31
0.0
  0
ARC
  5
9BB3
  8
AM_0
 10
206.49480722694631
 20
346.91894363148288
 30
0.0
 40
1.6750020000000001
 50
269.999989999999
 51
90.00000299999769
  0
ARC
  5
9BB4
  8
AM_0
 10
209.32799722694639
 20
342.24121363148282
 30
0.0
 40
1.502775999999999
 50
90.122413000001615
 51
165.2435700000006
  0
ARC
  5
9BB5
  8
AM_0
 10
206.71477722694641
 20
356.93396363148292
 30
0.0
 40
1.460011199999999
 50
269.77524999999662
 51
90.224749999996845
  0
LINE
  5
9BB6
  8
AM_0
 10
207.88051722694641
 20
425.9828236314828
 30
0.0
 11
203.7347972269464
 21
441.4639336314828
 31
0.0
  0
LINE
  5
9BB7
  8
AM_0
 10
207.88054722694639
 20
426.89282363148271
 30
0.0
 11
203.73482722694641
 21
442.37393363148283
 31
0.0
  0
ARC
  5
9BB8
  8
AM_0
 10
206.49480722694631
 20
417.00903363148279
 30
0.0
 40
1.6750020000000001
 50
269.999989999999
 51
90.00000299999769
  0
ARC
  5
9BB9
  8
AM_0
 10
206.71477722694641
 20
406.99402363148278
 30
0.0
 40
1.460011199999999
 50
269.77524999999662
 51
90.224749999996845
  0
LINE
  5
9BBA
  8
AM_0
 10
207.88051722694641
 20
424.13284363148279
 30
0.0
 11
203.7347972269464
 21
439.61398363148282
 31
0.0
  0
LINE
  5
9BBB
  8
AM_0
 10
207.8748072269463
 20
421.3039236314828
 30
0.0
 11
203.7347972269464
 21
436.76394363148302
 31
0.0
  0
ARC
  5
9BBC
  8
AM_0
 10
209.32799722694639
 20
426.38672363148282
 30
0.0
 40
1.502775999999999
 50
194.7564299999992
 51
269.8775799999986
  0
ARC
  5
9BBD
  8
AM_0
 10
209.32799722694639
 20
427.29675363148277
 30
0.0
 40
1.502775999999999
 50
194.7564299999992
 51
269.8775799999986
  0
ARC
  5
9BBE
  8
AM_0
 10
209.32799722694639
 20
421.68677363148282
 30
0.0
 40
1.502775999999999
 50
194.7564299999992
 51
269.8775799999986
  0
ARC
  5
9BBF
  8
AM_0
 10
209.32799722694639
 20
424.53674363148281
 30
0.0
 40
1.502775999999999
 50
194.7564299999992
 51
269.8775799999986
  0
LINE
  5
9BC0
  8
AM_0
 10
204.21477722694641
 20
434.96399363148282
 30
0.0
 11
209.6747972269464
 21
434.96399363148282
 31
0.0
  0
LINE
  5
9BC1
  8
AM_0
 10
196.45208592437231
 20
295.46399363148288
 30
0.0
 11
196.45208592437231
 21
311.46399363148288
 31
0.0
  0
LINE
  5
9BC2
  8
AM_0
 10
181.4520859243724
 20
295.34912011445482
 30
0.0
 11
181.4520859243724
 21
312.46399363148288
 31
0.0
  0
LINE
  5
9BC3
  8
AM_0
 10
171.5903758404333
 20
293.66888117485883
 30
0.0
 11
171.5903758404333
 21
307.46399363148288
 31
0.0
  0
LINE
  5
9BC4
  8
AM_0
 10
133.57695965852531
 20
312.46399363148288
 30
0.0
 11
133.57695965852531
 21
295.46399363148288
 31
0.0
  0
LINE
  5
9BC5
  8
AM_0
 10
114.9769596585253
 20
312.46399363148288
 30
0.0
 11
114.9769596585253
 21
295.46399363148288
 31
0.0
  0
LINE
  5
9BC6
  8
AM_0
 10
109.17695965852531
 20
311.46399363148288
 30
0.0
 11
109.17695965852531
 21
288.46399363148299
 31
0.0
  0
LINE
  5
9BC7
  8
AM_0
 10
151.57360561304631
 20
307.46399363148288
 30
0.0
 11
151.57360561304631
 21
290.25842228945891
 31
0.0
  0
LINE
  5
9BC8
  8
AM_0
 10
149.37360561304629
 20
289.88358611645799
 30
0.0
 11
149.37360561304629
 21
307.46399363148288
 31
0.0
  0
LINE
  5
9BC9
  8
AM_0
 10
147.87360561304629
 20
307.46399363148288
 30
0.0
 11
147.87360561304729
 21
289.62801599850189
 31
0.0
  0
LINE
  5
9BCA
  8
AM_0
 10
145.67360561304631
 20
289.25317982550092
 30
0.0
 11
145.67360561304631
 21
307.46399363148402
 31
0.0
  0
LINE
  5
9BCB
  8
AM_0
 10
143.67360561304631
 20
304.75261745228488
 30
0.0
 11
143.67360561304631
 21
288.91241966822707
 31
0.0
  0
LINE
  5
9BCC
  8
AM_0
 10
155.27695965852431
 20
307.46399363148288
 30
0.0
 11
155.27695965852431
 21
290.88940004294801
 31
0.0
  0
LINE
  5
9BCD
  8
AM_0
 10
153.07360561304631
 20
290.51399240741398
 30
0.0
 11
153.07360561304631
 21
307.46399363148288
 31
0.0
  0
LINE
  5
9BCE
  8
AM_0
 10
167.88702179495641
 20
293.03790342136972
 30
0.0
 11
167.88702179495641
 21
307.46399363148288
 31
0.0
  0
LINE
  5
9BCF
  8
AM_0
 10
166.38702179495641
 20
307.46399363148288
 30
0.0
 11
166.38702179495641
 21
292.78233330341368
 31
0.0
  0
LINE
  5
9BD0
  8
AM_0
 10
164.18366774947941
 20
292.4069256678809
 30
0.0
 11
164.18366774947941
 21
307.46399363148288
 31
0.0
  0
LINE
  5
9BD1
  8
AM_0
 10
162.68366774947941
 20
307.46399363148288
 30
0.0
 11
162.68366774947941
 21
292.15135554992588
 31
0.0
  0
LINE
  5
9BD2
  8
AM_0
 10
160.4803137040013
 20
291.77594791439202
 30
0.0
 11
160.4803137040013
 21
307.46399363148288
 31
0.0
  0
LINE
  5
9BD3
  8
AM_0
 10
158.9803137040013
 20
307.46399363148288
 30
0.0
 11
158.9803137040013
 21
291.520377796437
 31
0.0
  0
LINE
  5
9BD4
  8
AM_0
 10
157.27695965852709
 20
291.23016020022192
 30
0.0
 11
157.27695965852709
 21
304.75261745228488
 31
0.0
  0
LINE
  5
9BD5
  8
AM_0
 10
170.09037584043321
 20
307.46399363148288
 30
0.0
 11
170.09037584043321
 21
293.4133110569029
 31
0.0
  0
LINE
  5
9BD6
  8
AM_0
 10
188.40265479536629
 20
291.46399363148288
 30
0.0
 11
112.10265479536631
 21
278.46399363148288
 31
0.0
  0
LINE
  5
9BD7
  8
AM_0
 10
187.57695965852631
 20
278.46399363148288
 30
0.0
 11
112.10265479536631
 21
278.46399363148288
 31
0.0
  0
LINE
  5
9BD8
  8
AM_0
 10
111.7769596585254
 20
282.46399363148288
 30
0.0
 11
188.07695965852531
 21
295.46399363148288
 31
0.0
  0
LINE
  5
9BD9
  8
AM_0
 10
111.7769596585254
 20
282.46399363148288
 30
0.0
 11
188.07695965852531
 21
295.46399363148288
 31
0.0
  0
LINE
  5
9BDA
  8
AM_0
 10
111.6955358743143
 20
283.46399363148288
 30
0.0
 11
143.67360561304631
 21
288.91241966822707
 31
0.0
  0
LINE
  5
9BDB
  8
AM_0
 10
107.67695965852531
 20
282.163993631484
 30
0.0
 11
107.67695965852531
 21
279.96399363148288
 31
0.0
  0
LINE
  5
9BDC
  8
AM_0
 10
107.1769596585264
 20
287.16399363148389
 30
0.0
 11
107.1769596585264
 21
279.96399363148288
 31
0.0
  0
ARC
  5
9BDD
  8
AM_0
 10
109.17695965852531
 20
279.96399363148288
 30
0.0
 40
1.5
 50
180.0
 51
270.0
  0
ARC
  5
9BDE
  8
AM_0
 10
108.6769596585264
 20
279.96399363148402
 30
0.0
 40
1.5
 50
180.00000000000659
 51
269.99999999999341
  0
LINE
  5
9BDF
  8
AM_0
 10
109.17695965852531
 20
278.46399363148288
 30
0.0
 11
112.10265479536631
 21
278.46399363148288
 31
0.0
  0
LINE
  5
9BE0
  8
AM_0
 10
108.6769596585264
 20
278.46399363148288
 30
0.0
 11
108.9754455546834
 21
278.46399363148402
 31
0.0
  0
LINE
  5
9BE1
  8
AM_0
 10
108.67695965852531
 20
283.46399363148288
 30
0.0
 11
108.67695965852531
 21
287.16399363148389
 31
0.0
  0
LINE
  5
9BE2
  8
AM_0
 10
109.17695965852531
 20
288.46399363148299
 30
0.0
 11
109.1769596585243
 21
283.46399363148288
 31
0.0
  0
LINE
  5
9BE3
  8
AM_0
 10
108.87695965852529
 20
285.65963631219893
 30
0.0
 11
108.87695965852529
 21
288.26399363148408
 31
0.0
  0
LINE
  5
9BE4
  8
AM_0
 10
111.6955358743143
 20
283.46399363148288
 30
0.0
 11
107.9769596585253
 21
283.46399363148288
 31
0.0
  0
LINE
  5
9BE5
  8
AM_0
 10
107.9769596585253
 20
282.46399363148288
 30
0.0
 11
111.7769596585254
 21
282.46399363148288
 31
0.0
  0
LINE
  5
9BE6
  8
AM_0
 10
107.67695965852531
 20
282.46399363148288
 30
0.0
 11
111.7769596585254
 21
282.46399363148288
 31
0.0
  0
ARC
  5
9BE7
  8
AM_0
 10
107.9769596585253
 20
283.16399363148389
 30
0.0
 40
0.3
 50
90.0
 51
180.0
  0
ARC
  5
9BE8
  8
AM_0
 10
107.9769596585253
 20
282.163993631484
 30
0.0
 40
0.3
 50
90.0
 51
180.0
  0
LINE
  5
9BE9
  8
AM_0
 10
107.67695965852531
 20
283.16399363148389
 30
0.0
 11
107.67695965852531
 21
282.46399363148288
 31
0.0
  0
LINE
  5
9BEA
  8
AM_0
 10
108.87695965852529
 20
283.46399363148288
 30
0.0
 11
108.87695965852529
 21
284.45963631219882
 31
0.0
  0
LINE
  5
9BEB
  8
AM_0
 10
108.87695965852529
 20
284.45963631219882
 30
0.0
 11
108.67695965852531
 21
284.45963631219882
 31
0.0
  0
LINE
  5
9BEC
  8
AM_0
 10
108.87695965852529
 20
284.45963631219882
 30
0.0
 11
108.87695965852529
 21
285.65963631219893
 31
0.0
  0
LINE
  5
9BED
  8
AM_0
 10
108.67695965852531
 20
285.65963631219893
 30
0.0
 11
108.87695965852529
 21
285.65963631219893
 31
0.0
  0
LINE
  5
9BEE
  8
AM_0
 10
108.37695965852519
 20
287.46399363148288
 30
0.0
 11
107.9769596585253
 21
287.46399363148288
 31
0.0
  0
LINE
  5
9BEF
  8
AM_0
 10
107.9769596585253
 20
287.46399363148288
 30
0.0
 11
107.4769596585263
 21
287.46399363148288
 31
0.0
  0
ARC
  5
9BF0
  8
AM_0
 10
107.4769596585263
 20
287.16399363148389
 30
0.0
 40
0.3
 50
90.0
 51
180.0
  0
LINE
  5
9BF1
  8
AM_0
 10
108.87695965852529
 20
288.26399363148408
 30
0.0
 11
109.0769596585253
 21
288.46399363148299
 31
0.0
  0
LINE
  5
9BF2
  8
AM_0
 10
109.0769596585253
 20
288.46399363148299
 30
0.0
 11
109.17695965852531
 21
288.46399363148299
 31
0.0
  0
ARC
  5
9BF3
  8
AM_0
 10
108.37695965852519
 20
287.16399363148389
 30
0.0
 40
0.3
 50
0.0
 51
90.0
  0
ARC
  5
9BF4
  8
AM_0
 10
124.2769596585254
 20
295.46399363148288
 30
0.0
 40
9.3000000000000007
 50
180.0
 51
0.0
  0
CIRCLE
  5
9BF5
  8
AM_0
 10
124.2769596585254
 20
295.46399363148288
 30
0.0
 40
6.299999999999998
  0
CIRCLE
  5
9BF6
  8
AM_0
 10
138.77695965852541
 20
295.46399363148288
 30
0.0
 40
0.75
  0
LINE
  5
9BF7
  8
AM_0
 10
171.5903758404333
 20
293.66888117485883
 30
0.0
 11
181.4520859243724
 21
295.34912011445482
 31
0.0
  0
LINE
  5
9BF8
  8
AM_0
 10
145.67360561304631
 20
289.25317982550092
 30
0.0
 11
147.87360561304729
 21
289.62801599850189
 31
0.0
  0
LINE
  5
9BF9
  8
AM_0
 10
149.37360561304629
 20
289.88358611645799
 30
0.0
 11
151.57360561304631
 21
290.25842228945891
 31
0.0
  0
LINE
  5
9BFA
  8
AM_0
 10
153.07360561304631
 20
290.51399240741398
 30
0.0
 11
155.27695965852431
 21
290.88940004294801
 31
0.0
  0
LINE
  5
9BFB
  8
AM_0
 10
157.27695965852709
 20
291.23016020022192
 30
0.0
 11
158.9803137040013
 21
291.520377796437
 31
0.0
  0
LINE
  5
9BFC
  8
AM_0
 10
160.4803137040013
 20
291.77594791439202
 30
0.0
 11
162.68366774947941
 21
292.15135554992588
 31
0.0
  0
LINE
  5
9BFD
  8
AM_0
 10
167.88702179495641
 20
293.03790342136972
 30
0.0
 11
170.09037584043321
 21
293.4133110569029
 31
0.0
  0
LINE
  5
9BFE
  8
AM_0
 10
164.18366774947941
 20
292.4069256678809
 30
0.0
 11
166.38702179495641
 21
292.78233330341368
 31
0.0
  0
CIRCLE
  5
9BFF
  8
AM_0
 10
173.27695965852541
 20
295.46399363148288
 30
0.0
 40
0.75
  0
LINE
  5
9C00
  8
AM_0
 10
190.07695965852639
 20
290.96399363148288
 30
0.0
 11
190.07695965852639
 21
280.96399363148288
 31
0.0
  0
LINE
  5
9C01
  8
AM_0
 10
179.80711117754331
 20
278.46399363148288
 30
0.0
 11
179.80711117754331
 21
289.99948423395108
 31
0.0
  0
ARC
  5
9C02
  8
AM_0
 10
187.57695965852631
 20
280.96399363148288
 30
0.0
 40
2.5
 50
270.0
 51
0.0
  0
LINE
  5
9C03
  8
AM_0
 10
196.45208592437231
 20
295.46399363148288
 30
0.0
 11
188.07695965852531
 21
295.46399363148288
 31
0.0
  0
LINE
  5
9C04
  8
AM_0
 10
190.57695965852631
 20
291.46399363148288
 30
0.0
 11
195.9520859243724
 21
291.46399363148288
 31
0.0
  0
LINE
  5
9C05
  8
AM_0
 10
180.67695965852641
 20
290.14978840418593
 30
0.0
 11
180.67695965852641
 21
294.20318104956982
 31
0.0
  0
LINE
  5
9C06
  8
AM_0
 10
190.57695965852631
 20
291.46399363148288
 30
0.0
 11
188.40265479536629
 21
291.46399363148288
 31
0.0
  0
ARC
  5
9C07
  8
AM_0
 10
190.57695965852631
 20
290.96399363148288
 30
0.0
 40
0.5
 50
90.0
 51
180.0
  0
LINE
  5
9C08
  8
AM_0
 10
196.45208592437231
 20
295.46399363148288
 30
0.0
 11
196.45208592437231
 21
291.96399363148288
 31
0.0
  0
ARC
  5
9C09
  8
AM_0
 10
195.9520859243724
 20
291.96399363148288
 30
0.0
 40
0.5
 50
270.0
 51
0.0
  0
LINE
  5
9C0B
  8
AM_0
 10
47.173367126946403
 20
316.96399363148288
 30
0.0
 11
84.674797226946467
 21
316.96399363148288
 31
0.0
  0
LINE
  5
9C0C
  8
AM_0
 10
68.674797226946453
 20
323.21399363148288
 30
0.0
 11
93.674797226946424
 21
323.21399363148288
 31
0.0
  0
LINE
  5
9C0E
  8
AM_0
 10
46.174797226946453
 20
338.07300363148278
 30
0.0
 11
88.674797226946424
 21
338.07300363148278
 31
0.0
  0
LINE
  5
9C10
  8
AM_0
 10
46.174797226946453
 20
348.32300363148278
 30
0.0
 11
88.674797226946424
 21
348.32300363148278
 31
0.0
  0
LINE
  5
9C11
  8
AM_0
 10
45.674797226946453
 20
329.21399363148288
 30
0.0
 11
93.674797226946424
 21
329.21399363148288
 31
0.0
  0
LINE
  5
9C12
  8
AM_0
 10
47.173367126946403
 20
446.96399363148282
 30
0.0
 11
84.674797226946467
 21
446.96399363148282
 31
0.0
  0
LINE
  5
9C1B
  8
AM_0
 10
43.173367126946403
 20
416.70245472719012
 30
0.0
 11
43.173367126946403
 21
347.22553253577553
 31
0.0
  0
LINE
  5
9C1C
  8
AM_0
 10
43.674797226946453
 20
347.43493363148292
 30
0.0
 11
43.674797226946453
 21
416.49304363148281
 31
0.0
  0
LINE
  5
9C1D
  8
AM_0
 10
38.173367126946403
 20
437.96399363148282
 30
0.0
 11
38.173367126946403
 21
325.96399363148288
 31
0.0
  0
LINE
  5
9C1E
  8
AM_0
 10
46.174797226946453
 20
329.18200363148293
 30
0.0
 11
46.174797226946453
 21
434.71399363148282
 31
0.0
  0
ARC
  5
9C1F
  8
AM_0
 10
44.57482722694634
 20
344.57300363148278
 30
0.0
 40
3.0
 50
89.999988999997569
 51
179.99997999999781
  0
LINE
  5
9C20
  8
AM_0
 10
48.173367126946403
 20
321.96399363148288
 30
0.0
 11
71.674797226946453
 21
321.96399363148288
 31
0.0
  0
ARC
  5
9C21
  8
AM_0
 10
48.173367126946403
 20
326.96399363148288
 30
0.0
 40
5.0
 50
179.99997999999781
 51
269.99995000000138
  0
ARC
  5
9C22
  8
AM_0
 10
47.173367126946403
 20
325.96399363148288
 30
0.0
 40
9.0
 50
179.99997999999781
 51
269.99995000000138
  0
LINE
  5
9C23
  8
AM_0
 10
43.674797226946453
 20
338.71106363148289
 30
0.0
 11
43.674797226946453
 21
331.21399363148288
 31
0.0
  0
LINE
  5
9C24
  8
AM_0
 10
43.173367126946403
 20
338.92047472719008
 30
0.0
 11
43.173367126946403
 21
326.96399363148288
 31
0.0
  0
ARC
  5
9C25
  8
AM_0
 10
45.674797226946453
 20
331.21399363148288
 30
0.0
 40
2.0
 50
179.99997999999781
 51
269.99995000000138
  0
LINE
  5
9C26
  8
AM_0
 10
41.57482722694634
 20
344.57300363148278
 30
0.0
 11
41.57482722694634
 21
341.57300363148278
 31
0.0
  0
LINE
  5
9C27
  8
AM_0
 10
44.874807226946373
 20
347.67297363148288
 30
0.0
 11
44.874807226946373
 21
338.47302363148282
 31
0.0
  0
ARC
  5
9C28
  8
AM_0
 10
44.57482722694634
 20
341.57300363148278
 30
0.0
 40
3.0
 50
179.99997999999781
 51
269.99995000000138
  0
LINE
  5
9C29
  8
AM_0
 10
44.57482722694634
 20
338.57300363148289
 30
0.0
 11
44.874807226946373
 21
338.57300363148289
 31
0.0
  0
LINE
  5
9C2A
  8
AM_0
 10
44.874807226946373
 20
338.47302363148282
 30
0.0
 11
46.174797226946453
 21
338.47302363148282
 31
0.0
  0
LINE
  5
9C2B
  8
AM_0
 10
44.57482722694634
 20
347.57300363148278
 30
0.0
 11
44.874807226946373
 21
347.57300363148278
 31
0.0
  0
LINE
  5
9C2C
  8
AM_0
 10
44.874807226946373
 20
347.67297363148288
 30
0.0
 11
46.174797226946453
 21
347.67297363148288
 31
0.0
  0
LINE
  5
9C2D
  8
AM_0
 10
68.674797226946453
 20
323.21399363148288
 30
0.0
 11
68.674797226946453
 21
329.21399363148288
 31
0.0
  0
LINE
  5
9C2E
  8
AM_0
 10
71.674797226946453
 20
323.21399363148288
 30
0.0
 11
71.674797226946453
 21
316.96399363148288
 31
0.0
  0
LINE
  5
9C2F
  8
AM_0
 10
37.17482722694642
 20
376.96399363148282
 30
0.0
 11
37.17482722694642
 21
386.96399363148282
 31
0.0
  0
LINE
  5
9C30
  8
AM_0
 10
38.173367126946403
 20
376.96399363148282
 30
0.0
 11
37.17482722694642
 21
376.96399363148282
 31
0.0
  0
LINE
  5
9C31
  8
AM_0
 10
43.674797226946453
 20
376.96399363148282
 30
0.0
 11
43.173367126946403
 21
376.96399363148282
 31
0.0
  0
LINE
  5
9C32
  8
AM_0
 10
38.173367126946403
 20
386.96399363148282
 30
0.0
 11
37.17482722694642
 21
386.96399363148282
 31
0.0
  0
LINE
  5
9C33
  8
AM_0
 10
43.674797226946453
 20
386.96399363148282
 30
0.0
 11
43.173367126946403
 21
386.96399363148282
 31
0.0
  0
LINE
  5
9C3D
  8
AM_0
 10
48.173367126946403
 20
441.96399363148282
 30
0.0
 11
71.674797226946453
 21
441.96399363148282
 31
0.0
  0
ARC
  5
9C3E
  8
AM_0
 10
47.173367126946403
 20
437.96399363148282
 30
0.0
 40
9.0
 50
89.999988999997569
 51
179.99997999999781
  0
ARC
  5
9C3F
  8
AM_0
 10
48.173367126946403
 20
436.96399363148282
 30
0.0
 40
5.0
 50
89.999988999997569
 51
180.0
  0
LINE
  5
9C41
  8
AM_0
 10
71.674797226946453
 20
440.71399363148282
 30
0.0
 11
71.674797226946453
 21
446.96399363148282
 31
0.0
  0
POLYLINE
  5
9C43
  8
AM_0
 66
     1
 10
0.0
 20
0.0
 30
0.0
  0
VERTEX
  5
9C44
  8
AM_0
 10
104.07884722694639
 20
388.23437363148292
 30
0.0
 42
-0.00076691992
  0
VERTEX
  5
9C45
  8
AM_0
 10
104.0936472269463
 20
388.85214363148287
 30
0.0
 42
-0.00073262792
  0
VERTEX
  5
9C46
  8
AM_0
 10
104.1102872269464
 20
389.469733631483
 30
0.0
 42
-0.00076529537
  0
VERTEX
  5
9C47
  8
AM_0
 10
104.1287772269463
 20
390.08740363148291
 30
0.0
 42
-0.00075141097
  0
VERTEX
  5
9C48
  8
AM_0
 10
104.1491472269464
 20
390.70500363148278
 30
0.0
 42
-0.00075841687
  0
VERTEX
  5
9C49
  8
AM_0
 10
104.1713772269464
 20
391.3224336314828
 30
0.0
 42
-0.00075711788
  0
VERTEX
  5
9C4A
  8
AM_0
 10
104.1954872269464
 20
391.93994363148289
 30
0.0
 42
-0.00075976003
  0
VERTEX
  5
9C4B
  8
AM_0
 10
104.22147722694631
 20
392.55733363148278
 30
0.0
 42
-0.00075797311
  0
VERTEX
  5
9C4C
  8
AM_0
 10
104.2493172269464
 20
393.174613631483
 30
0.0
 42
-0.0007482613
  0
VERTEX
  5
9C4D
  8
AM_0
 10
104.2790472269464
 20
393.79199363148291
 30
0.0
 42
-0.00074893561
  0
VERTEX
  5
9C4E
  8
AM_0
 10
104.3106072269463
 20
394.409123631483
 30
0.0
 42
-0.00076039839
  0
VERTEX
  5
9C4F
  8
AM_0
 10
104.34402722694639
 20
395.02615363148283
 30
0.0
 42
-0.00075618786
  0
VERTEX
  5
9C50
  8
AM_0
 10
104.3793272269464
 20
395.6431936314828
 30
0.0
  0
SEQEND
  5
9C51
  8
AM_0
  0
LINE
  5
9C52
  8
AM_0
 10
101.6747972269464
 20
434.96399363148282
 30
0.0
 11
101.6747972269464
 21
328.96399363148288
 31
0.0
  0
LINE
  5
9C53
  8
AM_0
 10
93.674797226946424
 20
440.71399363148282
 30
0.0
 11
93.674797226946424
 21
323.21399363148288
 31
0.0
  0
LINE
  5
9C54
  8
AM_0
 10
103.1348172269464
 20
358.40393363148291
 30
0.0
 11
206.70903722694641
 21
358.40393363148291
 31
0.0
  0
LINE
  5
9C55
  8
AM_0
 10
203.0076272269464
 20
357.96399363148282
 30
0.0
 11
104.03478722694651
 21
357.96399363148282
 31
0.0
  0
LINE
  5
9C56
  8
AM_0
 10
144.37360561304629
 20
305.41996950888893
 30
0.0
 11
143.67360561304631
 21
304.75261745228488
 31
0.0
  0
LINE
  5
9C57
  8
AM_0
 10
145.67360561304631
 20
303.46399363148288
 30
0.0
 11
143.67360561304631
 21
303.46399363148288
 31
0.0
  0
LINE
  5
9C58
  8
AM_0
 10
158.67479722694631
 20
345.96399363148282
 30
0.0
 11
104.03478722694651
 21
345.96399363148282
 31
0.0
  0
LINE
  5
9C59
  8
AM_0
 10
158.67479722694631
 20
347.96399363148282
 30
0.0
 11
104.03478722694651
 21
347.96399363148282
 31
0.0
  0
LINE
  5
9C5A
  8
AM_0
 10
103.3547872269464
 20
348.59399363148287
 30
0.0
 11
170.69481722694641
 21
348.59399363148287
 31
0.0
  0
LINE
  5
9C5B
  8
AM_0
 10
103.3547872269464
 20
345.24402363148278
 30
0.0
 11
158.67479722694631
 21
345.24402363148278
 31
0.0
  0
LINE
  5
9C5C
  8
AM_0
 10
103.1348172269464
 20
355.4740036314829
 30
0.0
 11
170.6747972269464
 21
355.4740036314829
 31
0.0
  0
LINE
  5
9C5D
  8
AM_0
 10
170.6747972269464
 20
355.96399363148282
 30
0.0
 11
104.03478722694651
 21
355.96399363148282
 31
0.0
  0
LINE
  5
9C5E
  8
AM_0
 10
104.8848172269464
 20
325.68396363148292
 30
0.0
 11
201.80480722694631
 21
325.68396363148292
 31
0.0
  0
LINE
  5
9C5F
  8
AM_0
 10
192.17479722694631
 20
314.96399363148288
 30
0.0
 11
125.1747972269464
 21
314.96399363148288
 31
0.0
  0
LINE
  5
9C60
  8
AM_0
 10
177.57695965852531
 20
312.46399363148288
 30
0.0
 11
139.77695965852541
 21
312.46399363148288
 31
0.0
  0
ARC
  5
9C61
  8
AM_0
 10
103.34795722694631
 20
346.91894363148288
 30
0.0
 40
1.675014
 50
89.766498999996756
 51
270.2335099999994
  0
ARC
  5
9C62
  8
AM_0
 10
104.2194172269464
 20
346.96399363148282
 30
0.0
 40
1.000013899999999
 50
89.691659999999231
 51
270.30834000000078
  0
LINE
  5
9C64
  8
AM_0
 10
104.5810472269464
 20
322.83398363148291
 30
0.0
 11
127.00744742561319
 21
322.83398363148291
 31
0.0
  0
LINE
  5
9C65
  8
AM_0
 10
110.17695965852531
 20
312.46399363148288
 30
0.0
 11
114.9769596585253
 21
312.46399363148288
 31
0.0
  0
LINE
  5
9C66
  8
AM_0
 10
101.6747972269464
 20
331.18399363148291
 30
0.0
 11
102.6002772269464
 21
324.5573736314829
 31
0.0
  0
LINE
  5
9C67
  8
AM_0
 10
101.6747972269464
 20
331.18393363148277
 30
0.0
 11
102.68401722694639
 21
324.53390363148281
 31
0.0
  0
LINE
  5
9C68
  8
AM_0
 10
101.6747972269464
 20
332.52392363148289
 30
0.0
 11
102.9547672269463
 21
324.52398363148291
 31
0.0
  0
ARC
  5
9C69
  8
AM_0
 10
104.8796372269464
 20
327.68323363148289
 30
0.0
 40
1.9992490000000001
 50
190.643100000001
 51
270.14743000000129
  0
LINE
  5
9C6A
  8
AM_0
 10
84.674797226946467
 20
321.96399363148288
 30
0.0
 11
84.674797226946467
 21
316.96399363148288
 31
0.0
  0
LINE
  5
9C6B
  8
AM_0
 10
81.674797226946453
 20
323.21399363148288
 30
0.0
 11
81.674797226946453
 21
316.96399363148288
 31
0.0
  0
LINE
  5
9C6C
  8
AM_0
 10
81.674797226946453
 20
321.96399363148288
 30
0.0
 11
84.674797226946467
 21
321.96399363148288
 31
0.0
  0
ARC
  5
9C6D
  8
AM_0
 10
110.17695965852531
 20
311.46399363148288
 30
0.0
 40
1.0
 50
90.0
 51
180.0
  0
ARC
  5
9C6E
  8
AM_0
 10
104.5810472269464
 20
324.83398363148291
 30
0.0
 40
2.0
 50
187.9504400000034
 51
269.999989999999
  0
ARC
  5
9C6F
  8
AM_0
 10
104.6614272269464
 20
324.83398363148291
 30
0.0
 40
2.0
 50
188.62962000000411
 51
269.999989999999
  0
ARC
  5
9C70
  8
AM_0
 10
104.93096722694639
 20
324.83435363148288
 30
0.0
 40
2.000420099999999
 50
188.9268200000015
 51
269.82270999999599
  0
LINE
  5
9C71
  8
AM_0
 10
94.374807226946317
 20
338.7740536314829
 30
0.0
 11
100.6047872269464
 21
338.7740536314829
 31
0.0
  0
LINE
  5
9C72
  8
AM_0
 10
93.674797226946424
 20
328.96399363148288
 30
0.0
 11
101.6747972269464
 21
328.96399363148288
 31
0.0
  0
LINE
  5
9C73
  8
AM_0
 10
88.674797226946424
 20
338.07300363148278
 30
0.0
 11
88.674797226946424
 21
329.21399363148288
 31
0.0
  0
LINE
  5
9C74
  8
AM_0
 10
107.03478722694651
 20
345.31399363148279
 30
0.0
 11
101.6747972269464
 21
333.87399363148307
 31
0.0
  0
LINE
  5
9C75
  8
AM_0
 10
101.6747972269464
 20
333.87393363148288
 30
0.0
 11
102.9147872269464
 21
327.313933631483
 31
0.0
  0
LINE
  5
9C76
  8
AM_0
 10
128.67473722694641
 20
314.96396363148278
 30
0.0
 11
128.39407303960741
 21
325.68396363148281
 31
0.0
  0
ARC
  5
9C77
  8
AM_0
 10
127.00744742561319
 20
321.33398363148291
 30
0.0
 40
1.5
 50
1.499738863867264
 51
90.0
1001
GENIUS_GENODEF_13
1002
{
1000
HIER
1070
     0
1002
}
1002
{
1000
MANEDIT
1070
     0
1002
}
1002
{
1000
NOSEL
1070
     0
1002
}
1002
{
1000
BEHIND
1070
     0
1002
}
1002
{
1000
REACTOR
1002
}
1001
GENIUS_GENOBJ-N-FIL_13
1002
{
1000
OWNER
1000
GEN
1002
}
  0
LINE
  5
9C78
  8
AM_0
 10
114.9769596585253
 20
312.46399363148288
 30
0.0
 11
132.57695965852531
 21
312.46399363148288
 31
0.0
  0
LINE
  5
9C79
  8
AM_0
 10
125.1747972269464
 20
312.46399363148288
 30
0.0
 11
125.1747972269464
 21
314.96399363148288
 31
0.0
  0
LINE
  5
9C7A
  8
AM_0
 10
139.77695965852541
 20
312.46399363148288
 30
0.0
 11
133.57695965852531
 21
312.46399363148288
 31
0.0
  0
LINE
  5
9C7B
  8
AM_0
 10
132.57695965852531
 20
312.46399363148288
 30
0.0
 11
133.57695965852531
 21
312.46399363148288
 31
0.0
  0
LINE
  5
9C7C
  8
AM_0
 10
102.9448172269463
 20
385.70398363148291
 30
0.0
 11
139.39348722694641
 21
385.70398363148291
 31
0.0
  0
LINE
  5
9C7D
  8
AM_0
 10
102.9448172269463
 20
388.23401363148292
 30
0.0
 11
139.39348722694641
 21
388.23401363148292
 31
0.0
  0
LINE
  5
9C7E
  8
AM_0
 10
138.11351722694641
 20
385.96399363148282
 30
0.0
 11
104.03478722694651
 21
385.96399363148282
 31
0.0
  0
LINE
  5
9C7F
  8
AM_0
 10
138.11351722694641
 20
387.96399363148282
 30
0.0
 11
104.03478722694651
 21
387.96399363148282
 31
0.0
  0
LINE
  5
9C80
  8
AM_0
 10
138.11351722694641
 20
365.96399363148282
 30
0.0
 11
104.03478722694651
 21
365.96399363148282
 31
0.0
  0
LINE
  5
9C81
  8
AM_0
 10
138.11351722694641
 20
367.96399363148282
 30
0.0
 11
104.03478722694651
 21
367.96399363148282
 31
0.0
  0
LINE
  5
9C82
  8
AM_0
 10
103.0048172269464
 20
368.28393363148308
 30
0.0
 11
139.3334872269464
 21
368.28393363148308
 31
0.0
  0
LINE
  5
9C83
  8
AM_0
 10
102.9448172269463
 20
375.693973631483
 30
0.0
 11
139.39348722694641
 21
375.693973631483
 31
0.0
  0
LINE
  5
9C84
  8
AM_0
 10
138.11351722694641
 20
375.96399363148282
 30
0.0
 11
104.03478722694651
 21
375.96399363148282
 31
0.0
  0
LINE
  5
9C85
  8
AM_0
 10
138.11351722694641
 20
377.96399363148282
 30
0.0
 11
104.03478722694651
 21
377.96399363148282
 31
0.0
  0
LINE
  5
9C86
  8
AM_0
 10
102.9448172269463
 20
378.23401363148292
 30
0.0
 11
139.39348722694641
 21
378.23401363148292
 31
0.0
  0
LINE
  5
9C87
  8
AM_0
 10
103.0048172269464
 20
365.62402363148283
 30
0.0
 11
139.34606722694639
 21
365.62402363148283
 31
0.0
  0
POLYLINE
  5
9C88
  8
AM_0
 66
     1
 10
0.0
 20
0.0
 30
0.0
  0
VERTEX
  5
9C89
  8
AM_0
 10
104.07884722694639
 20
375.6936036314828
 30
0.0
 42
0.00076695235
  0
VERTEX
  5
9C8A
  8
AM_0
 10
104.0936472269463
 20
375.07584363148283
 30
0.0
 42
0.00073263043
  0
VERTEX
  5
9C8B
  8
AM_0
 10
104.1102872269464
 20
374.4582436314829
 30
0.0
 42
0.00076525988
  0
VERTEX
  5
9C8C
  8
AM_0
 10
104.1287772269463
 20
373.84057363148293
 30
0.0
 42
0.00075144488
  0
VERTEX
  5
9C8D
  8
AM_0
 10
104.1491472269464
 20
373.222973631483
 30
0.0
 42
0.00076035096
  0
VERTEX
  5
9C8E
  8
AM_0
 10
104.17138722694639
 20
372.60554363148287
 30
0.0
 42
0.00075543154
  0
VERTEX
  5
9C8F
  8
AM_0
 10
104.1954872269464
 20
371.98816363148279
 30
0.0
 42
0.0007577325
  0
VERTEX
  5
9C90
  8
AM_0
 10
104.2214672269464
 20
371.37076363148299
 30
0.0
 42
0.00076034585
  0
VERTEX
  5
9C91
  8
AM_0
 10
104.2493172269464
 20
370.75337363148287
 30
0.0
 42
0.00074823143
  0
VERTEX
  5
9C92
  8
AM_0
 10
104.2790472269464
 20
370.13598363148287
 30
0.0
 42
0.00074896605
  0
VERTEX
  5
9C93
  8
AM_0
 10
104.3106072269463
 20
369.51885363148278
 30
0.0
 42
0.00076039763
  0
VERTEX
  5
9C94
  8
AM_0
 10
104.34402722694639
 20
368.90182363148318
 30
0.0
 42
0.00075616127
  0
VERTEX
  5
9C95
  8
AM_0
 10
104.3793272269464
 20
368.28479363148278
 30
0.0
  0
SEQEND
  5
9C96
  8
AM_0
  0
POLYLINE
  5
9C97
  8
AM_0
 66
     1
 10
0.0
 20
0.0
 30
0.0
  0
VERTEX
  5
9C98
  8
AM_0
 10
104.5530372269464
 20
365.62341363148278
 30
0.0
 42
0.00073721992
  0
VERTEX
  5
9C99
  8
AM_0
 10
104.5971872269463
 20
365.02100363148293
 30
0.0
 42
0.00074398496
  0
VERTEX
  5
9C9A
  8
AM_0
 10
104.6431172269464
 20
364.41873363148278
 30
0.0
 42
0.00073322625
  0
VERTEX
  5
9C9B
  8
AM_0
 10
104.6908472269464
 20
363.8164036314829
 30
0.0
 42
0.00073594289
  0
VERTEX
  5
9C9C
  8
AM_0
 10
104.74032722694641
 20
363.2144136314829
 30
0.0
 42
0.00074742568
  0
VERTEX
  5
9C9D
  8
AM_0
 10
104.79159722694639
 20
362.61255363148291
 30
0.0
 42
0.00073216749
  0
VERTEX
  5
9C9E
  8
AM_0
 10
104.8446572269464
 20
362.01074363148291
 30
0.0
 42
0.00074184065
  0
VERTEX
  5
9C9F
  8
AM_0
 10
104.8994772269463
 20
361.40921363148283
 30
0.0
 42
0.00072077528
  0
VERTEX
  5
9CA0
  8
AM_0
 10
104.9560572269464
 20
360.80798363148318
 30
0.0
 42
0.00074978179
  0
VERTEX
  5
9CA1
  8
AM_0
 10
105.0143972269463
 20
360.20678363148278
 30
0.0
 42
0.00074288888
  0
VERTEX
  5
9CA2
  8
AM_0
 10
105.07454722694629
 20
359.60576363148277
 30
0.0
 42
0.00072503679
  0
VERTEX
  5
9CA3
  8
AM_0
 10
105.1364572269464
 20
359.00502363148291
 30
0.0
 42
0.00074640584
  0
VERTEX
  5
9CA4
  8
AM_0
 10
105.20012722694641
 20
358.40442363148293
 30
0.0
  0
SEQEND
  5
9CA5
  8
AM_0
  0
ARC
  5
9CA6
  8
AM_0
 10
104.2194172269464
 20
356.96399363148282
 30
0.0
 40
1.000013899999999
 50
89.691659999999231
 51
270.30834000000078
  0
ARC
  5
9CA7
  8
AM_0
 10
103.1348172269464
 20
356.93896363148281
 30
0.0
 40
1.465004
 50
90.00000299999769
 51
270.0
  0
POLYLINE
  5
9CA8
  8
AM_0
 66
     1
 10
0.0
 20
0.0
 30
0.0
  0
VERTEX
  5
9CA9
  8
AM_0
 10
105.5356972269464
 20
355.48095363148292
 30
0.0
 42
0.00068900015
  0
VERTEX
  5
9CAA
  8
AM_0
 10
105.6065772269463
 20
354.90620363148292
 30
0.0
 42
0.00070644648
  0
VERTEX
  5
9CAB
  8
AM_0
 10
105.6790772269464
 20
354.33152363148292
 30
0.0
 42
0.00069245587
  0
VERTEX
  5
9CAC
  8
AM_0
 10
105.7531672269464
 20
353.75720363148292
 30
0.0
 42
0.00069587802
  0
VERTEX
  5
9CAD
  8
AM_0
 10
105.82884722694639
 20
353.18306363148292
 30
0.0
 42
0.00068980012
  0
VERTEX
  5
9CAE
  8
AM_0
 10
105.9061472269463
 20
352.60906363148291
 30
0.0
 42
0.00072079193
  0
VERTEX
  5
9CAF
  8
AM_0
 10
105.9850372269464
 20
352.03528363148308
 30
0.0
 42
0.00071003147
  0
VERTEX
  5
9CB0
  8
AM_0
 10
106.0655772269464
 20
351.46180363148278
 30
0.0
 42
0.00072658712
  0
VERTEX
  5
9CB1
  8
AM_0
 10
106.1477372269464
 20
350.88871363148291
 30
0.0
 42
0.00069571059
  0
VERTEX
  5
9CB2
  8
AM_0
 10
106.23155722694629
 20
350.31567363148292
 30
0.0
 42
0.0007126617
  0
VERTEX
  5
9CB3
  8
AM_0
 10
106.3169872269464
 20
349.74291363148291
 30
0.0
 42
0.00071614574
  0
VERTEX
  5
9CB4
  8
AM_0
 10
106.40401722694629
 20
349.17056363148282
 30
0.0
 42
0.00072290803
  0
VERTEX
  5
9CB5
  8
AM_0
 10
106.4927272269463
 20
348.59826363148278
 30
0.0
  0
SEQEND
  5
9CB6
  8
AM_0
  0
ARC
  5
9CB7
  8
AM_0
 10
104.2194172269464
 20
366.96399363148282
 30
0.0
 40
1.000013899999999
 50
89.691659999999231
 51
270.30834000000078
  0
ARC
  5
9CB8
  8
AM_0
 10
103.0048172269464
 20
366.95398363148291
 30
0.0
 40
1.3300049999999981
 50
90.00000299999769
 51
270.0
  0
POLYLINE
  5
9CB9
  8
AM_0
 66
     1
 10
0.0
 20
0.0
 30
0.0
  0
VERTEX
  5
9CBA
  8
AM_0
 10
104.03478722694651
 20
381.96399363148282
 30
0.0
 42
0.00039106589
  0
VERTEX
  5
9CBB
  8
AM_0
 10
104.0324272269464
 20
381.6528536314828
 30
0.0
 42
0.00035488584
  0
VERTEX
  5
9CBC
  8
AM_0
 10
104.03053722694639
 20
381.34174363148293
 30
0.0
 42
0.00039705232
  0
VERTEX
  5
9CBD
  8
AM_0
 10
104.02910722694639
 20
381.0306436314828
 30
0.0
 42
0.0003876649
  0
VERTEX
  5
9CBE
  8
AM_0
 10
104.0281772269463
 20
380.71950363148278
 30
0.0
 42
0.00040613779
  0
VERTEX
  5
9CBF
  8
AM_0
 10
104.0277272269463
 20
380.40839363148308
 30
0.0
 42
0.00035571855
  0
VERTEX
  5
9CC0
  8
AM_0
 10
104.02776722694639
 20
380.0972936314829
 30
0.0
 42
0.00038547358
  0
VERTEX
  5
9CC1
  8
AM_0
 10
104.02825722694629
 20
379.78615363148288
 30
0.0
 42
0.000355015
  0
VERTEX
  5
9CC2
  8
AM_0
 10
104.0292172269464
 20
379.47505363148292
 30
0.0
 42
0.00040118616
  0
VERTEX
  5
9CC3
  8
AM_0
 10
104.0306372269463
 20
379.16382363148279
 30
0.0
 42
0.00038319867
  0
VERTEX
  5
9CC4
  8
AM_0
 10
104.03254722694641
 20
378.85268363148288
 30
0.0
 42
0.00035656356
  0
VERTEX
  5
9CC5
  8
AM_0
 10
104.03492722694619
 20
378.5414536314828
 30
0.0
 42
0.00040140992
  0
VERTEX
  5
9CC6
  8
AM_0
 10
104.0377772269464
 20
378.23034363148292
 30
0.0
  0
SEQEND
  5
9CC7
  8
AM_0
  0
ARC
  5
9CC8
  8
AM_0
 10
104.2194172269464
 20
376.96399363148282
 30
0.0
 40
1.000013899999999
 50
89.691659999999231
 51
270.30834000000078
  0
ARC
  5
9CC9
  8
AM_0
 10
102.9389572269463
 20
376.96399363148282
 30
0.0
 40
1.2700129999999981
 50
89.736617000001587
 51
270.2633699999991
  0
ARC
  5
9CCA
  8
AM_0
 10
104.2194172269464
 20
386.96399363148282
 30
0.0
 40
1.000013899999999
 50
89.691659999999231
 51
270.30834000000078
  0
ARC
  5
9CCB
  8
AM_0
 10
102.9389572269463
 20
386.96899363148287
 30
0.0
 40
1.2650129999999991
 50
89.735579000001735
 51
270.26441000000239
  0
POLYLINE
  5
9CCC
  8
AM_0
 66
     1
 10
0.0
 20
0.0
 30
0.0
  0
VERTEX
  5
9CCD
  8
AM_0
 10
104.03478722694651
 20
381.96399363148282
 30
0.0
 42
-0.00039106649
  0
VERTEX
  5
9CCE
  8
AM_0
 10
104.0324272269464
 20
382.27512363148293
 30
0.0
 42
-0.00035488198
  0
VERTEX
  5
9CCF
  8
AM_0
 10
104.03053722694639
 20
382.58623363148291
 30
0.0
 42
-0.00039706113
  0
VERTEX
  5
9CD0
  8
AM_0
 10
104.02910722694639
 20
382.8973436314829
 30
0.0
 42
-0.00038765718
  0
VERTEX
  5
9CD1
  8
AM_0
 10
104.0281772269463
 20
383.20848363148281
 30
0.0
 42
-0.00040613432
  0
VERTEX
  5
9CD2
  8
AM_0
 10
104.0277272269463
 20
383.51958363148287
 30
0.0
 42
-0.00035573434
  0
VERTEX
  5
9CD3
  8
AM_0
 10
104.02776722694639
 20
383.83069363148292
 30
0.0
 42
-0.00038545884
  0
VERTEX
  5
9CD4
  8
AM_0
 10
104.02825722694629
 20
384.14182363148291
 30
0.0
 42
-0.00035501205
  0
VERTEX
  5
9CD5
  8
AM_0
 10
104.0292172269464
 20
384.45293363148278
 30
0.0
 42
-0.00040120779
  0
VERTEX
  5
9CD6
  8
AM_0
 10
104.0306372269463
 20
384.76416363148292
 30
0.0
 42
-0.00038317817
  0
VERTEX
  5
9CD7
  8
AM_0
 10
104.03254722694641
 20
385.07529363148291
 30
0.0
 42
-0.00035656084
  0
VERTEX
  5
9CD8
  8
AM_0
 10
104.03492722694619
 20
385.38653363148291
 30
0.0
 42
-0.00040143615
  0
VERTEX
  5
9CD9
  8
AM_0
 10
104.0377772269464
 20
385.69763363148292
 30
0.0
  0
SEQEND
  5
9CDA
  8
AM_0
  0
ARC
  5
9CDB
  8
AM_0
 10
139.3397772269463
 20
366.95398363148291
 30
0.0
 40
1.3300148000000001
 50
269.72941999999853
 51
90.270567000000995
  0
ARC
  5
9CDC
  8
AM_0
 10
138.11351722694641
 20
366.96399363148282
 30
0.0
 40
1.0000056999999991
 50
269.999989999999
 51
90.00000299999769
  0
ARC
  5
9CDD
  8
AM_0
 10
139.40172722694621
 20
376.96399363148282
 30
0.0
 40
1.2700266
 50
269.62931999999989
 51
90.370670000004694
  0
ARC
  5
9CDE
  8
AM_0
 10
138.11351722694641
 20
376.96399363148282
 30
0.0
 40
1.0000056999999991
 50
269.999989999999
 51
90.00000299999769
  0
ARC
  5
9CDF
  8
AM_0
 10
139.40172722694621
 20
386.9740036314829
 30
0.0
 40
1.2700266
 50
269.62931999999989
 51
90.370670000004694
  0
ARC
  5
9CE0
  8
AM_0
 10
138.11351722694641
 20
386.96399363148282
 30
0.0
 40
1.0000056999999991
 50
269.999989999999
 51
90.00000299999769
  0
ARC
  5
9CE1
  8
AM_0
 10
203.0148272269463
 20
346.96399363148282
 30
0.0
 40
1.0
 50
269.999989999999
 51
90.00000299999769
  0
ARC
  5
9CE2
  8
AM_0
 10
188.67479722694631
 20
349.46399363148282
 30
0.0
 40
1.5
 50
179.99998999999889
 51
270.0
  0
ARC
  5
9CE3
  8
AM_0
 10
170.6747972269464
 20
349.46399363148282
 30
0.0
 40
1.5
 50
269.999989999999
 51
0.0000006832495047
  0
LINE
  5
9CE4
  8
AM_0
 10
158.67479722694631
 20
345.24402363148278
 30
0.0
 11
206.49480722694631
 21
345.24402363148278
 31
0.0
  0
LINE
  5
9CE5
  8
AM_0
 10
203.0148272269463
 20
345.96399363148282
 30
0.0
 11
158.67479722694631
 21
345.96399363148282
 31
0.0
  0
LINE
  5
9CE6
  8
AM_0
 10
160.4803137040013
 20
307.46399363148288
 30
0.0
 11
158.9803137040013
 21
307.46399363148288
 31
0.0
  0
LINE
  5
9CE7
  8
AM_0
 10
160.4803137040013
 20
303.46399363148288
 30
0.0
 11
158.9803137040013
 21
303.46399363148288
 31
0.0
  0
LINE
  5
9CE8
  8
AM_0
 10
153.07360561304631
 20
307.46399363148288
 30
0.0
 11
151.57360561304631
 21
307.46399363148288
 31
0.0
  0
LINE
  5
9CE9
  8
AM_0
 10
153.07360561304631
 20
303.46399363148288
 30
0.0
 11
151.57360561304631
 21
303.46399363148288
 31
0.0
  0
LINE
  5
9CEA
  8
AM_0
 10
149.37360561304629
 20
307.46399363148288
 30
0.0
 11
147.87360561304629
 21
307.46399363148288
 31
0.0
  0
LINE
  5
9CEB
  8
AM_0
 10
149.37360561304629
 20
303.46399363148288
 30
0.0
 11
147.87360561304629
 21
303.46399363148288
 31
0.0
  0
LINE
  5
9CEC
  8
AM_0
 10
145.67360561304631
 20
307.46399363148402
 30
0.0
 11
144.37360561304629
 21
307.46399363148288
 31
0.0
  0
LINE
  5
9CED
  8
AM_0
 10
144.37360561304629
 20
307.46399363148288
 30
0.0
 11
144.37360561304629
 21
305.41996950888893
 31
0.0
  0
LINE
  5
9CEE
  8
AM_0
 10
156.57695965852429
 20
307.46399363148288
 30
0.0
 11
155.27695965852431
 21
307.46399363148288
 31
0.0
  0
LINE
  5
9CEF
  8
AM_0
 10
157.27695965852709
 20
303.46399363148288
 30
0.0
 11
155.27695965852431
 21
303.46399363148288
 31
0.0
  0
LINE
  5
9CF0
  8
AM_0
 10
157.27695965852709
 20
304.75261745228488
 30
0.0
 11
156.57695965852429
 21
305.41996950888893
 31
0.0
  0
LINE
  5
9CF1
  8
AM_0
 10
156.57695965852429
 20
305.41996950888893
 30
0.0
 11
156.57695965852429
 21
307.46399363148288
 31
0.0
  0
LINE
  5
9CF2
  8
AM_0
 10
164.18366774947941
 20
307.46399363148288
 30
0.0
 11
162.68366774947941
 21
307.46399363148288
 31
0.0
  0
LINE
  5
9CF3
  8
AM_0
 10
164.18366774947941
 20
303.46399363148288
 30
0.0
 11
162.68366774947941
 21
303.46399363148288
 31
0.0
  0
LINE
  5
9CF4
  8
AM_0
 10
167.88702179495641
 20
307.46399363148288
 30
0.0
 11
166.38702179495641
 21
307.46399363148288
 31
0.0
  0
LINE
  5
9CF5
  8
AM_0
 10
167.88702179495641
 20
303.46399363148288
 30
0.0
 11
166.38702179495641
 21
303.46399363148288
 31
0.0
  0
LINE
  5
9CF6
  8
AM_0
 10
171.5903758404333
 20
307.46399363148288
 30
0.0
 11
170.09037584043321
 21
307.46399363148288
 31
0.0
  0
LINE
  5
9CF7
  8
AM_0
 10
171.5903758404333
 20
303.46399363148288
 30
0.0
 11
170.09037584043321
 21
303.46399363148288
 31
0.0
  0
ARC
  5
9CF8
  8
AM_0
 10
201.7999772269464
 20
327.6887236314829
 30
0.0
 40
2.0047290000000002
 50
270.13832000000423
 51
344.82650000000177
  0
LINE
  5
9CF9
  8
AM_0
 10
188.67479722694631
 20
314.9639336314828
 30
0.0
 11
188.95553635000951
 21
325.68396363148292
 31
0.0
  0
LINE
  5
9CFA
  8
AM_0
 10
190.25387791273141
 20
319.46399363148288
 30
0.0
 11
201.6909772269463
 21
319.46399363148288
 31
0.0
  0
LINE
  5
9CFB
  8
AM_0
 10
195.45208592437231
 20
312.46399363148288
 30
0.0
 11
184.7769596585253
 21
312.46399363148288
 31
0.0
  0
LINE
  5
9CFC
  8
AM_0
 10
184.7769596585253
 20
312.46399363148288
 30
0.0
 11
177.57695965852531
 21
312.46399363148288
 31
0.0
  0
ARC
  5
9CFD
  8
AM_0
 10
190.25387791273141
 20
317.96399363148288
 30
0.0
 40
1.5
 50
90.0
 51
178.4998650936468
1001
GENIUS_GENODEF_13
1002
{
1000
HIER
1070
     0
1002
}
1002
{
1000
MANEDIT
1070
     0
1002
}
1002
{
1000
NOSEL
1070
     0
1002
}
1002
{
1000
BEHIND
1070
     0
1002
}
1002
{
1000
REACTOR
1002
}
1001
GENIUS_GENOBJ-N-FIL_13
1002
{
1000
OWNER
1000
GEN
1002
}
  0
LINE
  5
9CFE
  8
AM_0
 10
192.17479722694631
 20
312.46399363148288
 30
0.0
 11
192.17479722694631
 21
314.96399363148288
 31
0.0
  0
ARC
  5
9CFF
  8
AM_0
 10
195.45208592437231
 20
311.46399363148288
 30
0.0
 40
1.0
 50
0.0
 51
90.0
  0
ARC
  5
9D00
  8
AM_0
 10
201.6909772269463
 20
320.96399363148288
 30
0.0
 40
1.5
 50
269.999989999999
 51
326.99999999999801
  0
LINE
  5
9D01
  8
AM_0
 10
203.0148272269463
 20
347.96399363148282
 30
0.0
 11
158.67479722694631
 21
347.96399363148282
 31
0.0
  0
LINE
  5
9D02
  8
AM_0
 10
172.17479722694631
 20
354.46399363148282
 30
0.0
 11
172.17479722694631
 21
349.46399363148282
 31
0.0
  0
LINE
  5
9D03
  8
AM_0
 10
171.69481722694641
 20
354.46399363148282
 30
0.0
 11
171.69481722694641
 21
349.60400363148278
 31
0.0
  0
ARC
  5
9D04
  8
AM_0
 10
170.69481722694641
 20
349.60400363148278
 30
0.0
 40
1.0
 50
269.999989999999
 51
0.0000006832495047
  0
ARC
  5
9D05
  8
AM_0
 10
170.6747972269464
 20
354.46399363148282
 30
0.0
 40
1.5
 50
0.0
 51
90.00000299999769
  0
ARC
  5
9D06
  8
AM_0
 10
170.6747972269464
 20
354.46399363148282
 30
0.0
 40
1.02
 50
0.0
 51
90.00000299999769
  0
LINE
  5
9D07
  8
AM_0
 10
203.0076272269464
 20
355.96399363148282
 30
0.0
 11
188.67479722694631
 21
355.96399363148282
 31
0.0
  0
LINE
  5
9D08
  8
AM_0
 10
188.67479722694631
 20
355.48401363148292
 30
0.0
 11
206.70903722694641
 21
355.48401363148292
 31
0.0
  0
LINE
  5
9D09
  8
AM_0
 10
206.49480722694631
 20
348.59399363148287
 30
0.0
 11
188.65477722694641
 21
348.59399363148287
 31
0.0
  0
CIRCLE
  5
9D0A
  8
AM_0
 10
182.1747972269464
 20
353.46399363148282
 30
0.0
 40
1.0
  0
CIRCLE
  5
9D0B
  8
AM_0
 10
177.1747972269464
 20
353.46399363148282
 30
0.0
 40
1.1000000000000001
  0
CIRCLE
  5
9D0C
  8
AM_0
 10
177.1747972269464
 20
353.46399363148282
 30
0.0
 40
1.149999999999999
  0
LINE
  5
9D0D
  8
AM_0
 10
187.1747972269464
 20
354.46399363148282
 30
0.0
 11
187.1747972269464
 21
349.46399363148282
 31
0.0
  0
LINE
  5
9D0E
  8
AM_0
 10
187.65477722694641
 20
354.46399363148282
 30
0.0
 11
187.65477722694641
 21
349.60400363148278
 31
0.0
  0
ARC
  5
9D0F
  8
AM_0
 10
188.65477722694641
 20
349.60400363148278
 30
0.0
 40
1.0
 50
179.99998999999889
 51
270.0
  0
ARC
  5
9D10
  8
AM_0
 10
188.67479722694631
 20
354.46399363148282
 30
0.0
 40
1.02
 50
90.00000299999769
 51
180.00001000000091
  0
ARC
  5
9D11
  8
AM_0
 10
188.67479722694631
 20
354.46399363148282
 30
0.0
 40
1.5
 50
90.00000299999769
 51
180.00001000000091
  0
ARC
  5
9D12
  8
AM_0
 10
203.01476722694639
 20
356.96399363148282
 30
0.0
 40
1.0000255999999981
 50
269.58947000000319
 51
90.410530999997775
  0
LINE
  5
9D13
  8
AM_0
 10
103.1348172269464
 20
405.52405363148279
 30
0.0
 11
206.70903722694641
 21
405.52405363148279
 31
0.0
  0
LINE
  5
9D14
  8
AM_0
 10
103.3547872269464
 20
418.68396363148281
 30
0.0
 11
206.49480722694631
 21
418.68396363148281
 31
0.0
  0
LINE
  5
9D15
  8
AM_0
 10
203.0076272269464
 20
405.96399363148282
 30
0.0
 11
104.03478722694651
 21
405.96399363148282
 31
0.0
  0
LINE
  5
9D16
  8
AM_0
 10
203.0148272269463
 20
415.96399363148282
 30
0.0
 11
104.03478722694651
 21
415.96399363148282
 31
0.0
  0
LINE
  5
9D17
  8
AM_0
 10
203.0148272269463
 20
417.96399363148282
 30
0.0
 11
104.03478722694651
 21
417.96399363148282
 31
0.0
  0
LINE
  5
9D18
  8
AM_0
 10
104.9647772269463
 20
443.85400363148278
 30
0.0
 11
201.80486722694641
 21
443.85400363148278
 31
0.0
  0
LINE
  5
9D19
  8
AM_0
 10
104.9448172269463
 20
442.94397363148278
 30
0.0
 11
201.80480722694631
 21
442.94397363148278
 31
0.0
  0
LINE
  5
9D1A
  8
AM_0
 10
104.9247972269464
 20
441.09399363148287
 30
0.0
 11
201.80480722694631
 21
441.09399363148287
 31
0.0
  0
LINE
  5
9D1B
  8
AM_0
 10
104.8848172269464
 20
438.24402363148278
 30
0.0
 11
201.80480722694631
 21
438.24402363148278
 31
0.0
  0
LINE
  5
9D1C
  8
AM_0
 10
103.1348172269464
 20
408.45398363148308
 30
0.0
 11
170.6747972269464
 21
408.45398363148308
 31
0.0
  0
LINE
  5
9D1D
  8
AM_0
 10
103.3547872269464
 20
415.33398363148279
 30
0.0
 11
170.69481722694641
 21
415.33398363148279
 31
0.0
  0
LINE
  5
9D1E
  8
AM_0
 10
170.6747972269464
 20
407.96399363148282
 30
0.0
 11
104.03478722694651
 21
407.96399363148282
 31
0.0
  0
LINE
  5
9D1F
  8
AM_0
 10
101.6747972269464
 20
430.064023631483
 30
0.0
 11
102.9147872269464
 21
436.62399363148307
 31
0.0
  0
LINE
  5
9D20
  8
AM_0
 10
101.6747972269464
 20
432.75400363148282
 30
0.0
 11
102.9847972269464
 21
442.13403363148279
 31
0.0
  0
LINE
  5
9D21
  8
AM_0
 10
101.6747972269464
 20
432.75400363148282
 30
0.0
 11
102.9647772269463
 21
441.24396363148281
 31
0.0
  0
LINE
  5
9D22
  8
AM_0
 10
101.6747972269464
 20
431.4040236314828
 30
0.0
 11
102.9547672269463
 21
439.4139736314828
 31
0.0
  0
LINE
  5
9D23
  8
AM_0
 10
103.0048172269464
 20
395.64404363148287
 30
0.0
 11
139.3334872269464
 21
395.64404363148287
 31
0.0
  0
LINE
  5
9D24
  8
AM_0
 10
138.11351722694641
 20
395.96399363148288
 30
0.0
 11
104.03478722694651
 21
395.96399363148288
 31
0.0
  0
LINE
  5
9D25
  8
AM_0
 10
103.0048172269464
 20
398.30395363148278
 30
0.0
 11
139.3334872269464
 21
398.30395363148278
 31
0.0
  0
LINE
  5
9D26
  8
AM_0
 10
138.11351722694641
 20
397.96399363148282
 30
0.0
 11
104.03478722694651
 21
397.96399363148282
 31
0.0
  0
POLYLINE
  5
9D27
  8
AM_0
 66
     1
 10
0.0
 20
0.0
 30
0.0
  0
VERTEX
  5
9D28
  8
AM_0
 10
105.5356972269464
 20
408.44702363148281
 30
0.0
 42
-0.00068898288
  0
VERTEX
  5
9D29
  8
AM_0
 10
105.6065772269463
 20
409.0217736314828
 30
0.0
 42
-0.00070644354
  0
VERTEX
  5
9D2A
  8
AM_0
 10
105.6790772269464
 20
409.59646363148278
 30
0.0
 42
-0.00069248071
  0
VERTEX
  5
9D2B
  8
AM_0
 10
105.7531672269464
 20
410.1707736314828
 30
0.0
 42
-0.00069585665
  0
VERTEX
  5
9D2C
  8
AM_0
 10
105.82884722694639
 20
410.7449136314828
 30
0.0
 42
-0.00068980191
  0
VERTEX
  5
9D2D
  8
AM_0
 10
105.9061472269463
 20
411.31891363148281
 30
0.0
 42
-0.00072080104
  0
VERTEX
  5
9D2E
  8
AM_0
 10
105.9850372269464
 20
411.89270363148279
 30
0.0
 42
-0.00071002307
  0
VERTEX
  5
9D2F
  8
AM_0
 10
106.0655772269464
 20
412.46617363148277
 30
0.0
 42
-0.00072659056
  0
VERTEX
  5
9D30
  8
AM_0
 10
106.1477372269464
 20
413.03927363148301
 30
0.0
 42
-0.00069570481
  0
VERTEX
  5
9D31
  8
AM_0
 10
106.23155722694629
 20
413.6123036314828
 30
0.0
 42
-0.00071266935
  0
VERTEX
  5
9D32
  8
AM_0
 10
106.3169872269464
 20
414.18507363148279
 30
0.0
 42
-0.00071614426
  0
VERTEX
  5
9D33
  8
AM_0
 10
106.40401722694629
 20
414.75741363148279
 30
0.0
 42
-0.00072288975
  0
VERTEX
  5
9D34
  8
AM_0
 10
106.4927272269463
 20
415.32971363148278
 30
0.0
  0
SEQEND
  5
9D35
  8
AM_0
  0
LINE
  5
9D36
  8
AM_0
 10
88.674797226946424
 20
344.77893363148291
 30
0.0
 11
88.674797226946424
 21
419.15002363148278
 31
0.0
  0
POLYLINE
  5
9D37
  8
AM_0
 66
     1
 10
0.0
 20
0.0
 30
0.0
  0
VERTEX
  5
9D38
  8
AM_0
 10
104.5530372269464
 20
398.30456363148318
 30
0.0
 42
-0.0007337051
  0
VERTEX
  5
9D39
  8
AM_0
 10
104.5971772269464
 20
398.90698363148277
 30
0.0
 42
-0.00075211323
  0
VERTEX
  5
9D3A
  8
AM_0
 10
104.6431172269464
 20
399.50937363148279
 30
0.0
 42
-0.0007297491
  0
VERTEX
  5
9D3B
  8
AM_0
 10
104.6908472269464
 20
400.11157363148283
 30
0.0
 42
-0.00073593041
  0
VERTEX
  5
9D3C
  8
AM_0
 10
104.74032722694641
 20
400.71356363148283
 30
0.0
 42
-0.00074742739
  0
VERTEX
  5
9D3D
  8
AM_0
 10
104.79159722694639
 20
401.31543363148279
 30
0.0
 42
-0.00073217363
  0
VERTEX
  5
9D3E
  8
AM_0
 10
104.8446572269464
 20
401.91723363148282
 30
0.0
 42
-0.00073754168
  0
VERTEX
  5
9D3F
  8
AM_0
 10
104.8994772269463
 20
402.51877363148282
 30
0.0
 42
-0.00073075073
  0
VERTEX
  5
9D40
  8
AM_0
 10
104.9560572269464
 20
403.12013363148282
 30
0.0
 42
-0.00074550816
  0
VERTEX
  5
9D41
  8
AM_0
 10
105.0143972269463
 20
403.72119363148278
 30
0.0
 42
-0.00074288416
  0
VERTEX
  5
9D42
  8
AM_0
 10
105.07454722694629
 20
404.32221363148278
 30
0.0
 42
-0.00072504001
  0
VERTEX
  5
9D43
  8
AM_0
 10
105.1364572269464
 20
404.92296363148279
 30
0.0
 42
-0.00074640667
  0
VERTEX
  5
9D44
  8
AM_0
 10
105.20012722694641
 20
405.52356363148277
 30
0.0
  0
SEQEND
  5
9D45
  8
AM_0
  0
ARC
  5
9D46
  8
AM_0
 10
104.2194172269464
 20
396.96399363148282
 30
0.0
 40
1.000013899999999
 50
89.691659999999231
 51
270.30834000000078
  0
ARC
  5
9D47
  8
AM_0
 10
103.0048172269464
 20
396.9740036314829
 30
0.0
 40
1.3300049999999981
 50
90.00000299999769
 51
270.0
  0
ARC
  5
9D48
  8
AM_0
 10
104.2194172269464
 20
406.96399363148271
 30
0.0
 40
1.000013899999999
 50
89.691659999999231
 51
270.30834000000078
  0
ARC
  5
9D49
  8
AM_0
 10
103.1348172269464
 20
406.98901363148281
 30
0.0
 40
1.465004
 50
90.00000299999769
 51
270.0
  0
LINE
  5
9D4A
  8
AM_0
 10
93.674797226946424
 20
434.96399363148282
 30
0.0
 11
101.6747972269464
 21
434.96399363148282
 31
0.0
  0
LINE
  5
9D4B
  8
AM_0
 10
94.374807226946317
 20
425.1539336314828
 30
0.0
 11
100.6047872269464
 21
425.1539336314828
 31
0.0
  0
LINE
  5
9D4E
  8
AM_0
 10
107.03478722694651
 20
418.61398363148271
 30
0.0
 11
101.6747972269464
 21
430.06396363148281
 31
0.0
  0
ARC
  5
9D4F
  8
AM_0
 10
104.2194172269464
 20
416.96399363148282
 30
0.0
 40
1.000013899999999
 50
89.691659999999231
 51
270.30834000000078
  0
ARC
  5
9D50
  8
AM_0
 10
103.3474072269464
 20
417.00903363148279
 30
0.0
 40
1.6750160000000001
 50
89.746145000004447
 51
270.25387000000092
  0
ARC
  5
9D51
  8
AM_0
 10
138.11351722694641
 20
396.96399363148282
 30
0.0
 40
1.0000056999999991
 50
269.999989999999
 51
90.00000299999769
  0
ARC
  5
9D52
  8
AM_0
 10
139.3397772269463
 20
396.9790036314829
 30
0.0
 40
1.3350147999999991
 50
269.73042999999973
 51
90.269556000001316
  0
LINE
  5
9D53
  8
AM_0
 10
84.674797226946467
 20
441.96399363148282
 30
0.0
 11
84.674797226946467
 21
446.96399363148282
 31
0.0
  0
LINE
  5
9D54
  8
AM_0
 10
81.674797226946453
 20
440.71399363148282
 30
0.0
 11
81.674797226946453
 21
446.96399363148282
 31
0.0
  0
LINE
  5
9D55
  8
AM_0
 10
81.674797226946453
 20
441.96399363148282
 30
0.0
 11
84.674797226946467
 21
441.96399363148282
 31
0.0
  0
ARC
  5
9D56
  8
AM_0
 10
104.9250472269463
 20
439.09875363148279
 30
0.0
 40
1.9952829999999979
 50
90.006203999996856
 51
170.90835000000069
  0
ARC
  5
9D57
  8
AM_0
 10
104.9612972269463
 20
441.85840363148282
 30
0.0
 40
1.995633
 50
89.899708000002292
 51
172.06112999999959
  0
ARC
  5
9D58
  8
AM_0
 10
104.93938722694639
 20
440.94726363148283
 30
0.0
 40
1.9967330000000001
 50
89.843966999998912
 51
171.45387999999721
  0
ARC
  5
9D59
  8
AM_0
 10
104.87352722694639
 20
436.24988363148282
 30
0.0
 40
1.994108999999999
 50
89.675548000002749
 51
169.18776999999869
  0
ARC
  5
9D5A
  8
AM_0
 10
170.69481722694641
 20
414.32397363148277
 30
0.0
 40
1.0
 50
0.0
 51
90.00000299999769
  0
LINE
  5
9D5B
  8
AM_0
 10
172.17479722694631
 20
409.46399363148282
 30
0.0
 11
172.17479722694631
 21
414.46399363148282
 31
0.0
  0
ARC
  5
9D5C
  8
AM_0
 10
170.6747972269464
 20
409.46399363148282
 30
0.0
 40
1.02
 50
269.999989999999
 51
0.0000006832429909
  0
ARC
  5
9D5D
  8
AM_0
 10
170.6747972269464
 20
409.46399363148282
 30
0.0
 40
1.5
 50
269.999989999999
 51
0.0000006832495047
  0
LINE
  5
9D5E
  8
AM_0
 10
171.69481722694641
 20
409.46399363148282
 30
0.0
 11
171.69481722694641
 21
414.32397363148277
 31
0.0
  0
ARC
  5
9D5F
  8
AM_0
 10
170.6747972269464
 20
414.46399363148282
 30
0.0
 40
1.5
 50
0.0
 51
90.00000299999769
  0
ARC
  5
9D60
  8
AM_0
 10
188.65477722694641
 20
414.32397363148277
 30
0.0
 40
1.0
 50
90.00000299999769
 51
180.00001000000091
  0
LINE
  5
9D61
  8
AM_0
 10
187.1747972269464
 20
409.46399363148282
 30
0.0
 11
187.1747972269464
 21
414.46399363148282
 31
0.0
  0
LINE
  5
9D62
  8
AM_0
 10
203.0219672269464
 20
407.96399363148282
 30
0.0
 11
188.67479722694631
 21
407.96399363148282
 31
0.0
  0
LINE
  5
9D63
  8
AM_0
 10
188.67479722694631
 20
408.45398363148308
 30
0.0
 11
206.72045722694639
 21
408.45398363148308
 31
0.0
  0
CIRCLE
  5
9D64
  8
AM_0
 10
177.1747972269464
 20
410.46399363148282
 30
0.0
 40
1.149999999999999
  0
CIRCLE
  5
9D65
  8
AM_0
 10
177.1747972269464
 20
410.46399363148282
 30
0.0
 40
1.1000000000000001
  0
CIRCLE
  5
9D66
  8
AM_0
 10
182.1747972269464
 20
410.46399363148282
 30
0.0
 40
1.0
  0
ARC
  5
9D67
  8
AM_0
 10
188.67479722694631
 20
409.46399363148282
 30
0.0
 40
1.02
 50
179.99998999999889
 51
270.0
  0
ARC
  5
9D68
  8
AM_0
 10
188.67479722694631
 20
409.46399363148282
 30
0.0
 40
1.5
 50
179.99998999999889
 51
270.0
  0
LINE
  5
9D69
  8
AM_0
 10
187.65477722694641
 20
409.46399363148282
 30
0.0
 11
187.65477722694641
 21
414.32397363148277
 31
0.0
  0
ARC
  5
9D6A
  8
AM_0
 10
203.01476722694639
 20
406.96399363148271
 30
0.0
 40
1.0000255999999981
 50
269.58947000000319
 51
90.410530999997775
  0
LINE
  5
9D6B
  8
AM_0
 10
188.65477722694641
 20
415.32397363148277
 30
0.0
 11
206.49480722694631
 21
415.32397363148277
 31
0.0
  0
ARC
  5
9D6C
  8
AM_0
 10
188.67479722694631
 20
414.46399363148282
 30
0.0
 40
1.5
 50
90.00000299999769
 51
180.00001000000091
  0
ARC
  5
9D6D
  8
AM_0
 10
203.0148272269463
 20
416.96399363148282
 30
0.0
 40
1.0
 50
269.999989999999
 51
90.00000299999769
  0
ARC
  5
9D6E
  8
AM_0
 10
201.7999772269464
 20
440.93921363148303
 30
0.0
 40
2.0047290000000002
 50
15.173495999996319
 51
89.861678000000197
  0
ARC
  5
9D6F
  8
AM_0
 10
201.7999772269464
 20
439.08923363148278
 30
0.0
 40
2.0047290000000002
 50
15.173495999996319
 51
89.861678000000197
  0
ARC
  5
9D70
  8
AM_0
 10
201.80486722694641
 20
436.24573363148278
 30
0.0
 40
1.9982919999999991
 50
15.032547999996
 51
90.002632000001341
  0
ARC
  5
9D71
  8
AM_0
 10
201.7999772269464
 20
441.84924363148281
 30
0.0
 40
2.0047290000000002
 50
15.173495999996319
 51
89.861678000000197
  0
LINE
  5
9D72
  8
AM_0
 10
209.6747972269464
 20
437.96399363148282
 30
0.0
 11
209.6747972269464
 21
325.96399363148288
 31
0.0
  0
LINE
  5
9D73
  8
AM_0
 10
209.6747972269464
 20
335.96399363148288
 30
0.0
 11
217.67479722694631
 21
335.96399363148288
 31
0.0
  0
LINE
  5
9D74
  8
AM_0
 10
209.6747972269464
 20
325.96399363148288
 30
0.0
 11
217.67479722694631
 21
325.96399363148288
 31
0.0
  0
LINE
  5
9D75
  8
AM_0
 10
209.6747972269464
 20
350.02405363148279
 30
0.0
 11
217.67479722694631
 21
350.02405363148279
 31
0.0
  0
LINE
  5
9D76
  8
AM_0
 10
209.6747972269464
 20
413.9039336314828
 30
0.0
 11
217.67479722694631
 21
413.9039336314828
 31
0.0
  0
LINE
  5
9D77
  8
AM_0
 10
209.6747972269464
 20
427.96399363148282
 30
0.0
 11
217.67479722694631
 21
427.96399363148282
 31
0.0
  0
LINE
  5
9D78
  8
AM_0
 10
209.6747972269464
 20
437.96399363148282
 30
0.0
 11
217.67479722694631
 21
437.96399363148282
 31
0.0
  0
LINE
  5
9D86
  8
ﾁｭｳｼﾝｾﾝ
 10
378.67485722695568
 20
306.96397863148292
 30
0.0
 11
402.67485722693698
 21
306.96397863148292
 31
0.0
  0
LINE
  5
9D87
  8
ﾁｭｳｼﾝｾﾝ
 10
390.67485722694641
 20
318.96399363148288
 30
0.0
 11
390.67485722694641
 21
294.96399363148288
 31
0.0
  0
LINE
  5
9D8E
  8
ﾁｭｳｼﾝｾﾝ
 10
298.67485722695579
 20
306.96397863148292
 30
0.0
 11
322.67485722693709
 21
306.96397863148292
 31
0.0
  0
LINE
  5
9D8F
  8
ﾁｭｳｼﾝｾﾝ
 10
310.6748572269463
 20
318.96399363148288
 30
0.0
 11
310.6748572269463
 21
294.96399363148288
 31
0.0
  0
LINE
  5
9D96
  8
ﾁｭｳｼﾝｾﾝ
 10
298.67485722695579
 20
456.96394863148271
 30
0.0
 11
322.67485722693709
 21
456.96394863148271
 31
0.0
  0
LINE
  5
9D97
  8
ﾁｭｳｼﾝｾﾝ
 10
310.6748572269463
 20
468.96396363148278
 30
0.0
 11
310.6748572269463
 21
444.96396363148278
 31
0.0
  0
LINE
  5
9D9D
  8
ﾁｭｳｼﾝｾﾝ
 10
124.2769596585254
 20
307.4640086314829
 30
0.0
 11
124.2769596585254
 21
283.4640086314829
 31
0.0
  0
LINE
  5
9D9E
  8
ﾁｭｳｼﾝｾﾝ
 10
112.27695965853469
 20
295.46399363148288
 30
0.0
 11
136.27695965851601
 21
295.46399363148288
 31
0.0
  0
LINE
  5
9E56
  8
AM_0
 10
46.174797226946453
 20
425.85498363148281
 30
0.0
 11
88.674797226946424
 21
425.85498363148281
 31
0.0
  0
LINE
  5
9E57
  8
AM_0
 10
46.174797226946453
 20
415.60498363148281
 30
0.0
 11
88.674797226946424
 21
415.60498363148281
 31
0.0
  0
LINE
  5
9E58
  8
AM_0
 10
45.674797226946453
 20
434.71399363148282
 30
0.0
 11
93.674797226946424
 21
434.71399363148282
 31
0.0
  0
LINE
  5
9E59
  8
AM_0
 10
88.674797226946424
 20
425.85498363148281
 30
0.0
 11
88.674797226946424
 21
434.71399363148282
 31
0.0
  0
LINE
  5
9E5A
  8
AM_0
 10
68.674797226946453
 20
440.71399363148282
 30
0.0
 11
93.674797226946424
 21
440.71399363148282
 31
0.0
  0
LINE
  5
9E5B
  8
AM_0
 10
68.674797226946453
 20
440.71399363148282
 30
0.0
 11
68.674797226946453
 21
434.71399363148282
 31
0.0
  0
ARC
  5
9E5C
  8
AM_0
 10
45.674797226946453
 20
432.71399363148282
 30
0.0
 40
2.0
 50
90.000049999998538
 51
180.00002000000191
  0
LINE
  5
9E5D
  8
AM_0
 10
44.57482722694634
 20
425.35498363148281
 30
0.0
 11
44.874807226946373
 21
425.35498363148281
 31
0.0
  0
LINE
  5
9E5E
  8
AM_0
 10
44.57482722694634
 20
416.35498363148281
 30
0.0
 11
44.874807226946373
 21
416.35498363148281
 31
0.0
  0
LINE
  5
9E5F
  8
AM_0
 10
41.57482722694634
 20
419.35498363148281
 30
0.0
 11
41.57482722694634
 21
422.35498363148292
 31
0.0
  0
LINE
  5
9E60
  8
AM_0
 10
43.674797226946453
 20
425.21692363148281
 30
0.0
 11
43.674797226946453
 21
432.71399363148282
 31
0.0
  0
ARC
  5
9E61
  8
AM_0
 10
44.57482722694634
 20
422.35498363148292
 30
0.0
 40
3.0
 50
90.000049999998538
 51
180.00002000000191
  0
ARC
  5
9E62
  8
AM_0
 10
44.57482722694634
 20
419.35498363148281
 30
0.0
 40
3.0
 50
180.00002000000191
 51
270.00001100000242
  0
LINE
  5
9E63
  8
AM_0
 10
44.874807226946373
 20
416.25501363148283
 30
0.0
 11
44.874807226946373
 21
425.45496363148283
 31
0.0
  0
LINE
  5
9E64
  8
AM_0
 10
44.874807226946373
 20
425.45496363148283
 30
0.0
 11
46.174797226946453
 21
425.45496363148283
 31
0.0
  0
LINE
  5
9E65
  8
AM_0
 10
44.874807226946373
 20
416.25501363148283
 30
0.0
 11
46.174797226946453
 21
416.25501363148283
 31
0.0
  0
LINE
  5
9E66
  8
AM_0
 10
43.173367126946403
 20
425.00751253577562
 30
0.0
 11
43.173367126946403
 21
436.96399363148282
 31
0.0
  0
TEXT
  5
A3E8
  8
0
  6
CONTINUOUS
 62
     0
 10
517.63558701777833
 20
353.73604291117391
 30
0.0
 40
10.0
  1
VX01-240B~VX01-600B
  0
VIEWPORT
  5
89
 67
     1
  8
0
 10
210.0
 20
148.5
 30
0.0
 40
420.0
 41
297.0
 68
    -1
 69
     1
1001
ACAD
1000
MVIEW
1002
{
1070
    16
1010
0.0
1020
0.0
1030
0.0
1010
0.0
1020
0.0
1030
1.0
1040
0.0
1040
297.0
1040
221.70154043645701
1040
148.5
1040
50.0
1040
0.0
1040
0.0
1070
     0
1070
   100
1070
     1
1070
     1
1070
     0
1070
     0
1070
     0
1070
     0
1040
0.0
1040
0.0
1040
0.0
1040
10.0
1040
10.0
1040
10.0
1040
10.0
1070
     0
1002
{
1002
}
1002
}
1001
GENIUS_GENOREF_13
1005
1B94
1001
GENIUS_GENSCREG_15
1000
PF
1040
1.0
1000
DF
1040
1.0
1000
MIN
1011
0.0
1021
0.0
1031
0.0
1021
0.0
1031
0.0
1000
MAX
1011
420.0
1021
0.0
1031
0.0
1021
297.0
1031
0.0
1000
FLAGS
1070
     4
  0
ENDSEC
  0
EOF
