  0
SECTION
  2
HEADER
  9
$ACADVER
  1
AC1009
  9
$INSBASE
 10
0.0
 20
0.0
 30
0.0
  9
$EXTMIN
 10
16.36841209022327
 20
-4.5981959982609624
 30
-0.0000000349181948
  9
$EXTMAX
 10
820.12144560804256
 20
534.67819718644955
 30
0.0000000814935747
  9
$LIMMIN
 10
0.0
 20
0.0
  9
$LIMMAX
 10
408.0
 20
284.0
  9
$ORTHOMODE
 70
     0
  9
$REGENMODE
 70
     1
  9
$FILLMODE
 70
     1
  9
$QTEXTMODE
 70
     0
  9
$MIRRTEXT
 70
     1
  9
$DRAGMODE
 70
     2
  9
$LTSCALE
 40
1.0
  9
$OSMODE
 70
   551
  9
$ATTMODE
 70
     1
  9
$TEXTSIZE
 40
2.5
  9
$TRACEWID
 40
1.0
  9
$TEXTSTYLE
  7
STANDARD
  9
$CLAYER
  8
AM_0
  9
$CELTYPE
  6
BYLAYER
  9
$CECOLOR
 62
   256
  9
$DIMSCALE
 40
1.0
  9
$DIMASZ
 40
2.5
  9
$DIMEXO
 40
1.0
  9
$DIMDLI
 40
7.0
  9
$DIMRND
 40
0.0
  9
$DIMDLE
 40
0.0
  9
$DIMEXE
 40
1.0
  9
$DIMTP
 40
0.1
  9
$DIMTM
 40
0.1000000001
  9
$DIMTXT
 40
2.5
  9
$DIMCEN
 40
0.0
  9
$DIMTSZ
 40
0.0
  9
$DIMTOL
 70
     0
  9
$DIMLIM
 70
     0
  9
$DIMTIH
 70
     0
  9
$DIMTOH
 70
     0
  9
$DIMSE1
 70
     0
  9
$DIMSE2
 70
     0
  9
$DIMTAD
 70
     3
  9
$DIMZIN
 70
     8
  9
$DIMBLK
  1

  9
$DIMASO
 70
     1
  9
$DIMSHO
 70
     1
  9
$DIMPOST
  1

  9
$DIMAPOST
  1
"
  9
$DIMALT
 70
     0
  9
$DIMALTD
 70
     2
  9
$DIMALTF
 40
0.0393701
  9
$DIMLFAC
 40
1.0
  9
$DIMTOFL
 70
     1
  9
$DIMTVP
 40
0.0
  9
$DIMTIX
 70
     0
  9
$DIMSOXD
 70
     0
  9
$DIMSAH
 70
     0
  9
$DIMBLK1
  1

  9
$DIMBLK2
  1

  9
$DIMSTYLE
  2
AM_JIS
  9
$DIMCLRD
 70
   256
  9
$DIMCLRE
 70
   256
  9
$DIMCLRT
 70
     4
  9
$DIMTFAC
 40
0.71
  9
$DIMGAP
 40
1.0
  9
$LUNITS
 70
     2
  9
$LUPREC
 70
     2
  9
$SKETCHINC
 40
1.0
  9
$FILLETRAD
 40
2.5
  9
$AUNITS
 70
     0
  9
$AUPREC
 70
     3
  9
$MENU
  1
.
  9
$ELEVATION
 40
0.0
  9
$PELEVATION
 40
0.0
  9
$THICKNESS
 40
0.0
  9
$LIMCHECK
 70
     0
  9
$BLIPMODE
 70
     0
  9
$CHAMFERA
 40
2.5
  9
$CHAMFERB
 40
2.5
  9
$SKPOLY
 70
     0
  9
$TDCREATE
 40
2453061.6228815741
  9
$TDUPDATE
 40
2458540.7007217021
  9
$TDINDWG
 40
0.0456529514
  9
$TDUSRTIMER
 40
0.0456527431
  9
$USRTIMER
 70
     1
  9
$ANGBASE
 50
0.0
  9
$ANGDIR
 70
     0
  9
$PDMODE
 70
     0
  9
$PDSIZE
 40
0.0
  9
$PLINEWID
 40
0.0
  9
$COORDS
 70
     1
  9
$SPLFRAME
 70
     0
  9
$SPLINETYPE
 70
     6
  9
$SPLINESEGS
 70
     8
  9
$ATTDIA
 70
     1
  9
$ATTREQ
 70
     1
  9
$HANDLING
 70
     1
  9
$HANDSEED
  5
A015
  9
$SURFTAB1
 70
     6
  9
$SURFTAB2
 70
     6
  9
$SURFTYPE
 70
     6
  9
$SURFU
 70
     6
  9
$SURFV
 70
     6
  9
$UCSNAME
  2

  9
$UCSORG
 10
0.0
 20
0.0
 30
0.0
  9
$UCSXDIR
 10
1.0
 20
0.0
 30
0.0
  9
$UCSYDIR
 10
0.0
 20
1.0
 30
0.0
  9
$PUCSNAME
  2

  9
$PUCSORG
 10
0.0
 20
0.0
 30
0.0
  9
$PUCSXDIR
 10
1.0
 20
0.0
 30
0.0
  9
$PUCSYDIR
 10
0.0
 20
1.0
 30
0.0
  9
$USERI1
 70
     0
  9
$USERI2
 70
     0
  9
$USERI3
 70
     0
  9
$USERI4
 70
     0
  9
$USERI5
 70
     0
  9
$USERR1
 40
0.0
  9
$USERR2
 40
0.0
  9
$USERR3
 40
0.0
  9
$USERR4
 40
0.0
  9
$USERR5
 40
0.0
  9
$WORLDVIEW
 70
     1
  9
$SHADEDGE
 70
     3
  9
$SHADEDIF
 70
    70
  9
$TILEMODE
 70
     1
  9
$MAXACTVP
 70
    48
  9
$PLIMCHECK
 70
     0
  9
$PEXTMIN
 10
1.0000000000000000E+020
 20
1.0000000000000000E+020
 30
1.0000000000000000E+020
  9
$PEXTMAX
 10
-1.0000000000000000E+020
 20
-1.0000000000000000E+020
 30
-1.0000000000000000E+020
  9
$PLIMMIN
 10
0.0
 20
0.0
  9
$PLIMMAX
 10
420.0
 20
297.0
  9
$UNITMODE
 70
     0
  9
$VISRETAIN
 70
     1
  9
$PLINEGEN
 70
     0
  9
$PSLTSCALE
 70
     1
  0
ENDSEC
  0
SECTION
  2
TABLES
  0
TABLE
  2
VPORT
 70
     1
  0
VPORT
  2
*ACTIVE
 70
     0
 10
0.0
 20
0.0
 11
1.0
 21
1.0
 12
418.24492884913292
 22
265.04000059409418
 13
0.0
 23
0.0
 14
1.0
 24
1.0
 15
10.0
 25
10.0
 16
0.0
 26
0.0
 36
1.0
 17
0.0
 27
0.0
 37
0.0
 40
542.97851945371303
 41
1.7571592210767459
 42
50.0
 43
0.0
 44
0.0
 50
0.0
 51
0.0
 71
     0
 72
   100
 73
     1
 74
     1
 75
     0
 76
     0
 77
     0
 78
     0
  0
ENDTAB
  0
TABLE
  2
LTYPE
 70
    26
  0
LTYPE
  2
CONTINUOUS
 70
     0
  3
Solid line
 72
    65
 73
     0
 40
0.0
  0
LTYPE
  2
PHANTOM2
 70
     0
  3
Phantom (.5x) ___ _ _ ___ _ _ ___ _ _ ___ _ _
 72
    65
 73
     6
 40
31.75
 49
15.875
 49
-3.174999999999998
 49
3.174999999999998
 49
-3.174999999999998
 49
3.174999999999998
 49
-3.174999999999998
  0
LTYPE
  2
CENTER
 70
     0
  3
Center ____ _ ____ _ ____ _ ____ _ ____ _ ____
 72
    65
 73
     4
 40
50.799999999999997
 49
31.75
 49
-6.349999999999997
 49
6.349999999999997
 49
-6.349999999999997
  0
LTYPE
  2
ACANSTGBM
 70
     0
  3
__ . . __ . .
 72
    65
 73
     6
 40
9.0
 49
4.0
 49
-1.0
 49
1.0
 49
-1.0
 49
1.0
 49
-1.0
  0
LTYPE
  2
ACANSTGLM
 70
     0
  3
_ _ _ _ _
 72
    65
 73
     2
 40
3.0
 49
2.0
 49
-1.0
  0
LTYPE
  2
GEN7
 70
     0
  3
____ . ____ . ____ . ____ . ____ . ____ . ____
 72
    65
 73
     4
 40
14.25
 49
9.75
 49
-1.5
 49
1.5
 49
-1.5
  0
LTYPE
  2
GEN3B
 70
     0
  3
 - - - - -
 72
    65
 73
     2
 40
1.0
 49
0.5
 49
-0.5
  0
LTYPE
  2
AM_ISO02W050
 70
     0
  3
__ __ __ __ __ __ __ __ __ __ __ __ __ __ __
 72
    65
 73
     2
 40
7.5
 49
6.0
 49
-1.5
  0
LTYPE
  2
AM_ISO08W050
 70
     0
  3
____ . ____ . ____ . ____ . ____ . ____ . ____
 72
    65
 73
     4
 40
18.0
 49
12.0
 49
-1.5
 49
3.0
 49
-1.5
  0
LTYPE
  2
AM_ISO09W050
 70
     0
  3
_____ . . _____ . . _____ . . ____ .. ____
 72
    65
 73
     6
 40
22.5
 49
12.0
 49
-1.5
 49
3.0
 49
-1.5
 49
3.0
 49
-1.5
  0
LTYPE
  2
AMCONSTR
 70
     0
  3
_______________________
 72
    65
 73
     2
 40
9999.0
 49
9999.0
 49
0.0
  0
LTYPE
  2
AM_ISO02W050X2
 70
     0
  3
 _ _ _ _ _ _ _ _ _ _ _ _
 72
    65
 73
     2
 40
3.75
 49
3.0
 49
-0.75
  0
LTYPE
  2
AM_ISO08W050X2
 70
     0
  3
__ . __ . __ . __ . __ . __
 72
    65
 73
     4
 40
9.0
 49
6.0
 49
-0.75
 49
1.5
 49
-0.75
  0
LTYPE
  2
AMZIGZAG
 70
     0
  3
/\/-/\/-/\/-/\/-/\/-/\/
 72
    65
 73
     2
 40
11.000099999999991
 49
0.0001
 49
-11.0
  0
LTYPE
  2
ACJISTGB
 70
     0
  3
__ . . __ . .
 72
    65
 73
     6
 40
9.0
 49
4.0
 49
-1.0
 49
1.0
 49
-1.0
 49
1.0
 49
-1.0
  0
LTYPE
  2
ACJISTGL
 70
     0
  3
_ _ _ _ _
 72
    65
 73
     2
 40
3.0
 49
2.0
 49
-1.0
  0
LTYPE
  2
ACISOWELD
 70
     0
  3
_ _ _ _ _
 72
    65
 73
     2
 40
2.0
 49
2.0
 49
-1.0
  0
LTYPE
  2
ACISOTGB
 70
     0
  3
__ . . __ . .
 72
    65
 73
     6
 40
9.0
 49
4.0
 49
-1.0
 49
1.0
 49
-1.0
 49
1.0
 49
-1.0
  0
LTYPE
  2
ACISOTGL
 70
     0
  3
_ _ _ _ _
 72
    65
 73
     2
 40
3.0
 49
2.0
 49
-1.0
  0
LTYPE
  2
HIDDEN
 70
     0
  3
Hidden __ __ __ __ __ __ __ __ __ __ __ __ __ _
 72
    65
 73
     2
 40
0.375
 49
0.25
 49
-0.125
  0
LTYPE
  2
CENTER2
 70
     0
  3
Center (.5x) ___ _ ___ _ ___ _ ___ _ ___ _ ___
 72
    65
 73
     4
 40
1.125
 49
0.75
 49
-0.125
 49
0.125
 49
-0.125
  0
LTYPE
  2
HIDDEN2
 70
     0
  3
Hidden (.5x) _ _ _ _ _ _ _ _ _ _ _ _ _ _ _ _ _
 72
    65
 73
     2
 40
0.1875
 49
0.125
 49
-0.0625
  0
LTYPE
  2
AMZIGZAG2
 70
     0
  3
/\/-/\/-/\/-/\/-/\/-/\/
 72
    65
 73
     2
 40
0.4401
 49
0.0001
 49
-0.4400000000000002
  0
LTYPE
  2
ACANSTGB
 70
     0
  3
__ . . __ . .
 72
    65
 73
     6
 40
0.35433070866
 49
0.15748031496
 49
-0.03937007874
 49
0.03937007874
 49
-0.03937007874
 49
0.03937007874
 49
-0.03937007874
  0
LTYPE
  2
ACANSTGL
 70
     0
  3
_ _ _ _ _
 72
    65
 73
     2
 40
0.11811023622
 49
0.07874015748
 49
-0.03937007874
  0
ENDTAB
  0
TABLE
  2
LAYER
 70
     7
  0
LAYER
  2
0
 70
     0
 62
     7
  6
CONTINUOUS
  0
LAYER
  2
AM_0
 70
     0
 62
     7
  6
CONTINUOUS
  0
LAYER
  2
DEFPOINTS
 70
     0
 62
     7
  6
CONTINUOUS
  0
LAYER
  2
ｶｸﾚｾﾝ2
 70
     0
 62
     3
  6
GEN3B
  0
LAYER
  2
ﾁｭｳｼﾝｾﾝ
 70
     0
 62
     1
  6
GEN7
  0
LAYER
  2
AM_0N
 70
     0
 62
     7
  6
CONTINUOUS
  0
LAYER
  2
AM_5
 70
     0
 62
     2
  6
CONTINUOUS
  0
ENDTAB
  0
TABLE
  2
STYLE
 70
    10
  0
STYLE
  2
STANDARD
 70
     0
 40
0.0
 41
0.8299999999999999
 50
0.0
 71
     0
 42
2.5
  3
txt.shx
  4
bigfont.shx
  0
STYLE
  2
ANNOTATIVE
 70
     0
 40
0.0
 41
1.0
 50
0.0
 71
     0
 42
0.2
  3
txt
  4

  0
STYLE
  2
ACANSTS
 70
     0
 40
1.0
 41
1.0
 50
0.0
 71
     0
 42
2.5
  3
romans.shx
  4
bigfont.shx
  0
STYLE
  2
ACANSGDT
 70
     0
 40
0.0
 41
1.0
 50
0.0
 71
     0
 42
2.5
  3
amgdt.shx
  4

  0
STYLE
  2

 70
     1
 40
0.0
 41
1.0
 50
0.0
 71
     0
 42
2.5
  3
ltypeshp.shx
  4

  0
STYLE
  2
ACJISTS
 70
     0
 40
1.0
 41
0.8299999999999999
 50
0.0
 71
     0
 42
2.5
  3
txt.shx
  4
bigfont.shx
  0
STYLE
  2
ACJISGDT
 70
     0
 40
0.0
 41
1.0
 50
0.0
 71
     0
 42
2.5
  3
amgdt.shx
  4

  0
STYLE
  2
ACISOTS
 70
     0
 40
1.0
 41
1.0
 50
0.0
 71
     0
 42
2.5
  3
isocp.shx
  4
extfont.shx
  0
STYLE
  2
ACISOGDT
 70
     0
 40
0.0
 41
1.0
 50
0.0
 71
     0
 42
2.5
  3
amgdt.shx
  4

  0
STYLE
  2

 70
     1
 40
0.0
 41
1.0
 50
0.0
 71
     0
 42
2.5
  3
genltshp.shx
  4

  0
ENDTAB
  0
TABLE
  2
VIEW
 70
    12
  0
VIEW
  2
GEN1
 70
     0
 40
95.824742268041234
 10
71.5
 20
137.08762886597941
 41
143.0
 11
0.0
 21
0.0
 31
1.0
 12
0.0
 22
0.0
 32
0.0
 42
50.0
 43
0.0
 44
0.0
 50
0.0
 71
     0
  0
VIEW
  2
GEN2
 70
     0
 40
95.824742268041234
 10
214.5
 20
137.08762886597941
 41
143.0
 11
0.0
 21
0.0
 31
1.0
 12
0.0
 22
0.0
 32
0.0
 42
50.0
 43
0.0
 44
0.0
 50
0.0
 71
     0
  0
VIEW
  2
GEN3
 70
     0
 40
95.824742268041234
 10
71.5
 20
47.912371134020603
 41
143.0
 11
0.0
 21
0.0
 31
1.0
 12
0.0
 22
0.0
 32
0.0
 42
50.0
 43
0.0
 44
0.0
 50
0.0
 71
     0
  0
VIEW
  2
GEN4
 70
     0
 40
95.824742268041234
 10
214.5
 20
47.912371134020603
 41
143.0
 11
0.0
 21
0.0
 31
1.0
 12
0.0
 22
0.0
 32
0.0
 42
50.0
 43
0.0
 44
0.0
 50
0.0
 71
     0
  0
VIEW
  2
GEN5
 70
     0
 40
95.824742268041234
 10
143.0
 20
92.500000000000057
 41
143.0
 11
0.0
 21
0.0
 31
1.0
 12
0.0
 22
0.0
 32
0.0
 42
50.0
 43
0.0
 44
0.0
 50
0.0
 71
     0
  0
VIEW
  2
GEN6
 70
     0
 40
191.64756804123709
 10
143.0
 20
92.5
 41
285.99713999999989
 11
0.0
 21
0.0
 31
1.0
 12
0.0
 22
0.0
 32
0.0
 42
50.0
 43
0.0
 44
0.0
 50
0.0
 71
     0
  0
VIEW
  2
AM_VIEW1
 70
     0
 40
142.0
 10
119.7777777777777
 20
213.0
 41
239.55555555555549
 11
0.0
 21
0.0
 31
1.0
 12
0.0
 22
0.0
 32
0.0
 42
50.0
 43
0.0
 44
0.0
 50
0.0
 71
     0
  0
VIEW
  2
AM_VIEW2
 70
     0
 40
142.0
 10
288.22222222222211
 20
213.0
 41
239.55555555555549
 11
0.0
 21
0.0
 31
1.0
 12
0.0
 22
0.0
 32
0.0
 42
50.0
 43
0.0
 44
0.0
 50
0.0
 71
     0
  0
VIEW
  2
AM_VIEW3
 70
     0
 40
142.0
 10
119.7777777777777
 20
71.0
 41
239.55555555555549
 11
0.0
 21
0.0
 31
1.0
 12
0.0
 22
0.0
 32
0.0
 42
50.0
 43
0.0
 44
0.0
 50
0.0
 71
     0
  0
VIEW
  2
AM_VIEW4
 70
     0
 40
142.0
 10
288.22222222222211
 20
71.0
 41
239.55555555555549
 11
0.0
 21
0.0
 31
1.0
 12
0.0
 22
0.0
 32
0.0
 42
50.0
 43
0.0
 44
0.0
 50
0.0
 71
     0
  0
VIEW
  2
AM_VIEW5
 70
     0
 40
142.0
 10
204.0
 20
142.0
 41
239.55555555555549
 11
0.0
 21
0.0
 31
1.0
 12
0.0
 22
0.0
 32
0.0
 42
50.0
 43
0.0
 44
0.0
 50
0.0
 71
     0
  0
VIEW
  2
AM_VIEW6
 70
     0
 40
283.99716000000001
 10
204.0
 20
142.0
 41
479.10631999999993
 11
0.0
 21
0.0
 31
1.0
 12
0.0
 22
0.0
 32
0.0
 42
50.0
 43
0.0
 44
0.0
 50
0.0
 71
     0
  0
ENDTAB
  0
TABLE
  2
UCS
 70
     0
  0
ENDTAB
  0
TABLE
  2
APPID
 70
   109
  0
APPID
  2
ACAD
 70
     0
  0
APPID
  2
ACADANNOTATIVE
 70
     0
  0
APPID
  2
MCAD_NO_VIS
 70
     0
  0
APPID
  2
ACAD_TEMP_GRAPHIC
 70
     0
  0
APPID
  2
AD_DRAW
 70
     0
  0
APPID
  2
DESIGNERASSEMBLIES
 70
     0
  0
APPID
  2
ASURF_PCURVE_APPNAME
 70
     0
  0
APPID
  2
GENIUS_GE3SECT_13
 70
     0
  0
APPID
  2
GENIUS_GENCFG_13
 70
     0
  0
APPID
  2
GENIUS_GE3CFG0_13
 70
     0
  0
APPID
  2
GENIUS_GENCFG0_13
 70
     0
  0
APPID
  2
GENIUS_GENCFG1_13
 70
     0
  0
APPID
  2
GENIUS_GENCFG2_13
 70
     0
  0
APPID
  2
GENIUS_GENCFG3_13
 70
     0
  0
APPID
  2
GENIUS_GENCFG4_13
 70
     0
  0
APPID
  2
GENIUS_GEVCFG0_13
 70
     0
  0
APPID
  2
GENIUS_GENOENT_13
 70
     0
  0
APPID
  2
GENIUS_GENREC_14
 70
     0
  0
APPID
  2
GENIUS_GENODEF_13
 70
     0
  0
APPID
  2
GENIUS_GENOBJ-N-REC_13
 70
     0
  0
APPID
  2
GENIUS_GENHINW_13
 70
     0
  0
APPID
  2
GENIUS_FIRSTVISTXT_14
 70
     0
  0
APPID
  2
GENIUS_GENOBJ-N-LEADER_13
 70
     0
  0
APPID
  2
GENIUS_GENOREF_13
 70
     0
  0
APPID
  2
GENIUS_GENOLIS_13
 70
     0
  0
APPID
  2
GEV_VCCNULL_SWITCH_OFF
 70
     0
  0
APPID
  2
GENIUS_GENDTOL_13
 70
     0
  0
APPID
  2
GENIUS_GEFCFG0_13
 70
     0
  0
APPID
  2
GENIUS_GENOBJ-N-TIT_13
 70
     0
  0
APPID
  2
GENIUS_GENTITLE_13
 70
     0
  0
APPID
  2
GENIUS_GENZVEED_13
 70
     0
  0
APPID
  2
GENIUS_GENOBJ-N-SDF_13
 70
     0
  0
APPID
  2
GENIUS_GENSCREG_13
 70
     0
  0
APPID
  2
GENIUS_DUMCFG0_13
 70
     0
  0
APPID
  2
GEVID936201362
 70
     0
  0
APPID
  2
GEVDC
 70
     0
  0
APPID
  2
GEVCON
 70
     0
  0
APPID
  2
VCC
 70
     0
  0
APPID
  2
GEVPT
 70
     0
  0
APPID
  2
GEVIT
 70
     0
  0
APPID
  2
GENBH
 70
     0
  0
APPID
  2
GEVMK
 70
     0
  0
APPID
  2
GENIUS_GENBH_13
 70
     0
  0
APPID
  2
GENIUS_GENOBJ-NBEHI-BHF_13
 70
     0
  0
APPID
  2
GENIUS_GENOBJ-NBEHI-BHB_13
 70
     0
  0
APPID
  2
GENIUS_GENOBJ-F-DESC_13
 70
     0
  0
APPID
  2
GENIUS_GEFDESC_14
 70
     0
  0
APPID
  2
GENIUS_GENOBJ-F-PART_13
 70
     0
  0
APPID
  2
GENIUS_GEFSTDP_13
 70
     0
  0
APPID
  2
GENIUS_GEFPARTINS_13
 70
     0
  0
APPID
  2
GENIUS_GENTRA_14
 70
     0
  0
APPID
  2
GENIUS_GENINF13_13
 70
     0
  0
APPID
  2
GENIUS_GENOBJ-N-INFOPT_13
 70
     0
  0
APPID
  2
GENIUS_GENOBJ-N-RSSYM_13
 70
     0
  0
APPID
  2
GENIUS_GENSYMENT_13
 70
     0
  0
APPID
  2
GENIUS_GENSCSYM_13
 70
     0
  0
APPID
  2
GENIUS_GEFINFNAM_13
 70
     0
  0
APPID
  2
GENIUS_GENSCREG_15
 70
     0
  0
APPID
  2
GENIUS_GENOBJ-N-CEN_13
 70
     0
  0
APPID
  2
GENIUS_GENOBJ-N-CRS_13
 70
     0
  0
APPID
  2
GENIUS_GENOBJ-N-CRC_13
 70
     0
  0
APPID
  2
GENIUS_GENCRC_14
 70
     0
  0
APPID
  2
GEVID942827039
 70
     0
  0
APPID
  2
GEVID942827040
 70
     0
  0
APPID
  2
GEVID942827041
 70
     0
  0
APPID
  2
GENIUS_GENOBJ-F-SCPASSM_13
 70
     0
  0
APPID
  2
GENIUS_GENDIMSH_14
 70
     0
  0
APPID
  2
GENIUS_GENFIL_13
 70
     0
  0
APPID
  2
GENIUS_GENOBJ-N-CHA_13
 70
     0
  0
APPID
  2
GENIUS_GENOBJ-N-FIL_13
 70
     0
  0
APPID
  2
GEVID942827042
 70
     0
  0
APPID
  2
GEVID946020473
 70
     0
  0
APPID
  2
GEVID946020474
 70
     0
  0
APPID
  2
GEVID946020475
 70
     0
  0
APPID
  2
GENIUS_GENOBJ-N-HTC_13
 70
     0
  0
APPID
  2
GENIUS_GENHATCH_13
 70
     0
  0
APPID
  2
GEVID948854295
 70
     0
  0
APPID
  2
GEVID939402019
 70
     0
  0
APPID
  2
GEVID952919491
 70
     0
  0
APPID
  2
GEVID952919492
 70
     0
  0
APPID
  2
GENIUS_GEFWELD_13
 70
     0
  0
APPID
  2
GENIUS_GENOBJ-F-WELS_13
 70
     0
  0
APPID
  2
GEVID952919493
 70
     0
  0
APPID
  2
GENIUS_GENOBJ-N-RSBK_13
 70
     0
  0
APPID
  2
GENIUS_GENOBJ-N-LIB_13
 70
     0
  0
APPID
  2
GENIUS_GENSCALE_13
 70
     0
  0
APPID
  2
GEVID986376691
 70
     0
  0
APPID
  2
ACATTRIBSERVICES
 70
     0
  0
APPID
  2
GENIUS_AMGTXT_16
 70
     0
  0
APPID
  2
ACADM_DIM_EDIT
 70
     0
  0
APPID
  2
AMDT_DM_ADJ
 70
     0
  0
APPID
  2
ACAD_PSEXT
 70
     0
  0
APPID
  2
ACAD_DSTYLE_DIMTEXT_FILL
 70
     0
  0
APPID
  2
GEVID1057795304
 70
     0
  0
APPID
  2
GENIUS_GEFSH_13
 70
     0
  0
APPID
  2
GENIUS_GENOBJ-F-SHS_13
 70
     0
  0
APPID
  2
GENIUS_GENOBJ-N-ADDLEAD_13
 70
     0
  0
APPID
  2
GENIUS_GENMAINADDLEADER_14
 70
     0
  0
APPID
  2
GENIUS_GENADDLEADER_14
 70
     0
  0
APPID
  2
GENIUS_GENDREL_13
 70
     0
  0
APPID
  2
GEVID1121934822
 70
     0
  0
APPID
  2
GEVID1121934823
 70
     0
  0
APPID
  2
GEVID1121934824
 70
     0
  0
APPID
  2
ACAD_DSTYLE_DIMJAG
 70
     0
  0
APPID
  2
ACAD_DSTYLE_DIMBREAK
 70
     0
  0
APPID
  2
ACAD_NAV_VCDISPLAY
 70
     0
  0
APPID
  2
ACADANNOPO
 70
     0
  0
APPID
  2
ACAD_EXEMPT_FROM_CAD_STANDARDS
 70
     0
  0
APPID
  2
ACAD_MLEADERVER
 70
     0
  0
ENDTAB
  0
TABLE
  2
DIMSTYLE
 70
    29
  0
DIMSTYLE
  2
STANDARD
 70
     0
  3

  4

  5

  6

  7

 40
1.0
 41
0.18
 42
0.0625
 43
0.38
 44
0.18
 45
0.0
 46
0.0
 47
0.0
 48
0.0
140
0.18
141
0.09
142
0.0
143
25.399999999999999
144
1.0
145
0.0
146
1.0
147
0.09
 71
     0
 72
     0
 73
     1
 74
     1
 75
     0
 76
     0
 77
     0
 78
     0
170
     0
171
     2
172
     0
173
     0
174
     0
175
     0
176
     0
177
     0
178
     0
  0
DIMSTYLE
  2
ANNOTATIVE
 70
     0
  3

  4

  5

  6

  7

 40
1.0
 41
0.18
 42
0.0625
 43
0.38
 44
0.18
 45
0.0
 46
0.0
 47
0.0
 48
0.0
140
0.18
141
0.09
142
0.0
143
25.399999999999999
144
1.0
145
0.0
146
1.0
147
0.09
 71
     0
 72
     0
 73
     1
 74
     1
 75
     0
 76
     0
 77
     0
 78
     0
170
     0
171
     2
172
     0
173
     0
174
     0
175
     0
176
     0
177
     0
178
     0
  0
DIMSTYLE
  2
AM_JIS
 70
     0
  3

  4
"
  5

  6

  7

 40
1.0
 41
2.0
 42
1.0
 43
8.0
 44
1.0
 45
0.0
 46
0.0
 47
0.1
 48
0.1
140
2.5
141
0.0
142
0.0
143
0.0393701
144
1.0
145
0.0
146
0.71
147
1.5
 71
     0
 72
     0
 73
     0
 74
     0
 75
     0
 76
     0
 77
     3
 78
     8
170
     0
171
     2
172
     1
173
     0
174
     0
175
     0
176
   256
177
   256
178
     4
  0
DIMSTYLE
  2
AM_JIS$3
 70
     0
  3

  4
"
  5

  6

  7

 40
1.0
 41
2.0
 42
1.0
 43
10.0
 44
1.0
 45
0.0
 46
0.0
 47
0.1
 48
0.1
140
2.5
141
0.0
142
0.0
143
0.0393701
144
1.0
145
0.0
146
0.71
147
1.5
 71
     0
 72
     0
 73
     0
 74
     1
 75
     0
 76
     0
 77
     3
 78
     8
170
     0
171
     2
172
     0
173
     0
174
     0
175
     0
176
   256
177
   256
178
     4
  0
DIMSTYLE
  2
AM_JIS$4
 70
     0
  3

  4
"
  5

  6

  7

 40
1.0
 41
2.0
 42
1.0
 43
10.0
 44
1.0
 45
0.0
 46
0.0
 47
0.1
 48
0.1
140
2.5
141
0.0
142
0.0
143
0.0393701
144
1.0
145
0.0
146
0.71
147
1.5
 71
     0
 72
     0
 73
     0
 74
     0
 75
     0
 76
     0
 77
     3
 78
     8
170
     0
171
     2
172
     0
173
     0
174
     0
175
     0
176
   256
177
   256
178
     4
  0
DIMSTYLE
  2
AM_JIS$6
 70
     0
  3

  4
"
  5

  6

  7

 40
1.0
 41
2.0
 42
1.0
 43
10.0
 44
1.0
 45
0.0
 46
0.0
 47
0.1
 48
0.1
140
2.5
141
0.0
142
0.0
143
0.0393701
144
1.0
145
0.0
146
0.71
147
1.5
 71
     0
 72
     0
 73
     0
 74
     0
 75
     0
 76
     0
 77
     0
 78
     8
170
     0
171
     2
172
     1
173
     0
174
     0
175
     0
176
   256
177
   256
178
     4
  0
DIMSTYLE
  2
AM_JIS$7
 70
     0
  3

  4
"
  5

  6

  7

 40
1.0
 41
2.0
 42
1.0
 43
10.0
 44
1.0
 45
0.0
 46
0.0
 47
0.1
 48
0.1
140
2.5
141
0.0
142
0.0
143
0.0393701
144
1.0
145
0.0
146
0.71
147
1.5
 71
     0
 72
     0
 73
     0
 74
     0
 75
     0
 76
     0
 77
     3
 78
     8
170
     0
171
     2
172
     1
173
     0
174
     0
175
     0
176
   256
177
   256
178
     4
  0
DIMSTYLE
  2
AM_JIS$SF
 70
     0
  3

  4
"
  5

  6

  7

 40
1.0
 41
2.0
 42
1.0
 43
10.0
 44
1.0
 45
0.0
 46
0.0
 47
0.1
 48
0.1
140
2.5
141
0.0
142
0.0
143
0.0393701
144
1.0
145
0.0
146
0.71
147
1.5
 71
     0
 72
     0
 73
     0
 74
     0
 75
     1
 76
     1
 77
     3
 78
     8
170
     0
171
     2
172
     1
173
     0
174
     0
175
     0
176
   256
177
   256
178
     4
  0
DIMSTYLE
  2
AM_JIS$SH
 70
     0
  3

  4
"
  5

  6

  7

 40
1.0
 41
2.0
 42
1.0
 43
10.0
 44
1.0
 45
0.0
 46
0.0
 47
0.1
 48
0.1
140
2.5
141
0.0
142
0.0
143
0.0393701
144
2.0
145
0.0
146
0.71
147
1.5
 71
     0
 72
     0
 73
     0
 74
     0
 75
     1
 76
     1
 77
     3
 78
     8
170
     0
171
     2
172
     1
173
     1
174
     0
175
     0
176
   256
177
   256
178
     4
  0
DIMSTYLE
  2
AM_ISO
 70
     0
  3

  4
"
  5

  6

  7

 40
1.0
 41
2.5
 42
1.0
 43
10.0
 44
1.0
 45
0.0
 46
0.0
 47
0.1
 48
0.1
140
3.5
141
0.0
142
0.0
143
0.0393701
144
1.0
145
0.0
146
0.71
147
1.5
 71
     0
 72
     0
 73
     0
 74
     0
 75
     0
 76
     0
 77
     1
 78
     8
170
     0
171
     2
172
     1
173
     0
174
     0
175
     0
176
   256
177
   256
178
     2
  0
DIMSTYLE
  2
AM_ISO$3
 70
     0
  3

  4
"
  5

  6

  7

 40
1.0
 41
2.5
 42
1.0
 43
10.0
 44
1.0
 45
0.0
 46
0.0
 47
0.1
 48
0.1
140
3.5
141
0.0
142
0.0
143
0.0393701
144
1.0
145
0.0
146
0.71
147
1.5
 71
     0
 72
     0
 73
     0
 74
     1
 75
     0
 76
     0
 77
     1
 78
     8
170
     0
171
     2
172
     0
173
     0
174
     0
175
     0
176
   256
177
   256
178
     2
  0
DIMSTYLE
  2
AM_ISO$4
 70
     0
  3

  4
"
  5

  6

  7

 40
1.0
 41
2.5
 42
1.0
 43
10.0
 44
1.0
 45
0.0
 46
0.0
 47
0.1
 48
0.1
140
3.5
141
0.0
142
0.0
143
0.0393701
144
1.0
145
0.0
146
0.71
147
1.5
 71
     0
 72
     0
 73
     0
 74
     1
 75
     0
 76
     0
 77
     1
 78
     8
170
     0
171
     2
172
     0
173
     0
174
     0
175
     0
176
   256
177
   256
178
     2
  0
DIMSTYLE
  2
AM_ISO$6
 70
     0
  3

  4
"
  5

  6

  7

 40
1.0
 41
2.5
 42
1.0
 43
10.0
 44
1.0
 45
0.0
 46
0.0
 47
0.1
 48
0.1
140
3.5
141
0.0
142
0.0
143
0.0393701
144
1.0
145
0.0
146
0.71
147
1.5
 71
     0
 72
     0
 73
     0
 74
     0
 75
     0
 76
     0
 77
     0
 78
     8
170
     0
171
     2
172
     1
173
     0
174
     0
175
     0
176
   256
177
   256
178
     2
  0
DIMSTYLE
  2
AM_ISO$7
 70
     0
  3

  4
"
  5

  6

  7

 40
1.0
 41
2.5
 42
1.0
 43
10.0
 44
1.0
 45
0.0
 46
0.0
 47
0.1
 48
0.1
140
5.0
141
0.0
142
0.0
143
0.0393701
144
1.0
145
0.0
146
0.71
147
1.5
 71
     0
 72
     0
 73
     0
 74
     0
 75
     0
 76
     0
 77
     1
 78
     8
170
     0
171
     2
172
     1
173
     0
174
     0
175
     0
176
   256
177
   256
178
     2
  0
DIMSTYLE
  2
AM_ISO$SF
 70
     0
  3

  4
"
  5

  6

  7

 40
1.0
 41
2.5
 42
1.0
 43
10.0
 44
1.0
 45
0.0
 46
0.0
 47
0.1
 48
0.1
140
3.5
141
0.0
142
0.0
143
0.0393701
144
1.0
145
0.0
146
0.71
147
1.5
 71
     0
 72
     0
 73
     0
 74
     0
 75
     1
 76
     1
 77
     1
 78
     8
170
     0
171
     2
172
     1
173
     0
174
     0
175
     0
176
   256
177
   256
178
     2
  0
DIMSTYLE
  2
AM_ISO$SH
 70
     0
  3

  4
"
  5

  6

  7

 40
1.0
 41
2.5
 42
1.0
 43
10.0
 44
1.0
 45
0.0
 46
0.0
 47
0.1
 48
0.1
140
3.5
141
0.0
142
0.0
143
0.0393701
144
2.0
145
0.0
146
0.71
147
1.5
 71
     0
 72
     0
 73
     0
 74
     0
 75
     1
 76
     1
 77
     1
 78
     8
170
     0
171
     2
172
     1
173
     1
174
     0
175
     0
176
   256
177
   256
178
     2
  0
DIMSTYLE
  2
GEN-ANSI
 70
     0
  3

  4
"
  5

  6

  7

 40
1.0
 41
2.0
 42
0.5
 43
10.0
 44
0.5
 45
0.0
 46
0.0
 47
0.1
 48
0.1
140
2.5
141
0.0
142
0.0
143
0.0393701
144
1.0
145
0.0
146
0.71
147
1.5
 71
     0
 72
     0
 73
     1
 74
     1
 75
     0
 76
     0
 77
     0
 78
     8
170
     0
171
     2
172
     0
173
     0
174
     0
175
     0
176
   256
177
   256
178
     4
  0
DIMSTYLE
  2
GEN-ANSI$3
 70
     0
  3

  4
"
  5

  6

  7

 40
1.0
 41
2.0
 42
0.5
 43
10.0
 44
0.5
 45
0.0
 46
0.0
 47
0.1
 48
0.1
140
2.5
141
0.0
142
0.0
143
0.0393701
144
1.0
145
0.0
146
0.71
147
1.5
 71
     0
 72
     0
 73
     1
 74
     1
 75
     0
 76
     0
 77
     0
 78
     8
170
     0
171
     2
172
     0
173
     0
174
     0
175
     0
176
   256
177
   256
178
     4
  0
DIMSTYLE
  2
GEN-ANSI$4
 70
     0
  3

  4
"
  5

  6

  7

 40
1.0
 41
2.0
 42
0.5
 43
10.0
 44
0.5
 45
0.0
 46
0.0
 47
0.1
 48
0.1
140
2.5
141
0.0
142
0.0
143
0.0393701
144
1.0
145
0.0
146
0.71
147
1.5
 71
     0
 72
     0
 73
     1
 74
     1
 75
     0
 76
     0
 77
     0
 78
     8
170
     0
171
     2
172
     0
173
     0
174
     0
175
     0
176
   256
177
   256
178
     4
  0
DIMSTYLE
  2
GEN-ANSI$6
 70
     0
  3

  4
"
  5

  6

  7

 40
1.0
 41
2.0
 42
0.5
 43
10.0
 44
0.5
 45
0.0
 46
0.0
 47
0.1
 48
0.1
140
2.5
141
0.0
142
0.0
143
0.0393701
144
1.0
145
0.0
146
0.71
147
1.5
 71
     0
 72
     0
 73
     1
 74
     1
 75
     0
 76
     0
 77
     0
 78
     8
170
     0
171
     2
172
     0
173
     0
174
     0
175
     0
176
   256
177
   256
178
     4
  0
DIMSTYLE
  2
GEN-ANSI-POS
 70
     0
  3

  4
"
  5

  6

  7

 40
1.0
 41
2.5
 42
0.5
 43
10.0
 44
0.5
 45
0.0
 46
0.0
 47
0.1
 48
0.1
140
5.0
141
0.0
142
0.0
143
0.0393701
144
1.0
145
0.0
146
0.71
147
1.5
 71
     0
 72
     0
 73
     0
 74
     0
 75
     0
 76
     0
 77
     0
 78
     8
170
     0
171
     2
172
     0
173
     0
174
     0
175
     0
176
   256
177
   256
178
     4
  0
DIMSTYLE
  2
GEN-ANSI-AXE-F
 70
     0
  3

  4
"
  5

  6

  7

 40
1.0
 41
2.0
 42
0.5
 43
10.0
 44
0.5
 45
0.0
 46
0.0
 47
0.1
 48
0.1
140
2.5
141
0.0
142
0.0
143
0.0393701
144
1.0
145
0.0
146
0.71
147
1.5
 71
     0
 72
     0
 73
     1
 74
     1
 75
     1
 76
     1
 77
     0
 78
     8
170
     0
171
     2
172
     0
173
     1
174
     0
175
     0
176
   256
177
   256
178
     4
  0
DIMSTYLE
  2
GEN-ANSI-AXE-H
 70
     0
  3

  4
"
  5

  6

  7

 40
1.0
 41
2.0
 42
0.5
 43
10.0
 44
0.5
 45
0.0
 46
0.0
 47
0.1
 48
0.1
140
2.5
141
0.0
142
0.0
143
0.0393701
144
2.0
145
0.0
146
0.71
147
1.5
 71
     0
 72
     0
 73
     0
 74
     0
 75
     1
 76
     1
 77
     0
 78
     8
170
     0
171
     2
172
     1
173
     1
174
     0
175
     0
176
   256
177
   256
178
     4
  0
DIMSTYLE
  2
AM_ANSI
 70
     0
  3

  4
mm
  5

  6

  7

 40
1.0
 41
0.12
 42
0.05
 43
0.5
 44
0.1
 45
0.0
 46
0.0
 47
0.1
 48
0.1
140
0.12
141
0.0
142
0.0
143
25.399999999999999
144
1.0
145
0.0
146
0.71
147
0.06
 71
     0
 72
     0
 73
     1
 74
     1
 75
     0
 76
     0
 77
     0
 78
     7
170
     0
171
     2
172
     0
173
     0
174
     0
175
     0
176
   256
177
   256
178
     2
  0
DIMSTYLE
  2
AM_ANSI$3
 70
     0
  3

  4
mm
  5

  6

  7

 40
1.0
 41
0.12
 42
0.05
 43
0.5
 44
0.1
 45
0.0
 46
0.0
 47
0.1
 48
0.1
140
0.12
141
0.0
142
0.0
143
25.399999999999999
144
1.0
145
0.0
146
0.71
147
0.06
 71
     0
 72
     0
 73
     1
 74
     1
 75
     0
 76
     0
 77
     0
 78
     7
170
     0
171
     2
172
     0
173
     0
174
     0
175
     0
176
   256
177
   256
178
     2
  0
DIMSTYLE
  2
AM_ANSI$4
 70
     0
  3

  4
mm
  5

  6

  7

 40
1.0
 41
0.12
 42
0.05
 43
0.5
 44
0.1
 45
0.0
 46
0.0
 47
0.1
 48
0.1
140
0.12
141
0.0
142
0.0
143
25.399999999999999
144
1.0
145
0.0
146
0.71
147
0.06
 71
     0
 72
     0
 73
     1
 74
     1
 75
     0
 76
     0
 77
     0
 78
     7
170
     0
171
     2
172
     0
173
     0
174
     0
175
     0
176
   256
177
   256
178
     2
  0
DIMSTYLE
  2
AM_ANSI$7
 70
     0
  3

  4
mm
  5

  6

  7

 40
1.0
 41
0.12
 42
0.05
 43
0.5
 44
0.1
 45
0.0
 46
0.0
 47
0.1
 48
0.1
140
0.12
141
0.0
142
0.0
143
25.399999999999999
144
1.0
145
0.0
146
0.71
147
0.06
 71
     0
 72
     0
 73
     1
 74
     1
 75
     0
 76
     0
 77
     0
 78
     7
170
     0
171
     2
172
     0
173
     0
174
     0
175
     0
176
   256
177
   256
178
     2
  0
DIMSTYLE
  2
AM_ANSI$SF
 70
     0
  3

  4
mm
  5

  6

  7

 40
1.0
 41
0.12
 42
0.05
 43
0.5
 44
0.1
 45
0.0
 46
0.0
 47
0.1
 48
0.1
140
0.12
141
0.0
142
0.0
143
25.399999999999999
144
1.0
145
0.0
146
0.71
147
0.06
 71
     0
 72
     0
 73
     1
 74
     1
 75
     1
 76
     1
 77
     0
 78
     7
170
     0
171
     2
172
     0
173
     0
174
     0
175
     0
176
   256
177
   256
178
     2
  0
DIMSTYLE
  2
AM_ANSI$SH
 70
     0
  3

  4
mm
  5

  6

  7

 40
1.0
 41
0.12
 42
0.05
 43
0.5
 44
0.1
 45
0.0
 46
0.0
 47
0.1
 48
0.1
140
0.12
141
0.0
142
0.0
143
25.399999999999999
144
1.0
145
0.0
146
0.71
147
0.06
 71
     0
 72
     0
 73
     1
 74
     1
 75
     1
 76
     1
 77
     0
 78
     7
170
     0
171
     2
172
     0
173
     1
174
     0
175
     0
176
   256
177
   256
178
     2
  0
ENDTAB
  0
ENDSEC
  0
SECTION
  2
BLOCKS
  0
BLOCK
  8
0
  2
$MODEL_SPACE
 70
     0
 10
0.0
 20
0.0
 30
0.0
  3
$MODEL_SPACE
  1

  0
ENDBLK
  5
9E88
  8
0
  0
BLOCK
 67
     1
  8
0
  2
$PAPER_SPACE
 70
     0
 10
0.0
 20
0.0
 30
0.0
  3
$PAPER_SPACE
  1

  0
ENDBLK
  5
9E84
 67
     1
  8
0
  0
BLOCK
  8
0
  2
GENAXEH
 70
     0
 10
0.0
 20
0.0
 30
0.0
  3
GENAXEH
  1

  0
LINE
  5
9BC8
  8
0
 10
-1.0
 20
0.0
 30
0.0
 11
1.0
 21
0.0
 31
0.0
  0
ENDBLK
  5
9BCA
  8
0
  0
BLOCK
  8
0
  2
_ACMFILLEDHALF
 70
     0
 10
0.0
 20
0.0
 30
0.0
  3
_ACMFILLEDHALF
  1

  0
TRACE
  5
9D91
  8
AM_0
 62
     0
 10
-0.8
 20
0.0
 30
0.0
 11
-1.0
 21
0.166666666
 31
0.0
 12
0.0
 22
0.0
 32
0.0
 13
0.0
 23
0.0
 33
0.0
  0
LINE
  5
9D92
  8
AM_0
 62
     0
 10
-1.0
 20
0.0
 30
0.0
 11
-0.8
 21
0.0
 31
0.0
  0
ENDBLK
  5
9D90
  8
0
  0
ENDSEC
  0
SECTION
  2
ENTITIES
  0
POINT
  5
1B94
  8
0
 10
0.0
 20
0.0
 30
0.0
1001
GENIUS_GENODEF_13
1002
{
1000
HIER
1070
     1
1002
}
1002
{
1000
MANEDIT
1070
     0
1002
}
1002
{
1000
NOSEL
1070
     0
1002
}
1002
{
1000
BEHIND
1070
     0
1002
}
1002
{
1000
REACTOR
1002
}
1001
GENIUS_GENOBJ-N-SDF_13
1002
{
1000
OWNER
1000
GEN
1002
}
1001
GENIUS_GENOENT_13
1002
{
1000
MYREF
1005
1B94
1002
}
1002
{
1000
GRP
1005
0
1002
}
1001
GENIUS_GENOLIS_13
1002
{
1000
ENT
1005
89
1002
}
  0
ARC
  5
89BF
  8
AM_0
 10
233.2784475086286
 20
148.0252708122764
 30
0.0
 40
3.0
 50
271.99999999999687
 51
0.0
  0
LINE
  5
89C0
  8
AM_0
 10
231.2784375086286
 20
95.520575812276959
 30
0.0
 11
265.77843750862849
 21
95.520575812276959
 31
0.0
  0
LINE
  5
89C1
  8
AM_0
 10
206.2784475086286
 20
119.517614812277
 30
0.0
 11
256.01994750862838
 21
119.517614812277
 31
0.0
  0
LINE
  5
89C2
  8
AM_0
 10
206.2784475086286
 20
133.5805708122769
 30
0.0
 11
258.01191750862841
 21
133.5805708122769
 31
0.0
  0
LINE
  5
89C3
  8
AM_0
 10
230.41809750862839
 20
55.516910812277047
 30
0.0
 11
263.8482675086284
 21
54.349493812276918
 31
0.0
  0
LINE
  5
89C4
  8
AM_0
 10
233.38317750862831
 20
145.02713081227671
 30
0.0
 11
241.1587575086285
 21
145.29866081227661
 31
0.0
  0
LINE
  5
89C5
  8
AM_0
 10
228.46161750862819
 20
36.506246812276913
 30
0.0
 11
265.63341750862872
 21
48.846746812276933
 31
0.0
  0
LINE
  5
89C6
  8
ﾁｭｳｼﾝｾﾝ
 10
257.63118557187107
 20
87.580601812276896
 30
0.0
 11
18.805777508628118
 21
87.580601812276896
 31
0.0
  0
LINE
  5
89D7
  8
AM_0
 10
206.2784475086286
 20
31.08060281227699
 30
0.0
 11
206.2784475086286
 21
144.08057081227631
 31
0.0
  0
LINE
  5
89D8
  8
AM_0
 10
226.27845750862841
 20
35.641757812278001
 30
0.0
 11
226.27845750862841
 21
90.520574812276905
 31
0.0
  0
LINE
  5
89D9
  8
AM_0
 10
206.2784475086286
 20
41.580602812276993
 30
0.0
 11
226.27845750862841
 21
41.580602812276993
 31
0.0
  0
LINE
  5
89DA
  8
AM_0
 10
206.2784475086286
 20
31.08060281227699
 30
0.0
 11
222.4180275086284
 21
31.644215812277022
 31
0.0
  0
LINE
  5
89DB
  8
AM_0
 10
198.2784375086284
 20
41.580602812276993
 30
0.0
 11
206.2784475086286
 21
41.580602812276993
 31
0.0
  0
LINE
  5
89DC
  8
AM_0
 10
198.2784375086284
 20
31.58061581227707
 30
0.0
 11
206.2784475086286
 21
31.58061581227707
 31
0.0
  0
ARC
  5
89DD
  8
AM_0
 10
222.2784375086286
 20
35.641757812278001
 30
0.0
 40
4.000000199999997
 50
271.99999999999687
 51
0.0
  0
ARC
  5
89DE
  8
AM_0
 10
229.7218575086284
 20
32.70993581227799
 30
0.0
 40
4.000000199999997
 50
108.36541999999901
 51
158.50144999999469
  0
LINE
  5
89DF
  8
AM_0
 10
206.2784475086286
 20
55.64357381227704
 30
0.0
 11
226.27845750862841
 21
55.64357381227704
 31
0.0
  0
LINE
  5
89E0
  8
AM_0
 10
198.2784375086284
 20
55.640600812276944
 30
0.0
 11
206.2784475086286
 21
55.640600812276944
 31
0.0
  0
ARC
  5
89E1
  8
AM_0
 10
230.2784475086286
 20
51.519383812277972
 30
0.0
 40
4.000000199999997
 50
88.000000000002998
 51
180.00001000000091
  0
POINT
  5
89E2
  8
AM_0
 10
206.2784475086286
 20
87.580601812276896
 30
0.0
  0
ARC
  5
89E3
  8
AM_0
 10
231.2784375086286
 20
90.520574812276905
 30
0.0
 40
5.0000000999999958
 50
90.00000299999769
 51
180.00001000000091
  0
LINE
  5
89E4
  8
AM_0
 10
206.2784475086286
 20
144.08060081227629
 30
0.0
 11
233.38317750862831
 21
145.02713081227671
 31
0.0
  0
LINE
  5
89E5
  8
AM_0
 10
198.2784375086284
 20
119.5206058122769
 30
0.0
 11
206.2784475086286
 21
119.5206058122769
 31
0.0
  0
LINE
  5
89E6
  8
AM_0
 10
198.2784375086284
 20
133.580600812277
 30
0.0
 11
206.2784475086286
 21
133.580600812277
 31
0.0
  0
LINE
  5
89E7
  8
AM_0
 10
198.2784375086284
 20
143.58059081227699
 30
0.0
 11
206.2784475086286
 21
143.58059081227699
 31
0.0
  0
LINE
  5
89F4
  8
ｶｸﾚｾﾝ2
 10
274.77843750862849
 20
18.580616812276951
 30
0.0
 11
274.77843750862849
 21
0.5806318122770338
 31
0.0
  0
LINE
  5
89F5
  8
ｶｸﾚｾﾝ2
 10
289.77843750862849
 20
18.580616812276951
 30
0.0
 11
289.77843750862849
 21
0.5806318122770338
 31
0.0
  0
LINE
  5
89F6
  8
AM_0
 10
264.27843750862849
 20
0.5806318122770338
 30
0.0
 11
264.27843750862849
 21
16.58061581227912
 31
0.0
  0
LINE
  5
89F7
  8
AM_0
 10
425.27841750862831
 20
0.5806318122770338
 30
0.0
 11
425.27841750862831
 21
16.58061581227912
 31
0.0
  0
LINE
  5
89F8
  8
AM_0
 10
577.76314516785851
 20
15.580616812276951
 30
0.0
 11
577.76314516785851
 21
0.5806318122770338
 31
0.0
  0
LINE
  5
89F9
  8
ｶｸﾚｾﾝ2
 10
399.77841750862808
 20
18.580616812276951
 30
0.0
 11
399.77841750862808
 21
0.5806318122770338
 31
0.0
  0
LINE
  5
89FA
  8
ｶｸﾚｾﾝ2
 10
414.77841750862808
 20
18.580616812276951
 30
0.0
 11
414.77841750862808
 21
0.5806318122770338
 31
0.0
  0
LINE
  5
89FB
  8
ﾁｭｳｼﾝｾﾝ
 10
282.27843750862849
 20
-2.4193681877229638
 30
0.0
 11
282.27843750862849
 21
21.580616812276961
 31
0.0
  0
LINE
  5
89FC
  8
ﾁｭｳｼﾝｾﾝ
 10
407.27841750862802
 20
-2.4193681877229638
 30
0.0
 11
407.27841750862802
 21
21.580616812276961
 31
0.0
  0
LINE
  5
8A02
  8
AM_0
 10
302.27841750862848
 20
2.5806298122770381
 30
0.0
 11
387.27843750862837
 21
2.5806298122770381
 31
0.0
  0
LINE
  5
8A03
  8
AM_0
 10
264.27843750862849
 20
0.5806318122770338
 30
0.0
 11
300.27843750862849
 21
0.5806318122770338
 31
0.0
  0
ARC
  5
8A08
  8
AM_0
 10
302.27841750862848
 20
0.5806318122770338
 30
0.0
 40
2.00000007
 50
90.00000299999769
 51
180.00001000000091
  0
LINE
  5
8A0A
  8
AM_0
 10
389.27841750862831
 20
0.5806318122770338
 30
0.0
 11
425.27841750862831
 21
0.5806318122770338
 31
0.0
  0
ARC
  5
8A0B
  8
AM_0
 10
387.27843750862837
 20
0.5806318122770338
 30
0.0
 40
2.00000007
 50
0.0
 51
90.00000299999769
  0
LINE
  5
8A0C
  8
AM_0
 10
389.27841750862831
 20
0.5806318122770338
 30
0.0
 11
389.27841750862831
 21
0.5806318122770338
 31
0.0
  0
LINE
  5
8A18
  8
AM_0
 10
487.27845750862809
 20
156.5806108122766
 30
0.0
 11
429.27843750862831
 21
156.5806108122766
 31
0.0
  0
LINE
  5
8A19
  8
AM_0
 10
487.27845750862809
 20
159.5806108122766
 30
0.0
 11
442.27845750862792
 21
159.5806108122766
 31
0.0
  0
LINE
  5
8A1A
  8
AM_0
 10
487.27845750862809
 20
124.580603812277
 30
0.0
 11
429.27843750862831
 21
124.580603812277
 31
0.0
  0
LINE
  5
8A1B
  8
ﾁｭｳｼﾝｾﾝ
 10
255.2458379568609
 20
140.58059081227699
 30
0.0
 11
496.82265820832572
 21
140.58059081227699
 31
0.0
  0
LINE
  5
8A1C
  8
AM_0
 10
236.2784475086284
 20
167.95184081227671
 30
0.0
 11
236.2784475086284
 21
148.0252708122764
 31
0.0
  0
LINE
  5
8A1D
  8
AM_0
 10
265.77843750862849
 20
52.350743812276967
 30
0.0
 11
265.77843750862849
 21
173.79017081227639
 31
0.0
  0
LINE
  5
8A1E
  8
AM_0
 10
274.77843750862849
 20
48.580601812276882
 30
0.0
 11
274.77843750862849
 21
176.58062081227629
 31
0.0
  0
LINE
  5
8A1F
  8
AM_0
 10
244.51977750862849
 20
146.7600508122764
 30
0.0
 11
264.89979750862813
 21
167.1400408122764
 31
0.0
  0
LINE
  5
8A20
  8
AM_0
 10
287.27844750862818
 20
40.651676812276932
 30
0.0
 11
287.27844750862818
 21
184.5095308122763
 31
0.0
  0
LINE
  5
8A21
  8
AM_0
 10
302.27841750862848
 20
24.83061581227707
 30
0.0
 11
302.27841750862848
 21
209.80004081227631
 31
0.0
  0
LINE
  5
8A22
  8
AM_0
 10
312.27840750862822
 20
142.76594081227699
 30
0.0
 11
340.04706750862817
 21
168.0524308122763
 31
0.0
  0
LINE
  5
8A23
  8
AM_0
 10
397.27845750862838
 20
41.038334812277967
 30
0.0
 11
397.27845750862838
 21
202.0615708122763
 31
0.0
  0
LINE
  5
8A24
  8
AM_0
 10
377.27841750862819
 20
33.580601812276882
 30
0.0
 11
377.27841750862819
 21
172.0233208122763
 31
0.0
  0
LINE
  5
8A25
  8
AM_0
 10
418.27845750862838
 20
26.120000812276881
 30
0.0
 11
418.27845750862838
 21
184.5806008122762
 31
0.0
  0
LINE
  5
8A26
  8
AM_0
 10
425.27841750862831
 20
140.58059081227699
 30
0.0
 11
425.27841750862831
 21
167.8485508122767
 31
0.0
  0
LINE
  5
8A27
  8
AM_0
 10
312.27843750862837
 20
56.080601812276882
 30
0.0
 11
312.27843750862837
 21
212.0806408122763
 31
0.0
  0
LINE
  5
8A28
  8
AM_0
 10
429.27843750862831
 20
123.08060381227691
 30
0.0
 11
429.27843750862831
 21
158.0806108122766
 31
0.0
  0
LINE
  5
8A29
  8
AM_0
 10
316.27845750862838
 20
69.205007812277003
 30
0.0
 11
316.27845750862838
 21
127.22837081227701
 31
0.0
  0
LINE
  5
8A2A
  8
AM_0
 10
288.7429275086285
 20
37.116122812276899
 30
0.0
 11
301.39977750862852
 21
24.459248812276879
 31
0.0
  0
LINE
  5
8A2B
  8
AM_0
 10
266.27844750862818
 20
18.580616812276951
 30
0.0
 11
297.3586275086281
 21
18.580616812276951
 31
0.0
  0
ARC
  5
8A2C
  8
AM_0
 10
266.27844750862818
 20
16.58061581227912
 30
0.0
 40
2.00000007
 50
90.00000299999769
 51
180.00001000000091
  0
ARC
  5
8A2D
  8
AM_0
 10
292.27845750862838
 20
40.651676812276932
 30
0.0
 40
5.0000000999999958
 50
179.99998999999889
 51
224.99999999999309
  0
LINE
  5
8A2E
  8
AM_0
 10
274.77843750862849
 20
49.08058781227691
 30
0.0
 11
282.45294750862848
 21
48.812582812277007
 31
0.0
  0
ARC
  5
8A2F
  8
AM_0
 10
263.77845750862849
 20
52.350743812276967
 30
0.0
 40
2.00000007
 50
0.0
 51
88.000000000002998
  0
ARC
  5
8A30
  8
AM_0
 10
268.77843750862849
 20
51.791951812276928
 30
0.0
 40
3.0
 50
179.99998999999889
 51
268.00000999999878
  0
ARC
  5
8A31
  8
AM_0
 10
266.89368750862837
 20
45.050450812276921
 30
0.0
 40
4.000000199999997
 50
74.380295999999547
 51
108.36541999999901
  0
LINE
  5
8A32
  8
AM_0
 10
268.67376750862837
 20
48.793766812276999
 30
0.0
 11
274.77843750862849
 21
48.580586812277033
 31
0.0
  0
LINE
  5
8A33
  8
AM_0
 10
265.77843750862849
 20
51.791951812276928
 30
0.0
 11
265.77843750862849
 21
52.350743812276967
 31
0.0
  0
ARC
  5
8A34
  8
AM_0
 10
282.27843750862849
 20
43.815647812276872
 30
0.0
 40
5.0000000999999958
 50
0.0
 51
88.000000000002998
  0
LINE
  5
8A35
  8
AM_0
 10
274.77843750862849
 20
75.432683812276949
 30
0.0
 11
287.27844750862818
 21
75.432683812276949
 31
0.0
  0
LINE
  5
8A36
  8
AM_0
 10
274.77843750862849
 20
61.080602812276993
 30
0.0
 11
287.27844750862818
 21
61.080602812276993
 31
0.0
  0
LINE
  5
8A37
  8
AM_0
 10
265.77843750862849
 20
75.432242812277991
 30
0.0
 11
274.77843750862849
 21
75.432242812277991
 31
0.0
  0
LINE
  5
8A38
  8
AM_0
 10
265.77843750862849
 20
61.080602812276993
 30
0.0
 11
274.77843750862849
 21
61.080602812276993
 31
0.0
  0
LINE
  5
8A39
  8
AM_0
 10
301.16832750862852
 20
21.361499812277991
 30
0.0
 11
316.08813750862822
 21
67.98590681227688
 31
0.0
  0
ARC
  5
8A3A
  8
AM_0
 10
299.27841750862848
 20
22.337987812276879
 30
0.0
 40
3.0
 50
27.893112999993871
 51
45.000000999996892
  0
ARC
  5
8A3B
  8
AM_0
 10
297.3586275086281
 20
22.58061581227707
 30
0.0
 40
4.000000199999997
 50
270.0
 51
342.25532999999422
  0
LINE
  5
8A3C
  8
AM_0
 10
302.27841750862848
 20
32.162816812277022
 30
0.0
 11
304.62471750862858
 21
32.162816812277022
 31
0.0
  0
LINE
  5
8A3D
  8
AM_0
 10
302.27841750862848
 20
49.515584812276977
 30
0.0
 11
310.17765750862822
 21
49.515584812276977
 31
0.0
  0
ARC
  5
8A3E
  8
AM_0
 10
312.27843750862837
 20
69.205007812277003
 30
0.0
 40
4.000000199999997
 50
342.25532999999422
 51
0.0
  0
LINE
  5
8A40
  8
AM_0
 10
256.01994750862838
 20
119.517614812277
 30
0.0
 11
265.77843750862849
 21
100.08057281227779
 31
0.0
  0
ARC
  5
8A43
  8
AM_0
 10
258.01191750862841
 20
128.5806058122769
 30
0.0
 40
5.0000000999999958
 50
315.00000000000688
 51
90.00000299999769
  0
LINE
  5
8A44
  8
AM_0
 10
256.02003750862849
 20
119.51758481227689
 30
0.0
 11
261.54747750862828
 21
125.0450518122769
 31
0.0
  0
LINE
  5
8A45
  8
AM_0
 10
243.12708750862851
 20
145.19777081227659
 30
0.0
 11
248.9595375086285
 21
133.580600812277
 31
0.0
  0
ARC
  5
8A46
  8
AM_0
 10
240.98424750862861
 20
150.29561081227661
 30
0.0
 40
5.0000000999999958
 50
271.99999999999687
 51
315.00000000000688
  0
LINE
  5
8A48
  8
AM_0
 10
274.77843750862849
 20
149.7285508122763
 30
0.0
 11
287.27844750862818
 21
149.7285508122763
 31
0.0
  0
LINE
  5
8A49
  8
AM_0
 10
265.77843750862849
 20
149.72894081227631
 30
0.0
 11
274.77843750862849
 21
149.72894081227631
 31
0.0
  0
LINE
  5
8A4A
  8
AM_0
 10
312.27843750862837
 20
127.22837081227701
 30
0.0
 11
316.27845750862838
 21
127.22837081227701
 31
0.0
  0
LINE
  5
8A4B
  8
AM_0
 10
312.27843750862837
 20
142.765970812277
 30
0.0
 11
302.27841750862848
 21
142.765970812277
 31
0.0
  0
LINE
  5
8A4C
  8
AM_0
 10
312.27840750862822
 20
142.76594081227699
 30
0.0
 11
312.2799675086282
 21
142.76594081227699
 31
0.0
  0
LINE
  5
8A4D
  8
AM_0
 10
392.27841750862831
 20
18.580616812276951
 30
0.0
 11
423.27843750862797
 21
18.580616812276951
 31
0.0
  0
ARC
  5
8A4E
  8
AM_0
 10
392.27841750862831
 20
33.580601812276882
 30
0.0
 40
15.000000299999989
 50
179.99998999999889
 51
270.0
  0
LINE
  5
8A4F
  8
AM_0
 10
382.35342750862822
 20
33.03833381227696
 30
0.0
 11
389.27841750862831
 21
33.03833381227696
 31
0.0
  0
ARC
  5
8A50
  8
AM_0
 10
389.27841750862831
 20
41.038334812277967
 30
0.0
 40
8.0000000999999976
 50
270.0
 51
0.0
  0
ARC
  5
8A51
  8
AM_0
 10
426.27843750862809
 20
26.120000812276881
 30
0.0
 40
8.0000000999999976
 50
179.99998999999889
 51
252.54238999999731
  0
ARC
  5
8A52
  8
AM_0
 10
423.27843750862797
 20
16.58061581227912
 30
0.0
 40
2.00000007
 50
0.0
 51
90.00000299999769
  0
LINE
  5
8A53
  8
AM_0
 10
425.27841750862831
 20
113.312660812277
 30
0.0
 11
425.27841750862831
 21
140.58059081227699
 31
0.0
  0
ARC
  5
8A54
  8
AM_0
 10
422.27841750862831
 20
113.312660812277
 30
0.0
 40
3.0
 50
299.99999999999437
 51
0.0
  0
ARC
  5
8A55
  8
AM_0
 10
421.27845750862798
 20
105.8071048122769
 30
0.0
 40
3.0
 50
119.9999999999944
 51
180.00001000000091
  0
LINE
  5
8A56
  8
AM_0
 10
419.77842750862823
 20
108.4051888122769
 30
0.0
 11
423.77844750862801
 21
110.714606812277
 31
0.0
  0
LINE
  5
8A57
  8
AM_0
 10
429.27843750862831
 20
123.08060381227691
 30
0.0
 11
425.27841750862831
 21
123.08060381227691
 31
0.0
  0
ARC
  5
8A58
  8
AM_0
 10
329.08959905029792
 20
182.7375853369426
 30
0.0
 40
18.207847538801602
 50
10.054056093812211
 51
22.656779726236451
  0
ARC
  5
8A59
  8
AM_0
 10
328.11475885595422
 20
183.4840127008938
 30
0.0
 40
19.240839888816421
 50
331.46076612636421
 51
343.40674976127121
  0
LINE
  5
8A5B
  8
AM_0
 10
312.27837750862813
 20
212.0806408122763
 30
0.0
 11
389.48781750862821
 21
210.05882081227659
 31
0.0
  0
LINE
  5
8A5C
  8
AM_0
 10
288.7429275086285
 20
188.0450608122762
 30
0.0
 11
301.3998075086285
 21
200.7019108122764
 31
0.0
  0
ARC
  5
8A5D
  8
AM_0
 10
292.27845750862838
 20
184.5095308122763
 30
0.0
 40
5.0000000999999958
 50
135.00000000000691
 51
180.00001000000091
  0
LINE
  5
8A5E
  8
AM_0
 10
239.1737775086284
 20
170.9500108122763
 30
0.0
 11
263.05188750862851
 21
171.7838608122766
 31
0.0
  0
ARC
  5
8A5F
  8
AM_0
 10
239.27844750862829
 20
167.95184081227671
 30
0.0
 40
3.0
 50
91.999998000000758
 51
180.00001000000091
  0
ARC
  5
8A60
  8
AM_0
 10
262.77843750862849
 20
169.26140081227641
 30
0.0
 40
3.0
 50
315.00000000000688
 51
0.0
  0
LINE
  5
8A61
  8
AM_0
 10
274.77843750862849
 20
164.0806108122766
 30
0.0
 11
287.27844750862818
 21
164.0806108122766
 31
0.0
  0
LINE
  5
8A62
  8
AM_0
 10
265.77843750862849
 20
164.0806108122766
 30
0.0
 11
274.77843750862849
 21
164.0806108122766
 31
0.0
  0
LINE
  5
8A63
  8
AM_0
 10
274.77843750862849
 20
176.0806108122764
 30
0.0
 11
282.45294750862848
 21
176.3486008122762
 31
0.0
  0
ARC
  5
8A64
  8
AM_0
 10
268.77843750862849
 20
173.36924081227659
 30
0.0
 40
3.0
 50
91.999998000000758
 51
166.3810700000046
  0
ARC
  5
8A65
  8
AM_0
 10
262.9471575086281
 20
174.7820308122763
 30
0.0
 40
3.0
 50
271.99999999999687
 51
346.38107000000463
  0
LINE
  5
8A66
  8
AM_0
 10
268.67376750862837
 20
176.36744081227661
 30
0.0
 11
274.77843750862849
 21
176.58062081227629
 31
0.0
  0
ARC
  5
8A67
  8
AM_0
 10
282.27843750862849
 20
181.3455508122766
 30
0.0
 40
5.0000000999999958
 50
271.99999999999687
 51
0.0
  0
ARC
  5
8A68
  8
AM_0
 10
334.6053589149796
 20
166.16904863093271
 30
0.0
 40
22.14757486610873
 50
65.233958921480024
 51
70.759260695769683
  0
ARC
  5
8A69
  8
AM_0
 10
322.67453057133838
 20
187.20526394349591
 30
0.0
 40
25.85802535224682
 50
312.21118425178832
 51
321.0897538492685
  0
ARC
  5
8A6A
  8
AM_0
 10
339.11494702043819
 20
175.78063179005261
 30
0.0
 40
11.531081540778841
 50
54.962420831018292
 51
65.57380989642472
  0
ARC
  5
8A6B
  8
AM_0
 10
325.58194757982801
 20
184.86447378702499
 30
0.0
 40
22.12541952703112
 50
321.07754633325283
 51
331.4539179727621
  0
ARC
  5
8A6C
  8
AM_0
 10
312.39727081444738
 20
38.521796571374118
 30
0.0
 40
152.1926240659709
 50
87.619035368293567
 51
88.424563018157812
  0
ARC
  5
8A6D
  8
AM_0
 10
312.36624491892138
 20
158.4417581564629
 30
0.0
 40
48.94607402863037
 50
80.714423670209314
 51
85.405401973530999
  0
LINE
  5
8A6E
  8
AM_0
 10
302.27841750862848
 20
190.7159008122762
 30
0.0
 11
312.27843750862837
 21
190.7159008122762
 31
0.0
  0
ARC
  5
8A6F
  8
AM_0
 10
299.27841750862848
 20
202.8232708122766
 30
0.0
 40
3.0
 50
315.00000000000688
 51
0.0
  0
ARC
  5
8A70
  8
AM_0
 10
312.2790228927056
 20
33.47576463015708
 30
0.0
 40
157.24013794786151
 50
89.211708979603699
 51
89.991413432592836
  0
ARC
  5
8A71
  8
AM_0
 10
312.303964812218
 20
35.173091510481981
 30
0.0
 40
155.54262856976541
 50
88.424119343891334
 51
89.212293939127534
  0
LINE
  5
8A72
  8
AM_0
 10
312.27843750862837
 20
207.39146081227631
 30
0.0
 11
302.27841750862848
 21
207.39146081227631
 31
0.0
  0
LINE
  5
8A73
  8
AM_0
 10
304.20861750862849
 20
211.7988508122763
 30
0.0
 11
312.27843750862837
 21
212.0806408122763
 31
0.0
  0
ARC
  5
8A74
  8
AM_0
 10
304.27845750862849
 20
209.80004081227631
 30
0.0
 40
2.00000007
 50
91.999998000000758
 51
180.00001000000091
  0
ARC
  5
8A75
  8
AM_0
 10
312.28094073442219
 20
157.44446584407311
 30
0.0
 40
49.946995029436657
 50
85.399503413654486
 51
90.002837115622214
  0
ARC
  5
8A76
  8
AM_0
 10
313.38107445969922
 20
163.09542835518641
 30
0.0
 40
44.178976739071757
 50
70.646557849087444
 51
75.842987046350657
  0
ARC
  5
8A77
  8
AM_0
 10
318.7487733245589
 20
101.95453603242279
 30
0.0
 40
88.407800265251453
 50
80.322795035499055
 51
81.709057787718805
  0
ARC
  5
8A78
  8
AM_0
 10
316.28026264585691
 20
170.1007549310151
 30
0.0
 40
36.58833183618367
 50
58.747514791864369
 51
65.021410150988274
  0
ARC
  5
8A79
  8
AM_0
 10
312.60709286988339
 20
43.485231726177972
 30
0.0
 40
147.22475716073791
 50
86.787684001741582
 51
87.620374660701273
  0
ARC
  5
8A7A
  8
AM_0
 10
312.97221438793292
 20
50.001241325157018
 30
0.0
 40
140.69852590066699
 50
85.916159884215006
 51
86.787446142731795
  0
ARC
  5
8A7B
  8
AM_0
 10
313.54633997298492
 20
57.98361304650097
 30
0.0
 40
132.69553522017131
 50
84.994153132616759
 51
85.917970908188337
  0
ARC
  5
8A7C
  8
AM_0
 10
314.36638858936129
 20
67.322855231896014
 30
0.0
 40
123.3203594877065
 50
84.001013169505796
 51
84.995083645089466
  0
ARC
  5
8A7D
  8
AM_0
 10
315.48005071767551
 20
77.886475352564958
 30
0.0
 40
112.69819870951559
 50
82.915332203504462
 51
84.002818104932572
  0
ARC
  5
8A7E
  8
AM_0
 10
316.9255528762946
 20
89.494355942355924
 30
0.0
 40
101.00066223604659
 50
81.704854134958751
 51
82.916918892694085
  0
ARC
  5
8A7F
  8
AM_0
 10
314.55810317177469
 20
166.424468493131
 30
0.0
 40
40.6479928758394
 50
65.009206516222051
 51
70.656835861943136
  0
ARC
  5
8A80
  8
AM_0
 10
320.98563301157333
 20
115.028301980574
 30
0.0
 40
75.144058957424974
 50
78.698650258107705
 51
80.328411914022624
  0
ARC
  5
8A81
  8
AM_0
 10
323.6685286774636
 20
128.40224742711999
 30
0.0
 40
61.503669521351931
 50
76.717511613315807
 51
78.707959047460122
  0
ARC
  5
8A82
  8
AM_0
 10
326.8285991618049
 20
141.72218433147009
 30
0.0
 40
47.814021408320329
 50
74.175745484654939
 51
76.735785631260185
  0
ARC
  5
8A83
  8
AM_0
 10
330.47800370691851
 20
154.5181142087402
 30
0.0
 40
34.507883132995822
 50
70.663981385009379
 51
74.211959770626535
  0
ARC
  5
8A84
  8
AM_0
 10
318.54219990954027
 20
173.81147391835071
 30
0.0
 40
32.242562319109389
 50
51.645830689231531
 51
58.762702547166967
  0
ARC
  5
8A85
  8
AM_0
 10
321.24655855177622
 20
177.2155268553156
 30
0.0
 40
27.895028579833241
 50
43.437152226464647
 51
51.663178236766569
  0
ARC
  5
8A86
  8
AM_0
 10
324.16906857364432
 20
179.9736075987804
 30
0.0
 40
23.876568405432529
 50
33.84590684027517
 51
43.453168108733642
  0
ARC
  5
8A87
  8
AM_0
 10
326.94539168589921
 20
181.83343428172631
 30
0.0
 40
20.534873900962172
 50
22.68023548242483
 51
33.850501514775921
  0
ARC
  5
8A88
  8
AM_0
 10
312.68738680711908
 20
160.3692841403174
 30
0.0
 40
46.991988036867177
 50
75.835842794495619
 51
80.721638154430266
  0
ARC
  5
8A8C
  8
AM_0
 10
405.2784375086282
 20
196.5806008122762
 30
0.0
 40
8.0000000999999976
 50
179.99998999999889
 51
270.0
  0
ARC
  5
8A8D
  8
AM_0
 10
330.11933359012392
 20
182.9377257656302
 30
0.0
 40
17.15899489212007
 50
356.6266686606632
 51
9.9962935733861276
  0
ARC
  5
8A8E
  8
AM_0
 10
329.76302742188989
 20
182.97956388578629
 30
0.0
 40
17.517157873691531
 50
343.4484090879331
 51
356.5586353630747
  0
LINE
  5
8A8F
  8
AM_0
 10
385.27845750862838
 20
180.02333081227661
 30
0.0
 11
393.67794750862822
 21
180.02333081227661
 31
0.0
  0
ARC
  5
8A90
  8
AM_0
 10
385.27845750862838
 20
172.0233208122763
 30
0.0
 40
8.0000000999999976
 50
90.00000299999769
 51
180.00001000000091
  0
ARC
  5
8A91
  8
AM_0
 10
389.27841750862831
 20
202.0615708122763
 30
0.0
 40
8.0000000999999976
 50
0.0
 51
88.499997000000647
  0
ARC
  5
8A93
  8
AM_0
 10
414.27843750862831
 20
184.5806008122762
 30
0.0
 40
4.000000199999997
 50
0.0
 51
90.00000299999769
  0
ARC
  5
8A94
  8
AM_0
 10
422.27841750862831
 20
167.8485508122767
 30
0.0
 40
3.0
 50
0.0
 51
60.000002000001302
  0
LINE
  5
8A95
  8
AM_0
 10
429.27843750862831
 20
158.0806108122766
 30
0.0
 11
425.27841750862831
 21
158.0806108122766
 31
0.0
  0
ARC
  5
8A96
  8
AM_0
 10
421.27845750862798
 20
175.35410081227661
 30
0.0
 40
3.0
 50
179.99998999999889
 51
240.00000999999349
  0
LINE
  5
8A97
  8
AM_0
 10
419.77845750862821
 20
172.75604081227641
 30
0.0
 11
423.77844750862801
 21
170.44664081227631
 31
0.0
  0
LINE
  5
8A98
  8
AM_0
 10
442.27845750862792
 20
156.5806108122766
 30
0.0
 11
442.27845750862792
 21
159.5806108122766
 31
0.0
  0
LINE
  5
8A99
  8
AM_0
 10
405.2784375086282
 20
188.58062081227669
 30
0.0
 11
414.27843750862831
 21
188.58062081227669
 31
0.0
  0
LINE
  5
8A9D
  8
AM_0
 10
487.27845750862809
 20
124.580603812277
 30
0.0
 11
487.27845750862809
 21
159.5806108122766
 31
0.0
  0
ARC
  5
8AAC
  8
AM_0
 10
692.76313516785842
 20
112.58060381227681
 30
0.0
 40
99.500004000000004
 50
8.4654901000033789
 51
171.53449999999989
  0
ARC
  5
8AAD
  8
AM_0
 10
692.76313516785842
 20
123.5806048122769
 30
0.0
 40
65.000000999999997
 50
0.0
 51
180.00001000000091
  0
LINE
  5
8AAE
  8
AM_0
 10
629.76313216785854
 20
2.5806298122770381
 30
0.0
 11
755.76313516785899
 21
2.5806298122770381
 31
0.0
  0
LINE
  5
8AAF
  8
AM_0
 10
764.28390316785885
 20
194.69660081227639
 30
0.0
 11
721.98608116785886
 21
207.6925108122764
 31
0.0
  0
LINE
  5
8AB0
  8
ﾁｭｳｼﾝｾﾝ
 10
624.16102022964969
 20
140.58059081227699
 30
0.0
 11
761.36525010606738
 21
140.58059081227699
 31
0.0
  0
LINE
  5
8AB1
  8
ｶｸﾚｾﾝ2
 10
590.26314616785885
 20
18.580616812276951
 30
0.0
 11
590.26314616785885
 21
0.5806318122770338
 31
0.0
  0
LINE
  5
8AB2
  8
ｶｸﾚｾﾝ2
 10
605.26314616785908
 20
18.580616812276951
 30
0.0
 11
605.26314616785908
 21
0.5806318122770338
 31
0.0
  0
LINE
  5
8AB3
  8
AM_0
 10
627.7631491678585
 20
14.580617812277071
 30
0.0
 11
627.7631491678585
 21
0.5806318122770338
 31
0.0
  0
LINE
  5
8AB4
  8
ﾁｭｳｼﾝｾﾝ
 10
692.76313516785842
 20
-4.589503932543038
 30
0.0
 11
692.76313516785842
 21
217.3250418554953
 31
0.0
  0
LINE
  5
8AB5
  8
ﾁｭｳｼﾝｾﾝ
 10
597.76314616785908
 20
21.580616812276961
 30
0.0
 11
597.76314616785908
 21
-2.4193681877229638
 31
0.0
  0
LINE
  5
8AB6
  8
AM_0
 10
577.76314516785851
 20
0.5806318122770338
 30
0.0
 11
627.7631491678585
 21
0.5806318122770338
 31
0.0
  0
ARC
  5
8ABA
  8
AM_0
 10
629.76313216785854
 20
0.5806318122770338
 30
0.0
 40
2.00000007
 50
90.00000299999769
 51
180.00001000000091
  0
CIRCLE
  5
8ABD
  8
AM_0
 10
692.76313516785842
 20
140.58059081227699
 30
0.0
 40
29.000001000000001
  0
ARC
  5
8ABE
  8
AM_0
 10
692.76313516785842
 20
140.58059081227699
 30
0.0
 40
16.000000499999999
 50
108.2099599999986
 51
71.790051999993665
  0
LINE
  5
8ABF
  8
AM_0
 10
615.76314616785885
 20
172.6742908122763
 30
0.0
 11
615.76314616785885
 21
74.317862812276843
 31
0.0
  0
LINE
  5
8AC0
  8
AM_0
 10
611.0491261678585
 20
183.9026008122766
 30
0.0
 11
597.95226316785875
 21
142.765970812277
 31
0.0
  0
ARC
  5
8AC1
  8
AM_0
 10
612.76314616785885
 20
33.580601812276882
 30
0.0
 40
15.000000299999989
 50
270.0
 51
0.0
  0
ARC
  5
8AC2
  8
AM_0
 10
692.76313516785842
 20
74.317862812276843
 30
0.0
 40
77.000000999999983
 50
179.99998999999889
 51
212.4183899999945
  0
ARC
  5
8AC3
  8
AM_0
 10
623.76313216785854
 20
14.580617812277071
 30
0.0
 40
4.000000199999997
 50
0.0
 51
90.00000299999769
  0
LINE
  5
8AC4
  8
AM_0
 10
577.79583016785875
 20
16.022252812276971
 30
0.0
 11
594.34722316785894
 21
127.2284008122769
 31
0.0
  0
LINE
  5
8AC5
  8
AM_0
 10
623.76313216785854
 20
18.580616812276951
 30
0.0
 11
580.76314516785885
 21
18.580616812276951
 31
0.0
  0
ARC
  5
8AC6
  8
AM_0
 10
580.76314516785885
 20
15.580616812276951
 30
0.0
 40
3.0
 50
90.00000299999769
 51
180.00001000000091
  0
LINE
  5
8AC7
  8
AM_0
 10
627.7631491678585
 20
123.5806048122769
 30
0.0
 11
627.7631491678585
 21
33.580601812276882
 31
0.0
  0
CIRCLE
  5
8AC8
  8
AM_5
 10
692.76313516785842
 20
140.58059081227699
 30
0.0
 40
4.000000199999997
  0
CIRCLE
  5
8AC9
  8
AM_0
 10
692.76313516785842
 20
140.58059081227699
 30
0.0
 40
2.75000007
  0
LINE
  5
8ACA
  8
AM_0
 10
621.44117116785856
 20
194.2946608122765
 30
0.0
 11
662.57780116785898
 21
207.39149081227629
 31
0.0
  0
ARC
  5
8ACB
  8
AM_0
 10
626.29509916785855
 20
179.0486608122763
 30
0.0
 40
16.000000499999999
 50
107.07945999999821
 51
162.9205299999976
  0
ARC
  5
8ACC
  8
AM_0
 10
623.76313216785854
 20
172.6742908122763
 30
0.0
 40
8.0000000999999976
 50
138.9466500000033
 51
180.00001000000091
  0
LINE
  5
8ACE
  8
AM_0
 10
687.76313416785922
 20
159.5806108122766
 30
0.0
 11
697.76313316785888
 21
159.5806108122766
 31
0.0
  0
LINE
  5
8ACF
  8
AM_0
 10
687.76313416785922
 20
151.58060081227629
 30
0.0
 11
697.76313316785888
 21
151.58060081227629
 31
0.0
  0
LINE
  5
8AD0
  8
AM_0
 10
687.76313416785922
 20
151.58060081227629
 30
0.0
 11
687.76313416785922
 21
159.5806108122766
 31
0.0
  0
LINE
  5
8AD1
  8
AM_0
 10
697.76313316785888
 20
151.58060081227629
 30
0.0
 11
697.76313316785888
 21
159.5806108122766
 31
0.0
  0
LINE
  5
8AD7
  8
ｶｸﾚｾﾝ2
 10
780.26314516785874
 20
18.580616812276951
 30
0.0
 11
780.26314516785874
 21
0.5806318122770338
 31
0.0
  0
LINE
  5
8AD8
  8
ｶｸﾚｾﾝ2
 10
795.26314516785885
 20
18.580616812276951
 30
0.0
 11
795.26314516785885
 21
0.5806318122770338
 31
0.0
  0
LINE
  5
8AD9
  8
AM_0
 10
807.76314616785885
 20
15.580616812276951
 30
0.0
 11
807.76314616785885
 21
0.5806318122770338
 31
0.0
  0
LINE
  5
8ADA
  8
AM_0
 10
757.76314516785885
 20
14.580617812277071
 30
0.0
 11
757.76314516785885
 21
0.5806318122770338
 31
0.0
  0
LINE
  5
8ADB
  8
ﾁｭｳｼﾝｾﾝ
 10
787.7631451678584
 20
21.580616812276961
 30
0.0
 11
787.76314516785874
 21
-2.4193681877229638
 31
0.0
  0
LINE
  5
8ADE
  8
AM_0
 10
757.76314516785885
 20
0.5806318122770338
 30
0.0
 11
807.76314616785885
 21
0.5806318122770338
 31
0.0
  0
ARC
  5
8AE1
  8
AM_0
 10
755.76313516785899
 20
0.5806318122770338
 30
0.0
 40
2.00000007
 50
0.0
 51
90.00000299999769
  0
LINE
  5
8AEC
  8
AM_0
 10
769.76314516785874
 20
172.6742908122763
 30
0.0
 11
769.76314516785874
 21
74.317862812276843
 31
0.0
  0
LINE
  5
8AED
  8
AM_0
 10
774.87910516785905
 20
184.1013808122762
 30
0.0
 11
787.87503016785877
 21
141.803570812278
 31
0.0
  0
LINE
  5
8AF0
  8
AM_0
 10
807.73046116785827
 20
16.022252812276971
 30
0.0
 11
791.17906216785843
 21
127.2284008122769
 31
0.0
  0
LINE
  5
8AF1
  8
AM_0
 10
757.76314516785885
 20
123.5806048122769
 30
0.0
 11
757.76314516785885
 21
33.580601812276882
 31
0.0
  0
LINE
  5
8AF2
  8
AM_0
 10
761.76313516785865
 20
18.580616812276951
 30
0.0
 11
804.76314616785908
 21
18.580616812276951
 31
0.0
  0
ARC
  5
8AF3
  8
AM_0
 10
692.76313516785842
 20
74.317862812276843
 30
0.0
 40
77.000000999999983
 50
327.58159999999691
 51
0.0
  0
ARC
  5
8AF4
  8
AM_0
 10
772.76314516785885
 20
33.580601812276882
 30
0.0
 40
15.000000299999989
 50
179.99998999999889
 51
270.0
  0
ARC
  5
8AF5
  8
AM_0
 10
761.76313516785865
 20
14.580617812277071
 30
0.0
 40
4.000000199999997
 50
90.00000299999769
 51
180.00001000000091
  0
ARC
  5
8AF7
  8
AM_0
 10
804.76314616785908
 20
15.580616812276951
 30
0.0
 40
3.0
 50
0.0
 51
90.00000299999769
  0
ARC
  5
8AFD
  8
AM_0
 10
759.58473016785842
 20
179.40221081227639
 30
0.0
 40
16.000000499999999
 50
17.07946300000124
 51
72.920533999992657
  0
ARC
  5
8AFE
  8
AM_0
 10
761.76313516785865
 20
172.6742908122763
 30
0.0
 40
8.0000000999999976
 50
0.0
 51
41.053350999999687
  0
ARC
  5
8B00
  8
AM_0
 10
91.602247508628366
 20
102.5906128122769
 30
0.0
 40
1.335016049999999
 50
89.732355000002016
 51
270.26763000000221
  0
LINE
  5
8B01
  8
ﾁｭｳｼﾝｾﾝ
 10
147.2784375086284
 20
128.2056163122769
 30
0.0
 11
147.2784375086284
 21
46.955587312276862
 31
0.0
  0
LINE
  5
8B02
  8
AM_0
 10
188.04846750862811
 20
117.575597812277
 30
0.0
 11
188.04846750862811
 21
57.575594812276911
 31
0.0
  0
LINE
  5
8B03
  8
AM_0
 10
90.278437508628642
 20
140.5755868122769
 30
0.0
 11
90.278437508628642
 21
38.13560681227704
 31
0.0
  0
LINE
  5
8B04
  8
AM_0
 10
198.27846750862801
 20
143.58059681227681
 30
0.0
 11
198.27846750862801
 21
31.580585812276919
 31
0.0
  0
LINE
  5
8B05
  8
AM_0
 10
191.5185020646409
 20
51.580601812276882
 30
0.0
 11
92.920941665550785
 21
51.580601812276882
 31
0.0
  0
LINE
  5
8B06
  8
AM_0
 10
147.2784375086284
 20
50.855594812276863
 30
0.0
 11
195.09846750862829
 21
50.855594812276863
 31
0.0
  0
LINE
  5
8B07
  8
AM_0
 10
93.478447508628051
 20
31.295579812277079
 30
0.0
 11
190.39845750862841
 21
31.295579812277079
 31
0.0
  0
LINE
  5
8B08
  8
AM_0
 10
115.7784375086282
 20
49.355594812276877
 30
0.0
 11
198.27846750862801
 21
49.355594812276877
 31
0.0
  0
ARC
  5
8B09
  8
AM_0
 10
297.32963071588171
 20
89.268175752199994
 30
0.0
 40
204.69842337270771
 50
178.02572260412779
 51
178.71785518950381
  0
ARC
  5
8B0A
  8
AM_0
 10
297.25237882771893
 20
85.888631886251005
 30
0.0
 40
204.6212004872653
 50
181.28349981583841
 51
181.9756167481539
  0
ARC
  5
8B0B
  8
AM_0
 10
92.820697508628314
 20
52.575596812276892
 30
0.0
 40
1.0000319699999971
 50
89.552707000000495
 51
270.44730000000112
  0
ARC
  5
8B0C
  8
AM_0
 10
92.820697508628314
 20
102.5755978122781
 30
0.0
 40
1.0000319699999971
 50
89.552707000000495
 51
270.44730000000112
  0
ARC
  5
8B0D
  8
AM_0
 10
92.820697508628314
 20
92.575595812278124
 30
0.0
 40
1.0000319699999971
 50
89.552707000000495
 51
270.44730000000112
  0
ARC
  5
8B0E
  8
AM_0
 10
92.820697508628314
 20
82.575596812276885
 30
0.0
 40
1.0000319699999971
 50
89.552707000000495
 51
270.44730000000112
  0
ARC
  5
8B0F
  8
AM_0
 10
92.820697508628314
 20
72.575594812276904
 30
0.0
 40
1.0000319699999971
 50
89.552707000000495
 51
270.44730000000112
  0
ARC
  5
8B10
  8
AM_0
 10
92.820697508628314
 20
62.575580812276918
 30
0.0
 40
1.0000319699999971
 50
89.552707000000495
 51
270.44730000000112
  0
ARC
  5
8B11
  8
AM_0
 10
91.540237508628266
 20
92.58557681227694
 30
0.0
 40
1.270028039999999
 50
89.627211000000742
 51
270.37279000000228
  0
ARC
  5
8B12
  8
AM_0
 10
91.540237508628266
 20
82.575596812276885
 30
0.0
 40
1.270028039999999
 50
89.627211000000742
 51
270.37279000000228
  0
ARC
  5
8B13
  8
AM_0
 10
91.602247508628366
 20
72.565586812276933
 30
0.0
 40
1.3300160699999981
 50
89.73134399999789
 51
270.26864999999918
  0
ARC
  5
8B14
  8
AM_0
 10
91.732867508628317
 20
62.555606812276878
 30
0.0
 40
1.4600120099999969
 50
89.778814000002811
 51
270.22118999999998
  0
ARC
  5
8B15
  8
AM_0
 10
93.570577508628048
 20
27.686069812277989
 30
0.0
 40
2.000475929999999
 50
187.7704599999943
 51
269.93969000000249
  0
ARC
  5
8B16
  8
AM_0
 10
93.483097508627935
 20
33.294587812277079
 30
0.0
 40
1.999007999999999
 50
190.63740999999681
 51
269.86655000000292
  0
ARC
  5
8B17
  8
AM_0
 10
93.534427508628141
 20
30.445772812277021
 30
0.0
 40
2.0001841200000001
 50
188.92099999999621
 51
269.8285299999992
  0
ARC
  5
8B18
  8
AM_0
 10
93.541987508628253
 20
28.60292381227692
 30
0.0
 40
1.997348129999998
 50
188.85146999999321
 51
270.18467999999763
  0
LINE
  5
8B19
  8
AM_0
 10
96.278437508628656
 20
103.5755968122769
 30
0.0
 11
92.638507508628308
 21
103.5755968122769
 31
0.0
  0
LINE
  5
8B1A
  8
AM_0
 10
96.278437508628656
 20
101.575595812277
 30
0.0
 11
92.638507508628308
 21
101.575595812277
 31
0.0
  0
LINE
  5
8B1B
  8
AM_0
 10
96.278437508628656
 20
93.575597812276996
 30
0.0
 11
92.638507508628308
 21
93.575597812276996
 31
0.0
  0
LINE
  5
8B1C
  8
AM_0
 10
96.278437508628656
 20
91.575596812276899
 30
0.0
 11
92.638507508628308
 21
91.575596812276899
 31
0.0
  0
LINE
  5
8B1D
  8
AM_0
 10
91.608457508627964
 20
101.2555888122769
 30
0.0
 11
96.278437508628656
 21
101.2555888122769
 31
0.0
  0
LINE
  5
8B1E
  8
AM_0
 10
91.548457508628076
 20
93.855596812276886
 30
0.0
 11
96.278437508628656
 21
93.855596812276886
 31
0.0
  0
LINE
  5
8B1F
  8
AM_0
 10
91.548457508628076
 20
91.315586812276919
 30
0.0
 11
96.278437508628656
 21
91.315586812276919
 31
0.0
  0
LINE
  5
8B20
  8
AM_0
 10
91.548457508628076
 20
83.845586812276906
 30
0.0
 11
96.278437508628656
 21
83.845586812276906
 31
0.0
  0
LINE
  5
8B21
  8
AM_0
 10
96.278437508628656
 20
83.575595812277015
 30
0.0
 11
92.638507508628308
 21
83.575595812277015
 31
0.0
  0
LINE
  5
8B22
  8
AM_0
 10
96.278437508628656
 20
81.575597812277024
 30
0.0
 11
92.638507508628308
 21
81.575597812277024
 31
0.0
  0
LINE
  5
8B23
  8
AM_0
 10
91.548457508628076
 20
81.305606812276906
 30
0.0
 11
96.278437508628656
 21
81.305606812276906
 31
0.0
  0
LINE
  5
8B24
  8
AM_0
 10
91.608457508627964
 20
73.895603812276931
 30
0.0
 11
96.278437508628656
 21
73.895603812276931
 31
0.0
  0
LINE
  5
8B25
  8
AM_0
 10
96.278437508628656
 20
73.575596812276913
 30
0.0
 11
92.638507508628308
 21
73.575596812276913
 31
0.0
  0
LINE
  5
8B26
  8
AM_0
 10
96.278437508628656
 20
71.575580812276939
 30
0.0
 11
92.638507508628308
 21
71.575580812276939
 31
0.0
  0
LINE
  5
8B27
  8
AM_0
 10
91.608457508627964
 20
71.235599812278011
 30
0.0
 11
96.278437508628656
 21
71.235599812278011
 31
0.0
  0
LINE
  5
8B28
  8
AM_0
 10
96.278437508628656
 20
63.575594812276883
 30
0.0
 11
92.638507508628308
 21
63.575594812276883
 31
0.0
  0
LINE
  5
8B29
  8
AM_0
 10
91.738477508628421
 20
64.015598812276949
 30
0.0
 11
96.278437508628656
 21
64.015598812276949
 31
0.0
  0
LINE
  5
8B2A
  8
AM_0
 10
96.278437508628656
 20
61.575596812276899
 30
0.0
 11
92.638507508628308
 21
61.575596812276899
 31
0.0
  0
LINE
  5
8B2B
  8
AM_0
 10
91.738477508628421
 20
61.095584812276897
 30
0.0
 11
96.278437508628656
 21
61.095584812276897
 31
0.0
  0
LINE
  5
8B2C
  8
AM_0
 10
91.948447508628362
 20
50.855594812276863
 30
0.0
 11
147.2784375086284
 21
50.855594812276863
 31
0.0
  0
LINE
  5
8B2D
  8
AM_0
 10
91.948447508628362
 20
54.21560981227708
 30
0.0
 11
96.385341537042351
 21
54.21560981227708
 31
0.0
  0
LINE
  5
8B2E
  8
AM_0
 10
96.615806669733047
 20
53.575580812276932
 30
0.0
 11
92.638507508628308
 21
53.575580812276932
 31
0.0
  0
LINE
  5
8B2F
  8
AM_0
 10
95.638447508628374
 20
50.92560281227815
 30
0.0
 11
90.278437508628642
 21
39.485597812279131
 31
0.0
  0
LINE
  5
8B30
  8
AM_0
 10
90.278437508628642
 20
39.485582812277009
 30
0.0
 11
91.518427508628633
 21
32.925584812277052
 31
0.0
  0
LINE
  5
8B31
  8
AM_0
 10
90.278437508628642
 20
36.795611812277002
 30
0.0
 11
91.588447508628121
 21
27.4156078122769
 31
0.0
  0
LINE
  5
8B32
  8
AM_0
 10
82.278457508628264
 20
34.580585812276922
 30
0.0
 11
90.278437508628642
 21
34.580585812276922
 31
0.0
  0
LINE
  5
8B33
  8
AM_0
 10
82.278457508628264
 20
34.57559381227815
 30
0.0
 11
90.278437508628642
 21
34.57559381227815
 31
0.0
  0
LINE
  5
8B34
  8
AM_0
 10
90.278437508628642
 20
38.135591812276971
 30
0.0
 11
91.558417508628324
 21
30.135593812276959
 31
0.0
  0
LINE
  5
8B35
  8
AM_0
 10
90.278437508628642
 20
36.795581812277987
 30
0.0
 11
91.568497508628369
 21
28.295594812276931
 31
0.0
  0
LINE
  5
8B36
  8
AM_0
 10
82.968457508628134
 20
44.385593812276973
 30
0.0
 11
89.198497508628435
 21
44.385593812276973
 31
0.0
  0
ARC
  5
8B37
  8
AM_0
 10
91.948447508628362
 20
52.53558581227707
 30
0.0
 40
1.679999999999999
 50
90.00000299999769
 51
270.0
  0
ARC
  5
8B38
  8
AM_0
 10
294.24216215000689
 20
89.28844237780001
 30
0.0
 40
201.61085738285439
 50
179.42527489174191
 51
180.13294661221761
  0
ARC
  5
8B39
  8
AM_0
 10
297.27208142814038
 20
89.28782515591702
 30
0.0
 40
204.64076721509861
 50
180.13080539049491
 51
180.47940135319399
  0
ARC
  5
8B3A
  8
AM_0
 10
295.52541547899301
 20
85.86285307528486
 30
0.0
 40
202.89403267033549
 50
180.21919094446349
 51
180.57069649462861
  0
ARC
  5
8B3B
  8
AM_0
 10
296.5620550407989
 20
85.871096407807954
 30
0.0
 40
203.93069622692141
 50
179.87077327206001
 51
180.22039274125001
  0
ARC
  5
8B3C
  8
AM_0
 10
296.18406055022939
 20
85.873866025802045
 30
0.0
 40
203.55269646012371
 50
179.52099544220221
 51
179.87131288695369
  0
ARC
  5
8B3D
  8
AM_0
 10
297.59752931341148
 20
85.875394321340977
 30
0.0
 40
204.96200297080929
 50
186.94488316606041
 51
187.59240971813529
  0
LINE
  5
8B3E
  8
AM_0
 10
93.528457508628165
 20
28.44558881227703
 30
0.0
 11
127.27845750862831
 21
28.44558881227703
 31
0.0
  0
LINE
  5
8B3F
  8
AM_0
 10
93.548467508628278
 20
26.605592812276878
 30
0.0
 11
127.27845750862831
 21
26.605592812276878
 31
0.0
  0
LINE
  5
8B40
  8
AM_0
 10
93.568477508628362
 20
25.685594812277941
 30
0.0
 11
127.27845750862831
 21
25.685594812277941
 31
0.0
  0
LINE
  5
8B41
  8
AM_0
 10
115.7784375086282
 20
49.355594812276877
 30
0.0
 11
95.605657508628155
 21
50.855594812276863
 31
0.0
  0
ARC
  5
8B42
  8
AM_0
 10
298.07976467615748
 20
85.945710782181095
 30
0.0
 40
205.44930125633391
 50
187.59407870998189
 51
188.8860675939209
  0
ARC
  5
8B43
  8
AM_0
 10
127.2751575086281
 20
28.608875812276889
 30
0.0
 40
2.003279969999999
 50
270.09378999999711
 51
359.90621000000289
  0
LINE
  5
8B44
  8
AM_0
 10
129.2784375086282
 20
27.685595812276912
 30
0.0
 11
129.2784375086282
 21
31.295579812277079
 31
0.0
  0
ARC
  5
8B45
  8
AM_0
 10
127.27044750862819
 20
27.693605812276921
 30
0.0
 40
2.0080361999999981
 50
270.22878999999938
 51
359.77121000000051
  0
ARC
  5
8B46
  8
AM_0
 10
127.2712575086282
 20
30.45277781227696
 30
0.0
 40
2.007180029999998
 50
270.20461999999759
 51
359.79537999999582
  0
ARC
  5
8B48
  8
AM_0
 10
297.18479538095397
 20
85.883988343867941
 30
0.0
 40
204.55326957220879
 50
185.46031399634921
 51
186.13700085447189
  0
ARC
  5
8B49
  8
AM_0
 10
297.83816427471521
 20
85.943193392258991
 30
0.0
 40
205.2093074617344
 50
184.78473638767409
 51
185.45941055424001
  0
ARC
  5
8B4A
  8
AM_0
 10
297.26780054002347
 20
85.89326994164503
 30
0.0
 40
204.63676715666841
 50
184.10764570184199
 51
184.78412767204631
  0
ARC
  5
8B4B
  8
AM_0
 10
297.0091571921435
 20
85.881528319134986
 30
0.0
 40
204.37787853975311
 50
181.97597713469739
 51
183.3618692197046
  0
ARC
  5
8B4C
  8
AM_0
 10
297.33798041786849
 20
89.265524838466931
 30
0.0
 40
204.70684984457009
 50
176.64084313943471
 51
177.3330192692049
  0
ARC
  5
8B4D
  8
AM_0
 10
298.65484609084871
 20
89.211349829245151
 30
0.0
 40
206.0248100930055
 50
177.3350100486474
 51
178.0226252694244
  0
LINE
  5
8B4E
  8
AM_0
 10
195.09846750862829
 20
54.21560981227708
 30
0.0
 11
185.278437508628
 21
54.21560981227708
 31
0.0
  0
LINE
  5
8B4F
  8
AM_0
 10
196.77846750862841
 20
49.355594812276877
 30
0.0
 11
192.3284475086281
 21
32.77559081227696
 31
0.0
  0
ARC
  5
8B50
  8
AM_0
 10
190.39557750862861
 20
33.297731812276879
 30
0.0
 40
2.0021281800000001
 50
270.0815199999999
 51
344.88329999999883
  0
LINE
  5
8B51
  8
AM_0
 10
191.61846750862841
 20
53.575580812276932
 30
0.0
 11
185.278437508628
 21
53.575580812276932
 31
0.0
  0
LINE
  5
8B52
  8
AM_0
 10
185.278437508628
 20
57.497889727949982
 30
0.0
 11
188.04846750862811
 21
57.575579812277049
 31
0.0
  0
ARC
  5
8B53
  8
AM_0
 10
191.61846750862841
 20
52.575596812276892
 30
0.0
 40
1.000004069999999
 50
270.0
 51
90.00000299999769
  0
LINE
  5
8B54
  8
AM_0
 10
192.81843750862799
 20
34.57559381227815
 30
0.0
 11
198.27846750862801
 21
34.57559381227815
 31
0.0
  0
ARC
  5
8B55
  8
AM_0
 10
195.09846750862829
 20
52.53558581227707
 30
0.0
 40
1.680008099999998
 50
270.0
 51
90.00000299999769
  0
ARC
  5
8B56
  8
AM_0
 10
195.09846750862829
 20
52.53558581227707
 30
0.0
 40
1.675004159999999
 50
270.0
 51
90.00000299999769
  0
LINE
  5
8B57
  8
AM_0
 10
92.828504414481387
 20
123.57560030889699
 30
0.0
 11
191.61846745626821
 21
123.5756028822769
 31
0.0
  0
LINE
  5
8B58
  8
AM_0
 10
91.948447508628362
 20
124.30556681227699
 30
0.0
 11
195.09846750862829
 21
124.30556681227699
 31
0.0
  0
LINE
  5
8B59
  8
AM_0
 10
93.478447508628051
 20
143.86559681227641
 30
0.0
 11
190.39845750862841
 21
143.86559681227641
 31
0.0
  0
LINE
  5
8B5A
  8
AM_0
 10
115.7784375086282
 20
125.80556681227689
 30
0.0
 11
198.27846750862801
 21
125.80556681227689
 31
0.0
  0
ARC
  5
8B5B
  8
AM_0
 10
92.820697508628314
 20
122.57559881227699
 30
0.0
 40
1.0000319699999971
 50
89.552707000000495
 51
270.44730000000112
  0
ARC
  5
8B5C
  8
AM_0
 10
92.820697508628314
 20
112.5755968122769
 30
0.0
 40
1.0000319699999971
 50
89.552707000000495
 51
270.44730000000112
  0
ARC
  5
8B5D
  8
AM_0
 10
91.732807508627914
 20
112.6055968122768
 30
0.0
 40
1.4600120099999969
 50
89.777016999998949
 51
270.22298999999867
  0
ARC
  5
8B5E
  8
AM_0
 10
93.481327508628041
 20
141.8686768122769
 30
0.0
 40
1.9969040699999969
 50
90.083473999999597
 51
169.41255999999501
  0
ARC
  5
8B5F
  8
AM_0
 10
93.526867508628129
 20
144.71246681227629
 30
0.0
 40
1.9931281199999991
 50
89.953373000000497
 51
170.96118000000021
  0
ARC
  5
8B60
  8
AM_0
 10
93.541207508627849
 20
146.5610068122763
 30
0.0
 40
1.9945880699999969
 50
89.790753000002425
 51
171.50709000000739
  0
ARC
  5
8B61
  8
AM_0
 10
93.563107508628164
 20
147.47210681227671
 30
0.0
 40
1.9934921999999999
 50
89.846091000001337
 51
172.1147400000026
  0
LINE
  5
8B62
  8
AM_0
 10
96.613963629659864
 20
121.57559681227799
 30
0.0
 11
92.638507508628308
 21
121.57559681227799
 31
0.0
  0
LINE
  5
8B63
  8
AM_0
 10
96.278437508628656
 20
113.57559881227689
 30
0.0
 11
92.638507508628308
 21
113.57559881227689
 31
0.0
  0
LINE
  5
8B64
  8
AM_0
 10
96.278437508628656
 20
111.575597812277
 30
0.0
 11
92.638507508628308
 21
111.575597812277
 31
0.0
  0
LINE
  5
8B65
  8
AM_0
 10
91.948447508628362
 20
120.945593812277
 30
0.0
 11
96.387110112580274
 21
120.945593812277
 31
0.0
  0
LINE
  5
8B66
  8
AM_0
 10
91.738477508628421
 20
114.0655888122769
 30
0.0
 11
96.278437508628656
 21
114.0655888122769
 31
0.0
  0
LINE
  5
8B67
  8
AM_0
 10
91.738477508628421
 20
111.14557481227681
 30
0.0
 11
96.278437508628656
 21
111.14557481227681
 31
0.0
  0
LINE
  5
8B68
  8
AM_0
 10
91.608457508627964
 20
103.9256038122769
 30
0.0
 11
96.278437508628656
 21
103.9256038122769
 31
0.0
  0
LINE
  5
8B69
  8
AM_0
 10
95.638447508628374
 20
124.225586812277
 30
0.0
 11
90.278437508628642
 21
135.67556681227691
 31
0.0
  0
LINE
  5
8B6A
  8
AM_0
 10
90.278437508628642
 20
138.365576812277
 30
0.0
 11
91.588447508628121
 21
147.74558681227629
 31
0.0
  0
ARC
  5
8B6B
  8
AM_0
 10
91.948447508628362
 20
122.625584812277
 30
0.0
 40
1.679999999999999
 50
90.00000299999769
 51
270.0
  0
LINE
  5
8B6C
  8
AM_0
 10
90.278437508628642
 20
135.67559681227681
 30
0.0
 11
91.518427508628633
 21
142.2356068122769
 31
0.0
  0
LINE
  5
8B6D
  8
AM_0
 10
82.968457508628134
 20
130.76558681227681
 30
0.0
 11
89.198497508628435
 21
130.76558681227681
 31
0.0
  0
LINE
  5
8B6E
  8
AM_0
 10
82.278457508628264
 20
140.58059681227701
 30
0.0
 11
90.278437508628642
 21
140.58059681227701
 31
0.0
  0
LINE
  5
8B6F
  8
AM_0
 10
82.278457508628264
 20
140.5755868122769
 30
0.0
 11
90.278437508628642
 21
140.5755868122769
 31
0.0
  0
LINE
  5
8B70
  8
AM_0
 10
90.278437508628642
 20
137.0156068122769
 30
0.0
 11
91.558417508628324
 21
145.0255768122766
 31
0.0
  0
LINE
  5
8B71
  8
AM_0
 10
90.278437508628642
 20
138.36560681227681
 30
0.0
 11
91.568497508628369
 21
146.85560681227631
 31
0.0
  0
ARC
  5
8B72
  8
AM_0
 10
127.27692750862821
 20
146.55404681227631
 30
0.0
 40
2.0015440500000001
 50
0.044213999007396
 51
89.95578399999907
  0
LINE
  5
8B73
  8
AM_0
 10
129.2784375086282
 20
147.4655968122766
 30
0.0
 11
129.2784375086282
 21
143.86559681227641
 31
0.0
  0
LINE
  5
8B74
  8
AM_0
 10
93.528457508628165
 20
146.70557681227629
 30
0.0
 11
127.27845750862831
 21
146.70557681227629
 31
0.0
  0
LINE
  5
8B75
  8
AM_0
 10
115.7784375086282
 20
125.80556681227689
 30
0.0
 11
95.601007508627831
 21
124.305596812277
 31
0.0
  0
ARC
  5
8B76
  8
AM_0
 10
297.05944701644358
 20
89.324671632080026
 30
0.0
 40
204.4231110527293
 50
172.39935376233609
 51
173.04804061342691
  0
ARC
  5
8B77
  8
AM_0
 10
297.7157291542498
 20
89.225998638097053
 30
0.0
 40
205.086602105558
 50
173.86479656848479
 51
175.215339380068
  0
ARC
  5
8B78
  8
AM_0
 10
297.10996549414079
 20
89.283527224396948
 30
0.0
 40
204.47815098782999
 50
175.21724497658491
 51
175.89452073851371
  0
ARC
  5
8B79
  8
AM_0
 10
297.39028389708182
 20
89.275382019709937
 30
0.0
 40
204.75756069728581
 50
171.10266677356
 51
172.3979273485285
  0
ARC
  5
8B7A
  8
AM_0
 10
127.2780375086281
 20
144.7051768122767
 30
0.0
 40
2.0004079799999981
 50
0.0116490000072091
 51
89.98834999999788
  0
LINE
  5
8B7B
  8
AM_0
 10
93.548467508628278
 20
148.55558681227629
 30
0.0
 11
127.27845750862831
 21
148.55558681227629
 31
0.0
  0
LINE
  5
8B7C
  8
AM_0
 10
93.568477508628362
 20
149.46560681227641
 30
0.0
 11
127.27845750862831
 21
149.46560681227641
 31
0.0
  0
ARC
  5
8B7D
  8
AM_0
 10
127.27716750862839
 20
147.46430681227631
 30
0.0
 40
2.0012880000000002
 50
0.0368719990021973
 51
89.963125999997985
  0
LINE
  5
8B7E
  8
AM_0
 10
195.09846750862829
 20
120.945593812277
 30
0.0
 11
185.278437508628
 21
120.945593812277
 31
0.0
  0
LINE
  5
8B7F
  8
AM_0
 10
196.47846750862831
 20
126.9155968122769
 30
0.0
 11
192.32850750862821
 21
142.37558681227691
 31
0.0
  0
LINE
  5
8B80
  8
AM_0
 10
185.278437508628
 20
117.6632988966041
 30
0.0
 11
188.04846750862811
 21
117.5856088122779
 31
0.0
  0
ARC
  5
8B81
  8
AM_0
 10
191.61846750862841
 20
122.57559881227699
 30
0.0
 40
1.000004069999999
 50
270.0
 51
90.00000299999769
  0
ARC
  5
8B82
  8
AM_0
 10
190.39563750862811
 20
141.86699681227691
 30
0.0
 40
1.99860411
 50
14.742716000005739
 51
89.919516000001124
  0
ARC
  5
8B83
  8
AM_0
 10
195.09846750862829
 20
122.625584812277
 30
0.0
 40
1.680008099999998
 50
270.0
 51
90.00000299999769
  0
ARC
  5
8B84
  8
AM_0
 10
195.09846750862829
 20
122.625584812277
 30
0.0
 40
1.675004159999999
 50
270.0
 51
90.00000299999769
  0
ARC
  5
8B85
  8
AM_0
 10
197.9316375086284
 20
127.303346812277
 30
0.0
 40
1.502776079999999
 50
194.75642999999971
 51
269.8775900000029
  0
LINE
  5
8B86
  8
AM_0
 10
192.81843750862799
 20
140.5755868122769
 30
0.0
 11
198.27846750862801
 21
140.5755868122769
 31
0.0
  0
LINE
  5
8B87
  8
AM_0
 10
180.7784375086284
 20
110.0806018122768
 30
0.0
 11
180.778437508628
 21
65.080601812276882
 31
0.0
  0
LINE
  5
8B88
  8
AM_0
 10
178.67843750862809
 20
110.630854343972
 30
0.0
 11
178.67843750862789
 21
64.530349280584005
 31
0.0
  0
LINE
  5
8B89
  8
AM_0
 10
95.77843750862877
 20
69.580601812276882
 30
0.0
 11
95.77843750862877
 21
59.5805918122769
 31
0.0
  0
LINE
  5
8B8A
  8
AM_0
 10
96.278437508628656
 20
55.080595812276897
 30
0.0
 11
96.278437508628656
 21
120.08059181227701
 31
0.0
  0
LINE
  5
8B8B
  8
AM_0
 10
167.8286820403228
 20
53.680593812277039
 30
0.0
 11
100.6984175086281
 21
53.680593812277039
 31
0.0
  0
LINE
  5
8B8C
  8
AM_0
 10
100.6984175086281
 20
53.680593812277039
 30
0.0
 11
100.6984175086281
 21
51.580602812276993
 31
0.0
  0
ARC
  5
8B8D
  8
AM_0
 10
99.77105750862863
 20
55.073248812276923
 30
0.0
 40
3.492651899999998
 50
179.8793300000022
 51
270.12067999999482
  0
ARC
  5
8B8E
  8
AM_0
 10
96.271117508628279
 20
59.573251812277022
 30
0.0
 40
0.4927000100000001
 50
179.14455999999711
 51
270.8554400000026
  0
ARC
  5
8B8F
  8
AM_0
 10
182.778437508628
 20
65.080601812276882
 30
0.0
 40
2.0
 50
180.0
 51
270.0
  0
LINE
  5
8B90
  8
AM_0
 10
178.26838700228899
 20
63.540399786920922
 30
0.0
 11
168.81863153398399
 21
54.090644318616121
 31
0.0
  0
LINE
  5
8B91
  8
AM_0
 10
168.8186395339834
 20
54.090652318614957
 30
0.0
 11
178.26838700228981
 21
63.540399786920922
 31
0.0
  0
ARC
  5
8B92
  8
AM_0
 10
167.8286820403228
 20
55.080593812276881
 30
0.0
 40
1.399999999999999
 50
270.0
 51
315.00000000000921
1001
GENIUS_GENODEF_13
1002
{
1000
HIER
1070
     0
1002
}
1002
{
1000
MANEDIT
1070
     0
1002
}
1002
{
1000
NOSEL
1070
     0
1002
}
1002
{
1000
BEHIND
1070
     0
1002
}
1002
{
1000
OTHER
1070
     0
1002
}
1002
{
1000
REACTOR
1002
}
1001
GENIUS_GENOBJ-N-FIL_13
1002
{
1000
OWNER
1000
GEN
1002
}
  0
ARC
  5
8B93
  8
AM_0
 10
177.278437508628
 20
64.530349280584005
 30
0.0
 40
1.4000000000006301
 50
314.99999999997232
 51
0.0
  0
ARC
  5
8B94
  8
AM_0
 10
183.278437508628
 20
53.580601812276882
 30
0.0
 40
2.0
 50
270.0
 51
0.0
  0
ARC
  5
8B95
  8
AM_0
 10
183.278437508628
 20
61.080601812276882
 30
0.0
 40
2.0
 50
0.0
 51
90.0
  0
LINE
  5
8B96
  8
AM_0
 10
183.278437508628
 20
63.080601812276882
 30
0.0
 11
182.778437508628
 21
63.080601812276882
 31
0.0
  0
LINE
  5
8B97
  8
AM_0
 10
185.278437508628
 20
53.580601812276882
 30
0.0
 11
185.278437508628
 21
61.080601812276882
 31
0.0
  0
LINE
  5
8B98
  8
AM_0
 10
100.6984175086281
 20
121.48058181227699
 30
0.0
 11
167.83617332850341
 21
121.48058181227699
 31
0.0
  0
ARC
  5
8B99
  8
AM_0
 10
96.278987508628234
 20
69.580051812276892
 30
0.0
 40
0.5005480100000002
 50
90.062622000000005
 51
179.9373699999839
  0
ARC
  5
8B9A
  8
AM_0
 10
96.278987508628234
 20
115.5800518122759
 30
0.0
 40
0.5005480100000002
 50
90.062622000000005
 51
179.9373699999839
  0
ARC
  5
8B9B
  8
AM_0
 10
96.270927508628134
 20
105.5730918122769
 30
0.0
 40
0.49254802
 50
179.1265600000018
 51
270.87345000000141
  0
LINE
  5
8B9C
  8
AM_0
 10
95.77843750862877
 20
115.58059181227689
 30
0.0
 11
95.77843750862877
 21
105.5806018122768
 31
0.0
  0
LINE
  5
8B9D
  8
AM_0
 10
100.6984175086281
 20
121.48058181227699
 30
0.0
 11
100.6984175086281
 21
123.57558181227689
 31
0.0
  0
ARC
  5
8B9E
  8
AM_0
 10
99.778927508628442
 20
120.08010181227699
 30
0.0
 40
3.5005001999999981
 50
90.008164999996055
 51
179.99183999999781
  0
LINE
  5
8B9F
  8
AM_0
 10
182.7784375086284
 20
93.080601812276882
 30
0.0
 11
180.77843750862829
 21
93.080601812276882
 31
0.0
  0
LINE
  5
8BA0
  8
AM_0
 10
180.778437508628
 20
82.080601812276882
 30
0.0
 11
182.7784375086284
 21
82.080601812276882
 31
0.0
  0
LINE
  5
8BA1
  8
AM_0
 10
182.77843750862871
 20
82.080601812276882
 30
0.0
 11
182.7784375086284
 21
93.080601812276882
 31
0.0
  0
ARC
  5
8BA2
  8
AM_0
 10
182.778437508628
 20
110.0806018122768
 30
0.0
 40
2.0
 50
90.0
 51
180.0
  0
CIRCLE
  5
8BA3
  8
AM_0
 10
179.77843750862789
 20
118.5806018122768
 30
0.0
 40
3.4999999999999631
  0
LINE
  5
8BA4
  8
AM_0
 10
168.81863953398451
 20
121.070551305938
 30
0.0
 11
178.26838700228899
 21
111.62080383763301
 31
0.0
  0
LINE
  5
8BA5
  8
AM_0
 10
176.67843750862801
 20
113.2107533312939
 30
0.0
 11
178.26838700228939
 21
111.62080383763301
 31
0.0
  0
ARC
  5
8BA6
  8
AM_0
 10
177.278437508628
 20
110.630854343972
 30
0.0
 40
1.400000000000118
 50
0.0
 51
45.000000000027619
  0
ARC
  5
8BA7
  8
AM_0
 10
167.8286900403223
 20
120.080601812278
 30
0.0
 40
1.40000000000077
 50
44.999999999972353
 51
89.999999999954383
  0
LINE
  5
8BA8
  8
AM_0
 10
185.278437508628
 20
114.0806018122768
 30
0.0
 11
185.278437508628
 21
121.5806018122769
 31
0.0
  0
LINE
  5
8BA9
  8
AM_0
 10
185.278437508628
 20
114.0806018122768
 30
0.0
 11
185.278437508628
 21
121.5806018122769
 31
0.0
  0
ARC
  5
8BAA
  8
AM_0
 10
183.278437508628
 20
114.0806018122768
 30
0.0
 40
2.0
 50
270.0
 51
0.0
  0
LINE
  5
8BAB
  8
AM_0
 10
182.778437508628
 20
112.0806018122768
 30
0.0
 11
183.278437508628
 21
112.0806018122768
 31
0.0
  0
ARC
  5
8BAC
  8
AM_0
 10
183.278437508628
 20
121.5806018122769
 30
0.0
 40
2.0
 50
0.0
 51
90.0
  0
LINE
  5
8BAD
  8
AM_0
 10
177.13986582742109
 20
118.5806018122791
 30
0.0
 11
182.41700918983449
 21
118.5806018122791
 31
0.0
  0
LINE
  5
8BAE
  8
AM_0
 10
179.77843750862789
 20
121.219173493483
 30
0.0
 11
179.77843750862789
 21
115.9420301310699
 31
0.0
  0
CIRCLE
  5
8BAF
  8
AM_0
 10
179.77843750862789
 20
56.580601812275972
 30
0.0
 40
3.4999999999999631
  0
LINE
  5
8BB0
  8
AM_0
 10
177.13986582742109
 20
56.580601812278033
 30
0.0
 11
182.41700918983449
 21
56.580601812278033
 31
0.0
  0
LINE
  5
8BB1
  8
AM_0
 10
179.77843750862789
 20
59.21917349348314
 30
0.0
 11
179.77843750862789
 21
53.94203013106992
 31
0.0
  0
LINE
  5
8BB2
  8
AM_0
 10
191.61846750862841
 20
121.5856228122769
 30
0.0
 11
185.278437508628
 21
121.5856228122769
 31
0.0
  0
LINE
  5
8BB3
  8
AM_0
 10
588.76313516785899
 20
118.9806018122769
 30
0.0
 11
588.76313516785899
 21
89.709811496378066
 31
0.0
  0
ARC
  5
8BB4
  8
AM_0
 10
591.26313516785865
 20
118.9806018122769
 30
0.0
 40
2.5
 50
90.0
 51
180.0
  0
LINE
  5
8BB5
  8
AM_0
 10
588.76313516785899
 20
123.080601812277
 30
0.0
 11
588.76313516785899
 21
118.9806018122769
 31
0.0
  0
ARC
  5
8BB6
  8
AM_0
 10
589.26313516785888
 20
123.080601812277
 30
0.0
 40
0.5
 50
90.0
 51
180.0
  0
LINE
  5
8BB7
  8
AM_0
 10
593.49174816180073
 20
121.4806018122769
 30
0.0
 11
591.26313516785865
 21
121.4806018122769
 31
0.0
  0
POLYLINE
  5
8BB8
  8
AM_0
 66
     1
 10
0.0
 20
0.0
 30
0.0
 70
     8
  0
VERTEX
  5
8BB9
  8
AM_0
 10
591.26308810278476
 20
111.21101661531991
 30
0.0
 70
    32
  0
VERTEX
  5
8BBA
  8
AM_0
 10
591.25908810278474
 20
111.21101661531991
 30
0.0
 70
    32
  0
VERTEX
  5
8BBB
  8
AM_0
 10
591.25508810278507
 20
111.21101661531991
 30
0.0
 70
    32
  0
VERTEX
  5
8BBC
  8
AM_0
 10
591.25008810278473
 20
111.21101661531991
 30
0.0
 70
    32
  0
VERTEX
  5
8BBD
  8
AM_0
 10
591.24608810278471
 20
111.21101661531991
 30
0.0
 70
    32
  0
VERTEX
  5
8BBE
  8
AM_0
 10
591.24208810278515
 20
111.21101661531991
 30
0.0
 70
    32
  0
VERTEX
  5
8BBF
  8
AM_0
 10
591.23708810278504
 20
111.21101661531991
 30
0.0
 70
    32
  0
VERTEX
  5
8BC0
  8
AM_0
 10
591.23308810278513
 20
111.2100166153199
 30
0.0
 70
    32
  0
VERTEX
  5
8BC1
  8
AM_0
 10
591.22908810278489
 20
111.2100166153199
 30
0.0
 70
    32
  0
VERTEX
  5
8BC2
  8
AM_0
 10
591.22508810278475
 20
111.2100166153199
 30
0.0
 70
    32
  0
VERTEX
  5
8BC3
  8
AM_0
 10
591.22008810278487
 20
111.2100166153199
 30
0.0
 70
    32
  0
VERTEX
  5
8BC4
  8
AM_0
 10
591.21608810278462
 20
111.2100166153199
 30
0.0
 70
    32
  0
VERTEX
  5
8BC5
  8
AM_0
 10
591.21208810278461
 20
111.2100166153199
 30
0.0
 70
    32
  0
VERTEX
  5
8BC6
  8
AM_0
 10
591.20808810278436
 20
111.2100166153199
 30
0.0
 70
    32
  0
VERTEX
  5
8BC7
  8
AM_0
 10
591.20308810278493
 20
111.2100166153199
 30
0.0
 70
    32
  0
VERTEX
  5
8BC8
  8
AM_0
 10
591.19908810278491
 20
111.2100166153199
 30
0.0
 70
    32
  0
VERTEX
  5
8BC9
  8
AM_0
 10
591.19508810278512
 20
111.2100166153199
 30
0.0
 70
    32
  0
VERTEX
  5
8BCA
  8
AM_0
 10
591.19008810278478
 20
111.2100166153199
 30
0.0
 70
    32
  0
VERTEX
  5
8BCB
  8
AM_0
 10
591.18608810278511
 20
111.2100166153199
 30
0.0
 70
    32
  0
VERTEX
  5
8BCC
  8
AM_0
 10
591.18208810278475
 20
111.2100166153199
 30
0.0
 70
    32
  0
VERTEX
  5
8BCD
  8
AM_0
 10
591.17808810278473
 20
111.2100166153199
 30
0.0
 70
    32
  0
VERTEX
  5
8BCE
  8
AM_0
 10
591.17308810278485
 20
111.2100166153199
 30
0.0
 70
    32
  0
VERTEX
  5
8BCF
  8
AM_0
 10
591.16908810278471
 20
111.2100166153199
 30
0.0
 70
    32
  0
VERTEX
  5
8BD0
  8
AM_0
 10
591.16508810278492
 20
111.2100166153199
 30
0.0
 70
    32
  0
VERTEX
  5
8BD1
  8
AM_0
 10
591.16108810278445
 20
111.2100166153199
 30
0.0
 70
    32
  0
VERTEX
  5
8BD2
  8
AM_0
 10
591.15608810278491
 20
111.20901661532
 30
0.0
 70
    32
  0
VERTEX
  5
8BD3
  8
AM_0
 10
591.15208810278455
 20
111.20901661532
 30
0.0
 70
    32
  0
VERTEX
  5
8BD4
  8
AM_0
 10
591.14808810278475
 20
111.20901661532
 30
0.0
 70
    32
  0
VERTEX
  5
8BD5
  8
AM_0
 10
591.14408810278462
 20
111.20901661532
 30
0.0
 70
    32
  0
VERTEX
  5
8BD6
  8
AM_0
 10
591.13908810278497
 20
111.20901661532
 30
0.0
 70
    32
  0
VERTEX
  5
8BD7
  8
AM_0
 10
591.13508810278472
 20
111.20901661532
 30
0.0
 70
    32
  0
VERTEX
  5
8BD8
  8
AM_0
 10
591.1310881027847
 20
111.20901661532
 30
0.0
 70
    32
  0
VERTEX
  5
8BD9
  8
AM_0
 10
591.12608810278493
 20
111.20901661532
 30
0.0
 70
    32
  0
VERTEX
  5
8BDA
  8
AM_0
 10
591.12208810278491
 20
111.20901661532
 30
0.0
 70
    32
  0
VERTEX
  5
8BDB
  8
AM_0
 10
591.11808810278467
 20
111.20901661532
 30
0.0
 70
    32
  0
VERTEX
  5
8BDC
  8
AM_0
 10
591.11408810278465
 20
111.20801661532001
 30
0.0
 70
    32
  0
VERTEX
  5
8BDD
  8
AM_0
 10
591.10908810278465
 20
111.20801661532001
 30
0.0
 70
    32
  0
VERTEX
  5
8BDE
  8
AM_0
 10
591.10508810278475
 20
111.20801661532001
 30
0.0
 70
    32
  0
VERTEX
  5
8BDF
  8
AM_0
 10
591.10108810278496
 20
111.20801661532001
 30
0.0
 70
    32
  0
VERTEX
  5
8BE0
  8
AM_0
 10
591.09708810278505
 20
111.20801661532001
 30
0.0
 70
    32
  0
VERTEX
  5
8BE1
  8
AM_0
 10
591.09208810278506
 20
111.20801661532001
 30
0.0
 70
    32
  0
VERTEX
  5
8BE2
  8
AM_0
 10
591.08808810278447
 20
111.20801661532001
 30
0.0
 70
    32
  0
VERTEX
  5
8BE3
  8
AM_0
 10
591.0840881027849
 20
111.20701661532
 30
0.0
 70
    32
  0
VERTEX
  5
8BE4
  8
AM_0
 10
591.08008810278477
 20
111.20701661532
 30
0.0
 70
    32
  0
VERTEX
  5
8BE5
  8
AM_0
 10
591.07508810278489
 20
111.20701661532
 30
0.0
 70
    32
  0
VERTEX
  5
8BE6
  8
AM_0
 10
591.07108810278476
 20
111.20701661532
 30
0.0
 70
    32
  0
VERTEX
  5
8BE7
  8
AM_0
 10
591.06708810278485
 20
111.20701661532
 30
0.0
 70
    32
  0
VERTEX
  5
8BE8
  8
AM_0
 10
591.06208810278508
 20
111.20701661532
 30
0.0
 70
    32
  0
VERTEX
  5
8BE9
  8
AM_0
 10
591.05808810278472
 20
111.20701661532
 30
0.0
 70
    32
  0
VERTEX
  5
8BEA
  8
AM_0
 10
591.0540881027847
 20
111.206016615321
 30
0.0
 70
    32
  0
VERTEX
  5
8BEB
  8
AM_0
 10
591.05008810278514
 20
111.206016615321
 30
0.0
 70
    32
  0
VERTEX
  5
8BEC
  8
AM_0
 10
591.04508810278503
 20
111.206016615321
 30
0.0
 70
    32
  0
VERTEX
  5
8BED
  8
AM_0
 10
591.04108810278467
 20
111.206016615321
 30
0.0
 70
    32
  0
VERTEX
  5
8BEE
  8
AM_0
 10
591.03708810278488
 20
111.206016615321
 30
0.0
 70
    32
  0
VERTEX
  5
8BEF
  8
AM_0
 10
591.03308810278463
 20
111.2050166153201
 30
0.0
 70
    32
  0
VERTEX
  5
8BF0
  8
AM_0
 10
591.02808810278486
 20
111.2050166153201
 30
0.0
 70
    32
  0
VERTEX
  5
8BF1
  8
AM_0
 10
591.02408810278473
 20
111.2050166153201
 30
0.0
 70
    32
  0
VERTEX
  5
8BF2
  8
AM_0
 10
591.02008810278505
 20
111.2050166153201
 30
0.0
 70
    32
  0
VERTEX
  5
8BF3
  8
AM_0
 10
591.01608810278503
 20
111.2050166153201
 30
0.0
 70
    32
  0
VERTEX
  5
8BF4
  8
AM_0
 10
591.01108810278436
 20
111.2050166153201
 30
0.0
 70
    32
  0
VERTEX
  5
8BF5
  8
AM_0
 10
591.00708810278491
 20
111.204016615321
 30
0.0
 70
    32
  0
VERTEX
  5
8BF6
  8
AM_0
 10
591.00308810278511
 20
111.204016615321
 30
0.0
 70
    32
  0
VERTEX
  5
8BF7
  8
AM_0
 10
590.99908810278498
 20
111.204016615321
 30
0.0
 70
    32
  0
VERTEX
  5
8BF8
  8
AM_0
 10
590.99408810278464
 20
111.204016615321
 30
0.0
 70
    32
  0
VERTEX
  5
8BF9
  8
AM_0
 10
590.99008810278508
 20
111.2030166153199
 30
0.0
 70
    32
  0
VERTEX
  5
8BFA
  8
AM_0
 10
590.98608810278472
 20
111.2030166153199
 30
0.0
 70
    32
  0
VERTEX
  5
8BFB
  8
AM_0
 10
590.98108810278472
 20
111.2030166153199
 30
0.0
 70
    32
  0
VERTEX
  5
8BFC
  8
AM_0
 10
590.97708810278471
 20
111.2030166153199
 30
0.0
 70
    32
  0
VERTEX
  5
8BFD
  8
AM_0
 10
590.97308810278491
 20
111.2030166153199
 30
0.0
 70
    32
  0
VERTEX
  5
8BFE
  8
AM_0
 10
590.96908810278478
 20
111.20201661531991
 30
0.0
 70
    32
  0
VERTEX
  5
8BFF
  8
AM_0
 10
590.96408810278467
 20
111.20201661531991
 30
0.0
 70
    32
  0
VERTEX
  5
8C00
  8
AM_0
 10
590.96008810278488
 20
111.20201661531991
 30
0.0
 70
    32
  0
VERTEX
  5
8C01
  8
AM_0
 10
590.95608810278497
 20
111.20201661531991
 30
0.0
 70
    32
  0
VERTEX
  5
8C02
  8
AM_0
 10
590.95208810278473
 20
111.2010166153199
 30
0.0
 70
    32
  0
VERTEX
  5
8C03
  8
AM_0
 10
590.94708810278485
 20
111.2010166153199
 30
0.0
 70
    32
  0
VERTEX
  5
8C04
  8
AM_0
 10
590.94308810278471
 20
111.2010166153199
 30
0.0
 70
    32
  0
VERTEX
  5
8C05
  8
AM_0
 10
590.93908810278469
 20
111.20001661532
 30
0.0
 70
    32
  0
VERTEX
  5
8C06
  8
AM_0
 10
590.93508810278468
 20
111.20001661532
 30
0.0
 70
    32
  0
VERTEX
  5
8C07
  8
AM_0
 10
590.93008810278468
 20
111.20001661532
 30
0.0
 70
    32
  0
VERTEX
  5
8C08
  8
AM_0
 10
590.92608810278466
 20
111.20001661532
 30
0.0
 70
    32
  0
VERTEX
  5
8C09
  8
AM_0
 10
590.92208810278464
 20
111.19901661532001
 30
0.0
 70
    32
  0
VERTEX
  5
8C0A
  8
AM_0
 10
590.91808810278496
 20
111.19901661532001
 30
0.0
 70
    32
  0
VERTEX
  5
8C0B
  8
AM_0
 10
590.91308810278497
 20
111.19901661532001
 30
0.0
 70
    32
  0
VERTEX
  5
8C0C
  8
AM_0
 10
590.90908810278495
 20
111.19901661532001
 30
0.0
 70
    32
  0
VERTEX
  5
8C0D
  8
AM_0
 10
590.90508810278493
 20
111.19801661532
 30
0.0
 70
    32
  0
VERTEX
  5
8C0E
  8
AM_0
 10
590.90108810278491
 20
111.19801661532
 30
0.0
 70
    32
  0
VERTEX
  5
8C0F
  8
AM_0
 10
590.89608810278435
 20
111.19801661532
 30
0.0
 70
    32
  0
VERTEX
  5
8C10
  8
AM_0
 10
590.8920881027849
 20
111.19701661532
 30
0.0
 70
    32
  0
VERTEX
  5
8C11
  8
AM_0
 10
590.88808810278465
 20
111.19701661532
 30
0.0
 70
    32
  0
VERTEX
  5
8C12
  8
AM_0
 10
590.88308810278477
 20
111.19701661532
 30
0.0
 70
    32
  0
VERTEX
  5
8C13
  8
AM_0
 10
590.87908810278475
 20
111.1960166153201
 30
0.0
 70
    32
  0
VERTEX
  5
8C14
  8
AM_0
 10
590.87508810278473
 20
111.1960166153201
 30
0.0
 70
    32
  0
VERTEX
  5
8C15
  8
AM_0
 10
590.87108810278471
 20
111.1960166153201
 30
0.0
 70
    32
  0
VERTEX
  5
8C16
  8
AM_0
 10
590.86608810278472
 20
111.19501661532099
 30
0.0
 70
    32
  0
VERTEX
  5
8C17
  8
AM_0
 10
590.86208810278492
 20
111.19501661532099
 30
0.0
 70
    32
  0
VERTEX
  5
8C18
  8
AM_0
 10
590.85808810278513
 20
111.19501661532099
 30
0.0
 70
    32
  0
VERTEX
  5
8C19
  8
AM_0
 10
590.85408810278489
 20
111.1940166153219
 30
0.0
 70
    32
  0
VERTEX
  5
8C1A
  8
AM_0
 10
590.84908810278466
 20
111.1940166153219
 30
0.0
 70
    32
  0
VERTEX
  5
8C1B
  8
AM_0
 10
590.84508810278487
 20
111.1940166153219
 30
0.0
 70
    32
  0
VERTEX
  5
8C1C
  8
AM_0
 10
590.84108810278474
 20
111.19301661531991
 30
0.0
 70
    32
  0
VERTEX
  5
8C1D
  8
AM_0
 10
590.83708810278472
 20
111.19301661531991
 30
0.0
 70
    32
  0
VERTEX
  5
8C1E
  8
AM_0
 10
590.83208810278461
 20
111.19301661531991
 30
0.0
 70
    32
  0
VERTEX
  5
8C1F
  8
AM_0
 10
590.8280881027847
 20
111.1920166153199
 30
0.0
 70
    32
  0
VERTEX
  5
8C20
  8
AM_0
 10
590.82408810278491
 20
111.1920166153199
 30
0.0
 70
    32
  0
VERTEX
  5
8C21
  8
AM_0
 10
590.82008810278512
 20
111.19101661532
 30
0.0
 70
    32
  0
VERTEX
  5
8C22
  8
AM_0
 10
590.81508810278478
 20
111.19101661532
 30
0.0
 70
    32
  0
VERTEX
  5
8C23
  8
AM_0
 10
590.81108810278511
 20
111.19101661532
 30
0.0
 70
    32
  0
VERTEX
  5
8C24
  8
AM_0
 10
590.80708810278509
 20
111.19001661532
 30
0.0
 70
    32
  0
VERTEX
  5
8C25
  8
AM_0
 10
590.80308810278495
 20
111.19001661532
 30
0.0
 70
    32
  0
VERTEX
  5
8C26
  8
AM_0
 10
590.79808810278473
 20
111.18901661532
 30
0.0
 70
    32
  0
VERTEX
  5
8C27
  8
AM_0
 10
590.79408810278505
 20
111.18901661532
 30
0.0
 70
    32
  0
VERTEX
  5
8C28
  8
AM_0
 10
590.79008810278492
 20
111.18901661532
 30
0.0
 70
    32
  0
VERTEX
  5
8C29
  8
AM_0
 10
590.7860881027849
 20
111.18801661532
 30
0.0
 70
    32
  0
VERTEX
  5
8C2A
  8
AM_0
 10
590.78108810278445
 20
111.18801661532
 30
0.0
 70
    32
  0
VERTEX
  5
8C2B
  8
AM_0
 10
590.77708810278489
 20
111.1870166153209
 30
0.0
 70
    32
  0
VERTEX
  5
8C2C
  8
AM_0
 10
590.7730881027851
 20
111.1870166153209
 30
0.0
 70
    32
  0
VERTEX
  5
8C2D
  8
AM_0
 10
590.76908810278485
 20
111.1860166153201
 30
0.0
 70
    32
  0
VERTEX
  5
8C2E
  8
AM_0
 10
590.76408810278508
 20
111.1860166153201
 30
0.0
 70
    32
  0
VERTEX
  5
8C2F
  8
AM_0
 10
590.76008810278472
 20
111.1860166153201
 30
0.0
 70
    32
  0
VERTEX
  5
8C30
  8
AM_0
 10
590.7560881027847
 20
111.185016615321
 30
0.0
 70
    32
  0
VERTEX
  5
8C31
  8
AM_0
 10
590.75208810278468
 20
111.185016615321
 30
0.0
 70
    32
  0
VERTEX
  5
8C32
  8
AM_0
 10
590.74708810278503
 20
111.1840166153199
 30
0.0
 70
    32
  0
VERTEX
  5
8C33
  8
AM_0
 10
590.74308810278467
 20
111.1840166153199
 30
0.0
 70
    32
  0
VERTEX
  5
8C34
  8
AM_0
 10
590.73908810278488
 20
111.1830166153199
 30
0.0
 70
    32
  0
VERTEX
  5
8C35
  8
AM_0
 10
590.73508810278497
 20
111.1830166153199
 30
0.0
 70
    32
  0
VERTEX
  5
8C36
  8
AM_0
 10
590.73108810278461
 20
111.1820166153199
 30
0.0
 70
    32
  0
VERTEX
  5
8C37
  8
AM_0
 10
590.72608810278496
 20
111.1820166153199
 30
0.0
 70
    32
  0
VERTEX
  5
8C38
  8
AM_0
 10
590.72208810278448
 20
111.18101661532
 30
0.0
 70
    32
  0
VERTEX
  5
8C39
  8
AM_0
 10
590.71808810278492
 20
111.18101661532
 30
0.0
 70
    32
  0
VERTEX
  5
8C3A
  8
AM_0
 10
590.71408810278479
 20
111.18001661532
 30
0.0
 70
    32
  0
VERTEX
  5
8C3B
  8
AM_0
 10
590.7090881027849
 20
111.18001661532
 30
0.0
 70
    32
  0
VERTEX
  5
8C3C
  8
AM_0
 10
590.70508810278466
 20
111.1790166153189
 30
0.0
 70
    32
  0
VERTEX
  5
8C3D
  8
AM_0
 10
590.70108810278475
 20
111.1790166153189
 30
0.0
 70
    32
  0
VERTEX
  5
8C3E
  8
AM_0
 10
590.69708810278496
 20
111.17801661532
 30
0.0
 70
    32
  0
VERTEX
  5
8C3F
  8
AM_0
 10
590.69208810278508
 20
111.17801661532
 30
0.0
 70
    32
  0
VERTEX
  5
8C40
  8
AM_0
 10
590.68808810278472
 20
111.17701661532099
 30
0.0
 70
    32
  0
VERTEX
  5
8C41
  8
AM_0
 10
590.68408810278493
 20
111.17701661532099
 30
0.0
 70
    32
  0
VERTEX
  5
8C42
  8
AM_0
 10
590.68008810278491
 20
111.176016615321
 30
0.0
 70
    32
  0
VERTEX
  5
8C43
  8
AM_0
 10
590.67508810278514
 20
111.176016615321
 30
0.0
 70
    32
  0
VERTEX
  5
8C44
  8
AM_0
 10
590.67108810278489
 20
111.17501661532179
 30
0.0
 70
    32
  0
VERTEX
  5
8C45
  8
AM_0
 10
590.66708810278476
 20
111.17501661532179
 30
0.0
 70
    32
  0
VERTEX
  5
8C46
  8
AM_0
 10
590.66308810278485
 20
111.1740166153199
 30
0.0
 70
    32
  0
VERTEX
  5
8C47
  8
AM_0
 10
590.65808810278475
 20
111.1740166153199
 30
0.0
 70
    32
  0
VERTEX
  5
8C48
  8
AM_0
 10
590.65408810278473
 20
111.1730166153199
 30
0.0
 70
    32
  0
VERTEX
  5
8C49
  8
AM_0
 10
590.65008810278471
 20
111.1730166153199
 30
0.0
 70
    32
  0
VERTEX
  5
8C4A
  8
AM_0
 10
590.64608810278469
 20
111.1720166153199
 30
0.0
 70
    32
  0
VERTEX
  5
8C4B
  8
AM_0
 10
590.64208810278501
 20
111.1720166153199
 30
0.0
 70
    32
  0
VERTEX
  5
8C4C
  8
AM_0
 10
590.63708810278513
 20
111.17101661532
 30
0.0
 70
    32
  0
VERTEX
  5
8C4D
  8
AM_0
 10
590.63308810278465
 20
111.17001661531999
 30
0.0
 70
    32
  0
VERTEX
  5
8C4E
  8
AM_0
 10
590.62908810278475
 20
111.17001661531999
 30
0.0
 70
    32
  0
VERTEX
  5
8C4F
  8
AM_0
 10
590.62508810278473
 20
111.16901661532211
 30
0.0
 70
    32
  0
VERTEX
  5
8C50
  8
AM_0
 10
590.62008810278496
 20
111.16901661532211
 30
0.0
 70
    32
  0
VERTEX
  5
8C51
  8
AM_0
 10
590.6160881027846
 20
111.16801661532079
 30
0.0
 70
    32
  0
VERTEX
  5
8C52
  8
AM_0
 10
590.61208810278436
 20
111.16801661532079
 30
0.0
 70
    32
  0
VERTEX
  5
8C53
  8
AM_0
 10
590.60808810278445
 20
111.16701661531999
 30
0.0
 70
    32
  0
VERTEX
  5
8C54
  8
AM_0
 10
590.60308810278445
 20
111.166016615321
 30
0.0
 70
    32
  0
VERTEX
  5
8C55
  8
AM_0
 10
590.59908810278512
 20
111.166016615321
 30
0.0
 70
    32
  0
VERTEX
  5
8C56
  8
AM_0
 10
590.59508810278464
 20
111.1650166153199
 30
0.0
 70
    32
  0
VERTEX
  5
8C57
  8
AM_0
 10
590.59108810278474
 20
111.1650166153199
 30
0.0
 70
    32
  0
VERTEX
  5
8C58
  8
AM_0
 10
590.58708810278472
 20
111.16401661531989
 30
0.0
 70
    32
  0
VERTEX
  5
8C59
  8
AM_0
 10
590.58208810278495
 20
111.1630166153199
 30
0.0
 70
    32
  0
VERTEX
  5
8C5A
  8
AM_0
 10
590.5780881027847
 20
111.1630166153199
 30
0.0
 70
    32
  0
VERTEX
  5
8C5B
  8
AM_0
 10
590.57408810278503
 20
111.1620166153199
 30
0.0
 70
    32
  0
VERTEX
  5
8C5C
  8
AM_0
 10
590.57008810278512
 20
111.1620166153199
 30
0.0
 70
    32
  0
VERTEX
  5
8C5D
  8
AM_0
 10
590.5650881027849
 20
111.16101661531999
 30
0.0
 70
    32
  0
VERTEX
  5
8C5E
  8
AM_0
 10
590.56108810278465
 20
111.16001661532
 30
0.0
 70
    32
  0
VERTEX
  5
8C5F
  8
AM_0
 10
590.55708810278475
 20
111.16001661532
 30
0.0
 70
    32
  0
VERTEX
  5
8C60
  8
AM_0
 10
590.55308810278495
 20
111.15901661532
 30
0.0
 70
    32
  0
VERTEX
  5
8C61
  8
AM_0
 10
590.54908810278505
 20
111.158016615321
 30
0.0
 70
    32
  0
VERTEX
  5
8C62
  8
AM_0
 10
590.54408810278471
 20
111.158016615321
 30
0.0
 70
    32
  0
VERTEX
  5
8C63
  8
AM_0
 10
590.54008810278492
 20
111.157016615321
 30
0.0
 70
    32
  0
VERTEX
  5
8C64
  8
AM_0
 10
590.53608810278502
 20
111.157016615321
 30
0.0
 70
    32
  0
VERTEX
  5
8C65
  8
AM_0
 10
590.53208810278511
 20
111.1560166153219
 30
0.0
 70
    32
  0
VERTEX
  5
8C66
  8
AM_0
 10
590.527088102785
 20
111.15501661531989
 30
0.0
 70
    32
  0
VERTEX
  5
8C67
  8
AM_0
 10
590.5230881027851
 20
111.15501661531989
 30
0.0
 70
    32
  0
VERTEX
  5
8C68
  8
AM_0
 10
590.51908810278485
 20
111.1540166153199
 30
0.0
 70
    32
  0
VERTEX
  5
8C69
  8
AM_0
 10
590.51508810278472
 20
111.1530166153199
 30
0.0
 70
    32
  0
VERTEX
  5
8C6A
  8
AM_0
 10
590.51108810278492
 20
111.1530166153199
 30
0.0
 70
    32
  0
VERTEX
  5
8C6B
  8
AM_0
 10
590.50608810278493
 20
111.1520166153188
 30
0.0
 70
    32
  0
VERTEX
  5
8C6C
  8
AM_0
 10
590.50208810278446
 20
111.15101661532
 30
0.0
 70
    32
  0
VERTEX
  5
8C6D
  8
AM_0
 10
590.49808810278489
 20
111.15101661532
 30
0.0
 70
    32
  0
VERTEX
  5
8C6E
  8
AM_0
 10
590.4940881027851
 20
111.150016615323
 30
0.0
 70
    32
  0
VERTEX
  5
8C6F
  8
AM_0
 10
590.48908810278465
 20
111.1490166153212
 30
0.0
 70
    32
  0
VERTEX
  5
8C70
  8
AM_0
 10
590.48508810278508
 20
111.1490166153212
 30
0.0
 70
    32
  0
VERTEX
  5
8C71
  8
AM_0
 10
590.48108810278472
 20
111.14801661532
 30
0.0
 70
    32
  0
VERTEX
  5
8C72
  8
AM_0
 10
590.47708810278471
 20
111.14701661532099
 30
0.0
 70
    32
  0
VERTEX
  5
8C73
  8
AM_0
 10
590.47308810278435
 20
111.1460166153219
 30
0.0
 70
    32
  0
VERTEX
  5
8C74
  8
AM_0
 10
590.46808810278492
 20
111.1460166153219
 30
0.0
 70
    32
  0
VERTEX
  5
8C75
  8
AM_0
 10
590.4640881027849
 20
111.1450166153199
 30
0.0
 70
    32
  0
VERTEX
  5
8C76
  8
AM_0
 10
590.46008810278488
 20
111.1440166153199
 30
0.0
 70
    32
  0
VERTEX
  5
8C77
  8
AM_0
 10
590.45608810278497
 20
111.1440166153199
 30
0.0
 70
    32
  0
VERTEX
  5
8C78
  8
AM_0
 10
590.45208810278473
 20
111.14301661531999
 30
0.0
 70
    32
  0
VERTEX
  5
8C79
  8
AM_0
 10
590.44708810278496
 20
111.1420166153211
 30
0.0
 70
    32
  0
VERTEX
  5
8C7A
  8
AM_0
 10
590.44308810278471
 20
111.14101661532
 30
0.0
 70
    32
  0
VERTEX
  5
8C7B
  8
AM_0
 10
590.43908810278469
 20
111.14101661532
 30
0.0
 70
    32
  0
VERTEX
  5
8C7C
  8
AM_0
 10
590.43508810278468
 20
111.14001661531999
 30
0.0
 70
    32
  0
VERTEX
  5
8C7D
  8
AM_0
 10
590.431088102785
 20
111.1390166153209
 30
0.0
 70
    32
  0
VERTEX
  5
8C7E
  8
AM_0
 10
590.42608810278466
 20
111.13801661532101
 30
0.0
 70
    32
  0
VERTEX
  5
8C7F
  8
AM_0
 10
590.42208810278476
 20
111.13801661532101
 30
0.0
 70
    32
  0
VERTEX
  5
8C80
  8
AM_0
 10
590.41808810278496
 20
111.1370166153219
 30
0.0
 70
    32
  0
VERTEX
  5
8C81
  8
AM_0
 10
590.41408810278472
 20
111.1360166153199
 30
0.0
 70
    32
  0
VERTEX
  5
8C82
  8
AM_0
 10
590.41008810278447
 20
111.1350166153199
 30
0.0
 70
    32
  0
VERTEX
  5
8C83
  8
AM_0
 10
590.40508810278448
 20
111.1350166153199
 30
0.0
 70
    32
  0
VERTEX
  5
8C84
  8
AM_0
 10
590.40108810278502
 20
111.13401661531979
 30
0.0
 70
    32
  0
VERTEX
  5
8C85
  8
AM_0
 10
590.39708810278489
 20
111.13301661532
 30
0.0
 70
    32
  0
VERTEX
  5
8C86
  8
AM_0
 10
590.39308810278465
 20
111.13201661532
 30
0.0
 70
    32
  0
VERTEX
  5
8C87
  8
AM_0
 10
590.38908810278508
 20
111.13201661532
 30
0.0
 70
    32
  0
VERTEX
  5
8C88
  8
AM_0
 10
590.38408810278474
 20
111.13101661532301
 30
0.0
 70
    32
  0
VERTEX
  5
8C89
  8
AM_0
 10
590.38008810278507
 20
111.1300166153212
 30
0.0
 70
    32
  0
VERTEX
  5
8C8A
  8
AM_0
 10
590.37608810278493
 20
111.1290166153201
 30
0.0
 70
    32
  0
VERTEX
  5
8C8B
  8
AM_0
 10
590.37208810278491
 20
111.128016615321
 30
0.0
 70
    32
  0
VERTEX
  5
8C8C
  8
AM_0
 10
590.36808810278467
 20
111.128016615321
 30
0.0
 70
    32
  0
VERTEX
  5
8C8D
  8
AM_0
 10
590.36308810278501
 20
111.1270166153201
 30
0.0
 70
    32
  0
VERTEX
  5
8C8E
  8
AM_0
 10
590.35908810278465
 20
111.1260166153199
 30
0.0
 70
    32
  0
VERTEX
  5
8C8F
  8
AM_0
 10
590.35508810278475
 20
111.12501661531989
 30
0.0
 70
    32
  0
VERTEX
  5
8C90
  8
AM_0
 10
590.35108810278496
 20
111.1240166153199
 30
0.0
 70
    32
  0
VERTEX
  5
8C91
  8
AM_0
 10
590.34708810278471
 20
111.1240166153199
 30
0.0
 70
    32
  0
VERTEX
  5
8C92
  8
AM_0
 10
590.34208810278471
 20
111.12301661532111
 30
0.0
 70
    32
  0
VERTEX
  5
8C93
  8
AM_0
 10
590.33808810278492
 20
111.12201661532001
 30
0.0
 70
    32
  0
VERTEX
  5
8C94
  8
AM_0
 10
590.33408810278468
 20
111.12101661532
 30
0.0
 70
    32
  0
VERTEX
  5
8C95
  8
AM_0
 10
590.33008810278466
 20
111.120016615323
 30
0.0
 70
    32
  0
VERTEX
  5
8C96
  8
AM_0
 10
590.32608810278498
 20
111.1190166153219
 30
0.0
 70
    32
  0
VERTEX
  5
8C97
  8
AM_0
 10
590.32208810278496
 20
111.1190166153219
 30
0.0
 70
    32
  0
VERTEX
  5
8C98
  8
AM_0
 10
590.31708810278474
 20
111.1180166153201
 30
0.0
 70
    32
  0
VERTEX
  5
8C99
  8
AM_0
 10
590.31308810278495
 20
111.1170166153199
 30
0.0
 70
    32
  0
VERTEX
  5
8C9A
  8
AM_0
 10
590.30908810278447
 20
111.11601661531989
 30
0.0
 70
    32
  0
VERTEX
  5
8C9B
  8
AM_0
 10
590.30508810278491
 20
111.1150166153199
 30
0.0
 70
    32
  0
VERTEX
  5
8C9C
  8
AM_0
 10
590.30108810278477
 20
111.11401661532
 30
0.0
 70
    32
  0
VERTEX
  5
8C9D
  8
AM_0
 10
590.29608810278489
 20
111.11301661532001
 30
0.0
 70
    32
  0
VERTEX
  5
8C9E
  8
AM_0
 10
590.29208810278465
 20
111.11301661532001
 30
0.0
 70
    32
  0
VERTEX
  5
8C9F
  8
AM_0
 10
590.28808810278485
 20
111.1120166153229
 30
0.0
 70
    32
  0
VERTEX
  5
8CA0
  8
AM_0
 10
590.28408810278472
 20
111.1110166153212
 30
0.0
 70
    32
  0
VERTEX
  5
8CA1
  8
AM_0
 10
590.28008810278493
 20
111.11001661532001
 30
0.0
 70
    32
  0
VERTEX
  5
8CA2
  8
AM_0
 10
590.27608810278502
 20
111.1090166153201
 30
0.0
 70
    32
  0
VERTEX
  5
8CA3
  8
AM_0
 10
590.27108810278492
 20
111.1080166153201
 30
0.0
 70
    32
  0
VERTEX
  5
8CA4
  8
AM_0
 10
590.2670881027849
 20
111.10701661531991
 30
0.0
 70
    32
  0
VERTEX
  5
8CA5
  8
AM_0
 10
590.26308810278488
 20
111.1060166153199
 30
0.0
 70
    32
  0
VERTEX
  5
8CA6
  8
AM_0
 10
590.25908810278474
 20
111.1050166153199
 30
0.0
 70
    32
  0
VERTEX
  5
8CA7
  8
AM_0
 10
590.25508810278495
 20
111.1050166153199
 30
0.0
 70
    32
  0
VERTEX
  5
8CA8
  8
AM_0
 10
590.25108810278493
 20
111.1040166153211
 30
0.0
 70
    32
  0
VERTEX
  5
8CA9
  8
AM_0
 10
590.24608810278471
 20
111.10301661531879
 30
0.0
 70
    32
  0
VERTEX
  5
8CAA
  8
AM_0
 10
590.24208810278469
 20
111.10201661532
 30
0.0
 70
    32
  0
VERTEX
  5
8CAB
  8
AM_0
 10
590.23808810278501
 20
111.101016615323
 30
0.0
 70
    32
  0
VERTEX
  5
8CAC
  8
AM_0
 10
590.23408810278465
 20
111.10001661532
 30
0.0
 70
    32
  0
VERTEX
  5
8CAD
  8
AM_0
 10
590.23008810278475
 20
111.0990166153201
 30
0.0
 70
    32
  0
VERTEX
  5
8CAE
  8
AM_0
 10
590.22608810278496
 20
111.098016615321
 30
0.0
 70
    32
  0
VERTEX
  5
8CAF
  8
AM_0
 10
590.22108810278485
 20
111.0970166153199
 30
0.0
 70
    32
  0
VERTEX
  5
8CB0
  8
AM_0
 10
590.21708810278471
 20
111.0960166153199
 30
0.0
 70
    32
  0
VERTEX
  5
8CB1
  8
AM_0
 10
590.21308810278492
 20
111.09501661531991
 30
0.0
 70
    32
  0
VERTEX
  5
8CB2
  8
AM_0
 10
590.2090881027849
 20
111.09401661532
 30
0.0
 70
    32
  0
VERTEX
  5
8CB3
  8
AM_0
 10
590.20508810278477
 20
111.09301661532299
 30
0.0
 70
    32
  0
VERTEX
  5
8CB4
  8
AM_0
 10
590.20108810278475
 20
111.09201661532209
 30
0.0
 70
    32
  0
VERTEX
  5
8CB5
  8
AM_0
 10
590.19608810278476
 20
111.09101661532
 30
0.0
 70
    32
  0
VERTEX
  5
8CB6
  8
AM_0
 10
590.19208810278485
 20
111.0900166153201
 30
0.0
 70
    32
  0
VERTEX
  5
8CB7
  8
AM_0
 10
590.18808810278495
 20
111.08901661532011
 30
0.0
 70
    32
  0
VERTEX
  5
8CB8
  8
AM_0
 10
590.1840881027847
 20
111.0880166153199
 30
0.0
 70
    32
  0
VERTEX
  5
8CB9
  8
AM_0
 10
590.18008810278502
 20
111.0870166153199
 30
0.0
 70
    32
  0
VERTEX
  5
8CBA
  8
AM_0
 10
590.17608810278489
 20
111.08601661531991
 30
0.0
 70
    32
  0
VERTEX
  5
8CBB
  8
AM_0
 10
590.17208810278476
 20
111.08501661532109
 30
0.0
 70
    32
  0
VERTEX
  5
8CBC
  8
AM_0
 10
590.16708810278465
 20
111.08401661532
 30
0.0
 70
    32
  0
VERTEX
  5
8CBD
  8
AM_0
 10
590.16308810278485
 20
111.08301661532001
 30
0.0
 70
    32
  0
VERTEX
  5
8CBE
  8
AM_0
 10
590.15908810278472
 20
111.08201661532
 30
0.0
 70
    32
  0
VERTEX
  5
8CBF
  8
AM_0
 10
590.15508810278493
 20
111.0810166153201
 30
0.0
 70
    32
  0
VERTEX
  5
8CC0
  8
AM_0
 10
590.15108810278468
 20
111.0800166153201
 30
0.0
 70
    32
  0
VERTEX
  5
8CC1
  8
AM_0
 10
590.14708810278466
 20
111.079016615321
 30
0.0
 70
    32
  0
VERTEX
  5
8CC2
  8
AM_0
 10
590.14208810278467
 20
111.0780166153199
 30
0.0
 70
    32
  0
VERTEX
  5
8CC3
  8
AM_0
 10
590.13808810278465
 20
111.07701661531991
 30
0.0
 70
    32
  0
VERTEX
  5
8CC4
  8
AM_0
 10
590.13408810278497
 20
111.0760166153199
 30
0.0
 70
    32
  0
VERTEX
  5
8CC5
  8
AM_0
 10
590.13008810278495
 20
111.07501661532
 30
0.0
 70
    32
  0
VERTEX
  5
8CC6
  8
AM_0
 10
590.12608810278493
 20
111.0740166153229
 30
0.0
 70
    32
  0
VERTEX
  5
8CC7
  8
AM_0
 10
590.12208810278491
 20
111.07301661532
 30
0.0
 70
    32
  0
VERTEX
  5
8CC8
  8
AM_0
 10
590.11808810278478
 20
111.07201661532
 30
0.0
 70
    32
  0
VERTEX
  5
8CC9
  8
AM_0
 10
590.11408810278465
 20
111.0710166153201
 30
0.0
 70
    32
  0
VERTEX
  5
8CCA
  8
AM_0
 10
590.10908810278465
 20
111.07001661532
 30
0.0
 70
    32
  0
VERTEX
  5
8CCB
  8
AM_0
 10
590.10508810278475
 20
111.069016615321
 30
0.0
 70
    32
  0
VERTEX
  5
8CCC
  8
AM_0
 10
590.10108810278496
 20
111.06801661531991
 30
0.0
 70
    32
  0
VERTEX
  5
8CCD
  8
AM_0
 10
590.09708810278471
 20
111.0660166153211
 30
0.0
 70
    32
  0
VERTEX
  5
8CCE
  8
AM_0
 10
590.09308810278446
 20
111.06501661532
 30
0.0
 70
    32
  0
VERTEX
  5
8CCF
  8
AM_0
 10
590.08908810278467
 20
111.06401661532
 30
0.0
 70
    32
  0
VERTEX
  5
8CD0
  8
AM_0
 10
590.08508810278477
 20
111.06301661532
 30
0.0
 70
    32
  0
VERTEX
  5
8CD1
  8
AM_0
 10
590.08108810278497
 20
111.06201661532
 30
0.0
 70
    32
  0
VERTEX
  5
8CD2
  8
AM_0
 10
590.07608810278475
 20
111.06101661532099
 30
0.0
 70
    32
  0
VERTEX
  5
8CD3
  8
AM_0
 10
590.07208810278485
 20
111.060016615321
 30
0.0
 70
    32
  0
VERTEX
  5
8CD4
  8
AM_0
 10
590.06808810278471
 20
111.0590166153199
 30
0.0
 70
    32
  0
VERTEX
  5
8CD5
  8
AM_0
 10
590.06408810278469
 20
111.0580166153199
 30
0.0
 70
    32
  0
VERTEX
  5
8CD6
  8
AM_0
 10
590.06008810278445
 20
111.05601661532
 30
0.0
 70
    32
  0
VERTEX
  5
8CD7
  8
AM_0
 10
590.05608810278466
 20
111.05501661532
 30
0.0
 70
    32
  0
VERTEX
  5
8CD8
  8
AM_0
 10
590.05208810278486
 20
111.05401661531999
 30
0.0
 70
    32
  0
VERTEX
  5
8CD9
  8
AM_0
 10
590.04808810278485
 20
111.05301661532
 30
0.0
 70
    32
  0
VERTEX
  5
8CDA
  8
AM_0
 10
590.04308810278496
 20
111.05201661531891
 30
0.0
 70
    32
  0
VERTEX
  5
8CDB
  8
AM_0
 10
590.0390881027846
 20
111.05101661531999
 30
0.0
 70
    32
  0
VERTEX
  5
8CDC
  8
AM_0
 10
590.03508810278493
 20
111.050016615321
 30
0.0
 70
    32
  0
VERTEX
  5
8CDD
  8
AM_0
 10
590.03108810278491
 20
111.0480166153199
 30
0.0
 70
    32
  0
VERTEX
  5
8CDE
  8
AM_0
 10
590.02708810278466
 20
111.0470166153211
 30
0.0
 70
    32
  0
VERTEX
  5
8CDF
  8
AM_0
 10
590.0230881027851
 20
111.04601661532
 30
0.0
 70
    32
  0
VERTEX
  5
8CE0
  8
AM_0
 10
590.01908810278485
 20
111.04501661531999
 30
0.0
 70
    32
  0
VERTEX
  5
8CE1
  8
AM_0
 10
590.01508810278494
 20
111.04401661532
 30
0.0
 70
    32
  0
VERTEX
  5
8CE2
  8
AM_0
 10
590.01108810278447
 20
111.04301661532
 30
0.0
 70
    32
  0
VERTEX
  5
8CE3
  8
AM_0
 10
590.00708810278491
 20
111.041016615321
 30
0.0
 70
    32
  0
VERTEX
  5
8CE4
  8
AM_0
 10
590.00208810278491
 20
111.0400166153199
 30
0.0
 70
    32
  0
VERTEX
  5
8CE5
  8
AM_0
 10
589.99808810278478
 20
111.0390166153198
 30
0.0
 70
    32
  0
VERTEX
  5
8CE6
  8
AM_0
 10
589.9940881027851
 20
111.0380166153199
 30
0.0
 70
    32
  0
VERTEX
  5
8CE7
  8
AM_0
 10
589.99008810278474
 20
111.0370166153199
 30
0.0
 70
    32
  0
VERTEX
  5
8CE8
  8
AM_0
 10
589.98608810278472
 20
111.03501661532
 30
0.0
 70
    32
  0
VERTEX
  5
8CE9
  8
AM_0
 10
589.9820881027847
 20
111.034016615323
 30
0.0
 70
    32
  0
VERTEX
  5
8CEA
  8
AM_0
 10
589.97808810278445
 20
111.03301661532009
 30
0.0
 70
    32
  0
VERTEX
  5
8CEB
  8
AM_0
 10
589.97408810278466
 20
111.0320166153201
 30
0.0
 70
    32
  0
VERTEX
  5
8CEC
  8
AM_0
 10
589.97008810278487
 20
111.03001661531989
 30
0.0
 70
    32
  0
VERTEX
  5
8CED
  8
AM_0
 10
589.96608810278474
 20
111.0290166153199
 30
0.0
 70
    32
  0
VERTEX
  5
8CEE
  8
AM_0
 10
589.96208810278472
 20
111.0280166153199
 30
0.0
 70
    32
  0
VERTEX
  5
8CEF
  8
AM_0
 10
589.95708810278495
 20
111.02701661531999
 30
0.0
 70
    32
  0
VERTEX
  5
8CF0
  8
AM_0
 10
589.95308810278493
 20
111.0250166153189
 30
0.0
 70
    32
  0
VERTEX
  5
8CF1
  8
AM_0
 10
589.94908810278491
 20
111.02401661531999
 30
0.0
 70
    32
  0
VERTEX
  5
8CF2
  8
AM_0
 10
589.94508810278512
 20
111.023016615321
 30
0.0
 70
    32
  0
VERTEX
  5
8CF3
  8
AM_0
 10
589.94108810278499
 20
111.02201661532099
 30
0.0
 70
    32
  0
VERTEX
  5
8CF4
  8
AM_0
 10
589.93708810278497
 20
111.0200166153199
 30
0.0
 70
    32
  0
VERTEX
  5
8CF5
  8
AM_0
 10
589.93308810278472
 20
111.0190166153199
 30
0.0
 70
    32
  0
VERTEX
  5
8CF6
  8
AM_0
 10
589.92908810278448
 20
111.01801661531999
 30
0.0
 70
    32
  0
VERTEX
  5
8CF7
  8
AM_0
 10
589.92508810278514
 20
111.01701661532
 30
0.0
 70
    32
  0
VERTEX
  5
8CF8
  8
AM_0
 10
589.92108810278478
 20
111.01501661532301
 30
0.0
 70
    32
  0
VERTEX
  5
8CF9
  8
AM_0
 10
589.91708810278465
 20
111.01401661532
 30
0.0
 70
    32
  0
VERTEX
  5
8CFA
  8
AM_0
 10
589.91308810278508
 20
111.0130166153201
 30
0.0
 70
    32
  0
VERTEX
  5
8CFB
  8
AM_0
 10
589.90908810278495
 20
111.0110166153199
 30
0.0
 70
    32
  0
VERTEX
  5
8CFC
  8
AM_0
 10
589.90408810278473
 20
111.0100166153199
 30
0.0
 70
    32
  0
VERTEX
  5
8CFD
  8
AM_0
 10
589.90008810278471
 20
111.00901661531979
 30
0.0
 70
    32
  0
VERTEX
  5
8CFE
  8
AM_0
 10
589.89608810278446
 20
111.0070166153188
 30
0.0
 70
    32
  0
VERTEX
  5
8CFF
  8
AM_0
 10
589.89208810278501
 20
111.00601661531999
 30
0.0
 70
    32
  0
VERTEX
  5
8D00
  8
AM_0
 10
589.88808810278488
 20
111.00501661532
 30
0.0
 70
    32
  0
VERTEX
  5
8D01
  8
AM_0
 10
589.88408810278474
 20
111.0030166153219
 30
0.0
 70
    32
  0
VERTEX
  5
8D02
  8
AM_0
 10
589.88008810278507
 20
111.0020166153201
 30
0.0
 70
    32
  0
VERTEX
  5
8D03
  8
AM_0
 10
589.87608810278471
 20
111.0010166153199
 30
0.0
 70
    32
  0
VERTEX
  5
8D04
  8
AM_0
 10
589.87208810278503
 20
110.9990166153199
 30
0.0
 70
    32
  0
VERTEX
  5
8D05
  8
AM_0
 10
589.86808810278467
 20
110.9980166153188
 30
0.0
 70
    32
  0
VERTEX
  5
8D06
  8
AM_0
 10
589.86408810278488
 20
110.99701661532001
 30
0.0
 70
    32
  0
VERTEX
  5
8D07
  8
AM_0
 10
589.86008810278497
 20
110.99501661532
 30
0.0
 70
    32
  0
VERTEX
  5
8D08
  8
AM_0
 10
589.85608810278461
 20
110.99401661532011
 30
0.0
 70
    32
  0
VERTEX
  5
8D09
  8
AM_0
 10
589.85208810278471
 20
110.993016615321
 30
0.0
 70
    32
  0
VERTEX
  5
8D0A
  8
AM_0
 10
589.84808810278469
 20
110.99101661531979
 30
0.0
 70
    32
  0
VERTEX
  5
8D0B
  8
AM_0
 10
589.84408810278467
 20
110.9900166153199
 30
0.0
 70
    32
  0
VERTEX
  5
8D0C
  8
AM_0
 10
589.8400881027851
 20
110.98801661532001
 30
0.0
 70
    32
  0
VERTEX
  5
8D0D
  8
AM_0
 10
589.83608810278486
 20
110.98701661532
 30
0.0
 70
    32
  0
VERTEX
  5
8D0E
  8
AM_0
 10
589.83208810278472
 20
110.98601661532
 30
0.0
 70
    32
  0
VERTEX
  5
8D0F
  8
AM_0
 10
589.82808810278493
 20
110.98401661532191
 30
0.0
 70
    32
  0
VERTEX
  5
8D10
  8
AM_0
 10
589.82408810278434
 20
110.9830166153201
 30
0.0
 70
    32
  0
VERTEX
  5
8D11
  8
AM_0
 10
589.82008810278512
 20
110.9810166153199
 30
0.0
 70
    32
  0
VERTEX
  5
8D12
  8
AM_0
 10
589.81608810278465
 20
110.9800166153199
 30
0.0
 70
    32
  0
VERTEX
  5
8D13
  8
AM_0
 10
589.81208810278508
 20
110.97901661532001
 30
0.0
 70
    32
  0
VERTEX
  5
8D14
  8
AM_0
 10
589.80808810278472
 20
110.9770166153212
 30
0.0
 70
    32
  0
VERTEX
  5
8D15
  8
AM_0
 10
589.80408810278493
 20
110.97601661532001
 30
0.0
 70
    32
  0
VERTEX
  5
8D16
  8
AM_0
 10
589.79908810278505
 20
110.97401661532101
 30
0.0
 70
    32
  0
VERTEX
  5
8D17
  8
AM_0
 10
589.79508810278503
 20
110.9730166153219
 30
0.0
 70
    32
  0
VERTEX
  5
8D18
  8
AM_0
 10
589.79108810278512
 20
110.9710166153199
 30
0.0
 70
    32
  0
VERTEX
  5
8D19
  8
AM_0
 10
589.78708810278488
 20
110.97001661531991
 30
0.0
 70
    32
  0
VERTEX
  5
8D1A
  8
AM_0
 10
589.78308810278463
 20
110.96801661532
 30
0.0
 70
    32
  0
VERTEX
  5
8D1B
  8
AM_0
 10
589.77908810278473
 20
110.96701661532001
 30
0.0
 70
    32
  0
VERTEX
  5
8D1C
  8
AM_0
 10
589.77508810278471
 20
110.9650166153219
 30
0.0
 70
    32
  0
VERTEX
  5
8D1D
  8
AM_0
 10
589.77108810278469
 20
110.96401661532011
 30
0.0
 70
    32
  0
VERTEX
  5
8D1E
  8
AM_0
 10
589.76708810278501
 20
110.9620166153199
 30
0.0
 70
    32
  0
VERTEX
  5
8D1F
  8
AM_0
 10
589.76308810278488
 20
110.96101661531991
 30
0.0
 70
    32
  0
VERTEX
  5
8D20
  8
AM_0
 10
589.75908810278486
 20
110.95901661532
 30
0.0
 70
    32
  0
VERTEX
  5
8D21
  8
AM_0
 10
589.75508810278495
 20
110.9580166153211
 30
0.0
 70
    32
  0
VERTEX
  5
8D22
  8
AM_0
 10
589.75108810278471
 20
110.9560166153201
 30
0.0
 70
    32
  0
VERTEX
  5
8D23
  8
AM_0
 10
589.74708810278491
 20
110.955016615321
 30
0.0
 70
    32
  0
VERTEX
  5
8D24
  8
AM_0
 10
589.74308810278467
 20
110.9530166153199
 30
0.0
 70
    32
  0
VERTEX
  5
8D25
  8
AM_0
 10
589.73908810278465
 20
110.95201661531991
 30
0.0
 70
    32
  0
VERTEX
  5
8D26
  8
AM_0
 10
589.73608810278495
 20
110.95001661532
 30
0.0
 70
    32
  0
VERTEX
  5
8D27
  8
AM_0
 10
589.73208810278493
 20
110.94901661532001
 30
0.0
 70
    32
  0
VERTEX
  5
8D28
  8
AM_0
 10
589.72808810278491
 20
110.94701661532299
 30
0.0
 70
    32
  0
VERTEX
  5
8D29
  8
AM_0
 10
589.72408810278478
 20
110.94601661532189
 30
0.0
 70
    32
  0
VERTEX
  5
8D2A
  8
AM_0
 10
589.72008810278464
 20
110.944016615321
 30
0.0
 70
    32
  0
VERTEX
  5
8D2B
  8
AM_0
 10
589.71608810278474
 20
110.94301661531991
 30
0.0
 70
    32
  0
VERTEX
  5
8D2C
  8
AM_0
 10
589.71208810278472
 20
110.9410166153199
 30
0.0
 70
    32
  0
VERTEX
  5
8D2D
  8
AM_0
 10
589.70808810278447
 20
110.93901661532109
 30
0.0
 70
    32
  0
VERTEX
  5
8D2E
  8
AM_0
 10
589.70408810278491
 20
110.93801661532
 30
0.0
 70
    32
  0
VERTEX
  5
8D2F
  8
AM_0
 10
589.700088102785
 20
110.93601661532099
 30
0.0
 70
    32
  0
VERTEX
  5
8D30
  8
AM_0
 10
589.69608810278476
 20
110.9350166153219
 30
0.0
 70
    32
  0
VERTEX
  5
8D31
  8
AM_0
 10
589.69208810278485
 20
110.9330166153199
 30
0.0
 70
    32
  0
VERTEX
  5
8D32
  8
AM_0
 10
589.68808810278472
 20
110.9310166153188
 30
0.0
 70
    32
  0
VERTEX
  5
8D33
  8
AM_0
 10
589.6840881027847
 20
110.93001661532
 30
0.0
 70
    32
  0
VERTEX
  5
8D34
  8
AM_0
 10
589.68008810278491
 20
110.928016615323
 30
0.0
 70
    32
  0
VERTEX
  5
8D35
  8
AM_0
 10
589.67608810278466
 20
110.9270166153219
 30
0.0
 70
    32
  0
VERTEX
  5
8D36
  8
AM_0
 10
589.67208810278487
 20
110.925016615319
 30
0.0
 70
    32
  0
VERTEX
  5
8D37
  8
AM_0
 10
589.66808810278496
 20
110.9230166153199
 30
0.0
 70
    32
  0
VERTEX
  5
8D38
  8
AM_0
 10
589.66408810278472
 20
110.9220166153199
 30
0.0
 70
    32
  0
VERTEX
  5
8D39
  8
AM_0
 10
589.6600881027847
 20
110.9200166153211
 30
0.0
 70
    32
  0
VERTEX
  5
8D3A
  8
AM_0
 10
589.65608810278468
 20
110.91801661532
 30
0.0
 70
    32
  0
VERTEX
  5
8D3B
  8
AM_0
 10
589.652088102785
 20
110.917016615321
 30
0.0
 70
    32
  0
VERTEX
  5
8D3C
  8
AM_0
 10
589.6480881027851
 20
110.9150166153199
 30
0.0
 70
    32
  0
VERTEX
  5
8D3D
  8
AM_0
 10
589.64508810278448
 20
110.9130166153199
 30
0.0
 70
    32
  0
VERTEX
  5
8D3E
  8
AM_0
 10
589.64108810278492
 20
110.9120166153199
 30
0.0
 70
    32
  0
VERTEX
  5
8D3F
  8
AM_0
 10
589.63708810278513
 20
110.91001661532
 30
0.0
 70
    32
  0
VERTEX
  5
8D40
  8
AM_0
 10
589.63308810278465
 20
110.9080166153219
 30
0.0
 70
    32
  0
VERTEX
  5
8D41
  8
AM_0
 10
589.62908810278475
 20
110.907016615321
 30
0.0
 70
    32
  0
VERTEX
  5
8D42
  8
AM_0
 10
589.62508810278473
 20
110.90501661531989
 30
0.0
 70
    32
  0
VERTEX
  5
8D43
  8
AM_0
 10
589.62108810278505
 20
110.9030166153199
 30
0.0
 70
    32
  0
VERTEX
  5
8D44
  8
AM_0
 10
589.61708810278503
 20
110.90201661531999
 30
0.0
 70
    32
  0
VERTEX
  5
8D45
  8
AM_0
 10
589.6130881027849
 20
110.90001661532
 30
0.0
 70
    32
  0
VERTEX
  5
8D46
  8
AM_0
 10
589.60908810278477
 20
110.8980166153188
 30
0.0
 70
    32
  0
VERTEX
  5
8D47
  8
AM_0
 10
589.60508810278475
 20
110.896016615321
 30
0.0
 70
    32
  0
VERTEX
  5
8D48
  8
AM_0
 10
589.60108810278507
 20
110.8950166153199
 30
0.0
 70
    32
  0
VERTEX
  5
8D49
  8
AM_0
 10
589.59808810278446
 20
110.89301661531999
 30
0.0
 70
    32
  0
VERTEX
  5
8D4A
  8
AM_0
 10
589.59408810278501
 20
110.89101661532
 30
0.0
 70
    32
  0
VERTEX
  5
8D4B
  8
AM_0
 10
589.59008810278488
 20
110.88901661532
 30
0.0
 70
    32
  0
VERTEX
  5
8D4C
  8
AM_0
 10
589.58608810278486
 20
110.88801661532101
 30
0.0
 70
    32
  0
VERTEX
  5
8D4D
  8
AM_0
 10
589.58208810278506
 20
110.8860166153199
 30
0.0
 70
    32
  0
VERTEX
  5
8D4E
  8
AM_0
 10
589.5780881027847
 20
110.88401661531989
 30
0.0
 70
    32
  0
VERTEX
  5
8D4F
  8
AM_0
 10
589.57408810278503
 20
110.88201661532111
 30
0.0
 70
    32
  0
VERTEX
  5
8D50
  8
AM_0
 10
589.57008810278512
 20
110.88101661531999
 30
0.0
 70
    32
  0
VERTEX
  5
8D51
  8
AM_0
 10
589.56608810278487
 20
110.87901661532
 30
0.0
 70
    32
  0
VERTEX
  5
8D52
  8
AM_0
 10
589.56308810278472
 20
110.877016615321
 30
0.0
 70
    32
  0
VERTEX
  5
8D53
  8
AM_0
 10
589.55908810278493
 20
110.87501661531989
 30
0.0
 70
    32
  0
VERTEX
  5
8D54
  8
AM_0
 10
589.55508810278468
 20
110.87301661532
 30
0.0
 70
    32
  0
VERTEX
  5
8D55
  8
AM_0
 10
589.55108810278466
 20
110.87201661532291
 30
0.0
 70
    32
  0
VERTEX
  5
8D56
  8
AM_0
 10
589.54708810278498
 20
110.87001661532
 30
0.0
 70
    32
  0
VERTEX
  5
8D57
  8
AM_0
 10
589.54308810278496
 20
110.8680166153201
 30
0.0
 70
    32
  0
VERTEX
  5
8D58
  8
AM_0
 10
589.53908810278472
 20
110.86601661531979
 30
0.0
 70
    32
  0
VERTEX
  5
8D59
  8
AM_0
 10
589.5360881027849
 20
110.864016615322
 30
0.0
 70
    32
  0
VERTEX
  5
8D5A
  8
AM_0
 10
589.53208810278511
 20
110.8630166153211
 30
0.0
 70
    32
  0
VERTEX
  5
8D5B
  8
AM_0
 10
589.52808810278475
 20
110.86101661532
 30
0.0
 70
    32
  0
VERTEX
  5
8D5C
  8
AM_0
 10
589.52408810278473
 20
110.8590166153201
 30
0.0
 70
    32
  0
VERTEX
  5
8D5D
  8
AM_0
 10
589.52008810278471
 20
110.85701661531991
 30
0.0
 70
    32
  0
VERTEX
  5
8D5E
  8
AM_0
 10
589.51608810278492
 20
110.8550166153199
 30
0.0
 70
    32
  0
VERTEX
  5
8D5F
  8
AM_0
 10
589.51208810278513
 20
110.85301661531889
 30
0.0
 70
    32
  0
VERTEX
  5
8D60
  8
AM_0
 10
589.50908810278474
 20
110.85101661532001
 30
0.0
 70
    32
  0
VERTEX
  5
8D61
  8
AM_0
 10
589.50508810278473
 20
110.8490166153201
 30
0.0
 70
    32
  0
VERTEX
  5
8D62
  8
AM_0
 10
589.50108810278493
 20
110.84801661532011
 30
0.0
 70
    32
  0
VERTEX
  5
8D63
  8
AM_0
 10
589.49708810278503
 20
110.8460166153199
 30
0.0
 70
    32
  0
VERTEX
  5
8D64
  8
AM_0
 10
589.49308810278467
 20
110.84401661531879
 30
0.0
 70
    32
  0
VERTEX
  5
8D65
  8
AM_0
 10
589.49008810278474
 20
110.84201661532001
 30
0.0
 70
    32
  0
VERTEX
  5
8D66
  8
AM_0
 10
589.48608810278472
 20
110.8400166153201
 30
0.0
 70
    32
  0
VERTEX
  5
8D67
  8
AM_0
 10
589.4820881027847
 20
110.8380166153199
 30
0.0
 70
    32
  0
VERTEX
  5
8D68
  8
AM_0
 10
589.47808810278468
 20
110.83601661531991
 30
0.0
 70
    32
  0
VERTEX
  5
8D69
  8
AM_0
 10
589.47408810278512
 20
110.83401661532
 30
0.0
 70
    32
  0
VERTEX
  5
8D6A
  8
AM_0
 10
589.47108810278485
 20
110.83201661532
 30
0.0
 70
    32
  0
VERTEX
  5
8D6B
  8
AM_0
 10
589.46708810278471
 20
110.8300166153201
 30
0.0
 70
    32
  0
VERTEX
  5
8D6C
  8
AM_0
 10
589.4630881027847
 20
110.8280166153199
 30
0.0
 70
    32
  0
VERTEX
  5
8D6D
  8
AM_0
 10
589.45908810278468
 20
110.8260166153199
 30
0.0
 70
    32
  0
VERTEX
  5
8D6E
  8
AM_0
 10
589.45508810278466
 20
110.82401661532001
 30
0.0
 70
    32
  0
VERTEX
  5
8D6F
  8
AM_0
 10
589.45208810278473
 20
110.82201661532
 30
0.0
 70
    32
  0
VERTEX
  5
8D70
  8
AM_0
 10
589.44808810278505
 20
110.82001661532099
 30
0.0
 70
    32
  0
VERTEX
  5
8D71
  8
AM_0
 10
589.44408810278492
 20
110.818016615321
 30
0.0
 70
    32
  0
VERTEX
  5
8D72
  8
AM_0
 10
589.44008810278478
 20
110.8160166153199
 30
0.0
 70
    32
  0
VERTEX
  5
8D73
  8
AM_0
 10
589.43608810278511
 20
110.81401661532
 30
0.0
 70
    32
  0
VERTEX
  5
8D74
  8
AM_0
 10
589.43308810278472
 20
110.812016615321
 30
0.0
 70
    32
  0
VERTEX
  5
8D75
  8
AM_0
 10
589.42908810278493
 20
110.810016615321
 30
0.0
 70
    32
  0
VERTEX
  5
8D76
  8
AM_0
 10
589.42508810278514
 20
110.8080166153199
 30
0.0
 70
    32
  0
VERTEX
  5
8D77
  8
AM_0
 10
589.42108810278489
 20
110.80601661532
 30
0.0
 70
    32
  0
VERTEX
  5
8D78
  8
AM_0
 10
589.41808810278508
 20
110.8040166153189
 30
0.0
 70
    32
  0
VERTEX
  5
8D79
  8
AM_0
 10
589.41408810278472
 20
110.80201661532
 30
0.0
 70
    32
  0
VERTEX
  5
8D7A
  8
AM_0
 10
589.4100881027847
 20
110.80001661532189
 30
0.0
 70
    32
  0
VERTEX
  5
8D7B
  8
AM_0
 10
589.40608810278491
 20
110.7980166153199
 30
0.0
 70
    32
  0
VERTEX
  5
8D7C
  8
AM_0
 10
589.40308810278475
 20
110.79601661532
 30
0.0
 70
    32
  0
VERTEX
  5
8D7D
  8
AM_0
 10
589.39908810278473
 20
110.79401661532
 30
0.0
 70
    32
  0
VERTEX
  5
8D7E
  8
AM_0
 10
589.39508810278471
 20
110.79201661531999
 30
0.0
 70
    32
  0
VERTEX
  5
8D7F
  8
AM_0
 10
589.3920881027849
 20
110.7900166153199
 30
0.0
 70
    32
  0
VERTEX
  5
8D80
  8
AM_0
 10
589.38808810278465
 20
110.7870166153199
 30
0.0
 70
    32
  0
VERTEX
  5
8D81
  8
AM_0
 10
589.38408810278474
 20
110.78501661532
 30
0.0
 70
    32
  0
VERTEX
  5
8D82
  8
AM_0
 10
589.38008810278473
 20
110.7830166153209
 30
0.0
 70
    32
  0
VERTEX
  5
8D83
  8
AM_0
 10
589.37708810278468
 20
110.7810166153219
 30
0.0
 70
    32
  0
VERTEX
  5
8D84
  8
AM_0
 10
589.37308810278466
 20
110.7790166153199
 30
0.0
 70
    32
  0
VERTEX
  5
8D85
  8
AM_0
 10
589.36908810278499
 20
110.7770166153188
 30
0.0
 70
    32
  0
VERTEX
  5
8D86
  8
AM_0
 10
589.36608810278472
 20
110.77501661532
 30
0.0
 70
    32
  0
VERTEX
  5
8D87
  8
AM_0
 10
589.3620881027847
 20
110.7730166153201
 30
0.0
 70
    32
  0
VERTEX
  5
8D88
  8
AM_0
 10
589.35808810278468
 20
110.7700166153199
 30
0.0
 70
    32
  0
VERTEX
  5
8D89
  8
AM_0
 10
589.35508810278475
 20
110.76801661531979
 30
0.0
 70
    32
  0
VERTEX
  5
8D8A
  8
AM_0
 10
589.35108810278496
 20
110.76601661532
 30
0.0
 70
    32
  0
VERTEX
  5
8D8B
  8
AM_0
 10
589.34708810278448
 20
110.764016615321
 30
0.0
 70
    32
  0
VERTEX
  5
8D8C
  8
AM_0
 10
589.34408810278478
 20
110.7620166153219
 30
0.0
 70
    32
  0
VERTEX
  5
8D8D
  8
AM_0
 10
589.3400881027851
 20
110.75901661531989
 30
0.0
 70
    32
  0
VERTEX
  5
8D8E
  8
AM_0
 10
589.33608810278508
 20
110.75701661532
 30
0.0
 70
    32
  0
VERTEX
  5
8D8F
  8
AM_0
 10
589.33308810278493
 20
110.7550166153212
 30
0.0
 70
    32
  0
VERTEX
  5
8D90
  8
AM_0
 10
589.32908810278445
 20
110.753016615321
 30
0.0
 70
    32
  0
VERTEX
  5
8D91
  8
AM_0
 10
589.32508810278478
 20
110.7510166153199
 30
0.0
 70
    32
  0
VERTEX
  5
8D92
  8
AM_0
 10
589.32208810278507
 20
110.74801661532
 30
0.0
 70
    32
  0
VERTEX
  5
8D93
  8
AM_0
 10
589.31808810278471
 20
110.74601661532
 30
0.0
 70
    32
  0
VERTEX
  5
8D94
  8
AM_0
 10
589.31408810278447
 20
110.744016615321
 30
0.0
 70
    32
  0
VERTEX
  5
8D95
  8
AM_0
 10
589.31108810278477
 20
110.7420166153199
 30
0.0
 70
    32
  0
VERTEX
  5
8D96
  8
AM_0
 10
589.30708810278475
 20
110.7390166153199
 30
0.0
 70
    32
  0
VERTEX
  5
8D97
  8
AM_0
 10
589.30408810278493
 20
110.737016615323
 30
0.0
 70
    32
  0
VERTEX
  5
8D98
  8
AM_0
 10
589.30008810278514
 20
110.73501661532011
 30
0.0
 70
    32
  0
VERTEX
  5
8D99
  8
AM_0
 10
589.29608810278489
 20
110.7330166153201
 30
0.0
 70
    32
  0
VERTEX
  5
8D9A
  8
AM_0
 10
589.29308810278485
 20
110.7300166153199
 30
0.0
 70
    32
  0
VERTEX
  5
8D9B
  8
AM_0
 10
589.28908810278472
 20
110.72801661532
 30
0.0
 70
    32
  0
VERTEX
  5
8D9C
  8
AM_0
 10
589.28608810278502
 20
110.726016615323
 30
0.0
 70
    32
  0
VERTEX
  5
8D9D
  8
AM_0
 10
589.28208810278511
 20
110.723016615321
 30
0.0
 70
    32
  0
VERTEX
  5
8D9E
  8
AM_0
 10
589.27808810278486
 20
110.7210166153199
 30
0.0
 70
    32
  0
VERTEX
  5
8D9F
  8
AM_0
 10
589.27508810278493
 20
110.71901661532
 30
0.0
 70
    32
  0
VERTEX
  5
8DA0
  8
AM_0
 10
589.27108810278492
 20
110.71601661532
 30
0.0
 70
    32
  0
VERTEX
  5
8DA1
  8
AM_0
 10
589.26808810278487
 20
110.71401661532011
 30
0.0
 70
    32
  0
VERTEX
  5
8DA2
  8
AM_0
 10
589.26408810278497
 20
110.7120166153199
 30
0.0
 70
    32
  0
VERTEX
  5
8DA3
  8
AM_0
 10
589.2610881027847
 20
110.70901661532
 30
0.0
 70
    32
  0
VERTEX
  5
8DA4
  8
AM_0
 10
589.25708810278468
 20
110.707016615323
 30
0.0
 70
    32
  0
VERTEX
  5
8DA5
  8
AM_0
 10
589.25408810278464
 20
110.704016615321
 30
0.0
 70
    32
  0
VERTEX
  5
8DA6
  8
AM_0
 10
589.25008810278473
 20
110.70201661531991
 30
0.0
 70
    32
  0
VERTEX
  5
8DA7
  8
AM_0
 10
589.2460881027846
 20
110.70001661532
 30
0.0
 70
    32
  0
VERTEX
  5
8DA8
  8
AM_0
 10
589.24308810278478
 20
110.69701661532
 30
0.0
 70
    32
  0
VERTEX
  5
8DA9
  8
AM_0
 10
589.23908810278465
 20
110.6950166153201
 30
0.0
 70
    32
  0
VERTEX
  5
8DAA
  8
AM_0
 10
589.23608810278472
 20
110.6920166153199
 30
0.0
 70
    32
  0
VERTEX
  5
8DAB
  8
AM_0
 10
589.23208810278447
 20
110.6900166153188
 30
0.0
 70
    32
  0
VERTEX
  5
8DAC
  8
AM_0
 10
589.22908810278477
 20
110.68701661532
 30
0.0
 70
    32
  0
VERTEX
  5
8DAD
  8
AM_0
 10
589.22508810278475
 20
110.685016615321
 30
0.0
 70
    32
  0
VERTEX
  5
8DAE
  8
AM_0
 10
589.22208810278471
 20
110.6830166153199
 30
0.0
 70
    32
  0
VERTEX
  5
8DAF
  8
AM_0
 10
589.21808810278492
 20
110.6800166153229
 30
0.0
 70
    32
  0
VERTEX
  5
8DB0
  8
AM_0
 10
589.2150881027851
 20
110.67801661532
 30
0.0
 70
    32
  0
VERTEX
  5
8DB1
  8
AM_0
 10
589.21108810278486
 20
110.675016615321
 30
0.0
 70
    32
  0
VERTEX
  5
8DB2
  8
AM_0
 10
589.20808810278493
 20
110.6730166153199
 30
0.0
 70
    32
  0
VERTEX
  5
8DB3
  8
AM_0
 10
589.20508810278477
 20
110.67001661531999
 30
0.0
 70
    32
  0
VERTEX
  5
8DB4
  8
AM_0
 10
589.20108810278475
 20
110.66801661532
 30
0.0
 70
    32
  0
VERTEX
  5
8DB5
  8
AM_0
 10
589.19808810278471
 20
110.6650166153199
 30
0.0
 70
    32
  0
VERTEX
  5
8DB6
  8
AM_0
 10
589.19408810278469
 20
110.6630166153199
 30
0.0
 70
    32
  0
VERTEX
  5
8DB7
  8
AM_0
 10
589.19108810278487
 20
110.66001661532
 30
0.0
 70
    32
  0
VERTEX
  5
8DB8
  8
AM_0
 10
589.18708810278497
 20
110.65801661531999
 30
0.0
 70
    32
  0
VERTEX
  5
8DB9
  8
AM_0
 10
589.1840881027847
 20
110.65501661531989
 30
0.0
 70
    32
  0
VERTEX
  5
8DBA
  8
AM_0
 10
589.181088102785
 20
110.65201661531999
 30
0.0
 70
    32
  0
VERTEX
  5
8DBB
  8
AM_0
 10
589.17708810278486
 20
110.6500166153189
 30
0.0
 70
    32
  0
VERTEX
  5
8DBC
  8
AM_0
 10
589.17408810278505
 20
110.64701661532099
 30
0.0
 70
    32
  0
VERTEX
  5
8DBD
  8
AM_0
 10
589.17008810278503
 20
110.6450166153199
 30
0.0
 70
    32
  0
VERTEX
  5
8DBE
  8
AM_0
 10
589.16708810278465
 20
110.64201661532
 30
0.0
 70
    32
  0
VERTEX
  5
8DBF
  8
AM_0
 10
589.16408810278449
 20
110.63901661532
 30
0.0
 70
    32
  0
VERTEX
  5
8DC0
  8
AM_0
 10
589.16008810278493
 20
110.637016615321
 30
0.0
 70
    32
  0
VERTEX
  5
8DC1
  8
AM_0
 10
589.15708810278511
 20
110.63401661531989
 30
0.0
 70
    32
  0
VERTEX
  5
8DC2
  8
AM_0
 10
589.15308810278509
 20
110.6320166153188
 30
0.0
 70
    32
  0
VERTEX
  5
8DC3
  8
AM_0
 10
589.15008810278493
 20
110.62901661532101
 30
0.0
 70
    32
  0
VERTEX
  5
8DC4
  8
AM_0
 10
589.14708810278466
 20
110.6260166153199
 30
0.0
 70
    32
  0
VERTEX
  5
8DC5
  8
AM_0
 10
589.14308810278499
 20
110.6240166153199
 30
0.0
 70
    32
  0
VERTEX
  5
8DC6
  8
AM_0
 10
589.14008810278494
 20
110.621016615323
 30
0.0
 70
    32
  0
VERTEX
  5
8DC7
  8
AM_0
 10
589.13708810278513
 20
110.618016615321
 30
0.0
 70
    32
  0
VERTEX
  5
8DC8
  8
AM_0
 10
589.13308810278465
 20
110.61601661531989
 30
0.0
 70
    32
  0
VERTEX
  5
8DC9
  8
AM_0
 10
589.13008810278495
 20
110.61301661532001
 30
0.0
 70
    32
  0
VERTEX
  5
8DCA
  8
AM_0
 10
589.12708810278446
 20
110.6100166153209
 30
0.0
 70
    32
  0
VERTEX
  5
8DCB
  8
AM_0
 10
589.12408810278475
 20
110.60701661531991
 30
0.0
 70
    32
  0
VERTEX
  5
8DCC
  8
AM_0
 10
589.12008810278473
 20
110.6050166153199
 30
0.0
 70
    32
  0
VERTEX
  5
8DCD
  8
AM_0
 10
589.11708810278446
 20
110.60201661532111
 30
0.0
 70
    32
  0
VERTEX
  5
8DCE
  8
AM_0
 10
589.11408810278476
 20
110.59901661532101
 30
0.0
 70
    32
  0
VERTEX
  5
8DCF
  8
AM_0
 10
589.11008810278508
 20
110.5960166153199
 30
0.0
 70
    32
  0
VERTEX
  5
8DD0
  8
AM_0
 10
589.1070881027847
 20
110.59401661532
 30
0.0
 70
    32
  0
VERTEX
  5
8DD1
  8
AM_0
 10
589.10408810278489
 20
110.591016615321
 30
0.0
 70
    32
  0
VERTEX
  5
8DD2
  8
AM_0
 10
589.10108810278507
 20
110.5880166153199
 30
0.0
 70
    32
  0
VERTEX
  5
8DD3
  8
AM_0
 10
589.09708810278471
 20
110.58501661532
 30
0.0
 70
    32
  0
VERTEX
  5
8DD4
  8
AM_0
 10
589.09408810278489
 20
110.5830166153211
 30
0.0
 70
    32
  0
VERTEX
  5
8DD5
  8
AM_0
 10
589.09108810278474
 20
110.580016615321
 30
0.0
 70
    32
  0
VERTEX
  5
8DD6
  8
AM_0
 10
589.0880881027847
 20
110.57701661531991
 30
0.0
 70
    32
  0
VERTEX
  5
8DD7
  8
AM_0
 10
589.08508810278465
 20
110.57401661532001
 30
0.0
 70
    32
  0
VERTEX
  5
8DD8
  8
AM_0
 10
589.08108810278497
 20
110.57101661532189
 30
0.0
 70
    32
  0
VERTEX
  5
8DD9
  8
AM_0
 10
589.07808810278493
 20
110.56801661531991
 30
0.0
 70
    32
  0
VERTEX
  5
8DDA
  8
AM_0
 10
589.075088102785
 20
110.5660166153199
 30
0.0
 70
    32
  0
VERTEX
  5
8DDB
  8
AM_0
 10
589.07208810278496
 20
110.56301661532
 30
0.0
 70
    32
  0
VERTEX
  5
8DDC
  8
AM_0
 10
589.06908810278469
 20
110.5600166153219
 30
0.0
 70
    32
  0
VERTEX
  5
8DDD
  8
AM_0
 10
589.06608810278499
 20
110.5570166153199
 30
0.0
 70
    32
  0
VERTEX
  5
8DDE
  8
AM_0
 10
589.06308810278495
 20
110.55401661531999
 30
0.0
 70
    32
  0
VERTEX
  5
8DDF
  8
AM_0
 10
589.05908810278436
 20
110.55101661531999
 30
0.0
 70
    32
  0
VERTEX
  5
8DE0
  8
AM_0
 10
589.056088102785
 20
110.5480166153199
 30
0.0
 70
    32
  0
VERTEX
  5
8DE1
  8
AM_0
 10
589.05308810278495
 20
110.5450166153211
 30
0.0
 70
    32
  0
VERTEX
  5
8DE2
  8
AM_0
 10
589.05008810278514
 20
110.542016615321
 30
0.0
 70
    32
  0
VERTEX
  5
8DE3
  8
AM_0
 10
589.04708810278476
 20
110.53901661531989
 30
0.0
 70
    32
  0
VERTEX
  5
8DE4
  8
AM_0
 10
589.04408810278471
 20
110.53601661531999
 30
0.0
 70
    32
  0
VERTEX
  5
8DE5
  8
AM_0
 10
589.04108810278512
 20
110.5330166153219
 30
0.0
 70
    32
  0
VERTEX
  5
8DE6
  8
AM_0
 10
589.03808810278508
 20
110.53001661531989
 30
0.0
 70
    32
  0
VERTEX
  5
8DE7
  8
AM_0
 10
589.03508810278493
 20
110.52701661531999
 30
0.0
 70
    32
  0
VERTEX
  5
8DE8
  8
AM_0
 10
589.03208810278511
 20
110.52401661531999
 30
0.0
 70
    32
  0
VERTEX
  5
8DE9
  8
AM_0
 10
589.02908810278473
 20
110.521016615321
 30
0.0
 70
    32
  0
VERTEX
  5
8DEA
  8
AM_0
 10
589.02608810278491
 20
110.518016615319
 30
0.0
 70
    32
  0
VERTEX
  5
8DEB
  8
AM_0
 10
589.0230881027851
 20
110.51501661532301
 30
0.0
 70
    32
  0
VERTEX
  5
8DEC
  8
AM_0
 10
589.02008810278471
 20
110.51201661532011
 30
0.0
 70
    32
  0
VERTEX
  5
8DED
  8
AM_0
 10
589.01708810278478
 20
110.50901661531989
 30
0.0
 70
    32
  0
VERTEX
  5
8DEE
  8
AM_0
 10
589.01408810278508
 20
110.50601661531999
 30
0.0
 70
    32
  0
VERTEX
  5
8DEF
  8
AM_0
 10
589.0110881027847
 20
110.50301661532011
 30
0.0
 70
    32
  0
VERTEX
  5
8DF0
  8
AM_0
 10
589.00808810278488
 20
110.50001661531979
 30
0.0
 70
    32
  0
VERTEX
  5
8DF1
  8
AM_0
 10
589.00508810278473
 20
110.49701661532001
 30
0.0
 70
    32
  0
VERTEX
  5
8DF2
  8
AM_0
 10
589.00208810278446
 20
110.494016615321
 30
0.0
 70
    32
  0
VERTEX
  5
8DF3
  8
AM_0
 10
588.99908810278475
 20
110.49101661531989
 30
0.0
 70
    32
  0
VERTEX
  5
8DF4
  8
AM_0
 10
588.99608810278471
 20
110.4880166153211
 30
0.0
 70
    32
  0
VERTEX
  5
8DF5
  8
AM_0
 10
588.9930881027849
 20
110.48501661532001
 30
0.0
 70
    32
  0
VERTEX
  5
8DF6
  8
AM_0
 10
588.99008810278474
 20
110.4810166153199
 30
0.0
 70
    32
  0
VERTEX
  5
8DF7
  8
AM_0
 10
588.98708810278492
 20
110.47801661531879
 30
0.0
 70
    32
  0
VERTEX
  5
8DF8
  8
AM_0
 10
588.98408810278465
 20
110.475016615321
 30
0.0
 70
    32
  0
VERTEX
  5
8DF9
  8
AM_0
 10
588.98208810278493
 20
110.4720166153199
 30
0.0
 70
    32
  0
VERTEX
  5
8DFA
  8
AM_0
 10
588.97908810278466
 20
110.46901661531879
 30
0.0
 70
    32
  0
VERTEX
  5
8DFB
  8
AM_0
 10
588.97608810278496
 20
110.46601661532
 30
0.0
 70
    32
  0
VERTEX
  5
8DFC
  8
AM_0
 10
588.97308810278491
 20
110.4620166153199
 30
0.0
 70
    32
  0
VERTEX
  5
8DFD
  8
AM_0
 10
588.97008810278498
 20
110.45901661532
 30
0.0
 70
    32
  0
VERTEX
  5
8DFE
  8
AM_0
 10
588.96708810278506
 20
110.456016615321
 30
0.0
 70
    32
  0
VERTEX
  5
8DFF
  8
AM_0
 10
588.9650881027851
 20
110.4530166153199
 30
0.0
 70
    32
  0
VERTEX
  5
8E00
  8
AM_0
 10
588.96208810278461
 20
110.44901661532001
 30
0.0
 70
    32
  0
VERTEX
  5
8E01
  8
AM_0
 10
588.9590881027849
 20
110.44601661532
 30
0.0
 70
    32
  0
VERTEX
  5
8E02
  8
AM_0
 10
588.95608810278509
 20
110.44301661531991
 30
0.0
 70
    32
  0
VERTEX
  5
8E03
  8
AM_0
 10
588.95408810278468
 20
110.44001661532
 30
0.0
 70
    32
  0
VERTEX
  5
8E04
  8
AM_0
 10
588.95108810278475
 20
110.4360166153201
 30
0.0
 70
    32
  0
VERTEX
  5
8E05
  8
AM_0
 10
588.9480881027846
 20
110.4330166153199
 30
0.0
 70
    32
  0
VERTEX
  5
8E06
  8
AM_0
 10
588.94608810278476
 20
110.43001661532
 30
0.0
 70
    32
  0
VERTEX
  5
8E07
  8
AM_0
 10
588.94308810278471
 20
110.426016615321
 30
0.0
 70
    32
  0
VERTEX
  5
8E08
  8
AM_0
 10
588.9400881027849
 20
110.4230166153199
 30
0.0
 70
    32
  0
VERTEX
  5
8E09
  8
AM_0
 10
588.93808810278495
 20
110.42001661531999
 30
0.0
 70
    32
  0
VERTEX
  5
8E0A
  8
AM_0
 10
588.9350881027849
 20
110.4160166153201
 30
0.0
 70
    32
  0
VERTEX
  5
8E0B
  8
AM_0
 10
588.93208810278475
 20
110.4130166153199
 30
0.0
 70
    32
  0
VERTEX
  5
8E0C
  8
AM_0
 10
588.93008810278491
 20
110.41001661532
 30
0.0
 70
    32
  0
VERTEX
  5
8E0D
  8
AM_0
 10
588.92708810278475
 20
110.4060166153219
 30
0.0
 70
    32
  0
VERTEX
  5
8E0E
  8
AM_0
 10
588.92508810278514
 20
110.4030166153199
 30
0.0
 70
    32
  0
VERTEX
  5
8E0F
  8
AM_0
 10
588.92208810278476
 20
110.3990166153212
 30
0.0
 70
    32
  0
VERTEX
  5
8E10
  8
AM_0
 10
588.91908810278471
 20
110.396016615321
 30
0.0
 70
    32
  0
VERTEX
  5
8E11
  8
AM_0
 10
588.91708810278476
 20
110.39301661531989
 30
0.0
 70
    32
  0
VERTEX
  5
8E12
  8
AM_0
 10
588.91408810278472
 20
110.3890166153201
 30
0.0
 70
    32
  0
VERTEX
  5
8E13
  8
AM_0
 10
588.91208810278488
 20
110.3860166153199
 30
0.0
 70
    32
  0
VERTEX
  5
8E14
  8
AM_0
 10
588.90908810278506
 20
110.38201661532
 30
0.0
 70
    32
  0
VERTEX
  5
8E15
  8
AM_0
 10
588.907088102785
 20
110.3790166153201
 30
0.0
 70
    32
  0
VERTEX
  5
8E16
  8
AM_0
 10
588.90408810278473
 20
110.37501661531979
 30
0.0
 70
    32
  0
VERTEX
  5
8E17
  8
AM_0
 10
588.90208810278489
 20
110.37201661532001
 30
0.0
 70
    32
  0
VERTEX
  5
8E18
  8
AM_0
 10
588.90008810278471
 20
110.36801661532191
 30
0.0
 70
    32
  0
VERTEX
  5
8E19
  8
AM_0
 10
588.89708810278466
 20
110.3650166153199
 30
0.0
 70
    32
  0
VERTEX
  5
8E1A
  8
AM_0
 10
588.89508810278471
 20
110.3610166153212
 30
0.0
 70
    32
  0
VERTEX
  5
8E1B
  8
AM_0
 10
588.89208810278501
 20
110.35801661532101
 30
0.0
 70
    32
  0
VERTEX
  5
8E1C
  8
AM_0
 10
588.89008810278494
 20
110.35401661532001
 30
0.0
 70
    32
  0
VERTEX
  5
8E1D
  8
AM_0
 10
588.88808810278488
 20
110.350016615321
 30
0.0
 70
    32
  0
VERTEX
  5
8E1E
  8
AM_0
 10
588.88508810278472
 20
110.3470166153199
 30
0.0
 70
    32
  0
VERTEX
  5
8E1F
  8
AM_0
 10
588.88308810278465
 20
110.3430166153229
 30
0.0
 70
    32
  0
VERTEX
  5
8E20
  8
AM_0
 10
588.8810881027847
 20
110.34001661532101
 30
0.0
 70
    32
  0
VERTEX
  5
8E21
  8
AM_0
 10
588.87808810278511
 20
110.33601661531991
 30
0.0
 70
    32
  0
VERTEX
  5
8E22
  8
AM_0
 10
588.87608810278471
 20
110.332016615323
 30
0.0
 70
    32
  0
VERTEX
  5
8E23
  8
AM_0
 10
588.87408810278487
 20
110.329016615321
 30
0.0
 70
    32
  0
VERTEX
  5
8E24
  8
AM_0
 10
588.87208810278491
 20
110.32501661532
 30
0.0
 70
    32
  0
VERTEX
  5
8E25
  8
AM_0
 10
588.8690881027851
 20
110.32101661532
 30
0.0
 70
    32
  0
VERTEX
  5
8E26
  8
AM_0
 10
588.86708810278503
 20
110.31801661531991
 30
0.0
 70
    32
  0
VERTEX
  5
8E27
  8
AM_0
 10
588.86508810278485
 20
110.31401661532
 30
0.0
 70
    32
  0
VERTEX
  5
8E28
  8
AM_0
 10
588.86308810278467
 20
110.310016615321
 30
0.0
 70
    32
  0
VERTEX
  5
8E29
  8
AM_0
 10
588.86108810278472
 20
110.3070166153199
 30
0.0
 70
    32
  0
VERTEX
  5
8E2A
  8
AM_0
 10
588.85908810278465
 20
110.30301661532
 30
0.0
 70
    32
  0
VERTEX
  5
8E2B
  8
AM_0
 10
588.85708810278493
 20
110.2990166153199
 30
0.0
 70
    32
  0
VERTEX
  5
8E2C
  8
AM_0
 10
588.85408810278466
 20
110.29601661532
 30
0.0
 70
    32
  0
VERTEX
  5
8E2D
  8
AM_0
 10
588.85208810278448
 20
110.29201661531999
 30
0.0
 70
    32
  0
VERTEX
  5
8E2E
  8
AM_0
 10
588.85008810278475
 20
110.2880166153199
 30
0.0
 70
    32
  0
VERTEX
  5
8E2F
  8
AM_0
 10
588.84808810278435
 20
110.28401661532
 30
0.0
 70
    32
  0
VERTEX
  5
8E30
  8
AM_0
 10
588.84608810278473
 20
110.28101661532099
 30
0.0
 70
    32
  0
VERTEX
  5
8E31
  8
AM_0
 10
588.84408810278478
 20
110.27701661531999
 30
0.0
 70
    32
  0
VERTEX
  5
8E32
  8
AM_0
 10
588.84208810278506
 20
110.27301661532
 30
0.0
 70
    32
  0
VERTEX
  5
8E33
  8
AM_0
 10
588.8400881027851
 20
110.2690166153199
 30
0.0
 70
    32
  0
VERTEX
  5
8E34
  8
AM_0
 10
588.83808810278447
 20
110.26501661531999
 30
0.0
 70
    32
  0
VERTEX
  5
8E35
  8
AM_0
 10
588.83708810278472
 20
110.262016615321
 30
0.0
 70
    32
  0
VERTEX
  5
8E36
  8
AM_0
 10
588.83508810278465
 20
110.2580166153199
 30
0.0
 70
    32
  0
VERTEX
  5
8E37
  8
AM_0
 10
588.83308810278447
 20
110.25401661532101
 30
0.0
 70
    32
  0
VERTEX
  5
8E38
  8
AM_0
 10
588.83108810278509
 20
110.25001661531989
 30
0.0
 70
    32
  0
VERTEX
  5
8E39
  8
AM_0
 10
588.82908810278445
 20
110.24601661532
 30
0.0
 70
    32
  0
VERTEX
  5
8E3A
  8
AM_0
 10
588.82708810278473
 20
110.2420166153199
 30
0.0
 70
    32
  0
VERTEX
  5
8E3B
  8
AM_0
 10
588.82608810278475
 20
110.23801661532001
 30
0.0
 70
    32
  0
VERTEX
  5
8E3C
  8
AM_0
 10
588.82408810278491
 20
110.235016615321
 30
0.0
 70
    32
  0
VERTEX
  5
8E3D
  8
AM_0
 10
588.82208810278485
 20
110.2310166153199
 30
0.0
 70
    32
  0
VERTEX
  5
8E3E
  8
AM_0
 10
588.82008810278501
 20
110.227016615323
 30
0.0
 70
    32
  0
VERTEX
  5
8E3F
  8
AM_0
 10
588.81908810278446
 20
110.223016615321
 30
0.0
 70
    32
  0
VERTEX
  5
8E40
  8
AM_0
 10
588.81708810278474
 20
110.21901661531879
 30
0.0
 70
    32
  0
VERTEX
  5
8E41
  8
AM_0
 10
588.81508810278501
 20
110.21501661532101
 30
0.0
 70
    32
  0
VERTEX
  5
8E42
  8
AM_0
 10
588.81408810278469
 20
110.21101661531991
 30
0.0
 70
    32
  0
VERTEX
  5
8E43
  8
AM_0
 10
588.81208810278508
 20
110.20701661532
 30
0.0
 70
    32
  0
VERTEX
  5
8E44
  8
AM_0
 10
588.8100881027849
 20
110.2030166153199
 30
0.0
 70
    32
  0
VERTEX
  5
8E45
  8
AM_0
 10
588.8090881027847
 20
110.19901661532001
 30
0.0
 70
    32
  0
VERTEX
  5
8E46
  8
AM_0
 10
588.80708810278475
 20
110.1950166153201
 30
0.0
 70
    32
  0
VERTEX
  5
8E47
  8
AM_0
 10
588.80608810278488
 20
110.19101661532
 30
0.0
 70
    32
  0
VERTEX
  5
8E48
  8
AM_0
 10
588.80408810278493
 20
110.18701661532
 30
0.0
 70
    32
  0
VERTEX
  5
8E49
  8
AM_0
 10
588.80308810278507
 20
110.1830166153199
 30
0.0
 70
    32
  0
VERTEX
  5
8E4A
  8
AM_0
 10
588.80108810278466
 20
110.17901661531999
 30
0.0
 70
    32
  0
VERTEX
  5
8E4B
  8
AM_0
 10
588.80008810278514
 20
110.175016615321
 30
0.0
 70
    32
  0
VERTEX
  5
8E4C
  8
AM_0
 10
588.79908810278505
 20
110.17101661532
 30
0.0
 70
    32
  0
VERTEX
  5
8E4D
  8
AM_0
 10
588.79708810278464
 20
110.167016615321
 30
0.0
 70
    32
  0
VERTEX
  5
8E4E
  8
AM_0
 10
588.79608810278489
 20
110.1630166153199
 30
0.0
 70
    32
  0
VERTEX
  5
8E4F
  8
AM_0
 10
588.79508810278503
 20
110.159016615323
 30
0.0
 70
    32
  0
VERTEX
  5
8E50
  8
AM_0
 10
588.79308810278496
 20
110.15501661531989
 30
0.0
 70
    32
  0
VERTEX
  5
8E51
  8
AM_0
 10
588.79208810278487
 20
110.1510166153211
 30
0.0
 70
    32
  0
VERTEX
  5
8E52
  8
AM_0
 10
588.79108810278512
 20
110.1470166153219
 30
0.0
 70
    32
  0
VERTEX
  5
8E53
  8
AM_0
 10
588.79008810278492
 20
110.14201661532
 30
0.0
 70
    32
  0
VERTEX
  5
8E54
  8
AM_0
 10
588.78908810278472
 20
110.1380166153201
 30
0.0
 70
    32
  0
VERTEX
  5
8E55
  8
AM_0
 10
588.78708810278499
 20
110.13401661531979
 30
0.0
 70
    32
  0
VERTEX
  5
8E56
  8
AM_0
 10
588.78608810278445
 20
110.13001661532
 30
0.0
 70
    32
  0
VERTEX
  5
8E57
  8
AM_0
 10
588.7850881027847
 20
110.1260166153199
 30
0.0
 70
    32
  0
VERTEX
  5
8E58
  8
AM_0
 10
588.78408810278495
 20
110.12201661532001
 30
0.0
 70
    32
  0
VERTEX
  5
8E59
  8
AM_0
 10
588.78308810278463
 20
110.1180166153201
 30
0.0
 70
    32
  0
VERTEX
  5
8E5A
  8
AM_0
 10
588.78208810278511
 20
110.11401661532
 30
0.0
 70
    32
  0
VERTEX
  5
8E5B
  8
AM_0
 10
588.78108810278468
 20
110.1090166153201
 30
0.0
 70
    32
  0
VERTEX
  5
8E5C
  8
AM_0
 10
588.78008810278493
 20
110.1050166153199
 30
0.0
 70
    32
  0
VERTEX
  5
8E5D
  8
AM_0
 10
588.77908810278461
 20
110.10101661532001
 30
0.0
 70
    32
  0
VERTEX
  5
8E5E
  8
AM_0
 10
588.77808810278475
 20
110.0970166153199
 30
0.0
 70
    32
  0
VERTEX
  5
8E5F
  8
AM_0
 10
588.777088102785
 20
110.09301661532
 30
0.0
 70
    32
  0
VERTEX
  5
8E60
  8
AM_0
 10
588.77608810278491
 20
110.089016615321
 30
0.0
 70
    32
  0
VERTEX
  5
8E61
  8
AM_0
 10
588.77608810278491
 20
110.08401661532
 30
0.0
 70
    32
  0
VERTEX
  5
8E62
  8
AM_0
 10
588.77508810278471
 20
110.0800166153201
 30
0.0
 70
    32
  0
VERTEX
  5
8E63
  8
AM_0
 10
588.77408810278473
 20
110.0760166153199
 30
0.0
 70
    32
  0
VERTEX
  5
8E64
  8
AM_0
 10
588.7730881027851
 20
110.07201661532
 30
0.0
 70
    32
  0
VERTEX
  5
8E65
  8
AM_0
 10
588.77208810278466
 20
110.06801661531991
 30
0.0
 70
    32
  0
VERTEX
  5
8E66
  8
AM_0
 10
588.77208810278466
 20
110.06301661532
 30
0.0
 70
    32
  0
VERTEX
  5
8E67
  8
AM_0
 10
588.77108810278469
 20
110.0590166153199
 30
0.0
 70
    32
  0
VERTEX
  5
8E68
  8
AM_0
 10
588.77008810278448
 20
110.05501661532
 30
0.0
 70
    32
  0
VERTEX
  5
8E69
  8
AM_0
 10
588.77008810278448
 20
110.051016615321
 30
0.0
 70
    32
  0
VERTEX
  5
8E6A
  8
AM_0
 10
588.76908810278485
 20
110.04601661532
 30
0.0
 70
    32
  0
VERTEX
  5
8E6B
  8
AM_0
 10
588.76808810278499
 20
110.04201661531999
 30
0.0
 70
    32
  0
VERTEX
  5
8E6C
  8
AM_0
 10
588.76808810278499
 20
110.0380166153199
 30
0.0
 70
    32
  0
VERTEX
  5
8E6D
  8
AM_0
 10
588.76708810278501
 20
110.03401661532
 30
0.0
 70
    32
  0
VERTEX
  5
8E6E
  8
AM_0
 10
588.76708810278501
 20
110.0290166153199
 30
0.0
 70
    32
  0
VERTEX
  5
8E6F
  8
AM_0
 10
588.76608810278492
 20
110.02501661532
 30
0.0
 70
    32
  0
VERTEX
  5
8E70
  8
AM_0
 10
588.76608810278492
 20
110.021016615321
 30
0.0
 70
    32
  0
VERTEX
  5
8E71
  8
AM_0
 10
588.76508810278494
 20
110.01701661532
 30
0.0
 70
    32
  0
VERTEX
  5
8E72
  8
AM_0
 10
588.76508810278494
 20
110.0120166153219
 30
0.0
 70
    32
  0
VERTEX
  5
8E73
  8
AM_0
 10
588.76508810278494
 20
110.00801661532
 30
0.0
 70
    32
  0
VERTEX
  5
8E74
  8
AM_0
 10
588.76408810278497
 20
110.0040166153201
 30
0.0
 70
    32
  0
VERTEX
  5
8E75
  8
AM_0
 10
588.76408810278497
 20
110.00001661531989
 30
0.0
 70
    32
  0
VERTEX
  5
8E76
  8
AM_0
 10
588.76408810278497
 20
109.99501661532
 30
0.0
 70
    32
  0
VERTEX
  5
8E77
  8
AM_0
 10
588.76408810278497
 20
109.99101661531989
 30
0.0
 70
    32
  0
VERTEX
  5
8E78
  8
AM_0
 10
588.76308810278465
 20
109.98701661532
 30
0.0
 70
    32
  0
VERTEX
  5
8E79
  8
AM_0
 10
588.76308810278465
 20
109.98301661532101
 30
0.0
 70
    32
  0
VERTEX
  5
8E7A
  8
AM_0
 10
588.76308810278465
 20
109.97801661532
 30
0.0
 70
    32
  0
VERTEX
  5
8E7B
  8
AM_0
 10
588.76308810278465
 20
109.9740166153219
 30
0.0
 70
    32
  0
VERTEX
  5
8E7C
  8
AM_0
 10
588.76308810278465
 20
109.97001661531991
 30
0.0
 70
    32
  0
VERTEX
  5
8E7D
  8
AM_0
 10
588.76308810278465
 20
109.96501661532101
 30
0.0
 70
    32
  0
VERTEX
  5
8E7E
  8
AM_0
 10
588.76308810278465
 20
109.96101661531991
 30
0.0
 70
    32
  0
VERTEX
  5
8E7F
  8
AM_0
 10
588.76308810278465
 20
109.957016615323
 30
0.0
 70
    32
  0
VERTEX
  5
8E80
  8
AM_0
 10
588.76308810278465
 20
109.9530166153199
 30
0.0
 70
    32
  0
VERTEX
  5
8E81
  8
AM_0
 10
588.76308810278465
 20
109.948016615321
 30
0.0
 70
    32
  0
VERTEX
  5
8E82
  8
AM_0
 10
588.76408810278497
 20
109.94401661532
 30
0.0
 70
    32
  0
VERTEX
  5
8E83
  8
AM_0
 10
588.76408810278497
 20
109.94001661532
 30
0.0
 70
    32
  0
VERTEX
  5
8E84
  8
AM_0
 10
588.76408810278497
 20
109.9360166153201
 30
0.0
 70
    32
  0
VERTEX
  5
8E85
  8
AM_0
 10
588.76408810278497
 20
109.93101661532
 30
0.0
 70
    32
  0
VERTEX
  5
8E86
  8
AM_0
 10
588.76508810278494
 20
109.92701661532
 30
0.0
 70
    32
  0
VERTEX
  5
8E87
  8
AM_0
 10
588.76508810278494
 20
109.9230166153199
 30
0.0
 70
    32
  0
VERTEX
  5
8E88
  8
AM_0
 10
588.76508810278494
 20
109.919016615323
 30
0.0
 70
    32
  0
VERTEX
  5
8E89
  8
AM_0
 10
588.76608810278492
 20
109.9140166153198
 30
0.0
 70
    32
  0
VERTEX
  5
8E8A
  8
AM_0
 10
588.76608810278492
 20
109.9100166153211
 30
0.0
 70
    32
  0
VERTEX
  5
8E8B
  8
AM_0
 10
588.76608810278492
 20
109.9060166153201
 30
0.0
 70
    32
  0
VERTEX
  5
8E8C
  8
AM_0
 10
588.76708810278501
 20
109.9020166153188
 30
0.0
 70
    32
  0
VERTEX
  5
8E8D
  8
AM_0
 10
588.76708810278501
 20
109.89701661532099
 30
0.0
 70
    32
  0
VERTEX
  5
8E8E
  8
AM_0
 10
588.76808810278499
 20
109.89301661531999
 30
0.0
 70
    32
  0
VERTEX
  5
8E8F
  8
AM_0
 10
588.76808810278499
 20
109.88901661531879
 30
0.0
 70
    32
  0
VERTEX
  5
8E90
  8
AM_0
 10
588.76908810278485
 20
109.8850166153199
 30
0.0
 70
    32
  0
VERTEX
  5
8E91
  8
AM_0
 10
588.76908810278485
 20
109.88001661532
 30
0.0
 70
    32
  0
VERTEX
  5
8E92
  8
AM_0
 10
588.77008810278448
 20
109.8760166153199
 30
0.0
 70
    32
  0
VERTEX
  5
8E93
  8
AM_0
 10
588.77008810278448
 20
109.87201661532001
 30
0.0
 70
    32
  0
VERTEX
  5
8E94
  8
AM_0
 10
588.77108810278469
 20
109.868016615321
 30
0.0
 70
    32
  0
VERTEX
  5
8E95
  8
AM_0
 10
588.77108810278469
 20
109.86301661532001
 30
0.0
 70
    32
  0
VERTEX
  5
8E96
  8
AM_0
 10
588.77208810278466
 20
109.859016615321
 30
0.0
 70
    32
  0
VERTEX
  5
8E97
  8
AM_0
 10
588.77208810278466
 20
109.8550166153199
 30
0.0
 70
    32
  0
VERTEX
  5
8E98
  8
AM_0
 10
588.7730881027851
 20
109.85101661532001
 30
0.0
 70
    32
  0
SEQEND
  5
8E99
  8
AM_0
  0
LINE
  5
8E9A
  8
AM_0
 10
591.96323286551319
 20
111.2107533312939
 30
0.0
 11
591.26313516785456
 21
111.2107533312939
 31
0.0
  0
LINE
  5
8E9F
  8
AM_0
 10
593.80430215207082
 20
123.58060181227491
 30
0.0
 11
589.26313516785888
 21
123.58060181227491
 31
0.0
  0
LINE
  5
8EA7
  8
AM_0
 10
32.278447508628737
 20
55.910585812277077
 30
0.0
 11
32.278447508628737
 21
122.1105718122769
 31
0.0
  0
LINE
  5
8EA8
  8
AM_0
 10
34.778437508628649
 20
63.600590812276998
 30
0.0
 11
34.778437508628819
 21
144.58061681227679
 31
0.0
  0
LINE
  5
8EA9
  8
AM_0
 10
82.278457508628676
 20
144.58061681227679
 30
0.0
 11
82.278457508628676
 21
30.58059881227701
 31
0.0
  0
ARC
  5
8EAA
  8
AM_0
 10
25.988827508628731
 20
38.27954381227687
 30
0.0
 40
0.30119199
 50
5.9148297999953741
 51
88.175987000000418
  0
ARC
  5
8EAB
  8
AM_0
 10
25.990297508628771
 20
38.278247812276952
 30
0.0
 40
0.8023920299999998
 50
5.890834999993567
 51
89.417558000000042
  0
LINE
  5
8EAC
  8
AM_0
 10
25.778437508628649
 20
39.080585812276922
 30
0.0
 11
25.778437508628649
 21
38.58059981227688
 31
0.0
  0
LINE
  5
8EAD
  8
AM_0
 10
25.778437508628649
 20
39.080585812276922
 30
0.0
 11
25.99848750862844
 21
39.080585812276922
 31
0.0
  0
LINE
  5
8EAE
  8
AM_0
 10
41.358457508628483
 20
83.860598812277004
 30
0.0
 11
26.898457508628429
 21
39.35058881227814
 31
0.0
  0
LINE
  5
8EAF
  8
AM_0
 10
46.118407508628422
 20
82.32059081227699
 30
0.0
 11
31.658467508628739
 21
37.810595812276908
 31
0.0
  0
LINE
  5
8EB0
  8
AM_0
 10
34.778437508628649
 20
43.690586812276919
 30
0.0
 11
82.278457508628676
 21
43.690586812276919
 31
0.0
  0
LINE
  5
8EB1
  8
AM_0
 10
34.278457508628676
 20
30.58059881227701
 30
0.0
 11
82.278457508628676
 21
30.58059881227701
 31
0.0
  0
ARC
  5
8EB2
  8
AM_0
 10
29.278447508628741
 20
38.58059981227688
 30
0.0
 40
2.5014601500000002
 50
162.07208000000421
 51
342.07206999999869
  0
LINE
  5
8EB3
  8
AM_0
 10
32.278447508628737
 20
39.730592812276882
 30
0.0
 11
32.278447508628737
 21
32.58059981227688
 31
0.0
  0
ARC
  5
8EB4
  8
AM_0
 10
29.27739750862883
 20
38.579057812276908
 30
0.0
 40
3.001016099999998
 50
185.13260000000409
 51
0.0291460010064174
  0
ARC
  5
8EB5
  8
AM_0
 10
34.276177508628678
 20
32.578280812276937
 30
0.0
 40
1.9976960999999991
 50
179.9338299999965
 51
270.06616999999687
  0
ARC
  5
8EB6
  8
AM_0
 10
32.32716750862874
 20
50.080508812279959
 30
0.0
 40
4.0507442999999981
 50
99.071790999998854
 51
224.9123400000025
  0
LINE
  5
8EB7
  8
AM_0
 10
34.778437508628649
 20
47.420582812276962
 30
0.0
 11
34.778437508628649
 21
30.58059881227701
 31
0.0
  0
LINE
  5
8EB8
  8
AM_0
 10
77.278447508628631
 20
43.690586812276919
 30
0.0
 11
77.278447508628574
 21
30.58059881227701
 31
0.0
  0
ARC
  5
8EB9
  8
AM_0
 10
65.277967508628763
 20
87.580388812277107
 30
0.0
 40
8.000195699999999
 50
89.996300999997729
 51
161.78902999999599
  0
ARC
  5
8EBA
  8
AM_0
 10
65.27601750862874
 20
87.578159812276894
 30
0.0
 40
7.997572199999996
 50
198.19734999999929
 51
270.0173099999991
  0
LINE
  5
8EBB
  8
AM_0
 10
49.928407508628638
 20
90.080570812277983
 30
0.0
 11
59.778457508628648
 21
90.080570812277983
 31
0.0
  0
LINE
  5
8EBC
  8
AM_0
 10
49.928407508628638
 20
85.08060281227695
 30
0.0
 11
59.778457508628648
 21
85.08060281227695
 31
0.0
  0
ARC
  5
8EBD
  8
AM_0
 10
49.926217508628419
 20
81.083501812277063
 30
0.0
 40
8.9970875999999986
 50
89.985774999998554
 51
162.0211999999965
  0
ARC
  5
8EBE
  8
AM_0
 10
49.921687508628729
 20
81.080204812277088
 30
0.0
 40
4.0003919999999971
 50
89.903054999997906
 51
161.93678999999389
  0
LINE
  5
8EBF
  8
ﾁｭｳｼﾝｾﾝ
 10
65.278447508628631
 20
77.87060381227684
 30
0.0
 11
65.278447508628631
 21
97.290599812276923
 31
0.0
  0
LINE
  5
8EC0
  8
AM_0
 10
65.278447508628631
 20
79.58057081227706
 30
0.0
 11
82.278457508628676
 21
79.58057081227706
 31
0.0
  0
LINE
  5
8EC1
  8
AM_0
 10
65.278447508628631
 20
95.580602812276993
 30
0.0
 11
82.278457508628676
 21
95.580602812276993
 31
0.0
  0
ARC
  5
8EC2
  8
AM_0
 10
65.278447508628631
 20
87.578588812277985
 30
0.0
 40
4.998440399999998
 50
23.610999000007052
 51
156.38899999999819
  0
ARC
  5
8EC3
  8
AM_0
 10
65.278447508628631
 20
87.578588812277985
 30
0.0
 40
4.9968401999999958
 50
203.56897999999919
 51
336.43102000000079
  0
LINE
  5
8EC4
  8
AM_0
 10
59.778457508628648
 20
89.580602812276993
 30
0.0
 11
70.77843750862877
 21
89.580602812276993
 31
0.0
  0
LINE
  5
8EC5
  8
AM_0
 10
59.778457508628648
 20
85.580570812277074
 30
0.0
 11
70.77843750862877
 21
85.580570812277074
 31
0.0
  0
LINE
  5
8EC6
  8
AM_0
 10
59.778457508628648
 20
85.08060281227695
 30
0.0
 11
59.778457508628648
 21
90.080570812277983
 31
0.0
  0
LINE
  5
8EC7
  8
AM_0
 10
73.278457508628776
 20
85.08060281227695
 30
0.0
 11
73.278457508628776
 21
90.080570812277983
 31
0.0
  0
LINE
  5
8EC8
  8
AM_0
 10
70.77843750862877
 20
85.08060281227695
 30
0.0
 11
70.77843750862877
 21
90.080570812277983
 31
0.0
  0
LINE
  5
8EC9
  8
AM_0
 10
70.77843750862877
 20
90.080570812277983
 30
0.0
 11
73.278457508628776
 21
90.080570812277983
 31
0.0
  0
LINE
  5
8ECA
  8
AM_0
 10
70.77843750862877
 20
85.08060281227695
 30
0.0
 11
73.278457508628776
 21
85.08060281227695
 31
0.0
  0
LINE
  5
8ECB
  8
AM_0
 10
34.778437508628649
 20
131.47058681227699
 30
0.0
 11
82.278457508628676
 21
131.47058681227699
 31
0.0
  0
LINE
  5
8ECC
  8
AM_0
 10
34.778437508628649
 20
121.22058581227699
 30
0.0
 11
77.278447508628631
 21
121.22058581227699
 31
0.0
  0
LINE
  5
8ECD
  8
AM_0
 10
34.278457508628676
 20
144.58061681227679
 30
0.0
 11
82.278457508628676
 21
144.58061681227679
 31
0.0
  0
LINE
  5
8ECE
  8
AM_0
 10
33.478447508628733
 20
121.87061081227689
 30
0.0
 11
33.478447508628733
 21
131.07059681227699
 31
0.0
  0
LINE
  5
8ECF
  8
AM_0
 10
30.178477508628809
 20
124.9705768122769
 30
0.0
 11
30.178477508628809
 21
127.9705768122769
 31
0.0
  0
LINE
  5
8ED0
  8
AM_0
 10
33.478447508628733
 20
121.87061081227689
 30
0.0
 11
34.778437508628649
 21
121.87061081227689
 31
0.0
  0
ARC
  5
8ED1
  8
AM_0
 10
33.174127508628771
 20
124.9707568122769
 30
0.0
 40
2.9956880400000001
 50
180.00364000000391
 51
275.83037000000252
  0
LINE
  5
8ED2
  8
AM_0
 10
32.278447508628737
 20
130.840586812277
 30
0.0
 11
32.278447508628737
 21
142.58057681227689
 31
0.0
  0
LINE
  5
8ED3
  8
AM_0
 10
33.478447508628733
 20
131.07059681227699
 30
0.0
 11
34.778437508628649
 21
131.07059681227699
 31
0.0
  0
ARC
  5
8ED4
  8
AM_0
 10
33.180127508628743
 20
127.973786812277
 30
0.0
 40
3.0016479
 50
84.295613000003058
 51
180.06134999999779
  0
ARC
  5
8ED5
  8
AM_0
 10
34.277947508628749
 20
142.58108681227699
 30
0.0
 40
1.9994960399999999
 50
89.985542999997904
 51
180.01446000000641
  0
LINE
  5
8ED6
  8
AM_0
 10
77.278447508628631
 20
95.580602812276993
 30
0.0
 11
77.278447508628631
 21
144.58061681227679
 31
0.0
  0
LINE
  5
9189
  8
AM_0
 10
487.27845750862809
 20
403.65048730028519
 30
0.0
 11
429.27848750862802
 21
403.65048730028519
 31
0.0
  0
LINE
  5
918A
  8
AM_0
 10
487.27845750862809
 20
435.65042730028478
 30
0.0
 11
429.27848750862802
 21
435.65042730028478
 31
0.0
  0
LINE
  5
918B
  8
ﾁｭｳｼﾝｾﾝ
 10
16.374692153587372
 20
419.6504573002851
 30
0.0
 11
495.19129750862822
 21
419.6504573002851
 31
0.0
  0
LINE
  5
9308
  8
AM_0
 10
236.27842750862831
 20
409.65045730028493
 30
0.0
 11
236.27842750862831
 21
429.65042730028512
 31
0.0
  0
LINE
  5
9309
  8
AM_0
 10
206.2784275086284
 20
363.65045730028521
 30
0.0
 11
206.2784275086284
 21
475.65042730028512
 31
0.0
  0
LINE
  5
930A
  8
AM_0
 10
265.77842750862828
 20
359.15045730028521
 30
0.0
 11
265.77842750862828
 21
480.150427300285
 31
0.0
  0
LINE
  5
930B
  8
AM_0
 10
274.77842750862823
 20
356.1504573002851
 30
0.0
 11
274.77842750862823
 21
483.15042730028517
 31
0.0
  0
LINE
  5
930C
  8
AM_0
 10
397.27848750862807
 20
350.44369730028512
 30
0.0
 11
397.27848750862807
 21
488.85720730028493
 31
0.0
  0
LINE
  5
930D
  8
AM_0
 10
429.27848750862802
 20
402.15048730028519
 30
0.0
 11
429.27848750862802
 21
437.15048730028519
 31
0.0
  0
LINE
  5
930E
  8
AM_0
 10
425.27845750862798
 20
392.38253730028498
 30
0.0
 11
425.27845750862798
 21
419.6504573002851
 31
0.0
  0
LINE
  5
930F
  8
AM_0
 10
274.77842750862823
 20
483.15042730028517
 30
0.0
 11
274.77842750862823
 21
356.15039730028502
 31
0.0
  0
LINE
  5
9310
  8
AM_0
 10
302.2784275086284
 20
322.43106730028512
 30
0.0
 11
302.2784275086284
 21
516.86984730028519
 31
0.0
  0
LINE
  5
9311
  8
AM_0
 10
287.27842750862823
 20
347.72152730028512
 30
0.0
 11
287.27842750862823
 21
491.57937730028499
 31
0.0
  0
LINE
  5
9312
  8
AM_0
 10
418.27848750862802
 20
358.54708730028528
 30
0.0
 11
418.27848750862802
 21
480.75381730028522
 31
0.0
  0
LINE
  5
9313
  8
AM_0
 10
312.27842750862823
 20
320.1504573002851
 30
0.0
 11
312.27842750862823
 21
519.15042730028495
 31
0.0
  0
ARC
  5
9314
  8
AM_0
 10
299.27842750862823
 20
329.40780730028501
 30
0.0
 40
3.0
 50
0.0
 51
44.999998000001611
  0
ARC
  5
9315
  8
AM_0
 10
303.27842750862823
 20
308.97424730028501
 30
0.0
 40
3.0
 50
85.000004000001198
 51
265.00000000000028
  0
LINE
  5
9316
  8
AM_0
 10
267.929857508628
 20
309.05539730028511
 30
0.0
 11
318.27848750862802
 21
304.6504573002851
 31
0.0
  0
CIRCLE
  5
9318
  8
AM_0
 10
282.27842750862823
 20
324.6504573002851
 30
0.0
 40
7.5
  0
LINE
  5
931A
  8
AM_0
 10
264.2784275086284
 20
337.11190730028511
 30
0.0
 11
264.2784275086284
 21
313.04016730028508
 31
0.0
  0
ARC
  5
931C
  8
AM_0
 10
268.27842750862823
 20
313.04016730028508
 30
0.0
 40
4.0
 50
180.00001000000091
 51
265.00001000000071
  0
ARC
  5
931D
  8
AM_0
 10
239.2784275086284
 20
409.65045730028493
 30
0.0
 40
3.0
 50
180.00001000000091
 51
270.0
  0
LINE
  5
931E
  8
AM_0
 10
206.2784275086284
 20
363.65045730028521
 30
0.0
 11
262.90196750862839
 21
361.67312730028522
 31
0.0
  0
LINE
  5
931F
  8
AM_0
 10
206.2784275086284
 20
373.6501473002852
 30
0.0
 11
256.56748750862818
 21
373.6501473002852
 31
0.0
  0
LINE
  5
9320
  8
AM_0
 10
206.2784275086284
 20
387.68878730028518
 30
0.0
 11
252.09739750862821
 21
387.68878730028518
 31
0.0
  0
POLYLINE
  5
9362
  8
AM_0
 66
     1
 10
0.0
 20
0.0
 30
0.0
  0
VERTEX
  5
9363
  8
AM_0
 10
263.70975750862812
 20
366.26982730028521
 30
0.0
  0
VERTEX
  5
9364
  8
AM_0
 10
258.1663275086284
 20
374.11203730028518
 30
0.0
 42
-1.0
  0
SEQEND
  5
9365
  8
AM_0
  0
LINE
  5
9366
  8
AM_0
 10
274.77842750862823
 20
356.1504573002851
 30
0.0
 11
268.7784275086284
 21
356.1504573002851
 31
0.0
  0
LINE
  5
9367
  8
AM_0
 10
274.77842750862823
 20
367.6104473002851
 30
0.0
 11
265.77842750862828
 21
367.6104473002851
 31
0.0
  0
LINE
  5
9369
  8
AM_0
 10
267.24320750862807
 20
340.97561730028519
 30
0.0
 11
287.45841750862797
 21
346.39224730028519
 31
0.0
  0
ARC
  5
936A
  8
AM_0
 10
268.27842750862823
 20
337.11190730028511
 30
0.0
 40
4.0
 50
105.00000000000161
 51
180.00001000000091
  0
ARC
  5
936B
  8
AM_0
 10
268.7784275086284
 20
359.15045730028521
 30
0.0
 40
3.0
 50
180.00001000000091
 51
270.0
  0
ARC
  5
936C
  8
AM_0
 10
255.77842750862831
 20
360.17935730028512
 30
0.0
 40
10.0
 50
0.0
 51
37.523536000000121
  0
ARC
  5
936D
  8
AM_0
 10
262.7972275086284
 20
358.67495730028497
 30
0.0
 40
3.0
 50
4.545488300001014
 51
87.999999999999659
  0
ARC
  5
936E
  8
AM_0
 10
292.27842750862823
 20
347.72152730028512
 30
0.0
 40
5.0
 50
179.99998999999889
 51
225.0
  0
LINE
  5
936F
  8
AM_0
 10
288.74290750862821
 20
344.18600730028521
 30
0.0
 11
301.3997675086282
 21
331.5291473002851
 31
0.0
  0
ARC
  5
9370
  8
AM_0
 10
282.27842750862823
 20
350.88549730028518
 30
0.0
 40
5.0
 50
0.0
 51
87.999999999999659
  0
LINE
  5
9371
  8
AM_0
 10
274.77842750862823
 20
367.6104473002851
 30
0.0
 11
287.27842750862823
 21
367.6104473002851
 31
0.0
  0
LINE
  5
9372
  8
AM_0
 10
274.77842750862823
 20
356.15039730028502
 30
0.0
 11
282.45292750862831
 21
355.88244730028509
 31
0.0
  0
LINE
  5
9373
  8
AM_0
 10
274.77842750862823
 20
382.50253730028521
 30
0.0
 11
265.77842750862828
 21
382.50253730028521
 31
0.0
  0
POLYLINE
  5
9374
  8
AM_0
 66
     1
 10
0.0
 20
0.0
 30
0.0
  0
VERTEX
  5
9375
  8
AM_0
 10
250.65533750862829
 20
387.68798730028522
 30
0.0
  0
VERTEX
  5
9376
  8
AM_0
 10
244.3677875086284
 20
406.6499273002849
 30
0.0
 42
-1.0
  0
SEQEND
  5
9377
  8
AM_0
  0
ARC
  5
9378
  8
AM_0
 10
252.09739750862821
 20
384.68878730028518
 30
0.0
 40
3.0
 50
26.614997999998909
 51
90.000003000000945
  0
POLYLINE
  5
9379
  8
AM_0
 66
     1
 10
0.0
 20
0.0
 30
0.0
  0
VERTEX
  5
937A
  8
AM_0
 10
259.12653750862808
 20
378.2158673002852
 30
0.0
 42
-0.0050917014
  0
VERTEX
  5
937B
  8
AM_0
 10
257.97861750862808
 20
380.13551730028519
 30
0.0
 42
-0.0052112711
  0
VERTEX
  5
937C
  8
AM_0
 10
256.8704775086282
 20
382.07840730028511
 30
0.0
 42
-0.0053447966
  0
VERTEX
  5
937D
  8
AM_0
 10
255.80359750862829
 20
384.0442573002851
 30
0.0
 42
-0.0054924736
  0
VERTEX
  5
937E
  8
AM_0
 10
254.77955750862799
 20
386.0327773002852
 30
0.0
  0
SEQEND
  5
937F
  8
AM_0
  0
ARC
  5
9380
  8
AM_0
 10
256.56748750862818
 20
376.6501473002852
 30
0.0
 40
3.0
 50
270.0
 51
31.46020299999924
  0
LINE
  5
9381
  8
AM_0
 10
239.2784275086284
 20
406.65045730028493
 30
0.0
 11
262.7784275086284
 21
406.65045730028493
 31
0.0
  0
ARC
  5
9382
  8
AM_0
 10
262.7784275086284
 20
403.6504573002851
 30
0.0
 40
3.0
 50
0.0
 51
90.000003000000945
  0
LINE
  5
9383
  8
AM_0
 10
274.77842750862823
 20
382.50045730028512
 30
0.0
 11
287.27842750862823
 21
382.50045730028512
 31
0.0
  0
ARC
  5
9384
  8
AM_0
 10
304.27842750862823
 20
322.43106730028512
 30
0.0
 40
2.0
 50
179.99998999999889
 51
268.00000999999861
  0
CIRCLE
  5
9385
  8
AM_0
 10
407.27848750862807
 20
324.6504573002851
 30
0.0
 40
7.5
  0
LINE
  5
9386
  8
AM_0
 10
377.27845750862809
 20
314.99502730028507
 30
0.0
 11
377.27845750862809
 21
330.4368673002852
 31
0.0
  0
LINE
  5
9387
  8
AM_0
 10
425.27848750862802
 20
350.65045730028521
 30
0.0
 11
425.27848750862802
 21
312.24972730028509
 31
0.0
  0
LINE
  5
9389
  8
AM_0
 10
318.27845750862821
 20
304.65042730028517
 30
0.0
 11
421.41807750862819
 21
308.25213730028509
 31
0.0
  0
ARC
  5
938A
  8
AM_0
 10
311.27842750862823
 20
310.28195730028528
 30
0.0
 40
5.0
 50
265.00001000000071
 51
0.0000006832462478
  0
LINE
  5
938B
  8
AM_0
 10
304.20860750862818
 20
320.43225730028507
 30
0.0
 11
312.27842750862823
 21
320.1504573002851
 31
0.0
  0
LINE
  5
938C
  8
AM_0
 10
303.53996750862802
 20
311.96283730028512
 30
0.0
 11
311.92991750862819
 21
311.22879730028518
 31
0.0
  0
ARC
  5
938D
  8
AM_0
 10
312.27842750862823
 20
315.21359730028519
 30
0.0
 40
4.0
 50
265.00001000000071
 51
0.0000006832462478
  0
LINE
  5
938E
  8
AM_0
 10
316.27842750862823
 20
320.1504573002851
 30
0.0
 11
316.27842750862823
 21
310.28195730028528
 31
0.0
  0
LINE
  5
938F
  8
AM_0
 10
312.27842750862823
 20
320.1504573002851
 30
0.0
 11
316.27842750862823
 21
320.1504573002851
 31
0.0
  0
ARC
  5
9390
  8
AM_0
 10
385.27845750862821
 20
314.99502730028507
 30
0.0
 40
8.0
 50
180.00001000000091
 51
271.99999000000139
  0
ARC
  5
9391
  8
AM_0
 10
421.2784875086279
 20
312.24972730028509
 30
0.0
 40
4.0
 50
272.0000000000004
 51
0.0
  0
POLYLINE
  5
9392
  8
AM_0
 66
     1
 10
0.0
 20
0.0
 30
0.0
  0
VERTEX
  5
9393
  8
AM_0
 10
312.27842750862823
 20
389.37402730028498
 30
0.0
 42
-0.070055462
  0
VERTEX
  5
9394
  8
AM_0
 10
338.63909750862842
 20
369.1766873002851
 30
0.0
 42
-0.27110597
  0
VERTEX
  5
9395
  8
AM_0
 10
347.27845750862821
 20
349.2933373002852
 30
0.0
 42
-0.2130317
  0
VERTEX
  5
9396
  8
AM_0
 10
327.6879975086282
 20
331.15852730028507
 30
0.0
  0
VERTEX
  5
9397
  8
AM_0
 10
312.27842750862823
 20
324.8602673002851
 30
0.0
 42
-1.0
  0
SEQEND
  5
9398
  8
AM_0
  0
POLYLINE
  5
9399
  8
AM_0
 66
     1
 10
0.0
 20
0.0
 30
0.0
  0
VERTEX
  5
939A
  8
AM_0
 10
312.27842750862823
 20
342.23367730028508
 30
0.0
 42
0.040442845
  0
VERTEX
  5
939B
  8
AM_0
 10
323.80661750862822
 20
342.4570173002852
 30
0.0
 42
0.04246989
  0
VERTEX
  5
939C
  8
AM_0
 10
335.14032750862822
 20
344.57049730028501
 30
0.0
 42
0.022672802
  0
VERTEX
  5
939D
  8
AM_0
 10
340.62482750862841
 20
346.36144730028502
 30
0.0
  0
VERTEX
  5
939E
  8
AM_0
 10
345.93043750862807
 20
348.6303073002851
 30
0.0
 42
-1.0
  0
SEQEND
  5
939F
  8
AM_0
  0
LINE
  5
93A0
  8
AM_0
 10
312.27842750862823
 20
324.8602673002851
 30
0.0
 11
302.2784275086284
 21
324.8602673002851
 31
0.0
  0
LINE
  5
93A1
  8
AM_0
 10
312.27842750862823
 20
342.23367730028508
 30
0.0
 11
302.2784275086284
 21
342.23367730028508
 31
0.0
  0
LINE
  5
93A2
  8
AM_0
 10
312.27842750862823
 20
389.37402730028498
 30
0.0
 11
302.2784275086284
 21
389.37402730028498
 31
0.0
  0
ARC
  5
93A3
  8
AM_0
 10
404.730697508628
 20
346.29293730028502
 30
0.0
 40
8.0
 50
91.500001000001546
 51
164.96419999999981
  0
ARC
  5
93A4
  8
AM_0
 10
389.27848750862807
 20
350.44369730028512
 30
0.0
 40
8.0
 50
271.49999999999937
 51
0.0
  0
ARC
  5
93A6
  8
AM_0
 10
389.27845750862809
 20
330.4368673002852
 30
0.0
 40
12.0
 50
91.500001000001546
 51
180.00001000000091
  0
LINE
  5
93A7
  8
AM_0
 10
389.48789750862829
 20
342.4464773002851
 30
0.0
 11
388.96433750862809
 21
342.43277730028518
 31
0.0
  0
ARC
  5
93A8
  8
AM_0
 10
414.2784875086283
 20
358.54708730028528
 30
0.0
 40
4.0
 50
271.49999999999937
 51
0.0
  0
LINE
  5
93A9
  8
AM_0
 10
414.38319750862797
 20
354.5484673002851
 30
0.0
 11
404.52128750862812
 21
354.29022730028521
 31
0.0
  0
ARC
  5
93AA
  8
AM_0
 10
422.27848750862802
 20
358.5877073002851
 30
0.0
 40
4.0
 50
180.00001000000091
 51
262.8192499999995
  0
ARC
  5
93AB
  8
AM_0
 10
421.2784875086279
 20
350.65045730028521
 30
0.0
 40
4.0
 50
0.0
 51
82.819247000000175
  0
LINE
  5
93AC
  8
AM_0
 10
419.77842750862823
 20
387.47503730028518
 30
0.0
 11
423.77842750862823
 21
389.78445730028511
 31
0.0
  0
ARC
  5
93AD
  8
AM_0
 10
421.2784875086279
 20
384.87698730028518
 30
0.0
 40
3.0
 50
120.0000000000005
 51
180.00001000000091
  0
ARC
  5
93AE
  8
AM_0
 10
422.27845750862798
 20
392.38253730028498
 30
0.0
 40
3.0
 50
300.00001000000083
 51
0.0
  0
LINE
  5
93AF
  8
AM_0
 10
429.27848750862802
 20
402.15048730028519
 30
0.0
 11
425.27845750862798
 21
402.15048730028519
 31
0.0
  0
ARC
  5
93B0
  8
AM_0
 10
299.27842750862823
 20
509.89309730028498
 30
0.0
 40
3.0
 50
315.0
 51
0.0
  0
ARC
  5
93B1
  8
AM_0
 10
303.27842750862823
 20
530.32669730028522
 30
0.0
 40
3.0
 50
95.00000199999856
 51
274.99999999999972
  0
LINE
  5
93B2
  8
AM_0
 10
267.929857508628
 20
530.2455173002852
 30
0.0
 11
318.27848750862802
 21
534.65048730028491
 31
0.0
  0
CIRCLE
  5
93B3
  8
AM_0
 10
282.27842750862823
 20
514.65042730028495
 30
0.0
 40
7.5
  0
LINE
  5
93B5
  8
AM_0
 10
264.2784275086284
 20
502.18899730028528
 30
0.0
 11
264.2784275086284
 21
526.26071730028491
 31
0.0
  0
ARC
  5
93B6
  8
AM_0
 10
239.2784275086284
 20
429.65042730028512
 30
0.0
 40
3.0
 50
90.000003000000945
 51
180.00001000000091
  0
LINE
  5
93B7
  8
AM_0
 10
206.2784275086284
 20
451.6120973002852
 30
0.0
 11
252.09739750862821
 21
451.6120973002852
 31
0.0
  0
LINE
  5
93B8
  8
AM_0
 10
206.2784275086284
 20
465.650787300285
 30
0.0
 11
256.56748750862818
 21
465.650787300285
 31
0.0
  0
LINE
  5
93B9
  8
AM_0
 10
262.90196750862839
 20
477.62777730028517
 30
0.0
 11
206.2784275086284
 21
475.65048730028502
 31
0.0
  0
POLYLINE
  5
93D7
  8
AM_0
 66
     1
 10
0.0
 20
0.0
 30
0.0
  0
VERTEX
  5
93D8
  8
AM_0
 10
263.70975750862812
 20
473.03105730028477
 30
0.0
  0
VERTEX
  5
93D9
  8
AM_0
 10
258.1663275086284
 20
465.18883730028517
 30
0.0
 42
-1.0
  0
SEQEND
  5
93DA
  8
AM_0
  0
LINE
  5
93DB
  8
AM_0
 10
274.77842750862823
 20
456.79837730028498
 30
0.0
 11
265.77842750862828
 21
456.79837730028498
 31
0.0
  0
POLYLINE
  5
93DC
  8
AM_0
 66
     1
 10
0.0
 20
0.0
 30
0.0
  0
VERTEX
  5
93DD
  8
AM_0
 10
250.65533750862829
 20
451.612897300285
 30
0.0
  0
VERTEX
  5
93DE
  8
AM_0
 10
244.3677875086284
 20
432.65097730028521
 30
0.0
 42
-1.0
  0
SEQEND
  5
93DF
  8
AM_0
  0
LINE
  5
93E0
  8
AM_0
 10
239.2784275086284
 20
432.65042730028517
 30
0.0
 11
262.7784275086284
 21
432.65042730028517
 31
0.0
  0
ARC
  5
93E1
  8
AM_0
 10
262.7784275086284
 20
435.65042730028478
 30
0.0
 40
3.0
 50
270.0
 51
0.0
  0
ARC
  5
93E2
  8
AM_0
 10
252.09739750862821
 20
454.61209730028497
 30
0.0
 40
3.0
 50
270.0
 51
333.38500000000118
  0
POLYLINE
  5
93E3
  8
AM_0
 66
     1
 10
0.0
 20
0.0
 30
0.0
  0
VERTEX
  5
93E4
  8
AM_0
 10
259.12653750862808
 20
461.08501730028519
 30
0.0
 42
0.0050916976
  0
VERTEX
  5
93E5
  8
AM_0
 10
257.97861750862808
 20
459.16536730028503
 30
0.0
 42
0.005211269
  0
VERTEX
  5
93E6
  8
AM_0
 10
256.8704775086282
 20
457.22247730028482
 30
0.0
 42
0.005344796
  0
VERTEX
  5
93E7
  8
AM_0
 10
255.80359750862829
 20
455.25662730028512
 30
0.0
 42
0.0054924746
  0
VERTEX
  5
93E8
  8
AM_0
 10
254.77955750862799
 20
453.26811730028533
 30
0.0
  0
SEQEND
  5
93E9
  8
AM_0
  0
ARC
  5
93EA
  8
AM_0
 10
256.56748750862818
 20
462.65078730028478
 30
0.0
 40
3.0
 50
328.53980000000109
 51
90.000003000000945
  0
LINE
  5
93EB
  8
AM_0
 10
274.77842750862823
 20
456.80044730028533
 30
0.0
 11
287.27842750862823
 21
456.80044730028533
 31
0.0
  0
LINE
  5
93EC
  8
AM_0
 10
274.77842750862823
 20
471.69046730028521
 30
0.0
 11
265.77842750862828
 21
471.69046730028521
 31
0.0
  0
LINE
  5
93ED
  8
AM_0
 10
274.77842750862823
 20
483.15042730028517
 30
0.0
 11
268.7784275086284
 21
483.15042730028517
 31
0.0
  0
LINE
  5
93EE
  8
AM_0
 10
267.24327750862818
 20
498.32534730028527
 30
0.0
 11
287.45841750862797
 21
492.90866730028478
 31
0.0
  0
ARC
  5
93F0
  8
AM_0
 10
262.7972275086284
 20
480.62594730028502
 30
0.0
 40
3.0
 50
272.0000000000004
 51
355.45443000000142
  0
ARC
  5
93F1
  8
AM_0
 10
255.77842750862831
 20
479.12155730028479
 30
0.0
 40
10.0
 50
322.47646000000032
 51
0.0
  0
ARC
  5
93F2
  8
AM_0
 10
268.7784275086284
 20
480.150427300285
 30
0.0
 40
3.0
 50
90.000003000000945
 51
180.00001000000091
  0
ARC
  5
93F3
  8
AM_0
 10
268.27842750862823
 20
502.18899730028528
 30
0.0
 40
4.0
 50
180.00001000000091
 51
254.99999000000091
  0
ARC
  5
93F4
  8
AM_0
 10
282.27842750862823
 20
488.41543730028491
 30
0.0
 40
5.0
 50
272.0000000000004
 51
0.0
  0
LINE
  5
93F5
  8
AM_0
 10
274.77842750862823
 20
471.69046730028521
 30
0.0
 11
287.27842750862823
 21
471.69046730028521
 31
0.0
  0
LINE
  5
93F6
  8
AM_0
 10
274.77842750862823
 20
483.15042730028517
 30
0.0
 11
282.45292750862831
 21
483.41842730028497
 31
0.0
  0
LINE
  5
93F7
  8
AM_0
 10
288.74290750862821
 20
495.11489730028478
 30
0.0
 11
301.3997675086282
 21
507.77176730028521
 31
0.0
  0
ARC
  5
93F8
  8
AM_0
 10
292.27842750862823
 20
491.57937730028499
 30
0.0
 40
5.0
 50
135.0
 51
180.00001000000091
  0
ARC
  5
93F9
  8
AM_0
 10
268.27842750862823
 20
526.26071730028491
 30
0.0
 40
4.0
 50
95.00000199999856
 51
180.00001000000091
  0
CIRCLE
  5
93FA
  8
AM_0
 10
407.27848750862807
 20
514.65042730028495
 30
0.0
 40
7.5
  0
LINE
  5
93FB
  8
AM_0
 10
377.27845750862809
 20
508.86404730028499
 30
0.0
 11
377.27845750862809
 21
524.30587730028492
 31
0.0
  0
LINE
  5
93FC
  8
ﾁｭｳｼﾝｾﾝ
 10
407.27848750862807
 20
501.65042730028489
 30
0.0
 11
407.27848750862807
 21
527.65042730028495
 31
0.0
  0
LINE
  5
93FD
  8
AM_0
 10
425.27848750862802
 20
488.650427300285
 30
0.0
 11
425.27848750862802
 21
527.05117730028508
 31
0.0
  0
POLYLINE
  5
93FE
  8
AM_0
 66
     1
 10
0.0
 20
0.0
 30
0.0
  0
VERTEX
  5
93FF
  8
AM_0
 10
312.27842750862823
 20
449.9269173002852
 30
0.0
 42
0.070055443
  0
VERTEX
  5
9400
  8
AM_0
 10
338.63909750862842
 20
470.12425730028502
 30
0.0
 42
0.27110593
  0
VERTEX
  5
9401
  8
AM_0
 10
347.27845750862821
 20
490.007597300285
 30
0.0
 42
0.21303199
  0
VERTEX
  5
9402
  8
AM_0
 10
327.6879975086282
 20
508.14238730028518
 30
0.0
  0
VERTEX
  5
9403
  8
AM_0
 10
312.27842750862823
 20
514.44064730028515
 30
0.0
 42
-1.0
  0
SEQEND
  5
9404
  8
AM_0
  0
LINE
  5
9405
  8
AM_0
 10
312.27842750862823
 20
449.9269173002852
 30
0.0
 11
302.2784275086284
 21
449.9269173002852
 31
0.0
  0
POLYLINE
  5
9406
  8
AM_0
 66
     1
 10
0.0
 20
0.0
 30
0.0
  0
VERTEX
  5
9407
  8
AM_0
 10
312.27842750862823
 20
497.06723730028529
 30
0.0
 42
-0.040442832
  0
VERTEX
  5
9408
  8
AM_0
 10
323.80660750862802
 20
496.8438873002853
 30
0.0
 42
-0.042469875
  0
VERTEX
  5
9409
  8
AM_0
 10
335.14032750862822
 20
494.73040730028492
 30
0.0
 42
-0.022671837
  0
VERTEX
  5
940A
  8
AM_0
 10
340.6248175086281
 20
492.93946730028512
 30
0.0
  0
VERTEX
  5
940B
  8
AM_0
 10
345.93043750862807
 20
490.67063730028519
 30
0.0
 42
-1.0
  0
SEQEND
  5
940C
  8
AM_0
  0
LINE
  5
940D
  8
AM_0
 10
312.27842750862823
 20
497.06723730028529
 30
0.0
 11
302.2784275086284
 21
497.06723730028529
 31
0.0
  0
LINE
  5
940E
  8
AM_0
 10
312.27842750862823
 20
514.44064730028515
 30
0.0
 11
302.2784275086284
 21
514.44064730028515
 31
0.0
  0
LINE
  5
940F
  8
AM_0
 10
425.27845750862798
 20
419.6504573002851
 30
0.0
 11
425.27845750862798
 21
446.91842730028497
 31
0.0
  0
LINE
  5
9410
  8
AM_0
 10
429.27848750862802
 20
437.15048730028519
 30
0.0
 11
425.27845750862798
 21
437.15048730028519
 31
0.0
  0
LINE
  5
9411
  8
AM_0
 10
419.77848750862807
 20
451.82589730028502
 30
0.0
 11
423.77848750862807
 21
449.51651730028522
 31
0.0
  0
ARC
  5
9412
  8
AM_0
 10
421.2784875086279
 20
454.42398730028521
 30
0.0
 40
3.0
 50
179.99998999999889
 51
240.00000999999969
  0
ARC
  5
9413
  8
AM_0
 10
422.27845750862798
 20
446.91842730028497
 30
0.0
 40
3.0
 50
0.0
 51
60.000002000001302
  0
ARC
  5
9414
  8
AM_0
 10
404.730697508628
 20
493.00796730028492
 30
0.0
 40
8.0
 50
195.03580000000011
 51
268.5000000000004
  0
ARC
  5
9415
  8
AM_0
 10
389.27848750862807
 20
488.85720730028493
 30
0.0
 40
8.0
 50
0.0
 51
88.499997000000747
  0
LINE
  5
9416
  8
ﾁｭｳｼﾝｾﾝ
 10
394.27848750862807
 20
514.65042730028495
 30
0.0
 11
420.27848750862807
 21
514.65042730028495
 31
0.0
  0
ARC
  5
9417
  8
AM_0
 10
389.27845750862809
 20
508.86404730028499
 30
0.0
 40
12.0
 50
180.00001000000091
 51
268.5000000000004
  0
LINE
  5
9418
  8
AM_0
 10
389.48789750862829
 20
496.85446730028491
 30
0.0
 11
388.96436750862807
 21
496.86813730028501
 31
0.0
  0
ARC
  5
9419
  8
AM_0
 10
414.2784875086283
 20
480.75381730028522
 30
0.0
 40
4.0
 50
0.0
 51
88.499997000000747
  0
LINE
  5
941A
  8
AM_0
 10
414.38319750862797
 20
484.75241730028512
 30
0.0
 11
404.52128750862812
 21
485.01065730028478
 31
0.0
  0
ARC
  5
941B
  8
AM_0
 10
421.2784875086279
 20
488.650427300285
 30
0.0
 40
4.0
 50
277.18075000000027
 51
0.0
  0
ARC
  5
941C
  8
AM_0
 10
422.27848750862802
 20
480.71316730028491
 30
0.0
 40
4.0
 50
97.180758000000424
 51
180.00001000000091
  0
LINE
  5
941D
  8
AM_0
 10
318.27848750862802
 20
534.65042730028495
 30
0.0
 11
421.41807750862819
 21
531.0487373002851
 31
0.0
  0
ARC
  5
941E
  8
AM_0
 10
312.27842750862823
 20
524.08731730028512
 30
0.0
 40
4.0
 50
0.0
 51
95.00000199999856
  0
LINE
  5
941F
  8
AM_0
 10
316.27842750862823
 20
519.15042730028495
 30
0.0
 11
316.27842750862823
 21
529.01895730028514
 31
0.0
  0
LINE
  5
9420
  8
AM_0
 10
303.53996750862802
 20
527.33810730028495
 30
0.0
 11
311.929857508628
 21
528.07211730028496
 31
0.0
  0
LINE
  5
9421
  8
AM_0
 10
304.20860750862818
 20
518.86868730028505
 30
0.0
 11
312.27842750862823
 21
519.15048730028468
 31
0.0
  0
ARC
  5
9422
  8
AM_0
 10
304.27842750862823
 20
516.86984730028519
 30
0.0
 40
2.0
 50
91.999998000000545
 51
180.00001000000091
  0
LINE
  5
9423
  8
AM_0
 10
312.27842750862823
 20
519.15042730028495
 30
0.0
 11
316.27842750862823
 21
519.15042730028495
 31
0.0
  0
ARC
  5
9424
  8
AM_0
 10
311.27842750862823
 20
529.01895730028514
 30
0.0
 40
5.0
 50
0.0
 51
95.00000199999856
  0
ARC
  5
9425
  8
AM_0
 10
385.27845750862821
 20
524.30587730028492
 30
0.0
 40
8.0
 50
87.999999999999659
 51
180.00001000000091
  0
ARC
  5
9426
  8
AM_0
 10
421.2784875086279
 20
527.05117730028508
 30
0.0
 40
4.0
 50
0.0
 51
87.999999999999659
  0
ARC
  5
9427
  8
AM_0
 10
442.27845750862792
 20
419.6504573002851
 30
0.0
 40
4.9999924
 50
90.000003000000945
 51
270.0
  0
LINE
  5
9428
  8
AM_0
 10
442.2784875086279
 20
414.65048730028519
 30
0.0
 11
442.2784875086279
 21
424.65042730028517
 31
0.0
  0
LINE
  5
9429
  8
AM_0
 10
487.27845750862809
 20
403.65048730028519
 30
0.0
 11
487.27845750862809
 21
435.65042730028478
 31
0.0
  0
LINE
  5
942A
  8
AM_0
 10
442.27845750862792
 20
414.65048730028519
 30
0.0
 11
487.27845750862809
 21
414.65048730028519
 31
0.0
  0
LINE
  5
942B
  8
AM_0
 10
442.27845750862792
 20
424.65042730028517
 30
0.0
 11
487.27845750862809
 21
424.65042730028517
 31
0.0
  0
LINE
  5
942C
  8
ﾁｭｳｼﾝｾﾝ
 10
590.94863116785893
 20
87.580601812276896
 30
0.0
 11
794.27763354777255
 21
87.580601812276896
 31
0.0
  0
LINE
  5
943A
  8
ﾁｭｳｼﾝｾﾝ
 10
269.27842750862823
 20
514.65042730028495
 30
0.0
 11
295.27842750862823
 21
514.65042730028495
 31
0.0
  0
LINE
  5
943B
  8
ﾁｭｳｼﾝｾﾝ
 10
282.27842750862823
 20
501.65042730028489
 30
0.0
 11
282.27842750862823
 21
527.65042730028495
 31
0.0
  0
LINE
  5
9442
  8
ﾁｭｳｼﾝｾﾝ
 10
269.27842750862823
 20
324.6504573002851
 30
0.0
 11
295.27842750862823
 21
324.6504573002851
 31
0.0
  0
LINE
  5
9443
  8
ﾁｭｳｼﾝｾﾝ
 10
282.27842750862823
 20
311.6504573002851
 30
0.0
 11
282.27842750862823
 21
337.6504573002851
 31
0.0
  0
LINE
  5
944A
  8
ﾁｭｳｼﾝｾﾝ
 10
394.27848750862807
 20
324.6504573002851
 30
0.0
 11
420.27848750862807
 21
324.6504573002851
 31
0.0
  0
LINE
  5
944B
  8
ﾁｭｳｼﾝｾﾝ
 10
407.27848750862807
 20
311.6504573002851
 30
0.0
 11
407.27848750862807
 21
337.6504573002851
 31
0.0
  0
ARC
  5
961A
  8
AM_0
 10
191.6184575086283
 20
384.65044230028531
 30
0.0
 40
1.0
 50
269.999989999999
 51
90.00000299999769
  0
LINE
  5
961B
  8
AM_0
 10
147.2784275086284
 20
382.9304723002852
 30
0.0
 11
195.09843750862831
 21
382.9304723002852
 31
0.0
  0
LINE
  5
961C
  8
AM_0
 10
177.2784275086284
 20
393.17046230028518
 30
0.0
 11
195.31266750862841
 21
393.17046230028518
 31
0.0
  0
LINE
  5
961D
  8
AM_0
 10
195.09843750862831
 20
386.28044230028542
 30
0.0
 11
177.25840750862841
 21
386.28044230028542
 31
0.0
  0
ARC
  5
961E
  8
AM_0
 10
191.61839750862839
 20
394.65044230028531
 30
0.0
 40
1.0000255999999981
 50
269.58947000000319
 51
90.410530999997775
  0
LINE
  5
961F
  8
AM_0
 10
91.73844750862844
 20
443.21050230028521
 30
0.0
 11
195.31266750862841
 21
443.21050230028521
 31
0.0
  0
LINE
  5
9620
  8
AM_0
 10
91.958417508628443
 20
456.37041230028541
 30
0.0
 11
195.09843750862831
 21
456.37041230028541
 31
0.0
  0
LINE
  5
9621
  8
AM_0
 10
177.2784275086284
 20
446.14043230028511
 30
0.0
 11
195.32408750862831
 21
446.14043230028511
 31
0.0
  0
ARC
  5
9622
  8
AM_0
 10
191.61839750862839
 20
444.65044230028519
 30
0.0
 40
1.0000255999999981
 50
269.58947000000319
 51
90.410530999997775
  0
LINE
  5
9623
  8
AM_0
 10
177.25840750862841
 20
453.0104223002852
 30
0.0
 11
195.09843750862831
 21
453.0104223002852
 31
0.0
  0
ARC
  5
9624
  8
AM_0
 10
191.6184575086283
 20
454.65044230028502
 30
0.0
 40
1.0
 50
269.999989999999
 51
90.00000299999769
  0
LINE
  5
9625
  8
AM_0
 10
196.4841175086284
 20
380.33150230028519
 30
0.0
 11
192.33836750862841
 21
364.85039230028519
 31
0.0
  0
LINE
  5
9626
  8
AM_0
 10
197.2784275086284
 20
366.65041230028521
 30
0.0
 11
191.5526275086284
 21
357.83345230028522
 31
0.0
  0
LINE
  5
9627
  8
AM_0
 10
196.48414750862841
 20
463.66927230028529
 30
0.0
 11
192.33842750862831
 21
479.15038230028517
 31
0.0
  0
LINE
  5
9628
  8
AM_0
 10
196.48417750862839
 20
464.57927230028542
 30
0.0
 11
192.3384575086283
 21
480.0603823002852
 31
0.0
  0
LINE
  5
9629
  8
AM_0
 10
196.48414750862841
 20
461.81929230028521
 30
0.0
 11
192.33842750862831
 21
477.30043230028519
 31
0.0
  0
LINE
  5
962A
  8
AM_0
 10
196.4784375086283
 20
458.990372300285
 30
0.0
 11
192.33842750862831
 21
474.4503923002851
 31
0.0
  0
LINE
  5
962B
  8
AM_0
 10
91.73844750862844
 20
396.09038230028528
 30
0.0
 11
195.31266750862841
 21
396.09038230028528
 31
0.0
  0
ARC
  5
962C
  8
AM_0
 10
190.29460750862839
 20
358.65044230028519
 30
0.0
 40
1.5
 50
269.999989999999
 51
326.99999999999801
  0
ARC
  5
962D
  8
AM_0
 10
178.85750819441341
 20
355.65044230028531
 30
0.0
 40
1.5
 50
90.0
 51
178.4998650936468
1001
GENIUS_GENODEF_13
1002
{
1000
HIER
1070
     0
1002
}
1002
{
1000
MANEDIT
1070
     0
1002
}
1002
{
1000
NOSEL
1070
     0
1002
}
1002
{
1000
BEHIND
1070
     0
1002
}
1002
{
1000
REACTOR
1002
}
1001
GENIUS_GENOBJ-N-FIL_13
1002
{
1000
OWNER
1000
GEN
1002
}
  0
LINE
  5
962E
  8
AM_0
 10
177.2784275086284
 20
352.65038230028517
 30
0.0
 11
177.55916663169151
 21
363.3704123002853
 31
0.0
  0
LINE
  5
962F
  8
AM_0
 10
117.27836750862851
 20
352.65041230028521
 30
0.0
 11
116.99770332128941
 21
363.37041230028512
 31
0.0
  0
LINE
  5
9630
  8
AM_0
 10
73.278427508628454
 20
359.65044230028531
 30
0.0
 11
73.278427508628454
 21
354.65044230028519
 31
0.0
  0
LINE
  5
9631
  8
AM_0
 10
70.278427508628454
 20
360.90044230028519
 30
0.0
 11
70.278427508628454
 21
354.65044230028519
 31
0.0
  0
LINE
  5
9632
  8
AM_0
 10
60.278427508628447
 20
360.90044230028519
 30
0.0
 11
60.278427508628447
 21
354.65044230028519
 31
0.0
  0
ARC
  5
9633
  8
AM_0
 10
35.776997408628397
 20
363.65044230028531
 30
0.0
 40
9.0
 50
179.99997999999781
 51
269.99995000000138
  0
LINE
  5
9634
  8
AM_0
 10
35.776997408628397
 20
354.65044230028519
 30
0.0
 11
73.278427508628454
 21
354.65044230028519
 31
0.0
  0
LINE
  5
9635
  8
AM_0
 10
166.18058994020731
 20
350.15044230028519
 30
0.0
 11
128.38058994020739
 21
350.15044230028519
 31
0.0
  0
LINE
  5
9636
  8
AM_0
 10
180.7784275086284
 20
352.65044230028519
 30
0.0
 11
113.7784275086284
 21
352.65044230028519
 31
0.0
  0
LINE
  5
9637
  8
AM_0
 10
177.0062850770482
 20
329.15044230028519
 30
0.0
 11
100.70628507704831
 21
316.15044230028531
 31
0.0
  0
LINE
  5
9638
  8
AM_0
 10
176.18058994020839
 20
316.15044230028531
 30
0.0
 11
100.70628507704831
 21
316.15044230028531
 31
0.0
  0
LINE
  5
9639
  8
AM_0
 10
100.3805899402074
 20
320.15044230028531
 30
0.0
 11
176.68058994020731
 21
333.15044230028519
 31
0.0
  0
LINE
  5
963A
  8
AM_0
 10
100.3805899402074
 20
320.15044230028531
 30
0.0
 11
176.68058994020731
 21
333.15044230028519
 31
0.0
  0
LINE
  5
963B
  8
AM_0
 10
100.2991661559963
 20
321.15044230028519
 30
0.0
 11
132.27723589472831
 21
326.59886833702927
 31
0.0
  0
ARC
  5
963C
  8
AM_0
 10
97.780589940207406
 20
317.65044230028548
 30
0.0
 40
1.5
 50
180.0
 51
270.0
  0
ARC
  5
963D
  8
AM_0
 10
97.280589940208415
 20
317.65044230028639
 30
0.0
 40
1.5
 50
180.00000000000659
 51
269.99999999999341
  0
LINE
  5
963E
  8
AM_0
 10
100.2991661559963
 20
321.15044230028519
 30
0.0
 11
96.580589940207346
 21
321.15044230028519
 31
0.0
  0
LINE
  5
963F
  8
AM_0
 10
96.580589940207346
 20
320.15044230028531
 30
0.0
 11
100.3805899402074
 21
320.15044230028531
 31
0.0
  0
LINE
  5
9640
  8
AM_0
 10
96.280589940207406
 20
320.15044230028531
 30
0.0
 11
100.3805899402074
 21
320.15044230028531
 31
0.0
  0
LINE
  5
9641
  8
AM_0
 10
96.980589940207324
 20
325.15044230028519
 30
0.0
 11
96.580589940207346
 21
325.15044230028519
 31
0.0
  0
LINE
  5
9642
  8
AM_0
 10
95.780589940208415
 20
324.8504423002862
 30
0.0
 11
95.780589940208415
 21
317.65044230028548
 31
0.0
  0
LINE
  5
9643
  8
AM_0
 10
96.280589940207406
 20
319.85044230028632
 30
0.0
 11
96.280589940207406
 21
317.65044230028548
 31
0.0
  0
ARC
  5
9644
  8
AM_0
 10
96.580589940207346
 20
320.8504423002862
 30
0.0
 40
0.3
 50
90.0
 51
180.0
  0
ARC
  5
9645
  8
AM_0
 10
96.580589940207346
 20
319.85044230028632
 30
0.0
 40
0.3
 50
90.0
 51
180.0
  0
LINE
  5
9646
  8
AM_0
 10
96.280589940207406
 20
320.8504423002862
 30
0.0
 11
96.280589940207406
 21
320.15044230028531
 31
0.0
  0
LINE
  5
9647
  8
AM_0
 10
96.580589940207346
 20
325.15044230028519
 30
0.0
 11
96.080589940208355
 21
325.15044230028519
 31
0.0
  0
ARC
  5
9648
  8
AM_0
 10
96.080589940208355
 20
324.8504423002862
 30
0.0
 40
0.3
 50
90.0
 51
180.0
  0
CIRCLE
  5
9649
  8
AM_0
 10
112.8805899402074
 20
333.15044230028519
 30
0.0
 40
6.299999999999998
  0
LINE
  5
964A
  8
AM_0
 10
122.1805899402073
 20
350.15044230028519
 30
0.0
 11
122.1805899402073
 21
333.15044230028519
 31
0.0
  0
LINE
  5
964B
  8
AM_0
 10
103.5805899402073
 20
350.15044230028519
 30
0.0
 11
103.5805899402073
 21
333.15044230028519
 31
0.0
  0
LINE
  5
964C
  8
AM_0
 10
97.780589940207406
 20
349.15044230028531
 30
0.0
 11
97.780589940207406
 21
326.15044230028548
 31
0.0
  0
LINE
  5
964D
  8
ﾁｭｳｼﾝｾﾝ
 10
112.8805899402074
 20
345.15045730028532
 30
0.0
 11
112.8805899402074
 21
321.15045730028532
 31
0.0
  0
ARC
  5
964E
  8
AM_0
 10
112.8805899402074
 20
333.15044230028519
 30
0.0
 40
9.3000000000000007
 50
180.0
 51
0.0
  0
LINE
  5
964F
  8
ﾁｭｳｼﾝｾﾝ
 10
100.88058994021679
 20
333.15044230028519
 30
0.0
 11
124.88058994019801
 21
333.15044230028519
 31
0.0
  0
LINE
  5
9650
  8
AM_0
 10
97.480589940207295
 20
323.3460849810013
 30
0.0
 11
97.480589940207295
 21
325.95044230028623
 31
0.0
  0
LINE
  5
9651
  8
AM_0
 10
97.28058994020742
 20
321.15044230028519
 30
0.0
 11
97.28058994020742
 21
324.8504423002862
 31
0.0
  0
LINE
  5
9652
  8
AM_0
 10
97.780589940207406
 20
326.15044230028548
 30
0.0
 11
97.780589940206369
 21
321.15044230028519
 31
0.0
  0
LINE
  5
9653
  8
AM_0
 10
97.780589940207406
 20
316.15044230028531
 30
0.0
 11
100.70628507704831
 21
316.15044230028531
 31
0.0
  0
LINE
  5
9654
  8
AM_0
 10
97.280589940208415
 20
316.15044230028531
 30
0.0
 11
97.579075836365419
 21
316.15044230028639
 31
0.0
  0
LINE
  5
9655
  8
AM_0
 10
97.28058994020742
 20
323.3460849810013
 30
0.0
 11
97.480589940207295
 21
323.3460849810013
 31
0.0
  0
LINE
  5
9656
  8
AM_0
 10
97.480589940207295
 20
321.15044230028519
 30
0.0
 11
97.480589940207295
 21
322.1460849810012
 31
0.0
  0
LINE
  5
9657
  8
AM_0
 10
97.480589940207295
 20
322.1460849810012
 30
0.0
 11
97.28058994020742
 21
322.1460849810012
 31
0.0
  0
LINE
  5
9658
  8
AM_0
 10
97.480589940207295
 20
322.1460849810012
 30
0.0
 11
97.480589940207295
 21
323.3460849810013
 31
0.0
  0
LINE
  5
9659
  8
AM_0
 10
97.480589940207295
 20
325.95044230028623
 30
0.0
 11
97.680589940207369
 21
326.15044230028548
 31
0.0
  0
LINE
  5
965A
  8
AM_0
 10
97.680589940207369
 20
326.15044230028548
 30
0.0
 11
97.780589940207406
 21
326.15044230028548
 31
0.0
  0
ARC
  5
965B
  8
AM_0
 10
96.980589940207324
 20
324.8504423002862
 30
0.0
 40
0.3
 50
0.0
 51
90.0
  0
CIRCLE
  5
965C
  8
AM_0
 10
127.3805899402074
 20
333.15044230028519
 30
0.0
 40
0.75
  0
LINE
  5
965D
  8
AM_0
 10
103.5805899402073
 20
350.15044230028519
 30
0.0
 11
121.1805899402073
 21
350.15044230028519
 31
0.0
  0
LINE
  5
965E
  8
AM_0
 10
98.780589940207406
 20
350.15044230028519
 30
0.0
 11
103.5805899402073
 21
350.15044230028519
 31
0.0
  0
ARC
  5
965F
  8
AM_0
 10
98.780589940207406
 20
349.15044230028531
 30
0.0
 40
1.0
 50
90.0
 51
180.0
  0
LINE
  5
9660
  8
AM_0
 10
113.7784275086284
 20
350.15044230028519
 30
0.0
 11
113.7784275086284
 21
352.65044230028519
 31
0.0
  0
LINE
  5
9661
  8
AM_0
 10
128.38058994020739
 20
350.15044230028519
 30
0.0
 11
122.1805899402073
 21
350.15044230028519
 31
0.0
  0
LINE
  5
9662
  8
AM_0
 10
121.1805899402073
 20
350.15044230028519
 30
0.0
 11
122.1805899402073
 21
350.15044230028519
 31
0.0
  0
LINE
  5
9663
  8
AM_0
 10
160.19400612211521
 20
331.3553298436612
 30
0.0
 11
170.05571620605431
 21
333.03556878325719
 31
0.0
  0
LINE
  5
9664
  8
AM_0
 10
145.88058994020921
 20
328.91660886902417
 30
0.0
 11
145.88058994020921
 21
342.43906612108719
 31
0.0
  0
LINE
  5
9665
  8
AM_0
 10
132.27723589472831
 20
342.43906612108719
 30
0.0
 11
132.27723589472831
 21
326.59886833702927
 31
0.0
  0
LINE
  5
9666
  8
AM_0
 10
160.19400612211521
 20
331.3553298436612
 30
0.0
 11
160.19400612211521
 21
345.15044230028531
 31
0.0
  0
LINE
  5
9667
  8
AM_0
 10
140.17723589472831
 20
345.15044230028531
 30
0.0
 11
140.17723589472831
 21
327.94487095826128
 31
0.0
  0
LINE
  5
9668
  8
AM_0
 10
137.9772358947283
 20
327.5700347852603
 30
0.0
 11
137.9772358947283
 21
345.15044230028531
 31
0.0
  0
LINE
  5
9669
  8
AM_0
 10
136.4772358947283
 20
345.15044230028531
 30
0.0
 11
136.47723589472929
 21
327.31446466730432
 31
0.0
  0
LINE
  5
966A
  8
AM_0
 10
134.27723589472831
 20
326.93962849430318
 30
0.0
 11
134.27723589472831
 21
345.15044230028639
 31
0.0
  0
LINE
  5
966B
  8
AM_0
 10
143.88058994020639
 20
345.15044230028531
 30
0.0
 11
143.88058994020639
 21
328.57584871175038
 31
0.0
  0
LINE
  5
966C
  8
AM_0
 10
141.67723589472831
 20
328.20044107621629
 30
0.0
 11
141.67723589472831
 21
345.15044230028531
 31
0.0
  0
LINE
  5
966D
  8
AM_0
 10
156.49065207663841
 20
330.72435209017232
 30
0.0
 11
156.49065207663841
 21
345.15044230028531
 31
0.0
  0
LINE
  5
966E
  8
AM_0
 10
154.99065207663841
 20
345.15044230028531
 30
0.0
 11
154.99065207663841
 21
330.46878197221628
 31
0.0
  0
LINE
  5
966F
  8
AM_0
 10
152.78729803116141
 20
330.09337433668321
 30
0.0
 11
152.78729803116141
 21
345.15044230028531
 31
0.0
  0
LINE
  5
9670
  8
AM_0
 10
151.28729803116141
 20
345.15044230028531
 30
0.0
 11
151.28729803116141
 21
329.83780421872831
 31
0.0
  0
LINE
  5
9671
  8
AM_0
 10
149.08394398568331
 20
329.46239658319422
 30
0.0
 11
149.08394398568331
 21
345.15044230028531
 31
0.0
  0
LINE
  5
9672
  8
AM_0
 10
147.58394398568339
 20
345.15044230028531
 30
0.0
 11
147.58394398568339
 21
329.20682646523937
 31
0.0
  0
LINE
  5
9673
  8
AM_0
 10
158.6940061221153
 20
345.15044230028531
 30
0.0
 11
158.6940061221153
 21
331.09975972570521
 31
0.0
  0
LINE
  5
9674
  8
AM_0
 10
134.27723589472831
 20
326.93962849430318
 30
0.0
 11
136.47723589472929
 21
327.31446466730432
 31
0.0
  0
LINE
  5
9675
  8
AM_0
 10
137.9772358947283
 20
327.5700347852603
 30
0.0
 11
140.17723589472831
 21
327.94487095826128
 31
0.0
  0
LINE
  5
9676
  8
AM_0
 10
141.67723589472831
 20
328.20044107621629
 30
0.0
 11
143.88058994020639
 21
328.57584871175038
 31
0.0
  0
LINE
  5
9677
  8
AM_0
 10
145.88058994020921
 20
328.91660886902417
 30
0.0
 11
147.58394398568339
 21
329.20682646523937
 31
0.0
  0
LINE
  5
9678
  8
AM_0
 10
149.08394398568331
 20
329.46239658319422
 30
0.0
 11
151.28729803116141
 21
329.83780421872831
 31
0.0
  0
LINE
  5
9679
  8
AM_0
 10
156.49065207663841
 20
330.72435209017232
 30
0.0
 11
158.6940061221153
 21
331.09975972570521
 31
0.0
  0
LINE
  5
967A
  8
AM_0
 10
152.78729803116141
 20
330.09337433668321
 30
0.0
 11
154.99065207663841
 21
330.46878197221628
 31
0.0
  0
LINE
  5
967B
  8
AM_0
 10
145.18058994020629
 20
345.15044230028531
 30
0.0
 11
143.88058994020639
 21
345.15044230028531
 31
0.0
  0
LINE
  5
967C
  8
AM_0
 10
145.88058994020921
 20
341.15044230028531
 30
0.0
 11
143.88058994020639
 21
341.15044230028531
 31
0.0
  0
LINE
  5
967D
  8
AM_0
 10
137.9772358947283
 20
345.15044230028531
 30
0.0
 11
136.4772358947283
 21
345.15044230028531
 31
0.0
  0
LINE
  5
967E
  8
AM_0
 10
137.9772358947283
 20
341.15044230028531
 30
0.0
 11
136.4772358947283
 21
341.15044230028531
 31
0.0
  0
LINE
  5
967F
  8
AM_0
 10
132.9772358947283
 20
343.10641817769141
 30
0.0
 11
132.27723589472831
 21
342.43906612108719
 31
0.0
  0
LINE
  5
9680
  8
AM_0
 10
134.27723589472831
 20
341.15044230028531
 30
0.0
 11
132.27723589472831
 21
341.15044230028531
 31
0.0
  0
LINE
  5
9681
  8
AM_0
 10
134.27723589472831
 20
345.15044230028639
 30
0.0
 11
132.9772358947283
 21
345.15044230028531
 31
0.0
  0
LINE
  5
9682
  8
AM_0
 10
132.9772358947283
 20
345.15044230028531
 30
0.0
 11
132.9772358947283
 21
343.10641817769141
 31
0.0
  0
LINE
  5
9683
  8
AM_0
 10
141.67723589472831
 20
345.15044230028531
 30
0.0
 11
140.17723589472831
 21
345.15044230028531
 31
0.0
  0
LINE
  5
9684
  8
AM_0
 10
141.67723589472831
 20
341.15044230028531
 30
0.0
 11
140.17723589472831
 21
341.15044230028531
 31
0.0
  0
LINE
  5
9685
  8
AM_0
 10
152.78729803116141
 20
345.15044230028531
 30
0.0
 11
151.28729803116141
 21
345.15044230028531
 31
0.0
  0
LINE
  5
9686
  8
AM_0
 10
152.78729803116141
 20
341.15044230028531
 30
0.0
 11
151.28729803116141
 21
341.15044230028531
 31
0.0
  0
LINE
  5
9687
  8
AM_0
 10
149.08394398568331
 20
345.15044230028531
 30
0.0
 11
147.58394398568339
 21
345.15044230028531
 31
0.0
  0
LINE
  5
9688
  8
AM_0
 10
149.08394398568331
 20
341.15044230028531
 30
0.0
 11
147.58394398568339
 21
341.15044230028531
 31
0.0
  0
LINE
  5
9689
  8
AM_0
 10
145.88058994020921
 20
342.43906612108719
 30
0.0
 11
145.18058994020629
 21
343.10641817769141
 31
0.0
  0
LINE
  5
968A
  8
AM_0
 10
145.18058994020629
 20
343.10641817769141
 30
0.0
 11
145.18058994020629
 21
345.15044230028531
 31
0.0
  0
LINE
  5
968B
  8
AM_0
 10
156.49065207663841
 20
345.15044230028531
 30
0.0
 11
154.99065207663841
 21
345.15044230028531
 31
0.0
  0
LINE
  5
968C
  8
AM_0
 10
156.49065207663841
 20
341.15044230028531
 30
0.0
 11
154.99065207663841
 21
341.15044230028531
 31
0.0
  0
LINE
  5
968D
  8
AM_0
 10
160.19400612211521
 20
345.15044230028531
 30
0.0
 11
158.6940061221153
 21
345.15044230028531
 31
0.0
  0
LINE
  5
968E
  8
AM_0
 10
160.19400612211521
 20
341.15044230028531
 30
0.0
 11
158.6940061221153
 21
341.15044230028531
 31
0.0
  0
LINE
  5
968F
  8
AM_0
 10
185.0557162060544
 20
333.15044230028519
 30
0.0
 11
185.0557162060544
 21
349.15044230028531
 31
0.0
  0
LINE
  5
9690
  8
AM_0
 10
170.05571620605431
 20
333.03556878325719
 30
0.0
 11
170.05571620605431
 21
350.15044230028519
 31
0.0
  0
ARC
  5
9691
  8
AM_0
 10
176.18058994020839
 20
318.65044230028519
 30
0.0
 40
2.5
 50
270.0
 51
0.0
  0
LINE
  5
9692
  8
AM_0
 10
168.41074145922531
 20
316.15044230028531
 30
0.0
 11
168.41074145922531
 21
327.68593290275339
 31
0.0
  0
CIRCLE
  5
9693
  8
AM_0
 10
161.88058994020739
 20
333.15044230028519
 30
0.0
 40
0.75
  0
LINE
  5
9694
  8
AM_0
 10
169.28058994020839
 20
327.8362370729883
 30
0.0
 11
169.28058994020839
 21
331.88962971837219
 31
0.0
  0
LINE
  5
9695
  8
AM_0
 10
178.68058994020831
 20
328.65044230028531
 30
0.0
 11
178.68058994020831
 21
318.65044230028519
 31
0.0
  0
LINE
  5
9696
  8
AM_0
 10
185.0557162060544
 20
333.15044230028519
 30
0.0
 11
176.68058994020731
 21
333.15044230028519
 31
0.0
  0
ARC
  5
9697
  8
AM_0
 10
184.55571620605431
 20
329.65044230028519
 30
0.0
 40
0.5
 50
270.0
 51
0.0
  0
LINE
  5
9698
  8
AM_0
 10
179.18058994020839
 20
329.15044230028519
 30
0.0
 11
184.55571620605431
 21
329.15044230028519
 31
0.0
  0
LINE
  5
9699
  8
AM_0
 10
179.18058994020839
 20
329.15044230028519
 30
0.0
 11
177.0062850770482
 21
329.15044230028519
 31
0.0
  0
ARC
  5
969A
  8
AM_0
 10
179.18058994020839
 20
328.65044230028531
 30
0.0
 40
0.5
 50
90.0
 51
180.0
  0
LINE
  5
969B
  8
AM_0
 10
185.0557162060544
 20
333.15044230028519
 30
0.0
 11
185.0557162060544
 21
329.65044230028519
 31
0.0
  0
LINE
  5
969C
  8
AM_0
 10
184.0557162060544
 20
350.15044230028519
 30
0.0
 11
173.38058994020739
 21
350.15044230028519
 31
0.0
  0
LINE
  5
969D
  8
AM_0
 10
173.38058994020739
 20
350.15044230028519
 30
0.0
 11
166.18058994020731
 21
350.15044230028519
 31
0.0
  0
LINE
  5
969E
  8
AM_0
 10
178.85750819441341
 20
357.15044230028531
 30
0.0
 11
190.29460750862839
 21
357.15044230028531
 31
0.0
  0
ARC
  5
969F
  8
AM_0
 10
184.0557162060544
 20
349.15044230028531
 30
0.0
 40
1.0
 50
0.0
 51
90.0
  0
LINE
  5
96A0
  8
AM_0
 10
180.7784275086284
 20
350.15044230028519
 30
0.0
 11
180.7784275086284
 21
352.65044230028519
 31
0.0
  0
LINE
  5
96A1
  8
AM_0
 10
57.278427508628447
 20
478.40044230028502
 30
0.0
 11
82.278427508628454
 21
478.40044230028502
 31
0.0
  0
LINE
  5
96A2
  8
AM_0
 10
34.278427508628447
 20
472.40044230028519
 30
0.0
 11
82.278427508628454
 21
472.40044230028519
 31
0.0
  0
LINE
  5
96A3
  8
AM_0
 10
34.778427508628447
 20
453.29143230028512
 30
0.0
 11
77.278427508628454
 21
453.29143230028512
 31
0.0
  0
LINE
  5
96A4
  8
AM_0
 10
34.778427508628447
 20
463.54143230028512
 30
0.0
 11
77.278427508628454
 21
463.54143230028512
 31
0.0
  0
LINE
  5
96A5
  8
AM_0
 10
57.278427508628447
 20
360.90044230028519
 30
0.0
 11
82.278427508628454
 21
360.90044230028519
 31
0.0
  0
LINE
  5
96A6
  8
AM_0
 10
34.778427508628447
 20
375.7594523002852
 30
0.0
 11
77.278427508628454
 21
375.7594523002852
 31
0.0
  0
LINE
  5
96A7
  8
AM_0
 10
34.778427508628447
 20
386.0094523002852
 30
0.0
 11
77.278427508628454
 21
386.0094523002852
 31
0.0
  0
LINE
  5
96A8
  8
AM_0
 10
34.278427508628447
 20
366.90044230028519
 30
0.0
 11
82.278427508628454
 21
366.90044230028519
 31
0.0
  0
LINE
  5
96A9
  8
AM_0
 10
35.776997408628397
 20
484.65044230028508
 30
0.0
 11
73.278427508628454
 21
484.65044230028508
 31
0.0
  0
LINE
  5
96AA
  8
AM_0
 10
34.778427508628447
 20
366.86845230028541
 30
0.0
 11
34.778427508628447
 21
472.40044230028519
 31
0.0
  0
LINE
  5
96AB
  8
AM_0
 10
31.7769974086284
 20
454.3889033959922
 30
0.0
 11
31.7769974086284
 21
384.9119812045779
 31
0.0
  0
LINE
  5
96AC
  8
AM_0
 10
32.278427508628447
 20
385.12138230028518
 30
0.0
 11
32.278427508628447
 21
454.17949230028529
 31
0.0
  0
LINE
  5
96AD
  8
AM_0
 10
26.7769974086284
 20
475.65044230028502
 30
0.0
 11
26.7769974086284
 21
363.65044230028531
 31
0.0
  0
ARC
  5
96AE
  8
AM_0
 10
36.776997408628397
 20
364.65044230028519
 30
0.0
 40
5.0
 50
179.99997999999781
 51
269.99995000000138
  0
ARC
  5
96AF
  8
AM_0
 10
34.278427508628447
 20
368.90044230028519
 30
0.0
 40
2.0
 50
179.99997999999781
 51
269.99995000000138
  0
LINE
  5
96B0
  8
AM_0
 10
33.178457508628348
 20
376.2594523002852
 30
0.0
 11
33.47843750862836
 21
376.2594523002852
 31
0.0
  0
LINE
  5
96B1
  8
AM_0
 10
33.178457508628348
 20
385.25945230028498
 30
0.0
 11
33.47843750862836
 21
385.25945230028498
 31
0.0
  0
LINE
  5
96B2
  8
AM_0
 10
30.178457508628352
 20
382.2594523002852
 30
0.0
 11
30.178457508628352
 21
379.25945230028509
 31
0.0
  0
LINE
  5
96B3
  8
AM_0
 10
31.7769974086284
 20
376.60692339599251
 30
0.0
 11
31.7769974086284
 21
364.65044230028519
 31
0.0
  0
LINE
  5
96B4
  8
AM_0
 10
32.278427508628447
 20
376.39751230028531
 30
0.0
 11
32.278427508628447
 21
368.90044230028519
 31
0.0
  0
ARC
  5
96B5
  8
AM_0
 10
33.178457508628348
 20
379.25945230028509
 30
0.0
 40
3.0
 50
179.99997999999781
 51
269.99995000000138
  0
ARC
  5
96B6
  8
AM_0
 10
33.178457508628348
 20
382.2594523002852
 30
0.0
 40
3.0
 50
89.999988999997569
 51
179.99997999999781
  0
LINE
  5
96B7
  8
AM_0
 10
33.47843750862836
 20
385.35942230028542
 30
0.0
 11
33.47843750862836
 21
376.15947230028519
 31
0.0
  0
LINE
  5
96B8
  8
AM_0
 10
36.776997408628397
 20
359.65044230028531
 30
0.0
 11
60.278427508628447
 21
359.65044230028531
 31
0.0
  0
LINE
  5
96B9
  8
AM_0
 10
33.47843750862836
 20
376.15947230028519
 30
0.0
 11
34.778427508628447
 21
376.15947230028519
 31
0.0
  0
LINE
  5
96BA
  8
AM_0
 10
57.278427508628447
 20
360.90044230028519
 30
0.0
 11
57.278427508628447
 21
366.90044230028519
 31
0.0
  0
LINE
  5
96BB
  8
AM_0
 10
33.47843750862836
 20
385.35942230028542
 30
0.0
 11
34.778427508628447
 21
385.35942230028542
 31
0.0
  0
LINE
  5
96BC
  8
AM_0
 10
25.778457508628431
 20
414.65044230028508
 30
0.0
 11
25.778457508628431
 21
424.65044230028519
 31
0.0
  0
LINE
  5
96BD
  8
AM_0
 10
26.7769974086284
 20
414.65044230028508
 30
0.0
 11
25.778457508628431
 21
414.65044230028508
 31
0.0
  0
LINE
  5
96BE
  8
AM_0
 10
32.278427508628447
 20
414.65044230028508
 30
0.0
 11
31.7769974086284
 21
414.65044230028508
 31
0.0
  0
LINE
  5
96BF
  8
AM_0
 10
26.7769974086284
 20
424.65044230028519
 30
0.0
 11
25.778457508628431
 21
424.65044230028519
 31
0.0
  0
LINE
  5
96C0
  8
AM_0
 10
32.278427508628447
 20
424.65044230028519
 30
0.0
 11
31.7769974086284
 21
424.65044230028519
 31
0.0
  0
LINE
  5
96C1
  8
AM_0
 10
33.178457508628348
 20
454.04143230028518
 30
0.0
 11
33.47843750862836
 21
454.04143230028518
 31
0.0
  0
LINE
  5
96C2
  8
AM_0
 10
33.178457508628348
 20
463.04143230028518
 30
0.0
 11
33.47843750862836
 21
463.04143230028518
 31
0.0
  0
ARC
  5
96C3
  8
AM_0
 10
34.278427508628447
 20
470.40044230028491
 30
0.0
 40
2.0
 50
90.000049999998538
 51
180.00002000000191
  0
ARC
  5
96C4
  8
AM_0
 10
35.776997408628397
 20
475.65044230028502
 30
0.0
 40
9.0
 50
89.999988999997569
 51
179.99997999999781
  0
ARC
  5
96C5
  8
AM_0
 10
36.776997408628397
 20
474.65044230028531
 30
0.0
 40
5.0
 50
89.999988999997569
 51
180.0
  0
LINE
  5
96C6
  8
AM_0
 10
31.7769974086284
 20
462.69396120457799
 30
0.0
 11
31.7769974086284
 21
474.65044230028519
 31
0.0
  0
LINE
  5
96C7
  8
AM_0
 10
32.278427508628447
 20
462.90337230028513
 30
0.0
 11
32.278427508628447
 21
470.40044230028491
 31
0.0
  0
ARC
  5
96C8
  8
AM_0
 10
33.178457508628348
 20
457.04143230028512
 30
0.0
 40
3.0
 50
180.00002000000191
 51
270.00001100000242
  0
ARC
  5
96C9
  8
AM_0
 10
33.178457508628348
 20
460.04143230028501
 30
0.0
 40
3.0
 50
90.000049999998538
 51
180.00002000000191
  0
LINE
  5
96CA
  8
AM_0
 10
30.178457508628352
 20
457.04143230028512
 30
0.0
 11
30.178457508628352
 21
460.04143230028501
 31
0.0
  0
LINE
  5
96CB
  8
AM_0
 10
33.47843750862836
 20
453.94146230028502
 30
0.0
 11
33.47843750862836
 21
463.14141230028503
 31
0.0
  0
LINE
  5
96CC
  8
AM_0
 10
33.47843750862836
 20
453.94146230028502
 30
0.0
 11
34.778427508628447
 21
453.94146230028502
 31
0.0
  0
LINE
  5
96CD
  8
AM_0
 10
33.47843750862836
 20
463.14141230028503
 30
0.0
 11
34.778427508628447
 21
463.14141230028503
 31
0.0
  0
LINE
  5
96CE
  8
AM_0
 10
36.776997408628397
 20
479.65044230028502
 30
0.0
 11
60.278427508628447
 21
479.65044230028502
 31
0.0
  0
LINE
  5
96CF
  8
AM_0
 10
60.278427508628447
 20
478.40044230028508
 30
0.0
 11
60.278427508628447
 21
484.65044230028508
 31
0.0
  0
LINE
  5
96D0
  8
AM_0
 10
57.278427508628447
 20
478.40044230028502
 30
0.0
 11
57.278427508628447
 21
472.40044230028519
 31
0.0
  0
LINE
  5
96D1
  8
AM_0
 10
77.278427508628454
 20
382.46538230028528
 30
0.0
 11
77.278427508628454
 21
456.83647230028532
 31
0.0
  0
ARC
  5
96D2
  8
AM_0
 10
177.2784275086284
 20
447.15044230028508
 30
0.0
 40
1.02
 50
179.99998999999889
 51
270.0
  0
ARC
  5
96D3
  8
AM_0
 10
177.2784275086284
 20
447.15044230028508
 30
0.0
 40
1.5
 50
179.99998999999889
 51
270.0
  0
ARC
  5
96D4
  8
AM_0
 10
159.27842750862831
 20
447.15044230028508
 30
0.0
 40
1.02
 50
269.999989999999
 51
0.0000006832429909
  0
ARC
  5
96D5
  8
AM_0
 10
159.27842750862831
 20
447.15044230028508
 30
0.0
 40
1.5
 50
269.999989999999
 51
0.0000006832495047
  0
ARC
  5
96D6
  8
AM_0
 10
91.73844750862844
 20
444.67546230028529
 30
0.0
 40
1.465004
 50
90.00000299999769
 51
270.0
  0
LINE
  5
96D7
  8
AM_0
 10
90.278427508628425
 20
472.65044230028508
 30
0.0
 11
90.278427508628425
 21
366.65044230028519
 31
0.0
  0
LINE
  5
96D8
  8
AM_0
 10
82.278427508628454
 20
478.40044230028508
 30
0.0
 11
82.278427508628454
 21
360.90044230028519
 31
0.0
  0
LINE
  5
96D9
  8
AM_0
 10
191.6112575086284
 20
443.65044230028508
 30
0.0
 11
92.638417508628507
 21
443.65044230028508
 31
0.0
  0
LINE
  5
96DA
  8
AM_0
 10
159.27842750862831
 20
445.65044230028519
 30
0.0
 11
92.638417508628507
 21
445.65044230028519
 31
0.0
  0
ARC
  5
96DB
  8
AM_0
 10
127.9434075086283
 20
434.66545230028521
 30
0.0
 40
1.3350147999999991
 50
269.73042999999973
 51
90.269556000001316
  0
ARC
  5
96DC
  8
AM_0
 10
127.9434075086283
 20
404.64043230028511
 30
0.0
 40
1.3300148000000001
 50
269.72941999999853
 51
90.270567000000995
  0
ARC
  5
96DD
  8
AM_0
 10
128.00535750862821
 20
414.65044230028508
 30
0.0
 40
1.2700266
 50
269.62931999999989
 51
90.370670000004694
  0
ARC
  5
96DE
  8
AM_0
 10
128.00535750862821
 20
424.66045230028533
 30
0.0
 40
1.2700266
 50
269.62931999999989
 51
90.370670000004694
  0
LINE
  5
96DF
  8
AM_0
 10
191.6112575086284
 20
395.65044230028519
 30
0.0
 11
92.638417508628507
 21
395.65044230028519
 31
0.0
  0
LINE
  5
96E0
  8
AM_0
 10
147.2784275086284
 20
383.65044230028519
 30
0.0
 11
92.638417508628507
 21
383.65044230028519
 31
0.0
  0
LINE
  5
96E1
  8
AM_0
 10
147.2784275086284
 20
385.65044230028519
 30
0.0
 11
92.638417508628507
 21
385.65044230028519
 31
0.0
  0
LINE
  5
96E2
  8
AM_0
 10
91.958417508628443
 20
386.28044230028542
 30
0.0
 11
159.29844750862841
 21
386.28044230028542
 31
0.0
  0
LINE
  5
96E3
  8
AM_0
 10
91.958417508628443
 20
382.9304723002852
 30
0.0
 11
147.2784275086284
 21
382.9304723002852
 31
0.0
  0
LINE
  5
96E4
  8
AM_0
 10
91.73844750862844
 20
393.16045230028521
 30
0.0
 11
159.27842750862831
 21
393.16045230028521
 31
0.0
  0
LINE
  5
96E5
  8
AM_0
 10
159.27842750862831
 20
393.65044230028531
 30
0.0
 11
92.638417508628507
 21
393.65044230028531
 31
0.0
  0
LINE
  5
96E6
  8
AM_0
 10
93.488447508628425
 20
363.3704123002853
 30
0.0
 11
190.40843750862831
 21
363.3704123002853
 31
0.0
  0
POLYLINE
  5
96E7
  8
AM_0
 66
     1
 10
0.0
 20
0.0
 30
0.0
  0
VERTEX
  5
96E8
  8
AM_0
 10
93.156667508628445
 20
403.30986230028498
 30
0.0
 42
0.00073721992
  0
VERTEX
  5
96E9
  8
AM_0
 10
93.200817508628404
 20
402.7074523002853
 30
0.0
 42
0.00074398496
  0
VERTEX
  5
96EA
  8
AM_0
 10
93.246747508628403
 20
402.10518230028521
 30
0.0
 42
0.00073322625
  0
VERTEX
  5
96EB
  8
AM_0
 10
93.294477508628404
 20
401.50285230028521
 30
0.0
 42
0.00073594289
  0
VERTEX
  5
96EC
  8
AM_0
 10
93.343957508628421
 20
400.90086230028521
 30
0.0
 42
0.00074742568
  0
VERTEX
  5
96ED
  8
AM_0
 10
93.395227508628466
 20
400.299002300285
 30
0.0
 42
0.00073216749
  0
VERTEX
  5
96EE
  8
AM_0
 10
93.448287508628425
 20
399.69719230028528
 30
0.0
 42
0.00074184065
  0
VERTEX
  5
96EF
  8
AM_0
 10
93.503107508628375
 20
399.09566230028531
 30
0.0
 42
0.00072077528
  0
VERTEX
  5
96F0
  8
AM_0
 10
93.559687508628414
 20
398.49443230028533
 30
0.0
 42
0.00074978179
  0
VERTEX
  5
96F1
  8
AM_0
 10
93.618027508628344
 20
397.89323230028532
 30
0.0
 42
0.00074288888
  0
VERTEX
  5
96F2
  8
AM_0
 10
93.678177508628394
 20
397.2922123002852
 30
0.0
 42
0.00072503679
  0
VERTEX
  5
96F3
  8
AM_0
 10
93.740087508628406
 20
396.69147230028523
 30
0.0
 42
0.00074640584
  0
VERTEX
  5
96F4
  8
AM_0
 10
93.803757508628422
 20
396.0908723002853
 30
0.0
  0
SEQEND
  5
96F5
  8
AM_0
  0
LINE
  5
96F6
  8
AM_0
 10
93.184677508628425
 20
360.52043230028528
 30
0.0
 11
115.61107770729519
 21
360.52043230028528
 31
0.0
  0
LINE
  5
96F7
  8
AM_0
 10
95.63841750862845
 20
383.00044230028527
 30
0.0
 11
90.278427508628425
 21
371.56044230028527
 31
0.0
  0
LINE
  5
96F8
  8
AM_0
 10
77.278427508628454
 20
375.7594523002852
 30
0.0
 11
77.278427508628454
 21
366.90044230028519
 31
0.0
  0
LINE
  5
96F9
  8
AM_0
 10
70.278427508628454
 20
359.65044230028531
 30
0.0
 11
73.278427508628454
 21
359.65044230028531
 31
0.0
  0
LINE
  5
96FA
  8
AM_0
 10
90.278427508628425
 20
368.87044230028528
 30
0.0
 11
91.203907508628447
 21
362.24382230028527
 31
0.0
  0
LINE
  5
96FB
  8
AM_0
 10
90.278427508628425
 20
368.8703823002852
 30
0.0
 11
91.287647508628439
 21
362.22035230028519
 31
0.0
  0
LINE
  5
96FC
  8
AM_0
 10
90.278427508628425
 20
370.21037230028531
 30
0.0
 11
91.558397508628374
 21
362.21043230028522
 31
0.0
  0
LINE
  5
96FD
  8
AM_0
 10
90.278427508628425
 20
371.56038230028531
 30
0.0
 11
91.518417508628474
 21
365.0003823002852
 31
0.0
  0
LINE
  5
96FE
  8
AM_0
 10
82.278427508628454
 20
366.65044230028519
 30
0.0
 11
90.278427508628425
 21
366.65044230028519
 31
0.0
  0
ARC
  5
96FF
  8
AM_0
 10
93.184677508628425
 20
362.52043230028528
 30
0.0
 40
2.0
 50
187.9504400000034
 51
269.999989999999
  0
ARC
  5
9700
  8
AM_0
 10
93.265057508628445
 20
362.52043230028528
 30
0.0
 40
2.0
 50
188.62962000000411
 51
269.999989999999
  0
ARC
  5
9701
  8
AM_0
 10
93.534597508628437
 20
362.52080230028531
 30
0.0
 40
2.000420099999999
 50
188.9268200000015
 51
269.82270999999599
  0
ARC
  5
9702
  8
AM_0
 10
93.483267508628444
 20
365.36968230028532
 30
0.0
 40
1.9992490000000001
 50
190.643100000001
 51
270.14743000000129
  0
LINE
  5
9703
  8
AM_0
 10
82.978437508628375
 20
376.46050230028533
 30
0.0
 11
89.208417508628443
 21
376.46050230028533
 31
0.0
  0
POLYLINE
  5
9704
  8
AM_0
 66
     1
 10
0.0
 20
0.0
 30
0.0
  0
VERTEX
  5
9705
  8
AM_0
 10
94.13932750862844
 20
393.16740230028518
 30
0.0
 42
0.00068900015
  0
VERTEX
  5
9706
  8
AM_0
 10
94.210207508628343
 20
392.59265230028518
 30
0.0
 42
0.00070644648
  0
VERTEX
  5
9707
  8
AM_0
 10
94.282707508628448
 20
392.01797230028518
 30
0.0
 42
0.00069245587
  0
VERTEX
  5
9708
  8
AM_0
 10
94.356797508628404
 20
391.44365230028518
 30
0.0
 42
0.00069587802
  0
VERTEX
  5
9709
  8
AM_0
 10
94.432477508628423
 20
390.86951230028529
 30
0.0
 42
0.00068980012
  0
VERTEX
  5
970A
  8
AM_0
 10
94.509777508628375
 20
390.29551230028528
 30
0.0
 42
0.00072079193
  0
VERTEX
  5
970B
  8
AM_0
 10
94.58866750862849
 20
389.72173230028528
 30
0.0
 42
0.00071003147
  0
VERTEX
  5
970C
  8
AM_0
 10
94.669207508628404
 20
389.14825230028532
 30
0.0
 42
0.00072658712
  0
VERTEX
  5
970D
  8
AM_0
 10
94.751367508628434
 20
388.57516230028523
 30
0.0
 42
0.00069571059
  0
VERTEX
  5
970E
  8
AM_0
 10
94.835187508628394
 20
388.00212230028518
 30
0.0
 42
0.0007126617
  0
VERTEX
  5
970F
  8
AM_0
 10
94.920617508628482
 20
387.42936230028522
 30
0.0
 42
0.00071614574
  0
VERTEX
  5
9710
  8
AM_0
 10
95.007647508628395
 20
386.85701230028519
 30
0.0
 42
0.00072290803
  0
VERTEX
  5
9711
  8
AM_0
 10
95.096357508628373
 20
386.28471230028532
 30
0.0
  0
SEQEND
  5
9712
  8
AM_0
  0
ARC
  5
9713
  8
AM_0
 10
92.823047508628477
 20
384.65044230028531
 30
0.0
 40
1.000013899999999
 50
89.691659999999231
 51
270.30834000000078
  0
ARC
  5
9714
  8
AM_0
 10
91.951587508628407
 20
384.60539230028542
 30
0.0
 40
1.675014
 50
89.766498999996756
 51
270.2335099999994
  0
ARC
  5
9715
  8
AM_0
 10
91.73844750862844
 20
394.62541230028518
 30
0.0
 40
1.465004
 50
90.00000299999769
 51
270.0
  0
ARC
  5
9716
  8
AM_0
 10
92.823047508628477
 20
394.65044230028531
 30
0.0
 40
1.000013899999999
 50
89.691659999999231
 51
270.30834000000078
  0
ARC
  5
9717
  8
AM_0
 10
115.61107770729519
 20
359.02043230028528
 30
0.0
 40
1.5
 50
1.499738863867264
 51
90.0
1001
GENIUS_GENODEF_13
1002
{
1000
HIER
1070
     0
1002
}
1002
{
1000
MANEDIT
1070
     0
1002
}
1002
{
1000
NOSEL
1070
     0
1002
}
1002
{
1000
BEHIND
1070
     0
1002
}
1002
{
1000
REACTOR
1002
}
1001
GENIUS_GENOBJ-N-FIL_13
1002
{
1000
OWNER
1000
GEN
1002
}
  0
LINE
  5
9718
  8
AM_0
 10
91.608447508628444
 20
433.33049230028502
 30
0.0
 11
127.9371175086284
 21
433.33049230028502
 31
0.0
  0
LINE
  5
9719
  8
AM_0
 10
126.7171475086284
 20
433.65044230028502
 30
0.0
 11
92.638417508628507
 21
433.65044230028502
 31
0.0
  0
LINE
  5
971A
  8
AM_0
 10
91.608447508628444
 20
435.99040230028533
 30
0.0
 11
127.9371175086284
 21
435.99040230028533
 31
0.0
  0
LINE
  5
971B
  8
AM_0
 10
126.7171475086284
 20
435.65044230028519
 30
0.0
 11
92.638417508628507
 21
435.65044230028519
 31
0.0
  0
LINE
  5
971C
  8
AM_0
 10
91.548447508628371
 20
423.39043230028511
 30
0.0
 11
127.99711750862841
 21
423.39043230028511
 31
0.0
  0
LINE
  5
971D
  8
AM_0
 10
91.548447508628371
 20
425.92046230028512
 30
0.0
 11
127.99711750862841
 21
425.92046230028512
 31
0.0
  0
LINE
  5
971E
  8
AM_0
 10
126.7171475086284
 20
423.65044230028519
 30
0.0
 11
92.638417508628507
 21
423.65044230028519
 31
0.0
  0
LINE
  5
971F
  8
AM_0
 10
126.7171475086284
 20
425.65044230028502
 30
0.0
 11
92.638417508628507
 21
425.65044230028502
 31
0.0
  0
LINE
  5
9720
  8
AM_0
 10
126.7171475086284
 20
403.65044230028519
 30
0.0
 11
92.638417508628507
 21
403.65044230028519
 31
0.0
  0
LINE
  5
9721
  8
AM_0
 10
126.7171475086284
 20
405.65044230028508
 30
0.0
 11
92.638417508628507
 21
405.65044230028508
 31
0.0
  0
LINE
  5
9722
  8
AM_0
 10
91.608447508628444
 20
405.97038230028528
 30
0.0
 11
127.9371175086284
 21
405.97038230028528
 31
0.0
  0
LINE
  5
9723
  8
AM_0
 10
91.548447508628371
 20
413.38042230028532
 30
0.0
 11
127.99711750862841
 21
413.38042230028532
 31
0.0
  0
LINE
  5
9724
  8
AM_0
 10
126.7171475086284
 20
413.65044230028502
 30
0.0
 11
92.638417508628507
 21
413.65044230028502
 31
0.0
  0
LINE
  5
9725
  8
AM_0
 10
126.7171475086284
 20
415.65044230028519
 30
0.0
 11
92.638417508628507
 21
415.65044230028519
 31
0.0
  0
LINE
  5
9726
  8
AM_0
 10
91.548447508628371
 20
415.92046230028501
 30
0.0
 11
127.99711750862841
 21
415.92046230028501
 31
0.0
  0
LINE
  5
9727
  8
AM_0
 10
91.608447508628444
 20
403.3104723002852
 30
0.0
 11
127.9496975086283
 21
403.3104723002852
 31
0.0
  0
ARC
  5
9728
  8
AM_0
 10
91.542587508628401
 20
424.65544230028519
 30
0.0
 40
1.2650129999999991
 50
89.735579000001735
 51
270.26441000000239
  0
ARC
  5
9729
  8
AM_0
 10
92.823047508628477
 20
424.65044230028519
 30
0.0
 40
1.000013899999999
 50
89.691659999999231
 51
270.30834000000078
  0
POLYLINE
  5
972A
  8
AM_0
 66
     1
 10
0.0
 20
0.0
 30
0.0
  0
VERTEX
  5
972B
  8
AM_0
 10
92.682477508628438
 20
413.38005230028512
 30
0.0
 42
0.00076695235
  0
VERTEX
  5
972C
  8
AM_0
 10
92.697277508628375
 20
412.76229230028508
 30
0.0
 42
0.00073263043
  0
VERTEX
  5
972D
  8
AM_0
 10
92.713917508628413
 20
412.14469230028521
 30
0.0
 42
0.00076525988
  0
VERTEX
  5
972E
  8
AM_0
 10
92.732407508628384
 20
411.5270223002853
 30
0.0
 42
0.00075144488
  0
VERTEX
  5
972F
  8
AM_0
 10
92.752777508628412
 20
410.90942230028543
 30
0.0
 42
0.00076035096
  0
VERTEX
  5
9730
  8
AM_0
 10
92.775017508628423
 20
410.2919923002853
 30
0.0
 42
0.00075543154
  0
VERTEX
  5
9731
  8
AM_0
 10
92.799117508628413
 20
409.6746123002851
 30
0.0
 42
0.0007577325
  0
VERTEX
  5
9732
  8
AM_0
 10
92.825097508628403
 20
409.0572123002853
 30
0.0
 42
0.00076034585
  0
VERTEX
  5
9733
  8
AM_0
 10
92.852947508628446
 20
408.43982230028502
 30
0.0
 42
0.00074823143
  0
VERTEX
  5
9734
  8
AM_0
 10
92.882677508628447
 20
407.8224323002853
 30
0.0
 42
0.00074896605
  0
VERTEX
  5
9735
  8
AM_0
 10
92.91423750862829
 20
407.20530230028521
 30
0.0
 42
0.00076039763
  0
VERTEX
  5
9736
  8
AM_0
 10
92.947657508628424
 20
406.58827230028521
 30
0.0
 42
0.00075616127
  0
VERTEX
  5
9737
  8
AM_0
 10
92.982957508628445
 20
405.97124230028521
 30
0.0
  0
SEQEND
  5
9738
  8
AM_0
  0
ARC
  5
9739
  8
AM_0
 10
92.823047508628477
 20
404.65044230028502
 30
0.0
 40
1.000013899999999
 50
89.691659999999231
 51
270.30834000000078
  0
ARC
  5
973A
  8
AM_0
 10
91.608447508628444
 20
404.64043230028511
 30
0.0
 40
1.3300049999999981
 50
90.00000299999769
 51
270.0
  0
POLYLINE
  5
973B
  8
AM_0
 66
     1
 10
0.0
 20
0.0
 30
0.0
  0
VERTEX
  5
973C
  8
AM_0
 10
92.638417508628507
 20
419.65044230028519
 30
0.0
 42
0.00039106589
  0
VERTEX
  5
973D
  8
AM_0
 10
92.636057508628426
 20
419.33930230028528
 30
0.0
 42
0.00035488584
  0
VERTEX
  5
973E
  8
AM_0
 10
92.634167508628451
 20
419.0281923002853
 30
0.0
 42
0.00039705232
  0
VERTEX
  5
973F
  8
AM_0
 10
92.632737508628409
 20
418.71709230028512
 30
0.0
 42
0.0003876649
  0
VERTEX
  5
9740
  8
AM_0
 10
92.631807508628356
 20
418.40595230028521
 30
0.0
 42
0.00040613779
  0
VERTEX
  5
9741
  8
AM_0
 10
92.631357508628355
 20
418.09484230028528
 30
0.0
 42
0.00035571855
  0
VERTEX
  5
9742
  8
AM_0
 10
92.631397508628481
 20
417.78374230028521
 30
0.0
 42
0.00038547358
  0
VERTEX
  5
9743
  8
AM_0
 10
92.631887508628367
 20
417.47260230028502
 30
0.0
 42
0.000355015
  0
VERTEX
  5
9744
  8
AM_0
 10
92.632847508628444
 20
417.16150230028518
 30
0.0
 42
0.00040118616
  0
VERTEX
  5
9745
  8
AM_0
 10
92.634267508628369
 20
416.85027230028521
 30
0.0
 42
0.00038319867
  0
VERTEX
  5
9746
  8
AM_0
 10
92.63617750862845
 20
416.5391323002853
 30
0.0
 42
0.00035656356
  0
VERTEX
  5
9747
  8
AM_0
 10
92.638557508628367
 20
416.22790230028511
 30
0.0
 42
0.00040140992
  0
VERTEX
  5
9748
  8
AM_0
 10
92.641407508628447
 20
415.91679230028512
 30
0.0
  0
SEQEND
  5
9749
  8
AM_0
  0
ARC
  5
974A
  8
AM_0
 10
92.823047508628477
 20
414.65044230028508
 30
0.0
 40
1.000013899999999
 50
89.691659999999231
 51
270.30834000000078
  0
ARC
  5
974B
  8
AM_0
 10
91.542587508628401
 20
414.65044230028508
 30
0.0
 40
1.2700129999999981
 50
89.736617000001587
 51
270.2633699999991
  0
POLYLINE
  5
974C
  8
AM_0
 66
     1
 10
0.0
 20
0.0
 30
0.0
  0
VERTEX
  5
974D
  8
AM_0
 10
92.638417508628507
 20
419.65044230028519
 30
0.0
 42
-0.00039106649
  0
VERTEX
  5
974E
  8
AM_0
 10
92.636057508628426
 20
419.9615723002853
 30
0.0
 42
-0.00035488198
  0
VERTEX
  5
974F
  8
AM_0
 10
92.634167508628451
 20
420.272682300285
 30
0.0
 42
-0.00039706113
  0
VERTEX
  5
9750
  8
AM_0
 10
92.632737508628409
 20
420.5837923002851
 30
0.0
 42
-0.00038765718
  0
VERTEX
  5
9751
  8
AM_0
 10
92.631807508628356
 20
420.89493230028529
 30
0.0
 42
-0.00040613432
  0
VERTEX
  5
9752
  8
AM_0
 10
92.631357508628355
 20
421.20603230028519
 30
0.0
 42
-0.00035573434
  0
VERTEX
  5
9753
  8
AM_0
 10
92.631397508628481
 20
421.51714230028517
 30
0.0
 42
-0.00038545884
  0
VERTEX
  5
9754
  8
AM_0
 10
92.631887508628367
 20
421.82827230028499
 30
0.0
 42
-0.00035501205
  0
VERTEX
  5
9755
  8
AM_0
 10
92.632847508628444
 20
422.13938230028521
 30
0.0
 42
-0.00040120779
  0
VERTEX
  5
9756
  8
AM_0
 10
92.634267508628369
 20
422.45061230028529
 30
0.0
 42
-0.00038317817
  0
VERTEX
  5
9757
  8
AM_0
 10
92.63617750862845
 20
422.76174230028511
 30
0.0
 42
-0.00035656084
  0
VERTEX
  5
9758
  8
AM_0
 10
92.638557508628367
 20
423.0729823002851
 30
0.0
 42
-0.00040143615
  0
VERTEX
  5
9759
  8
AM_0
 10
92.641407508628447
 20
423.38408230028512
 30
0.0
  0
SEQEND
  5
975A
  8
AM_0
  0
ARC
  5
975B
  8
AM_0
 10
91.608447508628444
 20
434.66045230028499
 30
0.0
 40
1.3300049999999981
 50
90.00000299999769
 51
270.0
  0
ARC
  5
975C
  8
AM_0
 10
92.823047508628477
 20
434.65044230028508
 30
0.0
 40
1.000013899999999
 50
89.691659999999231
 51
270.30834000000078
  0
POLYLINE
  5
975D
  8
AM_0
 66
     1
 10
0.0
 20
0.0
 30
0.0
  0
VERTEX
  5
975E
  8
AM_0
 10
92.682477508628438
 20
425.92082230028501
 30
0.0
 42
-0.00076691992
  0
VERTEX
  5
975F
  8
AM_0
 10
92.697277508628375
 20
426.5385923002853
 30
0.0
 42
-0.00073262792
  0
VERTEX
  5
9760
  8
AM_0
 10
92.713917508628413
 20
427.15618230028508
 30
0.0
 42
-0.00076529537
  0
VERTEX
  5
9761
  8
AM_0
 10
92.732407508628384
 20
427.77385230028511
 30
0.0
 42
-0.00075141097
  0
VERTEX
  5
9762
  8
AM_0
 10
92.752777508628412
 20
428.3914523002851
 30
0.0
 42
-0.00075841687
  0
VERTEX
  5
9763
  8
AM_0
 10
92.775007508628448
 20
429.00888230028528
 30
0.0
 42
-0.00075711788
  0
VERTEX
  5
9764
  8
AM_0
 10
92.799117508628413
 20
429.6263923002852
 30
0.0
 42
-0.00075976003
  0
VERTEX
  5
9765
  8
AM_0
 10
92.825107508628363
 20
430.24378230028509
 30
0.0
 42
-0.00075797311
  0
VERTEX
  5
9766
  8
AM_0
 10
92.852947508628446
 20
430.86106230028508
 30
0.0
 42
-0.0007482613
  0
VERTEX
  5
9767
  8
AM_0
 10
92.882677508628447
 20
431.478442300285
 30
0.0
 42
-0.00074893561
  0
VERTEX
  5
9768
  8
AM_0
 10
92.91423750862829
 20
432.09557230028508
 30
0.0
 42
-0.00076039839
  0
VERTEX
  5
9769
  8
AM_0
 10
92.947657508628424
 20
432.71260230028503
 30
0.0
 42
-0.00075618786
  0
VERTEX
  5
976A
  8
AM_0
 10
92.982957508628445
 20
433.32964230028529
 30
0.0
  0
SEQEND
  5
976B
  8
AM_0
  0
POLYLINE
  5
976C
  8
AM_0
 66
     1
 10
0.0
 20
0.0
 30
0.0
  0
VERTEX
  5
976D
  8
AM_0
 10
93.156667508628445
 20
435.99101230028521
 30
0.0
 42
-0.0007337051
  0
VERTEX
  5
976E
  8
AM_0
 10
93.200807508628415
 20
436.59343230028531
 30
0.0
 42
-0.00075211323
  0
VERTEX
  5
976F
  8
AM_0
 10
93.246747508628403
 20
437.1958223002851
 30
0.0
 42
-0.0007297491
  0
VERTEX
  5
9770
  8
AM_0
 10
93.294477508628404
 20
437.79802230028508
 30
0.0
 42
-0.00073593041
  0
VERTEX
  5
9771
  8
AM_0
 10
93.343957508628421
 20
438.40001230028503
 30
0.0
 42
-0.00074742739
  0
VERTEX
  5
9772
  8
AM_0
 10
93.395227508628466
 20
439.00188230028522
 30
0.0
 42
-0.00073217363
  0
VERTEX
  5
9773
  8
AM_0
 10
93.448287508628425
 20
439.60368230028519
 30
0.0
 42
-0.00073754168
  0
VERTEX
  5
9774
  8
AM_0
 10
93.503107508628375
 20
440.20522230028519
 30
0.0
 42
-0.00073075073
  0
VERTEX
  5
9775
  8
AM_0
 10
93.559687508628414
 20
440.80658230028519
 30
0.0
 42
-0.00074550816
  0
VERTEX
  5
9776
  8
AM_0
 10
93.618027508628344
 20
441.40764230028498
 30
0.0
 42
-0.00074288416
  0
VERTEX
  5
9777
  8
AM_0
 10
93.678177508628394
 20
442.00866230028521
 30
0.0
 42
-0.00072504001
  0
VERTEX
  5
9778
  8
AM_0
 10
93.740087508628406
 20
442.60941230028533
 30
0.0
 42
-0.00074640667
  0
VERTEX
  5
9779
  8
AM_0
 10
93.803757508628422
 20
443.2100123002852
 30
0.0
  0
SEQEND
  5
977A
  8
AM_0
  0
ARC
  5
977B
  8
AM_0
 10
92.823047508628477
 20
444.65044230028519
 30
0.0
 40
1.000013899999999
 50
89.691659999999231
 51
270.30834000000078
  0
ARC
  5
977C
  8
AM_0
 10
126.7171475086284
 20
424.65044230028519
 30
0.0
 40
1.0000056999999991
 50
269.999989999999
 51
90.00000299999769
  0
ARC
  5
977D
  8
AM_0
 10
126.7171475086284
 20
404.65044230028502
 30
0.0
 40
1.0000056999999991
 50
269.999989999999
 51
90.00000299999769
  0
ARC
  5
977E
  8
AM_0
 10
126.7171475086284
 20
414.65044230028508
 30
0.0
 40
1.0000056999999991
 50
269.999989999999
 51
90.00000299999769
  0
ARC
  5
977F
  8
AM_0
 10
126.7171475086284
 20
434.65044230028508
 30
0.0
 40
1.0000056999999991
 50
269.999989999999
 51
90.00000299999769
  0
ARC
  5
9780
  8
AM_0
 10
159.27842750862831
 20
392.15044230028519
 30
0.0
 40
1.5
 50
0.0
 51
90.00000299999769
  0
ARC
  5
9781
  8
AM_0
 10
159.27842750862831
 20
387.15044230028531
 30
0.0
 40
1.5
 50
269.999989999999
 51
0.0000006832495047
  0
LINE
  5
9782
  8
AM_0
 10
191.6184575086283
 20
383.65044230028519
 30
0.0
 11
147.2784275086284
 21
383.65044230028519
 31
0.0
  0
LINE
  5
9783
  8
AM_0
 10
191.6184575086283
 20
385.65044230028519
 30
0.0
 11
147.2784275086284
 21
385.65044230028519
 31
0.0
  0
LINE
  5
9784
  8
AM_0
 10
160.29844750862841
 20
392.15044230028519
 30
0.0
 11
160.29844750862841
 21
387.29045230028521
 31
0.0
  0
ARC
  5
9785
  8
AM_0
 10
159.29844750862841
 20
387.29045230028521
 30
0.0
 40
1.0
 50
269.999989999999
 51
0.0000006832495047
  0
ARC
  5
9786
  8
AM_0
 10
159.27842750862831
 20
392.15044230028519
 30
0.0
 40
1.02
 50
0.0
 51
90.00000299999769
  0
ARC
  5
9787
  8
AM_0
 10
190.40360750862831
 20
365.37517230028533
 30
0.0
 40
2.0047290000000002
 50
270.13832000000423
 51
344.82650000000177
  0
ARC
  5
9788
  8
AM_0
 10
177.2784275086284
 20
392.15044230028519
 30
0.0
 40
1.02
 50
90.00000299999769
 51
180.00001000000091
  0
ARC
  5
9789
  8
AM_0
 10
177.2784275086284
 20
392.15044230028519
 30
0.0
 40
1.5
 50
90.00000299999769
 51
180.00001000000091
  0
ARC
  5
978A
  8
AM_0
 10
177.2784275086284
 20
387.15044230028531
 30
0.0
 40
1.5
 50
179.99998999999889
 51
270.0
  0
ARC
  5
978B
  8
AM_0
 10
177.25840750862841
 20
387.29045230028521
 30
0.0
 40
1.0
 50
179.99998999999889
 51
270.0
  0
CIRCLE
  5
978C
  8
AM_0
 10
170.77842750862831
 20
391.15044230028531
 30
0.0
 40
1.0
  0
CIRCLE
  5
978D
  8
AM_0
 10
165.77842750862831
 20
391.15044230028531
 30
0.0
 40
1.1000000000000001
  0
CIRCLE
  5
978E
  8
AM_0
 10
165.77842750862831
 20
391.15044230028531
 30
0.0
 40
1.149999999999999
  0
LINE
  5
978F
  8
AM_0
 10
160.7784275086284
 20
392.15044230028519
 30
0.0
 11
160.7784275086284
 21
387.15044230028531
 31
0.0
  0
LINE
  5
9790
  8
AM_0
 10
175.77842750862831
 20
392.15044230028519
 30
0.0
 11
175.77842750862831
 21
387.15044230028531
 31
0.0
  0
LINE
  5
9791
  8
AM_0
 10
176.25840750862841
 20
392.15044230028519
 30
0.0
 11
176.25840750862841
 21
387.29045230028521
 31
0.0
  0
LINE
  5
9792
  8
AM_0
 10
191.6112575086284
 20
393.65044230028531
 30
0.0
 11
177.2784275086284
 21
393.65044230028531
 31
0.0
  0
LINE
  5
9793
  8
AM_0
 10
191.6255975086284
 20
445.65044230028519
 30
0.0
 11
177.2784275086284
 21
445.65044230028519
 31
0.0
  0
LINE
  5
9794
  8
AM_0
 10
191.6184575086283
 20
453.65044230028519
 30
0.0
 11
92.638417508628507
 21
453.65044230028519
 31
0.0
  0
LINE
  5
9795
  8
AM_0
 10
191.6184575086283
 20
455.65044230028508
 30
0.0
 11
92.638417508628507
 21
455.65044230028508
 31
0.0
  0
LINE
  5
9796
  8
AM_0
 10
93.568407508628354
 20
481.54045230028521
 30
0.0
 11
190.40849750862839
 21
481.54045230028521
 31
0.0
  0
LINE
  5
9797
  8
AM_0
 10
93.548447508628357
 20
480.6304223002852
 30
0.0
 11
190.40843750862831
 21
480.6304223002852
 31
0.0
  0
LINE
  5
9798
  8
AM_0
 10
93.52842750862844
 20
478.78044230028502
 30
0.0
 11
190.40843750862831
 21
478.78044230028502
 31
0.0
  0
LINE
  5
9799
  8
AM_0
 10
93.488447508628425
 20
475.9304723002852
 30
0.0
 11
190.40843750862831
 21
475.9304723002852
 31
0.0
  0
LINE
  5
979A
  8
AM_0
 10
91.73844750862844
 20
446.14043230028511
 30
0.0
 11
159.27842750862831
 21
446.14043230028511
 31
0.0
  0
LINE
  5
979B
  8
AM_0
 10
91.958417508628443
 20
453.02043230028511
 30
0.0
 11
159.29844750862841
 21
453.02043230028511
 31
0.0
  0
LINE
  5
979C
  8
AM_0
 10
77.278427508628454
 20
463.54143230028512
 30
0.0
 11
77.278427508628454
 21
472.40044230028519
 31
0.0
  0
LINE
  5
979D
  8
AM_0
 10
90.278427508628425
 20
467.75047230028531
 30
0.0
 11
91.518417508628474
 21
474.31044230028522
 31
0.0
  0
LINE
  5
979E
  8
AM_0
 10
95.63841750862845
 20
456.30043230028519
 30
0.0
 11
90.278427508628425
 21
467.75041230028529
 31
0.0
  0
POLYLINE
  5
979F
  8
AM_0
 66
     1
 10
0.0
 20
0.0
 30
0.0
  0
VERTEX
  5
97A0
  8
AM_0
 10
94.13932750862844
 20
446.13347230028529
 30
0.0
 42
-0.00068898288
  0
VERTEX
  5
97A1
  8
AM_0
 10
94.210207508628343
 20
446.70822230028529
 30
0.0
 42
-0.00070644354
  0
VERTEX
  5
97A2
  8
AM_0
 10
94.282707508628448
 20
447.2829123002852
 30
0.0
 42
-0.00069248071
  0
VERTEX
  5
97A3
  8
AM_0
 10
94.356797508628404
 20
447.85722230028529
 30
0.0
 42
-0.00069585665
  0
VERTEX
  5
97A4
  8
AM_0
 10
94.432477508628423
 20
448.43136230028529
 30
0.0
 42
-0.00068980191
  0
VERTEX
  5
97A5
  8
AM_0
 10
94.509777508628375
 20
449.0053623002853
 30
0.0
 42
-0.00072080104
  0
VERTEX
  5
97A6
  8
AM_0
 10
94.58866750862849
 20
449.5791523002851
 30
0.0
 42
-0.00071002307
  0
VERTEX
  5
97A7
  8
AM_0
 10
94.669207508628404
 20
450.15262230028497
 30
0.0
 42
-0.00072659056
  0
VERTEX
  5
97A8
  8
AM_0
 10
94.751367508628434
 20
450.7257223002851
 30
0.0
 42
-0.00069570481
  0
VERTEX
  5
97A9
  8
AM_0
 10
94.835187508628394
 20
451.29875230028529
 30
0.0
 42
-0.00071266935
  0
VERTEX
  5
97AA
  8
AM_0
 10
94.920617508628482
 20
451.87152230028511
 30
0.0
 42
-0.00071614426
  0
VERTEX
  5
97AB
  8
AM_0
 10
95.007647508628395
 20
452.4438623002851
 30
0.0
 42
-0.00072288975
  0
VERTEX
  5
97AC
  8
AM_0
 10
95.096357508628373
 20
453.0161623002852
 30
0.0
  0
SEQEND
  5
97AD
  8
AM_0
  0
ARC
  5
97AE
  8
AM_0
 10
92.823047508628477
 20
454.65044230028502
 30
0.0
 40
1.000013899999999
 50
89.691659999999231
 51
270.30834000000078
  0
ARC
  5
97AF
  8
AM_0
 10
91.951037508628389
 20
454.69548230028522
 30
0.0
 40
1.6750160000000001
 50
89.746145000004447
 51
270.25387000000092
  0
LINE
  5
97B0
  8
AM_0
 10
82.978437508628375
 20
462.84038230028528
 30
0.0
 11
89.208417508628443
 21
462.84038230028528
 31
0.0
  0
LINE
  5
97B1
  8
AM_0
 10
70.278427508628454
 20
478.40044230028508
 30
0.0
 11
70.278427508628454
 21
484.65044230028508
 31
0.0
  0
LINE
  5
97B2
  8
AM_0
 10
70.278427508628454
 20
479.65044230028502
 30
0.0
 11
73.278427508628454
 21
479.65044230028502
 31
0.0
  0
LINE
  5
97B3
  8
AM_0
 10
73.278427508628454
 20
479.65044230028502
 30
0.0
 11
73.278427508628454
 21
484.65044230028508
 31
0.0
  0
ARC
  5
97B4
  8
AM_0
 10
93.543017508628424
 20
478.63371230028503
 30
0.0
 40
1.9967330000000001
 50
89.843966999998912
 51
171.45387999999721
  0
LINE
  5
97B5
  8
AM_0
 10
90.278427508628425
 20
470.44045230028502
 30
0.0
 11
91.588427508628428
 21
479.82048230028499
 31
0.0
  0
LINE
  5
97B6
  8
AM_0
 10
82.278427508628454
 20
472.65044230028508
 30
0.0
 11
90.278427508628425
 21
472.65044230028508
 31
0.0
  0
LINE
  5
97B7
  8
AM_0
 10
90.278427508628425
 20
469.09047230028511
 30
0.0
 11
91.558397508628374
 21
477.10042230028529
 31
0.0
  0
LINE
  5
97B8
  8
AM_0
 10
90.278427508628425
 20
470.44045230028502
 30
0.0
 11
91.568407508628368
 21
478.9304123002853
 31
0.0
  0
ARC
  5
97B9
  8
AM_0
 10
93.477157508628423
 20
473.93633230028519
 30
0.0
 40
1.994108999999999
 50
89.675548000002749
 51
169.18776999999869
  0
ARC
  5
97BA
  8
AM_0
 10
93.528677508628405
 20
476.78520230028511
 30
0.0
 40
1.9952829999999979
 50
90.006203999996856
 51
170.90835000000069
  0
ARC
  5
97BB
  8
AM_0
 10
93.564927508628372
 20
479.54485230028519
 30
0.0
 40
1.995633
 50
89.899708000002292
 51
172.06112999999959
  0
ARC
  5
97BC
  8
AM_0
 10
159.27842750862831
 20
452.15044230028508
 30
0.0
 40
1.5
 50
0.0
 51
90.00000299999769
  0
LINE
  5
97BD
  8
AM_0
 10
160.29844750862841
 20
447.15044230028508
 30
0.0
 11
160.29844750862841
 21
452.0104223002852
 31
0.0
  0
ARC
  5
97BE
  8
AM_0
 10
159.29844750862841
 20
452.0104223002852
 30
0.0
 40
1.0
 50
0.0
 51
90.00000299999769
  0
ARC
  5
97BF
  8
AM_0
 10
177.25840750862841
 20
452.0104223002852
 30
0.0
 40
1.0
 50
90.00000299999769
 51
180.00001000000091
  0
ARC
  5
97C0
  8
AM_0
 10
177.2784275086284
 20
452.15044230028508
 30
0.0
 40
1.5
 50
90.00000299999769
 51
180.00001000000091
  0
LINE
  5
97C1
  8
AM_0
 10
160.7784275086284
 20
447.15044230028508
 30
0.0
 11
160.7784275086284
 21
452.15044230028508
 31
0.0
  0
CIRCLE
  5
97C2
  8
AM_0
 10
165.77842750862831
 20
448.15044230028519
 30
0.0
 40
1.149999999999999
  0
CIRCLE
  5
97C3
  8
AM_0
 10
165.77842750862831
 20
448.15044230028519
 30
0.0
 40
1.1000000000000001
  0
LINE
  5
97C4
  8
AM_0
 10
175.77842750862831
 20
447.15044230028508
 30
0.0
 11
175.77842750862831
 21
452.15044230028508
 31
0.0
  0
LINE
  5
97C5
  8
AM_0
 10
176.25840750862841
 20
447.15044230028508
 30
0.0
 11
176.25840750862841
 21
452.0104223002852
 31
0.0
  0
CIRCLE
  5
97C6
  8
AM_0
 10
170.77842750862831
 20
448.15044230028519
 30
0.0
 40
1.0
  0
ARC
  5
97C7
  8
AM_0
 10
190.40360750862831
 20
478.62566230028511
 30
0.0
 40
2.0047290000000002
 50
15.173495999996319
 51
89.861678000000197
  0
ARC
  5
97C8
  8
AM_0
 10
190.40849750862839
 20
473.93218230028498
 30
0.0
 40
1.9982919999999991
 50
15.032547999996
 51
90.002632000001341
  0
ARC
  5
97C9
  8
AM_0
 10
190.40360750862831
 20
476.7756823002851
 30
0.0
 40
2.0047290000000002
 50
15.173495999996319
 51
89.861678000000197
  0
ARC
  5
97CA
  8
AM_0
 10
190.40360750862831
 20
479.53569230028512
 30
0.0
 40
2.0047290000000002
 50
15.173495999996319
 51
89.861678000000197
  0
ARC
  5
97CB
  8
AM_0
 10
195.31840750862841
 20
444.6804723002852
 30
0.0
 40
1.460011199999999
 50
269.77524999999662
 51
90.224749999996845
  0
LINE
  5
97CC
  8
AM_0
 10
198.2784275086284
 20
475.65044230028502
 30
0.0
 11
198.2784275086284
 21
363.65044230028531
 31
0.0
  0
LINE
  5
97CD
  8
AM_0
 10
198.2784275086284
 20
363.65044230028531
 30
0.0
 11
206.2784275086284
 21
363.65044230028531
 31
0.0
  0
LINE
  5
97CE
  8
AM_0
 10
192.82047750862839
 20
366.65044230028519
 30
0.0
 11
198.2784275086284
 21
366.65044230028519
 31
0.0
  0
LINE
  5
97CF
  8
AM_0
 10
198.2784275086284
 20
373.65044230028519
 30
0.0
 11
206.2784275086284
 21
373.65044230028519
 31
0.0
  0
LINE
  5
97D0
  8
AM_0
 10
198.2784275086284
 20
387.71050230028533
 30
0.0
 11
206.2784275086284
 21
387.71050230028533
 31
0.0
  0
ARC
  5
97D1
  8
AM_0
 10
195.09843750862831
 20
384.60539230028542
 30
0.0
 40
1.6750020000000001
 50
269.999989999999
 51
90.00000299999769
  0
ARC
  5
97D2
  8
AM_0
 10
197.9316275086284
 20
379.92766230028519
 30
0.0
 40
1.502775999999999
 50
90.122413000001615
 51
165.2435700000006
  0
ARC
  5
97D3
  8
AM_0
 10
195.31840750862841
 20
394.6204123002853
 30
0.0
 40
1.460011199999999
 50
269.77524999999662
 51
90.224749999996845
  0
LINE
  5
97D4
  8
AM_0
 10
198.2784275086284
 20
451.59038230028528
 30
0.0
 11
206.2784275086284
 21
451.59038230028528
 31
0.0
  0
ARC
  5
97D5
  8
AM_0
 10
195.09843750862831
 20
454.69548230028522
 30
0.0
 40
1.6750020000000001
 50
269.999989999999
 51
90.00000299999769
  0
LINE
  5
97D6
  8
AM_0
 10
198.2784275086284
 20
465.65044230028519
 30
0.0
 11
206.2784275086284
 21
465.65044230028519
 31
0.0
  0
ARC
  5
97D7
  8
AM_0
 10
197.9316275086284
 20
464.07317230028502
 30
0.0
 40
1.502775999999999
 50
194.7564299999992
 51
269.8775799999986
  0
ARC
  5
97D8
  8
AM_0
 10
197.9316275086284
 20
459.37322230028508
 30
0.0
 40
1.502775999999999
 50
194.7564299999992
 51
269.8775799999986
  0
ARC
  5
97D9
  8
AM_0
 10
197.9316275086284
 20
462.22319230028529
 30
0.0
 40
1.502775999999999
 50
194.7564299999992
 51
269.8775799999986
  0
ARC
  5
97DA
  8
AM_0
 10
197.9316275086284
 20
464.9832023002852
 30
0.0
 40
1.502775999999999
 50
194.7564299999992
 51
269.8775799999986
  0
LINE
  5
97DB
  8
AM_0
 10
198.2784275086284
 20
475.65044230028502
 30
0.0
 11
206.2784275086284
 21
475.65044230028502
 31
0.0
  0
LINE
  5
97DC
  8
AM_0
 10
192.81840750862841
 20
472.65044230028508
 30
0.0
 11
198.2784275086284
 21
472.65044230028508
 31
0.0
  0
TEXT
  5
9DB7
  8
0
  6
CONTINUOUS
 62
     0
 10
552.58056571091674
 20
376.57307951960638
 30
0.0
 40
15.0
  1
VX01-800B~VX01-K20B
  0
VIEWPORT
  5
89
 67
     1
  8
0
 10
210.0
 20
148.5
 30
0.0
 40
420.0
 41
297.0
 68
    -1
 69
     1
1001
ACAD
1000
MVIEW
1002
{
1070
    16
1010
0.0
1020
0.0
1030
0.0
1010
0.0
1020
0.0
1030
1.0
1040
0.0
1040
297.0
1040
221.70154043645701
1040
148.5
1040
50.0
1040
0.0
1040
0.0
1070
     0
1070
   100
1070
     1
1070
     1
1070
     0
1070
     0
1070
     0
1070
     0
1040
0.0
1040
0.0
1040
0.0
1040
10.0
1040
10.0
1040
10.0
1040
10.0
1070
     0
1002
{
1002
}
1002
}
1001
GENIUS_GENOREF_13
1005
1B94
1001
GENIUS_GENSCREG_15
1000
PF
1040
1.0
1000
DF
1040
1.0
1000
MIN
1011
0.0
1021
0.0
1031
0.0
1021
0.0
1031
0.0
1000
MAX
1011
420.0
1021
0.0
1031
0.0
1021
297.0
1031
0.0
1000
FLAGS
1070
     4
  0
ENDSEC
  0
EOF
