  0
SECTION
  2
HEADER
  9
$ACADVER
  1
AC1009
  9
$INSBASE
 10
0.0
 20
0.0
 30
0.0
  9
$EXTMIN
 10
22.796761018415062
 20
41.844642330546208
 30
-0.0000000349181948
  9
$EXTMAX
 10
581.75235700571739
 20
438.54228084502512
 30
0.0000000814935747
  9
$LIMMIN
 10
0.0
 20
0.0
  9
$LIMMAX
 10
408.0
 20
284.0
  9
$ORTHOMODE
 70
     0
  9
$REGENMODE
 70
     1
  9
$FILLMODE
 70
     1
  9
$QTEXTMODE
 70
     0
  9
$MIRRTEXT
 70
     1
  9
$DRAGMODE
 70
     2
  9
$LTSCALE
 40
1.0
  9
$OSMODE
 70
   551
  9
$ATTMODE
 70
     1
  9
$TEXTSIZE
 40
2.5
  9
$TRACEWID
 40
1.0
  9
$TEXTSTYLE
  7
STANDARD
  9
$CLAYER
  8
AM_0
  9
$CELTYPE
  6
BYLAYER
  9
$CECOLOR
 62
   256
  9
$DIMSCALE
 40
1.0
  9
$DIMASZ
 40
2.5
  9
$DIMEXO
 40
1.0
  9
$DIMDLI
 40
7.0
  9
$DIMRND
 40
0.0
  9
$DIMDLE
 40
0.0
  9
$DIMEXE
 40
1.0
  9
$DIMTP
 40
0.1
  9
$DIMTM
 40
0.1000000001
  9
$DIMTXT
 40
2.5
  9
$DIMCEN
 40
0.0
  9
$DIMTSZ
 40
0.0
  9
$DIMTOL
 70
     0
  9
$DIMLIM
 70
     0
  9
$DIMTIH
 70
     0
  9
$DIMTOH
 70
     0
  9
$DIMSE1
 70
     0
  9
$DIMSE2
 70
     0
  9
$DIMTAD
 70
     3
  9
$DIMZIN
 70
     8
  9
$DIMBLK
  1

  9
$DIMASO
 70
     1
  9
$DIMSHO
 70
     1
  9
$DIMPOST
  1

  9
$DIMAPOST
  1
"
  9
$DIMALT
 70
     0
  9
$DIMALTD
 70
     2
  9
$DIMALTF
 40
0.0393701
  9
$DIMLFAC
 40
1.0
  9
$DIMTOFL
 70
     1
  9
$DIMTVP
 40
0.0
  9
$DIMTIX
 70
     0
  9
$DIMSOXD
 70
     0
  9
$DIMSAH
 70
     0
  9
$DIMBLK1
  1

  9
$DIMBLK2
  1

  9
$DIMSTYLE
  2
AM_JIS
  9
$DIMCLRD
 70
   256
  9
$DIMCLRE
 70
   256
  9
$DIMCLRT
 70
     4
  9
$DIMTFAC
 40
0.71
  9
$DIMGAP
 40
1.0
  9
$LUNITS
 70
     2
  9
$LUPREC
 70
     2
  9
$SKETCHINC
 40
1.0
  9
$FILLETRAD
 40
2.5
  9
$AUNITS
 70
     0
  9
$AUPREC
 70
     3
  9
$MENU
  1
.
  9
$ELEVATION
 40
0.0
  9
$PELEVATION
 40
0.0
  9
$THICKNESS
 40
0.0
  9
$LIMCHECK
 70
     0
  9
$BLIPMODE
 70
     0
  9
$CHAMFERA
 40
2.5
  9
$CHAMFERB
 40
2.5
  9
$SKPOLY
 70
     0
  9
$TDCREATE
 40
2453061.5427553472
  9
$TDUPDATE
 40
2458540.7010465399
  9
$TDINDWG
 40
0.1248540509
  9
$TDUSRTIMER
 40
0.1248538194
  9
$USRTIMER
 70
     1
  9
$ANGBASE
 50
0.0
  9
$ANGDIR
 70
     0
  9
$PDMODE
 70
     0
  9
$PDSIZE
 40
0.0
  9
$PLINEWID
 40
0.0
  9
$COORDS
 70
     1
  9
$SPLFRAME
 70
     0
  9
$SPLINETYPE
 70
     6
  9
$SPLINESEGS
 70
     8
  9
$ATTDIA
 70
     1
  9
$ATTREQ
 70
     1
  9
$HANDLING
 70
     1
  9
$HANDSEED
  5
B415
  9
$SURFTAB1
 70
     6
  9
$SURFTAB2
 70
     6
  9
$SURFTYPE
 70
     6
  9
$SURFU
 70
     6
  9
$SURFV
 70
     6
  9
$UCSNAME
  2

  9
$UCSORG
 10
0.0
 20
0.0
 30
0.0
  9
$UCSXDIR
 10
1.0
 20
0.0
 30
0.0
  9
$UCSYDIR
 10
0.0
 20
1.0
 30
0.0
  9
$PUCSNAME
  2

  9
$PUCSORG
 10
0.0
 20
0.0
 30
0.0
  9
$PUCSXDIR
 10
1.0
 20
0.0
 30
0.0
  9
$PUCSYDIR
 10
0.0
 20
1.0
 30
0.0
  9
$USERI1
 70
     0
  9
$USERI2
 70
     0
  9
$USERI3
 70
     0
  9
$USERI4
 70
     0
  9
$USERI5
 70
     0
  9
$USERR1
 40
0.0
  9
$USERR2
 40
0.0
  9
$USERR3
 40
0.0
  9
$USERR4
 40
0.0
  9
$USERR5
 40
0.0
  9
$WORLDVIEW
 70
     1
  9
$SHADEDGE
 70
     3
  9
$SHADEDIF
 70
    70
  9
$TILEMODE
 70
     1
  9
$MAXACTVP
 70
    48
  9
$PLIMCHECK
 70
     0
  9
$PEXTMIN
 10
1.0000000000000000E+020
 20
1.0000000000000000E+020
 30
1.0000000000000000E+020
  9
$PEXTMAX
 10
-1.0000000000000000E+020
 20
-1.0000000000000000E+020
 30
-1.0000000000000000E+020
  9
$PLIMMIN
 10
0.0
 20
0.0
  9
$PLIMMAX
 10
420.0
 20
297.0
  9
$UNITMODE
 70
     0
  9
$VISRETAIN
 70
     1
  9
$PLINEGEN
 70
     0
  9
$PSLTSCALE
 70
     1
  0
ENDSEC
  0
SECTION
  2
TABLES
  0
TABLE
  2
VPORT
 70
     1
  0
VPORT
  2
*ACTIVE
 70
     0
 10
0.0
 20
0.0
 11
1.0
 21
1.0
 12
302.27455901206622
 22
240.19346158778569
 13
0.0
 23
0.0
 14
1.0
 24
1.0
 15
10.0
 25
10.0
 16
0.0
 26
0.0
 36
1.0
 17
0.0
 27
0.0
 37
0.0
 40
399.42096326400639
 41
1.7571592210767459
 42
50.0
 43
0.0
 44
0.0
 50
0.0
 51
0.0
 71
     0
 72
   100
 73
     1
 74
     1
 75
     0
 76
     0
 77
     0
 78
     0
  0
ENDTAB
  0
TABLE
  2
LTYPE
 70
    26
  0
LTYPE
  2
CONTINUOUS
 70
     0
  3
Solid line
 72
    65
 73
     0
 40
0.0
  0
LTYPE
  2
PHANTOM2
 70
     0
  3
Phantom (.5x) ___ _ _ ___ _ _ ___ _ _ ___ _ _
 72
    65
 73
     6
 40
31.75
 49
15.875
 49
-3.174999999999998
 49
3.174999999999998
 49
-3.174999999999998
 49
3.174999999999998
 49
-3.174999999999998
  0
LTYPE
  2
CENTER
 70
     0
  3
Center ____ _ ____ _ ____ _ ____ _ ____ _ ____
 72
    65
 73
     4
 40
50.799999999999997
 49
31.75
 49
-6.349999999999997
 49
6.349999999999997
 49
-6.349999999999997
  0
LTYPE
  2
ACANSTGBM
 70
     0
  3
__ . . __ . .
 72
    65
 73
     6
 40
9.0
 49
4.0
 49
-1.0
 49
1.0
 49
-1.0
 49
1.0
 49
-1.0
  0
LTYPE
  2
ACANSTGLM
 70
     0
  3
_ _ _ _ _
 72
    65
 73
     2
 40
3.0
 49
2.0
 49
-1.0
  0
LTYPE
  2
GEN7
 70
     0
  3
____ . ____ . ____ . ____ . ____ . ____ . ____
 72
    65
 73
     4
 40
14.25
 49
9.75
 49
-1.5
 49
1.5
 49
-1.5
  0
LTYPE
  2
GEN3B
 70
     0
  3
 - - - - -
 72
    65
 73
     2
 40
1.0
 49
0.5
 49
-0.5
  0
LTYPE
  2
AM_ISO02W050
 70
     0
  3
__ __ __ __ __ __ __ __ __ __ __ __ __ __ __
 72
    65
 73
     2
 40
7.5
 49
6.0
 49
-1.5
  0
LTYPE
  2
AM_ISO08W050
 70
     0
  3
____ . ____ . ____ . ____ . ____ . ____ . ____
 72
    65
 73
     4
 40
18.0
 49
12.0
 49
-1.5
 49
3.0
 49
-1.5
  0
LTYPE
  2
AM_ISO09W050
 70
     0
  3
_____ . . _____ . . _____ . . ____ .. ____
 72
    65
 73
     6
 40
22.5
 49
12.0
 49
-1.5
 49
3.0
 49
-1.5
 49
3.0
 49
-1.5
  0
LTYPE
  2
AMCONSTR
 70
     0
  3
_______________________
 72
    65
 73
     2
 40
9999.0
 49
9999.0
 49
0.0
  0
LTYPE
  2
AM_ISO02W050X2
 70
     0
  3
 _ _ _ _ _ _ _ _ _ _ _ _
 72
    65
 73
     2
 40
3.75
 49
3.0
 49
-0.75
  0
LTYPE
  2
AM_ISO08W050X2
 70
     0
  3
__ . __ . __ . __ . __ . __
 72
    65
 73
     4
 40
9.0
 49
6.0
 49
-0.75
 49
1.5
 49
-0.75
  0
LTYPE
  2
AMZIGZAG
 70
     0
  3
/\/-/\/-/\/-/\/-/\/-/\/
 72
    65
 73
     2
 40
11.000099999999991
 49
0.0001
 49
-11.0
  0
LTYPE
  2
ACJISTGB
 70
     0
  3
__ . . __ . .
 72
    65
 73
     6
 40
9.0
 49
4.0
 49
-1.0
 49
1.0
 49
-1.0
 49
1.0
 49
-1.0
  0
LTYPE
  2
ACJISTGL
 70
     0
  3
_ _ _ _ _
 72
    65
 73
     2
 40
3.0
 49
2.0
 49
-1.0
  0
LTYPE
  2
ACISOWELD
 70
     0
  3
_ _ _ _ _
 72
    65
 73
     2
 40
2.0
 49
2.0
 49
-1.0
  0
LTYPE
  2
ACISOTGB
 70
     0
  3
__ . . __ . .
 72
    65
 73
     6
 40
9.0
 49
4.0
 49
-1.0
 49
1.0
 49
-1.0
 49
1.0
 49
-1.0
  0
LTYPE
  2
ACISOTGL
 70
     0
  3
_ _ _ _ _
 72
    65
 73
     2
 40
3.0
 49
2.0
 49
-1.0
  0
LTYPE
  2
HIDDEN
 70
     0
  3
Hidden __ __ __ __ __ __ __ __ __ __ __ __ __ _
 72
    65
 73
     2
 40
0.375
 49
0.25
 49
-0.125
  0
LTYPE
  2
CENTER2
 70
     0
  3
Center (.5x) ___ _ ___ _ ___ _ ___ _ ___ _ ___
 72
    65
 73
     4
 40
1.125
 49
0.75
 49
-0.125
 49
0.125
 49
-0.125
  0
LTYPE
  2
HIDDEN2
 70
     0
  3
Hidden (.5x) _ _ _ _ _ _ _ _ _ _ _ _ _ _ _ _ _
 72
    65
 73
     2
 40
0.1875
 49
0.125
 49
-0.0625
  0
LTYPE
  2
AMZIGZAG2
 70
     0
  3
/\/-/\/-/\/-/\/-/\/-/\/
 72
    65
 73
     2
 40
0.4401
 49
0.0001
 49
-0.4400000000000002
  0
LTYPE
  2
ACANSTGB
 70
     0
  3
__ . . __ . .
 72
    65
 73
     6
 40
0.35433070866
 49
0.15748031496
 49
-0.03937007874
 49
0.03937007874
 49
-0.03937007874
 49
0.03937007874
 49
-0.03937007874
  0
LTYPE
  2
ACANSTGL
 70
     0
  3
_ _ _ _ _
 72
    65
 73
     2
 40
0.11811023622
 49
0.07874015748
 49
-0.03937007874
  0
ENDTAB
  0
TABLE
  2
LAYER
 70
     7
  0
LAYER
  2
0
 70
     0
 62
     7
  6
CONTINUOUS
  0
LAYER
  2
AM_0
 70
     0
 62
     7
  6
CONTINUOUS
  0
LAYER
  2
DEFPOINTS
 70
     0
 62
     7
  6
CONTINUOUS
  0
LAYER
  2
ｶｸﾚｾﾝ2
 70
     0
 62
     3
  6
GEN3B
  0
LAYER
  2
ﾁｭｳｼﾝｾﾝ
 70
     0
 62
     1
  6
GEN7
  0
LAYER
  2
AM_0N
 70
     0
 62
     7
  6
CONTINUOUS
  0
LAYER
  2
AM_5
 70
     0
 62
     2
  6
CONTINUOUS
  0
ENDTAB
  0
TABLE
  2
STYLE
 70
    10
  0
STYLE
  2
STANDARD
 70
     0
 40
0.0
 41
0.8299999999999999
 50
0.0
 71
     0
 42
2.5
  3
txt.shx
  4
bigfont.shx
  0
STYLE
  2
ANNOTATIVE
 70
     0
 40
0.0
 41
1.0
 50
0.0
 71
     0
 42
0.2
  3
txt
  4

  0
STYLE
  2
ACANSTS
 70
     0
 40
1.0
 41
1.0
 50
0.0
 71
     0
 42
2.5
  3
romans.shx
  4
bigfont.shx
  0
STYLE
  2
ACANSGDT
 70
     0
 40
0.0
 41
1.0
 50
0.0
 71
     0
 42
2.5
  3
amgdt.shx
  4

  0
STYLE
  2

 70
     1
 40
0.0
 41
1.0
 50
0.0
 71
     0
 42
2.5
  3
ltypeshp.shx
  4

  0
STYLE
  2
ACJISTS
 70
     0
 40
1.0
 41
0.8299999999999999
 50
0.0
 71
     0
 42
2.5
  3
txt.shx
  4
bigfont.shx
  0
STYLE
  2
ACJISGDT
 70
     0
 40
0.0
 41
1.0
 50
0.0
 71
     0
 42
2.5
  3
amgdt.shx
  4

  0
STYLE
  2
ACISOTS
 70
     0
 40
1.0
 41
1.0
 50
0.0
 71
     0
 42
2.5
  3
isocp.shx
  4
extfont.shx
  0
STYLE
  2
ACISOGDT
 70
     0
 40
0.0
 41
1.0
 50
0.0
 71
     0
 42
2.5
  3
amgdt.shx
  4

  0
STYLE
  2

 70
     1
 40
0.0
 41
1.0
 50
0.0
 71
     0
 42
2.5
  3
genltshp.shx
  4

  0
ENDTAB
  0
TABLE
  2
VIEW
 70
    12
  0
VIEW
  2
GEN1
 70
     0
 40
95.824742268041234
 10
71.5
 20
137.08762886597941
 41
143.0
 11
0.0
 21
0.0
 31
1.0
 12
0.0
 22
0.0
 32
0.0
 42
50.0
 43
0.0
 44
0.0
 50
0.0
 71
     0
  0
VIEW
  2
GEN2
 70
     0
 40
95.824742268041234
 10
214.5
 20
137.08762886597941
 41
143.0
 11
0.0
 21
0.0
 31
1.0
 12
0.0
 22
0.0
 32
0.0
 42
50.0
 43
0.0
 44
0.0
 50
0.0
 71
     0
  0
VIEW
  2
GEN3
 70
     0
 40
95.824742268041234
 10
71.5
 20
47.912371134020603
 41
143.0
 11
0.0
 21
0.0
 31
1.0
 12
0.0
 22
0.0
 32
0.0
 42
50.0
 43
0.0
 44
0.0
 50
0.0
 71
     0
  0
VIEW
  2
GEN4
 70
     0
 40
95.824742268041234
 10
214.5
 20
47.912371134020603
 41
143.0
 11
0.0
 21
0.0
 31
1.0
 12
0.0
 22
0.0
 32
0.0
 42
50.0
 43
0.0
 44
0.0
 50
0.0
 71
     0
  0
VIEW
  2
GEN5
 70
     0
 40
95.824742268041234
 10
143.0
 20
92.500000000000057
 41
143.0
 11
0.0
 21
0.0
 31
1.0
 12
0.0
 22
0.0
 32
0.0
 42
50.0
 43
0.0
 44
0.0
 50
0.0
 71
     0
  0
VIEW
  2
GEN6
 70
     0
 40
191.64756804123709
 10
143.0
 20
92.5
 41
285.99713999999989
 11
0.0
 21
0.0
 31
1.0
 12
0.0
 22
0.0
 32
0.0
 42
50.0
 43
0.0
 44
0.0
 50
0.0
 71
     0
  0
VIEW
  2
AM_VIEW1
 70
     0
 40
142.0
 10
119.7777777777777
 20
213.0
 41
239.55555555555549
 11
0.0
 21
0.0
 31
1.0
 12
0.0
 22
0.0
 32
0.0
 42
50.0
 43
0.0
 44
0.0
 50
0.0
 71
     0
  0
VIEW
  2
AM_VIEW2
 70
     0
 40
142.0
 10
288.22222222222211
 20
213.0
 41
239.55555555555549
 11
0.0
 21
0.0
 31
1.0
 12
0.0
 22
0.0
 32
0.0
 42
50.0
 43
0.0
 44
0.0
 50
0.0
 71
     0
  0
VIEW
  2
AM_VIEW3
 70
     0
 40
142.0
 10
119.7777777777777
 20
71.0
 41
239.55555555555549
 11
0.0
 21
0.0
 31
1.0
 12
0.0
 22
0.0
 32
0.0
 42
50.0
 43
0.0
 44
0.0
 50
0.0
 71
     0
  0
VIEW
  2
AM_VIEW4
 70
     0
 40
142.0
 10
288.22222222222211
 20
71.0
 41
239.55555555555549
 11
0.0
 21
0.0
 31
1.0
 12
0.0
 22
0.0
 32
0.0
 42
50.0
 43
0.0
 44
0.0
 50
0.0
 71
     0
  0
VIEW
  2
AM_VIEW5
 70
     0
 40
142.0
 10
204.0
 20
142.0
 41
239.55555555555549
 11
0.0
 21
0.0
 31
1.0
 12
0.0
 22
0.0
 32
0.0
 42
50.0
 43
0.0
 44
0.0
 50
0.0
 71
     0
  0
VIEW
  2
AM_VIEW6
 70
     0
 40
283.99716000000001
 10
204.0
 20
142.0
 41
479.10631999999993
 11
0.0
 21
0.0
 31
1.0
 12
0.0
 22
0.0
 32
0.0
 42
50.0
 43
0.0
 44
0.0
 50
0.0
 71
     0
  0
ENDTAB
  0
TABLE
  2
UCS
 70
     0
  0
ENDTAB
  0
TABLE
  2
APPID
 70
   106
  0
APPID
  2
ACAD
 70
     0
  0
APPID
  2
ACADANNOTATIVE
 70
     0
  0
APPID
  2
MCAD_NO_VIS
 70
     0
  0
APPID
  2
ACAD_TEMP_GRAPHIC
 70
     0
  0
APPID
  2
AD_DRAW
 70
     0
  0
APPID
  2
DESIGNERASSEMBLIES
 70
     0
  0
APPID
  2
ASURF_PCURVE_APPNAME
 70
     0
  0
APPID
  2
GENIUS_GE3SECT_13
 70
     0
  0
APPID
  2
GENIUS_GENCFG_13
 70
     0
  0
APPID
  2
GENIUS_GE3CFG0_13
 70
     0
  0
APPID
  2
GENIUS_GENCFG0_13
 70
     0
  0
APPID
  2
GENIUS_GENCFG1_13
 70
     0
  0
APPID
  2
GENIUS_GENCFG2_13
 70
     0
  0
APPID
  2
GENIUS_GENCFG3_13
 70
     0
  0
APPID
  2
GENIUS_GENCFG4_13
 70
     0
  0
APPID
  2
GENIUS_GEVCFG0_13
 70
     0
  0
APPID
  2
GENIUS_GENOENT_13
 70
     0
  0
APPID
  2
GENIUS_GENREC_14
 70
     0
  0
APPID
  2
GENIUS_GENODEF_13
 70
     0
  0
APPID
  2
GENIUS_GENOBJ-N-REC_13
 70
     0
  0
APPID
  2
GENIUS_GENHINW_13
 70
     0
  0
APPID
  2
GENIUS_FIRSTVISTXT_14
 70
     0
  0
APPID
  2
GENIUS_GENOBJ-N-LEADER_13
 70
     0
  0
APPID
  2
GENIUS_GENOREF_13
 70
     0
  0
APPID
  2
GENIUS_GENOLIS_13
 70
     0
  0
APPID
  2
GEV_VCCNULL_SWITCH_OFF
 70
     0
  0
APPID
  2
GENIUS_GENDTOL_13
 70
     0
  0
APPID
  2
GENIUS_GEFCFG0_13
 70
     0
  0
APPID
  2
GENIUS_GENOBJ-N-TIT_13
 70
     0
  0
APPID
  2
GENIUS_GENTITLE_13
 70
     0
  0
APPID
  2
GENIUS_GENZVEED_13
 70
     0
  0
APPID
  2
GENIUS_GENOBJ-N-SDF_13
 70
     0
  0
APPID
  2
GENIUS_GENSCREG_13
 70
     0
  0
APPID
  2
GENIUS_DUMCFG0_13
 70
     0
  0
APPID
  2
GEVID936201362
 70
     0
  0
APPID
  2
GEVDC
 70
     0
  0
APPID
  2
GEVCON
 70
     0
  0
APPID
  2
VCC
 70
     0
  0
APPID
  2
GEVPT
 70
     0
  0
APPID
  2
GEVIT
 70
     0
  0
APPID
  2
GENBH
 70
     0
  0
APPID
  2
GEVMK
 70
     0
  0
APPID
  2
GENIUS_GENBH_13
 70
     0
  0
APPID
  2
GENIUS_GENOBJ-NBEHI-BHF_13
 70
     0
  0
APPID
  2
GENIUS_GENOBJ-NBEHI-BHB_13
 70
     0
  0
APPID
  2
GENIUS_GENOBJ-F-DESC_13
 70
     0
  0
APPID
  2
GENIUS_GEFDESC_14
 70
     0
  0
APPID
  2
GENIUS_GENOBJ-F-PART_13
 70
     0
  0
APPID
  2
GENIUS_GEFSTDP_13
 70
     0
  0
APPID
  2
GENIUS_GEFPARTINS_13
 70
     0
  0
APPID
  2
GENIUS_GENTRA_14
 70
     0
  0
APPID
  2
GENIUS_GENINF13_13
 70
     0
  0
APPID
  2
GENIUS_GENOBJ-N-INFOPT_13
 70
     0
  0
APPID
  2
GENIUS_GENOBJ-N-RSSYM_13
 70
     0
  0
APPID
  2
GENIUS_GENSYMENT_13
 70
     0
  0
APPID
  2
GENIUS_GENSCSYM_13
 70
     0
  0
APPID
  2
GENIUS_GEFINFNAM_13
 70
     0
  0
APPID
  2
GENIUS_GENSCREG_15
 70
     0
  0
APPID
  2
GENIUS_GENOBJ-N-CEN_13
 70
     0
  0
APPID
  2
GENIUS_GENOBJ-N-CRS_13
 70
     0
  0
APPID
  2
GENIUS_GENOBJ-N-CRC_13
 70
     0
  0
APPID
  2
GENIUS_GENCRC_14
 70
     0
  0
APPID
  2
GEVID942827039
 70
     0
  0
APPID
  2
GEVID942827040
 70
     0
  0
APPID
  2
GEVID942827041
 70
     0
  0
APPID
  2
GENIUS_GENOBJ-F-SCPASSM_13
 70
     0
  0
APPID
  2
GENIUS_GENDIMSH_14
 70
     0
  0
APPID
  2
GENIUS_GENFIL_13
 70
     0
  0
APPID
  2
GENIUS_GENOBJ-N-CHA_13
 70
     0
  0
APPID
  2
GENIUS_GENOBJ-N-FIL_13
 70
     0
  0
APPID
  2
GEVID942827042
 70
     0
  0
APPID
  2
GEVID946020473
 70
     0
  0
APPID
  2
GEVID946020474
 70
     0
  0
APPID
  2
GEVID946020475
 70
     0
  0
APPID
  2
GENIUS_GENOBJ-N-HTC_13
 70
     0
  0
APPID
  2
GENIUS_GENHATCH_13
 70
     0
  0
APPID
  2
GEVID948854295
 70
     0
  0
APPID
  2
GEVID939402019
 70
     0
  0
APPID
  2
GEVID952919491
 70
     0
  0
APPID
  2
GEVID952919492
 70
     0
  0
APPID
  2
GENIUS_GEFWELD_13
 70
     0
  0
APPID
  2
GENIUS_GENOBJ-F-WELS_13
 70
     0
  0
APPID
  2
GEVID952919493
 70
     0
  0
APPID
  2
GENIUS_GENOBJ-N-RSBK_13
 70
     0
  0
APPID
  2
GENIUS_GENOBJ-N-LIB_13
 70
     0
  0
APPID
  2
GENIUS_GENSCALE_13
 70
     0
  0
APPID
  2
GEVID986376691
 70
     0
  0
APPID
  2
ACATTRIBSERVICES
 70
     0
  0
APPID
  2
ACADM_DIM_EDIT
 70
     0
  0
APPID
  2
AMDT_DM_ADJ
 70
     0
  0
APPID
  2
GEVID1057795304
 70
     0
  0
APPID
  2
GENIUS_GEFSH_13
 70
     0
  0
APPID
  2
GENIUS_GENOBJ-F-SHS_13
 70
     0
  0
APPID
  2
GENIUS_GENOBJ-N-ADDLEAD_13
 70
     0
  0
APPID
  2
GENIUS_GENMAINADDLEADER_14
 70
     0
  0
APPID
  2
GENIUS_GENADDLEADER_14
 70
     0
  0
APPID
  2
GENIUS_GENDREL_13
 70
     0
  0
APPID
  2
GEVID1121934822
 70
     0
  0
APPID
  2
GEVID1121934823
 70
     0
  0
APPID
  2
GEVID1121934824
 70
     0
  0
APPID
  2
ACAD_DSTYLE_DIMJAG
 70
     0
  0
APPID
  2
ACAD_DSTYLE_DIMBREAK
 70
     0
  0
APPID
  2
ACAD_NAV_VCDISPLAY
 70
     0
  0
APPID
  2
ACADANNOPO
 70
     0
  0
APPID
  2
ACAD_EXEMPT_FROM_CAD_STANDARDS
 70
     0
  0
APPID
  2
ACAD_MLEADERVER
 70
     0
  0
ENDTAB
  0
TABLE
  2
DIMSTYLE
 70
    29
  0
DIMSTYLE
  2
STANDARD
 70
     0
  3

  4

  5

  6

  7

 40
1.0
 41
0.18
 42
0.0625
 43
0.38
 44
0.18
 45
0.0
 46
0.0
 47
0.0
 48
0.0
140
0.18
141
0.09
142
0.0
143
25.399999999999999
144
1.0
145
0.0
146
1.0
147
0.09
 71
     0
 72
     0
 73
     1
 74
     1
 75
     0
 76
     0
 77
     0
 78
     0
170
     0
171
     2
172
     0
173
     0
174
     0
175
     0
176
     0
177
     0
178
     0
  0
DIMSTYLE
  2
ANNOTATIVE
 70
     0
  3

  4

  5

  6

  7

 40
1.0
 41
0.18
 42
0.0625
 43
0.38
 44
0.18
 45
0.0
 46
0.0
 47
0.0
 48
0.0
140
0.18
141
0.09
142
0.0
143
25.399999999999999
144
1.0
145
0.0
146
1.0
147
0.09
 71
     0
 72
     0
 73
     1
 74
     1
 75
     0
 76
     0
 77
     0
 78
     0
170
     0
171
     2
172
     0
173
     0
174
     0
175
     0
176
     0
177
     0
178
     0
  0
DIMSTYLE
  2
AM_JIS
 70
     0
  3

  4
"
  5

  6

  7

 40
1.0
 41
2.0
 42
1.0
 43
8.0
 44
1.0
 45
0.0
 46
0.0
 47
0.1
 48
0.1
140
2.5
141
0.0
142
0.0
143
0.0393701
144
1.0
145
0.0
146
0.71
147
1.5
 71
     0
 72
     0
 73
     0
 74
     0
 75
     0
 76
     0
 77
     3
 78
     8
170
     0
171
     2
172
     1
173
     0
174
     0
175
     0
176
   256
177
   256
178
     4
  0
DIMSTYLE
  2
AM_JIS$3
 70
     0
  3

  4
"
  5

  6

  7

 40
1.0
 41
2.0
 42
1.0
 43
10.0
 44
1.0
 45
0.0
 46
0.0
 47
0.1
 48
0.1
140
2.5
141
0.0
142
0.0
143
0.0393701
144
1.0
145
0.0
146
0.71
147
1.5
 71
     0
 72
     0
 73
     0
 74
     1
 75
     0
 76
     0
 77
     3
 78
     8
170
     0
171
     2
172
     0
173
     0
174
     0
175
     0
176
   256
177
   256
178
     4
  0
DIMSTYLE
  2
AM_JIS$4
 70
     0
  3

  4
"
  5

  6

  7

 40
1.0
 41
2.0
 42
1.0
 43
10.0
 44
1.0
 45
0.0
 46
0.0
 47
0.1
 48
0.1
140
2.5
141
0.0
142
0.0
143
0.0393701
144
1.0
145
0.0
146
0.71
147
1.5
 71
     0
 72
     0
 73
     0
 74
     0
 75
     0
 76
     0
 77
     3
 78
     8
170
     0
171
     2
172
     0
173
     0
174
     0
175
     0
176
   256
177
   256
178
     4
  0
DIMSTYLE
  2
AM_JIS$6
 70
     0
  3

  4
"
  5

  6

  7

 40
1.0
 41
2.0
 42
1.0
 43
10.0
 44
1.0
 45
0.0
 46
0.0
 47
0.1
 48
0.1
140
2.5
141
0.0
142
0.0
143
0.0393701
144
1.0
145
0.0
146
0.71
147
1.5
 71
     0
 72
     0
 73
     0
 74
     0
 75
     0
 76
     0
 77
     0
 78
     8
170
     0
171
     2
172
     1
173
     0
174
     0
175
     0
176
   256
177
   256
178
     4
  0
DIMSTYLE
  2
AM_JIS$7
 70
     0
  3

  4
"
  5

  6

  7

 40
1.0
 41
2.0
 42
1.0
 43
10.0
 44
1.0
 45
0.0
 46
0.0
 47
0.1
 48
0.1
140
2.5
141
0.0
142
0.0
143
0.0393701
144
1.0
145
0.0
146
0.71
147
1.5
 71
     0
 72
     0
 73
     0
 74
     0
 75
     0
 76
     0
 77
     3
 78
     8
170
     0
171
     2
172
     1
173
     0
174
     0
175
     0
176
   256
177
   256
178
     4
  0
DIMSTYLE
  2
AM_JIS$SF
 70
     0
  3

  4
"
  5

  6

  7

 40
1.0
 41
2.0
 42
1.0
 43
10.0
 44
1.0
 45
0.0
 46
0.0
 47
0.1
 48
0.1
140
2.5
141
0.0
142
0.0
143
0.0393701
144
1.0
145
0.0
146
0.71
147
1.5
 71
     0
 72
     0
 73
     0
 74
     0
 75
     1
 76
     1
 77
     3
 78
     8
170
     0
171
     2
172
     1
173
     0
174
     0
175
     0
176
   256
177
   256
178
     4
  0
DIMSTYLE
  2
AM_JIS$SH
 70
     0
  3

  4
"
  5

  6

  7

 40
1.0
 41
2.0
 42
1.0
 43
10.0
 44
1.0
 45
0.0
 46
0.0
 47
0.1
 48
0.1
140
2.5
141
0.0
142
0.0
143
0.0393701
144
2.0
145
0.0
146
0.71
147
1.5
 71
     0
 72
     0
 73
     0
 74
     0
 75
     1
 76
     1
 77
     3
 78
     8
170
     0
171
     2
172
     1
173
     1
174
     0
175
     0
176
   256
177
   256
178
     4
  0
DIMSTYLE
  2
AM_ISO
 70
     0
  3

  4
"
  5

  6

  7

 40
1.0
 41
2.5
 42
1.0
 43
10.0
 44
1.0
 45
0.0
 46
0.0
 47
0.1
 48
0.1
140
3.5
141
0.0
142
0.0
143
0.0393701
144
1.0
145
0.0
146
0.71
147
1.5
 71
     0
 72
     0
 73
     0
 74
     0
 75
     0
 76
     0
 77
     1
 78
     8
170
     0
171
     2
172
     1
173
     0
174
     0
175
     0
176
   256
177
   256
178
     2
  0
DIMSTYLE
  2
AM_ISO$3
 70
     0
  3

  4
"
  5

  6

  7

 40
1.0
 41
2.5
 42
1.0
 43
10.0
 44
1.0
 45
0.0
 46
0.0
 47
0.1
 48
0.1
140
3.5
141
0.0
142
0.0
143
0.0393701
144
1.0
145
0.0
146
0.71
147
1.5
 71
     0
 72
     0
 73
     0
 74
     1
 75
     0
 76
     0
 77
     1
 78
     8
170
     0
171
     2
172
     0
173
     0
174
     0
175
     0
176
   256
177
   256
178
     2
  0
DIMSTYLE
  2
AM_ISO$4
 70
     0
  3

  4
"
  5

  6

  7

 40
1.0
 41
2.5
 42
1.0
 43
10.0
 44
1.0
 45
0.0
 46
0.0
 47
0.1
 48
0.1
140
3.5
141
0.0
142
0.0
143
0.0393701
144
1.0
145
0.0
146
0.71
147
1.5
 71
     0
 72
     0
 73
     0
 74
     1
 75
     0
 76
     0
 77
     1
 78
     8
170
     0
171
     2
172
     0
173
     0
174
     0
175
     0
176
   256
177
   256
178
     2
  0
DIMSTYLE
  2
AM_ISO$6
 70
     0
  3

  4
"
  5

  6

  7

 40
1.0
 41
2.5
 42
1.0
 43
10.0
 44
1.0
 45
0.0
 46
0.0
 47
0.1
 48
0.1
140
3.5
141
0.0
142
0.0
143
0.0393701
144
1.0
145
0.0
146
0.71
147
1.5
 71
     0
 72
     0
 73
     0
 74
     0
 75
     0
 76
     0
 77
     0
 78
     8
170
     0
171
     2
172
     1
173
     0
174
     0
175
     0
176
   256
177
   256
178
     2
  0
DIMSTYLE
  2
AM_ISO$7
 70
     0
  3

  4
"
  5

  6

  7

 40
1.0
 41
2.5
 42
1.0
 43
10.0
 44
1.0
 45
0.0
 46
0.0
 47
0.1
 48
0.1
140
5.0
141
0.0
142
0.0
143
0.0393701
144
1.0
145
0.0
146
0.71
147
1.5
 71
     0
 72
     0
 73
     0
 74
     0
 75
     0
 76
     0
 77
     1
 78
     8
170
     0
171
     2
172
     1
173
     0
174
     0
175
     0
176
   256
177
   256
178
     2
  0
DIMSTYLE
  2
AM_ISO$SF
 70
     0
  3

  4
"
  5

  6

  7

 40
1.0
 41
2.5
 42
1.0
 43
10.0
 44
1.0
 45
0.0
 46
0.0
 47
0.1
 48
0.1
140
3.5
141
0.0
142
0.0
143
0.0393701
144
1.0
145
0.0
146
0.71
147
1.5
 71
     0
 72
     0
 73
     0
 74
     0
 75
     1
 76
     1
 77
     1
 78
     8
170
     0
171
     2
172
     1
173
     0
174
     0
175
     0
176
   256
177
   256
178
     2
  0
DIMSTYLE
  2
AM_ISO$SH
 70
     0
  3

  4
"
  5

  6

  7

 40
1.0
 41
2.5
 42
1.0
 43
10.0
 44
1.0
 45
0.0
 46
0.0
 47
0.1
 48
0.1
140
3.5
141
0.0
142
0.0
143
0.0393701
144
2.0
145
0.0
146
0.71
147
1.5
 71
     0
 72
     0
 73
     0
 74
     0
 75
     1
 76
     1
 77
     1
 78
     8
170
     0
171
     2
172
     1
173
     1
174
     0
175
     0
176
   256
177
   256
178
     2
  0
DIMSTYLE
  2
GEN-ANSI
 70
     0
  3

  4
"
  5

  6

  7

 40
1.0
 41
2.0
 42
0.5
 43
10.0
 44
0.5
 45
0.0
 46
0.0
 47
0.1
 48
0.1
140
2.5
141
0.0
142
0.0
143
0.0393701
144
1.0
145
0.0
146
0.71
147
1.5
 71
     0
 72
     0
 73
     1
 74
     1
 75
     0
 76
     0
 77
     0
 78
     8
170
     0
171
     2
172
     0
173
     0
174
     0
175
     0
176
   256
177
   256
178
     4
  0
DIMSTYLE
  2
GEN-ANSI$3
 70
     0
  3

  4
"
  5

  6

  7

 40
1.0
 41
2.0
 42
0.5
 43
10.0
 44
0.5
 45
0.0
 46
0.0
 47
0.1
 48
0.1
140
2.5
141
0.0
142
0.0
143
0.0393701
144
1.0
145
0.0
146
0.71
147
1.5
 71
     0
 72
     0
 73
     1
 74
     1
 75
     0
 76
     0
 77
     0
 78
     8
170
     0
171
     2
172
     0
173
     0
174
     0
175
     0
176
   256
177
   256
178
     4
  0
DIMSTYLE
  2
GEN-ANSI$4
 70
     0
  3

  4
"
  5

  6

  7

 40
1.0
 41
2.0
 42
0.5
 43
10.0
 44
0.5
 45
0.0
 46
0.0
 47
0.1
 48
0.1
140
2.5
141
0.0
142
0.0
143
0.0393701
144
1.0
145
0.0
146
0.71
147
1.5
 71
     0
 72
     0
 73
     1
 74
     1
 75
     0
 76
     0
 77
     0
 78
     8
170
     0
171
     2
172
     0
173
     0
174
     0
175
     0
176
   256
177
   256
178
     4
  0
DIMSTYLE
  2
GEN-ANSI$6
 70
     0
  3

  4
"
  5

  6

  7

 40
1.0
 41
2.0
 42
0.5
 43
10.0
 44
0.5
 45
0.0
 46
0.0
 47
0.1
 48
0.1
140
2.5
141
0.0
142
0.0
143
0.0393701
144
1.0
145
0.0
146
0.71
147
1.5
 71
     0
 72
     0
 73
     1
 74
     1
 75
     0
 76
     0
 77
     0
 78
     8
170
     0
171
     2
172
     0
173
     0
174
     0
175
     0
176
   256
177
   256
178
     4
  0
DIMSTYLE
  2
GEN-ANSI-POS
 70
     0
  3

  4
"
  5

  6

  7

 40
1.0
 41
2.5
 42
0.5
 43
10.0
 44
0.5
 45
0.0
 46
0.0
 47
0.1
 48
0.1
140
5.0
141
0.0
142
0.0
143
0.0393701
144
1.0
145
0.0
146
0.71
147
1.5
 71
     0
 72
     0
 73
     0
 74
     0
 75
     0
 76
     0
 77
     0
 78
     8
170
     0
171
     2
172
     0
173
     0
174
     0
175
     0
176
   256
177
   256
178
     4
  0
DIMSTYLE
  2
GEN-ANSI-AXE-F
 70
     0
  3

  4
"
  5

  6

  7

 40
1.0
 41
2.0
 42
0.5
 43
10.0
 44
0.5
 45
0.0
 46
0.0
 47
0.1
 48
0.1
140
2.5
141
0.0
142
0.0
143
0.0393701
144
1.0
145
0.0
146
0.71
147
1.5
 71
     0
 72
     0
 73
     1
 74
     1
 75
     1
 76
     1
 77
     0
 78
     8
170
     0
171
     2
172
     0
173
     1
174
     0
175
     0
176
   256
177
   256
178
     4
  0
DIMSTYLE
  2
GEN-ANSI-AXE-H
 70
     0
  3

  4
"
  5

  6

  7

 40
1.0
 41
2.0
 42
0.5
 43
10.0
 44
0.5
 45
0.0
 46
0.0
 47
0.1
 48
0.1
140
2.5
141
0.0
142
0.0
143
0.0393701
144
2.0
145
0.0
146
0.71
147
1.5
 71
     0
 72
     0
 73
     0
 74
     0
 75
     1
 76
     1
 77
     0
 78
     8
170
     0
171
     2
172
     1
173
     1
174
     0
175
     0
176
   256
177
   256
178
     4
  0
DIMSTYLE
  2
AM_ANSI
 70
     0
  3

  4
mm
  5

  6

  7

 40
1.0
 41
0.12
 42
0.05
 43
0.5
 44
0.1
 45
0.0
 46
0.0
 47
0.1
 48
0.1
140
0.12
141
0.0
142
0.0
143
25.399999999999999
144
1.0
145
0.0
146
0.71
147
0.06
 71
     0
 72
     0
 73
     1
 74
     1
 75
     0
 76
     0
 77
     0
 78
     7
170
     0
171
     2
172
     0
173
     0
174
     0
175
     0
176
   256
177
   256
178
     2
  0
DIMSTYLE
  2
AM_ANSI$3
 70
     0
  3

  4
mm
  5

  6

  7

 40
1.0
 41
0.12
 42
0.05
 43
0.5
 44
0.1
 45
0.0
 46
0.0
 47
0.1
 48
0.1
140
0.12
141
0.0
142
0.0
143
25.399999999999999
144
1.0
145
0.0
146
0.71
147
0.06
 71
     0
 72
     0
 73
     1
 74
     1
 75
     0
 76
     0
 77
     0
 78
     7
170
     0
171
     2
172
     0
173
     0
174
     0
175
     0
176
   256
177
   256
178
     2
  0
DIMSTYLE
  2
AM_ANSI$4
 70
     0
  3

  4
mm
  5

  6

  7

 40
1.0
 41
0.12
 42
0.05
 43
0.5
 44
0.1
 45
0.0
 46
0.0
 47
0.1
 48
0.1
140
0.12
141
0.0
142
0.0
143
25.399999999999999
144
1.0
145
0.0
146
0.71
147
0.06
 71
     0
 72
     0
 73
     1
 74
     1
 75
     0
 76
     0
 77
     0
 78
     7
170
     0
171
     2
172
     0
173
     0
174
     0
175
     0
176
   256
177
   256
178
     2
  0
DIMSTYLE
  2
AM_ANSI$7
 70
     0
  3

  4
mm
  5

  6

  7

 40
1.0
 41
0.12
 42
0.05
 43
0.5
 44
0.1
 45
0.0
 46
0.0
 47
0.1
 48
0.1
140
0.12
141
0.0
142
0.0
143
25.399999999999999
144
1.0
145
0.0
146
0.71
147
0.06
 71
     0
 72
     0
 73
     1
 74
     1
 75
     0
 76
     0
 77
     0
 78
     7
170
     0
171
     2
172
     0
173
     0
174
     0
175
     0
176
   256
177
   256
178
     2
  0
DIMSTYLE
  2
AM_ANSI$SF
 70
     0
  3

  4
mm
  5

  6

  7

 40
1.0
 41
0.12
 42
0.05
 43
0.5
 44
0.1
 45
0.0
 46
0.0
 47
0.1
 48
0.1
140
0.12
141
0.0
142
0.0
143
25.399999999999999
144
1.0
145
0.0
146
0.71
147
0.06
 71
     0
 72
     0
 73
     1
 74
     1
 75
     1
 76
     1
 77
     0
 78
     7
170
     0
171
     2
172
     0
173
     0
174
     0
175
     0
176
   256
177
   256
178
     2
  0
DIMSTYLE
  2
AM_ANSI$SH
 70
     0
  3

  4
mm
  5

  6

  7

 40
1.0
 41
0.12
 42
0.05
 43
0.5
 44
0.1
 45
0.0
 46
0.0
 47
0.1
 48
0.1
140
0.12
141
0.0
142
0.0
143
25.399999999999999
144
1.0
145
0.0
146
0.71
147
0.06
 71
     0
 72
     0
 73
     1
 74
     1
 75
     1
 76
     1
 77
     0
 78
     7
170
     0
171
     2
172
     0
173
     1
174
     0
175
     0
176
   256
177
   256
178
     2
  0
ENDTAB
  0
ENDSEC
  0
SECTION
  2
BLOCKS
  0
BLOCK
  8
0
  2
$MODEL_SPACE
 70
     0
 10
0.0
 20
0.0
 30
0.0
  3
$MODEL_SPACE
  1

  0
ENDBLK
  5
B28B
  8
0
  0
BLOCK
 67
     1
  8
0
  2
$PAPER_SPACE
 70
     0
 10
0.0
 20
0.0
 30
0.0
  3
$PAPER_SPACE
  1

  0
ENDBLK
  5
B287
 67
     1
  8
0
  0
BLOCK
  8
0
  2
GENAXEH
 70
     0
 10
0.0
 20
0.0
 30
0.0
  3
GENAXEH
  1

  0
LINE
  5
AFCE
  8
0
 10
-1.0
 20
0.0
 30
0.0
 11
1.0
 21
0.0
 31
0.0
  0
ENDBLK
  5
AFD0
  8
0
  0
BLOCK
  8
0
  2
_ACMFILLEDHALF
 70
     0
 10
0.0
 20
0.0
 30
0.0
  3
_ACMFILLEDHALF
  1

  0
TRACE
  5
B194
  8
AM_0
 62
     0
 10
-0.8
 20
0.0
 30
0.0
 11
-1.0
 21
0.166666666
 31
0.0
 12
0.0
 22
0.0
 32
0.0
 13
0.0
 23
0.0
 33
0.0
  0
LINE
  5
B195
  8
AM_0
 62
     0
 10
-1.0
 20
0.0
 30
0.0
 11
-0.8
 21
0.0
 31
0.0
  0
ENDBLK
  5
B193
  8
0
  0
ENDSEC
  0
SECTION
  2
ENTITIES
  0
POINT
  5
1B94
  8
0
 10
0.0
 20
0.0
 30
0.0
1001
GENIUS_GENODEF_13
1002
{
1000
HIER
1070
     1
1002
}
1002
{
1000
MANEDIT
1070
     0
1002
}
1002
{
1000
NOSEL
1070
     0
1002
}
1002
{
1000
BEHIND
1070
     0
1002
}
1002
{
1000
REACTOR
1002
}
1001
GENIUS_GENOBJ-N-SDF_13
1002
{
1000
OWNER
1000
GEN
1002
}
1001
GENIUS_GENOENT_13
1002
{
1000
MYREF
1005
1B94
1002
}
1002
{
1000
GRP
1005
0
1002
}
1001
GENIUS_GENOLIS_13
1002
{
1000
ENT
1005
89
1002
}
  0
LINE
  5
89F0
  8
ｶｸﾚｾﾝ2
 10
215.19318075676981
 20
48.884394304861956
 30
0.0
 11
215.19318075676981
 21
58.884398304862032
 31
0.0
  0
LINE
  5
89F1
  8
ﾁｭｳｼﾝｾﾝ
 10
220.19315075676991
 20
45.884409304861997
 30
0.0
 11
220.19315075676991
 21
61.884398304862032
 31
0.0
  0
LINE
  5
89F5
  8
ｶｸﾚｾﾝ2
 10
225.19318075676981
 20
48.884394304861956
 30
0.0
 11
225.19318075676981
 21
58.884398304862032
 31
0.0
  0
LINE
  5
89FD
  8
ｶｸﾚｾﾝ2
 10
278.19318075676978
 20
48.884394304861956
 30
0.0
 11
278.19318075676978
 21
58.884398304862032
 31
0.0
  0
LINE
  5
89FE
  8
ｶｸﾚｾﾝ2
 10
288.19318075676978
 20
48.884394304861956
 30
0.0
 11
288.19318075676978
 21
58.884398304862032
 31
0.0
  0
LINE
  5
89FF
  8
ﾁｭｳｼﾝｾﾝ
 10
283.1931507567698
 20
45.884409304861997
 30
0.0
 11
283.1931507567698
 21
61.884398304862032
 31
0.0
  0
LINE
  5
8A91
  8
ﾁｭｳｼﾝｾﾝ
 10
22.8028901833361
 20
368.52741430486202
 30
0.0
 11
328.55698075676992
 21
368.52741430486202
 31
0.0
  0
ARC
  5
8BB5
  8
AM_0
 10
326.19318075676978
 20
368.52741430486202
 30
0.0
 40
80.0
 50
148.9006799999994
 51
211.09929999999849
  0
LINE
  5
8BB8
  8
AM_0
 10
209.19321075676979
 20
312.02741430486202
 30
0.0
 11
209.19321075676979
 21
425.02741430486191
 31
0.0
  0
LINE
  5
8BB9
  8
AM_0
 10
227.1932107567697
 20
310.63281430486199
 30
0.0
 11
227.1932107567697
 21
426.42197430486181
 31
0.0
  0
LINE
  5
8BBA
  8
AM_0
 10
246.19315075676991
 20
325.79376430486201
 30
0.0
 11
246.19315075676991
 21
411.26105430486172
 31
0.0
  0
LINE
  5
8BBB
  8
AM_0
 10
233.19321075676999
 20
308.52741430486202
 30
0.0
 11
233.19321075676999
 21
428.52741430486191
 31
0.0
  0
LINE
  5
8BBC
  8
AM_0
 10
291.19321075676982
 20
407.76453430486202
 30
0.0
 11
291.19321075676982
 21
326.08545430486191
 31
0.0
  0
LINE
  5
8BBD
  8
AM_0
 10
278.19321075676982
 20
319.71173430486198
 30
0.0
 11
278.19321075676982
 21
417.34308430486192
 31
0.0
  0
LINE
  5
8BBE
  8
AM_0
 10
293.19321075676982
 20
387.5532643048619
 30
0.0
 11
293.19321075676982
 21
349.50156430486197
 31
0.0
  0
LINE
  5
8BBF
  8
AM_0
 10
245.19321075676999
 20
315.65936430486198
 30
0.0
 11
248.1932107567697
 21
315.65936430486198
 31
0.0
  0
LINE
  5
8BC0
  8
AM_0
 10
245.19321075676999
 20
321.43292430486201
 30
0.0
 11
248.1932107567697
 21
321.43292430486201
 31
0.0
  0
LINE
  5
8BC1
  8
AM_0
 10
245.19321075676999
 20
312.77265430486221
 30
0.0
 11
248.1932107567697
 21
312.77265430486221
 31
0.0
  0
LINE
  5
8BC2
  8
AM_0
 10
245.19321075676999
 20
324.31964430486198
 30
0.0
 11
248.1932107567697
 21
324.31964430486198
 31
0.0
  0
LINE
  5
8BC3
  8
AM_0
 10
257.69132075676998
 20
327.20557430486173
 30
0.0
 11
246.1932107567697
 21
325.79376430486201
 31
0.0
  0
LINE
  5
8BC4
  8
AM_0
 10
253.15622075677001
 20
313.99024430486202
 30
0.0
 11
246.39264075676979
 21
310.08530430486201
 31
0.0
  0
LINE
  5
8BC5
  8
AM_0
 10
288.32410075676978
 20
299.97104430486178
 30
0.0
 11
233.19321075676999
 21
298.52738430486193
 31
0.0
  0
LINE
  5
8C34
  8
ﾁｭｳｼﾝｾﾝ
 10
220.19315075676991
 20
321.02741430486202
 30
0.0
 11
220.19315075676991
 21
301.02741430486191
 31
0.0
  0
LINE
  5
8C35
  8
AM_0
 10
218.19321075676979
 20
320.34311430486201
 30
0.0
 11
218.19321075676979
 21
313.49445430486202
 31
0.0
  0
LINE
  5
8C36
  8
AM_0
 10
245.19321075676999
 20
324.81964430486198
 30
0.0
 11
245.19321075676999
 21
312.27265430486221
 31
0.0
  0
LINE
  5
8C37
  8
AM_0
 10
244.19321075676979
 20
325.79376430486201
 30
0.0
 11
244.19321075676979
 21
309.14569430486199
 31
0.0
  0
LINE
  5
8C38
  8
ﾁｭｳｼﾝｾﾝ
 10
210.1931507567698
 20
311.02741430486202
 30
0.0
 11
230.19315075676991
 21
311.02741430486202
 31
0.0
  0
ARC
  5
8C39
  8
AM_0
 10
220.19315075676991
 20
311.02741430486202
 30
0.0
 40
5.0
 50
170.31658999999999
 51
3.850133000000171
  0
ARC
  5
8C3A
  8
ｶｸﾚｾﾝ2
 10
220.19315075676991
 20
311.02741430486202
 30
0.0
 40
5.0
 50
3.850127299999786
 51
170.31658999999999
  0
LINE
  5
8C3B
  8
AM_0
 10
220.14084075676979
 20
311.49515430486173
 30
0.0
 11
225.8218407567698
 21
311.346384304862
 31
0.0
  0
LINE
  5
8C3C
  8
AM_0
 10
233.19318075676981
 20
298.52741430486202
 30
0.0
 11
215.06232075676979
 21
299.00220430486178
 31
0.0
  0
ARC
  5
8C3D
  8
AM_0
 10
215.19321075676979
 20
304.00046430486202
 30
0.0
 40
5.0
 50
180.0000099999998
 51
268.49999999999721
  0
LINE
  5
8C3E
  8
AM_0
 10
209.19321075676979
 20
312.02741430486202
 30
0.0
 11
219.18754075676981
 21
311.76569430486188
 31
0.0
  0
LINE
  5
8C40
  8
AM_0
 10
210.1932107567697
 20
304.00046430486202
 30
0.0
 11
210.1932107567697
 21
312.00122430486169
 31
0.0
  0
ARC
  5
8C41
  8
AM_0
 10
220.19321075676999
 20
313.49445430486202
 30
0.0
 40
2.0
 50
180.0000099999998
 51
268.49999999999721
  0
LINE
  5
8C42
  8
AM_0
 10
232.19321075676979
 20
299.52774430486198
 30
0.0
 11
232.19321075676979
 21
301.52844430486198
 31
0.0
  0
LINE
  5
8C43
  8
AM_0
 10
236.19321075676979
 20
300.55426430486187
 30
0.0
 11
236.19321075676979
 21
306.55292430486202
 31
0.0
  0
ARC
  5
8C44
  8
AM_0
 10
234.19321075676979
 20
300.55426430486187
 30
0.0
 40
2.0
 50
271.50000000000267
 51
0.0
  0
ARC
  5
8C45
  8
AM_0
 10
233.19321075676999
 20
299.52774430486198
 30
0.0
 40
1.0
 50
180.0000099999998
 51
268.49999999999721
  0
ARC
  5
8C46
  8
AM_0
 10
234.19321075676979
 20
306.55292430486202
 30
0.0
 40
2.0
 50
0.0
 51
91.500001000001546
  0
LINE
  5
8C47
  8
AM_0
 10
233.19321075676999
 20
313.00104430486198
 30
0.0
 11
244.19321075676979
 21
313.00104430486198
 31
0.0
  0
LINE
  5
8C48
  8
AM_0
 10
233.19318075676981
 20
308.52741430486202
 30
0.0
 11
241.65439075676991
 21
308.74896430486189
 31
0.0
  0
LINE
  5
8C49
  8
AM_0
 10
235.16703075676969
 20
302.47708430486188
 30
0.0
 11
233.21937075676999
 21
302.52811430486202
 31
0.0
  0
ARC
  5
8C4A
  8
AM_0
 10
229.19321075676999
 20
310.63281430486199
 30
0.0
 40
2.0
 50
180.0000099999998
 51
268.49999999999721
  0
ARC
  5
8C4B
  8
AM_0
 10
233.19321075676999
 20
301.52844430486198
 30
0.0
 40
1.0
 50
88.499997000000747
 51
180.0000099999998
  0
LINE
  5
8C4C
  8
AM_0
 10
233.19321075676999
 20
308.52738430486193
 30
0.0
 11
229.14087075676991
 21
308.63352430486191
 31
0.0
  0
ARC
  5
8C4D
  8
AM_0
 10
225.78257075676979
 20
309.84690430486188
 30
0.0
 40
1.5
 50
12.97665300000013
 51
88.499997000000747
  0
ARC
  5
8C4E
  8
AM_0
 10
241.39261075676981
 20
318.74555430486208
 30
0.0
 40
10.0
 50
271.50000000000267
 51
300.00001000000037
  0
ARC
  5
8C4F
  8
AM_0
 10
235.1932107567697
 20
303.47675430486208
 30
0.0
 40
1.0
 50
268.49999999999721
 51
0.0000006832462478
  0
LINE
  5
8C50
  8
AM_0
 10
244.19321075676979
 20
312.27265430486221
 30
0.0
 11
245.19321075676999
 21
312.27265430486221
 31
0.0
  0
LINE
  5
8C51
  8
AM_0
 10
209.19321075676979
 20
336.58747430486193
 30
0.0
 11
225.1932107567697
 21
336.58747430486193
 31
0.0
  0
LINE
  5
8C52
  8
AM_0
 10
209.19321075676979
 20
322.52710430486178
 30
0.0
 11
225.2455507567698
 21
322.10675430486191
 31
0.0
  0
ARC
  5
8C55
  8
AM_0
 10
216.1932107567699
 20
320.34311430486201
 30
0.0
 40
2.0
 50
0.0
 51
88.499997000000747
  0
ARC
  5
8C57
  8
AM_0
 10
225.1932107567697
 20
334.58747430486193
 30
0.0
 40
2.0
 50
0.0
 51
90.00000299999769
  0
ARC
  5
8C58
  8
AM_0
 10
225.1932107567697
 20
320.10742430486192
 30
0.0
 40
2.0
 50
0.0
 51
88.499997000000747
  0
LINE
  5
8C59
  8
AM_0
 10
244.19321075676979
 20
324.81964430486198
 30
0.0
 11
245.19321075676999
 21
324.81964430486198
 31
0.0
  0
LINE
  5
8C5A
  8
AM_0
 10
244.19321075676979
 20
325.79376430486201
 30
0.0
 11
246.19315075676991
 21
325.79376430486201
 31
0.0
  0
LINE
  5
8C5B
  8
ﾁｭｳｼﾝｾﾝ
 10
283.1931507567698
 20
321.02741430486202
 30
0.0
 11
283.1931507567698
 21
301.02741430486191
 31
0.0
  0
ARC
  5
8C5C
  8
AM_0
 10
275.19321075676982
 20
319.71173430486198
 30
0.0
 40
3.0
 50
271.50000000000267
 51
0.0
  0
LINE
  5
8C5D
  8
AM_0
 10
249.19315075676991
 20
313.77265430486199
 30
0.0
 11
249.19315075676991
 21
323.31967430486191
 31
0.0
  0
LINE
  5
8C5E
  8
AM_0
 10
293.19321075676982
 20
304.969334304862
 30
0.0
 11
293.19321075676982
 21
322.08545430486208
 31
0.0
  0
ARC
  5
8C5F
  8
AM_0
 10
273.19321075676999
 20
311.65662430486202
 30
0.0
 40
5.0
 50
91.500001000001546
 51
180.0000099999998
  0
ARC
  5
8C60
  8
AM_0
 10
271.19321075676982
 20
302.523504304862
 30
0.0
 40
3.0
 50
180.0000099999998
 51
271.50000000000267
  0
LINE
  5
8C61
  8
AM_0
 10
270.18216075676992
 20
315.64835430486198
 30
0.0
 11
257.89444075676982
 21
315.32657430486188
 31
0.0
  0
ARC
  5
8C62
  8
AM_0
 10
258.15622075676998
 20
305.329994304862
 30
0.0
 40
10.0
 50
91.500001000001546
 51
119.9999999999999
  0
ARC
  5
8C63
  8
AM_0
 10
248.1932107567697
 20
314.65940430486188
 30
0.0
 40
1.0
 50
0.0
 51
90.00000299999769
  0
ARC
  5
8C64
  8
AM_0
 10
248.1932107567697
 20
313.77265430486199
 30
0.0
 40
1.0
 50
269.999989999999
 51
0.0000006832462478
  0
ARC
  5
8C65
  8
AM_0
 10
248.1932107567697
 20
316.65940430486188
 30
0.0
 40
1.0
 50
269.999989999999
 51
0.0000006832462478
  0
LINE
  5
8C66
  8
AM_0
 10
268.19321075676982
 20
302.523504304862
 30
0.0
 11
268.19321075676982
 21
311.65662430486202
 31
0.0
  0
ARC
  5
8C67
  8
AM_0
 10
288.19321075676982
 20
304.969334304862
 30
0.0
 40
5.0
 50
271.50000000000267
 51
0.0
  0
LINE
  5
8C68
  8
ﾁｭｳｼﾝｾﾝ
 10
273.19315075676991
 20
311.02741430486202
 30
0.0
 11
293.1931507567698
 21
311.02741430486202
 31
0.0
  0
CIRCLE
  5
8C69
  8
AM_0
 10
283.1931507567698
 20
311.02741430486202
 30
0.0
 40
5.0
  0
LINE
  5
8C6A
  8
AM_0
 10
273.06229075676981
 20
316.65488430486192
 30
0.0
 11
275.27173075676973
 21
316.71274430486221
 31
0.0
  0
LINE
  5
8C6B
  8
AM_0
 10
278.19318075676978
 20
327.92148430486202
 30
0.0
 11
257.69129075676977
 21
327.20554430486197
 31
0.0
  0
ARC
  5
8C6C
  8
AM_0
 10
248.1932107567697
 20
323.31967430486191
 30
0.0
 40
1.0
 50
0.0
 51
90.00000299999769
  0
ARC
  5
8C6D
  8
AM_0
 10
248.1932107567697
 20
320.43289430486197
 30
0.0
 40
1.0
 50
0.0
 51
90.00000299999769
  0
ARC
  5
8C6E
  8
AM_0
 10
248.1932107567697
 20
322.43289430486197
 30
0.0
 40
1.0
 50
269.999989999999
 51
0.0000006832462478
  0
LINE
  5
8C6F
  8
AM_0
 10
283.06232075677002
 20
326.15491430486202
 30
0.0
 11
288.27173075676973
 21
326.29132430486197
 31
0.0
  0
ARC
  5
8C70
  8
AM_0
 10
283.19321075676982
 20
321.15662430486202
 30
0.0
 40
5.0
 50
91.500001000001546
 51
180.0000099999998
  0
ARC
  5
8C71
  8
AM_0
 10
288.19321075676982
 20
329.29029430486202
 30
0.0
 40
3.0
 50
271.50000000000267
 51
0.0
  0
ARC
  5
8C72
  8
AM_0
 10
288.19321075676982
 20
322.08545430486208
 30
0.0
 40
5.0
 50
0.0
 51
70.485339000001204
  0
ARC
  5
8C73
  8
AM_0
 10
292.19321075676982
 20
347.50086430486198
 30
0.0
 40
1.0
 50
91.500001000001546
 51
180.0000099999998
  0
ARC
  5
8C74
  8
AM_0
 10
292.19321075676982
 20
349.50156430486197
 30
0.0
 40
1.0
 50
271.50000000000267
 51
0.0
  0
LINE
  5
8C75
  8
AM_0
 10
292.16703075676992
 20
348.50052430486193
 30
0.0
 11
292.21937075676982
 21
348.50189430486188
 31
0.0
  0
LINE
  5
8C76
  8
AM_0
 10
245.19321075676999
 20
412.73514430486171
 30
0.0
 11
248.1932107567697
 21
412.73514430486171
 31
0.0
  0
LINE
  5
8C77
  8
AM_0
 10
245.19321075676999
 20
424.28217430486171
 30
0.0
 11
248.1932107567697
 21
424.28217430486171
 31
0.0
  0
LINE
  5
8C78
  8
AM_0
 10
245.19321075676999
 20
415.62189430486171
 30
0.0
 11
248.1932107567697
 21
415.62189430486171
 31
0.0
  0
LINE
  5
8C79
  8
AM_0
 10
245.19321075676999
 20
421.39542430486159
 30
0.0
 11
248.1932107567697
 21
421.39542430486159
 31
0.0
  0
LINE
  5
8C7A
  8
AM_0
 10
257.69132075676998
 20
409.84925430486192
 30
0.0
 11
246.19318075676981
 21
411.26105430486172
 31
0.0
  0
LINE
  5
8C7B
  8
AM_0
 10
253.1561907567698
 20
423.06458430486191
 30
0.0
 11
246.39264075676979
 21
426.969514304862
 31
0.0
  0
LINE
  5
8C7C
  8
AM_0
 10
288.32407075677008
 20
437.08377430486178
 30
0.0
 11
233.19321075676999
 21
438.52741430486191
 31
0.0
  0
LINE
  5
8C7D
  8
ﾁｭｳｼﾝｾﾝ
 10
220.19315075676991
 20
436.02741430486191
 30
0.0
 11
220.19315075676991
 21
416.02741430486191
 31
0.0
  0
ARC
  5
8C7F
  8
AM_0
 10
220.19315075676991
 20
426.02741430486191
 30
0.0
 40
5.0
 50
356.14987000000002
 51
189.68340999999981
  0
ARC
  5
8C80
  8
ｶｸﾚｾﾝ2
 10
220.19315075676991
 20
426.02741430486191
 30
0.0
 40
5.0
 50
189.68340999999981
 51
356.14987999999971
  0
ARC
  5
8C81
  8
AM_0
 10
220.19321075676999
 20
423.56034430486199
 30
0.0
 40
2.0
 50
91.500001000001546
 51
180.0000099999998
  0
LINE
  5
8C85
  8
AM_0
 10
244.19321075676979
 20
411.26105430486172
 30
0.0
 11
244.19321075676979
 21
427.90909430486192
 31
0.0
  0
LINE
  5
8C9E
  8
AM_0
 10
209.19321075676979
 20
400.46735430486177
 30
0.0
 11
225.1932107567697
 21
400.46735430486177
 31
0.0
  0
LINE
  5
8C9F
  8
AM_0
 10
209.19318075676981
 20
414.52771430486172
 30
0.0
 11
225.2455507567698
 21
414.94803430486172
 31
0.0
  0
ARC
  5
8CA7
  8
AM_0
 10
216.1932107567699
 20
416.71167430486202
 30
0.0
 40
2.0
 50
271.50000000000267
 51
0.0
  0
LINE
  5
8CA8
  8
AM_0
 10
218.19321075676979
 20
416.71167430486202
 30
0.0
 11
218.19321075676979
 21
423.56034430486199
 31
0.0
  0
ARC
  5
8CA9
  8
AM_0
 10
225.1932107567697
 20
402.46735430486171
 30
0.0
 40
2.0
 50
270.0
 51
0.0
  0
LINE
  5
8CAA
  8
AM_0
 10
233.19321075676999
 20
424.05374430486182
 30
0.0
 11
244.19321075676979
 21
424.05374430486182
 31
0.0
  0
ARC
  5
8CAB
  8
AM_0
 10
225.1932107567697
 20
416.94736430486171
 30
0.0
 40
2.0
 50
271.50000000000267
 51
0.0
  0
LINE
  5
8CAC
  8
AM_0
 10
245.19321075676999
 20
412.2351743048618
 30
0.0
 11
245.19321075676999
 21
424.78217430486171
 31
0.0
  0
LINE
  5
8CAD
  8
AM_0
 10
244.19321075676979
 20
412.2351743048618
 30
0.0
 11
245.19321075676999
 21
412.2351743048618
 31
0.0
  0
LINE
  5
8CAE
  8
AM_0
 10
244.19321075676979
 20
411.26105430486172
 30
0.0
 11
246.19315075676991
 21
411.26105430486172
 31
0.0
  0
LINE
  5
8CAF
  8
AM_0
 10
244.19321075676979
 20
424.78217430486171
 30
0.0
 11
245.19321075676999
 21
424.78217430486171
 31
0.0
  0
LINE
  5
8CB3
  8
ﾁｭｳｼﾝｾﾝ
 10
210.1931507567698
 20
426.02741430486191
 30
0.0
 11
230.19315075676991
 21
426.02741430486191
 31
0.0
  0
LINE
  5
8CB4
  8
AM_0
 10
220.14084075676979
 20
425.55966430486171
 30
0.0
 11
225.82187075676981
 21
425.7084443048617
 31
0.0
  0
LINE
  5
8CB5
  8
AM_0
 10
233.19321075676999
 20
438.52738430486198
 30
0.0
 11
215.06232075676979
 21
438.05261430486172
 31
0.0
  0
LINE
  5
8CB6
  8
AM_0
 10
209.19321075676979
 20
425.02738430486198
 30
0.0
 11
219.18754075676981
 21
425.28910430486172
 31
0.0
  0
ARC
  5
8CB7
  8
AM_0
 10
215.19321075676979
 20
433.05432430486178
 30
0.0
 40
5.0
 50
91.500001000001546
 51
180.0000099999998
  0
LINE
  5
8CB8
  8
AM_0
 10
210.1932107567697
 20
433.05432430486178
 30
0.0
 11
210.1932107567697
 21
425.0535943048618
 31
0.0
  0
ARC
  5
8CB9
  8
AM_0
 10
234.19321075676979
 20
430.50189430486171
 30
0.0
 40
2.0
 50
268.49999999999721
 51
0.0000006832446193
  0
ARC
  5
8CBA
  8
AM_0
 10
234.19321075676979
 20
436.50052430486159
 30
0.0
 40
2.0
 50
0.0
 51
88.499997000000747
  0
LINE
  5
8CBB
  8
AM_0
 10
233.19321075676999
 20
428.52741430486191
 30
0.0
 11
241.65442075676989
 21
428.30585430486178
 31
0.0
  0
LINE
  5
8CBC
  8
AM_0
 10
235.16703075676969
 20
434.57770430486192
 30
0.0
 11
233.2194007567698
 21
434.52670430486171
 31
0.0
  0
ARC
  5
8CBD
  8
AM_0
 10
229.19321075676999
 20
426.42197430486181
 30
0.0
 40
2.0
 50
91.500001000001546
 51
180.0000099999998
  0
ARC
  5
8CBE
  8
AM_0
 10
225.78257075676979
 20
427.20792430486171
 30
0.0
 40
1.5
 50
271.50000000000267
 51
347.02334999999948
  0
LINE
  5
8CBF
  8
AM_0
 10
229.14084075676971
 20
428.42130430486202
 30
0.0
 11
233.19318075676981
 21
428.52741430486191
 31
0.0
  0
ARC
  5
8CC0
  8
AM_0
 10
233.19321075676999
 20
435.5263743048618
 30
0.0
 40
1.0
 50
180.0000099999998
 51
271.50000000000267
  0
ARC
  5
8CC1
  8
AM_0
 10
233.19321075676999
 20
437.5270443048617
 30
0.0
 40
1.0
 50
91.500001000001546
 51
180.0000099999998
  0
LINE
  5
8CC2
  8
AM_0
 10
232.19321075676979
 20
437.5270443048617
 30
0.0
 11
232.19321075676979
 21
435.5263743048618
 31
0.0
  0
ARC
  5
8CC3
  8
AM_0
 10
235.1932107567697
 20
433.57807430486179
 30
0.0
 40
1.0
 50
0.0
 51
91.500001000001546
  0
LINE
  5
8CC4
  8
AM_0
 10
236.19321075676979
 20
436.50052430486159
 30
0.0
 11
236.19321075676979
 21
430.50189430486171
 31
0.0
  0
ARC
  5
8CC5
  8
AM_0
 10
241.39261075676981
 20
418.3092743048619
 30
0.0
 40
10.0
 50
60.000002000001153
 51
88.499997000000747
  0
LINE
  5
8CC6
  8
ﾁｭｳｼﾝｾﾝ
 10
283.1931507567698
 20
436.02741430486191
 30
0.0
 11
283.1931507567698
 21
416.02741430486191
 31
0.0
  0
CIRCLE
  5
8CC7
  8
AM_0
 10
283.1931507567698
 20
426.02741430486191
 30
0.0
 40
5.0
  0
ARC
  5
8CC8
  8
AM_0
 10
273.19321075676999
 20
425.39820430486191
 30
0.0
 40
5.0
 50
180.0000099999998
 51
268.49999999999721
  0
LINE
  5
8CC9
  8
AM_0
 10
293.19321075676982
 20
432.0854543048618
 30
0.0
 11
293.19321075676982
 21
414.96933430486177
 31
0.0
  0
LINE
  5
8CCA
  8
AM_0
 10
295.19315075676991
 20
378.02741430486191
 30
0.0
 11
323.19318075676978
 21
378.02741430486191
 31
0.0
  0
LINE
  5
8CCB
  8
AM_0
 10
295.19315075676991
 20
359.02741430486191
 30
0.0
 11
323.19318075676978
 21
359.02741430486191
 31
0.0
  0
LINE
  5
8CCC
  8
AM_0
 10
295.19315075676991
 20
358.52741430486202
 30
0.0
 11
295.19315075676991
 21
378.52741430486202
 31
0.0
  0
LINE
  5
8CCD
  8
AM_0
 10
293.19321075676982
 20
358.52741430486202
 30
0.0
 11
295.19315075676991
 21
358.52741430486202
 31
0.0
  0
LINE
  5
8CCE
  8
AM_0
 10
293.19321075676982
 20
378.52741430486202
 30
0.0
 11
295.19315075676991
 21
378.52741430486202
 31
0.0
  0
ARC
  5
8CCF
  8
AM_0
 10
292.19321075676982
 20
389.55393430486203
 30
0.0
 40
1.0
 50
179.99998999999991
 51
268.50000999999872
  0
ARC
  5
8CD0
  8
AM_0
 10
292.19321075676982
 20
387.5532643048619
 30
0.0
 40
1.0
 50
0.0
 51
88.499997000000747
  0
LINE
  5
8CD1
  8
AM_0
 10
292.16703075676992
 20
388.55426430486199
 30
0.0
 11
292.21937075676982
 21
388.55289430486192
 31
0.0
  0
LINE
  5
8CD2
  8
AM_0
 10
278.19318075676978
 20
409.13330430486172
 30
0.0
 11
257.69132075676998
 21
409.84925430486192
 31
0.0
  0
LINE
  5
8CD3
  8
AM_0
 10
270.18216075676992
 20
421.40647430486172
 30
0.0
 11
257.89444075676982
 21
421.7282443048619
 31
0.0
  0
ARC
  5
8CD4
  8
AM_0
 10
248.1932107567697
 20
416.6218943048616
 30
0.0
 40
1.0
 50
269.999989999999
 51
0.0000006832462478
  0
LINE
  5
8CD5
  8
AM_0
 10
249.19315075676991
 20
423.2821743048616
 30
0.0
 11
249.19315075676991
 21
413.73514430486182
 31
0.0
  0
ARC
  5
8CD6
  8
AM_0
 10
248.1932107567697
 20
414.62192430486169
 30
0.0
 40
1.0
 50
0.0
 51
90.00000299999769
  0
ARC
  5
8CD7
  8
AM_0
 10
248.1932107567697
 20
413.73514430486182
 30
0.0
 40
1.0
 50
269.999989999999
 51
0.0000006832462478
  0
ARC
  5
8CD8
  8
AM_0
 10
258.15622075676998
 20
431.72483430486182
 30
0.0
 40
10.0
 50
239.99999999999989
 51
268.49999999999721
  0
ARC
  5
8CD9
  8
AM_0
 10
248.1932107567697
 20
420.39542430486182
 30
0.0
 40
1.0
 50
0.0
 51
90.00000299999769
  0
ARC
  5
8CDA
  8
AM_0
 10
248.1932107567697
 20
423.2821743048616
 30
0.0
 40
1.0
 50
0.0
 51
90.00000299999769
  0
ARC
  5
8CDB
  8
AM_0
 10
248.1932107567697
 20
422.39539430486172
 30
0.0
 40
1.0
 50
269.999989999999
 51
0.0000006832462478
  0
LINE
  5
8CDC
  8
AM_0
 10
283.06232075677002
 20
410.89990430486159
 30
0.0
 11
288.27173075676973
 21
410.76349430486192
 31
0.0
  0
ARC
  5
8CDD
  8
AM_0
 10
283.19321075676982
 20
415.89820430486168
 30
0.0
 40
5.0
 50
180.0000099999998
 51
268.49999999999721
  0
ARC
  5
8CDE
  8
AM_0
 10
275.19321075676982
 20
417.34308430486192
 30
0.0
 40
3.0
 50
0.0
 51
88.499997000000747
  0
LINE
  5
8CDF
  8
AM_0
 10
273.06232075676991
 20
420.39990430486159
 30
0.0
 11
275.27173075676973
 21
420.34204430486182
 31
0.0
  0
ARC
  5
8CE0
  8
AM_0
 10
288.19321075676982
 20
414.96933430486177
 30
0.0
 40
5.0
 50
289.51467000000213
 51
0.0
  0
ARC
  5
8CE1
  8
AM_0
 10
288.19321075676982
 20
407.76453430486202
 30
0.0
 40
3.0
 50
0.0
 51
88.499997000000747
  0
LINE
  5
8CE2
  8
AM_0
 10
301.19315075677002
 20
371.52741430486191
 30
0.0
 11
323.19318075676978
 21
371.52741430486191
 31
0.0
  0
LINE
  5
8CE3
  8
AM_0
 10
301.19315075677002
 20
365.52741430486191
 30
0.0
 11
323.19318075676978
 21
365.52741430486191
 31
0.0
  0
ARC
  5
8CE4
  8
AM_0
 10
301.19315075677002
 20
368.52741430486202
 30
0.0
 40
3.0
 50
89.986014000002498
 51
270.01398999999668
  0
LINE
  5
8CE5
  8
AM_0
 10
301.19315075677002
 20
365.52741430486191
 30
0.0
 11
301.19315075677002
 21
371.52741430486191
 31
0.0
  0
LINE
  5
8CE6
  8
AM_0
 10
323.19318075676978
 20
359.02741430486191
 30
0.0
 11
323.19318075676978
 21
378.02741430486191
 31
0.0
  0
LINE
  5
8CE7
  8
AM_0
 10
268.19321075676982
 20
434.53131430486201
 30
0.0
 11
268.19321075676982
 21
425.39820430486191
 31
0.0
  0
ARC
  5
8CE8
  8
AM_0
 10
271.19321075676982
 20
434.53131430486201
 30
0.0
 40
3.0
 50
88.499997000000747
 51
180.0000099999998
  0
LINE
  5
8CE9
  8
ﾁｭｳｼﾝｾﾝ
 10
273.19315075676991
 20
426.02741430486191
 30
0.0
 11
293.1931507567698
 21
426.02741430486191
 31
0.0
  0
ARC
  5
8CEA
  8
AM_0
 10
288.19321075676982
 20
432.0854543048618
 30
0.0
 40
5.0
 50
0.0
 51
88.499997000000747
  0
LINE
  5
8CF2
  8
ﾁｭｳｼﾝｾﾝ
 10
575.48250308546233
 20
116.8844043048618
 30
0.0
 11
445.99633842807702
 21
116.8844043048618
 31
0.0
  0
LINE
  5
8D00
  8
ｶｸﾚｾﾝ2
 10
448.23942075676968
 20
58.884398304862032
 30
0.0
 11
448.23942075676968
 21
48.884394304861956
 31
0.0
  0
LINE
  5
8D01
  8
ｶｸﾚｾﾝ2
 10
458.23942075676968
 20
58.884398304862032
 30
0.0
 11
458.23942075676968
 21
48.884394304861956
 31
0.0
  0
LINE
  5
8D02
  8
ﾁｭｳｼﾝｾﾝ
 10
453.23940075676973
 20
61.884398304862003
 30
0.0
 11
453.23940075676973
 21
45.884394304861956
 31
0.0
  0
LINE
  5
8D5D
  8
ｶｸﾚｾﾝ2
 10
563.23940075676956
 20
58.884398304862032
 30
0.0
 11
563.23940075676956
 21
48.884394304861956
 31
0.0
  0
LINE
  5
8D5E
  8
ﾁｭｳｼﾝｾﾝ
 10
568.23939275676958
 20
61.884398304862032
 30
0.0
 11
568.23939275676958
 21
45.873064304861998
 31
0.0
  0
LINE
  5
8D66
  8
ｶｸﾚｾﾝ2
 10
573.23940875676988
 20
58.884398304862032
 30
0.0
 11
573.23940875676988
 21
48.884394304861956
 31
0.0
  0
LINE
  5
9619
  8
AM_0
 10
295.19313875676983
 20
143.38441230486191
 30
0.0
 11
323.19315875676978
 21
143.38441230486191
 31
0.0
  0
LINE
  5
961A
  8
AM_0
 10
295.19313875676983
 20
124.3844103048619
 30
0.0
 11
323.19315875676978
 21
124.3844103048619
 31
0.0
  0
LINE
  5
961B
  8
ﾁｭｳｼﾝｾﾝ
 10
221.8437387567698
 20
133.88441130486191
 30
0.0
 11
326.90558227767889
 21
133.88441130486191
 31
0.0
  0
ARC
  5
9621
  8
AM_0
 10
94.516988756770004
 20
131.89442130486191
 30
0.0
 40
1.335016049999999
 50
89.732355000002002
 51
270.26763000000221
  0
LINE
  5
9622
  8
AM_0
 10
35.193188756769921
 20
85.214394304861955
 30
0.0
 11
35.193188756769921
 21
151.41438030486191
 31
0.0
  0
LINE
  5
9623
  8
AM_0
 10
37.693178756769953
 20
92.904399304861926
 30
0.0
 11
37.69317875677018
 21
173.88442530486179
 31
0.0
  0
LINE
  5
9624
  8
AM_0
 10
85.193198756770016
 20
173.88442530486179
 30
0.0
 11
85.193198756770016
 21
59.884407304861959
 31
0.0
  0
LINE
  5
9625
  8
ﾁｭｳｼﾝｾﾝ
 10
150.19317875677001
 20
157.50942480486191
 30
0.0
 11
150.19317875677001
 21
76.259395804861953
 31
0.0
  0
LINE
  5
9626
  8
AM_0
 10
190.9632087567698
 20
146.8794063048619
 30
0.0
 11
190.9632087567698
 21
86.879403304861953
 31
0.0
  0
LINE
  5
9627
  8
AM_0
 10
93.193178756770195
 20
169.87939530486179
 30
0.0
 11
93.193178756770195
 21
67.439415304861939
 31
0.0
  0
LINE
  5
9628
  8
AM_0
 10
201.19320875676979
 20
172.8844053048619
 30
0.0
 11
201.19320875676979
 21
60.884394304861971
 31
0.0
  0
LINE
  5
9629
  8
AM_0
 10
257.97888875676989
 20
141.22373730486191
 30
0.0
 11
246.19317875676981
 21
58.884393304861931
 31
0.0
  0
LINE
  5
962A
  8
AM_0
 10
246.19317875676981
 20
145.5152703048619
 30
0.0
 11
246.19317875676981
 21
58.884408304861957
 31
0.0
  0
LINE
  5
962B
  8
AM_0
 10
209.1931887567699
 20
172.88443530486191
 30
0.0
 11
209.1931887567699
 21
60.884424304861909
 31
0.0
  0
LINE
  5
962C
  8
AM_0
 10
227.1931587567698
 20
156.7580253048618
 30
0.0
 11
227.1931587567698
 21
116.8844103048619
 31
0.0
  0
LINE
  5
962D
  8
AM_0
 10
293.19315875676978
 20
152.91025530486181
 30
0.0
 11
293.19315875676978
 21
114.85856130486179
 31
0.0
  0
LINE
  5
962E
  8
AM_0
 10
268.19319875676968
 20
63.884394304861956
 30
0.0
 11
268.19319875676968
 21
141.80183130486191
 31
0.0
  0
LINE
  5
962F
  8
AM_0
 10
281.19315875676978
 20
170.75671530486181
 30
0.0
 11
281.19315875676978
 21
85.651833304861952
 31
0.0
  0
LINE
  5
9630
  8
AM_0
 10
291.19317875676973
 20
161.88442530486191
 30
0.0
 11
291.19317875676973
 21
62.074806304861958
 31
0.0
  0
LINE
  5
9631
  8
AM_0
 10
233.1931587567698
 20
176.88442530486191
 30
0.0
 11
233.1931587567698
 21
66.884424304861895
 31
0.0
  0
LINE
  5
9632
  8
AM_0
 10
295.19313875676983
 20
123.8844093048619
 30
0.0
 11
295.19313875676983
 21
133.88441130486191
 31
0.0
  0
ARC
  5
9634
  8
AM_0
 10
28.903568756770031
 20
67.583352304861933
 30
0.0
 40
0.30119199
 50
5.9148297999986124
 51
88.175987000000262
  0
ARC
  5
9635
  8
AM_0
 10
28.905038756769951
 20
67.582056304861936
 30
0.0
 40
0.8023920299999998
 50
5.8908350000000427
 51
89.417558000000085
  0
LINE
  5
9637
  8
AM_0
 10
28.69317875677018
 20
68.384394304861999
 30
0.0
 11
28.69317875677018
 21
67.884408304861935
 31
0.0
  0
LINE
  5
9638
  8
AM_0
 10
28.69317875677018
 20
68.384394304861999
 30
0.0
 11
28.913228756769861
 21
68.384394304861999
 31
0.0
  0
LINE
  5
9639
  8
AM_0
 10
194.43324331278251
 20
80.884410304861902
 30
0.0
 11
95.835682913692494
 21
80.884410304861902
 31
0.0
  0
LINE
  5
963A
  8
AM_0
 10
150.19317875677001
 20
80.159403304861954
 30
0.0
 11
198.01320875676981
 21
80.159403304861954
 31
0.0
  0
LINE
  5
963B
  8
AM_0
 10
96.393188756769959
 20
60.599388304861918
 30
0.0
 11
193.31319875676979
 21
60.599388304861918
 31
0.0
  0
LINE
  5
963C
  8
AM_0
 10
118.69317875677
 20
78.659403304861954
 30
0.0
 11
201.19320875676979
 21
78.659403304861954
 31
0.0
  0
LINE
  5
963D
  8
ﾁｭｳｼﾝｾﾝ
 10
30.662258756769909
 20
116.8844103048619
 30
0.0
 11
231.1567287567697
 21
116.8844103048619
 31
0.0
  0
ARC
  5
9640
  8
AM_0
 10
300.2443719640234
 20
118.57198424478371
 30
0.0
 40
204.69842337270771
 50
178.02572260412779
 51
178.71785518950381
  0
ARC
  5
9641
  8
AM_0
 10
300.16712007586062
 20
115.1924403788363
 30
0.0
 40
204.6212004872653
 50
181.28349981584489
 51
181.97561674815401
  0
ARC
  5
9642
  8
AM_0
 10
95.735438756770165
 20
81.879405304861919
 30
0.0
 40
1.0000319699999971
 50
89.552707000000453
 51
270.44730000000112
  0
ARC
  5
9643
  8
AM_0
 10
95.735438756770165
 20
131.8794063048619
 30
0.0
 40
1.0000319699999971
 50
89.552707000000453
 51
270.44730000000112
  0
ARC
  5
9644
  8
AM_0
 10
95.735438756770165
 20
121.87940430486179
 30
0.0
 40
1.0000319699999971
 50
89.552707000000453
 51
270.44730000000112
  0
ARC
  5
9645
  8
AM_0
 10
95.735438756770165
 20
111.8794053048619
 30
0.0
 40
1.0000319699999971
 50
89.552707000000453
 51
270.44730000000112
  0
ARC
  5
9646
  8
AM_0
 10
95.735438756770165
 20
101.8794033048619
 30
0.0
 40
1.0000319699999971
 50
89.552707000000453
 51
270.44730000000112
  0
ARC
  5
9647
  8
AM_0
 10
95.735438756770165
 20
91.879389304861945
 30
0.0
 40
1.0000319699999971
 50
89.552707000000453
 51
270.44730000000112
  0
ARC
  5
9648
  8
AM_0
 10
94.45497875676979
 20
121.8893853048618
 30
0.0
 40
1.270028039999999
 50
89.627211000000699
 51
270.37279000000223
  0
ARC
  5
9649
  8
AM_0
 10
94.45497875676979
 20
111.8794053048619
 30
0.0
 40
1.270028039999999
 50
89.627211000000699
 51
270.37279000000223
  0
ARC
  5
964A
  8
AM_0
 10
94.516988756770004
 20
101.8693953048619
 30
0.0
 40
1.3300160699999981
 50
89.731343999997904
 51
270.2686499999993
  0
ARC
  5
964B
  8
AM_0
 10
94.647608756769969
 20
91.859415304861955
 30
0.0
 40
1.4600120099999969
 50
89.778814000002811
 51
270.22118999999998
  0
ARC
  5
964C
  8
AM_0
 10
96.485318756769956
 20
56.989878304861918
 30
0.0
 40
2.000475929999999
 50
187.7704600000003
 51
269.93969000000249
  0
ARC
  5
964D
  8
AM_0
 10
96.397838756769787
 20
62.5983963048619
 30
0.0
 40
1.999007999999999
 50
190.6374099999999
 51
269.86655000000292
  0
ARC
  5
964E
  8
AM_0
 10
96.449168756770007
 20
59.749581304861962
 30
0.0
 40
2.0001841200000001
 50
188.92099999999891
 51
269.8285299999992
  0
ARC
  5
964F
  8
AM_0
 10
96.456728756769962
 20
57.906732304861897
 30
0.0
 40
1.997348129999998
 50
188.85146999999961
 51
270.18467999999763
  0
LINE
  5
9650
  8
AM_0
 10
99.193178756769967
 20
132.8794053048619
 30
0.0
 11
95.553248756769989
 21
132.8794053048619
 31
0.0
  0
LINE
  5
9651
  8
AM_0
 10
99.193178756769967
 20
130.87940430486191
 30
0.0
 11
95.553248756769989
 21
130.87940430486191
 31
0.0
  0
LINE
  5
9652
  8
AM_0
 10
99.193178756769967
 20
122.8794063048619
 30
0.0
 11
95.553248756769989
 21
122.8794063048619
 31
0.0
  0
LINE
  5
9653
  8
AM_0
 10
99.193178756769967
 20
120.8794053048619
 30
0.0
 11
95.553248756769989
 21
120.8794053048619
 31
0.0
  0
LINE
  5
9654
  8
AM_0
 10
94.523198756769787
 20
130.5593973048619
 30
0.0
 11
99.193178756769967
 21
130.5593973048619
 31
0.0
  0
LINE
  5
9655
  8
AM_0
 10
94.463198756769643
 20
123.15940530486191
 30
0.0
 11
99.193178756769967
 21
123.15940530486191
 31
0.0
  0
LINE
  5
9656
  8
AM_0
 10
94.463198756769643
 20
120.6193953048619
 30
0.0
 11
99.193178756769967
 21
120.6193953048619
 31
0.0
  0
LINE
  5
9657
  8
AM_0
 10
94.463198756769643
 20
113.1493953048619
 30
0.0
 11
99.193178756769967
 21
113.1493953048619
 31
0.0
  0
LINE
  5
9658
  8
AM_0
 10
99.193178756769967
 20
112.87940430486179
 30
0.0
 11
95.553248756769989
 21
112.87940430486179
 31
0.0
  0
LINE
  5
9659
  8
AM_0
 10
99.193178756769967
 20
110.8794063048619
 30
0.0
 11
95.553248756769989
 21
110.8794063048619
 31
0.0
  0
LINE
  5
965A
  8
AM_0
 10
94.463198756769643
 20
110.6094153048619
 30
0.0
 11
99.193178756769967
 21
110.6094153048619
 31
0.0
  0
LINE
  5
965B
  8
AM_0
 10
94.523198756769787
 20
103.19941230486199
 30
0.0
 11
99.193178756769967
 21
103.19941230486199
 31
0.0
  0
LINE
  5
965C
  8
AM_0
 10
99.193178756769967
 20
102.8794053048619
 30
0.0
 11
95.553248756769989
 21
102.8794053048619
 31
0.0
  0
LINE
  5
965D
  8
AM_0
 10
99.193178756769967
 20
100.8793893048619
 30
0.0
 11
95.553248756769989
 21
100.8793893048619
 31
0.0
  0
LINE
  5
965E
  8
AM_0
 10
94.523198756769787
 20
100.53940830486179
 30
0.0
 11
99.193178756769967
 21
100.53940830486179
 31
0.0
  0
LINE
  5
965F
  8
AM_0
 10
99.193178756769967
 20
92.879403304861953
 30
0.0
 11
95.553248756769989
 21
92.879403304861953
 31
0.0
  0
LINE
  5
9660
  8
AM_0
 10
94.653218756770002
 20
93.319407304861855
 30
0.0
 11
99.193178756769967
 21
93.319407304861855
 31
0.0
  0
LINE
  5
9661
  8
AM_0
 10
99.193178756769967
 20
90.879405304861947
 30
0.0
 11
95.553248756769989
 21
90.879405304861947
 31
0.0
  0
LINE
  5
9662
  8
AM_0
 10
94.653218756770002
 20
90.399393304861945
 30
0.0
 11
99.193178756769967
 21
90.399393304861945
 31
0.0
  0
LINE
  5
9663
  8
AM_0
 10
94.863188756769873
 20
80.159403304861954
 30
0.0
 11
150.19317875677001
 21
80.159403304861954
 31
0.0
  0
LINE
  5
9664
  8
AM_0
 10
94.863188756769873
 20
83.519418304861972
 30
0.0
 11
99.300082785183932
 21
83.519418304861972
 31
0.0
  0
LINE
  5
9665
  8
AM_0
 10
99.530547917874685
 20
82.879389304861931
 30
0.0
 11
95.553248756769989
 21
82.879389304861931
 31
0.0
  0
LINE
  5
9666
  8
AM_0
 10
98.553188756769941
 20
80.229411304861912
 30
0.0
 11
93.193178756770195
 21
68.789406304861927
 31
0.0
  0
LINE
  5
9667
  8
AM_0
 10
44.27319875676983
 20
113.1644073048619
 30
0.0
 11
29.81319875676979
 21
68.654397304861959
 31
0.0
  0
LINE
  5
9668
  8
AM_0
 10
49.033148756769833
 20
111.6243993048619
 30
0.0
 11
34.573208756769979
 21
67.114404304861978
 31
0.0
  0
LINE
  5
9669
  8
AM_0
 10
37.693178756769953
 20
72.994395304861953
 30
0.0
 11
85.193198756770016
 21
72.994395304861953
 31
0.0
  0
LINE
  5
966A
  8
AM_0
 10
37.193198756770009
 20
59.884407304861959
 30
0.0
 11
85.193198756770016
 21
59.884407304861959
 31
0.0
  0
ARC
  5
966B
  8
AM_0
 10
32.193188756769928
 20
67.884408304861935
 30
0.0
 40
2.5014601500000002
 50
162.0720800000006
 51
342.07206999999772
  0
LINE
  5
966C
  8
AM_0
 10
35.193188756769921
 20
69.03440130486193
 30
0.0
 11
35.193188756769921
 21
61.884408304861971
 31
0.0
  0
ARC
  5
966D
  8
AM_0
 10
32.192138756769971
 20
67.882866304861921
 30
0.0
 40
3.001016099999998
 50
185.13260000000091
 51
0.0291460009999036
  0
ARC
  5
966E
  8
AM_0
 10
37.190918756769968
 20
61.882089304861957
 30
0.0
 40
1.9976960999999991
 50
179.93382999999969
 51
270.06616999999687
  0
ARC
  5
966F
  8
AM_0
 10
35.241908756769931
 20
79.384317304861952
 30
0.0
 40
4.0507442999999981
 50
99.07179099999837
 51
224.9123400000025
  0
LINE
  5
9670
  8
AM_0
 10
37.693178756769953
 20
76.724391304861911
 30
0.0
 11
37.693178756769953
 21
59.884407304861959
 31
0.0
  0
LINE
  5
9671
  8
AM_0
 10
93.193178756770195
 20
68.789391304861937
 30
0.0
 11
94.433168756769959
 21
62.229393304861951
 31
0.0
  0
LINE
  5
9672
  8
AM_0
 10
93.193178756770195
 20
66.099420304861951
 30
0.0
 11
94.503188756769987
 21
56.719416304861959
 31
0.0
  0
LINE
  5
9673
  8
AM_0
 10
85.193198756770016
 20
63.884394304861956
 30
0.0
 11
93.193178756770195
 21
63.884394304861956
 31
0.0
  0
LINE
  5
9674
  8
AM_0
 10
85.193198756770016
 20
63.879402304861941
 30
0.0
 11
93.193178756770195
 21
63.879402304861941
 31
0.0
  0
LINE
  5
9675
  8
AM_0
 10
93.193178756770195
 20
67.439400304861977
 30
0.0
 11
94.473158756769791
 21
59.439402304861908
 31
0.0
  0
LINE
  5
9676
  8
AM_0
 10
93.193178756770195
 20
66.09939030486197
 30
0.0
 11
94.483238756770007
 21
57.599403304861937
 31
0.0
  0
LINE
  5
9677
  8
AM_0
 10
85.883198756769957
 20
73.689402304861915
 30
0.0
 11
92.113238756769988
 21
73.689402304861915
 31
0.0
  0
LINE
  5
9678
  8
AM_0
 10
80.193188756769985
 20
72.994395304861953
 30
0.0
 11
80.193188756769985
 21
59.884407304861959
 31
0.0
  0
ARC
  5
9679
  8
AM_0
 10
94.863188756769873
 20
81.839394304861955
 30
0.0
 40
1.679999999999999
 50
90.00000299999769
 51
270.0
  0
ARC
  5
967A
  8
AM_0
 10
68.192708756769889
 20
116.8841973048619
 30
0.0
 40
8.000195699999999
 50
89.996300999997729
 51
161.78902999999909
  0
ARC
  5
967B
  8
AM_0
 10
68.190758756770151
 20
116.8819683048619
 30
0.0
 40
7.997572199999996
 50
198.19734999999659
 51
270.0173099999991
  0
LINE
  5
967C
  8
AM_0
 10
52.843148756770013
 20
119.3843793048618
 30
0.0
 11
62.693198756770023
 21
119.3843793048618
 31
0.0
  0
LINE
  5
967D
  8
AM_0
 10
52.843148756770013
 20
114.3844113048619
 30
0.0
 11
62.693198756770023
 21
114.3844113048619
 31
0.0
  0
ARC
  5
967E
  8
AM_0
 10
52.840958756769751
 20
110.3873103048619
 30
0.0
 40
8.9970875999999986
 50
89.985774999998554
 51
162.0211999999996
  0
ARC
  5
967F
  8
AM_0
 10
52.836428756769919
 20
110.3840133048619
 30
0.0
 40
4.0003919999999971
 50
89.903054999997906
 51
161.93679000000009
  0
LINE
  5
9680
  8
ﾁｭｳｼﾝｾﾝ
 10
68.193188756769928
 20
107.1744123048619
 30
0.0
 11
68.193188756769928
 21
126.5944083048619
 31
0.0
  0
LINE
  5
9681
  8
AM_0
 10
68.193188756769928
 20
108.88437930486189
 30
0.0
 11
85.193198756770016
 21
108.88437930486189
 31
0.0
  0
LINE
  5
9682
  8
AM_0
 10
68.193188756769928
 20
124.8844113048619
 30
0.0
 11
85.193198756770016
 21
124.8844113048619
 31
0.0
  0
ARC
  5
9683
  8
AM_0
 10
68.193188756769928
 20
116.8823973048618
 30
0.0
 40
4.998440399999998
 50
23.61099900000389
 51
156.3890000000039
  0
ARC
  5
9684
  8
AM_0
 10
68.193188756769928
 20
116.8823973048618
 30
0.0
 40
4.9968401999999958
 50
203.56897999999919
 51
336.43102000000079
  0
LINE
  5
9685
  8
AM_0
 10
62.693198756770023
 20
118.8844113048619
 30
0.0
 11
73.693178756769953
 21
118.8844113048619
 31
0.0
  0
LINE
  5
9686
  8
AM_0
 10
62.693198756770023
 20
114.8843793048618
 30
0.0
 11
73.693178756769953
 21
114.8843793048618
 31
0.0
  0
LINE
  5
9687
  8
AM_0
 10
62.693198756770023
 20
114.3844113048619
 30
0.0
 11
62.693198756770023
 21
119.3843793048618
 31
0.0
  0
LINE
  5
9688
  8
AM_0
 10
76.193198756770016
 20
114.3844113048619
 30
0.0
 11
76.193198756770016
 21
119.3843793048618
 31
0.0
  0
LINE
  5
9689
  8
AM_0
 10
73.693178756769953
 20
114.3844113048619
 30
0.0
 11
73.693178756769953
 21
119.3843793048618
 31
0.0
  0
LINE
  5
968A
  8
AM_0
 10
73.693178756769953
 20
119.3843793048618
 30
0.0
 11
76.193198756770016
 21
119.3843793048618
 31
0.0
  0
LINE
  5
968B
  8
AM_0
 10
73.693178756769953
 20
114.3844113048619
 30
0.0
 11
76.193198756770016
 21
114.3844113048619
 31
0.0
  0
ARC
  5
968C
  8
AM_0
 10
297.1569033981483
 20
118.5922508703851
 30
0.0
 40
201.61085738285439
 50
179.42527489174191
 51
180.13294661222409
  0
ARC
  5
968D
  8
AM_0
 10
300.18682267628202
 20
118.5916336485013
 30
0.0
 40
204.64076721509861
 50
180.13080539050151
 51
180.4794013531876
  0
ARC
  5
968E
  8
AM_0
 10
298.44015672713459
 20
115.16666156787019
 30
0.0
 40
202.89403267033549
 50
180.21919094446349
 51
180.57069649463509
  0
ARC
  5
968F
  8
AM_0
 10
299.47679628894031
 20
115.1749049003917
 30
0.0
 40
203.93069622692141
 50
179.87077327205679
 51
180.22039274125319
  0
ARC
  5
9690
  8
AM_0
 10
299.0988017983708
 20
115.17767451838731
 30
0.0
 40
203.55269646012371
 50
179.52099544220559
 51
179.87131288696011
  0
ARC
  5
9691
  8
AM_0
 10
300.51227056155312
 20
115.1792028139262
 30
0.0
 40
204.96200297080929
 50
186.94488316605711
 51
187.59240971813199
  0
LINE
  5
9692
  8
AM_0
 10
96.443198756770002
 20
57.74939730486193
 30
0.0
 11
130.1931987567701
 21
57.74939730486193
 31
0.0
  0
LINE
  5
9693
  8
AM_0
 10
96.4632087567703
 20
55.909401304861937
 30
0.0
 11
130.1931987567701
 21
55.909401304861937
 31
0.0
  0
LINE
  5
9694
  8
AM_0
 10
96.483218756769986
 20
54.989403304861959
 30
0.0
 11
130.1931987567701
 21
54.989403304861959
 31
0.0
  0
LINE
  5
9695
  8
AM_0
 10
118.69317875677
 20
78.659403304861954
 30
0.0
 11
98.520398756769794
 21
80.159403304861954
 31
0.0
  0
ARC
  5
9696
  8
AM_0
 10
300.99450592429912
 20
115.24951927476521
 30
0.0
 40
205.44930125633391
 50
187.5940787099791
 51
188.88606759391769
  0
ARC
  5
9697
  8
AM_0
 10
130.18989875676991
 20
57.912684304861934
 30
0.0
 40
2.003279969999999
 50
270.09378999999711
 51
359.9062099999997
  0
LINE
  5
9698
  8
AM_0
 10
132.19317875677001
 20
56.989404304861978
 30
0.0
 11
132.19317875677001
 21
60.599388304861918
 31
0.0
  0
ARC
  5
9699
  8
AM_0
 10
130.18518875677
 20
56.997414304861991
 30
0.0
 40
2.0080361999999981
 50
270.22878999999938
 51
359.77121000000051
  0
ARC
  5
969A
  8
AM_0
 10
130.18599875677009
 20
59.756586304861898
 30
0.0
 40
2.007180029999998
 50
270.20461999999759
 51
359.795379999999
  0
ARC
  5
969C
  8
AM_0
 10
300.09953662909578
 20
115.1877968364529
 30
0.0
 40
204.55326957220879
 50
185.460313996346
 51
186.1370008544755
  0
ARC
  5
969D
  8
AM_0
 10
300.75290552285668
 20
115.2470018848429
 30
0.0
 40
205.2093074617344
 50
184.78473638767409
 51
185.45941055423489
  0
ARC
  5
969E
  8
AM_0
 10
300.18254178816522
 20
115.19707843423021
 30
0.0
 40
204.63676715666841
 50
184.10764570184509
 51
184.78412767205279
  0
ARC
  5
969F
  8
AM_0
 10
299.92389844028492
 20
115.1853368117177
 30
0.0
 40
204.37787853975311
 50
181.97597713470071
 51
183.3618692197046
  0
ARC
  5
96A0
  8
AM_0
 10
300.25272166601007
 20
118.56933333105241
 30
0.0
 40
204.70684984457009
 50
176.6408431394315
 51
177.3330192691985
  0
ARC
  5
96A1
  8
AM_0
 10
301.56958733899017
 20
118.5151583218303
 30
0.0
 40
206.0248100930055
 50
177.33501004864431
 51
178.02262526942769
  0
LINE
  5
96AE
  8
AM_0
 10
229.52544875676969
 20
58.884408304861957
 30
0.0
 11
211.69320875676979
 21
58.884408304861957
 31
0.0
  0
LINE
  5
96AF
  8
AM_0
 10
210.19320875676979
 20
48.884394304861956
 30
0.0
 11
230.1931587567698
 21
48.884394304861956
 31
0.0
  0
LINE
  5
96B0
  8
AM_0
 10
227.1931587567698
 20
58.884408304861957
 30
0.0
 11
227.1931587567698
 21
116.8844103048619
 31
0.0
  0
LINE
  5
96B1
  8
AM_0
 10
198.01320875676981
 20
83.519418304861972
 30
0.0
 11
188.19317875676961
 21
83.519418304861972
 31
0.0
  0
LINE
  5
96B2
  8
AM_0
 10
199.69320875676971
 20
78.659403304861954
 30
0.0
 11
195.2431887567698
 21
62.079399304861901
 31
0.0
  0
ARC
  5
96B3
  8
AM_0
 10
193.3103187567697
 20
62.601540304862013
 30
0.0
 40
2.0021281800000001
 50
270.0815199999999
 51
344.88329999999632
  0
LINE
  5
96B4
  8
AM_0
 10
194.5332087567698
 20
82.879389304861931
 30
0.0
 11
188.19317875676961
 21
82.879389304861931
 31
0.0
  0
LINE
  5
96B5
  8
AM_0
 10
188.19317875676961
 20
86.801698220534973
 30
0.0
 11
190.9632087567698
 21
86.879388304861934
 31
0.0
  0
ARC
  5
96B6
  8
AM_0
 10
194.5332087567698
 20
81.879405304861919
 30
0.0
 40
1.000004069999999
 50
270.0
 51
90.00000299999769
  0
LINE
  5
96B7
  8
AM_0
 10
209.1931887567699
 20
60.88440930486194
 30
0.0
 11
225.7324587567698
 21
60.451317304861973
 31
0.0
  0
LINE
  5
96B8
  8
AM_0
 10
210.19320875676979
 20
48.884394304861956
 30
0.0
 11
210.19320875676979
 21
57.384408304861957
 31
0.0
  0
LINE
  5
96B9
  8
AM_0
 10
201.19320875676979
 20
60.884394304861971
 30
0.0
 11
209.1931887567699
 21
60.884394304861971
 31
0.0
  0
LINE
  5
96BA
  8
AM_0
 10
195.73317875676969
 20
63.879402304861941
 30
0.0
 11
201.19320875676979
 21
63.879402304861941
 31
0.0
  0
ARC
  5
96BB
  8
AM_0
 10
211.69320875676979
 20
57.384408304861957
 30
0.0
 40
1.5000000299999969
 50
90.00000299999769
 51
180.00001000000091
  0
ARC
  5
96BF
  8
AM_0
 10
225.6931587567698
 20
58.951836304861942
 30
0.0
 40
1.5000000299999969
 50
0.0
 51
88.499997000000747
  0
LINE
  5
96C0
  8
AM_0
 10
209.1931887567699
 20
70.88440830486195
 30
0.0
 11
227.1931587567698
 21
70.88440830486195
 31
0.0
  0
LINE
  5
96C1
  8
AM_0
 10
209.1931887567699
 20
84.946971304861904
 30
0.0
 11
227.1931587567698
 21
84.946971304861904
 31
0.0
  0
LINE
  5
96C2
  8
AM_0
 10
201.19320875676979
 20
70.88440830486195
 30
0.0
 11
209.1931887567699
 21
70.88440830486195
 31
0.0
  0
LINE
  5
96C3
  8
AM_0
 10
201.19320875676979
 20
84.944406304861957
 30
0.0
 11
209.1931887567699
 21
84.944406304861957
 31
0.0
  0
ARC
  5
96C4
  8
AM_0
 10
198.01320875676981
 20
81.839394304861955
 30
0.0
 40
1.680008099999998
 50
270.0
 51
90.00000299999769
  0
ARC
  5
96C5
  8
AM_0
 10
198.01320875676981
 20
81.839394304861955
 30
0.0
 40
1.675004159999999
 50
270.0
 51
90.00000299999769
  0
LINE
  5
96C8
  8
AM_0
 10
236.17266875676989
 20
92.70974130486195
 30
0.0
 11
232.50489875676979
 21
61.533867304861971
 31
0.0
  0
LINE
  5
96C9
  8
AM_0
 10
231.1931787567699
 20
49.884408304861957
 30
0.0
 11
272.19315875676978
 21
49.884408304861957
 31
0.0
  0
ARC
  5
96CA
  8
AM_0
 10
231.1931787567699
 20
48.884394304861956
 30
0.0
 40
1.0000000199999941
 50
90.00000299999769
 51
180.00001000000091
  0
LINE
  5
96CB
  8
AM_0
 10
230.1931587567698
 20
48.884394304861956
 30
0.0
 11
230.1931587567698
 21
48.884394304861956
 31
0.0
  0
ARC
  5
96CC
  8
AM_0
 10
229.52544875676969
 20
61.884408304861971
 30
0.0
 40
3.0
 50
270.0
 51
353.29016000000053
  0
LINE
  5
96CD
  8
AM_0
 10
273.19317875676973
 20
48.884394304861956
 30
0.0
 11
293.19315875676978
 21
48.884394304861956
 31
0.0
  0
LINE
  5
96CE
  8
AM_0
 10
291.69315875676978
 20
58.884408304861957
 30
0.0
 11
273.19317875676973
 21
58.884408304861957
 31
0.0
  0
ARC
  5
96D0
  8
AM_0
 10
272.19315875676978
 20
48.884394304861956
 30
0.0
 40
1.0000000199999941
 50
0.0
 51
90.00000299999769
  0
LINE
  5
96D1
  8
AM_0
 10
273.19317875676973
 20
48.884394304861956
 30
0.0
 11
273.19317875676973
 21
48.884394304861956
 31
0.0
  0
ARC
  5
96D2
  8
AM_0
 10
273.19317875676973
 20
63.884394304861956
 30
0.0
 40
5.0000000999999958
 50
180.00001000000091
 51
270.0
  0
LINE
  5
96D4
  8
AM_0
 10
293.19315875676978
 20
48.884394304861956
 30
0.0
 11
293.19315875676978
 21
57.384408304861957
 31
0.0
  0
ARC
  5
96D6
  8
AM_0
 10
296.19315875676978
 20
62.074806304861958
 30
0.0
 40
5.0000000999999958
 50
179.99998999999889
 51
226.18693000000181
  0
ARC
  5
96D7
  8
AM_0
 10
291.69315875676978
 20
57.384408304861957
 30
0.0
 40
1.5000000299999969
 50
0.0
 51
90.00000299999769
  0
ARC
  5
96D8
  8
AM_0
 10
276.19317875676973
 20
85.651833304861952
 30
0.0
 40
5.0000000999999958
 50
270.0
 51
0.0
  0
LINE
  5
96D9
  8
AM_0
 10
276.19317875676973
 20
80.651820304861914
 30
0.0
 11
268.19319875676968
 21
80.651820304861914
 31
0.0
  0
LINE
  5
96DA
  8
AM_0
 10
236.1931587567698
 20
121.6352343048619
 30
0.0
 11
236.1931587567698
 21
93.060267304861952
 31
0.0
  0
ARC
  5
96DB
  8
AM_0
 10
233.1931587567698
 20
93.060267304861952
 30
0.0
 40
3.0
 50
353.29016000000053
 51
0.0
  0
ARC
  5
96DC
  8
AM_0
 10
292.19319875676968
 20
114.85856130486179
 30
0.0
 40
1.0000000199999941
 50
271.50000000000267
 51
0.0
  0
ARC
  5
96DD
  8
AM_0
 10
292.19319875676968
 20
112.85785830486191
 30
0.0
 40
1.0000000199999941
 50
91.500001000001546
 51
180.00001000000091
  0
LINE
  5
96DE
  8
AM_0
 10
292.1670087567698
 20
113.8575243048619
 30
0.0
 11
292.21935875676968
 21
113.8588983048619
 31
0.0
  0
LINE
  5
96DF
  8
AM_0
 10
293.19315875676978
 20
123.8844093048619
 30
0.0
 11
295.19313875676983
 21
123.8844093048619
 31
0.0
  0
LINE
  5
96E5
  8
AM_0
 10
95.743245662622925
 20
152.87940880148221
 30
0.0
 11
194.5332087044097
 21
152.8794113748618
 31
0.0
  0
LINE
  5
96E6
  8
AM_0
 10
94.863188756769873
 20
153.60937530486191
 30
0.0
 11
198.01320875676981
 21
153.60937530486191
 31
0.0
  0
LINE
  5
96E7
  8
AM_0
 10
96.393188756769959
 20
173.1694053048619
 30
0.0
 11
193.31319875676979
 21
173.1694053048619
 31
0.0
  0
LINE
  5
96E8
  8
AM_0
 10
118.69317875677
 20
155.10937530486191
 30
0.0
 11
201.19320875676979
 21
155.10937530486191
 31
0.0
  0
ARC
  5
96EB
  8
AM_0
 10
95.735438756770165
 20
151.8794073048619
 30
0.0
 40
1.0000319699999971
 50
89.552707000000453
 51
270.44730000000112
  0
ARC
  5
96EC
  8
AM_0
 10
95.735438756770165
 20
141.8794053048619
 30
0.0
 40
1.0000319699999971
 50
89.552707000000453
 51
270.44730000000112
  0
ARC
  5
96ED
  8
AM_0
 10
94.647548756769865
 20
141.90940530486191
 30
0.0
 40
1.4600120099999969
 50
89.777016999998949
 51
270.22298999999867
  0
ARC
  5
96EE
  8
AM_0
 10
96.396068756769921
 20
171.17248530486191
 30
0.0
 40
1.9969040699999969
 50
90.083473999999597
 51
169.41256000000109
  0
ARC
  5
96EF
  8
AM_0
 10
96.441608756769796
 20
174.01627530486181
 30
0.0
 40
1.9931281199999991
 50
89.953373000000497
 51
170.96118000000021
  0
ARC
  5
96F0
  8
AM_0
 10
96.455948756769772
 20
175.86481530486191
 30
0.0
 40
1.9945880699999969
 50
89.790753000002425
 51
171.50709000000151
  0
ARC
  5
96F1
  8
AM_0
 10
96.477848756769845
 20
176.775915304862
 30
0.0
 40
1.9934921999999999
 50
89.84609100000138
 51
172.1147399999993
  0
LINE
  5
96F2
  8
AM_0
 10
99.528704877801744
 20
150.8794053048619
 30
0.0
 11
95.553248756769989
 21
150.8794053048619
 31
0.0
  0
LINE
  5
96F3
  8
AM_0
 10
99.193178756769967
 20
142.8794073048619
 30
0.0
 11
95.553248756769989
 21
142.8794073048619
 31
0.0
  0
LINE
  5
96F4
  8
AM_0
 10
99.193178756769967
 20
140.8794063048619
 30
0.0
 11
95.553248756769989
 21
140.8794063048619
 31
0.0
  0
LINE
  5
96F5
  8
AM_0
 10
94.863188756769873
 20
150.2494023048618
 30
0.0
 11
99.301851360721685
 21
150.2494023048618
 31
0.0
  0
LINE
  5
96F6
  8
AM_0
 10
94.653218756770002
 20
143.36939730486199
 30
0.0
 11
99.193178756769967
 21
143.36939730486199
 31
0.0
  0
LINE
  5
96F7
  8
AM_0
 10
94.653218756770002
 20
140.4493833048619
 30
0.0
 11
99.193178756769967
 21
140.4493833048619
 31
0.0
  0
LINE
  5
96F8
  8
AM_0
 10
94.523198756769787
 20
133.22941230486191
 30
0.0
 11
99.193178756769967
 21
133.22941230486191
 31
0.0
  0
LINE
  5
96F9
  8
AM_0
 10
98.553188756769941
 20
153.52939530486191
 30
0.0
 11
93.193178756770195
 21
164.9793753048618
 31
0.0
  0
LINE
  5
96FA
  8
AM_0
 10
93.193178756770195
 20
167.66938530486181
 30
0.0
 11
94.503188756769987
 21
177.0493953048618
 31
0.0
  0
LINE
  5
96FB
  8
AM_0
 10
37.693178756769953
 20
160.77439530486191
 30
0.0
 11
85.193198756770016
 21
160.77439530486191
 31
0.0
  0
LINE
  5
96FC
  8
AM_0
 10
37.693178756769953
 20
150.5243943048618
 30
0.0
 11
80.193188756769985
 21
150.5243943048618
 31
0.0
  0
LINE
  5
96FD
  8
AM_0
 10
37.193198756770009
 20
173.88442530486179
 30
0.0
 11
85.193198756770016
 21
173.88442530486179
 31
0.0
  0
LINE
  5
96FE
  8
AM_0
 10
36.393188756769973
 20
151.17441930486191
 30
0.0
 11
36.393188756769973
 21
160.37440530486191
 31
0.0
  0
LINE
  5
96FF
  8
AM_0
 10
33.09321875676995
 20
154.27438530486191
 30
0.0
 11
33.09321875676995
 21
157.27438530486191
 31
0.0
  0
LINE
  5
9700
  8
AM_0
 10
36.393188756769973
 20
151.17441930486191
 30
0.0
 11
37.693178756769953
 21
151.17441930486191
 31
0.0
  0
ARC
  5
9701
  8
AM_0
 10
36.088868756770012
 20
154.27456530486191
 30
0.0
 40
2.9956880400000001
 50
180.0036400000007
 51
275.83037000000309
  0
LINE
  5
9702
  8
AM_0
 10
35.193188756769921
 20
160.1443953048618
 30
0.0
 11
35.193188756769921
 21
171.88438530486181
 31
0.0
  0
LINE
  5
9703
  8
AM_0
 10
36.393188756769973
 20
160.37440530486191
 30
0.0
 11
37.693178756769953
 21
160.37440530486191
 31
0.0
  0
ARC
  5
9704
  8
AM_0
 10
36.094868756769984
 20
157.2775953048619
 30
0.0
 40
3.0016479
 50
84.295613000003257
 51
180.061350000001
  0
ARC
  5
9705
  8
AM_0
 10
37.192688756769812
 20
171.8848953048618
 30
0.0
 40
1.9994960399999999
 50
89.985542999997904
 51
180.0144599999999
  0
LINE
  5
9706
  8
AM_0
 10
80.193188756769985
 20
124.8844113048619
 30
0.0
 11
80.193188756769985
 21
173.88442530486179
 31
0.0
  0
ARC
  5
9707
  8
AM_0
 10
94.863188756769873
 20
151.9293933048618
 30
0.0
 40
1.679999999999999
 50
90.00000299999769
 51
270.0
  0
LINE
  5
9708
  8
AM_0
 10
93.193178756770195
 20
164.9794053048619
 30
0.0
 11
94.433168756769959
 21
171.5394153048619
 31
0.0
  0
LINE
  5
9709
  8
AM_0
 10
85.883198756769957
 20
160.0693953048619
 30
0.0
 11
92.113238756769988
 21
160.0693953048619
 31
0.0
  0
LINE
  5
970A
  8
AM_0
 10
85.193198756770016
 20
169.8844053048619
 30
0.0
 11
93.193178756770195
 21
169.8844053048619
 31
0.0
  0
LINE
  5
970B
  8
AM_0
 10
85.193198756770016
 20
169.87939530486179
 30
0.0
 11
93.193178756770195
 21
169.87939530486179
 31
0.0
  0
LINE
  5
970C
  8
AM_0
 10
93.193178756770195
 20
166.31941530486191
 30
0.0
 11
94.473158756769791
 21
174.3293853048618
 31
0.0
  0
LINE
  5
970D
  8
AM_0
 10
93.193178756770195
 20
167.6694153048619
 30
0.0
 11
94.483238756770007
 21
176.15941530486191
 31
0.0
  0
ARC
  5
970E
  8
AM_0
 10
130.1916687567701
 20
175.85785530486191
 30
0.0
 40
2.0015440500000001
 50
0.0442139990008847
 51
89.95578399999907
  0
LINE
  5
970F
  8
AM_0
 10
132.19317875677001
 20
176.76940530486181
 30
0.0
 11
132.19317875677001
 21
173.1694053048619
 31
0.0
  0
LINE
  5
9710
  8
AM_0
 10
96.443198756770002
 20
176.00938530486181
 30
0.0
 11
130.1931987567701
 21
176.00938530486181
 31
0.0
  0
LINE
  5
9711
  8
AM_0
 10
118.69317875677
 20
155.10937530486191
 30
0.0
 11
98.515748756769767
 21
153.60940530486181
 31
0.0
  0
ARC
  5
9712
  8
AM_0
 10
299.97418826458488
 20
118.628480124665
 30
0.0
 40
204.4231110527293
 50
172.39935376234251
 51
173.04804061342969
  0
ARC
  5
9713
  8
AM_0
 10
300.63047040239161
 20
118.52980713068079
 30
0.0
 40
205.086602105558
 50
173.86479656848201
 51
175.21533938006471
  0
ARC
  5
9714
  8
AM_0
 10
300.02470674228232
 20
118.587335716982
 30
0.0
 40
204.47815098782999
 50
175.2172449765911
 51
175.89452073852041
  0
ARC
  5
9715
  8
AM_0
 10
300.3050251452234
 20
118.5791905122948
 30
0.0
 40
204.75756069728581
 50
171.10266677355631
 51
172.39792734853131
  0
ARC
  5
9716
  8
AM_0
 10
130.19277875676991
 20
174.00898530486191
 30
0.0
 40
2.0004079799999981
 50
0.0116490000006953
 51
89.98834999999788
  0
LINE
  5
9717
  8
AM_0
 10
96.4632087567703
 20
177.85939530486181
 30
0.0
 11
130.1931987567701
 21
177.85939530486181
 31
0.0
  0
LINE
  5
9718
  8
AM_0
 10
96.483218756769986
 20
178.76941530486189
 30
0.0
 11
130.1931987567701
 21
178.76941530486189
 31
0.0
  0
ARC
  5
9719
  8
AM_0
 10
130.19190875676981
 20
176.76811530486191
 30
0.0
 40
2.0012880000000002
 50
0.0368719989989404
 51
89.963125999997985
  0
LINE
  5
971F
  8
AM_0
 10
228.65394875676981
 20
176.76556530486181
 30
0.0
 11
233.1931587567698
 21
176.884455304862
 31
0.0
  0
LINE
  5
9720
  8
AM_0
 10
218.19315875676989
 20
159.49126530486191
 30
0.0
 11
244.19319875676979
 21
159.49126530486191
 31
0.0
  0
ARC
  5
9721
  8
AM_0
 10
228.6931587567698
 20
175.2660753048618
 30
0.0
 40
1.5000000299999969
 50
91.500001000001546
 51
180.00001000000091
  0
LINE
  5
9722
  8
AM_0
 10
198.01320875676981
 20
150.2494023048618
 30
0.0
 11
188.19317875676961
 21
150.2494023048618
 31
0.0
  0
LINE
  5
9723
  8
AM_0
 10
199.39320875676981
 20
156.21940530486191
 30
0.0
 11
195.2432487567699
 21
171.67939530486191
 31
0.0
  0
LINE
  5
9724
  8
AM_0
 10
188.19317875676961
 20
146.9671073891889
 30
0.0
 11
190.9632087567698
 21
146.88941730486181
 31
0.0
  0
ARC
  5
9725
  8
AM_0
 10
194.5332087567698
 20
151.8794073048619
 30
0.0
 40
1.000004069999999
 50
270.0
 51
90.00000299999769
  0
ARC
  5
9726
  8
AM_0
 10
193.31037875676981
 20
171.1708053048618
 30
0.0
 40
1.99860411
 50
14.74271599999944
 51
89.919516000001124
  0
LINE
  5
9727
  8
AM_0
 10
218.19315875676989
 20
160.8844053048619
 30
0.0
 11
218.19315875676989
 21
142.6671243048618
 31
0.0
  0
LINE
  5
9728
  8
AM_0
 10
209.1931887567699
 20
148.8218493048619
 30
0.0
 11
218.19315875676989
 21
148.8218493048619
 31
0.0
  0
LINE
  5
9729
  8
AM_0
 10
201.19320875676979
 20
148.8244143048619
 30
0.0
 11
209.1931887567699
 21
148.8244143048619
 31
0.0
  0
ARC
  5
972A
  8
AM_0
 10
198.01320875676981
 20
151.9293933048618
 30
0.0
 40
1.680008099999998
 50
270.0
 51
90.00000299999769
  0
ARC
  5
972B
  8
AM_0
 10
198.01320875676981
 20
151.9293933048618
 30
0.0
 40
1.675004159999999
 50
270.0
 51
90.00000299999769
  0
LINE
  5
972D
  8
AM_0
 10
218.19315875676989
 20
142.6671243048618
 30
0.0
 11
227.1931587567698
 21
142.6671243048618
 31
0.0
  0
LINE
  5
972F
  8
AM_0
 10
209.1931887567699
 20
162.8844153048619
 30
0.0
 11
227.1931587567698
 21
162.8844153048619
 31
0.0
  0
LINE
  5
9730
  8
AM_0
 10
209.1931887567699
 20
172.8844053048619
 30
0.0
 11
225.73242875676979
 21
173.3175153048619
 31
0.0
  0
LINE
  5
9731
  8
AM_0
 10
201.19320875676979
 20
162.88438530486181
 30
0.0
 11
209.1931887567699
 21
162.88438530486181
 31
0.0
  0
ARC
  5
9732
  8
AM_0
 10
200.84637875676981
 20
156.60715530486181
 30
0.0
 40
1.502776079999999
 50
194.7564299999988
 51
269.8775900000029
  0
LINE
  5
9733
  8
AM_0
 10
201.19320875676979
 20
172.8844053048619
 30
0.0
 11
209.1931887567699
 21
172.8844053048619
 31
0.0
  0
LINE
  5
9734
  8
AM_0
 10
195.73317875676969
 20
169.87939530486179
 30
0.0
 11
201.19320875676979
 21
169.87939530486179
 31
0.0
  0
LINE
  5
9735
  8
AM_0
 10
227.1931587567698
 20
175.2660753048618
 30
0.0
 11
227.1931587567698
 21
160.8844053048619
 31
0.0
  0
LINE
  5
9736
  8
AM_0
 10
218.19315875676989
 20
160.8844053048619
 30
0.0
 11
227.1931587567698
 21
160.8844053048619
 31
0.0
  0
ARC
  5
9737
  8
AM_0
 10
225.6931587567698
 20
174.81700530486191
 30
0.0
 40
1.5000000299999969
 50
271.50000000000267
 51
0.0
  0
ARC
  5
9739
  8
AM_0
 10
276.19317875676973
 20
170.75671530486181
 30
0.0
 40
5.0000000999999958
 50
0.0
 51
88.499997000000747
  0
LINE
  5
973A
  8
AM_0
 10
258.59319875676982
 20
160.40584530486191
 30
0.0
 11
246.1932387567698
 21
176.54398530486191
 31
0.0
  0
LINE
  5
973B
  8
AM_0
 10
233.19318875676981
 20
176.88442530486191
 30
0.0
 11
276.3240687567698
 21
175.7549853048618
 31
0.0
  0
ARC
  5
973C
  8
AM_0
 10
262.9284687567698
 20
140.5152693048619
 30
0.0
 40
5.0000000999999958
 50
90.00000299999769
 51
171.8542399999981
  0
LINE
  5
973D
  8
AM_0
 10
249.19317875676981
 20
160.4058153048619
 30
0.0
 11
276.19317875676973
 21
160.4058153048619
 31
0.0
  0
LINE
  5
973E
  8
AM_0
 10
246.19317875676981
 20
145.5152703048619
 30
0.0
 11
269.84499875676983
 21
145.5152703048619
 31
0.0
  0
LINE
  5
973F
  8
AM_0
 10
244.19319875676979
 20
165.10636530486181
 30
0.0
 11
244.19319875676979
 21
145.72263630486191
 31
0.0
  0
LINE
  5
9740
  8
AM_0
 10
249.19317875676981
 20
150.4628733048618
 30
0.0
 11
249.19317875676981
 21
160.0099053048618
 31
0.0
  0
LINE
  5
9741
  8
AM_0
 10
245.19315875676989
 20
161.50987530486191
 30
0.0
 11
245.19315875676989
 21
148.96287030486181
 31
0.0
  0
ARC
  5
9742
  8
AM_0
 10
245.19315875676989
 20
143.7226383048619
 30
0.0
 40
1.0000000199999941
 50
0.0
 51
90.00000299999769
  0
LINE
  5
9743
  8
AM_0
 10
245.19315875676989
 20
152.3495913048618
 30
0.0
 11
248.1931587567698
 21
152.3495913048618
 31
0.0
  0
LINE
  5
9744
  8
AM_0
 10
245.19315875676989
 20
149.46284130486191
 30
0.0
 11
248.1931587567698
 21
149.46284130486191
 31
0.0
  0
ARC
  5
9745
  8
AM_0
 10
245.19315875676989
 20
145.72263630486191
 30
0.0
 40
1.0000000199999941
 50
179.99998999999889
 51
270.0
  0
LINE
  5
9746
  8
AM_0
 10
244.19319875676979
 20
148.96287030486181
 30
0.0
 11
245.19315875676989
 21
148.96287030486181
 31
0.0
  0
ARC
  5
9747
  8
AM_0
 10
248.1931587567698
 20
151.3496223048619
 30
0.0
 40
1.0000000199999941
 50
0.0
 51
90.00000299999769
  0
ARC
  5
9748
  8
AM_0
 10
248.1931587567698
 20
150.4628733048618
 30
0.0
 40
1.0000000199999941
 50
270.0
 51
0.0
  0
ARC
  5
9749
  8
AM_0
 10
248.1931587567698
 20
153.34963530486189
 30
0.0
 40
1.0000000199999941
 50
270.0
 51
0.0
  0
ARC
  5
974A
  8
AM_0
 10
245.19315875676989
 20
167.10640530486191
 30
0.0
 40
1.0000000199999941
 50
270.0
 51
0.0
  0
LINE
  5
974B
  8
AM_0
 10
245.19315875676989
 20
158.12311530486201
 30
0.0
 11
248.1931587567698
 21
158.12311530486201
 31
0.0
  0
LINE
  5
974C
  8
AM_0
 10
245.19315875676989
 20
161.0098653048619
 30
0.0
 11
248.1931587567698
 21
161.0098653048619
 31
0.0
  0
ARC
  5
974D
  8
AM_0
 10
245.19315875676989
 20
165.10636530486181
 30
0.0
 40
1.0000000199999941
 50
90.00000299999769
 51
180.00001000000091
  0
LINE
  5
974E
  8
AM_0
 10
244.19319875676979
 20
161.50987530486191
 30
0.0
 11
245.19315875676989
 21
161.50987530486191
 31
0.0
  0
LINE
  5
974F
  8
AM_0
 10
246.19317875676981
 20
176.4392553048618
 30
0.0
 11
246.19317875676981
 21
161.0098653048619
 31
0.0
  0
ARC
  5
9750
  8
AM_0
 10
248.1931587567698
 20
160.0099053048618
 30
0.0
 40
1.0000000199999941
 50
0.0
 51
90.00000299999769
  0
ARC
  5
9751
  8
AM_0
 10
248.1931587567698
 20
157.1231253048619
 30
0.0
 40
1.0000000199999941
 50
0.0
 51
90.00000299999769
  0
ARC
  5
9752
  8
AM_0
 10
248.1931587567698
 20
159.12310530486181
 30
0.0
 40
1.0000000199999941
 50
270.0
 51
0.0
  0
ARC
  5
9753
  8
AM_0
 10
292.19319875676968
 20
154.91092530486191
 30
0.0
 40
1.0000000199999941
 50
179.99998999999889
 51
268.50000999999872
  0
LINE
  5
9754
  8
AM_0
 10
281.19315875676978
 20
146.80182930486191
 30
0.0
 11
273.19317875676973
 21
146.80182930486191
 31
0.0
  0
ARC
  5
9755
  8
AM_0
 10
273.19317875676973
 20
141.80183130486191
 30
0.0
 40
5.0000000999999958
 50
90.00000299999769
 51
180.00001000000091
  0
LINE
  5
9756
  8
AM_0
 10
295.19313875676983
 20
143.8844103048618
 30
0.0
 11
295.19313875676983
 21
133.88441130486191
 31
0.0
  0
LINE
  5
9757
  8
AM_0
 10
293.19315875676978
 20
143.8844103048618
 30
0.0
 11
295.19313875676983
 21
143.8844103048618
 31
0.0
  0
ARC
  5
9758
  8
AM_0
 10
292.19319875676968
 20
152.91025530486181
 30
0.0
 40
1.0000000199999941
 50
0.0
 51
88.499997000000747
  0
LINE
  5
9759
  8
AM_0
 10
292.1670087567698
 20
153.9112653048619
 30
0.0
 11
292.21935875676968
 21
153.9098853048618
 31
0.0
  0
ARC
  5
975A
  8
AM_0
 10
276.19317875676973
 20
155.4058053048619
 30
0.0
 40
5.0000000999999958
 50
0.0
 51
90.00000299999769
  0
ARC
  5
975B
  8
AM_0
 10
286.19319875676968
 20
168.88438530486181
 30
0.0
 40
5.0000000999999958
 50
180.00001000000091
 51
270.0
  0
LINE
  5
975C
  8
AM_0
 10
286.19319875676968
 20
163.8844053048619
 30
0.0
 11
289.19319875676968
 21
163.8844053048619
 31
0.0
  0
ARC
  5
975D
  8
AM_0
 10
289.19319875676968
 20
161.88442530486191
 30
0.0
 40
2.00000007
 50
0.0
 51
90.00000299999769
  0
ARC
  5
9762
  8
AM_0
 10
510.7394067567696
 20
133.88441130486191
 30
0.0
 40
20.000000700000001
 50
90.00000299999769
 51
270.0
  0
ARC
  5
9763
  8
AM_0
 10
510.7394067567696
 20
116.8844103048619
 30
0.0
 40
60.000002999999992
 50
153.3308500000023
 51
170.94546000000031
  0
ARC
  5
9764
  8
AM_0
 10
510.7394067567696
 20
121.3844103048619
 30
0.0
 40
42.500000999999997
 50
0.0
 51
180.00001000000091
  0
ARC
  5
9765
  8
AM_0
 10
510.7394067567696
 20
133.88441130486191
 30
0.0
 40
20.000000700000001
 50
270.0
 51
90.00000299999769
  0
ARC
  5
9766
  8
AM_0
 10
510.7394067567696
 20
116.8844103048619
 30
0.0
 40
60.000002999999992
 50
9.0545419000017677
 51
26.669156999999419
  0
ARC
  5
9767
  8
AM_0
 10
510.7394067567696
 20
133.88441130486191
 30
0.0
 40
9.5000003999999993
 50
108.4084799999999
 51
71.591512000000776
  0
CIRCLE
  5
9768
  8
AM_5
 10
510.7394067567696
 20
133.88441130486191
 30
0.0
 40
3.0
  0
CIRCLE
  5
9769
  8
AM_0
 10
510.7394067567696
 20
133.88441130486191
 30
0.0
 40
2.4999998400000001
  0
LINE
  5
976A
  8
AM_0
 10
580.73939375676957
 20
58.884393304861931
 30
0.0
 11
570.61466975676944
 21
149.1146043048619
 31
0.0
  0
LINE
  5
976B
  8
AM_0
 10
440.73940475676972
 20
58.884393304861931
 30
0.0
 11
450.86413175676972
 21
149.1146043048619
 31
0.0
  0
LINE
  5
976C
  8
ﾁｭｳｼﾝｾﾝ
 10
510.7394067567696
 20
41.866183354106447
 30
0.0
 11
510.7394067567696
 21
181.70008641940359
 31
0.0
  0
LINE
  5
976D
  8
AM_0
 10
458.73940475676972
 20
141.11982330486191
 30
0.0
 11
458.73940475676972
 21
98.884410304861944
 31
0.0
  0
LINE
  5
976E
  8
AM_0
 10
562.73940875676965
 20
141.11982330486191
 30
0.0
 11
562.73940875676965
 21
98.884410304861944
 31
0.0
  0
LINE
  5
976F
  8
AM_0
 10
323.19315875676978
 20
124.3844103048619
 30
0.0
 11
323.19315875676978
 21
145.8844103048618
 31
0.0
  0
ARC
  5
9772
  8
AM_0
 10
530.73940775676965
 20
98.884410304861944
 30
0.0
 40
32.000000999999997
 50
314.67825999999877
 51
0.0
  0
LINE
  5
9773
  8
AM_0
 10
580.73940875676988
 20
48.884394304861956
 30
0.0
 11
550.73940875676965
 21
48.884394304861956
 31
0.0
  0
LINE
  5
9774
  8
AM_0
 10
568.23939275676958
 20
58.884408304861957
 30
0.0
 11
552.73940975676976
 21
58.884408304861957
 31
0.0
  0
LINE
  5
977F
  8
AM_0
 10
471.7394067567696
 20
49.884408304861957
 30
0.0
 11
510.7394067567696
 21
49.884408304861957
 31
0.0
  0
LINE
  5
9780
  8
AM_0
 10
540.73940675676977
 20
68.384394304861999
 30
0.0
 11
480.7394067567696
 21
68.384394304861999
 31
0.0
  0
ARC
  5
9781
  8
AM_0
 10
490.73942075676962
 20
98.884410304861944
 30
0.0
 40
32.000000999999997
 50
179.99998999999889
 51
225.32174000000111
  0
LINE
  5
9782
  8
AM_0
 10
468.23943575676958
 20
121.3844103048619
 30
0.0
 11
468.23943575676958
 21
61.884408304861971
 31
0.0
  0
LINE
  5
9783
  8
AM_0
 10
440.7394347567697
 20
58.88437830486189
 30
0.0
 11
451.48708475676972
 21
126.3268533048619
 31
0.0
  0
LINE
  5
9784
  8
AM_0
 10
440.73940475676972
 20
48.884394304861956
 30
0.0
 11
470.73940475676937
 21
48.884394304861956
 31
0.0
  0
LINE
  5
9785
  8
AM_0
 10
453.23943575676941
 20
58.884408304861957
 30
0.0
 11
468.73940675676971
 21
58.884408304861957
 31
0.0
  0
LINE
  5
9786
  8
AM_0
 10
442.23940475676972
 20
58.884408304861957
 30
0.0
 11
453.23943575676941
 21
58.884408304861957
 31
0.0
  0
LINE
  5
9787
  8
AM_0
 10
440.73940475676972
 20
58.884408304861957
 30
0.0
 11
440.73940475676972
 21
48.884394304861956
 31
0.0
  0
ARC
  5
9788
  8
AM_0
 10
442.23940475676972
 20
57.384408304861957
 30
0.0
 40
1.5000000299999969
 50
90.00000299999769
 51
180.00001000000091
  0
ARC
  5
978B
  8
AM_0
 10
480.7394067567696
 20
63.38440830486195
 30
0.0
 40
5.0000000999999958
 50
90.00000299999769
 51
180.00001000000091
  0
ARC
  5
978C
  8
AM_0
 10
468.73940675676971
 20
56.884407304861952
 30
0.0
 40
2.00000007
 50
0.0
 51
90.00000299999769
  0
LINE
  5
978D
  8
AM_0
 10
475.73942075676968
 20
63.38440830486195
 30
0.0
 11
475.73942075676968
 21
54.384408304861971
 31
0.0
  0
ARC
  5
978E
  8
AM_0
 10
471.7394067567696
 20
50.384394304861921
 30
0.0
 40
1.0000000199999941
 50
90.00000299999769
 51
180.00001000000091
  0
ARC
  5
978F
  8
AM_0
 10
471.7394067567696
 20
48.884394304861956
 30
0.0
 40
1.0000000199999941
 50
90.00000299999769
 51
180.00001000000091
  0
LINE
  5
9790
  8
AM_0
 10
470.73940475676937
 20
56.884407304861952
 30
0.0
 11
470.73940475676937
 21
48.884394304861956
 31
0.0
  0
ARC
  5
9791
  8
AM_0
 10
472.73942075676968
 20
54.384408304861971
 30
0.0
 40
3.0
 50
270.0
 51
0.0
  0
LINE
  5
9792
  8
AM_0
 10
471.7394067567696
 20
51.384408304861957
 30
0.0
 11
472.73942075676968
 21
51.384408304861957
 31
0.0
  0
ARC
  5
9793
  8
AM_0
 10
465.23943575676969
 20
61.884408304861971
 30
0.0
 40
3.0
 50
270.0
 51
0.0
  0
CIRCLE
  5
9794
  8
AM_0
 10
486.6303507567697
 20
58.68001830486196
 30
0.0
 40
4.9999998000000003
  0
LINE
  5
9795
  8
AM_0
 10
481.63035275676958
 20
61.566765304861981
 30
0.0
 11
481.63035275676958
 21
55.793238304861958
 31
0.0
  0
LINE
  5
9796
  8
AM_0
 10
491.63033675676968
 20
55.793238304861958
 30
0.0
 11
491.63033675676968
 21
61.566765304861981
 31
0.0
  0
LINE
  5
9797
  8
AM_0
 10
486.6303507567697
 20
52.906503304861957
 30
0.0
 11
491.63035175676993
 21
55.793253304861992
 31
0.0
  0
LINE
  5
9798
  8
AM_0
 10
481.63035275676958
 20
55.793238304861958
 30
0.0
 11
486.6303507567697
 21
52.906488304861902
 31
0.0
  0
LINE
  5
9799
  8
AM_0
 10
491.63035175676993
 20
61.566735304861943
 30
0.0
 11
486.6303507567697
 21
64.453485304861942
 31
0.0
  0
LINE
  5
979A
  8
AM_0
 10
486.6303507567697
 20
64.453485304861942
 30
0.0
 11
481.63035275676958
 21
61.566735304861943
 31
0.0
  0
ARC
  5
979B
  8
AM_0
 10
510.7394067567696
 20
116.8844103048619
 30
0.0
 40
60.000002999999992
 50
171.12478999999959
 51
172.44925999999899
  0
LINE
  5
979C
  8
AM_0
 10
553.2393927567698
 20
121.3844103048619
 30
0.0
 11
553.2393927567698
 21
61.884408304861971
 31
0.0
  0
LINE
  5
979D
  8
AM_0
 10
549.73940975676965
 20
49.884408304861957
 30
0.0
 11
510.7394067567696
 21
49.884408304861957
 31
0.0
  0
ARC
  5
979E
  8
AM_0
 10
519.72552275676935
 20
65.384394304861971
 30
0.0
 40
3.0
 50
90.00000299999769
 51
183.18473999999989
  0
ARC
  5
979F
  8
AM_0
 10
510.7394067567696
 20
64.88440830486195
 30
0.0
 40
6.0000002999999991
 50
176.81527000000071
 51
3.1847360000014402
  0
ARC
  5
97A0
  8
AM_0
 10
501.75330875676951
 20
65.384394304861971
 30
0.0
 40
3.0
 50
356.81526000000002
 51
90.00000299999769
  0
ARC
  5
97A1
  8
AM_0
 10
540.73940675676977
 20
63.38440830486195
 30
0.0
 40
5.0000000999999958
 50
0.0
 51
90.00000299999769
  0
ARC
  5
97A2
  8
AM_0
 10
548.73939275676969
 20
54.384408304861971
 30
0.0
 40
3.0
 50
179.99998999999889
 51
270.0
  0
CIRCLE
  5
97A3
  8
AM_0
 10
534.84847775676974
 20
58.68001830486196
 30
0.0
 40
4.9999998000000003
  0
LINE
  5
97A4
  8
AM_0
 10
545.73939275676969
 20
63.38440830486195
 30
0.0
 11
545.73939275676969
 21
54.384408304861971
 31
0.0
  0
LINE
  5
97A5
  8
AM_0
 10
539.84846375676966
 20
55.793238304861958
 30
0.0
 11
539.84846375676966
 21
61.566765304861981
 31
0.0
  0
LINE
  5
97A6
  8
AM_0
 10
529.84846175676955
 20
61.566765304861981
 30
0.0
 11
529.84846175676955
 21
55.793238304861958
 31
0.0
  0
LINE
  5
97A7
  8
AM_0
 10
534.84846275676955
 20
52.906488304861902
 30
0.0
 11
539.84846375676966
 21
55.793238304861958
 31
0.0
  0
LINE
  5
97A8
  8
AM_0
 10
529.84846175676955
 20
55.793238304861958
 30
0.0
 11
534.84846275676955
 21
52.906488304861902
 31
0.0
  0
LINE
  5
97A9
  8
AM_0
 10
539.84846375676966
 20
61.566735304861943
 30
0.0
 11
534.84846275676955
 21
64.453485304861942
 31
0.0
  0
LINE
  5
97AA
  8
AM_0
 10
534.84846275676955
 20
64.453500304861961
 30
0.0
 11
529.84846175676955
 21
61.566750304861927
 31
0.0
  0
ARC
  5
97AB
  8
AM_0
 10
552.73940975676976
 20
56.884407304861952
 30
0.0
 40
2.00000007
 50
90.00000299999769
 51
180.00001000000091
  0
ARC
  5
97AC
  8
AM_0
 10
549.73940975676965
 20
50.384394304861921
 30
0.0
 40
1.0000000199999941
 50
0.0
 51
90.00000299999769
  0
ARC
  5
97AD
  8
AM_0
 10
549.73940975676965
 20
48.884394304861956
 30
0.0
 40
1.0000000199999941
 50
0.0
 51
90.00000299999769
  0
LINE
  5
97AE
  8
AM_0
 10
549.73940975676965
 20
51.384408304861957
 30
0.0
 11
548.73939275676969
 21
51.384408304861957
 31
0.0
  0
LINE
  5
97AF
  8
AM_0
 10
550.73940875676965
 20
48.884394304861956
 30
0.0
 11
550.73940875676965
 21
56.884407304861952
 31
0.0
  0
ARC
  5
97B0
  8
AM_0
 10
556.23939275676958
 20
61.884408304861971
 30
0.0
 40
3.0
 50
179.99998999999889
 51
270.0
  0
LINE
  5
97BE
  8
AM_0
 10
580.73940875676988
 20
58.88437830486189
 30
0.0
 11
569.99174375676955
 21
126.3268533048619
 31
0.0
  0
LINE
  5
97C0
  8
AM_0
 10
579.23940875676965
 20
58.884408304861957
 30
0.0
 11
568.23939275676958
 21
58.884408304861957
 31
0.0
  0
LINE
  5
97C3
  8
AM_0
 10
580.73940875676988
 20
58.884408304861957
 30
0.0
 11
580.73940875676988
 21
48.884394304861956
 31
0.0
  0
ARC
  5
97C4
  8
AM_0
 10
579.23940875676965
 20
57.384408304861957
 30
0.0
 40
1.5000000299999969
 50
0.0
 51
90.00000299999769
  0
ARC
  5
97CD
  8
AM_0
 10
557.7393927567698
 20
141.11982330486191
 30
0.0
 40
5.0000000999999958
 50
0.0
 51
73.411385000001786
  0
ARC
  5
97CE
  8
AM_0
 10
550.73940875676965
 20
146.8844103048618
 30
0.0
 40
20.000000700000001
 50
6.4023797999986547
 51
61.92751500000066
  0
ARC
  5
97CF
  8
AM_0
 10
562.30737275676961
 20
156.4538853048619
 30
0.0
 40
11.000000399999999
 50
149.8422100000013
 51
285.1636500000007
  0
ARC
  5
97D0
  8
AM_0
 10
561.67536875676967
 20
142.4681523048618
 30
0.0
 40
3.0
 50
26.669156999999419
 51
87.412549000002571
  0
CIRCLE
  5
97D1
  8
AM_0
 10
560.7206547567697
 20
155.23636530486181
 30
0.0
 40
4.9999998000000003
  0
LINE
  5
97D2
  8
AM_0
 10
565.72065575676959
 20
158.12311530486201
 30
0.0
 11
560.7206547567697
 21
161.0098653048619
 31
0.0
  0
LINE
  5
97D3
  8
AM_0
 10
560.72066975676955
 20
149.46287130486181
 30
0.0
 11
565.72067075676955
 21
152.34962130486181
 31
0.0
  0
LINE
  5
97DA
  8
AM_0
 10
301.19313875676983
 20
145.8844103048618
 30
0.0
 11
323.19315875676978
 21
145.8844103048618
 31
0.0
  0
LINE
  5
97DB
  8
AM_0
 10
301.19313875676983
 20
143.38441230486191
 30
0.0
 11
301.19313875676983
 21
145.8844103048618
 31
0.0
  0
ARC
  5
97E3
  8
AM_0
 10
510.7394067567696
 20
71.884407304861952
 30
0.0
 40
105.00000299999979
 50
61.92751500000066
 51
118.0724799999973
  0
ARC
  5
97E4
  8
AM_0
 10
510.7394067567696
 20
116.8844103048619
 30
0.0
 40
60.000002999999992
 50
48.330844999998341
 51
131.66914999999699
  0
LINE
  5
97E5
  8
ﾁｭｳｼﾝｾﾝ
 10
474.47114965953563
 20
133.88441130486191
 30
0.0
 11
547.00766385400345
 21
133.88441130486191
 31
0.0
  0
ARC
  5
97E6
  8
AM_0
 10
459.17144375676941
 20
156.4538853048619
 30
0.0
 40
11.000000399999999
 50
254.83635999999959
 51
30.157795000002519
  0
CIRCLE
  5
97E7
  8
AM_0
 10
460.7581437567697
 20
155.23636530486181
 30
0.0
 40
4.9999998000000003
  0
LINE
  5
97E8
  8
AM_0
 10
460.7581437567697
 20
149.46287130486181
 30
0.0
 11
465.7581447567697
 21
152.34965130486199
 31
0.0
  0
LINE
  5
97E9
  8
AM_0
 10
465.7581447567697
 20
158.12311530486201
 30
0.0
 11
460.7581437567697
 21
161.0098653048619
 31
0.0
  0
ARC
  5
97EA
  8
AM_0
 10
470.73940475676937
 20
146.8844103048618
 30
0.0
 40
20.000000700000001
 50
118.0724799999973
 51
173.59761999999901
  0
LINE
  5
97EB
  8
AM_0
 10
455.75814275676959
 20
158.12311530486201
 30
0.0
 11
455.75814275676959
 21
152.34962130486181
 31
0.0
  0
ARC
  5
97EC
  8
AM_0
 10
454.98623075676937
 20
141.0109683048619
 30
0.0
 40
5.0000000999999958
 50
74.836353999996945
 51
173.59761999999901
  0
ARC
  5
97ED
  8
AM_0
 10
463.73943575676958
 20
141.11982330486191
 30
0.0
 40
5.0000000999999958
 50
106.5886100000033
 51
180.00001000000091
  0
ARC
  5
97EE
  8
AM_0
 10
459.8034627567697
 20
142.4681523048618
 30
0.0
 40
3.0
 50
92.587449000000944
 51
153.3308500000023
  0
LINE
  5
97EF
  8
AM_0
 10
450.6138867567692
 20
146.8844103048618
 30
0.0
 11
443.73940675676971
 21
146.8844103048618
 31
0.0
  0
LINE
  5
97F0
  8
AM_0
 10
455.75814275676959
 20
152.3495913048618
 30
0.0
 11
460.7581437567697
 21
149.46284130486191
 31
0.0
  0
LINE
  5
97F1
  8
AM_0
 10
460.7581437567697
 20
161.0098653048619
 30
0.0
 11
455.75814275676959
 21
158.12311530486201
 31
0.0
  0
LINE
  5
97F2
  8
AM_0
 10
465.75817475676962
 20
152.34962130486181
 30
0.0
 11
465.75817475676962
 21
158.12311530486201
 31
0.0
  0
ARC
  5
97F3
  8
AM_0
 10
473.00576375676968
 20
164.49205530486191
 30
0.0
 40
5.0000000999999958
 50
112.1688000000035
 51
210.1577899999985
  0
ARC
  5
97F4
  8
AM_0
 10
472.84420475676973
 20
159.4631853048619
 30
0.0
 40
3.0
 50
131.66914999999699
 51
192.41255000000001
  0
LINE
  5
97F5
  8
AM_0
 10
476.2394067567696
 20
171.0547053048619
 30
0.0
 11
476.2394067567696
 21
172.8763053048618
 31
0.0
  0
LINE
  5
97F6
  8
AM_0
 10
486.23939075676969
 20
173.98606530486191
 30
0.0
 11
486.23939075676969
 21
175.95235530486201
 31
0.0
  0
LINE
  5
97F7
  8
AM_0
 10
496.23940775676959
 20
175.87837530486181
 30
0.0
 11
496.23940775676959
 21
177.9334353048618
 31
0.0
  0
LINE
  5
97F8
  8
AM_0
 10
525.23942375676972
 20
175.87837530486181
 30
0.0
 11
525.23942375676972
 21
177.9334353048618
 31
0.0
  0
LINE
  5
97F9
  8
AM_0
 10
507.73940675676971
 20
139.88441130486191
 30
0.0
 11
513.73940675676965
 21
139.88441130486191
 31
0.0
  0
LINE
  5
97FA
  8
AM_0
 10
513.73940675676965
 20
145.88441130486191
 30
0.0
 11
507.73940675676971
 21
145.88441130486191
 31
0.0
  0
LINE
  5
97FB
  8
AM_0
 10
507.73940675676971
 20
145.88441130486191
 30
0.0
 11
507.73940675676971
 21
139.88441130486191
 31
0.0
  0
LINE
  5
97FC
  8
AM_0
 10
513.73940675676965
 20
139.88441130486191
 30
0.0
 11
513.73940675676965
 21
145.88441130486191
 31
0.0
  0
LINE
  5
97FD
  8
AM_0
 10
555.72065675676947
 20
158.12311530486201
 30
0.0
 11
555.72065675676947
 21
152.34962130486181
 31
0.0
  0
LINE
  5
97FE
  8
AM_0
 10
555.72065675676947
 20
152.34962130486181
 30
0.0
 11
560.7206547567697
 21
149.46287130486181
 31
0.0
  0
LINE
  5
97FF
  8
AM_0
 10
535.23942275676973
 20
173.98606530486191
 30
0.0
 11
535.23942275676973
 21
175.95235530486201
 31
0.0
  0
LINE
  5
9800
  8
AM_0
 10
545.23940975676965
 20
171.0547053048619
 30
0.0
 11
545.23940975676965
 21
172.8763053048618
 31
0.0
  0
ARC
  5
9801
  8
AM_0
 10
548.4730497567698
 20
164.49205530486191
 30
0.0
 40
5.0000000999999958
 50
329.84219999999971
 51
67.831202999998027
  0
ARC
  5
9802
  8
AM_0
 10
548.63461175676969
 20
159.4631853048619
 30
0.0
 40
3.0
 50
347.58744999999982
 51
48.330844999998341
  0
LINE
  5
9803
  8
AM_0
 10
560.72066975676955
 20
161.0098653048619
 30
0.0
 11
555.72067175676955
 21
158.12311530486201
 31
0.0
  0
LINE
  5
9805
  8
AM_0
 10
506.23940675676971
 20
176.71543530486181
 30
0.0
 11
506.23940675676971
 21
178.8844053048619
 31
0.0
  0
LINE
  5
9806
  8
AM_0
 10
515.23940675676965
 20
176.71543530486181
 30
0.0
 11
515.23940675676965
 21
178.8844053048619
 31
0.0
  0
LINE
  5
9808
  8
AM_0
 10
565.72067075676955
 20
152.34962130486181
 30
0.0
 11
565.72067075676955
 21
158.12311530486201
 31
0.0
  0
ARC
  5
9809
  8
AM_0
 10
566.49259775676944
 20
141.0109683048619
 30
0.0
 40
5.0000000999999958
 50
6.4023797999986547
 51
105.1636400000002
  0
LINE
  5
980B
  8
AM_0
 10
183.6931787567699
 20
139.3844103048618
 30
0.0
 11
183.6931787567695
 21
94.384410304861944
 31
0.0
  0
LINE
  5
980C
  8
AM_0
 10
181.5931787567697
 20
139.9346628365559
 30
0.0
 11
181.5931787567695
 21
93.834157773168116
 31
0.0
  0
LINE
  5
980D
  8
AM_0
 10
98.693178756769996
 20
98.884410304861944
 30
0.0
 11
98.693178756769996
 21
88.88440030486197
 31
0.0
  0
LINE
  5
980E
  8
AM_0
 10
99.193178756769967
 20
84.384404304862187
 30
0.0
 11
99.193178756769967
 21
149.38440030486171
 31
0.0
  0
LINE
  5
980F
  8
AM_0
 10
170.7434232884645
 20
82.984402304861874
 30
0.0
 11
103.61315875676971
 21
82.984402304861874
 31
0.0
  0
LINE
  5
9810
  8
AM_0
 10
103.61315875676971
 20
82.984402304861874
 30
0.0
 11
103.61315875676971
 21
80.884411304861814
 31
0.0
  0
ARC
  5
9811
  8
AM_0
 10
102.6857987567699
 20
84.377057304861978
 30
0.0
 40
3.492651899999998
 50
179.8793300000022
 51
270.12067999999482
  0
ARC
  5
9812
  8
AM_0
 10
99.185858756770045
 20
88.877060304862084
 30
0.0
 40
0.4927000100000001
 50
179.14455999999711
 51
270.85544000000272
  0
ARC
  5
9813
  8
AM_0
 10
185.69317875676961
 20
94.384410304861944
 30
0.0
 40
2.0
 50
180.0
 51
270.0
  0
LINE
  5
9814
  8
AM_0
 10
181.18312825043071
 20
92.844208279505992
 30
0.0
 11
171.73337278212551
 21
83.394452811200679
 31
0.0
  0
LINE
  5
9815
  8
AM_0
 10
171.73338078212529
 20
83.39446081120046
 30
0.0
 11
181.18312825043131
 21
92.844208279506432
 31
0.0
  0
ARC
  5
9816
  8
AM_0
 10
170.7434232884645
 20
84.38440230486195
 30
0.0
 40
1.399999999999999
 50
270.0
 51
315.00000000000921
1001
GENIUS_GENODEF_13
1002
{
1000
HIER
1070
     0
1002
}
1002
{
1000
MANEDIT
1070
     0
1002
}
1002
{
1000
NOSEL
1070
     0
1002
}
1002
{
1000
BEHIND
1070
     0
1002
}
1002
{
1000
OTHER
1070
     0
1002
}
1002
{
1000
REACTOR
1002
}
1001
GENIUS_GENOBJ-N-FIL_13
1002
{
1000
OWNER
1000
GEN
1002
}
  0
ARC
  5
9817
  8
AM_0
 10
180.19317875676981
 20
93.834157773168116
 30
0.0
 40
1.4000000000006301
 50
314.99999999997232
 51
0.0
  0
ARC
  5
9818
  8
AM_0
 10
186.1931787567695
 20
82.88441030486193
 30
0.0
 40
2.0
 50
270.0
 51
0.0
  0
ARC
  5
9819
  8
AM_0
 10
186.1931787567695
 20
90.384410304861944
 30
0.0
 40
2.0
 50
0.0
 51
90.0
  0
LINE
  5
981A
  8
AM_0
 10
186.1931787567695
 20
92.384410304861944
 30
0.0
 11
185.69317875676961
 21
92.384410304861944
 31
0.0
  0
LINE
  5
981B
  8
AM_0
 10
188.19317875676961
 20
82.88441030486193
 30
0.0
 11
188.19317875676961
 21
90.384410304861944
 31
0.0
  0
LINE
  5
981C
  8
AM_0
 10
103.61315875676971
 20
150.7843903048618
 30
0.0
 11
170.7509145766453
 21
150.7843903048618
 31
0.0
  0
ARC
  5
981D
  8
AM_0
 10
99.193728756769985
 20
98.883860304861741
 30
0.0
 40
0.5005480100000002
 50
90.062622000000005
 51
179.93736999999041
  0
ARC
  5
981E
  8
AM_0
 10
99.193728756769985
 20
144.88386030486171
 30
0.0
 40
0.5005480100000002
 50
90.062622000000005
 51
179.93736999999041
  0
ARC
  5
981F
  8
AM_0
 10
99.185668756769985
 20
134.87690030486181
 30
0.0
 40
0.49254802
 50
179.1265600000018
 51
270.87345000000158
  0
LINE
  5
9820
  8
AM_0
 10
98.693178756769996
 20
144.88440030486171
 30
0.0
 11
98.693178756769996
 21
134.8844103048618
 31
0.0
  0
LINE
  5
9821
  8
AM_0
 10
103.61315875676971
 20
150.7843903048618
 30
0.0
 11
103.61315875676971
 21
152.8793903048618
 31
0.0
  0
ARC
  5
9822
  8
AM_0
 10
102.6936687567699
 20
149.38391030486179
 30
0.0
 40
3.5005001999999981
 50
90.008164999996055
 51
179.99183999999781
  0
LINE
  5
9823
  8
AM_0
 10
185.6931787567699
 20
122.3844103048619
 30
0.0
 11
183.69317875676981
 21
122.3844103048619
 31
0.0
  0
LINE
  5
9824
  8
AM_0
 10
183.69317875676961
 20
111.3844103048619
 30
0.0
 11
185.6931787567701
 21
111.3844103048619
 31
0.0
  0
LINE
  5
9825
  8
AM_0
 10
185.69317875677021
 20
111.3844103048619
 30
0.0
 11
185.6931787567699
 21
122.3844103048619
 31
0.0
  0
ARC
  5
9826
  8
AM_0
 10
185.69317875676961
 20
139.3844103048618
 30
0.0
 40
2.0
 50
90.0
 51
180.0
  0
CIRCLE
  5
9827
  8
AM_0
 10
182.69317875676941
 20
147.88441030486169
 30
0.0
 40
3.4999999999999631
  0
LINE
  5
9828
  8
AM_0
 10
171.73338078212601
 20
150.3743597985229
 30
0.0
 11
181.18312825043071
 21
140.924612330218
 31
0.0
  0
LINE
  5
9829
  8
AM_0
 10
179.5931787567695
 20
142.5145618238781
 30
0.0
 11
181.18312825043091
 21
140.9246123302178
 31
0.0
  0
ARC
  5
982A
  8
AM_0
 10
180.19317875676981
 20
139.9346628365559
 30
0.0
 40
1.400000000000118
 50
0.0
 51
45.00000000002764
  0
ARC
  5
982B
  8
AM_0
 10
170.7434312884638
 20
149.3844103048618
 30
0.0
 40
1.40000000000077
 50
44.999999999972353
 51
89.999999999954383
  0
LINE
  5
982C
  8
AM_0
 10
188.19317875676961
 20
143.3844103048618
 30
0.0
 11
188.19317875676961
 21
150.8844103048618
 31
0.0
  0
LINE
  5
982D
  8
AM_0
 10
188.19317875676961
 20
143.3844103048618
 30
0.0
 11
188.19317875676961
 21
150.8844103048618
 31
0.0
  0
ARC
  5
982E
  8
AM_0
 10
186.1931787567695
 20
143.3844103048618
 30
0.0
 40
2.0
 50
270.0
 51
0.0
  0
LINE
  5
982F
  8
AM_0
 10
185.69317875676961
 20
141.3844103048618
 30
0.0
 11
186.1931787567695
 21
141.3844103048618
 31
0.0
  0
ARC
  5
9830
  8
AM_0
 10
186.1931787567695
 20
150.8844103048618
 30
0.0
 40
2.0
 50
0.0
 51
90.0
  0
LINE
  5
9831
  8
AM_0
 10
180.0546070755627
 20
147.8844103048628
 30
0.0
 11
185.3317504379761
 21
147.88441030486271
 31
0.0
  0
LINE
  5
9832
  8
AM_0
 10
182.69317875676941
 20
150.5229819860684
 30
0.0
 11
182.6931787567693
 21
145.245838623655
 31
0.0
  0
CIRCLE
  5
9833
  8
AM_0
 10
182.69317875676941
 20
85.884410304861817
 30
0.0
 40
3.4999999999999631
  0
LINE
  5
9834
  8
AM_0
 10
180.0546070755627
 20
85.884410304862996
 30
0.0
 11
185.3317504379761
 21
85.884410304862854
 31
0.0
  0
LINE
  5
9835
  8
AM_0
 10
182.69317875676941
 20
88.522981986068558
 30
0.0
 11
182.6931787567693
 21
83.245838623655089
 31
0.0
  0
LINE
  5
9836
  8
AM_0
 10
194.5332087567698
 20
150.8894313048618
 30
0.0
 11
188.19317875676961
 21
150.8894313048618
 31
0.0
  0
LINE
  5
9837
  8
AM_0
 10
434.02262031654192
 20
111.3844103048618
 30
0.0
 11
419.73940675676971
 21
111.3844103048618
 31
0.0
  0
LINE
  5
9838
  8
AM_0
 10
419.73940675676971
 20
122.3844103048619
 30
0.0
 11
434.02262031654192
 21
122.3844103048619
 31
0.0
  0
LINE
  5
9839
  8
AM_0
 10
439.73940675676999
 20
152.8844103048603
 30
0.0
 11
407.23940675676971
 21
152.8844103048603
 31
0.0
  0
LINE
  5
983A
  8
AM_0
 10
407.23940675676971
 20
80.884410304860225
 30
0.0
 11
439.73940675676999
 21
80.884410304860225
 31
0.0
  0
LINE
  5
983B
  8
AM_0
 10
406.73940675676971
 20
148.28441030486209
 30
0.0
 11
406.73940675676971
 21
85.484410304862436
 31
0.0
  0
LINE
  5
983C
  8
AM_0
 10
419.73940675676971
 20
80.884410304860225
 30
0.0
 11
419.73940675676971
 21
152.8844103048603
 31
0.0
  0
LINE
  5
983D
  8
AM_0
 10
419.73940675676971
 20
141.96441030486159
 30
0.0
 11
418.27440675676991
 21
150.78441030486209
 31
0.0
  0
ARC
  5
983E
  8
AM_0
 10
409.2394067567696
 20
148.28441030486221
 30
0.0
 40
2.5
 50
90.0
 51
180.0
  0
LINE
  5
983F
  8
AM_0
 10
406.73940675676971
 20
152.3844103048618
 30
0.0
 11
406.73940675676971
 21
148.28441030486209
 31
0.0
  0
ARC
  5
9840
  8
AM_0
 10
407.23940675676971
 20
152.3844103048618
 30
0.0
 40
0.5
 50
90.0
 51
180.0
  0
LINE
  5
9841
  8
AM_0
 10
418.27440675676991
 20
150.78441030486209
 30
0.0
 11
409.2394067567696
 21
150.78441030486209
 31
0.0
  0
POLYLINE
  5
9842
  8
AM_0
 66
     1
 10
0.0
 20
0.0
 30
0.0
 70
     8
  0
VERTEX
  5
9843
  8
AM_0
 10
409.23935969169571
 20
140.5148251079049
 30
0.0
 70
    32
  0
VERTEX
  5
9844
  8
AM_0
 10
409.23535969169552
 20
140.5148251079049
 30
0.0
 70
    32
  0
VERTEX
  5
9845
  8
AM_0
 10
409.23135969169567
 20
140.5148251079049
 30
0.0
 70
    32
  0
VERTEX
  5
9846
  8
AM_0
 10
409.22635969169568
 20
140.5148251079049
 30
0.0
 70
    32
  0
VERTEX
  5
9847
  8
AM_0
 10
409.22235969169571
 20
140.5148251079049
 30
0.0
 70
    32
  0
VERTEX
  5
9848
  8
AM_0
 10
409.2183596916957
 20
140.5148251079049
 30
0.0
 70
    32
  0
VERTEX
  5
9849
  8
AM_0
 10
409.2133596916957
 20
140.5148251079049
 30
0.0
 70
    32
  0
VERTEX
  5
984A
  8
AM_0
 10
409.20935969169562
 20
140.51382510790481
 30
0.0
 70
    32
  0
VERTEX
  5
984B
  8
AM_0
 10
409.20535969169572
 20
140.51382510790481
 30
0.0
 70
    32
  0
VERTEX
  5
984C
  8
AM_0
 10
409.20135969169559
 20
140.51382510790481
 30
0.0
 70
    32
  0
VERTEX
  5
984D
  8
AM_0
 10
409.1963596916957
 20
140.51382510790481
 30
0.0
 70
    32
  0
VERTEX
  5
984E
  8
AM_0
 10
409.1923596916954
 20
140.51382510790481
 30
0.0
 70
    32
  0
VERTEX
  5
984F
  8
AM_0
 10
409.18835969169561
 20
140.51382510790481
 30
0.0
 70
    32
  0
VERTEX
  5
9850
  8
AM_0
 10
409.18435969169519
 20
140.51382510790481
 30
0.0
 70
    32
  0
VERTEX
  5
9851
  8
AM_0
 10
409.17935969169559
 20
140.51382510790481
 30
0.0
 70
    32
  0
VERTEX
  5
9852
  8
AM_0
 10
409.17535969169569
 20
140.51382510790481
 30
0.0
 70
    32
  0
VERTEX
  5
9853
  8
AM_0
 10
409.17135969169578
 20
140.51382510790481
 30
0.0
 70
    32
  0
VERTEX
  5
9854
  8
AM_0
 10
409.16635969169562
 20
140.51382510790481
 30
0.0
 70
    32
  0
VERTEX
  5
9855
  8
AM_0
 10
409.1623596916956
 20
140.51382510790481
 30
0.0
 70
    32
  0
VERTEX
  5
9856
  8
AM_0
 10
409.15835969169558
 20
140.51382510790481
 30
0.0
 70
    32
  0
VERTEX
  5
9857
  8
AM_0
 10
409.15435969169562
 20
140.51382510790481
 30
0.0
 70
    32
  0
VERTEX
  5
9858
  8
AM_0
 10
409.14935969169568
 20
140.51382510790481
 30
0.0
 70
    32
  0
VERTEX
  5
9859
  8
AM_0
 10
409.14535969169572
 20
140.51382510790481
 30
0.0
 70
    32
  0
VERTEX
  5
985A
  8
AM_0
 10
409.14135969169558
 20
140.51382510790481
 30
0.0
 70
    32
  0
VERTEX
  5
985B
  8
AM_0
 10
409.13735969169562
 20
140.51382510790481
 30
0.0
 70
    32
  0
VERTEX
  5
985C
  8
AM_0
 10
409.13235969169551
 20
140.5128251079048
 30
0.0
 70
    32
  0
VERTEX
  5
985D
  8
AM_0
 10
409.12835969169521
 20
140.5128251079048
 30
0.0
 70
    32
  0
VERTEX
  5
985E
  8
AM_0
 10
409.12435969169582
 20
140.5128251079048
 30
0.0
 70
    32
  0
VERTEX
  5
985F
  8
AM_0
 10
409.1203596916954
 20
140.5128251079048
 30
0.0
 70
    32
  0
VERTEX
  5
9860
  8
AM_0
 10
409.11535969169569
 20
140.5128251079048
 30
0.0
 70
    32
  0
VERTEX
  5
9861
  8
AM_0
 10
409.11135969169538
 20
140.5128251079048
 30
0.0
 70
    32
  0
VERTEX
  5
9862
  8
AM_0
 10
409.10735969169571
 20
140.5128251079048
 30
0.0
 70
    32
  0
VERTEX
  5
9863
  8
AM_0
 10
409.10235969169571
 20
140.5128251079048
 30
0.0
 70
    32
  0
VERTEX
  5
9864
  8
AM_0
 10
409.09835969169569
 20
140.5128251079048
 30
0.0
 70
    32
  0
VERTEX
  5
9865
  8
AM_0
 10
409.09435969169562
 20
140.5128251079048
 30
0.0
 70
    32
  0
VERTEX
  5
9866
  8
AM_0
 10
409.09035969169571
 20
140.5118251079048
 30
0.0
 70
    32
  0
VERTEX
  5
9867
  8
AM_0
 10
409.0853596916956
 20
140.5118251079048
 30
0.0
 70
    32
  0
VERTEX
  5
9868
  8
AM_0
 10
409.0813596916953
 20
140.5118251079048
 30
0.0
 70
    32
  0
VERTEX
  5
9869
  8
AM_0
 10
409.07735969169579
 20
140.5118251079048
 30
0.0
 70
    32
  0
VERTEX
  5
986A
  8
AM_0
 10
409.0733596916956
 20
140.5118251079048
 30
0.0
 70
    32
  0
VERTEX
  5
986B
  8
AM_0
 10
409.06835969169572
 20
140.5118251079048
 30
0.0
 70
    32
  0
VERTEX
  5
986C
  8
AM_0
 10
409.06435969169542
 20
140.5118251079048
 30
0.0
 70
    32
  0
VERTEX
  5
986D
  8
AM_0
 10
409.06035969169562
 20
140.51082510790479
 30
0.0
 70
    32
  0
VERTEX
  5
986E
  8
AM_0
 10
409.05635969169572
 20
140.51082510790479
 30
0.0
 70
    32
  0
VERTEX
  5
986F
  8
AM_0
 10
409.05135969169578
 20
140.51082510790479
 30
0.0
 70
    32
  0
VERTEX
  5
9870
  8
AM_0
 10
409.04735969169559
 20
140.51082510790479
 30
0.0
 70
    32
  0
VERTEX
  5
9871
  8
AM_0
 10
409.04335969169563
 20
140.51082510790479
 30
0.0
 70
    32
  0
VERTEX
  5
9872
  8
AM_0
 10
409.03835969169592
 20
140.51082510790479
 30
0.0
 70
    32
  0
VERTEX
  5
9873
  8
AM_0
 10
409.03435969169561
 20
140.51082510790479
 30
0.0
 70
    32
  0
VERTEX
  5
9874
  8
AM_0
 10
409.03035969169571
 20
140.50982510790479
 30
0.0
 70
    32
  0
VERTEX
  5
9875
  8
AM_0
 10
409.02635969169592
 20
140.50982510790479
 30
0.0
 70
    32
  0
VERTEX
  5
9876
  8
AM_0
 10
409.02135969169569
 20
140.50982510790479
 30
0.0
 70
    32
  0
VERTEX
  5
9877
  8
AM_0
 10
409.0173596916955
 20
140.50982510790479
 30
0.0
 70
    32
  0
VERTEX
  5
9878
  8
AM_0
 10
409.01335969169571
 20
140.50982510790479
 30
0.0
 70
    32
  0
VERTEX
  5
9879
  8
AM_0
 10
409.00935969169541
 20
140.5088251079049
 30
0.0
 70
    32
  0
VERTEX
  5
987A
  8
AM_0
 10
409.00435969169581
 20
140.5088251079049
 30
0.0
 70
    32
  0
VERTEX
  5
987B
  8
AM_0
 10
409.00035969169562
 20
140.5088251079049
 30
0.0
 70
    32
  0
VERTEX
  5
987C
  8
AM_0
 10
408.99635969169572
 20
140.5088251079049
 30
0.0
 70
    32
  0
VERTEX
  5
987D
  8
AM_0
 10
408.99235969169581
 20
140.5088251079049
 30
0.0
 70
    32
  0
VERTEX
  5
987E
  8
AM_0
 10
408.9873596916953
 20
140.5088251079049
 30
0.0
 70
    32
  0
VERTEX
  5
987F
  8
AM_0
 10
408.98335969169568
 20
140.50782510790501
 30
0.0
 70
    32
  0
VERTEX
  5
9880
  8
AM_0
 10
408.97935969169561
 20
140.50782510790501
 30
0.0
 70
    32
  0
VERTEX
  5
9881
  8
AM_0
 10
408.97535969169559
 20
140.50782510790501
 30
0.0
 70
    32
  0
VERTEX
  5
9882
  8
AM_0
 10
408.97035969169559
 20
140.50782510790501
 30
0.0
 70
    32
  0
VERTEX
  5
9883
  8
AM_0
 10
408.9663596916958
 20
140.5068251079048
 30
0.0
 70
    32
  0
VERTEX
  5
9884
  8
AM_0
 10
408.96235969169572
 20
140.5068251079048
 30
0.0
 70
    32
  0
VERTEX
  5
9885
  8
AM_0
 10
408.95735969169561
 20
140.5068251079048
 30
0.0
 70
    32
  0
VERTEX
  5
9886
  8
AM_0
 10
408.95335969169571
 20
140.5068251079048
 30
0.0
 70
    32
  0
VERTEX
  5
9887
  8
AM_0
 10
408.94935969169558
 20
140.5068251079048
 30
0.0
 70
    32
  0
VERTEX
  5
9888
  8
AM_0
 10
408.94535969169561
 20
140.50582510790491
 30
0.0
 70
    32
  0
VERTEX
  5
9889
  8
AM_0
 10
408.94035969169562
 20
140.50582510790491
 30
0.0
 70
    32
  0
VERTEX
  5
988A
  8
AM_0
 10
408.93635969169583
 20
140.50582510790491
 30
0.0
 70
    32
  0
VERTEX
  5
988B
  8
AM_0
 10
408.93235969169592
 20
140.50582510790491
 30
0.0
 70
    32
  0
VERTEX
  5
988C
  8
AM_0
 10
408.92835969169568
 20
140.50482510790491
 30
0.0
 70
    32
  0
VERTEX
  5
988D
  8
AM_0
 10
408.92335969169568
 20
140.50482510790491
 30
0.0
 70
    32
  0
VERTEX
  5
988E
  8
AM_0
 10
408.91935969169532
 20
140.50482510790491
 30
0.0
 70
    32
  0
VERTEX
  5
988F
  8
AM_0
 10
408.91535969169541
 20
140.50382510790499
 30
0.0
 70
    32
  0
VERTEX
  5
9890
  8
AM_0
 10
408.91135969169562
 20
140.50382510790499
 30
0.0
 70
    32
  0
VERTEX
  5
9891
  8
AM_0
 10
408.90635969169568
 20
140.50382510790499
 30
0.0
 70
    32
  0
VERTEX
  5
9892
  8
AM_0
 10
408.90235969169572
 20
140.50382510790499
 30
0.0
 70
    32
  0
VERTEX
  5
9893
  8
AM_0
 10
408.8983596916953
 20
140.50282510790481
 30
0.0
 70
    32
  0
VERTEX
  5
9894
  8
AM_0
 10
408.8943596916958
 20
140.50282510790481
 30
0.0
 70
    32
  0
VERTEX
  5
9895
  8
AM_0
 10
408.8893596916958
 20
140.50282510790481
 30
0.0
 70
    32
  0
VERTEX
  5
9896
  8
AM_0
 10
408.88535969169573
 20
140.50282510790481
 30
0.0
 70
    32
  0
VERTEX
  5
9897
  8
AM_0
 10
408.88135969169559
 20
140.50182510790469
 30
0.0
 70
    32
  0
VERTEX
  5
9898
  8
AM_0
 10
408.87735969169557
 20
140.50182510790469
 30
0.0
 70
    32
  0
VERTEX
  5
9899
  8
AM_0
 10
408.87235969169529
 20
140.50182510790469
 30
0.0
 70
    32
  0
VERTEX
  5
989A
  8
AM_0
 10
408.86835969169579
 20
140.50082510790469
 30
0.0
 70
    32
  0
VERTEX
  5
989B
  8
AM_0
 10
408.86435969169571
 20
140.50082510790469
 30
0.0
 70
    32
  0
VERTEX
  5
989C
  8
AM_0
 10
408.8593596916956
 20
140.50082510790469
 30
0.0
 70
    32
  0
VERTEX
  5
989D
  8
AM_0
 10
408.85535969169558
 20
140.49982510790491
 30
0.0
 70
    32
  0
VERTEX
  5
989E
  8
AM_0
 10
408.85135969169562
 20
140.49982510790491
 30
0.0
 70
    32
  0
VERTEX
  5
989F
  8
AM_0
 10
408.8473596916956
 20
140.49982510790491
 30
0.0
 70
    32
  0
VERTEX
  5
98A0
  8
AM_0
 10
408.84235969169561
 20
140.49882510790499
 30
0.0
 70
    32
  0
VERTEX
  5
98A1
  8
AM_0
 10
408.8383596916957
 20
140.49882510790499
 30
0.0
 70
    32
  0
VERTEX
  5
98A2
  8
AM_0
 10
408.83435969169591
 20
140.49882510790499
 30
0.0
 70
    32
  0
VERTEX
  5
98A3
  8
AM_0
 10
408.83035969169572
 20
140.4978251079049
 30
0.0
 70
    32
  0
VERTEX
  5
98A4
  8
AM_0
 10
408.82535969169538
 20
140.4978251079049
 30
0.0
 70
    32
  0
VERTEX
  5
98A5
  8
AM_0
 10
408.8213596916957
 20
140.4978251079049
 30
0.0
 70
    32
  0
VERTEX
  5
98A6
  8
AM_0
 10
408.81735969169557
 20
140.4968251079049
 30
0.0
 70
    32
  0
VERTEX
  5
98A7
  8
AM_0
 10
408.81335969169572
 20
140.4968251079049
 30
0.0
 70
    32
  0
VERTEX
  5
98A8
  8
AM_0
 10
408.8083596916955
 20
140.4968251079049
 30
0.0
 70
    32
  0
VERTEX
  5
98A9
  8
AM_0
 10
408.8043596916952
 20
140.49582510790481
 30
0.0
 70
    32
  0
VERTEX
  5
98AA
  8
AM_0
 10
408.8003596916958
 20
140.49582510790481
 30
0.0
 70
    32
  0
VERTEX
  5
98AB
  8
AM_0
 10
408.79635969169561
 20
140.494825107905
 30
0.0
 70
    32
  0
VERTEX
  5
98AC
  8
AM_0
 10
408.79135969169567
 20
140.494825107905
 30
0.0
 70
    32
  0
VERTEX
  5
98AD
  8
AM_0
 10
408.7873596916956
 20
140.494825107905
 30
0.0
 70
    32
  0
VERTEX
  5
98AE
  8
AM_0
 10
408.78335969169581
 20
140.4938251079048
 30
0.0
 70
    32
  0
VERTEX
  5
98AF
  8
AM_0
 10
408.77935969169579
 20
140.4938251079048
 30
0.0
 70
    32
  0
VERTEX
  5
98B0
  8
AM_0
 10
408.77435969169562
 20
140.49282510790471
 30
0.0
 70
    32
  0
VERTEX
  5
98B1
  8
AM_0
 10
408.77035969169572
 20
140.49282510790471
 30
0.0
 70
    32
  0
VERTEX
  5
98B2
  8
AM_0
 10
408.76635969169558
 20
140.49282510790471
 30
0.0
 70
    32
  0
VERTEX
  5
98B3
  8
AM_0
 10
408.76235969169562
 20
140.4918251079047
 30
0.0
 70
    32
  0
VERTEX
  5
98B4
  8
AM_0
 10
408.75735969169563
 20
140.4918251079047
 30
0.0
 70
    32
  0
VERTEX
  5
98B5
  8
AM_0
 10
408.75335969169578
 20
140.4908251079049
 30
0.0
 70
    32
  0
VERTEX
  5
98B6
  8
AM_0
 10
408.74935969169587
 20
140.4908251079049
 30
0.0
 70
    32
  0
VERTEX
  5
98B7
  8
AM_0
 10
408.74535969169563
 20
140.48982510790501
 30
0.0
 70
    32
  0
VERTEX
  5
98B8
  8
AM_0
 10
408.74035969169591
 20
140.48982510790501
 30
0.0
 70
    32
  0
VERTEX
  5
98B9
  8
AM_0
 10
408.73635969169572
 20
140.48982510790501
 30
0.0
 70
    32
  0
VERTEX
  5
98BA
  8
AM_0
 10
408.73235969169571
 20
140.4888251079048
 30
0.0
 70
    32
  0
VERTEX
  5
98BB
  8
AM_0
 10
408.72835969169557
 20
140.4888251079048
 30
0.0
 70
    32
  0
VERTEX
  5
98BC
  8
AM_0
 10
408.72335969169569
 20
140.48782510790491
 30
0.0
 70
    32
  0
VERTEX
  5
98BD
  8
AM_0
 10
408.7193596916955
 20
140.48782510790491
 30
0.0
 70
    32
  0
VERTEX
  5
98BE
  8
AM_0
 10
408.71535969169571
 20
140.48682510790491
 30
0.0
 70
    32
  0
VERTEX
  5
98BF
  8
AM_0
 10
408.7113596916958
 20
140.48682510790491
 30
0.0
 70
    32
  0
VERTEX
  5
98C0
  8
AM_0
 10
408.70735969169561
 20
140.48582510790499
 30
0.0
 70
    32
  0
VERTEX
  5
98C1
  8
AM_0
 10
408.70235969169568
 20
140.48582510790499
 30
0.0
 70
    32
  0
VERTEX
  5
98C2
  8
AM_0
 10
408.69835969169537
 20
140.48482510790481
 30
0.0
 70
    32
  0
VERTEX
  5
98C3
  8
AM_0
 10
408.69435969169569
 20
140.48482510790481
 30
0.0
 70
    32
  0
VERTEX
  5
98C4
  8
AM_0
 10
408.69035969169568
 20
140.48382510790469
 30
0.0
 70
    32
  0
VERTEX
  5
98C5
  8
AM_0
 10
408.68535969169568
 20
140.48382510790469
 30
0.0
 70
    32
  0
VERTEX
  5
98C6
  8
AM_0
 10
408.68135969169572
 20
140.48282510790469
 30
0.0
 70
    32
  0
VERTEX
  5
98C7
  8
AM_0
 10
408.67735969169559
 20
140.48282510790469
 30
0.0
 70
    32
  0
VERTEX
  5
98C8
  8
AM_0
 10
408.67335969169602
 20
140.48182510790491
 30
0.0
 70
    32
  0
VERTEX
  5
98C9
  8
AM_0
 10
408.6683596916958
 20
140.48182510790491
 30
0.0
 70
    32
  0
VERTEX
  5
98CA
  8
AM_0
 10
408.66435969169572
 20
140.48082510790499
 30
0.0
 70
    32
  0
VERTEX
  5
98CB
  8
AM_0
 10
408.66035969169559
 20
140.48082510790499
 30
0.0
 70
    32
  0
VERTEX
  5
98CC
  8
AM_0
 10
408.65635969169563
 20
140.4798251079049
 30
0.0
 70
    32
  0
VERTEX
  5
98CD
  8
AM_0
 10
408.65135969169592
 20
140.4798251079049
 30
0.0
 70
    32
  0
VERTEX
  5
98CE
  8
AM_0
 10
408.64735969169573
 20
140.47882510790481
 30
0.0
 70
    32
  0
VERTEX
  5
98CF
  8
AM_0
 10
408.64335969169571
 20
140.47882510790481
 30
0.0
 70
    32
  0
VERTEX
  5
98D0
  8
AM_0
 10
408.63935969169557
 20
140.47782510790481
 30
0.0
 70
    32
  0
VERTEX
  5
98D1
  8
AM_0
 10
408.63435969169558
 20
140.47782510790481
 30
0.0
 70
    32
  0
VERTEX
  5
98D2
  8
AM_0
 10
408.63035969169567
 20
140.476825107905
 30
0.0
 70
    32
  0
VERTEX
  5
98D3
  8
AM_0
 10
408.62635969169571
 20
140.476825107905
 30
0.0
 70
    32
  0
VERTEX
  5
98D4
  8
AM_0
 10
408.62235969169569
 20
140.4758251079048
 30
0.0
 70
    32
  0
VERTEX
  5
98D5
  8
AM_0
 10
408.61835969169567
 20
140.4758251079048
 30
0.0
 70
    32
  0
VERTEX
  5
98D6
  8
AM_0
 10
408.61335969169562
 20
140.47482510790499
 30
0.0
 70
    32
  0
VERTEX
  5
98D7
  8
AM_0
 10
408.60935969169572
 20
140.4738251079047
 30
0.0
 70
    32
  0
VERTEX
  5
98D8
  8
AM_0
 10
408.60535969169558
 20
140.4738251079047
 30
0.0
 70
    32
  0
VERTEX
  5
98D9
  8
AM_0
 10
408.60135969169562
 20
140.4728251079049
 30
0.0
 70
    32
  0
VERTEX
  5
98DA
  8
AM_0
 10
408.5963596916958
 20
140.4728251079049
 30
0.0
 70
    32
  0
VERTEX
  5
98DB
  8
AM_0
 10
408.59235969169561
 20
140.471825107905
 30
0.0
 70
    32
  0
VERTEX
  5
98DC
  8
AM_0
 10
408.58835969169542
 20
140.471825107905
 30
0.0
 70
    32
  0
VERTEX
  5
98DD
  8
AM_0
 10
408.58435969169562
 20
140.47082510790489
 30
0.0
 70
    32
  0
VERTEX
  5
98DE
  8
AM_0
 10
408.57935969169557
 20
140.4698251079048
 30
0.0
 70
    32
  0
VERTEX
  5
98DF
  8
AM_0
 10
408.57535969169578
 20
140.4698251079048
 30
0.0
 70
    32
  0
VERTEX
  5
98E0
  8
AM_0
 10
408.57135969169559
 20
140.46882510790479
 30
0.0
 70
    32
  0
VERTEX
  5
98E1
  8
AM_0
 10
408.56735969169557
 20
140.46882510790479
 30
0.0
 70
    32
  0
VERTEX
  5
98E2
  8
AM_0
 10
408.56335969169572
 20
140.46782510790501
 30
0.0
 70
    32
  0
VERTEX
  5
98E3
  8
AM_0
 10
408.55835969169578
 20
140.46682510790509
 30
0.0
 70
    32
  0
VERTEX
  5
98E4
  8
AM_0
 10
408.55435969169559
 20
140.46682510790509
 30
0.0
 70
    32
  0
VERTEX
  5
98E5
  8
AM_0
 10
408.55035969169552
 20
140.465825107905
 30
0.0
 70
    32
  0
VERTEX
  5
98E6
  8
AM_0
 10
408.54635969169573
 20
140.465825107905
 30
0.0
 70
    32
  0
VERTEX
  5
98E7
  8
AM_0
 10
408.54135969169539
 20
140.46482510790469
 30
0.0
 70
    32
  0
VERTEX
  5
98E8
  8
AM_0
 10
408.5373596916956
 20
140.4638251079048
 30
0.0
 70
    32
  0
VERTEX
  5
98E9
  8
AM_0
 10
408.53335969169569
 20
140.4638251079048
 30
0.0
 70
    32
  0
VERTEX
  5
98EA
  8
AM_0
 10
408.52935969169567
 20
140.46282510790499
 30
0.0
 70
    32
  0
VERTEX
  5
98EB
  8
AM_0
 10
408.52535969169571
 20
140.4618251079049
 30
0.0
 70
    32
  0
VERTEX
  5
98EC
  8
AM_0
 10
408.52035969169538
 20
140.4618251079049
 30
0.0
 70
    32
  0
VERTEX
  5
98ED
  8
AM_0
 10
408.5163596916957
 20
140.46082510790481
 30
0.0
 70
    32
  0
VERTEX
  5
98EE
  8
AM_0
 10
408.51235969169568
 20
140.46082510790481
 30
0.0
 70
    32
  0
VERTEX
  5
98EF
  8
AM_0
 10
408.50835969169572
 20
140.45982510790481
 30
0.0
 70
    32
  0
VERTEX
  5
98F0
  8
AM_0
 10
408.50335969169561
 20
140.45882510790489
 30
0.0
 70
    32
  0
VERTEX
  5
98F1
  8
AM_0
 10
408.49935969169587
 20
140.45882510790489
 30
0.0
 70
    32
  0
VERTEX
  5
98F2
  8
AM_0
 10
408.4953596916958
 20
140.45782510790511
 30
0.0
 70
    32
  0
VERTEX
  5
98F3
  8
AM_0
 10
408.49135969169561
 20
140.45682510790499
 30
0.0
 70
    32
  0
VERTEX
  5
98F4
  8
AM_0
 10
408.48735969169559
 20
140.45682510790499
 30
0.0
 70
    32
  0
VERTEX
  5
98F5
  8
AM_0
 10
408.48235969169559
 20
140.4558251079047
 30
0.0
 70
    32
  0
VERTEX
  5
98F6
  8
AM_0
 10
408.47835969169557
 20
140.45482510790481
 30
0.0
 70
    32
  0
VERTEX
  5
98F7
  8
AM_0
 10
408.47435969169572
 20
140.45482510790481
 30
0.0
 70
    32
  0
VERTEX
  5
98F8
  8
AM_0
 10
408.47035969169588
 20
140.453825107905
 30
0.0
 70
    32
  0
VERTEX
  5
98F9
  8
AM_0
 10
408.46535969169571
 20
140.45282510790491
 30
0.0
 70
    32
  0
VERTEX
  5
98FA
  8
AM_0
 10
408.46135969169592
 20
140.45282510790491
 30
0.0
 70
    32
  0
VERTEX
  5
98FB
  8
AM_0
 10
408.45735969169561
 20
140.4518251079048
 30
0.0
 70
    32
  0
VERTEX
  5
98FC
  8
AM_0
 10
408.45335969169571
 20
140.45082510790479
 30
0.0
 70
    32
  0
VERTEX
  5
98FD
  8
AM_0
 10
408.44935969169558
 20
140.4498251079049
 30
0.0
 70
    32
  0
VERTEX
  5
98FE
  8
AM_0
 10
408.44435969169569
 20
140.4498251079049
 30
0.0
 70
    32
  0
VERTEX
  5
98FF
  8
AM_0
 10
408.44035969169539
 20
140.44882510790509
 30
0.0
 70
    32
  0
VERTEX
  5
9900
  8
AM_0
 10
408.43635969169571
 20
140.447825107905
 30
0.0
 70
    32
  0
VERTEX
  5
9901
  8
AM_0
 10
408.43235969169581
 20
140.447825107905
 30
0.0
 70
    32
  0
VERTEX
  5
9902
  8
AM_0
 10
408.4283596916955
 20
140.44682510790469
 30
0.0
 70
    32
  0
VERTEX
  5
9903
  8
AM_0
 10
408.42335969169568
 20
140.4458251079048
 30
0.0
 70
    32
  0
VERTEX
  5
9904
  8
AM_0
 10
408.41935969169572
 20
140.4448251079049
 30
0.0
 70
    32
  0
VERTEX
  5
9905
  8
AM_0
 10
408.4153596916953
 20
140.4448251079049
 30
0.0
 70
    32
  0
VERTEX
  5
9906
  8
AM_0
 10
408.41135969169562
 20
140.44382510790479
 30
0.0
 70
    32
  0
VERTEX
  5
9907
  8
AM_0
 10
408.4073596916956
 20
140.44282510790481
 30
0.0
 70
    32
  0
VERTEX
  5
9908
  8
AM_0
 10
408.40235969169561
 20
140.4418251079048
 30
0.0
 70
    32
  0
VERTEX
  5
9909
  8
AM_0
 10
408.39835969169542
 20
140.4418251079048
 30
0.0
 70
    32
  0
VERTEX
  5
990A
  8
AM_0
 10
408.39435969169591
 20
140.44082510790491
 30
0.0
 70
    32
  0
VERTEX
  5
990B
  8
AM_0
 10
408.39035969169572
 20
140.43982510790511
 30
0.0
 70
    32
  0
VERTEX
  5
990C
  8
AM_0
 10
408.38635969169559
 20
140.43882510790499
 30
0.0
 70
    32
  0
VERTEX
  5
990D
  8
AM_0
 10
408.38135969169559
 20
140.43882510790499
 30
0.0
 70
    32
  0
VERTEX
  5
990E
  8
AM_0
 10
408.3773596916958
 20
140.4378251079049
 30
0.0
 70
    32
  0
VERTEX
  5
990F
  8
AM_0
 10
408.37335969169573
 20
140.43682510790481
 30
0.0
 70
    32
  0
VERTEX
  5
9910
  8
AM_0
 10
408.36935969169559
 20
140.4358251079048
 30
0.0
 70
    32
  0
VERTEX
  5
9911
  8
AM_0
 10
408.36535969169591
 20
140.4358251079048
 30
0.0
 70
    32
  0
VERTEX
  5
9912
  8
AM_0
 10
408.36035969169558
 20
140.4348251079048
 30
0.0
 70
    32
  0
VERTEX
  5
9913
  8
AM_0
 10
408.35635969169579
 20
140.4338251079048
 30
0.0
 70
    32
  0
VERTEX
  5
9914
  8
AM_0
 10
408.35235969169571
 20
140.43282510790479
 30
0.0
 70
    32
  0
VERTEX
  5
9915
  8
AM_0
 10
408.34835969169558
 20
140.4318251079049
 30
0.0
 70
    32
  0
VERTEX
  5
9916
  8
AM_0
 10
408.34435969169539
 20
140.4318251079049
 30
0.0
 70
    32
  0
VERTEX
  5
9917
  8
AM_0
 10
408.33935969169568
 20
140.43082510790509
 30
0.0
 70
    32
  0
VERTEX
  5
9918
  8
AM_0
 10
408.33535969169537
 20
140.4298251079048
 30
0.0
 70
    32
  0
VERTEX
  5
9919
  8
AM_0
 10
408.3313596916957
 20
140.42882510790491
 30
0.0
 70
    32
  0
VERTEX
  5
991A
  8
AM_0
 10
408.32735969169568
 20
140.42782510790491
 30
0.0
 70
    32
  0
VERTEX
  5
991B
  8
AM_0
 10
408.32335969169532
 20
140.42782510790491
 30
0.0
 70
    32
  0
VERTEX
  5
991C
  8
AM_0
 10
408.31835969169572
 20
140.4268251079049
 30
0.0
 70
    32
  0
VERTEX
  5
991D
  8
AM_0
 10
408.3143596916957
 20
140.4258251079047
 30
0.0
 70
    32
  0
VERTEX
  5
991E
  8
AM_0
 10
408.31035969169562
 20
140.4248251079047
 30
0.0
 70
    32
  0
VERTEX
  5
991F
  8
AM_0
 10
408.30635969169538
 20
140.4238251079048
 30
0.0
 70
    32
  0
VERTEX
  5
9920
  8
AM_0
 10
408.30235969169581
 20
140.42282510790491
 30
0.0
 70
    32
  0
VERTEX
  5
9921
  8
AM_0
 10
408.29835969169591
 20
140.42282510790491
 30
0.0
 70
    32
  0
VERTEX
  5
9922
  8
AM_0
 10
408.29335969169563
 20
140.42182510790499
 30
0.0
 70
    32
  0
VERTEX
  5
9923
  8
AM_0
 10
408.28935969169572
 20
140.4208251079049
 30
0.0
 70
    32
  0
VERTEX
  5
9924
  8
AM_0
 10
408.28535969169542
 20
140.41982510790481
 30
0.0
 70
    32
  0
VERTEX
  5
9925
  8
AM_0
 10
408.28135969169563
 20
140.41882510790481
 30
0.0
 70
    32
  0
VERTEX
  5
9926
  8
AM_0
 10
408.27735969169572
 20
140.4178251079048
 30
0.0
 70
    32
  0
VERTEX
  5
9927
  8
AM_0
 10
408.27235969169573
 20
140.4168251079048
 30
0.0
 70
    32
  0
VERTEX
  5
9928
  8
AM_0
 10
408.26835969169571
 20
140.4168251079048
 30
0.0
 70
    32
  0
VERTEX
  5
9929
  8
AM_0
 10
408.26435969169557
 20
140.41582510790471
 30
0.0
 70
    32
  0
VERTEX
  5
992A
  8
AM_0
 10
408.26035969169573
 20
140.4148251079047
 30
0.0
 70
    32
  0
VERTEX
  5
992B
  8
AM_0
 10
408.25635969169571
 20
140.4138251079049
 30
0.0
 70
    32
  0
VERTEX
  5
992C
  8
AM_0
 10
408.25235969169552
 20
140.41282510790501
 30
0.0
 70
    32
  0
VERTEX
  5
992D
  8
AM_0
 10
408.24735969169558
 20
140.4118251079048
 30
0.0
 70
    32
  0
VERTEX
  5
992E
  8
AM_0
 10
408.24335969169539
 20
140.4108251079048
 30
0.0
 70
    32
  0
VERTEX
  5
992F
  8
AM_0
 10
408.23935969169571
 20
140.40982510790491
 30
0.0
 70
    32
  0
VERTEX
  5
9930
  8
AM_0
 10
408.23535969169569
 20
140.40882510790499
 30
0.0
 70
    32
  0
VERTEX
  5
9931
  8
AM_0
 10
408.23135969169567
 20
140.40882510790499
 30
0.0
 70
    32
  0
VERTEX
  5
9932
  8
AM_0
 10
408.22735969169571
 20
140.4078251079051
 30
0.0
 70
    32
  0
VERTEX
  5
9933
  8
AM_0
 10
408.22235969169537
 20
140.40682510790469
 30
0.0
 70
    32
  0
VERTEX
  5
9934
  8
AM_0
 10
408.2183596916953
 20
140.40582510790469
 30
0.0
 70
    32
  0
VERTEX
  5
9935
  8
AM_0
 10
408.21435969169568
 20
140.40482510790491
 30
0.0
 70
    32
  0
VERTEX
  5
9936
  8
AM_0
 10
408.21035969169537
 20
140.40382510790499
 30
0.0
 70
    32
  0
VERTEX
  5
9937
  8
AM_0
 10
408.2063596916957
 20
140.4028251079049
 30
0.0
 70
    32
  0
VERTEX
  5
9938
  8
AM_0
 10
408.20235969169579
 20
140.4018251079047
 30
0.0
 70
    32
  0
VERTEX
  5
9939
  8
AM_0
 10
408.19735969169568
 20
140.40082510790481
 30
0.0
 70
    32
  0
VERTEX
  5
993A
  8
AM_0
 10
408.19335969169572
 20
140.399825107905
 30
0.0
 70
    32
  0
VERTEX
  5
993B
  8
AM_0
 10
408.18935969169559
 20
140.39882510790511
 30
0.0
 70
    32
  0
VERTEX
  5
993C
  8
AM_0
 10
408.18535969169562
 20
140.39782510790471
 30
0.0
 70
    32
  0
VERTEX
  5
993D
  8
AM_0
 10
408.18135969169572
 20
140.3968251079047
 30
0.0
 70
    32
  0
VERTEX
  5
993E
  8
AM_0
 10
408.17735969169581
 20
140.39582510790481
 30
0.0
 70
    32
  0
VERTEX
  5
993F
  8
AM_0
 10
408.17235969169559
 20
140.39482510790501
 30
0.0
 70
    32
  0
VERTEX
  5
9940
  8
AM_0
 10
408.16835969169563
 20
140.3938251079048
 30
0.0
 70
    32
  0
VERTEX
  5
9941
  8
AM_0
 10
408.16435969169578
 20
140.3928251079048
 30
0.0
 70
    32
  0
VERTEX
  5
9942
  8
AM_0
 10
408.16035969169559
 20
140.39182510790479
 30
0.0
 70
    32
  0
VERTEX
  5
9943
  8
AM_0
 10
408.15635969169551
 20
140.39082510790499
 30
0.0
 70
    32
  0
VERTEX
  5
9944
  8
AM_0
 10
408.15235969169572
 20
140.3898251079051
 30
0.0
 70
    32
  0
VERTEX
  5
9945
  8
AM_0
 10
408.1483596916957
 20
140.38882510790469
 30
0.0
 70
    32
  0
VERTEX
  5
9946
  8
AM_0
 10
408.14335969169559
 20
140.38782510790469
 30
0.0
 70
    32
  0
VERTEX
  5
9947
  8
AM_0
 10
408.13935969169569
 20
140.3868251079048
 30
0.0
 70
    32
  0
VERTEX
  5
9948
  8
AM_0
 10
408.13535969169573
 20
140.38582510790499
 30
0.0
 70
    32
  0
VERTEX
  5
9949
  8
AM_0
 10
408.13135969169571
 20
140.3848251079049
 30
0.0
 70
    32
  0
VERTEX
  5
994A
  8
AM_0
 10
408.12735969169557
 20
140.38382510790481
 30
0.0
 70
    32
  0
VERTEX
  5
994B
  8
AM_0
 10
408.12335969169573
 20
140.38282510790481
 30
0.0
 70
    32
  0
VERTEX
  5
994C
  8
AM_0
 10
408.11835969169562
 20
140.381825107905
 30
0.0
 70
    32
  0
VERTEX
  5
994D
  8
AM_0
 10
408.11435969169571
 20
140.38082510790511
 30
0.0
 70
    32
  0
VERTEX
  5
994E
  8
AM_0
 10
408.11035969169581
 20
140.37982510790499
 30
0.0
 70
    32
  0
VERTEX
  5
994F
  8
AM_0
 10
408.10635969169567
 20
140.3788251079049
 30
0.0
 70
    32
  0
VERTEX
  5
9950
  8
AM_0
 10
408.1023596916956
 20
140.37782510790481
 30
0.0
 70
    32
  0
VERTEX
  5
9951
  8
AM_0
 10
408.09835969169558
 20
140.37682510790501
 30
0.0
 70
    32
  0
VERTEX
  5
9952
  8
AM_0
 10
408.09435969169567
 20
140.3758251079048
 30
0.0
 70
    32
  0
VERTEX
  5
9953
  8
AM_0
 10
408.0903596916956
 20
140.3748251079048
 30
0.0
 70
    32
  0
VERTEX
  5
9954
  8
AM_0
 10
408.08535969169571
 20
140.37382510790479
 30
0.0
 70
    32
  0
VERTEX
  5
9955
  8
AM_0
 10
408.08135969169558
 20
140.3728251079049
 30
0.0
 70
    32
  0
VERTEX
  5
9956
  8
AM_0
 10
408.07735969169579
 20
140.3718251079051
 30
0.0
 70
    32
  0
VERTEX
  5
9957
  8
AM_0
 10
408.07335969169571
 20
140.3698251079048
 30
0.0
 70
    32
  0
VERTEX
  5
9958
  8
AM_0
 10
408.06935969169552
 20
140.3688251079048
 30
0.0
 70
    32
  0
VERTEX
  5
9959
  8
AM_0
 10
408.06535969169562
 20
140.36782510790499
 30
0.0
 70
    32
  0
VERTEX
  5
995A
  8
AM_0
 10
408.06135969169537
 20
140.36682510790479
 30
0.0
 70
    32
  0
VERTEX
  5
995B
  8
AM_0
 10
408.05735969169592
 20
140.36582510790481
 30
0.0
 70
    32
  0
VERTEX
  5
995C
  8
AM_0
 10
408.05235969169559
 20
140.36482510790481
 30
0.0
 70
    32
  0
VERTEX
  5
995D
  8
AM_0
 10
408.04835969169568
 20
140.36382510790489
 30
0.0
 70
    32
  0
VERTEX
  5
995E
  8
AM_0
 10
408.04435969169532
 20
140.36282510790511
 30
0.0
 70
    32
  0
VERTEX
  5
995F
  8
AM_0
 10
408.04035969169558
 20
140.36182510790499
 30
0.0
 70
    32
  0
VERTEX
  5
9960
  8
AM_0
 10
408.03635969169562
 20
140.35982510790481
 30
0.0
 70
    32
  0
VERTEX
  5
9961
  8
AM_0
 10
408.03235969169538
 20
140.35882510790481
 30
0.0
 70
    32
  0
VERTEX
  5
9962
  8
AM_0
 10
408.02835969169593
 20
140.3578251079048
 30
0.0
 70
    32
  0
VERTEX
  5
9963
  8
AM_0
 10
408.02435969169568
 20
140.35682510790471
 30
0.0
 70
    32
  0
VERTEX
  5
9964
  8
AM_0
 10
408.0193596916958
 20
140.35582510790471
 30
0.0
 70
    32
  0
VERTEX
  5
9965
  8
AM_0
 10
408.01535969169561
 20
140.3548251079049
 30
0.0
 70
    32
  0
VERTEX
  5
9966
  8
AM_0
 10
408.0113596916957
 20
140.3538251079051
 30
0.0
 70
    32
  0
VERTEX
  5
9967
  8
AM_0
 10
408.00735969169568
 20
140.35182510790489
 30
0.0
 70
    32
  0
VERTEX
  5
9968
  8
AM_0
 10
408.00335969169561
 20
140.3508251079048
 30
0.0
 70
    32
  0
VERTEX
  5
9969
  8
AM_0
 10
407.99935969169587
 20
140.34982510790499
 30
0.0
 70
    32
  0
VERTEX
  5
996A
  8
AM_0
 10
407.99535969169563
 20
140.34882510790479
 30
0.0
 70
    32
  0
VERTEX
  5
996B
  8
AM_0
 10
407.99135969169572
 20
140.3478251079047
 30
0.0
 70
    32
  0
VERTEX
  5
996C
  8
AM_0
 10
407.98735969169542
 20
140.34682510790481
 30
0.0
 70
    32
  0
VERTEX
  5
996D
  8
AM_0
 10
407.98335969169563
 20
140.344825107905
 30
0.0
 70
    32
  0
VERTEX
  5
996E
  8
AM_0
 10
407.97835969169557
 20
140.34382510790491
 30
0.0
 70
    32
  0
VERTEX
  5
996F
  8
AM_0
 10
407.97435969169561
 20
140.3428251079049
 30
0.0
 70
    32
  0
VERTEX
  5
9970
  8
AM_0
 10
407.97035969169588
 20
140.3418251079049
 30
0.0
 70
    32
  0
VERTEX
  5
9971
  8
AM_0
 10
407.96635969169557
 20
140.340825107905
 30
0.0
 70
    32
  0
VERTEX
  5
9972
  8
AM_0
 10
407.96235969169572
 20
140.33882510790471
 30
0.0
 70
    32
  0
VERTEX
  5
9973
  8
AM_0
 10
407.9583596916957
 20
140.33782510790471
 30
0.0
 70
    32
  0
VERTEX
  5
9974
  8
AM_0
 10
407.95435969169557
 20
140.3368251079049
 30
0.0
 70
    32
  0
VERTEX
  5
9975
  8
AM_0
 10
407.95035969169533
 20
140.33582510790501
 30
0.0
 70
    32
  0
VERTEX
  5
9976
  8
AM_0
 10
407.9463596916957
 20
140.3338251079048
 30
0.0
 70
    32
  0
VERTEX
  5
9977
  8
AM_0
 10
407.94235969169557
 20
140.33282510790491
 30
0.0
 70
    32
  0
VERTEX
  5
9978
  8
AM_0
 10
407.93835969169572
 20
140.33182510790499
 30
0.0
 70
    32
  0
VERTEX
  5
9979
  8
AM_0
 10
407.93335969169573
 20
140.33082510790479
 30
0.0
 70
    32
  0
VERTEX
  5
997A
  8
AM_0
 10
407.92935969169571
 20
140.32882510790469
 30
0.0
 70
    32
  0
VERTEX
  5
997B
  8
AM_0
 10
407.92535969169569
 20
140.32782510790491
 30
0.0
 70
    32
  0
VERTEX
  5
997C
  8
AM_0
 10
407.92135969169561
 20
140.32682510790499
 30
0.0
 70
    32
  0
VERTEX
  5
997D
  8
AM_0
 10
407.91735969169571
 20
140.3258251079049
 30
0.0
 70
    32
  0
VERTEX
  5
997E
  8
AM_0
 10
407.91335969169592
 20
140.32382510790481
 30
0.0
 70
    32
  0
VERTEX
  5
997F
  8
AM_0
 10
407.90935969169573
 20
140.322825107905
 30
0.0
 70
    32
  0
VERTEX
  5
9980
  8
AM_0
 10
407.90535969169559
 20
140.3218251079048
 30
0.0
 70
    32
  0
VERTEX
  5
9981
  8
AM_0
 10
407.90135969169592
 20
140.32082510790471
 30
0.0
 70
    32
  0
VERTEX
  5
9982
  8
AM_0
 10
407.89735969169573
 20
140.3188251079049
 30
0.0
 70
    32
  0
VERTEX
  5
9983
  8
AM_0
 10
407.89335969169559
 20
140.31782510790501
 30
0.0
 70
    32
  0
VERTEX
  5
9984
  8
AM_0
 10
407.8893596916958
 20
140.3168251079048
 30
0.0
 70
    32
  0
VERTEX
  5
9985
  8
AM_0
 10
407.88535969169578
 20
140.3148251079048
 30
0.0
 70
    32
  0
VERTEX
  5
9986
  8
AM_0
 10
407.88035969169567
 20
140.31382510790499
 30
0.0
 70
    32
  0
VERTEX
  5
9987
  8
AM_0
 10
407.8763596916956
 20
140.3128251079051
 30
0.0
 70
    32
  0
VERTEX
  5
9988
  8
AM_0
 10
407.87235969169552
 20
140.31082510790469
 30
0.0
 70
    32
  0
VERTEX
  5
9989
  8
AM_0
 10
407.86835969169579
 20
140.3098251079048
 30
0.0
 70
    32
  0
VERTEX
  5
998A
  8
AM_0
 10
407.86435969169571
 20
140.30882510790499
 30
0.0
 70
    32
  0
VERTEX
  5
998B
  8
AM_0
 10
407.86035969169558
 20
140.30682510790481
 30
0.0
 70
    32
  0
VERTEX
  5
998C
  8
AM_0
 10
407.85635969169567
 20
140.30582510790481
 30
0.0
 70
    32
  0
VERTEX
  5
998D
  8
AM_0
 10
407.8523596916956
 20
140.304825107905
 30
0.0
 70
    32
  0
VERTEX
  5
998E
  8
AM_0
 10
407.84835969169569
 20
140.30282510790499
 30
0.0
 70
    32
  0
VERTEX
  5
998F
  8
AM_0
 10
407.8443596916955
 20
140.3018251079047
 30
0.0
 70
    32
  0
VERTEX
  5
9990
  8
AM_0
 10
407.84035969169571
 20
140.30082510790481
 30
0.0
 70
    32
  0
VERTEX
  5
9991
  8
AM_0
 10
407.8363596916958
 20
140.2988251079048
 30
0.0
 70
    32
  0
VERTEX
  5
9992
  8
AM_0
 10
407.83235969169561
 20
140.2978251079048
 30
0.0
 70
    32
  0
VERTEX
  5
9993
  8
AM_0
 10
407.8283596916952
 20
140.29682510790479
 30
0.0
 70
    32
  0
VERTEX
  5
9994
  8
AM_0
 10
407.82435969169529
 20
140.2948251079051
 30
0.0
 70
    32
  0
VERTEX
  5
9995
  8
AM_0
 10
407.82035969169561
 20
140.29382510790501
 30
0.0
 70
    32
  0
VERTEX
  5
9996
  8
AM_0
 10
407.81635969169588
 20
140.2918251079048
 30
0.0
 70
    32
  0
VERTEX
  5
9997
  8
AM_0
 10
407.81235969169569
 20
140.29082510790491
 30
0.0
 70
    32
  0
VERTEX
  5
9998
  8
AM_0
 10
407.80835969169561
 20
140.2898251079049
 30
0.0
 70
    32
  0
VERTEX
  5
9999
  8
AM_0
 10
407.80435969169559
 20
140.28782510790481
 30
0.0
 70
    32
  0
VERTEX
  5
999A
  8
AM_0
 10
407.80035969169529
 20
140.2868251079048
 30
0.0
 70
    32
  0
VERTEX
  5
999B
  8
AM_0
 10
407.79635969169578
 20
140.28482510790499
 30
0.0
 70
    32
  0
VERTEX
  5
999C
  8
AM_0
 10
407.79235969169559
 20
140.2838251079049
 30
0.0
 70
    32
  0
VERTEX
  5
999D
  8
AM_0
 10
407.78835969169592
 20
140.2828251079049
 30
0.0
 70
    32
  0
VERTEX
  5
999E
  8
AM_0
 10
407.78435969169573
 20
140.2808251079048
 30
0.0
 70
    32
  0
VERTEX
  5
999F
  8
AM_0
 10
407.78035969169571
 20
140.27982510790471
 30
0.0
 70
    32
  0
VERTEX
  5
99A0
  8
AM_0
 10
407.77535969169571
 20
140.2778251079049
 30
0.0
 70
    32
  0
VERTEX
  5
99A1
  8
AM_0
 10
407.77135969169558
 20
140.27682510790501
 30
0.0
 70
    32
  0
VERTEX
  5
99A2
  8
AM_0
 10
407.76735969169567
 20
140.2748251079048
 30
0.0
 70
    32
  0
VERTEX
  5
99A3
  8
AM_0
 10
407.76335969169583
 20
140.27382510790491
 30
0.0
 70
    32
  0
VERTEX
  5
99A4
  8
AM_0
 10
407.75935969169541
 20
140.27182510790479
 30
0.0
 70
    32
  0
VERTEX
  5
99A5
  8
AM_0
 10
407.75535969169567
 20
140.2708251079047
 30
0.0
 70
    32
  0
VERTEX
  5
99A6
  8
AM_0
 10
407.75135969169571
 20
140.2688251079048
 30
0.0
 70
    32
  0
VERTEX
  5
99A7
  8
AM_0
 10
407.74735969169558
 20
140.267825107905
 30
0.0
 70
    32
  0
VERTEX
  5
99A8
  8
AM_0
 10
407.74335969169567
 20
140.2658251079049
 30
0.0
 70
    32
  0
VERTEX
  5
99A9
  8
AM_0
 10
407.73935969169571
 20
140.2648251079049
 30
0.0
 70
    32
  0
VERTEX
  5
99AA
  8
AM_0
 10
407.73535969169569
 20
140.2628251079048
 30
0.0
 70
    32
  0
VERTEX
  5
99AB
  8
AM_0
 10
407.73135969169562
 20
140.26182510790471
 30
0.0
 70
    32
  0
VERTEX
  5
99AC
  8
AM_0
 10
407.72735969169543
 20
140.2598251079049
 30
0.0
 70
    32
  0
VERTEX
  5
99AD
  8
AM_0
 10
407.7233596916958
 20
140.25882510790501
 30
0.0
 70
    32
  0
VERTEX
  5
99AE
  8
AM_0
 10
407.71935969169562
 20
140.2568251079048
 30
0.0
 70
    32
  0
VERTEX
  5
99AF
  8
AM_0
 10
407.7153596916956
 20
140.25582510790491
 30
0.0
 70
    32
  0
VERTEX
  5
99B0
  8
AM_0
 10
407.71235969169572
 20
140.2538251079051
 30
0.0
 70
    32
  0
VERTEX
  5
99B1
  8
AM_0
 10
407.70835969169559
 20
140.2528251079047
 30
0.0
 70
    32
  0
VERTEX
  5
99B2
  8
AM_0
 10
407.70435969169557
 20
140.2508251079048
 30
0.0
 70
    32
  0
VERTEX
  5
99B3
  8
AM_0
 10
407.70035969169561
 20
140.249825107905
 30
0.0
 70
    32
  0
VERTEX
  5
99B4
  8
AM_0
 10
407.69635969169559
 20
140.24782510790479
 30
0.0
 70
    32
  0
VERTEX
  5
99B5
  8
AM_0
 10
407.69235969169557
 20
140.24682510790481
 30
0.0
 70
    32
  0
VERTEX
  5
99B6
  8
AM_0
 10
407.68835969169572
 20
140.24482510790509
 30
0.0
 70
    32
  0
VERTEX
  5
99B7
  8
AM_0
 10
407.68435969169559
 20
140.24282510790471
 30
0.0
 70
    32
  0
VERTEX
  5
99B8
  8
AM_0
 10
407.68035969169563
 20
140.2418251079049
 30
0.0
 70
    32
  0
VERTEX
  5
99B9
  8
AM_0
 10
407.67635969169578
 20
140.23982510790481
 30
0.0
 70
    32
  0
VERTEX
  5
99BA
  8
AM_0
 10
407.67235969169559
 20
140.2388251079048
 30
0.0
 70
    32
  0
VERTEX
  5
99BB
  8
AM_0
 10
407.66835969169551
 20
140.23682510790499
 30
0.0
 70
    32
  0
VERTEX
  5
99BC
  8
AM_0
 10
407.66435969169572
 20
140.2348251079047
 30
0.0
 70
    32
  0
VERTEX
  5
99BD
  8
AM_0
 10
407.6603596916957
 20
140.23382510790469
 30
0.0
 70
    32
  0
VERTEX
  5
99BE
  8
AM_0
 10
407.65635969169563
 20
140.231825107905
 30
0.0
 70
    32
  0
VERTEX
  5
99BF
  8
AM_0
 10
407.65235969169532
 20
140.23082510790491
 30
0.0
 70
    32
  0
VERTEX
  5
99C0
  8
AM_0
 10
407.6483596916957
 20
140.2288251079047
 30
0.0
 70
    32
  0
VERTEX
  5
99C1
  8
AM_0
 10
407.64435969169568
 20
140.22682510790511
 30
0.0
 70
    32
  0
VERTEX
  5
99C2
  8
AM_0
 10
407.64035969169572
 20
140.22582510790471
 30
0.0
 70
    32
  0
VERTEX
  5
99C3
  8
AM_0
 10
407.6363596916957
 20
140.22382510790479
 30
0.0
 70
    32
  0
VERTEX
  5
99C4
  8
AM_0
 10
407.63235969169563
 20
140.22182510790481
 30
0.0
 70
    32
  0
VERTEX
  5
99C5
  8
AM_0
 10
407.62835969169549
 20
140.2208251079048
 30
0.0
 70
    32
  0
VERTEX
  5
99C6
  8
AM_0
 10
407.62435969169587
 20
140.21882510790491
 30
0.0
 70
    32
  0
VERTEX
  5
99C7
  8
AM_0
 10
407.62135969169537
 20
140.21682510790501
 30
0.0
 70
    32
  0
VERTEX
  5
99C8
  8
AM_0
 10
407.6173596916957
 20
140.21582510790481
 30
0.0
 70
    32
  0
VERTEX
  5
99C9
  8
AM_0
 10
407.61335969169579
 20
140.21382510790491
 30
0.0
 70
    32
  0
VERTEX
  5
99CA
  8
AM_0
 10
407.6093596916956
 20
140.21182510790479
 30
0.0
 70
    32
  0
VERTEX
  5
99CB
  8
AM_0
 10
407.60535969169558
 20
140.21082510790481
 30
0.0
 70
    32
  0
VERTEX
  5
99CC
  8
AM_0
 10
407.60135969169562
 20
140.20882510790511
 30
0.0
 70
    32
  0
VERTEX
  5
99CD
  8
AM_0
 10
407.59735969169571
 20
140.2068251079049
 30
0.0
 70
    32
  0
VERTEX
  5
99CE
  8
AM_0
 10
407.59335969169592
 20
140.20582510790479
 30
0.0
 70
    32
  0
VERTEX
  5
99CF
  8
AM_0
 10
407.58935969169562
 20
140.20382510790481
 30
0.0
 70
    32
  0
VERTEX
  5
99D0
  8
AM_0
 10
407.58535969169571
 20
140.2018251079048
 30
0.0
 70
    32
  0
VERTEX
  5
99D1
  8
AM_0
 10
407.58135969169558
 20
140.19982510790501
 30
0.0
 70
    32
  0
VERTEX
  5
99D2
  8
AM_0
 10
407.57735969169579
 20
140.19882510790501
 30
0.0
 70
    32
  0
VERTEX
  5
99D3
  8
AM_0
 10
407.57435969169552
 20
140.1968251079048
 30
0.0
 70
    32
  0
VERTEX
  5
99D4
  8
AM_0
 10
407.57035969169573
 20
140.19482510790479
 30
0.0
 70
    32
  0
VERTEX
  5
99D5
  8
AM_0
 10
407.56635969169588
 20
140.19282510790481
 30
0.0
 70
    32
  0
VERTEX
  5
99D6
  8
AM_0
 10
407.56235969169558
 20
140.1918251079048
 30
0.0
 70
    32
  0
VERTEX
  5
99D7
  8
AM_0
 10
407.55835969169573
 20
140.18982510790491
 30
0.0
 70
    32
  0
VERTEX
  5
99D8
  8
AM_0
 10
407.55435969169559
 20
140.1878251079049
 30
0.0
 70
    32
  0
VERTEX
  5
99D9
  8
AM_0
 10
407.55035969169569
 20
140.1858251079048
 30
0.0
 70
    32
  0
VERTEX
  5
99DA
  8
AM_0
 10
407.54635969169573
 20
140.18482510790469
 30
0.0
 70
    32
  0
VERTEX
  5
99DB
  8
AM_0
 10
407.54235969169571
 20
140.1828251079049
 30
0.0
 70
    32
  0
VERTEX
  5
99DC
  8
AM_0
 10
407.53935969169572
 20
140.18082510790481
 30
0.0
 70
    32
  0
VERTEX
  5
99DD
  8
AM_0
 10
407.5353596916957
 20
140.17882510790491
 30
0.0
 70
    32
  0
VERTEX
  5
99DE
  8
AM_0
 10
407.53135969169568
 20
140.17682510790479
 30
0.0
 70
    32
  0
VERTEX
  5
99DF
  8
AM_0
 10
407.52735969169561
 20
140.1758251079047
 30
0.0
 70
    32
  0
VERTEX
  5
99E0
  8
AM_0
 10
407.5233596916957
 20
140.1738251079048
 30
0.0
 70
    32
  0
VERTEX
  5
99E1
  8
AM_0
 10
407.51935969169591
 20
140.17182510790491
 30
0.0
 70
    32
  0
VERTEX
  5
99E2
  8
AM_0
 10
407.51535969169561
 20
140.16982510790481
 30
0.0
 70
    32
  0
VERTEX
  5
99E3
  8
AM_0
 10
407.51235969169579
 20
140.1678251079048
 30
0.0
 70
    32
  0
VERTEX
  5
99E4
  8
AM_0
 10
407.5083596916956
 20
140.16682510790471
 30
0.0
 70
    32
  0
VERTEX
  5
99E5
  8
AM_0
 10
407.50435969169558
 20
140.1648251079049
 30
0.0
 70
    32
  0
VERTEX
  5
99E6
  8
AM_0
 10
407.50035969169562
 20
140.16282510790481
 30
0.0
 70
    32
  0
VERTEX
  5
99E7
  8
AM_0
 10
407.49635969169572
 20
140.1608251079048
 30
0.0
 70
    32
  0
VERTEX
  5
99E8
  8
AM_0
 10
407.49235969169581
 20
140.1588251079051
 30
0.0
 70
    32
  0
VERTEX
  5
99E9
  8
AM_0
 10
407.48835969169579
 20
140.15682510790469
 30
0.0
 70
    32
  0
VERTEX
  5
99EA
  8
AM_0
 10
407.48535969169558
 20
140.154825107905
 30
0.0
 70
    32
  0
VERTEX
  5
99EB
  8
AM_0
 10
407.48135969169562
 20
140.15282510790479
 30
0.0
 70
    32
  0
VERTEX
  5
99EC
  8
AM_0
 10
407.47735969169571
 20
140.15182510790481
 30
0.0
 70
    32
  0
VERTEX
  5
99ED
  8
AM_0
 10
407.47335969169558
 20
140.14982510790509
 30
0.0
 70
    32
  0
VERTEX
  5
99EE
  8
AM_0
 10
407.46935969169562
 20
140.14782510790471
 30
0.0
 70
    32
  0
VERTEX
  5
99EF
  8
AM_0
 10
407.46635969169557
 20
140.14582510790501
 30
0.0
 70
    32
  0
VERTEX
  5
99F0
  8
AM_0
 10
407.46235969169533
 20
140.1438251079048
 30
0.0
 70
    32
  0
VERTEX
  5
99F1
  8
AM_0
 10
407.45835969169559
 20
140.14182510790499
 30
0.0
 70
    32
  0
VERTEX
  5
99F2
  8
AM_0
 10
407.45435969169557
 20
140.13982510790501
 30
0.0
 70
    32
  0
VERTEX
  5
99F3
  8
AM_0
 10
407.45035969169589
 20
140.1378251079048
 30
0.0
 70
    32
  0
VERTEX
  5
99F4
  8
AM_0
 10
407.44735969169568
 20
140.13582510790491
 30
0.0
 70
    32
  0
VERTEX
  5
99F5
  8
AM_0
 10
407.44335969169572
 20
140.13382510790481
 30
0.0
 70
    32
  0
VERTEX
  5
99F6
  8
AM_0
 10
407.43935969169519
 20
140.13182510790509
 30
0.0
 70
    32
  0
VERTEX
  5
99F7
  8
AM_0
 10
407.43535969169562
 20
140.12982510790491
 30
0.0
 70
    32
  0
VERTEX
  5
99F8
  8
AM_0
 10
407.43135969169538
 20
140.1278251079049
 30
0.0
 70
    32
  0
VERTEX
  5
99F9
  8
AM_0
 10
407.42835969169562
 20
140.1258251079048
 30
0.0
 70
    32
  0
VERTEX
  5
99FA
  8
AM_0
 10
407.4243596916956
 20
140.12382510790491
 30
0.0
 70
    32
  0
VERTEX
  5
99FB
  8
AM_0
 10
407.42035969169569
 20
140.12182510790501
 30
0.0
 70
    32
  0
VERTEX
  5
99FC
  8
AM_0
 10
407.41635969169567
 20
140.1198251079048
 30
0.0
 70
    32
  0
VERTEX
  5
99FD
  8
AM_0
 10
407.4123596916956
 20
140.11782510790479
 30
0.0
 70
    32
  0
VERTEX
  5
99FE
  8
AM_0
 10
407.40935969169573
 20
140.11582510790481
 30
0.0
 70
    32
  0
VERTEX
  5
99FF
  8
AM_0
 10
407.40535969169559
 20
140.113825107905
 30
0.0
 70
    32
  0
VERTEX
  5
9A00
  8
AM_0
 10
407.40135969169592
 20
140.11182510790491
 30
0.0
 70
    32
  0
VERTEX
  5
9A01
  8
AM_0
 10
407.39735969169578
 20
140.1098251079049
 30
0.0
 70
    32
  0
VERTEX
  5
9A02
  8
AM_0
 10
407.39435969169591
 20
140.10782510790469
 30
0.0
 70
    32
  0
VERTEX
  5
9A03
  8
AM_0
 10
407.39035969169572
 20
140.10582510790491
 30
0.0
 70
    32
  0
VERTEX
  5
9A04
  8
AM_0
 10
407.38635969169559
 20
140.1038251079049
 30
0.0
 70
    32
  0
VERTEX
  5
9A05
  8
AM_0
 10
407.38235969169563
 20
140.10182510790489
 30
0.0
 70
    32
  0
VERTEX
  5
9A06
  8
AM_0
 10
407.37935969169558
 20
140.09982510790519
 30
0.0
 70
    32
  0
VERTEX
  5
9A07
  8
AM_0
 10
407.37535969169562
 20
140.0978251079047
 30
0.0
 70
    32
  0
VERTEX
  5
9A08
  8
AM_0
 10
407.3713596916956
 20
140.095825107905
 30
0.0
 70
    32
  0
VERTEX
  5
9A09
  8
AM_0
 10
407.36835969169539
 20
140.09382510790479
 30
0.0
 70
    32
  0
VERTEX
  5
9A0A
  8
AM_0
 10
407.3643596916956
 20
140.09082510790509
 30
0.0
 70
    32
  0
VERTEX
  5
9A0B
  8
AM_0
 10
407.36035969169569
 20
140.08882510790471
 30
0.0
 70
    32
  0
VERTEX
  5
9A0C
  8
AM_0
 10
407.3563596916955
 20
140.08682510790501
 30
0.0
 70
    32
  0
VERTEX
  5
9A0D
  8
AM_0
 10
407.35335969169557
 20
140.08482510790481
 30
0.0
 70
    32
  0
VERTEX
  5
9A0E
  8
AM_0
 10
407.34935969169572
 20
140.08282510790499
 30
0.0
 70
    32
  0
VERTEX
  5
9A0F
  8
AM_0
 10
407.34535969169588
 20
140.0808251079047
 30
0.0
 70
    32
  0
VERTEX
  5
9A10
  8
AM_0
 10
407.34235969169572
 20
140.07882510790481
 30
0.0
 70
    32
  0
VERTEX
  5
9A11
  8
AM_0
 10
407.3383596916957
 20
140.07682510790491
 30
0.0
 70
    32
  0
VERTEX
  5
9A12
  8
AM_0
 10
407.33435969169568
 20
140.07382510790501
 30
0.0
 70
    32
  0
VERTEX
  5
9A13
  8
AM_0
 10
407.3313596916957
 20
140.07182510790449
 30
0.0
 70
    32
  0
VERTEX
  5
9A14
  8
AM_0
 10
407.32735969169579
 20
140.06982510790479
 30
0.0
 70
    32
  0
VERTEX
  5
9A15
  8
AM_0
 10
407.32335969169537
 20
140.06782510790489
 30
0.0
 70
    32
  0
VERTEX
  5
9A16
  8
AM_0
 10
407.32035969169561
 20
140.0658251079048
 30
0.0
 70
    32
  0
VERTEX
  5
9A17
  8
AM_0
 10
407.31635969169588
 20
140.06282510790501
 30
0.0
 70
    32
  0
VERTEX
  5
9A18
  8
AM_0
 10
407.3123596916958
 20
140.0608251079048
 30
0.0
 70
    32
  0
VERTEX
  5
9A19
  8
AM_0
 10
407.30935969169559
 20
140.05882510790491
 30
0.0
 70
    32
  0
VERTEX
  5
9A1A
  8
AM_0
 10
407.30535969169517
 20
140.05682510790481
 30
0.0
 70
    32
  0
VERTEX
  5
9A1B
  8
AM_0
 10
407.30135969169572
 20
140.05482510790509
 30
0.0
 70
    32
  0
VERTEX
  5
9A1C
  8
AM_0
 10
407.29835969169602
 20
140.05182510790479
 30
0.0
 70
    32
  0
VERTEX
  5
9A1D
  8
AM_0
 10
407.29435969169572
 20
140.04982510790481
 30
0.0
 70
    32
  0
VERTEX
  5
9A1E
  8
AM_0
 10
407.29035969169558
 20
140.0478251079048
 30
0.0
 70
    32
  0
VERTEX
  5
9A1F
  8
AM_0
 10
407.28735969169583
 20
140.0458251079051
 30
0.0
 70
    32
  0
VERTEX
  5
9A20
  8
AM_0
 10
407.28335969169558
 20
140.0428251079048
 30
0.0
 70
    32
  0
VERTEX
  5
9A21
  8
AM_0
 10
407.28035969169582
 20
140.04082510790479
 30
0.0
 70
    32
  0
VERTEX
  5
9A22
  8
AM_0
 10
407.27635969169592
 20
140.03882510790481
 30
0.0
 70
    32
  0
VERTEX
  5
9A23
  8
AM_0
 10
407.27235969169573
 20
140.036825107905
 30
0.0
 70
    32
  0
VERTEX
  5
9A24
  8
AM_0
 10
407.26935969169551
 20
140.0338251079049
 30
0.0
 70
    32
  0
VERTEX
  5
9A25
  8
AM_0
 10
407.26535969169532
 20
140.03182510790481
 30
0.0
 70
    32
  0
VERTEX
  5
9A26
  8
AM_0
 10
407.26235969169568
 20
140.0298251079048
 30
0.0
 70
    32
  0
VERTEX
  5
9A27
  8
AM_0
 10
407.25835969169589
 20
140.0268251079049
 30
0.0
 70
    32
  0
VERTEX
  5
9A28
  8
AM_0
 10
407.2543596916957
 20
140.0248251079048
 30
0.0
 70
    32
  0
VERTEX
  5
9A29
  8
AM_0
 10
407.25135969169571
 20
140.02282510790479
 30
0.0
 70
    32
  0
VERTEX
  5
9A2A
  8
AM_0
 10
407.24735969169569
 20
140.01982510790481
 30
0.0
 70
    32
  0
VERTEX
  5
9A2B
  8
AM_0
 10
407.24435969169571
 20
140.01782510790491
 30
0.0
 70
    32
  0
VERTEX
  5
9A2C
  8
AM_0
 10
407.2403596916958
 20
140.0158251079049
 30
0.0
 70
    32
  0
VERTEX
  5
9A2D
  8
AM_0
 10
407.23735969169519
 20
140.01282510790469
 30
0.0
 70
    32
  0
VERTEX
  5
9A2E
  8
AM_0
 10
407.23335969169568
 20
140.01082510790491
 30
0.0
 70
    32
  0
VERTEX
  5
9A2F
  8
AM_0
 10
407.2303596916953
 20
140.00782510790481
 30
0.0
 70
    32
  0
VERTEX
  5
9A30
  8
AM_0
 10
407.22635969169568
 20
140.005825107905
 30
0.0
 70
    32
  0
VERTEX
  5
9A31
  8
AM_0
 10
407.2223596916956
 20
140.00382510790499
 30
0.0
 70
    32
  0
VERTEX
  5
9A32
  8
AM_0
 10
407.21935969169567
 20
140.000825107905
 30
0.0
 70
    32
  0
VERTEX
  5
9A33
  8
AM_0
 10
407.21535969169543
 20
139.99882510790479
 30
0.0
 70
    32
  0
VERTEX
  5
9A34
  8
AM_0
 10
407.21235969169572
 20
139.99582510790509
 30
0.0
 70
    32
  0
VERTEX
  5
9A35
  8
AM_0
 10
407.20835969169542
 20
139.99382510790471
 30
0.0
 70
    32
  0
VERTEX
  5
9A36
  8
AM_0
 10
407.20535969169578
 20
139.9908251079049
 30
0.0
 70
    32
  0
VERTEX
  5
9A37
  8
AM_0
 10
407.20135969169559
 20
139.9888251079048
 30
0.0
 70
    32
  0
VERTEX
  5
9A38
  8
AM_0
 10
407.1983596916956
 20
139.9868251079051
 30
0.0
 70
    32
  0
VERTEX
  5
9A39
  8
AM_0
 10
407.19435969169558
 20
139.98382510790481
 30
0.0
 70
    32
  0
VERTEX
  5
9A3A
  8
AM_0
 10
407.19135969169588
 20
139.98182510790491
 30
0.0
 70
    32
  0
VERTEX
  5
9A3B
  8
AM_0
 10
407.18735969169558
 20
139.9788251079049
 30
0.0
 70
    32
  0
VERTEX
  5
9A3C
  8
AM_0
 10
407.1843596916957
 20
139.976825107905
 30
0.0
 70
    32
  0
VERTEX
  5
9A3D
  8
AM_0
 10
407.1813596916956
 20
139.9738251079049
 30
0.0
 70
    32
  0
VERTEX
  5
9A3E
  8
AM_0
 10
407.1773596916957
 20
139.97182510790481
 30
0.0
 70
    32
  0
VERTEX
  5
9A3F
  8
AM_0
 10
407.1743596916956
 20
139.9688251079051
 30
0.0
 70
    32
  0
VERTEX
  5
9A40
  8
AM_0
 10
407.17035969169569
 20
139.9668251079049
 30
0.0
 70
    32
  0
VERTEX
  5
9A41
  8
AM_0
 10
407.16735969169571
 20
139.9638251079048
 30
0.0
 70
    32
  0
VERTEX
  5
9A42
  8
AM_0
 10
407.16335969169569
 20
139.96182510790479
 30
0.0
 70
    32
  0
VERTEX
  5
9A43
  8
AM_0
 10
407.16035969169559
 20
139.958825107905
 30
0.0
 70
    32
  0
VERTEX
  5
9A44
  8
AM_0
 10
407.15735969169572
 20
139.9558251079049
 30
0.0
 70
    32
  0
VERTEX
  5
9A45
  8
AM_0
 10
407.15335969169593
 20
139.95382510790469
 30
0.0
 70
    32
  0
VERTEX
  5
9A46
  8
AM_0
 10
407.15035969169571
 20
139.95082510790499
 30
0.0
 70
    32
  0
VERTEX
  5
9A47
  8
AM_0
 10
407.14635969169581
 20
139.94882510790481
 30
0.0
 70
    32
  0
VERTEX
  5
9A48
  8
AM_0
 10
407.1433596916952
 20
139.9458251079048
 30
0.0
 70
    32
  0
VERTEX
  5
9A49
  8
AM_0
 10
407.14035969169538
 20
139.94282510790489
 30
0.0
 70
    32
  0
VERTEX
  5
9A4A
  8
AM_0
 10
407.1363596916957
 20
139.94082510790491
 30
0.0
 70
    32
  0
VERTEX
  5
9A4B
  8
AM_0
 10
407.1333596916956
 20
139.93782510790501
 30
0.0
 70
    32
  0
VERTEX
  5
9A4C
  8
AM_0
 10
407.12935969169581
 20
139.93582510790469
 30
0.0
 70
    32
  0
VERTEX
  5
9A4D
  8
AM_0
 10
407.1263596916956
 20
139.93282510790499
 30
0.0
 70
    32
  0
VERTEX
  5
9A4E
  8
AM_0
 10
407.12335969169573
 20
139.9298251079048
 30
0.0
 70
    32
  0
VERTEX
  5
9A4F
  8
AM_0
 10
407.11935969169559
 20
139.92782510790511
 30
0.0
 70
    32
  0
VERTEX
  5
9A50
  8
AM_0
 10
407.11635969169572
 20
139.92482510790481
 30
0.0
 70
    32
  0
VERTEX
  5
9A51
  8
AM_0
 10
407.11335969169579
 20
139.92182510790479
 30
0.0
 70
    32
  0
VERTEX
  5
9A52
  8
AM_0
 10
407.10935969169572
 20
139.91982510790501
 30
0.0
 70
    32
  0
VERTEX
  5
9A53
  8
AM_0
 10
407.10635969169579
 20
139.91682510790471
 30
0.0
 70
    32
  0
VERTEX
  5
9A54
  8
AM_0
 10
407.10335969169557
 20
139.9138251079049
 30
0.0
 70
    32
  0
VERTEX
  5
9A55
  8
AM_0
 10
407.10035969169559
 20
139.910825107905
 30
0.0
 70
    32
  0
VERTEX
  5
9A56
  8
AM_0
 10
407.09635969169562
 20
139.90882510790499
 30
0.0
 70
    32
  0
VERTEX
  5
9A57
  8
AM_0
 10
407.09335969169553
 20
139.905825107905
 30
0.0
 70
    32
  0
VERTEX
  5
9A58
  8
AM_0
 10
407.09035969169571
 20
139.90282510790479
 30
0.0
 70
    32
  0
VERTEX
  5
9A59
  8
AM_0
 10
407.08635969169592
 20
139.8998251079048
 30
0.0
 70
    32
  0
VERTEX
  5
9A5A
  8
AM_0
 10
407.08335969169559
 20
139.89782510790479
 30
0.0
 70
    32
  0
VERTEX
  5
9A5B
  8
AM_0
 10
407.08035969169572
 20
139.89482510790481
 30
0.0
 70
    32
  0
VERTEX
  5
9A5C
  8
AM_0
 10
407.07735969169568
 20
139.89182510790499
 30
0.0
 70
    32
  0
VERTEX
  5
9A5D
  8
AM_0
 10
407.0733596916956
 20
139.88882510790481
 30
0.0
 70
    32
  0
VERTEX
  5
9A5E
  8
AM_0
 10
407.07035969169539
 20
139.8868251079048
 30
0.0
 70
    32
  0
VERTEX
  5
9A5F
  8
AM_0
 10
407.06735969169557
 20
139.8838251079049
 30
0.0
 70
    32
  0
VERTEX
  5
9A60
  8
AM_0
 10
407.06435969169559
 20
139.88082510790491
 30
0.0
 70
    32
  0
VERTEX
  5
9A61
  8
AM_0
 10
407.06135969169537
 20
139.87782510790481
 30
0.0
 70
    32
  0
VERTEX
  5
9A62
  8
AM_0
 10
407.05735969169581
 20
139.87482510790491
 30
0.0
 70
    32
  0
VERTEX
  5
9A63
  8
AM_0
 10
407.05435969169571
 20
139.8718251079049
 30
0.0
 70
    32
  0
VERTEX
  5
9A64
  8
AM_0
 10
407.05135969169572
 20
139.869825107905
 30
0.0
 70
    32
  0
VERTEX
  5
9A65
  8
AM_0
 10
407.04835969169568
 20
139.8668251079047
 30
0.0
 70
    32
  0
VERTEX
  5
9A66
  8
AM_0
 10
407.0453596916953
 20
139.86382510790489
 30
0.0
 70
    32
  0
VERTEX
  5
9A67
  8
AM_0
 10
407.04235969169571
 20
139.86082510790499
 30
0.0
 70
    32
  0
VERTEX
  5
9A68
  8
AM_0
 10
407.03935969169561
 20
139.85782510790469
 30
0.0
 70
    32
  0
VERTEX
  5
9A69
  8
AM_0
 10
407.03535969169519
 20
139.8548251079049
 30
0.0
 70
    32
  0
VERTEX
  5
9A6A
  8
AM_0
 10
407.0323596916956
 20
139.851825107905
 30
0.0
 70
    32
  0
VERTEX
  5
9A6B
  8
AM_0
 10
407.02935969169579
 20
139.8488251079047
 30
0.0
 70
    32
  0
VERTEX
  5
9A6C
  8
AM_0
 10
407.02635969169592
 20
139.84582510790489
 30
0.0
 70
    32
  0
VERTEX
  5
9A6D
  8
AM_0
 10
407.02335969169559
 20
139.84282510790501
 30
0.0
 70
    32
  0
VERTEX
  5
9A6E
  8
AM_0
 10
407.0203596916956
 20
139.83982510790469
 30
0.0
 70
    32
  0
VERTEX
  5
9A6F
  8
AM_0
 10
407.01735969169579
 20
139.8368251079049
 30
0.0
 70
    32
  0
VERTEX
  5
9A70
  8
AM_0
 10
407.0143596916958
 20
139.833825107905
 30
0.0
 70
    32
  0
VERTEX
  5
9A71
  8
AM_0
 10
407.01135969169559
 20
139.8308251079047
 30
0.0
 70
    32
  0
VERTEX
  5
9A72
  8
AM_0
 10
407.00835969169572
 20
139.82782510790491
 30
0.0
 70
    32
  0
VERTEX
  5
9A73
  8
AM_0
 10
407.00535969169562
 20
139.8248251079049
 30
0.0
 70
    32
  0
VERTEX
  5
9A74
  8
AM_0
 10
407.00235969169557
 20
139.82182510790469
 30
0.0
 70
    32
  0
VERTEX
  5
9A75
  8
AM_0
 10
406.99935969169587
 20
139.8188251079049
 30
0.0
 70
    32
  0
VERTEX
  5
9A76
  8
AM_0
 10
406.99635969169572
 20
139.81582510790491
 30
0.0
 70
    32
  0
VERTEX
  5
9A77
  8
AM_0
 10
406.99335969169562
 20
139.81282510790481
 30
0.0
 70
    32
  0
VERTEX
  5
9A78
  8
AM_0
 10
406.99035969169591
 20
139.8098251079048
 30
0.0
 70
    32
  0
VERTEX
  5
9A79
  8
AM_0
 10
406.98735969169559
 20
139.8068251079049
 30
0.0
 70
    32
  0
VERTEX
  5
9A7A
  8
AM_0
 10
406.98435969169577
 20
139.80382510790491
 30
0.0
 70
    32
  0
VERTEX
  5
9A7B
  8
AM_0
 10
406.98135969169562
 20
139.80082510790481
 30
0.0
 70
    32
  0
VERTEX
  5
9A7C
  8
AM_0
 10
406.97835969169557
 20
139.79782510790491
 30
0.0
 70
    32
  0
VERTEX
  5
9A7D
  8
AM_0
 10
406.9753596916957
 20
139.79482510790481
 30
0.0
 70
    32
  0
VERTEX
  5
9A7E
  8
AM_0
 10
406.97235969169571
 20
139.7918251079048
 30
0.0
 70
    32
  0
VERTEX
  5
9A7F
  8
AM_0
 10
406.96935969169539
 20
139.7888251079049
 30
0.0
 70
    32
  0
VERTEX
  5
9A80
  8
AM_0
 10
406.96635969169557
 20
139.78482510790491
 30
0.0
 70
    32
  0
VERTEX
  5
9A81
  8
AM_0
 10
406.9633596916957
 20
139.78182510790469
 30
0.0
 70
    32
  0
VERTEX
  5
9A82
  8
AM_0
 10
406.96035969169532
 20
139.77882510790499
 30
0.0
 70
    32
  0
VERTEX
  5
9A83
  8
AM_0
 10
406.9583596916957
 20
139.77582510790481
 30
0.0
 70
    32
  0
VERTEX
  5
9A84
  8
AM_0
 10
406.95535969169572
 20
139.77282510790471
 30
0.0
 70
    32
  0
VERTEX
  5
9A85
  8
AM_0
 10
406.95235969169562
 20
139.76982510790501
 30
0.0
 70
    32
  0
VERTEX
  5
9A86
  8
AM_0
 10
406.94935969169569
 20
139.76582510790499
 30
0.0
 70
    32
  0
VERTEX
  5
9A87
  8
AM_0
 10
406.9463596916957
 20
139.76282510790469
 30
0.0
 70
    32
  0
VERTEX
  5
9A88
  8
AM_0
 10
406.9433596916956
 20
139.7598251079049
 30
0.0
 70
    32
  0
VERTEX
  5
9A89
  8
AM_0
 10
406.94135969169588
 20
139.756825107905
 30
0.0
 70
    32
  0
VERTEX
  5
9A8A
  8
AM_0
 10
406.93835969169561
 20
139.75282510790481
 30
0.0
 70
    32
  0
VERTEX
  5
9A8B
  8
AM_0
 10
406.93535969169568
 20
139.7498251079048
 30
0.0
 70
    32
  0
VERTEX
  5
9A8C
  8
AM_0
 10
406.93235969169592
 20
139.7468251079051
 30
0.0
 70
    32
  0
VERTEX
  5
9A8D
  8
AM_0
 10
406.93035969169563
 20
139.7438251079048
 30
0.0
 70
    32
  0
VERTEX
  5
9A8E
  8
AM_0
 10
406.92735969169559
 20
139.73982510790481
 30
0.0
 70
    32
  0
VERTEX
  5
9A8F
  8
AM_0
 10
406.9243596916956
 20
139.73682510790499
 30
0.0
 70
    32
  0
VERTEX
  5
9A90
  8
AM_0
 10
406.92235969169559
 20
139.73382510790481
 30
0.0
 70
    32
  0
VERTEX
  5
9A91
  8
AM_0
 10
406.91935969169572
 20
139.7298251079049
 30
0.0
 70
    32
  0
VERTEX
  5
9A92
  8
AM_0
 10
406.91635969169579
 20
139.72682510790489
 30
0.0
 70
    32
  0
VERTEX
  5
9A93
  8
AM_0
 10
406.91435969169578
 20
139.72382510790479
 30
0.0
 70
    32
  0
VERTEX
  5
9A94
  8
AM_0
 10
406.91135969169562
 20
139.719825107905
 30
0.0
 70
    32
  0
VERTEX
  5
9A95
  8
AM_0
 10
406.90835969169558
 20
139.7168251079049
 30
0.0
 70
    32
  0
VERTEX
  5
9A96
  8
AM_0
 10
406.90635969169563
 20
139.71382510790471
 30
0.0
 70
    32
  0
VERTEX
  5
9A97
  8
AM_0
 10
406.90335969169558
 20
139.70982510790481
 30
0.0
 70
    32
  0
VERTEX
  5
9A98
  8
AM_0
 10
406.90135969169592
 20
139.70682510790499
 30
0.0
 70
    32
  0
VERTEX
  5
9A99
  8
AM_0
 10
406.89835969169559
 20
139.70282510790491
 30
0.0
 70
    32
  0
VERTEX
  5
9A9A
  8
AM_0
 10
406.89535969169521
 20
139.69982510790479
 30
0.0
 70
    32
  0
VERTEX
  5
9A9B
  8
AM_0
 10
406.89335969169559
 20
139.69682510790511
 30
0.0
 70
    32
  0
VERTEX
  5
9A9C
  8
AM_0
 10
406.89035969169572
 20
139.69282510790501
 30
0.0
 70
    32
  0
VERTEX
  5
9A9D
  8
AM_0
 10
406.88835969169571
 20
139.6898251079048
 30
0.0
 70
    32
  0
VERTEX
  5
9A9E
  8
AM_0
 10
406.88535969169573
 20
139.68582510790469
 30
0.0
 70
    32
  0
VERTEX
  5
9A9F
  8
AM_0
 10
406.88335969169589
 20
139.6828251079049
 30
0.0
 70
    32
  0
VERTEX
  5
9AA0
  8
AM_0
 10
406.88035969169567
 20
139.67882510790511
 30
0.0
 70
    32
  0
VERTEX
  5
9AA1
  8
AM_0
 10
406.87835969169572
 20
139.67582510790481
 30
0.0
 70
    32
  0
VERTEX
  5
9AA2
  8
AM_0
 10
406.8763596916956
 20
139.67182510790479
 30
0.0
 70
    32
  0
VERTEX
  5
9AA3
  8
AM_0
 10
406.87335969169538
 20
139.66882510790501
 30
0.0
 70
    32
  0
VERTEX
  5
9AA4
  8
AM_0
 10
406.87135969169537
 20
139.66482510790479
 30
0.0
 70
    32
  0
VERTEX
  5
9AA5
  8
AM_0
 10
406.86835969169567
 20
139.6618251079048
 30
0.0
 70
    32
  0
VERTEX
  5
9AA6
  8
AM_0
 10
406.86635969169572
 20
139.6578251079049
 30
0.0
 70
    32
  0
VERTEX
  5
9AA7
  8
AM_0
 10
406.86435969169571
 20
139.65382510790479
 30
0.0
 70
    32
  0
VERTEX
  5
9AA8
  8
AM_0
 10
406.86135969169572
 20
139.65082510790501
 30
0.0
 70
    32
  0
VERTEX
  5
9AA9
  8
AM_0
 10
406.85935969169532
 20
139.64682510790479
 30
0.0
 70
    32
  0
VERTEX
  5
9AAA
  8
AM_0
 10
406.85735969169571
 20
139.6438251079048
 30
0.0
 70
    32
  0
VERTEX
  5
9AAB
  8
AM_0
 10
406.85435969169572
 20
139.6398251079049
 30
0.0
 70
    32
  0
VERTEX
  5
9AAC
  8
AM_0
 10
406.8523596916952
 20
139.63582510790471
 30
0.0
 70
    32
  0
VERTEX
  5
9AAD
  8
AM_0
 10
406.8503596916957
 20
139.63282510790481
 30
0.0
 70
    32
  0
VERTEX
  5
9AAE
  8
AM_0
 10
406.8483596916958
 20
139.6288251079051
 30
0.0
 70
    32
  0
VERTEX
  5
9AAF
  8
AM_0
 10
406.84535969169588
 20
139.624825107905
 30
0.0
 70
    32
  0
VERTEX
  5
9AB0
  8
AM_0
 10
406.84335969169592
 20
139.6218251079049
 30
0.0
 70
    32
  0
VERTEX
  5
9AB1
  8
AM_0
 10
406.8413596916958
 20
139.61782510790471
 30
0.0
 70
    32
  0
VERTEX
  5
9AB2
  8
AM_0
 10
406.83935969169579
 20
139.6138251079048
 30
0.0
 70
    32
  0
VERTEX
  5
9AB3
  8
AM_0
 10
406.83735969169561
 20
139.6108251079051
 30
0.0
 70
    32
  0
VERTEX
  5
9AB4
  8
AM_0
 10
406.83535969169537
 20
139.606825107905
 30
0.0
 70
    32
  0
VERTEX
  5
9AB5
  8
AM_0
 10
406.83335969169559
 20
139.60282510790501
 30
0.0
 70
    32
  0
VERTEX
  5
9AB6
  8
AM_0
 10
406.83035969169561
 20
139.59982510790491
 30
0.0
 70
    32
  0
VERTEX
  5
9AB7
  8
AM_0
 10
406.8283596916956
 20
139.5958251079048
 30
0.0
 70
    32
  0
VERTEX
  5
9AB8
  8
AM_0
 10
406.82635969169559
 20
139.59182510790501
 30
0.0
 70
    32
  0
VERTEX
  5
9AB9
  8
AM_0
 10
406.82435969169529
 20
139.58782510790491
 30
0.0
 70
    32
  0
VERTEX
  5
9ABA
  8
AM_0
 10
406.82235969169562
 20
139.58482510790481
 30
0.0
 70
    32
  0
VERTEX
  5
9ABB
  8
AM_0
 10
406.82035969169561
 20
139.58082510790479
 30
0.0
 70
    32
  0
VERTEX
  5
9ABC
  8
AM_0
 10
406.81835969169572
 20
139.5768251079048
 30
0.0
 70
    32
  0
VERTEX
  5
9ABD
  8
AM_0
 10
406.81635969169588
 20
139.57282510790481
 30
0.0
 70
    32
  0
VERTEX
  5
9ABE
  8
AM_0
 10
406.81435969169542
 20
139.5688251079047
 30
0.0
 70
    32
  0
VERTEX
  5
9ABF
  8
AM_0
 10
406.81335969169572
 20
139.565825107905
 30
0.0
 70
    32
  0
VERTEX
  5
9AC0
  8
AM_0
 10
406.81135969169571
 20
139.56182510790501
 30
0.0
 70
    32
  0
VERTEX
  5
9AC1
  8
AM_0
 10
406.80935969169559
 20
139.5578251079049
 30
0.0
 70
    32
  0
VERTEX
  5
9AC2
  8
AM_0
 10
406.80735969169592
 20
139.55382510790491
 30
0.0
 70
    32
  0
VERTEX
  5
9AC3
  8
AM_0
 10
406.80535969169563
 20
139.5498251079047
 30
0.0
 70
    32
  0
VERTEX
  5
9AC4
  8
AM_0
 10
406.80335969169568
 20
139.54582510790479
 30
0.0
 70
    32
  0
VERTEX
  5
9AC5
  8
AM_0
 10
406.80235969169559
 20
139.54182510790471
 30
0.0
 70
    32
  0
VERTEX
  5
9AC6
  8
AM_0
 10
406.80035969169558
 20
139.53882510790501
 30
0.0
 70
    32
  0
VERTEX
  5
9AC7
  8
AM_0
 10
406.79835969169579
 20
139.53482510790499
 30
0.0
 70
    32
  0
VERTEX
  5
9AC8
  8
AM_0
 10
406.79635969169578
 20
139.5308251079048
 30
0.0
 70
    32
  0
VERTEX
  5
9AC9
  8
AM_0
 10
406.79535969169558
 20
139.52682510790481
 30
0.0
 70
    32
  0
VERTEX
  5
9ACA
  8
AM_0
 10
406.79335969169563
 20
139.52282510790471
 30
0.0
 70
    32
  0
VERTEX
  5
9ACB
  8
AM_0
 10
406.79135969169567
 20
139.5188251079048
 30
0.0
 70
    32
  0
VERTEX
  5
9ACC
  8
AM_0
 10
406.79035969169558
 20
139.51482510790501
 30
0.0
 70
    32
  0
VERTEX
  5
9ACD
  8
AM_0
 10
406.78835969169592
 20
139.51082510790491
 30
0.0
 70
    32
  0
VERTEX
  5
9ACE
  8
AM_0
 10
406.7863596916954
 20
139.50682510790509
 30
0.0
 70
    32
  0
VERTEX
  5
9ACF
  8
AM_0
 10
406.7853596916957
 20
139.5028251079049
 30
0.0
 70
    32
  0
VERTEX
  5
9AD0
  8
AM_0
 10
406.78335969169569
 20
139.49882510790491
 30
0.0
 70
    32
  0
VERTEX
  5
9AD1
  8
AM_0
 10
406.78235969169572
 20
139.4948251079048
 30
0.0
 70
    32
  0
VERTEX
  5
9AD2
  8
AM_0
 10
406.78035969169582
 20
139.49082510790481
 30
0.0
 70
    32
  0
VERTEX
  5
9AD3
  8
AM_0
 10
406.77935969169567
 20
139.48682510790491
 30
0.0
 70
    32
  0
VERTEX
  5
9AD4
  8
AM_0
 10
406.77735969169532
 20
139.48282510790469
 30
0.0
 70
    32
  0
VERTEX
  5
9AD5
  8
AM_0
 10
406.77635969169592
 20
139.4788251079049
 30
0.0
 70
    32
  0
VERTEX
  5
9AD6
  8
AM_0
 10
406.77535969169571
 20
139.4748251079051
 30
0.0
 70
    32
  0
VERTEX
  5
9AD7
  8
AM_0
 10
406.77335969169542
 20
139.470825107905
 30
0.0
 70
    32
  0
VERTEX
  5
9AD8
  8
AM_0
 10
406.77235969169573
 20
139.46682510790501
 30
0.0
 70
    32
  0
VERTEX
  5
9AD9
  8
AM_0
 10
406.77135969169569
 20
139.46282510790491
 30
0.0
 70
    32
  0
VERTEX
  5
9ADA
  8
AM_0
 10
406.76935969169563
 20
139.4588251079048
 30
0.0
 70
    32
  0
VERTEX
  5
9ADB
  8
AM_0
 10
406.76835969169571
 20
139.4548251079047
 30
0.0
 70
    32
  0
VERTEX
  5
9ADC
  8
AM_0
 10
406.76735969169567
 20
139.45082510790479
 30
0.0
 70
    32
  0
VERTEX
  5
9ADD
  8
AM_0
 10
406.7663596916957
 20
139.44582510790471
 30
0.0
 70
    32
  0
VERTEX
  5
9ADE
  8
AM_0
 10
406.76535969169572
 20
139.4418251079048
 30
0.0
 70
    32
  0
VERTEX
  5
9ADF
  8
AM_0
 10
406.76335969169571
 20
139.43782510790501
 30
0.0
 70
    32
  0
VERTEX
  5
9AE0
  8
AM_0
 10
406.76235969169562
 20
139.43382510790491
 30
0.0
 70
    32
  0
VERTEX
  5
9AE1
  8
AM_0
 10
406.76135969169542
 20
139.42982510790509
 30
0.0
 70
    32
  0
VERTEX
  5
9AE2
  8
AM_0
 10
406.76035969169573
 20
139.4258251079049
 30
0.0
 70
    32
  0
VERTEX
  5
9AE3
  8
AM_0
 10
406.75935969169541
 20
139.42182510790491
 30
0.0
 70
    32
  0
VERTEX
  5
9AE4
  8
AM_0
 10
406.75835969169589
 20
139.4178251079048
 30
0.0
 70
    32
  0
VERTEX
  5
9AE5
  8
AM_0
 10
406.75735969169568
 20
139.41282510790481
 30
0.0
 70
    32
  0
VERTEX
  5
9AE6
  8
AM_0
 10
406.75635969169571
 20
139.4088251079049
 30
0.0
 70
    32
  0
VERTEX
  5
9AE7
  8
AM_0
 10
406.75535969169562
 20
139.40482510790471
 30
0.0
 70
    32
  0
VERTEX
  5
9AE8
  8
AM_0
 10
406.75435969169558
 20
139.40082510790481
 30
0.0
 70
    32
  0
VERTEX
  5
9AE9
  8
AM_0
 10
406.75335969169572
 20
139.3968251079047
 30
0.0
 70
    32
  0
VERTEX
  5
9AEA
  8
AM_0
 10
406.75235969169569
 20
139.39282510790491
 30
0.0
 70
    32
  0
VERTEX
  5
9AEB
  8
AM_0
 10
406.75235969169569
 20
139.38782510790469
 30
0.0
 70
    32
  0
VERTEX
  5
9AEC
  8
AM_0
 10
406.75135969169543
 20
139.3838251079049
 30
0.0
 70
    32
  0
VERTEX
  5
9AED
  8
AM_0
 10
406.75035969169562
 20
139.37982510790511
 30
0.0
 70
    32
  0
VERTEX
  5
9AEE
  8
AM_0
 10
406.74935969169587
 20
139.375825107905
 30
0.0
 70
    32
  0
VERTEX
  5
9AEF
  8
AM_0
 10
406.74835969169561
 20
139.37182510790501
 30
0.0
 70
    32
  0
VERTEX
  5
9AF0
  8
AM_0
 10
406.74835969169561
 20
139.36682510790499
 30
0.0
 70
    32
  0
VERTEX
  5
9AF1
  8
AM_0
 10
406.74735969169529
 20
139.362825107905
 30
0.0
 70
    32
  0
VERTEX
  5
9AF2
  8
AM_0
 10
406.74635969169537
 20
139.35882510790481
 30
0.0
 70
    32
  0
VERTEX
  5
9AF3
  8
AM_0
 10
406.74635969169537
 20
139.35482510790479
 30
0.0
 70
    32
  0
VERTEX
  5
9AF4
  8
AM_0
 10
406.74535969169568
 20
139.34982510790491
 30
0.0
 70
    32
  0
VERTEX
  5
9AF5
  8
AM_0
 10
406.74435969169571
 20
139.3458251079048
 30
0.0
 70
    32
  0
VERTEX
  5
9AF6
  8
AM_0
 10
406.74435969169571
 20
139.3418251079049
 30
0.0
 70
    32
  0
VERTEX
  5
9AF7
  8
AM_0
 10
406.74335969169567
 20
139.33782510790479
 30
0.0
 70
    32
  0
VERTEX
  5
9AF8
  8
AM_0
 10
406.74335969169567
 20
139.33282510790491
 30
0.0
 70
    32
  0
VERTEX
  5
9AF9
  8
AM_0
 10
406.7423596916957
 20
139.32882510790469
 30
0.0
 70
    32
  0
VERTEX
  5
9AFA
  8
AM_0
 10
406.7423596916957
 20
139.3248251079049
 30
0.0
 70
    32
  0
VERTEX
  5
9AFB
  8
AM_0
 10
406.74135969169561
 20
139.3208251079048
 30
0.0
 70
    32
  0
VERTEX
  5
9AFC
  8
AM_0
 10
406.74135969169561
 20
139.31582510790491
 30
0.0
 70
    32
  0
VERTEX
  5
9AFD
  8
AM_0
 10
406.74135969169561
 20
139.31182510790509
 30
0.0
 70
    32
  0
VERTEX
  5
9AFE
  8
AM_0
 10
406.74035969169591
 20
139.30782510790499
 30
0.0
 70
    32
  0
VERTEX
  5
9AFF
  8
AM_0
 10
406.74035969169591
 20
139.303825107905
 30
0.0
 70
    32
  0
VERTEX
  5
9B00
  8
AM_0
 10
406.74035969169591
 20
139.298825107905
 30
0.0
 70
    32
  0
VERTEX
  5
9B01
  8
AM_0
 10
406.74035969169591
 20
139.29482510790501
 30
0.0
 70
    32
  0
VERTEX
  5
9B02
  8
AM_0
 10
406.7393596916956
 20
139.29082510790479
 30
0.0
 70
    32
  0
VERTEX
  5
9B03
  8
AM_0
 10
406.7393596916956
 20
139.2868251079048
 30
0.0
 70
    32
  0
VERTEX
  5
9B04
  8
AM_0
 10
406.7393596916956
 20
139.28182510790481
 30
0.0
 70
    32
  0
VERTEX
  5
9B05
  8
AM_0
 10
406.7393596916956
 20
139.27782510790479
 30
0.0
 70
    32
  0
VERTEX
  5
9B06
  8
AM_0
 10
406.7393596916956
 20
139.27382510790491
 30
0.0
 70
    32
  0
VERTEX
  5
9B07
  8
AM_0
 10
406.7393596916956
 20
139.2688251079048
 30
0.0
 70
    32
  0
VERTEX
  5
9B08
  8
AM_0
 10
406.7393596916956
 20
139.2648251079049
 30
0.0
 70
    32
  0
VERTEX
  5
9B09
  8
AM_0
 10
406.7393596916956
 20
139.26082510790479
 30
0.0
 70
    32
  0
VERTEX
  5
9B0A
  8
AM_0
 10
406.7393596916956
 20
139.2568251079048
 30
0.0
 70
    32
  0
VERTEX
  5
9B0B
  8
AM_0
 10
406.7393596916956
 20
139.25182510790469
 30
0.0
 70
    32
  0
VERTEX
  5
9B0C
  8
AM_0
 10
406.74035969169591
 20
139.2478251079049
 30
0.0
 70
    32
  0
VERTEX
  5
9B0D
  8
AM_0
 10
406.74035969169591
 20
139.2438251079048
 30
0.0
 70
    32
  0
VERTEX
  5
9B0E
  8
AM_0
 10
406.74035969169591
 20
139.23982510790501
 30
0.0
 70
    32
  0
VERTEX
  5
9B0F
  8
AM_0
 10
406.74035969169591
 20
139.2348251079051
 30
0.0
 70
    32
  0
VERTEX
  5
9B10
  8
AM_0
 10
406.74135969169561
 20
139.23082510790499
 30
0.0
 70
    32
  0
VERTEX
  5
9B11
  8
AM_0
 10
406.74135969169561
 20
139.226825107905
 30
0.0
 70
    32
  0
VERTEX
  5
9B12
  8
AM_0
 10
406.74135969169561
 20
139.22282510790481
 30
0.0
 70
    32
  0
VERTEX
  5
9B13
  8
AM_0
 10
406.7423596916957
 20
139.21782510790501
 30
0.0
 70
    32
  0
VERTEX
  5
9B14
  8
AM_0
 10
406.7423596916957
 20
139.2138251079048
 30
0.0
 70
    32
  0
VERTEX
  5
9B15
  8
AM_0
 10
406.7423596916957
 20
139.20982510790481
 30
0.0
 70
    32
  0
VERTEX
  5
9B16
  8
AM_0
 10
406.74335969169567
 20
139.2058251079047
 30
0.0
 70
    32
  0
VERTEX
  5
9B17
  8
AM_0
 10
406.74335969169567
 20
139.20082510790479
 30
0.0
 70
    32
  0
VERTEX
  5
9B18
  8
AM_0
 10
406.74435969169571
 20
139.19682510790491
 30
0.0
 70
    32
  0
VERTEX
  5
9B19
  8
AM_0
 10
406.74435969169571
 20
139.19282510790481
 30
0.0
 70
    32
  0
VERTEX
  5
9B1A
  8
AM_0
 10
406.74535969169568
 20
139.18882510790499
 30
0.0
 70
    32
  0
VERTEX
  5
9B1B
  8
AM_0
 10
406.74535969169568
 20
139.18382510790471
 30
0.0
 70
    32
  0
VERTEX
  5
9B1C
  8
AM_0
 10
406.74635969169537
 20
139.1798251079048
 30
0.0
 70
    32
  0
VERTEX
  5
9B1D
  8
AM_0
 10
406.74635969169537
 20
139.17582510790481
 30
0.0
 70
    32
  0
VERTEX
  5
9B1E
  8
AM_0
 10
406.74735969169529
 20
139.17182510790499
 30
0.0
 70
    32
  0
VERTEX
  5
9B1F
  8
AM_0
 10
406.74735969169529
 20
139.1668251079048
 30
0.0
 70
    32
  0
VERTEX
  5
9B20
  8
AM_0
 10
406.74835969169561
 20
139.16282510790501
 30
0.0
 70
    32
  0
VERTEX
  5
9B21
  8
AM_0
 10
406.74835969169561
 20
139.15882510790499
 30
0.0
 70
    32
  0
VERTEX
  5
9B22
  8
AM_0
 10
406.74935969169587
 20
139.15482510790491
 30
0.0
 70
    32
  0
SEQEND
  5
9B23
  8
AM_0
  0
LINE
  5
9B24
  8
AM_0
 10
419.73940675676971
 20
140.51456182387901
 30
0.0
 11
409.23940675676562
 21
140.51456182387901
 31
0.0
  0
LINE
  5
9B25
  8
AM_0
 10
419.73940675676971
 20
91.804410304861904
 30
0.0
 11
418.27440675676991
 21
82.984410304862436
 31
0.0
  0
POLYLINE
  5
9B26
  8
AM_0
 66
     1
 10
0.0
 20
0.0
 30
0.0
 70
     8
  0
VERTEX
  5
9B27
  8
AM_0
 10
406.74935969169587
 20
94.394225107904845
 30
0.0
 70
    32
  0
VERTEX
  5
9B28
  8
AM_0
 10
406.75035969169562
 20
94.390025107904876
 30
0.0
 70
    32
  0
VERTEX
  5
9B29
  8
AM_0
 10
406.75135969169543
 20
94.385725107905046
 30
0.0
 70
    32
  0
VERTEX
  5
9B2A
  8
AM_0
 10
406.75235969169569
 20
94.381525107905077
 30
0.0
 70
    32
  0
VERTEX
  5
9B2B
  8
AM_0
 10
406.75335969169572
 20
94.377225107905005
 30
0.0
 70
    32
  0
VERTEX
  5
9B2C
  8
AM_0
 10
406.75435969169558
 20
94.373025107904937
 30
0.0
 70
    32
  0
VERTEX
  5
9B2D
  8
AM_0
 10
406.75535969169562
 20
94.368725107904908
 30
0.0
 70
    32
  0
VERTEX
  5
9B2E
  8
AM_0
 10
406.75635969169571
 20
94.364525107905123
 30
0.0
 70
    32
  0
VERTEX
  5
9B2F
  8
AM_0
 10
406.75735969169568
 20
94.360325107904757
 30
0.0
 70
    32
  0
VERTEX
  5
9B30
  8
AM_0
 10
406.75835969169589
 20
94.356025107904998
 30
0.0
 70
    32
  0
VERTEX
  5
9B31
  8
AM_0
 10
406.75935969169541
 20
94.351825107905
 30
0.0
 70
    32
  0
VERTEX
  5
9B32
  8
AM_0
 10
406.76035969169573
 20
94.347625107904733
 30
0.0
 70
    32
  0
VERTEX
  5
9B33
  8
AM_0
 10
406.76135969169542
 20
94.343325107904874
 30
0.0
 70
    32
  0
VERTEX
  5
9B34
  8
AM_0
 10
406.76235969169562
 20
94.33912510790465
 30
0.0
 70
    32
  0
VERTEX
  5
9B35
  8
AM_0
 10
406.76335969169571
 20
94.334925107904951
 30
0.0
 70
    32
  0
VERTEX
  5
9B36
  8
AM_0
 10
406.76435969169569
 20
94.330725107905181
 30
0.0
 70
    32
  0
VERTEX
  5
9B37
  8
AM_0
 10
406.76535969169572
 20
94.326525107904885
 30
0.0
 70
    32
  0
VERTEX
  5
9B38
  8
AM_0
 10
406.76735969169567
 20
94.322325107904931
 30
0.0
 70
    32
  0
VERTEX
  5
9B39
  8
AM_0
 10
406.76835969169571
 20
94.318125107905189
 30
0.0
 70
    32
  0
VERTEX
  5
9B3A
  8
AM_0
 10
406.76935969169563
 20
94.314025107904953
 30
0.0
 70
    32
  0
VERTEX
  5
9B3B
  8
AM_0
 10
406.77035969169572
 20
94.309825107904757
 30
0.0
 70
    32
  0
VERTEX
  5
9B3C
  8
AM_0
 10
406.77135969169569
 20
94.305625107905044
 30
0.0
 70
    32
  0
VERTEX
  5
9B3D
  8
AM_0
 10
406.77335969169542
 20
94.301525107905036
 30
0.0
 70
    32
  0
VERTEX
  5
9B3E
  8
AM_0
 10
406.77435969169551
 20
94.297325107904726
 30
0.0
 70
    32
  0
VERTEX
  5
9B3F
  8
AM_0
 10
406.77535969169571
 20
94.293225107904803
 30
0.0
 70
    32
  0
VERTEX
  5
9B40
  8
AM_0
 10
406.77735969169532
 20
94.289125107904937
 30
0.0
 70
    32
  0
VERTEX
  5
9B41
  8
AM_0
 10
406.77835969169558
 20
94.285025107904829
 30
0.0
 70
    32
  0
VERTEX
  5
9B42
  8
AM_0
 10
406.77935969169567
 20
94.280825107905017
 30
0.0
 70
    32
  0
VERTEX
  5
9B43
  8
AM_0
 10
406.7813596916954
 20
94.276825107904926
 30
0.0
 70
    32
  0
VERTEX
  5
9B44
  8
AM_0
 10
406.78235969169572
 20
94.272725107905046
 30
0.0
 70
    32
  0
VERTEX
  5
9B45
  8
AM_0
 10
406.78435969169573
 20
94.268625107905066
 30
0.0
 70
    32
  0
VERTEX
  5
9B46
  8
AM_0
 10
406.7853596916957
 20
94.264525107904873
 30
0.0
 70
    32
  0
VERTEX
  5
9B47
  8
AM_0
 10
406.78735969169588
 20
94.260525107905011
 30
0.0
 70
    32
  0
VERTEX
  5
9B48
  8
AM_0
 10
406.78835969169592
 20
94.256425107904874
 30
0.0
 70
    32
  0
VERTEX
  5
9B49
  8
AM_0
 10
406.79035969169558
 20
94.25242510790504
 30
0.0
 70
    32
  0
VERTEX
  5
9B4A
  8
AM_0
 10
406.79235969169582
 20
94.248425107905064
 30
0.0
 70
    32
  0
VERTEX
  5
9B4B
  8
AM_0
 10
406.79335969169563
 20
94.244425107904931
 30
0.0
 70
    32
  0
VERTEX
  5
9B4C
  8
AM_0
 10
406.79535969169558
 20
94.240425107904869
 30
0.0
 70
    32
  0
VERTEX
  5
9B4D
  8
AM_0
 10
406.79735969169559
 20
94.236425107904765
 30
0.0
 70
    32
  0
VERTEX
  5
9B4E
  8
AM_0
 10
406.79935969169571
 20
94.232425107904874
 30
0.0
 70
    32
  0
VERTEX
  5
9B4F
  8
AM_0
 10
406.80035969169558
 20
94.228525107904744
 30
0.0
 70
    32
  0
VERTEX
  5
9B50
  8
AM_0
 10
406.80235969169559
 20
94.224525107905066
 30
0.0
 70
    32
  0
VERTEX
  5
9B51
  8
AM_0
 10
406.80435969169571
 20
94.220625107904837
 30
0.0
 70
    32
  0
VERTEX
  5
9B52
  8
AM_0
 10
406.80635969169572
 20
94.216625107904747
 30
0.0
 70
    32
  0
VERTEX
  5
9B53
  8
AM_0
 10
406.80835969169561
 20
94.212725107904873
 30
0.0
 70
    32
  0
VERTEX
  5
9B54
  8
AM_0
 10
406.81035969169562
 20
94.208825107905
 30
0.0
 70
    32
  0
VERTEX
  5
9B55
  8
AM_0
 10
406.81235969169558
 20
94.204925107904714
 30
0.0
 70
    32
  0
VERTEX
  5
9B56
  8
AM_0
 10
406.81435969169542
 20
94.201025107904869
 30
0.0
 70
    32
  0
VERTEX
  5
9B57
  8
AM_0
 10
406.81635969169588
 20
94.197125107904981
 30
0.0
 70
    32
  0
VERTEX
  5
9B58
  8
AM_0
 10
406.81835969169572
 20
94.193225107904681
 30
0.0
 70
    32
  0
VERTEX
  5
9B59
  8
AM_0
 10
406.82035969169561
 20
94.189425107904952
 30
0.0
 70
    32
  0
VERTEX
  5
9B5A
  8
AM_0
 10
406.82235969169562
 20
94.185525107904795
 30
0.0
 70
    32
  0
VERTEX
  5
9B5B
  8
AM_0
 10
406.82435969169529
 20
94.18172510790501
 30
0.0
 70
    32
  0
VERTEX
  5
9B5C
  8
AM_0
 10
406.82635969169559
 20
94.177925107904926
 30
0.0
 70
    32
  0
VERTEX
  5
9B5D
  8
AM_0
 10
406.8283596916956
 20
94.17402510790518
 30
0.0
 70
    32
  0
VERTEX
  5
9B5E
  8
AM_0
 10
406.83035969169561
 20
94.170225107904784
 30
0.0
 70
    32
  0
VERTEX
  5
9B5F
  8
AM_0
 10
406.83235969169561
 20
94.166425107905084
 30
0.0
 70
    32
  0
VERTEX
  5
9B60
  8
AM_0
 10
406.83435969169591
 20
94.162725107904933
 30
0.0
 70
    32
  0
VERTEX
  5
9B61
  8
AM_0
 10
406.83635969169592
 20
94.158925107904906
 30
0.0
 70
    32
  0
VERTEX
  5
9B62
  8
AM_0
 10
406.83935969169579
 20
94.155125107905164
 30
0.0
 70
    32
  0
VERTEX
  5
9B63
  8
AM_0
 10
406.8413596916958
 20
94.151425107904743
 30
0.0
 70
    32
  0
VERTEX
  5
9B64
  8
AM_0
 10
406.84335969169592
 20
94.147625107904929
 30
0.0
 70
    32
  0
VERTEX
  5
9B65
  8
AM_0
 10
406.84535969169588
 20
94.143925107905034
 30
0.0
 70
    32
  0
VERTEX
  5
9B66
  8
AM_0
 10
406.8483596916958
 20
94.140225107904925
 30
0.0
 70
    32
  0
VERTEX
  5
9B67
  8
AM_0
 10
406.8503596916957
 20
94.136425107904842
 30
0.0
 70
    32
  0
VERTEX
  5
9B68
  8
AM_0
 10
406.8523596916952
 20
94.132725107905003
 30
0.0
 70
    32
  0
VERTEX
  5
9B69
  8
AM_0
 10
406.85435969169572
 20
94.129125107904954
 30
0.0
 70
    32
  0
VERTEX
  5
9B6A
  8
AM_0
 10
406.85735969169571
 20
94.125425107905144
 30
0.0
 70
    32
  0
VERTEX
  5
9B6B
  8
AM_0
 10
406.85935969169532
 20
94.121725107904666
 30
0.0
 70
    32
  0
VERTEX
  5
9B6C
  8
AM_0
 10
406.86135969169572
 20
94.118125107905001
 30
0.0
 70
    32
  0
VERTEX
  5
9B6D
  8
AM_0
 10
406.86435969169571
 20
94.114425107904935
 30
0.0
 70
    32
  0
VERTEX
  5
9B6E
  8
AM_0
 10
406.86635969169572
 20
94.110825107904915
 30
0.0
 70
    32
  0
VERTEX
  5
9B6F
  8
AM_0
 10
406.86935969169571
 20
94.107125107904807
 30
0.0
 70
    32
  0
VERTEX
  5
9B70
  8
AM_0
 10
406.87135969169537
 20
94.103525107904758
 30
0.0
 70
    32
  0
VERTEX
  5
9B71
  8
AM_0
 10
406.87335969169538
 20
94.099925107904795
 30
0.0
 70
    32
  0
VERTEX
  5
9B72
  8
AM_0
 10
406.8763596916956
 20
94.096325107904761
 30
0.0
 70
    32
  0
VERTEX
  5
9B73
  8
AM_0
 10
406.87835969169572
 20
94.092825107904886
 30
0.0
 70
    32
  0
VERTEX
  5
9B74
  8
AM_0
 10
406.88135969169571
 20
94.089225107904852
 30
0.0
 70
    32
  0
VERTEX
  5
9B75
  8
AM_0
 10
406.88335969169589
 20
94.085625107904875
 30
0.0
 70
    32
  0
VERTEX
  5
9B76
  8
AM_0
 10
406.8863596916957
 20
94.082125107904929
 30
0.0
 70
    32
  0
VERTEX
  5
9B77
  8
AM_0
 10
406.88835969169571
 20
94.07862510790504
 30
0.0
 70
    32
  0
VERTEX
  5
9B78
  8
AM_0
 10
406.89135969169558
 20
94.075125107904924
 30
0.0
 70
    32
  0
VERTEX
  5
9B79
  8
AM_0
 10
406.89435969169591
 20
94.071525107904904
 30
0.0
 70
    32
  0
VERTEX
  5
9B7A
  8
AM_0
 10
406.89635969169558
 20
94.068125107905047
 30
0.0
 70
    32
  0
VERTEX
  5
9B7B
  8
AM_0
 10
406.89935969169562
 20
94.064625107904817
 30
0.0
 70
    32
  0
VERTEX
  5
9B7C
  8
AM_0
 10
406.90135969169592
 20
94.061125107905013
 30
0.0
 70
    32
  0
VERTEX
  5
9B7D
  8
AM_0
 10
406.90435969169579
 20
94.05762510790484
 30
0.0
 70
    32
  0
VERTEX
  5
9B7E
  8
AM_0
 10
406.90735969169572
 20
94.054225107904927
 30
0.0
 70
    32
  0
VERTEX
  5
9B7F
  8
AM_0
 10
406.90935969169573
 20
94.050725107904981
 30
0.0
 70
    32
  0
VERTEX
  5
9B80
  8
AM_0
 10
406.91235969169571
 20
94.047325107904683
 30
0.0
 70
    32
  0
VERTEX
  5
9B81
  8
AM_0
 10
406.91535969169541
 20
94.043925107905125
 30
0.0
 70
    32
  0
VERTEX
  5
9B82
  8
AM_0
 10
406.91735969169559
 20
94.040525107904784
 30
0.0
 70
    32
  0
VERTEX
  5
9B83
  8
AM_0
 10
406.9203596916953
 20
94.03712510790487
 30
0.0
 70
    32
  0
VERTEX
  5
9B84
  8
AM_0
 10
406.92335969169579
 20
94.033725107904957
 30
0.0
 70
    32
  0
VERTEX
  5
9B85
  8
AM_0
 10
406.92635969169572
 20
94.030425107905046
 30
0.0
 70
    32
  0
VERTEX
  5
9B86
  8
AM_0
 10
406.92835969169568
 20
94.027025107904791
 30
0.0
 70
    32
  0
VERTEX
  5
9B87
  8
AM_0
 10
406.9313596916956
 20
94.023725107904951
 30
0.0
 70
    32
  0
VERTEX
  5
9B88
  8
AM_0
 10
406.93435969169542
 20
94.020325107904853
 30
0.0
 70
    32
  0
VERTEX
  5
9B89
  8
AM_0
 10
406.9373596916958
 20
94.017025107904914
 30
0.0
 70
    32
  0
VERTEX
  5
9B8A
  8
AM_0
 10
406.9393596916953
 20
94.013725107905216
 30
0.0
 70
    32
  0
VERTEX
  5
9B8B
  8
AM_0
 10
406.94235969169557
 20
94.010425107904851
 30
0.0
 70
    32
  0
VERTEX
  5
9B8C
  8
AM_0
 10
406.94535969169561
 20
94.007125107904869
 30
0.0
 70
    32
  0
VERTEX
  5
9B8D
  8
AM_0
 10
406.94835969169571
 20
94.003825107905158
 30
0.0
 70
    32
  0
VERTEX
  5
9B8E
  8
AM_0
 10
406.9513596916957
 20
94.000525107904835
 30
0.0
 70
    32
  0
VERTEX
  5
9B8F
  8
AM_0
 10
406.95435969169557
 20
93.997325107904757
 30
0.0
 70
    32
  0
VERTEX
  5
9B90
  8
AM_0
 10
406.9573596916955
 20
93.994025107905046
 30
0.0
 70
    32
  0
VERTEX
  5
9B91
  8
AM_0
 10
406.96035969169532
 20
93.990825107905039
 30
0.0
 70
    32
  0
VERTEX
  5
9B92
  8
AM_0
 10
406.9633596916957
 20
93.987625107905174
 30
0.0
 70
    32
  0
VERTEX
  5
9B93
  8
AM_0
 10
406.96535969169571
 20
93.984425107904926
 30
0.0
 70
    32
  0
VERTEX
  5
9B94
  8
AM_0
 10
406.96835969169581
 20
93.981225107904706
 30
0.0
 70
    32
  0
VERTEX
  5
9B95
  8
AM_0
 10
406.9713596916954
 20
93.978025107904827
 30
0.0
 70
    32
  0
VERTEX
  5
9B96
  8
AM_0
 10
406.97435969169533
 20
93.974825107904934
 30
0.0
 70
    32
  0
VERTEX
  5
9B97
  8
AM_0
 10
406.97735969169571
 20
93.971625107904828
 30
0.0
 70
    32
  0
VERTEX
  5
9B98
  8
AM_0
 10
406.98035969169558
 20
93.968525107904952
 30
0.0
 70
    32
  0
VERTEX
  5
9B99
  8
AM_0
 10
406.98335969169551
 20
93.965325107904803
 30
0.0
 70
    32
  0
VERTEX
  5
9B9A
  8
AM_0
 10
406.98635969169572
 20
93.962225107904914
 30
0.0
 70
    32
  0
VERTEX
  5
9B9B
  8
AM_0
 10
406.98935969169571
 20
93.959125107904796
 30
0.0
 70
    32
  0
VERTEX
  5
9B9C
  8
AM_0
 10
406.99235969169558
 20
93.955925107904932
 30
0.0
 70
    32
  0
VERTEX
  5
9B9D
  8
AM_0
 10
406.99535969169563
 20
93.952825107904786
 30
0.0
 70
    32
  0
VERTEX
  5
9B9E
  8
AM_0
 10
406.99835969169561
 20
93.949725107904982
 30
0.0
 70
    32
  0
VERTEX
  5
9B9F
  8
AM_0
 10
407.00135969169571
 20
93.946725107905067
 30
0.0
 70
    32
  0
VERTEX
  5
9BA0
  8
AM_0
 10
407.00535969169562
 20
93.94362510790495
 30
0.0
 70
    32
  0
VERTEX
  5
9BA1
  8
AM_0
 10
407.00835969169572
 20
93.940525107904762
 30
0.0
 70
    32
  0
VERTEX
  5
9BA2
  8
AM_0
 10
407.01135969169559
 20
93.937525107904733
 30
0.0
 70
    32
  0
VERTEX
  5
9BA3
  8
AM_0
 10
407.0143596916958
 20
93.934425107904985
 30
0.0
 70
    32
  0
VERTEX
  5
9BA4
  8
AM_0
 10
407.01735969169579
 20
93.931425107905042
 30
0.0
 70
    32
  0
VERTEX
  5
9BA5
  8
AM_0
 10
407.0203596916956
 20
93.928425107904786
 30
0.0
 70
    32
  0
VERTEX
  5
9BA6
  8
AM_0
 10
407.02335969169559
 20
93.925425107904928
 30
0.0
 70
    32
  0
VERTEX
  5
9BA7
  8
AM_0
 10
407.02635969169592
 20
93.922425107905042
 30
0.0
 70
    32
  0
VERTEX
  5
9BA8
  8
AM_0
 10
407.03035969169559
 20
93.919425107904758
 30
0.0
 70
    32
  0
VERTEX
  5
9BA9
  8
AM_0
 10
407.03335969169569
 20
93.916425107904956
 30
0.0
 70
    32
  0
VERTEX
  5
9BAA
  8
AM_0
 10
407.03635969169568
 20
93.913425107905013
 30
0.0
 70
    32
  0
VERTEX
  5
9BAB
  8
AM_0
 10
407.03935969169561
 20
93.910525107905059
 30
0.0
 70
    32
  0
VERTEX
  5
9BAC
  8
AM_0
 10
407.04235969169571
 20
93.907525107905045
 30
0.0
 70
    32
  0
VERTEX
  5
9BAD
  8
AM_0
 10
407.0453596916953
 20
93.904625107904792
 30
0.0
 70
    32
  0
VERTEX
  5
9BAE
  8
AM_0
 10
407.04935969169537
 20
93.901625107904763
 30
0.0
 70
    32
  0
VERTEX
  5
9BAF
  8
AM_0
 10
407.05235969169559
 20
93.898725107904724
 30
0.0
 70
    32
  0
VERTEX
  5
9BB0
  8
AM_0
 10
407.05535969169563
 20
93.895825107905026
 30
0.0
 70
    32
  0
VERTEX
  5
9BB1
  8
AM_0
 10
407.05835969169573
 20
93.892925107904816
 30
0.0
 70
    32
  0
VERTEX
  5
9BB2
  8
AM_0
 10
407.06235969169569
 20
93.890025107905004
 30
0.0
 70
    32
  0
VERTEX
  5
9BB3
  8
AM_0
 10
407.06535969169551
 20
93.887125107905035
 30
0.0
 70
    32
  0
VERTEX
  5
9BB4
  8
AM_0
 10
407.06835969169572
 20
93.884325107904687
 30
0.0
 70
    32
  0
VERTEX
  5
9BB5
  8
AM_0
 10
407.0713596916957
 20
93.881425107904988
 30
0.0
 70
    32
  0
VERTEX
  5
9BB6
  8
AM_0
 10
407.07535969169589
 20
93.878625107904824
 30
0.0
 70
    32
  0
VERTEX
  5
9BB7
  8
AM_0
 10
407.07835969169571
 20
93.875725107904799
 30
0.0
 70
    32
  0
VERTEX
  5
9BB8
  8
AM_0
 10
407.08135969169558
 20
93.872925107904919
 30
0.0
 70
    32
  0
VERTEX
  5
9BB9
  8
AM_0
 10
407.0853596916956
 20
93.870125107905011
 30
0.0
 70
    32
  0
VERTEX
  5
9BBA
  8
AM_0
 10
407.08835969169559
 20
93.867325107904989
 30
0.0
 70
    32
  0
VERTEX
  5
9BBB
  8
AM_0
 10
407.09135969169557
 20
93.864525107904853
 30
0.0
 70
    32
  0
VERTEX
  5
9BBC
  8
AM_0
 10
407.09535969169588
 20
93.861725107904917
 30
0.0
 70
    32
  0
VERTEX
  5
9BBD
  8
AM_0
 10
407.09835969169558
 20
93.858925107904966
 30
0.0
 70
    32
  0
VERTEX
  5
9BBE
  8
AM_0
 10
407.10135969169568
 20
93.856125107905214
 30
0.0
 70
    32
  0
VERTEX
  5
9BBF
  8
AM_0
 10
407.10535969169553
 20
93.853425107905196
 30
0.0
 70
    32
  0
VERTEX
  5
9BC0
  8
AM_0
 10
407.10835969169563
 20
93.850625107904762
 30
0.0
 70
    32
  0
VERTEX
  5
9BC1
  8
AM_0
 10
407.11135969169572
 20
93.847925107904729
 30
0.0
 70
    32
  0
VERTEX
  5
9BC2
  8
AM_0
 10
407.11535969169591
 20
93.845125107904764
 30
0.0
 70
    32
  0
VERTEX
  5
9BC3
  8
AM_0
 10
407.11835969169567
 20
93.842425107904759
 30
0.0
 70
    32
  0
VERTEX
  5
9BC4
  8
AM_0
 10
407.12235969169558
 20
93.839725107904755
 30
0.0
 70
    32
  0
VERTEX
  5
9BC5
  8
AM_0
 10
407.12535969169551
 20
93.837025107904765
 30
0.0
 70
    32
  0
VERTEX
  5
9BC6
  8
AM_0
 10
407.12835969169561
 20
93.834325107904931
 30
0.0
 70
    32
  0
VERTEX
  5
9BC7
  8
AM_0
 10
407.13235969169568
 20
93.831625107904983
 30
0.0
 70
    32
  0
VERTEX
  5
9BC8
  8
AM_0
 10
407.13535969169561
 20
93.828925107904936
 30
0.0
 70
    32
  0
VERTEX
  5
9BC9
  8
AM_0
 10
407.13935969169557
 20
93.826325107904722
 30
0.0
 70
    32
  0
VERTEX
  5
9BCA
  8
AM_0
 10
407.14235969169562
 20
93.823625107904704
 30
0.0
 70
    32
  0
VERTEX
  5
9BCB
  8
AM_0
 10
407.14635969169581
 20
93.820925107904714
 30
0.0
 70
    32
  0
VERTEX
  5
9BCC
  8
AM_0
 10
407.14935969169568
 20
93.818325107905139
 30
0.0
 70
    32
  0
VERTEX
  5
9BCD
  8
AM_0
 10
407.15235969169572
 20
93.815725107904953
 30
0.0
 70
    32
  0
VERTEX
  5
9BCE
  8
AM_0
 10
407.15635969169568
 20
93.813125107904796
 30
0.0
 70
    32
  0
VERTEX
  5
9BCF
  8
AM_0
 10
407.15935969169573
 20
93.810425107904834
 30
0.0
 70
    32
  0
VERTEX
  5
9BD0
  8
AM_0
 10
407.16335969169569
 20
93.807825107904804
 30
0.0
 70
    32
  0
VERTEX
  5
9BD1
  8
AM_0
 10
407.1663596916955
 20
93.805225107904931
 30
0.0
 70
    32
  0
VERTEX
  5
9BD2
  8
AM_0
 10
407.17035969169569
 20
93.802725107904834
 30
0.0
 70
    32
  0
VERTEX
  5
9BD3
  8
AM_0
 10
407.17335969169591
 20
93.800125107904933
 30
0.0
 70
    32
  0
VERTEX
  5
9BD4
  8
AM_0
 10
407.1773596916957
 20
93.797525107905017
 30
0.0
 70
    32
  0
VERTEX
  5
9BD5
  8
AM_0
 10
407.18035969169551
 20
93.795025107904934
 30
0.0
 70
    32
  0
VERTEX
  5
9BD6
  8
AM_0
 10
407.1843596916957
 20
93.792425107904791
 30
0.0
 70
    32
  0
VERTEX
  5
9BD7
  8
AM_0
 10
407.18735969169558
 20
93.789925107904835
 30
0.0
 70
    32
  0
VERTEX
  5
9BD8
  8
AM_0
 10
407.19135969169588
 20
93.787325107905033
 30
0.0
 70
    32
  0
VERTEX
  5
9BD9
  8
AM_0
 10
407.19435969169558
 20
93.784825107904894
 30
0.0
 70
    32
  0
VERTEX
  5
9BDA
  8
AM_0
 10
407.1983596916956
 20
93.782325107905095
 30
0.0
 70
    32
  0
VERTEX
  5
9BDB
  8
AM_0
 10
407.20235969169579
 20
93.779825107904784
 30
0.0
 70
    32
  0
VERTEX
  5
9BDC
  8
AM_0
 10
407.20535969169578
 20
93.777325107904829
 30
0.0
 70
    32
  0
VERTEX
  5
9BDD
  8
AM_0
 10
407.20935969169602
 20
93.774825107904931
 30
0.0
 70
    32
  0
VERTEX
  5
9BDE
  8
AM_0
 10
407.21235969169572
 20
93.772325107904948
 30
0.0
 70
    32
  0
VERTEX
  5
9BDF
  8
AM_0
 10
407.21635969169557
 20
93.769925107904754
 30
0.0
 70
    32
  0
VERTEX
  5
9BE0
  8
AM_0
 10
407.21935969169567
 20
93.767425107904756
 30
0.0
 70
    32
  0
VERTEX
  5
9BE1
  8
AM_0
 10
407.22335969169569
 20
93.765025107904876
 30
0.0
 70
    32
  0
VERTEX
  5
9BE2
  8
AM_0
 10
407.2273596916956
 20
93.762525107905049
 30
0.0
 70
    32
  0
VERTEX
  5
9BE3
  8
AM_0
 10
407.2303596916953
 20
93.760125107904997
 30
0.0
 70
    32
  0
VERTEX
  5
9BE4
  8
AM_0
 10
407.23435969169537
 20
93.757725107904875
 30
0.0
 70
    32
  0
VERTEX
  5
9BE5
  8
AM_0
 10
407.23735969169519
 20
93.755225107904934
 30
0.0
 70
    32
  0
VERTEX
  5
9BE6
  8
AM_0
 10
407.24135969169572
 20
93.752825107904727
 30
0.0
 70
    32
  0
VERTEX
  5
9BE7
  8
AM_0
 10
407.24535969169568
 20
93.750425107905002
 30
0.0
 70
    32
  0
VERTEX
  5
9BE8
  8
AM_0
 10
407.24835969169573
 20
93.748025107904937
 30
0.0
 70
    32
  0
VERTEX
  5
9BE9
  8
AM_0
 10
407.25235969169569
 20
93.745625107904729
 30
0.0
 70
    32
  0
VERTEX
  5
9BEA
  8
AM_0
 10
407.25635969169542
 20
93.743325107904866
 30
0.0
 70
    32
  0
VERTEX
  5
9BEB
  8
AM_0
 10
407.25935969169558
 20
93.740925107904999
 30
0.0
 70
    32
  0
VERTEX
  5
9BEC
  8
AM_0
 10
407.26335969169571
 20
93.738525107905033
 30
0.0
 70
    32
  0
VERTEX
  5
9BED
  8
AM_0
 10
407.26735969169567
 20
93.736225107904744
 30
0.0
 70
    32
  0
VERTEX
  5
9BEE
  8
AM_0
 10
407.27035969169572
 20
93.733825107904948
 30
0.0
 70
    32
  0
VERTEX
  5
9BEF
  8
AM_0
 10
407.27435969169568
 20
93.731525107904986
 30
0.0
 70
    32
  0
VERTEX
  5
9BF0
  8
AM_0
 10
407.27835969169593
 20
93.729225107904995
 30
0.0
 70
    32
  0
VERTEX
  5
9BF1
  8
AM_0
 10
407.28135969169563
 20
93.726925107905046
 30
0.0
 70
    32
  0
VERTEX
  5
9BF2
  8
AM_0
 10
407.28535969169559
 20
93.72462510790487
 30
0.0
 70
    32
  0
VERTEX
  5
9BF3
  8
AM_0
 10
407.28935969169578
 20
93.722225107904677
 30
0.0
 70
    32
  0
VERTEX
  5
9BF4
  8
AM_0
 10
407.29235969169571
 20
93.720025107904803
 30
0.0
 70
    32
  0
VERTEX
  5
9BF5
  8
AM_0
 10
407.29635969169578
 20
93.717725107904684
 30
0.0
 70
    32
  0
VERTEX
  5
9BF6
  8
AM_0
 10
407.30035969169541
 20
93.715425107904792
 30
0.0
 70
    32
  0
VERTEX
  5
9BF7
  8
AM_0
 10
407.30335969169562
 20
93.713125107904929
 30
0.0
 70
    32
  0
VERTEX
  5
9BF8
  8
AM_0
 10
407.30735969169592
 20
93.710825107904924
 30
0.0
 70
    32
  0
VERTEX
  5
9BF9
  8
AM_0
 10
407.3113596916956
 20
93.708625107904908
 30
0.0
 70
    32
  0
VERTEX
  5
9BFA
  8
AM_0
 10
407.31535969169568
 20
93.706325107904931
 30
0.0
 70
    32
  0
VERTEX
  5
9BFB
  8
AM_0
 10
407.3183596916956
 20
93.704125107904915
 30
0.0
 70
    32
  0
VERTEX
  5
9BFC
  8
AM_0
 10
407.32235969169568
 20
93.701925107904756
 30
0.0
 70
    32
  0
VERTEX
  5
9BFD
  8
AM_0
 10
407.32635969169559
 20
93.699625107904907
 30
0.0
 70
    32
  0
VERTEX
  5
9BFE
  8
AM_0
 10
407.3293596916958
 20
93.697425107904763
 30
0.0
 70
    32
  0
VERTEX
  5
9BFF
  8
AM_0
 10
407.33335969169519
 20
93.695225107904875
 30
0.0
 70
    32
  0
VERTEX
  5
9C00
  8
AM_0
 10
407.3373596916955
 20
93.693025107904745
 30
0.0
 70
    32
  0
VERTEX
  5
9C01
  8
AM_0
 10
407.34135969169569
 20
93.690825107904928
 30
0.0
 70
    32
  0
VERTEX
  5
9C02
  8
AM_0
 10
407.34435969169562
 20
93.688625107905153
 30
0.0
 70
    32
  0
VERTEX
  5
9C03
  8
AM_0
 10
407.34835969169569
 20
93.686525107904927
 30
0.0
 70
    32
  0
VERTEX
  5
9C04
  8
AM_0
 10
407.35235969169571
 20
93.684325107904854
 30
0.0
 70
    32
  0
VERTEX
  5
9C05
  8
AM_0
 10
407.3563596916955
 20
93.682125107904767
 30
0.0
 70
    32
  0
VERTEX
  5
9C06
  8
AM_0
 10
407.36035969169569
 20
93.680025107904925
 30
0.0
 70
    32
  0
VERTEX
  5
9C07
  8
AM_0
 10
407.36335969169568
 20
93.677825107905164
 30
0.0
 70
    32
  0
VERTEX
  5
9C08
  8
AM_0
 10
407.3673596916957
 20
93.675725107904839
 30
0.0
 70
    32
  0
VERTEX
  5
9C09
  8
AM_0
 10
407.3713596916956
 20
93.673525107904837
 30
0.0
 70
    32
  0
VERTEX
  5
9C0A
  8
AM_0
 10
407.37535969169562
 20
93.671425107904724
 30
0.0
 70
    32
  0
VERTEX
  5
9C0B
  8
AM_0
 10
407.37835969169578
 20
93.66932510790501
 30
0.0
 70
    32
  0
VERTEX
  5
9C0C
  8
AM_0
 10
407.38235969169563
 20
93.667225107904841
 30
0.0
 70
    32
  0
VERTEX
  5
9C0D
  8
AM_0
 10
407.38635969169559
 20
93.665125107904686
 30
0.0
 70
    32
  0
VERTEX
  5
9C0E
  8
AM_0
 10
407.39035969169572
 20
93.663025107905
 30
0.0
 70
    32
  0
VERTEX
  5
9C0F
  8
AM_0
 10
407.39435969169591
 20
93.660925107904831
 30
0.0
 70
    32
  0
VERTEX
  5
9C10
  8
AM_0
 10
407.39835969169559
 20
93.658825107904704
 30
0.0
 70
    32
  0
VERTEX
  5
9C11
  8
AM_0
 10
407.40135969169592
 20
93.656725107905004
 30
0.0
 70
    32
  0
VERTEX
  5
9C12
  8
AM_0
 10
407.40535969169559
 20
93.654725107904795
 30
0.0
 70
    32
  0
VERTEX
  5
9C13
  8
AM_0
 10
407.40935969169573
 20
93.652625107905124
 30
0.0
 70
    32
  0
VERTEX
  5
9C14
  8
AM_0
 10
407.41335969169592
 20
93.650525107904826
 30
0.0
 70
    32
  0
VERTEX
  5
9C15
  8
AM_0
 10
407.41735969169559
 20
93.648525107904931
 30
0.0
 70
    32
  0
VERTEX
  5
9C16
  8
AM_0
 10
407.42035969169569
 20
93.646425107904946
 30
0.0
 70
    32
  0
VERTEX
  5
9C17
  8
AM_0
 10
407.4243596916956
 20
93.644425107905008
 30
0.0
 70
    32
  0
VERTEX
  5
9C18
  8
AM_0
 10
407.42835969169562
 20
93.642425107904756
 30
0.0
 70
    32
  0
VERTEX
  5
9C19
  8
AM_0
 10
407.43235969169592
 20
93.640425107904875
 30
0.0
 70
    32
  0
VERTEX
  5
9C1A
  8
AM_0
 10
407.43635969169571
 20
93.638425107904723
 30
0.0
 70
    32
  0
VERTEX
  5
9C1B
  8
AM_0
 10
407.44035969169562
 20
93.636425107905012
 30
0.0
 70
    32
  0
VERTEX
  5
9C1C
  8
AM_0
 10
407.44435969169569
 20
93.634425107904903
 30
0.0
 70
    32
  0
VERTEX
  5
9C1D
  8
AM_0
 10
407.44735969169568
 20
93.632425107905078
 30
0.0
 70
    32
  0
VERTEX
  5
9C1E
  8
AM_0
 10
407.45135969169559
 20
93.630425107904784
 30
0.0
 70
    32
  0
VERTEX
  5
9C1F
  8
AM_0
 10
407.45535969169572
 20
93.628425107904931
 30
0.0
 70
    32
  0
VERTEX
  5
9C20
  8
AM_0
 10
407.4593596916954
 20
93.626425107904979
 30
0.0
 70
    32
  0
VERTEX
  5
9C21
  8
AM_0
 10
407.4633596916957
 20
93.624525107904887
 30
0.0
 70
    32
  0
VERTEX
  5
9C22
  8
AM_0
 10
407.46735969169572
 20
93.622525107905034
 30
0.0
 70
    32
  0
VERTEX
  5
9C23
  8
AM_0
 10
407.47135969169591
 20
93.620625107904829
 30
0.0
 70
    32
  0
VERTEX
  5
9C24
  8
AM_0
 10
407.4753596916957
 20
93.618625107904762
 30
0.0
 70
    32
  0
VERTEX
  5
9C25
  8
AM_0
 10
407.47935969169589
 20
93.61672510790487
 30
0.0
 70
    32
  0
VERTEX
  5
9C26
  8
AM_0
 10
407.48235969169571
 20
93.614825107905077
 30
0.0
 70
    32
  0
VERTEX
  5
9C27
  8
AM_0
 10
407.48635969169561
 20
93.61282510790484
 30
0.0
 70
    32
  0
VERTEX
  5
9C28
  8
AM_0
 10
407.49035969169591
 20
93.610925107904905
 30
0.0
 70
    32
  0
VERTEX
  5
9C29
  8
AM_0
 10
407.49435969169559
 20
93.60902510790504
 30
0.0
 70
    32
  0
VERTEX
  5
9C2A
  8
AM_0
 10
407.49835969169573
 20
93.607125107904793
 30
0.0
 70
    32
  0
VERTEX
  5
9C2B
  8
AM_0
 10
407.5023596916958
 20
93.605225107905042
 30
0.0
 70
    32
  0
VERTEX
  5
9C2C
  8
AM_0
 10
407.50635969169542
 20
93.603325107904766
 30
0.0
 70
    32
  0
VERTEX
  5
9C2D
  8
AM_0
 10
407.51035969169561
 20
93.601525107904749
 30
0.0
 70
    32
  0
VERTEX
  5
9C2E
  8
AM_0
 10
407.51435969169569
 20
93.599625107904927
 30
0.0
 70
    32
  0
VERTEX
  5
9C2F
  8
AM_0
 10
407.51835969169559
 20
93.597725107905035
 30
0.0
 70
    32
  0
VERTEX
  5
9C30
  8
AM_0
 10
407.52235969169573
 20
93.595925107905046
 30
0.0
 70
    32
  0
VERTEX
  5
9C31
  8
AM_0
 10
407.5253596916956
 20
93.594025107904926
 30
0.0
 70
    32
  0
VERTEX
  5
9C32
  8
AM_0
 10
407.52935969169567
 20
93.592225107904923
 30
0.0
 70
    32
  0
VERTEX
  5
9C33
  8
AM_0
 10
407.53335969169581
 20
93.590325107904803
 30
0.0
 70
    32
  0
VERTEX
  5
9C34
  8
AM_0
 10
407.5373596916952
 20
93.5885251079048
 30
0.0
 70
    32
  0
VERTEX
  5
9C35
  8
AM_0
 10
407.54135969169562
 20
93.586725107904826
 30
0.0
 70
    32
  0
VERTEX
  5
9C36
  8
AM_0
 10
407.54535969169569
 20
93.584825107904834
 30
0.0
 70
    32
  0
VERTEX
  5
9C37
  8
AM_0
 10
407.54935969169537
 20
93.583025107904831
 30
0.0
 70
    32
  0
VERTEX
  5
9C38
  8
AM_0
 10
407.5533596916955
 20
93.581225107904828
 30
0.0
 70
    32
  0
VERTEX
  5
9C39
  8
AM_0
 10
407.55735969169569
 20
93.579425107904854
 30
0.0
 70
    32
  0
VERTEX
  5
9C3A
  8
AM_0
 10
407.5613596916956
 20
93.577625107904836
 30
0.0
 70
    32
  0
VERTEX
  5
9C3B
  8
AM_0
 10
407.56535969169539
 20
93.575825107904834
 30
0.0
 70
    32
  0
VERTEX
  5
9C3C
  8
AM_0
 10
407.56935969169558
 20
93.574125107904806
 30
0.0
 70
    32
  0
VERTEX
  5
9C3D
  8
AM_0
 10
407.5733596916956
 20
93.572325107904788
 30
0.0
 70
    32
  0
VERTEX
  5
9C3E
  8
AM_0
 10
407.57735969169579
 20
93.570525107904771
 30
0.0
 70
    32
  0
VERTEX
  5
9C3F
  8
AM_0
 10
407.58135969169558
 20
93.568725107904797
 30
0.0
 70
    32
  0
VERTEX
  5
9C40
  8
AM_0
 10
407.58535969169571
 20
93.567025107904854
 30
0.0
 70
    32
  0
VERTEX
  5
9C41
  8
AM_0
 10
407.58935969169562
 20
93.565225107904894
 30
0.0
 70
    32
  0
VERTEX
  5
9C42
  8
AM_0
 10
407.59335969169592
 20
93.563525107904951
 30
0.0
 70
    32
  0
VERTEX
  5
9C43
  8
AM_0
 10
407.59735969169571
 20
93.561825107904923
 30
0.0
 70
    32
  0
VERTEX
  5
9C44
  8
AM_0
 10
407.60135969169562
 20
93.560025107904934
 30
0.0
 70
    32
  0
VERTEX
  5
9C45
  8
AM_0
 10
407.60535969169558
 20
93.558325107904679
 30
0.0
 70
    32
  0
VERTEX
  5
9C46
  8
AM_0
 10
407.6093596916956
 20
93.556625107905006
 30
0.0
 70
    32
  0
VERTEX
  5
9C47
  8
AM_0
 10
407.61335969169579
 20
93.554925107905035
 30
0.0
 70
    32
  0
VERTEX
  5
9C48
  8
AM_0
 10
407.6173596916957
 20
93.55322510790495
 30
0.0
 70
    32
  0
VERTEX
  5
9C49
  8
AM_0
 10
407.62135969169537
 20
93.551525107904794
 30
0.0
 70
    32
  0
VERTEX
  5
9C4A
  8
AM_0
 10
407.62535969169562
 20
93.54982510790478
 30
0.0
 70
    32
  0
VERTEX
  5
9C4B
  8
AM_0
 10
407.6293596916957
 20
93.548125107905165
 30
0.0
 70
    32
  0
VERTEX
  5
9C4C
  8
AM_0
 10
407.63335969169572
 20
93.546425107904966
 30
0.0
 70
    32
  0
VERTEX
  5
9C4D
  8
AM_0
 10
407.63735969169562
 20
93.544725107904839
 30
0.0
 70
    32
  0
VERTEX
  5
9C4E
  8
AM_0
 10
407.6413596916957
 20
93.543025107904853
 30
0.0
 70
    32
  0
VERTEX
  5
9C4F
  8
AM_0
 10
407.64535969169572
 20
93.541425107905084
 30
0.0
 70
    32
  0
VERTEX
  5
9C50
  8
AM_0
 10
407.64935969169562
 20
93.539725107904928
 30
0.0
 70
    32
  0
VERTEX
  5
9C51
  8
AM_0
 10
407.65335969169581
 20
93.538125107904762
 30
0.0
 70
    32
  0
VERTEX
  5
9C52
  8
AM_0
 10
407.65735969169572
 20
93.53642510790516
 30
0.0
 70
    32
  0
VERTEX
  5
9C53
  8
AM_0
 10
407.66135969169551
 20
93.534825107904894
 30
0.0
 70
    32
  0
VERTEX
  5
9C54
  8
AM_0
 10
407.6653596916957
 20
93.533125107904866
 30
0.0
 70
    32
  0
VERTEX
  5
9C55
  8
AM_0
 10
407.6693596916956
 20
93.53152510790504
 30
0.0
 70
    32
  0
VERTEX
  5
9C56
  8
AM_0
 10
407.67335969169591
 20
93.529925107904759
 30
0.0
 70
    32
  0
VERTEX
  5
9C57
  8
AM_0
 10
407.67735969169559
 20
93.528325107905147
 30
0.0
 70
    32
  0
VERTEX
  5
9C58
  8
AM_0
 10
407.68135969169572
 20
93.526625107904934
 30
0.0
 70
    32
  0
VERTEX
  5
9C59
  8
AM_0
 10
407.68535969169562
 20
93.525025107904838
 30
0.0
 70
    32
  0
VERTEX
  5
9C5A
  8
AM_0
 10
407.68935969169542
 20
93.523425107905055
 30
0.0
 70
    32
  0
VERTEX
  5
9C5B
  8
AM_0
 10
407.69335969169578
 20
93.521825107904931
 30
0.0
 70
    32
  0
VERTEX
  5
9C5C
  8
AM_0
 10
407.69735969169568
 20
93.520325107904995
 30
0.0
 70
    32
  0
VERTEX
  5
9C5D
  8
AM_0
 10
407.70135969169559
 20
93.518725107904828
 30
0.0
 70
    32
  0
VERTEX
  5
9C5E
  8
AM_0
 10
407.70535969169572
 20
93.517125107905045
 30
0.0
 70
    32
  0
VERTEX
  5
9C5F
  8
AM_0
 10
407.70935969169591
 20
93.515525107904949
 30
0.0
 70
    32
  0
VERTEX
  5
9C60
  8
AM_0
 10
407.7133596916953
 20
93.514025107905013
 30
0.0
 70
    32
  0
VERTEX
  5
9C61
  8
AM_0
 10
407.71735969169561
 20
93.512425107904804
 30
0.0
 70
    32
  0
VERTEX
  5
9C62
  8
AM_0
 10
407.72235969169537
 20
93.510825107905035
 30
0.0
 70
    32
  0
VERTEX
  5
9C63
  8
AM_0
 10
407.72635969169562
 20
93.509325107904715
 30
0.0
 70
    32
  0
VERTEX
  5
9C64
  8
AM_0
 10
407.73035969169558
 20
93.507825107904864
 30
0.0
 70
    32
  0
VERTEX
  5
9C65
  8
AM_0
 10
407.73435969169572
 20
93.506225107904854
 30
0.0
 70
    32
  0
VERTEX
  5
9C66
  8
AM_0
 10
407.73835969169568
 20
93.504725107904946
 30
0.0
 70
    32
  0
VERTEX
  5
9C67
  8
AM_0
 10
407.7423596916957
 20
93.503225107904953
 30
0.0
 70
    32
  0
VERTEX
  5
9C68
  8
AM_0
 10
407.74635969169537
 20
93.501625107904744
 30
0.0
 70
    32
  0
VERTEX
  5
9C69
  8
AM_0
 10
407.75035969169551
 20
93.500125107904836
 30
0.0
 70
    32
  0
VERTEX
  5
9C6A
  8
AM_0
 10
407.75435969169558
 20
93.498625107905127
 30
0.0
 70
    32
  0
VERTEX
  5
9C6B
  8
AM_0
 10
407.75835969169589
 20
93.497125107904822
 30
0.0
 70
    32
  0
VERTEX
  5
9C6C
  8
AM_0
 10
407.76235969169539
 20
93.4956251079048
 30
0.0
 70
    32
  0
VERTEX
  5
9C6D
  8
AM_0
 10
407.7663596916957
 20
93.494125107905134
 30
0.0
 70
    32
  0
VERTEX
  5
9C6E
  8
AM_0
 10
407.77035969169577
 20
93.492625107904757
 30
0.0
 70
    32
  0
VERTEX
  5
9C6F
  8
AM_0
 10
407.77435969169562
 20
93.491225107904924
 30
0.0
 70
    32
  0
VERTEX
  5
9C70
  8
AM_0
 10
407.77935969169579
 20
93.489725107904945
 30
0.0
 70
    32
  0
VERTEX
  5
9C71
  8
AM_0
 10
407.78335969169558
 20
93.488225107904825
 30
0.0
 70
    32
  0
VERTEX
  5
9C72
  8
AM_0
 10
407.78735969169571
 20
93.486725107904931
 30
0.0
 70
    32
  0
VERTEX
  5
9C73
  8
AM_0
 10
407.79135969169579
 20
93.485325107904799
 30
0.0
 70
    32
  0
VERTEX
  5
9C74
  8
AM_0
 10
407.79535969169558
 20
93.483825107905048
 30
0.0
 70
    32
  0
VERTEX
  5
9C75
  8
AM_0
 10
407.7993596916956
 20
93.482425107905087
 30
0.0
 70
    32
  0
VERTEX
  5
9C76
  8
AM_0
 10
407.80335969169568
 20
93.480925107904795
 30
0.0
 70
    32
  0
VERTEX
  5
9C77
  8
AM_0
 10
407.80735969169592
 20
93.479525107904905
 30
0.0
 70
    32
  0
VERTEX
  5
9C78
  8
AM_0
 10
407.8113596916956
 20
93.478125107904816
 30
0.0
 70
    32
  0
VERTEX
  5
9C79
  8
AM_0
 10
407.81535969169562
 20
93.476725107904784
 30
0.0
 70
    32
  0
VERTEX
  5
9C7A
  8
AM_0
 10
407.82035969169561
 20
93.475225107905061
 30
0.0
 70
    32
  0
VERTEX
  5
9C7B
  8
AM_0
 10
407.82435969169529
 20
93.47382510790483
 30
0.0
 70
    32
  0
VERTEX
  5
9C7C
  8
AM_0
 10
407.8283596916952
 20
93.472425107905011
 30
0.0
 70
    32
  0
VERTEX
  5
9C7D
  8
AM_0
 10
407.83235969169561
 20
93.471025107904765
 30
0.0
 70
    32
  0
VERTEX
  5
9C7E
  8
AM_0
 10
407.8363596916958
 20
93.469625107904932
 30
0.0
 70
    32
  0
VERTEX
  5
9C7F
  8
AM_0
 10
407.84035969169571
 20
93.468225107904757
 30
0.0
 70
    32
  0
VERTEX
  5
9C80
  8
AM_0
 10
407.8443596916955
 20
93.466825107904796
 30
0.0
 70
    32
  0
VERTEX
  5
9C81
  8
AM_0
 10
407.84835969169569
 20
93.465425107904935
 30
0.0
 70
    32
  0
VERTEX
  5
9C82
  8
AM_0
 10
407.8523596916956
 20
93.464125107904792
 30
0.0
 70
    32
  0
VERTEX
  5
9C83
  8
AM_0
 10
407.85735969169571
 20
93.46272510790493
 30
0.0
 70
    32
  0
VERTEX
  5
9C84
  8
AM_0
 10
407.86135969169572
 20
93.461325107905026
 30
0.0
 70
    32
  0
VERTEX
  5
9C85
  8
AM_0
 10
407.86535969169591
 20
93.460025107904869
 30
0.0
 70
    32
  0
VERTEX
  5
9C86
  8
AM_0
 10
407.86935969169571
 20
93.45862510790505
 30
0.0
 70
    32
  0
VERTEX
  5
9C87
  8
AM_0
 10
407.87335969169573
 20
93.457325107904879
 30
0.0
 70
    32
  0
VERTEX
  5
9C88
  8
AM_0
 10
407.87735969169557
 20
93.455925107905017
 30
0.0
 70
    32
  0
VERTEX
  5
9C89
  8
AM_0
 10
407.88135969169559
 20
93.454625107904874
 30
0.0
 70
    32
  0
VERTEX
  5
9C8A
  8
AM_0
 10
407.88635969169559
 20
93.453325107904874
 30
0.0
 70
    32
  0
VERTEX
  5
9C8B
  8
AM_0
 10
407.89035969169572
 20
93.451925107904927
 30
0.0
 70
    32
  0
VERTEX
  5
9C8C
  8
AM_0
 10
407.89435969169591
 20
93.45062510790487
 30
0.0
 70
    32
  0
VERTEX
  5
9C8D
  8
AM_0
 10
407.89835969169559
 20
93.449325107904755
 30
0.0
 70
    32
  0
VERTEX
  5
9C8E
  8
AM_0
 10
407.90235969169572
 20
93.448025107904854
 30
0.0
 70
    32
  0
VERTEX
  5
9C8F
  8
AM_0
 10
407.90635969169568
 20
93.446725107905067
 30
0.0
 70
    32
  0
VERTEX
  5
9C90
  8
AM_0
 10
407.91035969169542
 20
93.445425107904924
 30
0.0
 70
    32
  0
VERTEX
  5
9C91
  8
AM_0
 10
407.9153596916953
 20
93.444125107904796
 30
0.0
 70
    32
  0
VERTEX
  5
9C92
  8
AM_0
 10
407.91935969169538
 20
93.442825107905037
 30
0.0
 70
    32
  0
VERTEX
  5
9C93
  8
AM_0
 10
407.92335969169568
 20
93.441525107904994
 30
0.0
 70
    32
  0
VERTEX
  5
9C94
  8
AM_0
 10
407.92735969169559
 20
93.440225107904865
 30
0.0
 70
    32
  0
VERTEX
  5
9C95
  8
AM_0
 10
407.93135969169572
 20
93.438925107904836
 30
0.0
 70
    32
  0
VERTEX
  5
9C96
  8
AM_0
 10
407.93535969169562
 20
93.437725107905067
 30
0.0
 70
    32
  0
VERTEX
  5
9C97
  8
AM_0
 10
407.93935969169559
 20
93.436425107904924
 30
0.0
 70
    32
  0
VERTEX
  5
9C98
  8
AM_0
 10
407.94435969169558
 20
93.435125107904796
 30
0.0
 70
    32
  0
VERTEX
  5
9C99
  8
AM_0
 10
407.94835969169571
 20
93.433925107904855
 30
0.0
 70
    32
  0
VERTEX
  5
9C9A
  8
AM_0
 10
407.95235969169568
 20
93.43262510790484
 30
0.0
 70
    32
  0
VERTEX
  5
9C9B
  8
AM_0
 10
407.9563596916957
 20
93.431425107905056
 30
0.0
 70
    32
  0
VERTEX
  5
9C9C
  8
AM_0
 10
407.9603596916956
 20
93.430125107904914
 30
0.0
 70
    32
  0
VERTEX
  5
9C9D
  8
AM_0
 10
407.96435969169568
 20
93.428925107905002
 30
0.0
 70
    32
  0
VERTEX
  5
9C9E
  8
AM_0
 10
407.96935969169562
 20
93.427725107904735
 30
0.0
 70
    32
  0
VERTEX
  5
9C9F
  8
AM_0
 10
407.97335969169558
 20
93.426425107904763
 30
0.0
 70
    32
  0
VERTEX
  5
9CA0
  8
AM_0
 10
407.97735969169571
 20
93.425225107905121
 30
0.0
 70
    32
  0
VERTEX
  5
9CA1
  8
AM_0
 10
407.98135969169562
 20
93.424025107904953
 30
0.0
 70
    32
  0
VERTEX
  5
9CA2
  8
AM_0
 10
407.98535969169558
 20
93.422825107904757
 30
0.0
 70
    32
  0
VERTEX
  5
9CA3
  8
AM_0
 10
407.9893596916956
 20
93.421625107905129
 30
0.0
 70
    32
  0
VERTEX
  5
9CA4
  8
AM_0
 10
407.99435969169559
 20
93.420425107904933
 30
0.0
 70
    32
  0
VERTEX
  5
9CA5
  8
AM_0
 10
407.99835969169561
 20
93.419225107904822
 30
0.0
 70
    32
  0
VERTEX
  5
9CA6
  8
AM_0
 10
408.00235969169569
 20
93.418025107905123
 30
0.0
 70
    32
  0
VERTEX
  5
9CA7
  8
AM_0
 10
408.00635969169559
 20
93.416825107904927
 30
0.0
 70
    32
  0
VERTEX
  5
9CA8
  8
AM_0
 10
408.01035969169573
 20
93.415625107904788
 30
0.0
 70
    32
  0
VERTEX
  5
9CA9
  8
AM_0
 10
408.01535969169561
 20
93.414425107905046
 30
0.0
 70
    32
  0
VERTEX
  5
9CAA
  8
AM_0
 10
408.0193596916958
 20
93.413325107904683
 30
0.0
 70
    32
  0
VERTEX
  5
9CAB
  8
AM_0
 10
408.0233596916957
 20
93.41212510790487
 30
0.0
 70
    32
  0
VERTEX
  5
9CAC
  8
AM_0
 10
408.02735969169572
 20
93.410925107904944
 30
0.0
 70
    32
  0
VERTEX
  5
9CAD
  8
AM_0
 10
408.03135969169568
 20
93.409825107905007
 30
0.0
 70
    32
  0
VERTEX
  5
9CAE
  8
AM_0
 10
408.03535969169542
 20
93.408625107904953
 30
0.0
 70
    32
  0
VERTEX
  5
9CAF
  8
AM_0
 10
408.04035969169558
 20
93.407525107904803
 30
0.0
 70
    32
  0
VERTEX
  5
9CB0
  8
AM_0
 10
408.04435969169532
 20
93.406325107905104
 30
0.0
 70
    32
  0
VERTEX
  5
9CB1
  8
AM_0
 10
408.04835969169568
 20
93.405225107904684
 30
0.0
 70
    32
  0
VERTEX
  5
9CB2
  8
AM_0
 10
408.05235969169559
 20
93.404025107904815
 30
0.0
 70
    32
  0
VERTEX
  5
9CB3
  8
AM_0
 10
408.05635969169572
 20
93.402925107904792
 30
0.0
 70
    32
  0
VERTEX
  5
9CB4
  8
AM_0
 10
408.06135969169537
 20
93.401825107905012
 30
0.0
 70
    32
  0
VERTEX
  5
9CB5
  8
AM_0
 10
408.06535969169562
 20
93.400725107904904
 30
0.0
 70
    32
  0
VERTEX
  5
9CB6
  8
AM_0
 10
408.06935969169552
 20
93.399525107904836
 30
0.0
 70
    32
  0
VERTEX
  5
9CB7
  8
AM_0
 10
408.07335969169571
 20
93.398425107904757
 30
0.0
 70
    32
  0
VERTEX
  5
9CB8
  8
AM_0
 10
408.07735969169579
 20
93.397325107905061
 30
0.0
 70
    32
  0
VERTEX
  5
9CB9
  8
AM_0
 10
408.08235969169561
 20
93.396225107904854
 30
0.0
 70
    32
  0
VERTEX
  5
9CBA
  8
AM_0
 10
408.08635969169592
 20
93.395125107904931
 30
0.0
 70
    32
  0
VERTEX
  5
9CBB
  8
AM_0
 10
408.0903596916956
 20
93.394025107904767
 30
0.0
 70
    32
  0
VERTEX
  5
9CBC
  8
AM_0
 10
408.09435969169567
 20
93.392925107904915
 30
0.0
 70
    32
  0
VERTEX
  5
9CBD
  8
AM_0
 10
408.09935969169572
 20
93.391925107905095
 30
0.0
 70
    32
  0
VERTEX
  5
9CBE
  8
AM_0
 10
408.10335969169557
 20
93.390825107904931
 30
0.0
 70
    32
  0
VERTEX
  5
9CBF
  8
AM_0
 10
408.10735969169559
 20
93.389725107904965
 30
0.0
 70
    32
  0
VERTEX
  5
9CC0
  8
AM_0
 10
408.11135969169561
 20
93.388625107904744
 30
0.0
 70
    32
  0
VERTEX
  5
9CC1
  8
AM_0
 10
408.11535969169591
 20
93.387625107904753
 30
0.0
 70
    32
  0
VERTEX
  5
9CC2
  8
AM_0
 10
408.12035969169563
 20
93.386525107905086
 30
0.0
 70
    32
  0
VERTEX
  5
9CC3
  8
AM_0
 10
408.12435969169587
 20
93.385525107904925
 30
0.0
 70
    32
  0
VERTEX
  5
9CC4
  8
AM_0
 10
408.12835969169572
 20
93.384425107904903
 30
0.0
 70
    32
  0
VERTEX
  5
9CC5
  8
AM_0
 10
408.13235969169568
 20
93.383425107904955
 30
0.0
 70
    32
  0
VERTEX
  5
9CC6
  8
AM_0
 10
408.1363596916957
 20
93.382325107904762
 30
0.0
 70
    32
  0
VERTEX
  5
9CC7
  8
AM_0
 10
408.1413596916957
 20
93.381325107904757
 30
0.0
 70
    32
  0
VERTEX
  5
9CC8
  8
AM_0
 10
408.14535969169572
 20
93.380325107904852
 30
0.0
 70
    32
  0
VERTEX
  5
9CC9
  8
AM_0
 10
408.14935969169568
 20
93.379225107904929
 30
0.0
 70
    32
  0
VERTEX
  5
9CCA
  8
AM_0
 10
408.15335969169593
 20
93.378225107904839
 30
0.0
 70
    32
  0
VERTEX
  5
9CCB
  8
AM_0
 10
408.15835969169558
 20
93.377225107904877
 30
0.0
 70
    32
  0
VERTEX
  5
9CCC
  8
AM_0
 10
408.16235969169583
 20
93.376225107904929
 30
0.0
 70
    32
  0
VERTEX
  5
9CCD
  8
AM_0
 10
408.16635969169528
 20
93.375225107905194
 30
0.0
 70
    32
  0
VERTEX
  5
9CCE
  8
AM_0
 10
408.17035969169558
 20
93.374225107904735
 30
0.0
 70
    32
  0
VERTEX
  5
9CCF
  8
AM_0
 10
408.1743596916956
 20
93.373225107904759
 30
0.0
 70
    32
  0
VERTEX
  5
9CD0
  8
AM_0
 10
408.17935969169559
 20
93.372225107904839
 30
0.0
 70
    32
  0
VERTEX
  5
9CD1
  8
AM_0
 10
408.1833596916955
 20
93.371225107905005
 30
0.0
 70
    32
  0
VERTEX
  5
9CD2
  8
AM_0
 10
408.1873596916958
 20
93.370225107904929
 30
0.0
 70
    32
  0
VERTEX
  5
9CD3
  8
AM_0
 10
408.19135969169588
 20
93.369325107904928
 30
0.0
 70
    32
  0
VERTEX
  5
9CD4
  8
AM_0
 10
408.19635969169559
 20
93.368325107904838
 30
0.0
 70
    32
  0
VERTEX
  5
9CD5
  8
AM_0
 10
408.20035969169572
 20
93.367325107904875
 30
0.0
 70
    32
  0
VERTEX
  5
9CD6
  8
AM_0
 10
408.2043596916958
 20
93.366425107904874
 30
0.0
 70
    32
  0
VERTEX
  5
9CD7
  8
AM_0
 10
408.20835969169519
 20
93.365425107905011
 30
0.0
 70
    32
  0
VERTEX
  5
9CD8
  8
AM_0
 10
408.21335969169519
 20
93.364425107905177
 30
0.0
 70
    32
  0
VERTEX
  5
9CD9
  8
AM_0
 10
408.21735969169572
 20
93.363525107905176
 30
0.0
 70
    32
  0
VERTEX
  5
9CDA
  8
AM_0
 10
408.22135969169568
 20
93.362525107904716
 30
0.0
 70
    32
  0
VERTEX
  5
9CDB
  8
AM_0
 10
408.22535969169559
 20
93.361625107904715
 30
0.0
 70
    32
  0
VERTEX
  5
9CDC
  8
AM_0
 10
408.23035969169541
 20
93.360725107904713
 30
0.0
 70
    32
  0
VERTEX
  5
9CDD
  8
AM_0
 10
408.23435969169572
 20
93.359725107904964
 30
0.0
 70
    32
  0
VERTEX
  5
9CDE
  8
AM_0
 10
408.23835969169568
 20
93.358825107904948
 30
0.0
 70
    32
  0
VERTEX
  5
9CDF
  8
AM_0
 10
408.24235969169558
 20
93.357925107904933
 30
0.0
 70
    32
  0
VERTEX
  5
9CE0
  8
AM_0
 10
408.24735969169558
 20
93.357025107904931
 30
0.0
 70
    32
  0
VERTEX
  5
9CE1
  8
AM_0
 10
408.25135969169582
 20
93.35612510790493
 30
0.0
 70
    32
  0
VERTEX
  5
9CE2
  8
AM_0
 10
408.25535969169562
 20
93.355225107904957
 30
0.0
 70
    32
  0
VERTEX
  5
9CE3
  8
AM_0
 10
408.25935969169558
 20
93.354325107904955
 30
0.0
 70
    32
  0
VERTEX
  5
9CE4
  8
AM_0
 10
408.26435969169557
 20
93.353425107904954
 30
0.0
 70
    32
  0
VERTEX
  5
9CE5
  8
AM_0
 10
408.26835969169571
 20
93.352525107904924
 30
0.0
 70
    32
  0
VERTEX
  5
9CE6
  8
AM_0
 10
408.27235969169573
 20
93.351625107904937
 30
0.0
 70
    32
  0
VERTEX
  5
9CE7
  8
AM_0
 10
408.27635969169592
 20
93.350725107904935
 30
0.0
 70
    32
  0
VERTEX
  5
9CE8
  8
AM_0
 10
408.28135969169563
 20
93.349825107904934
 30
0.0
 70
    32
  0
VERTEX
  5
9CE9
  8
AM_0
 10
408.28535969169542
 20
93.348925107904947
 30
0.0
 70
    32
  0
VERTEX
  5
9CEA
  8
AM_0
 10
408.28935969169572
 20
93.348125107904679
 30
0.0
 70
    32
  0
VERTEX
  5
9CEB
  8
AM_0
 10
408.29335969169563
 20
93.347225107904706
 30
0.0
 70
    32
  0
VERTEX
  5
9CEC
  8
AM_0
 10
408.29835969169591
 20
93.346325107904704
 30
0.0
 70
    32
  0
VERTEX
  5
9CED
  8
AM_0
 10
408.30235969169581
 20
93.345525107905146
 30
0.0
 70
    32
  0
VERTEX
  5
9CEE
  8
AM_0
 10
408.30635969169538
 20
93.344625107905145
 30
0.0
 70
    32
  0
VERTEX
  5
9CEF
  8
AM_0
 10
408.31035969169562
 20
93.343825107905005
 30
0.0
 70
    32
  0
VERTEX
  5
9CF0
  8
AM_0
 10
408.31535969169568
 20
93.342925107905003
 30
0.0
 70
    32
  0
VERTEX
  5
9CF1
  8
AM_0
 10
408.31935969169569
 20
93.342125107904835
 30
0.0
 70
    32
  0
VERTEX
  5
9CF2
  8
AM_0
 10
408.32335969169532
 20
93.341225107904833
 30
0.0
 70
    32
  0
VERTEX
  5
9CF3
  8
AM_0
 10
408.32735969169568
 20
93.340425107904807
 30
0.0
 70
    32
  0
VERTEX
  5
9CF4
  8
AM_0
 10
408.3323596916955
 20
93.33962510790488
 30
0.0
 70
    32
  0
VERTEX
  5
9CF5
  8
AM_0
 10
408.33635969169569
 20
93.338825107904995
 30
0.0
 70
    32
  0
VERTEX
  5
9CF6
  8
AM_0
 10
408.3403596916956
 20
93.337925107904994
 30
0.0
 70
    32
  0
VERTEX
  5
9CF7
  8
AM_0
 10
408.34535969169582
 20
93.337125107904825
 30
0.0
 70
    32
  0
VERTEX
  5
9CF8
  8
AM_0
 10
408.34935969169572
 20
93.336325107904926
 30
0.0
 70
    32
  0
VERTEX
  5
9CF9
  8
AM_0
 10
408.35335969169552
 20
93.335525107905013
 30
0.0
 70
    32
  0
VERTEX
  5
9CFA
  8
AM_0
 10
408.35735969169571
 20
93.334725107905086
 30
0.0
 70
    32
  0
VERTEX
  5
9CFB
  8
AM_0
 10
408.36235969169559
 20
93.333925107904946
 30
0.0
 70
    32
  0
VERTEX
  5
9CFC
  8
AM_0
 10
408.36635969169572
 20
93.333125107904792
 30
0.0
 70
    32
  0
VERTEX
  5
9CFD
  8
AM_0
 10
408.37035969169563
 20
93.332325107904779
 30
0.0
 70
    32
  0
VERTEX
  5
9CFE
  8
AM_0
 10
408.37435969169587
 20
93.331525107904852
 30
0.0
 70
    32
  0
VERTEX
  5
9CFF
  8
AM_0
 10
408.37935969169558
 20
93.330725107905053
 30
0.0
 70
    32
  0
VERTEX
  5
9D00
  8
AM_0
 10
408.38335969169572
 20
93.33002510790493
 30
0.0
 70
    32
  0
VERTEX
  5
9D01
  8
AM_0
 10
408.38735969169579
 20
93.329225107905003
 30
0.0
 70
    32
  0
VERTEX
  5
9D02
  8
AM_0
 10
408.39235969169579
 20
93.328425107905105
 30
0.0
 70
    32
  0
VERTEX
  5
9D03
  8
AM_0
 10
408.39635969169569
 20
93.327625107904936
 30
0.0
 70
    32
  0
VERTEX
  5
9D04
  8
AM_0
 10
408.4003596916956
 20
93.326925107904785
 30
0.0
 70
    32
  0
VERTEX
  5
9D05
  8
AM_0
 10
408.40435969169567
 20
93.326125107904886
 30
0.0
 70
    32
  0
VERTEX
  5
9D06
  8
AM_0
 10
408.40935969169561
 20
93.325425107904763
 30
0.0
 70
    32
  0
VERTEX
  5
9D07
  8
AM_0
 10
408.4133596916958
 20
93.324625107904936
 30
0.0
 70
    32
  0
VERTEX
  5
9D08
  8
AM_0
 10
408.41735969169571
 20
93.323925107905012
 30
0.0
 70
    32
  0
VERTEX
  5
9D09
  8
AM_0
 10
408.4223596916957
 20
93.323125107904914
 30
0.0
 70
    32
  0
VERTEX
  5
9D0A
  8
AM_0
 10
408.42635969169572
 20
93.322425107904792
 30
0.0
 70
    32
  0
VERTEX
  5
9D0B
  8
AM_0
 10
408.43035969169563
 20
93.321725107905067
 30
0.0
 70
    32
  0
VERTEX
  5
9D0C
  8
AM_0
 10
408.4343596916957
 20
93.320925107904785
 30
0.0
 70
    32
  0
VERTEX
  5
9D0D
  8
AM_0
 10
408.4393596916957
 20
93.320225107904989
 30
0.0
 70
    32
  0
VERTEX
  5
9D0E
  8
AM_0
 10
408.44335969169572
 20
93.319525107904951
 30
0.0
 70
    32
  0
VERTEX
  5
9D0F
  8
AM_0
 10
408.44735969169568
 20
93.318825107904757
 30
0.0
 70
    32
  0
VERTEX
  5
9D10
  8
AM_0
 10
408.45235969169568
 20
93.31802510790483
 30
0.0
 70
    32
  0
VERTEX
  5
9D11
  8
AM_0
 10
408.45635969169558
 20
93.317325107904779
 30
0.0
 70
    32
  0
VERTEX
  5
9D12
  8
AM_0
 10
408.46035969169571
 20
93.316625107905011
 30
0.0
 70
    32
  0
VERTEX
  5
9D13
  8
AM_0
 10
408.46435969169562
 20
93.315925107904931
 30
0.0
 70
    32
  0
VERTEX
  5
9D14
  8
AM_0
 10
408.46935969169562
 20
93.31522510790478
 30
0.0
 70
    32
  0
VERTEX
  5
9D15
  8
AM_0
 10
408.47335969169558
 20
93.314525107905084
 30
0.0
 70
    32
  0
VERTEX
  5
9D16
  8
AM_0
 10
408.4773596916956
 20
93.313825107904904
 30
0.0
 70
    32
  0
VERTEX
  5
9D17
  8
AM_0
 10
408.48235969169559
 20
93.313225107904927
 30
0.0
 70
    32
  0
VERTEX
  5
9D18
  8
AM_0
 10
408.48635969169561
 20
93.312525107904733
 30
0.0
 70
    32
  0
VERTEX
  5
9D19
  8
AM_0
 10
408.49035969169591
 20
93.311825107905051
 30
0.0
 70
    32
  0
VERTEX
  5
9D1A
  8
AM_0
 10
408.49435969169559
 20
93.311125107904886
 30
0.0
 70
    32
  0
VERTEX
  5
9D1B
  8
AM_0
 10
408.49935969169587
 20
93.310425107905075
 30
0.0
 70
    32
  0
VERTEX
  5
9D1C
  8
AM_0
 10
408.50335969169561
 20
93.309825107904743
 30
0.0
 70
    32
  0
VERTEX
  5
9D1D
  8
AM_0
 10
408.50735969169568
 20
93.309125107905061
 30
0.0
 70
    32
  0
VERTEX
  5
9D1E
  8
AM_0
 10
408.51235969169568
 20
93.308525107904984
 30
0.0
 70
    32
  0
VERTEX
  5
9D1F
  8
AM_0
 10
408.5163596916957
 20
93.307825107904875
 30
0.0
 70
    32
  0
VERTEX
  5
9D20
  8
AM_0
 10
408.52035969169538
 20
93.307125107904739
 30
0.0
 70
    32
  0
VERTEX
  5
9D21
  8
AM_0
 10
408.52435969169568
 20
93.306525107904903
 30
0.0
 70
    32
  0
VERTEX
  5
9D22
  8
AM_0
 10
408.52935969169567
 20
93.30592510790504
 30
0.0
 70
    32
  0
VERTEX
  5
9D23
  8
AM_0
 10
408.53335969169569
 20
93.305225107904761
 30
0.0
 70
    32
  0
VERTEX
  5
9D24
  8
AM_0
 10
408.5373596916956
 20
93.304625107905025
 30
0.0
 70
    32
  0
VERTEX
  5
9D25
  8
AM_0
 10
408.54235969169571
 20
93.303925107904874
 30
0.0
 70
    32
  0
VERTEX
  5
9D26
  8
AM_0
 10
408.54635969169573
 20
93.303325107904854
 30
0.0
 70
    32
  0
VERTEX
  5
9D27
  8
AM_0
 10
408.55035969169552
 20
93.302725107904834
 30
0.0
 70
    32
  0
VERTEX
  5
9D28
  8
AM_0
 10
408.55535969169563
 20
93.302125107904828
 30
0.0
 70
    32
  0
VERTEX
  5
9D29
  8
AM_0
 10
408.5593596916957
 20
93.301525107904894
 30
0.0
 70
    32
  0
VERTEX
  5
9D2A
  8
AM_0
 10
408.56335969169572
 20
93.300825107905041
 30
0.0
 70
    32
  0
VERTEX
  5
9D2B
  8
AM_0
 10
408.56835969169572
 20
93.300225107904893
 30
0.0
 70
    32
  0
VERTEX
  5
9D2C
  8
AM_0
 10
408.57235969169568
 20
93.299625107905058
 30
0.0
 70
    32
  0
VERTEX
  5
9D2D
  8
AM_0
 10
408.57635969169559
 20
93.299025107905067
 30
0.0
 70
    32
  0
VERTEX
  5
9D2E
  8
AM_0
 10
408.58035969169572
 20
93.298425107904905
 30
0.0
 70
    32
  0
VERTEX
  5
9D2F
  8
AM_0
 10
408.5853596916956
 20
93.297825107905012
 30
0.0
 70
    32
  0
VERTEX
  5
9D30
  8
AM_0
 10
408.58935969169568
 20
93.297225107905064
 30
0.0
 70
    32
  0
VERTEX
  5
9D31
  8
AM_0
 10
408.59335969169592
 20
93.296625107904873
 30
0.0
 70
    32
  0
VERTEX
  5
9D32
  8
AM_0
 10
408.5983596916958
 20
93.296125107904928
 30
0.0
 70
    32
  0
VERTEX
  5
9D33
  8
AM_0
 10
408.60235969169571
 20
93.295525107904794
 30
0.0
 70
    32
  0
VERTEX
  5
9D34
  8
AM_0
 10
408.60635969169562
 20
93.294925107904874
 30
0.0
 70
    32
  0
VERTEX
  5
9D35
  8
AM_0
 10
408.61135969169572
 20
93.294325107904925
 30
0.0
 70
    32
  0
VERTEX
  5
9D36
  8
AM_0
 10
408.6153596916958
 20
93.29382510790505
 30
0.0
 70
    32
  0
VERTEX
  5
9D37
  8
AM_0
 10
408.61935969169571
 20
93.293225107904931
 30
0.0
 70
    32
  0
VERTEX
  5
9D38
  8
AM_0
 10
408.62335969169573
 20
93.292625107904755
 30
0.0
 70
    32
  0
VERTEX
  5
9D39
  8
AM_0
 10
408.62835969169572
 20
93.292125107904852
 30
0.0
 70
    32
  0
VERTEX
  5
9D3A
  8
AM_0
 10
408.63235969169563
 20
93.291525107905045
 30
0.0
 70
    32
  0
VERTEX
  5
9D3B
  8
AM_0
 10
408.6363596916957
 20
93.291025107904744
 30
0.0
 70
    32
  0
VERTEX
  5
9D3C
  8
AM_0
 10
408.6413596916957
 20
93.290425107904838
 30
0.0
 70
    32
  0
VERTEX
  5
9D3D
  8
AM_0
 10
408.64535969169577
 20
93.289925107904764
 30
0.0
 70
    32
  0
VERTEX
  5
9D3E
  8
AM_0
 10
408.64935969169562
 20
93.289425107904876
 30
0.0
 70
    32
  0
VERTEX
  5
9D3F
  8
AM_0
 10
408.65435969169528
 20
93.288825107905055
 30
0.0
 70
    32
  0
VERTEX
  5
9D40
  8
AM_0
 10
408.65835969169558
 20
93.288325107904797
 30
0.0
 70
    32
  0
VERTEX
  5
9D41
  8
AM_0
 10
408.66235969169571
 20
93.287825107904936
 30
0.0
 70
    32
  0
VERTEX
  5
9D42
  8
AM_0
 10
408.66735969169559
 20
93.287225107904717
 30
0.0
 70
    32
  0
VERTEX
  5
9D43
  8
AM_0
 10
408.67135969169578
 20
93.286725107904815
 30
0.0
 70
    32
  0
VERTEX
  5
9D44
  8
AM_0
 10
408.6753596916958
 20
93.286225107904841
 30
0.0
 70
    32
  0
VERTEX
  5
9D45
  8
AM_0
 10
408.68035969169563
 20
93.285725107904995
 30
0.0
 70
    32
  0
VERTEX
  5
9D46
  8
AM_0
 10
408.68435969169559
 20
93.285225107905035
 30
0.0
 70
    32
  0
VERTEX
  5
9D47
  8
AM_0
 10
408.68835969169572
 20
93.284725107904791
 30
0.0
 70
    32
  0
VERTEX
  5
9D48
  8
AM_0
 10
408.6933596916956
 20
93.284225107904945
 30
0.0
 70
    32
  0
VERTEX
  5
9D49
  8
AM_0
 10
408.69735969169568
 20
93.283725107905042
 30
0.0
 70
    32
  0
VERTEX
  5
9D4A
  8
AM_0
 10
408.70135969169559
 20
93.283225107904798
 30
0.0
 70
    32
  0
VERTEX
  5
9D4B
  8
AM_0
 10
408.70535969169572
 20
93.282725107904724
 30
0.0
 70
    32
  0
VERTEX
  5
9D4C
  8
AM_0
 10
408.71035969169537
 20
93.282225107904836
 30
0.0
 70
    32
  0
VERTEX
  5
9D4D
  8
AM_0
 10
408.71435969169562
 20
93.281825107904723
 30
0.0
 70
    32
  0
VERTEX
  5
9D4E
  8
AM_0
 10
408.71835969169581
 20
93.281325107904877
 30
0.0
 70
    32
  0
VERTEX
  5
9D4F
  8
AM_0
 10
408.72335969169569
 20
93.280825107904917
 30
0.0
 70
    32
  0
VERTEX
  5
9D50
  8
AM_0
 10
408.7273596916956
 20
93.280425107904875
 30
0.0
 70
    32
  0
VERTEX
  5
9D51
  8
AM_0
 10
408.73135969169567
 20
93.279925107904873
 30
0.0
 70
    32
  0
VERTEX
  5
9D52
  8
AM_0
 10
408.73635969169572
 20
93.279425107905013
 30
0.0
 70
    32
  0
VERTEX
  5
9D53
  8
AM_0
 10
408.74035969169591
 20
93.279025107904872
 30
0.0
 70
    32
  0
VERTEX
  5
9D54
  8
AM_0
 10
408.74435969169582
 20
93.27862510790483
 30
0.0
 70
    32
  0
VERTEX
  5
9D55
  8
AM_0
 10
408.74935969169587
 20
93.27812510790487
 30
0.0
 70
    32
  0
VERTEX
  5
9D56
  8
AM_0
 10
408.75335969169578
 20
93.277725107904828
 30
0.0
 70
    32
  0
VERTEX
  5
9D57
  8
AM_0
 10
408.75735969169563
 20
93.277225107904854
 30
0.0
 70
    32
  0
VERTEX
  5
9D58
  8
AM_0
 10
408.76235969169562
 20
93.276825107904841
 30
0.0
 70
    32
  0
VERTEX
  5
9D59
  8
AM_0
 10
408.76635969169558
 20
93.276425107904714
 30
0.0
 70
    32
  0
VERTEX
  5
9D5A
  8
AM_0
 10
408.77035969169572
 20
93.2760251079048
 30
0.0
 70
    32
  0
VERTEX
  5
9D5B
  8
AM_0
 10
408.7753596916956
 20
93.275525107904727
 30
0.0
 70
    32
  0
VERTEX
  5
9D5C
  8
AM_0
 10
408.77935969169579
 20
93.275125107904842
 30
0.0
 70
    32
  0
VERTEX
  5
9D5D
  8
AM_0
 10
408.78335969169581
 20
93.274725107905013
 30
0.0
 70
    32
  0
VERTEX
  5
9D5E
  8
AM_0
 10
408.78835969169592
 20
93.274325107904914
 30
0.0
 70
    32
  0
VERTEX
  5
9D5F
  8
AM_0
 10
408.79235969169559
 20
93.273925107905157
 30
0.0
 70
    32
  0
VERTEX
  5
9D60
  8
AM_0
 10
408.79635969169561
 20
93.273525107905002
 30
0.0
 70
    32
  0
VERTEX
  5
9D61
  8
AM_0
 10
408.8013596916955
 20
93.273125107905003
 30
0.0
 70
    32
  0
VERTEX
  5
9D62
  8
AM_0
 10
408.80535969169568
 20
93.272825107904737
 30
0.0
 70
    32
  0
VERTEX
  5
9D63
  8
AM_0
 10
408.8093596916957
 20
93.27242510790478
 30
0.0
 70
    32
  0
VERTEX
  5
9D64
  8
AM_0
 10
408.81435969169542
 20
93.272025107905037
 30
0.0
 70
    32
  0
VERTEX
  5
9D65
  8
AM_0
 10
408.81835969169572
 20
93.271625107904839
 30
0.0
 70
    32
  0
VERTEX
  5
9D66
  8
AM_0
 10
408.82235969169568
 20
93.271325107905
 30
0.0
 70
    32
  0
VERTEX
  5
9D67
  8
AM_0
 10
408.82735969169568
 20
93.270925107904986
 30
0.0
 70
    32
  0
VERTEX
  5
9D68
  8
AM_0
 10
408.8313596916957
 20
93.270525107904831
 30
0.0
 70
    32
  0
VERTEX
  5
9D69
  8
AM_0
 10
408.8353596916956
 20
93.270225107905034
 30
0.0
 70
    32
  0
VERTEX
  5
9D6A
  8
AM_0
 10
408.84035969169571
 20
93.269825107904907
 30
0.0
 70
    32
  0
VERTEX
  5
9D6B
  8
AM_0
 10
408.84435969169562
 20
93.269525107905011
 30
0.0
 70
    32
  0
VERTEX
  5
9D6C
  8
AM_0
 10
408.84835969169558
 20
93.269225107904717
 30
0.0
 70
    32
  0
VERTEX
  5
9D6D
  8
AM_0
 10
408.85335969169557
 20
93.268825107904803
 30
0.0
 70
    32
  0
VERTEX
  5
9D6E
  8
AM_0
 10
408.85735969169559
 20
93.26852510790512
 30
0.0
 70
    32
  0
VERTEX
  5
9D6F
  8
AM_0
 10
408.86135969169572
 20
93.268225107904925
 30
0.0
 70
    32
  0
VERTEX
  5
9D70
  8
AM_0
 10
408.86635969169578
 20
93.267925107904816
 30
0.0
 70
    32
  0
VERTEX
  5
9D71
  8
AM_0
 10
408.87035969169563
 20
93.267525107905044
 30
0.0
 70
    32
  0
VERTEX
  5
9D72
  8
AM_0
 10
408.87435969169587
 20
93.267225107905006
 30
0.0
 70
    32
  0
VERTEX
  5
9D73
  8
AM_0
 10
408.87935969169558
 20
93.266925107904854
 30
0.0
 70
    32
  0
VERTEX
  5
9D74
  8
AM_0
 10
408.8833596916956
 20
93.266625107905
 30
0.0
 70
    32
  0
VERTEX
  5
9D75
  8
AM_0
 10
408.88735969169568
 20
93.266325107905004
 30
0.0
 70
    32
  0
VERTEX
  5
9D76
  8
AM_0
 10
408.89235969169567
 20
93.266025107904795
 30
0.0
 70
    32
  0
VERTEX
  5
9D77
  8
AM_0
 10
408.89635969169581
 20
93.265725107905013
 30
0.0
 70
    32
  0
VERTEX
  5
9D78
  8
AM_0
 10
408.90035969169571
 20
93.265425107905017
 30
0.0
 70
    32
  0
VERTEX
  5
9D79
  8
AM_0
 10
408.90535969169571
 20
93.265125107904794
 30
0.0
 70
    32
  0
VERTEX
  5
9D7A
  8
AM_0
 10
408.90935969169573
 20
93.264925107905114
 30
0.0
 70
    32
  0
VERTEX
  5
9D7B
  8
AM_0
 10
408.91335969169569
 20
93.264625107904948
 30
0.0
 70
    32
  0
VERTEX
  5
9D7C
  8
AM_0
 10
408.91835969169563
 20
93.264325107904796
 30
0.0
 70
    32
  0
VERTEX
  5
9D7D
  8
AM_0
 10
408.92235969169559
 20
93.264025107905127
 30
0.0
 70
    32
  0
VERTEX
  5
9D7E
  8
AM_0
 10
408.92635969169572
 20
93.263825107904665
 30
0.0
 70
    32
  0
VERTEX
  5
9D7F
  8
AM_0
 10
408.93135969169572
 20
93.263525107904869
 30
0.0
 70
    32
  0
VERTEX
  5
9D80
  8
AM_0
 10
408.9353596916954
 20
93.263325107904834
 30
0.0
 70
    32
  0
VERTEX
  5
9D81
  8
AM_0
 10
408.93935969169559
 20
93.263025107905051
 30
0.0
 70
    32
  0
VERTEX
  5
9D82
  8
AM_0
 10
408.94435969169558
 20
93.262825107904931
 30
0.0
 70
    32
  0
VERTEX
  5
9D83
  8
AM_0
 10
408.94835969169571
 20
93.262525107904807
 30
0.0
 70
    32
  0
VERTEX
  5
9D84
  8
AM_0
 10
408.95235969169579
 20
93.262325107904985
 30
0.0
 70
    32
  0
VERTEX
  5
9D85
  8
AM_0
 10
408.95735969169561
 20
93.262025107904677
 30
0.0
 70
    32
  0
VERTEX
  5
9D86
  8
AM_0
 10
408.96135969169592
 20
93.261825107904997
 30
0.0
 70
    32
  0
VERTEX
  5
9D87
  8
AM_0
 10
408.9653596916956
 20
93.261625107904806
 30
0.0
 70
    32
  0
VERTEX
  5
9D88
  8
AM_0
 10
408.97035969169559
 20
93.261425107904984
 30
0.0
 70
    32
  0
VERTEX
  5
9D89
  8
AM_0
 10
408.97435969169572
 20
93.261125107904675
 30
0.0
 70
    32
  0
VERTEX
  5
9D8A
  8
AM_0
 10
408.97835969169569
 20
93.260925107904995
 30
0.0
 70
    32
  0
VERTEX
  5
9D8B
  8
AM_0
 10
408.98335969169568
 20
93.260725107904804
 30
0.0
 70
    32
  0
VERTEX
  5
9D8C
  8
AM_0
 10
408.9873596916953
 20
93.260525107904925
 30
0.0
 70
    32
  0
VERTEX
  5
9D8D
  8
AM_0
 10
408.99135969169561
 20
93.260325107905004
 30
0.0
 70
    32
  0
VERTEX
  5
9D8E
  8
AM_0
 10
408.99635969169572
 20
93.260125107904955
 30
0.0
 70
    32
  0
VERTEX
  5
9D8F
  8
AM_0
 10
409.00035969169562
 20
93.259925107904877
 30
0.0
 70
    32
  0
VERTEX
  5
9D90
  8
AM_0
 10
409.00435969169581
 20
93.259725107904757
 30
0.0
 70
    32
  0
VERTEX
  5
9D91
  8
AM_0
 10
409.00935969169541
 20
93.259525107905077
 30
0.0
 70
    32
  0
VERTEX
  5
9D92
  8
AM_0
 10
409.01335969169571
 20
93.259325107904687
 30
0.0
 70
    32
  0
VERTEX
  5
9D93
  8
AM_0
 10
409.0173596916955
 20
93.259125107905007
 30
0.0
 70
    32
  0
VERTEX
  5
9D94
  8
AM_0
 10
409.02235969169573
 20
93.258925107904773
 30
0.0
 70
    32
  0
VERTEX
  5
9D95
  8
AM_0
 10
409.02635969169592
 20
93.258725107904937
 30
0.0
 70
    32
  0
VERTEX
  5
9D96
  8
AM_0
 10
409.03035969169571
 20
93.258625107905047
 30
0.0
 70
    32
  0
VERTEX
  5
9D97
  8
AM_0
 10
409.03535969169559
 20
93.258425107904685
 30
0.0
 70
    32
  0
VERTEX
  5
9D98
  8
AM_0
 10
409.03935969169578
 20
93.258225107905005
 30
0.0
 70
    32
  0
VERTEX
  5
9D99
  8
AM_0
 10
409.04435969169572
 20
93.258125107904874
 30
0.0
 70
    32
  0
VERTEX
  5
9D9A
  8
AM_0
 10
409.04835969169562
 20
93.257925107904782
 30
0.0
 70
    32
  0
VERTEX
  5
9D9B
  8
AM_0
 10
409.05235969169559
 20
93.257725107905088
 30
0.0
 70
    32
  0
VERTEX
  5
9D9C
  8
AM_0
 10
409.05735969169592
 20
93.257625107905
 30
0.0
 70
    32
  0
VERTEX
  5
9D9D
  8
AM_0
 10
409.06135969169571
 20
93.257425107904936
 30
0.0
 70
    32
  0
VERTEX
  5
9D9E
  8
AM_0
 10
409.06535969169562
 20
93.257325107905004
 30
0.0
 70
    32
  0
VERTEX
  5
9D9F
  8
AM_0
 10
409.07035969169578
 20
93.257125107904784
 30
0.0
 70
    32
  0
VERTEX
  5
9DA0
  8
AM_0
 10
409.07435969169558
 20
93.257025107904809
 30
0.0
 70
    32
  0
VERTEX
  5
9DA1
  8
AM_0
 10
409.0783596916956
 20
93.256925107904934
 30
0.0
 70
    32
  0
VERTEX
  5
9DA2
  8
AM_0
 10
409.08335969169559
 20
93.256725107905027
 30
0.0
 70
    32
  0
VERTEX
  5
9DA3
  8
AM_0
 10
409.08735969169561
 20
93.256625107904682
 30
0.0
 70
    32
  0
VERTEX
  5
9DA4
  8
AM_0
 10
409.09135969169569
 20
93.256525107904949
 30
0.0
 70
    32
  0
VERTEX
  5
9DA5
  8
AM_0
 10
409.0963596916954
 20
93.256425107904988
 30
0.0
 70
    32
  0
VERTEX
  5
9DA6
  8
AM_0
 10
409.1003596916957
 20
93.256325107904871
 30
0.0
 70
    32
  0
VERTEX
  5
9DA7
  8
AM_0
 10
409.10435969169589
 20
93.256225107904797
 30
0.0
 70
    32
  0
VERTEX
  5
9DA8
  8
AM_0
 10
409.10935969169572
 20
93.256025107904946
 30
0.0
 70
    32
  0
VERTEX
  5
9DA9
  8
AM_0
 10
409.11335969169551
 20
93.255925107905114
 30
0.0
 70
    32
  0
VERTEX
  5
9DAA
  8
AM_0
 10
409.11735969169581
 20
93.255825107905025
 30
0.0
 70
    32
  0
VERTEX
  5
9DAB
  8
AM_0
 10
409.12235969169541
 20
93.255725107904681
 30
0.0
 70
    32
  0
VERTEX
  5
9DAC
  8
AM_0
 10
409.12635969169571
 20
93.255725107904681
 30
0.0
 70
    32
  0
VERTEX
  5
9DAD
  8
AM_0
 10
409.13035969169562
 20
93.255625107904933
 30
0.0
 70
    32
  0
VERTEX
  5
9DAE
  8
AM_0
 10
409.13535969169521
 20
93.255525107904987
 30
0.0
 70
    32
  0
VERTEX
  5
9DAF
  8
AM_0
 10
409.13935969169557
 20
93.25542510790487
 30
0.0
 70
    32
  0
VERTEX
  5
9DB0
  8
AM_0
 10
409.14335969169559
 20
93.255325107904795
 30
0.0
 70
    32
  0
VERTEX
  5
9DB1
  8
AM_0
 10
409.14835969169559
 20
93.255325107904795
 30
0.0
 70
    32
  0
VERTEX
  5
9DB2
  8
AM_0
 10
409.15235969169521
 20
93.255225107904792
 30
0.0
 70
    32
  0
VERTEX
  5
9DB3
  8
AM_0
 10
409.1563596916958
 20
93.255125107904945
 30
0.0
 70
    32
  0
VERTEX
  5
9DB4
  8
AM_0
 10
409.16135969169562
 20
93.255125107904945
 30
0.0
 70
    32
  0
VERTEX
  5
9DB5
  8
AM_0
 10
409.16535969169581
 20
93.255025107905126
 30
0.0
 70
    32
  0
VERTEX
  5
9DB6
  8
AM_0
 10
409.1703596916953
 20
93.254925107905024
 30
0.0
 70
    32
  0
VERTEX
  5
9DB7
  8
AM_0
 10
409.1743596916956
 20
93.254925107905024
 30
0.0
 70
    32
  0
VERTEX
  5
9DB8
  8
AM_0
 10
409.17835969169568
 20
93.254825107904679
 30
0.0
 70
    32
  0
VERTEX
  5
9DB9
  8
AM_0
 10
409.18335969169573
 20
93.254825107904679
 30
0.0
 70
    32
  0
VERTEX
  5
9DBA
  8
AM_0
 10
409.1873596916958
 20
93.254725107904932
 30
0.0
 70
    32
  0
VERTEX
  5
9DBB
  8
AM_0
 10
409.1913596916956
 20
93.254725107904932
 30
0.0
 70
    32
  0
VERTEX
  5
9DBC
  8
AM_0
 10
409.1963596916957
 20
93.254625107904985
 30
0.0
 70
    32
  0
VERTEX
  5
9DBD
  8
AM_0
 10
409.20035969169572
 20
93.254625107904985
 30
0.0
 70
    32
  0
VERTEX
  5
9DBE
  8
AM_0
 10
409.20435969169569
 20
93.254525107904854
 30
0.0
 70
    32
  0
VERTEX
  5
9DBF
  8
AM_0
 10
409.20935969169562
 20
93.254525107904854
 30
0.0
 70
    32
  0
VERTEX
  5
9DC0
  8
AM_0
 10
409.2133596916957
 20
93.254525107904854
 30
0.0
 70
    32
  0
VERTEX
  5
9DC1
  8
AM_0
 10
409.21735969169572
 20
93.254425107904794
 30
0.0
 70
    32
  0
VERTEX
  5
9DC2
  8
AM_0
 10
409.22235969169571
 20
93.254425107904794
 30
0.0
 70
    32
  0
VERTEX
  5
9DC3
  8
AM_0
 10
409.22635969169568
 20
93.254325107904791
 30
0.0
 70
    32
  0
VERTEX
  5
9DC4
  8
AM_0
 10
409.23035969169541
 20
93.254325107904791
 30
0.0
 70
    32
  0
VERTEX
  5
9DC5
  8
AM_0
 10
409.23535969169552
 20
93.254325107904791
 30
0.0
 70
    32
  0
VERTEX
  5
9DC6
  8
AM_0
 10
409.23935969169571
 20
93.254225107904944
 30
0.0
 70
    32
  0
SEQEND
  5
9DC7
  8
AM_0
  0
LINE
  5
9DC8
  8
AM_0
 10
419.73940675676971
 20
93.25425878584528
 30
0.0
 11
409.2394067567696
 21
93.25425878584528
 31
0.0
  0
ARC
  5
9DC9
  8
AM_0
 10
409.2394067567696
 20
85.484410304862521
 30
0.0
 40
2.5
 50
180.0
 51
270.0
  0
LINE
  5
9DCA
  8
AM_0
 10
406.73940675676971
 20
81.384410304861817
 30
0.0
 11
406.73940675676971
 21
85.484410304862436
 31
0.0
  0
ARC
  5
9DCB
  8
AM_0
 10
407.23940675676971
 20
81.38441030486193
 30
0.0
 40
0.5
 50
180.0
 51
270.0
  0
LINE
  5
9DCC
  8
AM_0
 10
409.2394067567696
 20
82.984410304862436
 30
0.0
 11
418.27440675676991
 21
82.984410304862436
 31
0.0
  0
ARC
  5
9DCD
  8
AM_0
 10
439.73940675676999
 20
142.3844103048603
 30
0.0
 40
1.0
 50
270.0
 51
0.0
  0
LINE
  5
9DCE
  8
AM_0
 10
443.73940675676971
 20
85.620009332871504
 30
0.0
 11
443.73940675676971
 21
150.38440030486171
 31
0.0
  0
LINE
  5
9DCF
  8
AM_0
 10
423.73940675676971
 20
141.38441030486041
 30
0.0
 11
423.73940675676971
 21
152.8844103048603
 31
0.0
  0
LINE
  5
9DD0
  8
AM_0
 10
423.73940675676971
 20
152.8844103048618
 30
0.0
 11
423.73940675676971
 21
122.3844103048618
 31
0.0
  0
ARC
  5
9DD1
  8
AM_0
 10
439.73940675676999
 20
151.8844103048601
 30
0.0
 40
0.9999999999998864
 50
0.0
 51
90.0
  0
LINE
  5
9DD2
  8
AM_0
 10
440.73940675676971
 20
150.38434951942099
 30
0.0
 11
443.73940675676971
 21
150.38434951942099
 31
0.0
  0
LINE
  5
9DD3
  8
AM_0
 10
423.73940675676971
 20
111.3844103048618
 30
0.0
 11
423.73940675676971
 21
80.884410304862044
 31
0.0
  0
LINE
  5
9DD4
  8
AM_0
 10
439.73940675676999
 20
141.38441030486041
 30
0.0
 11
423.73940675676971
 21
141.38441030486041
 31
0.0
  0
LINE
  5
9DD5
  8
AM_0
 10
434.02262031654192
 20
122.3844103048619
 30
0.0
 11
434.02262031654192
 21
111.3844103048618
 31
0.0
  0
LINE
  5
9DD6
  8
AM_0
 10
440.73940675676971
 20
81.884410304860225
 30
0.0
 11
440.73940675676971
 21
151.8844103048601
 31
0.0
  0
LINE
  5
9DD7
  8
AM_0
 10
423.73940675676971
 20
80.884410304860225
 30
0.0
 11
423.73940675676971
 21
92.38441030486031
 31
0.0
  0
LINE
  5
9DD8
  8
AM_0
 10
439.73940675676999
 20
92.38441030486031
 30
0.0
 11
423.73940675676971
 21
92.38441030486031
 31
0.0
  0
ARC
  5
9DD9
  8
AM_0
 10
439.73940675676999
 20
91.384410304860538
 30
0.0
 40
0.9999999999998864
 50
0.0
 51
90.0
  0
ARC
  5
9DDA
  8
AM_0
 10
439.73940675676999
 20
81.884410304860339
 30
0.0
 40
1.0
 50
270.0
 51
0.0
  0
LINE
  5
9DDB
  8
AM_0
 10
440.73940675676971
 20
83.384349519421093
 30
0.0
 11
443.48854349240167
 21
83.384349519421093
 31
0.0
  0
ARC
  5
AC62
  8
AM_0
 10
194.5332407567698
 20
333.52741430486208
 30
0.0
 40
1.0
 50
269.999989999999
 51
90.00000299999769
  0
LINE
  5
AC63
  8
AM_0
 10
150.19321075676979
 20
331.80744430486197
 30
0.0
 11
198.0132207567697
 21
331.80744430486197
 31
0.0
  0
LINE
  5
AC64
  8
AM_0
 10
180.1932107567697
 20
342.04743430486201
 30
0.0
 11
198.2274507567698
 21
342.04743430486201
 31
0.0
  0
LINE
  5
AC65
  8
AM_0
 10
198.0132207567697
 20
335.1574143048619
 30
0.0
 11
180.1731907567698
 21
335.1574143048619
 31
0.0
  0
ARC
  5
AC66
  8
AM_0
 10
194.53318075676981
 20
343.52741430486202
 30
0.0
 40
1.0000255999999981
 50
269.58947000000319
 51
90.410530999997775
  0
LINE
  5
AC67
  8
AM_0
 10
94.653230756769872
 20
392.08747430486221
 30
0.0
 11
198.2274507567698
 21
392.08747430486221
 31
0.0
  0
LINE
  5
AC68
  8
AM_0
 10
94.873200756769847
 20
405.24738430486218
 30
0.0
 11
198.0132207567697
 21
405.24738430486218
 31
0.0
  0
LINE
  5
AC69
  8
AM_0
 10
180.1932107567697
 20
395.01740430486211
 30
0.0
 11
198.23887075676981
 21
395.01740430486211
 31
0.0
  0
ARC
  5
AC6A
  8
AM_0
 10
194.53318075676981
 20
393.52741430486202
 30
0.0
 40
1.0000255999999981
 50
269.58947000000319
 51
90.410530999997775
  0
LINE
  5
AC6B
  8
AM_0
 10
180.1731907567698
 20
401.8873943048618
 30
0.0
 11
198.0132207567697
 21
401.8873943048618
 31
0.0
  0
ARC
  5
AC6C
  8
AM_0
 10
194.5332407567698
 20
403.52741430486208
 30
0.0
 40
1.0
 50
269.999989999999
 51
90.00000299999769
  0
LINE
  5
AC6D
  8
AM_0
 10
199.39890075676971
 20
329.20847430486191
 30
0.0
 11
195.2531507567698
 21
313.72736430486202
 31
0.0
  0
LINE
  5
AC6E
  8
AM_0
 10
200.1932107567697
 20
315.52738430486198
 30
0.0
 11
194.4674107567696
 21
306.71042430486199
 31
0.0
  0
LINE
  5
AC6F
  8
AM_0
 10
199.3989307567698
 20
412.54624430486172
 30
0.0
 11
195.2532107567697
 21
428.027354304862
 31
0.0
  0
LINE
  5
AC70
  8
AM_0
 10
199.39896075676981
 20
413.45624430486191
 30
0.0
 11
195.2532407567698
 21
428.9373543048618
 31
0.0
  0
LINE
  5
AC71
  8
AM_0
 10
199.3989307567698
 20
410.69626430486193
 30
0.0
 11
195.2532107567697
 21
426.1774043048618
 31
0.0
  0
LINE
  5
AC72
  8
AM_0
 10
199.39322075676961
 20
407.867344304862
 30
0.0
 11
195.2532107567697
 21
423.3273643048621
 31
0.0
  0
LINE
  5
AC73
  8
AM_0
 10
94.653230756769872
 20
344.967354304862
 30
0.0
 11
198.2274507567698
 21
344.967354304862
 31
0.0
  0
ARC
  5
AC74
  8
AM_0
 10
193.20939075676981
 20
307.52741430486202
 30
0.0
 40
1.5
 50
269.999989999999
 51
326.99999999999801
  0
ARC
  5
AC75
  8
AM_0
 10
181.7722914425548
 20
304.52741430486202
 30
0.0
 40
1.5
 50
90.0
 51
178.4998650936468
1001
GENIUS_GENODEF_13
1002
{
1000
HIER
1070
     0
1002
}
1002
{
1000
MANEDIT
1070
     0
1002
}
1002
{
1000
NOSEL
1070
     0
1002
}
1002
{
1000
BEHIND
1070
     0
1002
}
1002
{
1000
REACTOR
1002
}
1001
GENIUS_GENOBJ-N-FIL_13
1002
{
1000
OWNER
1000
GEN
1002
}
  0
LINE
  5
AC76
  8
AM_0
 10
180.1932107567697
 20
301.52735430486189
 30
0.0
 11
180.4739498798329
 21
312.24738430486201
 31
0.0
  0
LINE
  5
AC77
  8
AM_0
 10
120.1931507567699
 20
301.52738430486198
 30
0.0
 11
119.9124865694308
 21
312.2473843048619
 31
0.0
  0
LINE
  5
AC78
  8
AM_0
 10
76.193210756769872
 20
308.52741430486208
 30
0.0
 11
76.193210756769872
 21
303.52741430486202
 31
0.0
  0
LINE
  5
AC79
  8
AM_0
 10
73.193210756769872
 20
309.77741430486202
 30
0.0
 11
73.193210756769872
 21
303.52741430486202
 31
0.0
  0
LINE
  5
AC7A
  8
AM_0
 10
63.193210756769851
 20
309.77741430486202
 30
0.0
 11
63.193210756769851
 21
303.52741430486202
 31
0.0
  0
ARC
  5
AC7B
  8
AM_0
 10
38.691780656769829
 20
312.52741430486208
 30
0.0
 40
9.0
 50
179.99997999999781
 51
269.99995000000138
  0
LINE
  5
AC7C
  8
AM_0
 10
38.691780656769829
 20
303.52741430486202
 30
0.0
 11
76.193210756769872
 21
303.52741430486202
 31
0.0
  0
LINE
  5
AC7D
  8
AM_0
 10
169.0953731883487
 20
299.02741430486191
 30
0.0
 11
131.2953731883488
 21
299.02741430486191
 31
0.0
  0
LINE
  5
AC7E
  8
AM_0
 10
183.69321075676959
 20
301.52741430486202
 30
0.0
 11
116.6932107567698
 21
301.52741430486202
 31
0.0
  0
LINE
  5
AC7F
  8
AM_0
 10
179.92106832518971
 20
278.02741430486191
 30
0.0
 11
103.6210683251898
 21
265.02741430486202
 31
0.0
  0
LINE
  5
AC80
  8
AM_0
 10
179.09537318834981
 20
265.02741430486202
 30
0.0
 11
103.6210683251898
 21
265.02741430486202
 31
0.0
  0
LINE
  5
AC81
  8
AM_0
 10
103.2953731883488
 20
269.02741430486208
 30
0.0
 11
179.5953731883487
 21
282.02741430486191
 31
0.0
  0
LINE
  5
AC82
  8
AM_0
 10
103.2953731883488
 20
269.02741430486208
 30
0.0
 11
179.5953731883487
 21
282.02741430486191
 31
0.0
  0
LINE
  5
AC83
  8
AM_0
 10
103.21394940413769
 20
270.02741430486202
 30
0.0
 11
135.19201914286981
 21
275.4758403416061
 31
0.0
  0
ARC
  5
AC84
  8
AM_0
 10
100.6953731883488
 20
266.52741430486208
 30
0.0
 40
1.5
 50
180.0
 51
270.0
  0
ARC
  5
AC85
  8
AM_0
 10
100.19537318834981
 20
266.52741430486321
 30
0.0
 40
1.5
 50
180.00000000000659
 51
269.99999999999341
  0
LINE
  5
AC86
  8
AM_0
 10
103.21394940413769
 20
270.02741430486202
 30
0.0
 11
99.495373188348765
 21
270.02741430486202
 31
0.0
  0
LINE
  5
AC87
  8
AM_0
 10
99.495373188348765
 20
269.02741430486208
 30
0.0
 11
103.2953731883488
 21
269.02741430486208
 31
0.0
  0
LINE
  5
AC88
  8
AM_0
 10
99.195373188348825
 20
269.02741430486208
 30
0.0
 11
103.2953731883488
 21
269.02741430486208
 31
0.0
  0
LINE
  5
AC89
  8
AM_0
 10
99.895373188348771
 20
274.02741430486191
 30
0.0
 11
99.495373188348765
 21
274.02741430486191
 31
0.0
  0
LINE
  5
AC8A
  8
AM_0
 10
98.695373188349834
 20
273.72741430486298
 30
0.0
 11
98.695373188349834
 21
266.52741430486208
 31
0.0
  0
LINE
  5
AC8B
  8
AM_0
 10
99.195373188348825
 20
268.72741430486309
 30
0.0
 11
99.195373188348825
 21
266.52741430486208
 31
0.0
  0
ARC
  5
AC8C
  8
AM_0
 10
99.495373188348765
 20
269.72741430486298
 30
0.0
 40
0.3
 50
90.0
 51
180.0
  0
ARC
  5
AC8D
  8
AM_0
 10
99.495373188348765
 20
268.72741430486309
 30
0.0
 40
0.3
 50
90.0
 51
180.0
  0
LINE
  5
AC8E
  8
AM_0
 10
99.195373188348825
 20
269.72741430486298
 30
0.0
 11
99.195373188348825
 21
269.02741430486208
 31
0.0
  0
LINE
  5
AC8F
  8
AM_0
 10
99.495373188348765
 20
274.02741430486191
 30
0.0
 11
98.995373188349802
 21
274.02741430486191
 31
0.0
  0
ARC
  5
AC90
  8
AM_0
 10
98.995373188349802
 20
273.72741430486298
 30
0.0
 40
0.3
 50
90.0
 51
180.0
  0
CIRCLE
  5
AC91
  8
AM_0
 10
115.7953731883488
 20
282.02741430486191
 30
0.0
 40
6.299999999999998
  0
LINE
  5
AC92
  8
AM_0
 10
125.0953731883487
 20
299.02741430486191
 30
0.0
 11
125.0953731883487
 21
282.02741430486191
 31
0.0
  0
LINE
  5
AC93
  8
AM_0
 10
106.49537318834869
 20
299.02741430486191
 30
0.0
 11
106.49537318834869
 21
282.02741430486191
 31
0.0
  0
LINE
  5
AC94
  8
AM_0
 10
100.6953731883488
 20
298.02741430486208
 30
0.0
 11
100.6953731883488
 21
275.02741430486208
 31
0.0
  0
LINE
  5
AC95
  8
ﾁｭｳｼﾝｾﾝ
 10
115.7953731883488
 20
294.02742930486198
 30
0.0
 11
115.7953731883488
 21
270.0274293048621
 31
0.0
  0
ARC
  5
AC96
  8
AM_0
 10
115.7953731883488
 20
282.02741430486191
 30
0.0
 40
9.3000000000000007
 50
180.0
 51
0.0
  0
LINE
  5
AC97
  8
ﾁｭｳｼﾝｾﾝ
 10
103.7953731883582
 20
282.02741430486191
 30
0.0
 11
127.7953731883394
 21
282.02741430486191
 31
0.0
  0
LINE
  5
AC98
  8
AM_0
 10
100.3953731883487
 20
272.22305698557801
 30
0.0
 11
100.3953731883487
 21
274.827414304863
 31
0.0
  0
LINE
  5
AC99
  8
AM_0
 10
100.1953731883488
 20
270.02741430486202
 30
0.0
 11
100.1953731883488
 21
273.72741430486298
 31
0.0
  0
LINE
  5
AC9A
  8
AM_0
 10
100.6953731883488
 20
275.02741430486208
 30
0.0
 11
100.6953731883477
 21
270.02741430486202
 31
0.0
  0
LINE
  5
AC9B
  8
AM_0
 10
100.6953731883488
 20
265.02741430486202
 30
0.0
 11
103.6210683251898
 21
265.02741430486202
 31
0.0
  0
LINE
  5
AC9C
  8
AM_0
 10
100.19537318834981
 20
265.02741430486202
 30
0.0
 11
100.49385908450679
 21
265.02741430486321
 31
0.0
  0
LINE
  5
AC9D
  8
AM_0
 10
100.1953731883488
 20
272.22305698557801
 30
0.0
 11
100.3953731883487
 21
272.22305698557801
 31
0.0
  0
LINE
  5
AC9E
  8
AM_0
 10
100.3953731883487
 20
270.02741430486202
 30
0.0
 11
100.3953731883487
 21
271.02305698557802
 31
0.0
  0
LINE
  5
AC9F
  8
AM_0
 10
100.3953731883487
 20
271.02305698557802
 30
0.0
 11
100.1953731883488
 21
271.02305698557802
 31
0.0
  0
LINE
  5
ACA0
  8
AM_0
 10
100.3953731883487
 20
271.02305698557802
 30
0.0
 11
100.3953731883487
 21
272.22305698557801
 31
0.0
  0
LINE
  5
ACA1
  8
AM_0
 10
100.3953731883487
 20
274.827414304863
 30
0.0
 11
100.5953731883487
 21
275.02741430486208
 31
0.0
  0
LINE
  5
ACA2
  8
AM_0
 10
100.5953731883487
 20
275.02741430486208
 30
0.0
 11
100.6953731883488
 21
275.02741430486208
 31
0.0
  0
ARC
  5
ACA3
  8
AM_0
 10
99.895373188348771
 20
273.72741430486298
 30
0.0
 40
0.3
 50
0.0
 51
90.0
  0
CIRCLE
  5
ACA4
  8
AM_0
 10
130.2953731883488
 20
282.02741430486191
 30
0.0
 40
0.75
  0
LINE
  5
ACA5
  8
AM_0
 10
106.49537318834869
 20
299.02741430486191
 30
0.0
 11
124.0953731883488
 21
299.02741430486191
 31
0.0
  0
LINE
  5
ACA6
  8
AM_0
 10
101.6953731883488
 20
299.02741430486191
 30
0.0
 11
106.49537318834869
 21
299.02741430486191
 31
0.0
  0
ARC
  5
ACA7
  8
AM_0
 10
101.6953731883488
 20
298.02741430486208
 30
0.0
 40
1.0
 50
90.0
 51
180.0
  0
LINE
  5
ACA8
  8
AM_0
 10
116.6932107567698
 20
299.02741430486191
 30
0.0
 11
116.6932107567698
 21
301.52741430486202
 31
0.0
  0
LINE
  5
ACA9
  8
AM_0
 10
131.2953731883488
 20
299.02741430486191
 30
0.0
 11
125.0953731883487
 21
299.02741430486191
 31
0.0
  0
LINE
  5
ACAA
  8
AM_0
 10
124.0953731883488
 20
299.02741430486191
 30
0.0
 11
125.0953731883487
 21
299.02741430486191
 31
0.0
  0
LINE
  5
ACAB
  8
AM_0
 10
163.10878937025669
 20
280.23230184823791
 30
0.0
 11
172.97049945419579
 21
281.91254078783402
 31
0.0
  0
LINE
  5
ACAC
  8
AM_0
 10
148.79537318835071
 20
277.793580873601
 30
0.0
 11
148.79537318835071
 21
291.31603812566408
 31
0.0
  0
LINE
  5
ACAD
  8
AM_0
 10
135.19201914286981
 20
291.31603812566408
 30
0.0
 11
135.19201914286981
 21
275.4758403416061
 31
0.0
  0
LINE
  5
ACAE
  8
AM_0
 10
163.10878937025669
 20
280.23230184823791
 30
0.0
 11
163.10878937025669
 21
294.02741430486202
 31
0.0
  0
LINE
  5
ACAF
  8
AM_0
 10
143.09201914286979
 20
294.02741430486202
 30
0.0
 11
143.09201914286979
 21
276.82184296283799
 31
0.0
  0
LINE
  5
ACB0
  8
AM_0
 10
140.89201914286971
 20
276.44700678983719
 30
0.0
 11
140.89201914286971
 21
294.02741430486202
 31
0.0
  0
LINE
  5
ACB1
  8
AM_0
 10
139.39201914286971
 20
294.02741430486202
 30
0.0
 11
139.39201914287071
 21
276.19143667188098
 31
0.0
  0
LINE
  5
ACB2
  8
AM_0
 10
137.19201914286981
 20
275.81660049888012
 30
0.0
 11
137.19201914286981
 21
294.02741430486321
 31
0.0
  0
LINE
  5
ACB3
  8
AM_0
 10
146.79537318834781
 20
294.02741430486202
 30
0.0
 11
146.79537318834781
 21
277.4528207163271
 31
0.0
  0
LINE
  5
ACB4
  8
AM_0
 10
144.59201914286959
 20
277.07741308079312
 30
0.0
 11
144.59201914286959
 21
294.02741430486202
 31
0.0
  0
LINE
  5
ACB5
  8
AM_0
 10
159.4054353247798
 20
279.60132409474909
 30
0.0
 11
159.4054353247798
 21
294.02741430486202
 31
0.0
  0
LINE
  5
ACB6
  8
AM_0
 10
157.9054353247798
 20
294.02741430486202
 30
0.0
 11
157.9054353247798
 21
279.34575397679299
 31
0.0
  0
LINE
  5
ACB7
  8
AM_0
 10
155.7020812793028
 20
278.97034634125998
 30
0.0
 11
155.7020812793028
 21
294.02741430486202
 31
0.0
  0
LINE
  5
ACB8
  8
AM_0
 10
154.2020812793028
 20
294.02741430486202
 30
0.0
 11
154.2020812793028
 21
278.71477622330502
 31
0.0
  0
LINE
  5
ACB9
  8
AM_0
 10
151.99872723382481
 20
278.33936858777111
 30
0.0
 11
151.99872723382481
 21
294.02741430486202
 31
0.0
  0
LINE
  5
ACBA
  8
AM_0
 10
150.4987272338247
 20
294.02741430486202
 30
0.0
 11
150.4987272338247
 21
278.0837984698162
 31
0.0
  0
LINE
  5
ACBB
  8
AM_0
 10
161.60878937025669
 20
294.02741430486202
 30
0.0
 11
161.60878937025669
 21
279.97673173028198
 31
0.0
  0
LINE
  5
ACBC
  8
AM_0
 10
137.19201914286981
 20
275.81660049888012
 30
0.0
 11
139.39201914287071
 21
276.19143667188098
 31
0.0
  0
LINE
  5
ACBD
  8
AM_0
 10
140.89201914286971
 20
276.44700678983719
 30
0.0
 11
143.09201914286979
 21
276.82184296283799
 31
0.0
  0
LINE
  5
ACBE
  8
AM_0
 10
144.59201914286959
 20
277.07741308079312
 30
0.0
 11
146.79537318834781
 21
277.4528207163271
 31
0.0
  0
LINE
  5
ACBF
  8
AM_0
 10
148.79537318835071
 20
277.793580873601
 30
0.0
 11
150.4987272338247
 21
278.0837984698162
 31
0.0
  0
LINE
  5
ACC0
  8
AM_0
 10
151.99872723382481
 20
278.33936858777111
 30
0.0
 11
154.2020812793028
 21
278.71477622330502
 31
0.0
  0
LINE
  5
ACC1
  8
AM_0
 10
159.4054353247798
 20
279.60132409474909
 30
0.0
 11
161.60878937025669
 21
279.97673173028198
 31
0.0
  0
LINE
  5
ACC2
  8
AM_0
 10
155.7020812793028
 20
278.97034634125998
 30
0.0
 11
157.9054353247798
 21
279.34575397679299
 31
0.0
  0
LINE
  5
ACC3
  8
AM_0
 10
148.09537318834771
 20
294.02741430486202
 30
0.0
 11
146.79537318834781
 21
294.02741430486202
 31
0.0
  0
LINE
  5
ACC4
  8
AM_0
 10
148.79537318835071
 20
290.02741430486208
 30
0.0
 11
146.79537318834781
 21
290.02741430486208
 31
0.0
  0
LINE
  5
ACC5
  8
AM_0
 10
140.89201914286971
 20
294.02741430486202
 30
0.0
 11
139.39201914286971
 21
294.02741430486202
 31
0.0
  0
LINE
  5
ACC6
  8
AM_0
 10
140.89201914286971
 20
290.02741430486208
 30
0.0
 11
139.39201914286971
 21
290.02741430486208
 31
0.0
  0
LINE
  5
ACC7
  8
AM_0
 10
135.89201914286971
 20
291.98339018226812
 30
0.0
 11
135.19201914286981
 21
291.31603812566408
 31
0.0
  0
LINE
  5
ACC8
  8
AM_0
 10
137.19201914286981
 20
290.02741430486208
 30
0.0
 11
135.19201914286981
 21
290.02741430486208
 31
0.0
  0
LINE
  5
ACC9
  8
AM_0
 10
137.19201914286981
 20
294.02741430486321
 30
0.0
 11
135.89201914286971
 21
294.02741430486202
 31
0.0
  0
LINE
  5
ACCA
  8
AM_0
 10
135.89201914286971
 20
294.02741430486202
 30
0.0
 11
135.89201914286971
 21
291.98339018226812
 31
0.0
  0
LINE
  5
ACCB
  8
AM_0
 10
144.59201914286959
 20
294.02741430486202
 30
0.0
 11
143.09201914286979
 21
294.02741430486202
 31
0.0
  0
LINE
  5
ACCC
  8
AM_0
 10
144.59201914286959
 20
290.02741430486208
 30
0.0
 11
143.09201914286979
 21
290.02741430486208
 31
0.0
  0
LINE
  5
ACCD
  8
AM_0
 10
155.7020812793028
 20
294.02741430486202
 30
0.0
 11
154.2020812793028
 21
294.02741430486202
 31
0.0
  0
LINE
  5
ACCE
  8
AM_0
 10
155.7020812793028
 20
290.02741430486208
 30
0.0
 11
154.2020812793028
 21
290.02741430486208
 31
0.0
  0
LINE
  5
ACCF
  8
AM_0
 10
151.99872723382481
 20
294.02741430486202
 30
0.0
 11
150.4987272338247
 21
294.02741430486202
 31
0.0
  0
LINE
  5
ACD0
  8
AM_0
 10
151.99872723382481
 20
290.02741430486208
 30
0.0
 11
150.4987272338247
 21
290.02741430486208
 31
0.0
  0
LINE
  5
ACD1
  8
AM_0
 10
148.79537318835071
 20
291.31603812566408
 30
0.0
 11
148.09537318834771
 21
291.98339018226812
 31
0.0
  0
LINE
  5
ACD2
  8
AM_0
 10
148.09537318834771
 20
291.98339018226812
 30
0.0
 11
148.09537318834771
 21
294.02741430486202
 31
0.0
  0
LINE
  5
ACD3
  8
AM_0
 10
159.4054353247798
 20
294.02741430486202
 30
0.0
 11
157.9054353247798
 21
294.02741430486202
 31
0.0
  0
LINE
  5
ACD4
  8
AM_0
 10
159.4054353247798
 20
290.02741430486208
 30
0.0
 11
157.9054353247798
 21
290.02741430486208
 31
0.0
  0
LINE
  5
ACD5
  8
AM_0
 10
163.10878937025669
 20
294.02741430486202
 30
0.0
 11
161.60878937025669
 21
294.02741430486202
 31
0.0
  0
LINE
  5
ACD6
  8
AM_0
 10
163.10878937025669
 20
290.02741430486208
 30
0.0
 11
161.60878937025669
 21
290.02741430486208
 31
0.0
  0
LINE
  5
ACD7
  8
AM_0
 10
187.97049945419579
 20
282.02741430486191
 30
0.0
 11
187.97049945419579
 21
298.02741430486208
 31
0.0
  0
LINE
  5
ACD8
  8
AM_0
 10
172.97049945419579
 20
281.91254078783402
 30
0.0
 11
172.97049945419579
 21
299.02741430486191
 31
0.0
  0
ARC
  5
ACD9
  8
AM_0
 10
179.09537318834981
 20
267.52741430486191
 30
0.0
 40
2.5
 50
270.0
 51
0.0
  0
LINE
  5
ACDA
  8
AM_0
 10
171.32552470736681
 20
265.02741430486202
 30
0.0
 11
171.32552470736681
 21
276.56290490733022
 31
0.0
  0
CIRCLE
  5
ACDB
  8
AM_0
 10
164.7953731883488
 20
282.02741430486191
 30
0.0
 40
0.75
  0
LINE
  5
ACDC
  8
AM_0
 10
172.19537318834981
 20
276.71320907756512
 30
0.0
 11
172.19537318834981
 21
280.76660172294891
 31
0.0
  0
LINE
  5
ACDD
  8
AM_0
 10
181.59537318834981
 20
277.52741430486202
 30
0.0
 11
181.59537318834981
 21
267.52741430486191
 31
0.0
  0
LINE
  5
ACDE
  8
AM_0
 10
187.97049945419579
 20
282.02741430486191
 30
0.0
 11
179.5953731883487
 21
282.02741430486191
 31
0.0
  0
ARC
  5
ACDF
  8
AM_0
 10
187.47049945419559
 20
278.52741430486202
 30
0.0
 40
0.5
 50
270.0
 51
0.0
  0
LINE
  5
ACE0
  8
AM_0
 10
182.09537318834981
 20
278.02741430486191
 30
0.0
 11
187.47049945419559
 21
278.02741430486191
 31
0.0
  0
LINE
  5
ACE1
  8
AM_0
 10
182.09537318834981
 20
278.02741430486191
 30
0.0
 11
179.92106832518971
 21
278.02741430486191
 31
0.0
  0
ARC
  5
ACE2
  8
AM_0
 10
182.09537318834981
 20
277.52741430486202
 30
0.0
 40
0.5
 50
90.0
 51
180.0
  0
LINE
  5
ACE3
  8
AM_0
 10
187.97049945419579
 20
282.02741430486191
 30
0.0
 11
187.97049945419579
 21
278.52741430486202
 31
0.0
  0
LINE
  5
ACE4
  8
AM_0
 10
186.97049945419559
 20
299.02741430486191
 30
0.0
 11
176.2953731883488
 21
299.02741430486191
 31
0.0
  0
LINE
  5
ACE5
  8
AM_0
 10
176.2953731883488
 20
299.02741430486191
 30
0.0
 11
169.0953731883487
 21
299.02741430486191
 31
0.0
  0
LINE
  5
ACE6
  8
AM_0
 10
181.7722914425548
 20
306.02741430486202
 30
0.0
 11
193.20939075676981
 21
306.02741430486202
 31
0.0
  0
ARC
  5
ACE7
  8
AM_0
 10
186.97049945419559
 20
298.02741430486208
 30
0.0
 40
1.0
 50
0.0
 51
90.0
  0
LINE
  5
ACE8
  8
AM_0
 10
183.69321075676959
 20
299.02741430486191
 30
0.0
 11
183.69321075676959
 21
301.52741430486202
 31
0.0
  0
LINE
  5
ACE9
  8
AM_0
 10
60.193210756769872
 20
427.27741430486202
 30
0.0
 11
85.193210756769872
 21
427.27741430486202
 31
0.0
  0
LINE
  5
ACEA
  8
AM_0
 10
37.193210756769872
 20
421.27741430486168
 30
0.0
 11
85.193210756769872
 21
421.27741430486168
 31
0.0
  0
LINE
  5
ACEB
  8
AM_0
 10
37.693210756769872
 20
402.16840430486212
 30
0.0
 11
80.193210756769872
 21
402.16840430486212
 31
0.0
  0
LINE
  5
ACEC
  8
AM_0
 10
37.693210756769872
 20
412.41840430486201
 30
0.0
 11
80.193210756769872
 21
412.41840430486201
 31
0.0
  0
LINE
  5
ACED
  8
AM_0
 10
60.193210756769872
 20
309.77741430486202
 30
0.0
 11
85.193210756769872
 21
309.77741430486202
 31
0.0
  0
LINE
  5
ACEE
  8
AM_0
 10
37.693210756769872
 20
324.63642430486192
 30
0.0
 11
80.193210756769872
 21
324.63642430486192
 31
0.0
  0
LINE
  5
ACEF
  8
AM_0
 10
37.693210756769872
 20
334.88642430486192
 30
0.0
 11
80.193210756769872
 21
334.88642430486192
 31
0.0
  0
LINE
  5
ACF0
  8
AM_0
 10
37.193210756769872
 20
315.77741430486202
 30
0.0
 11
85.193210756769872
 21
315.77741430486202
 31
0.0
  0
LINE
  5
ACF1
  8
AM_0
 10
38.691780656769829
 20
433.52741430486208
 30
0.0
 11
76.193210756769872
 21
433.52741430486208
 31
0.0
  0
LINE
  5
ACF2
  8
AM_0
 10
37.693210756769872
 20
315.74542430486213
 30
0.0
 11
37.693210756769872
 21
421.27741430486168
 31
0.0
  0
LINE
  5
ACF3
  8
AM_0
 10
34.691780656769822
 20
403.26587540056931
 30
0.0
 11
34.691780656769822
 21
333.78895320915461
 31
0.0
  0
LINE
  5
ACF4
  8
AM_0
 10
35.193210756769872
 20
333.99835430486189
 30
0.0
 11
35.193210756769872
 21
403.05646430486189
 31
0.0
  0
LINE
  5
ACF5
  8
AM_0
 10
29.691780656769811
 20
424.52741430486208
 30
0.0
 11
29.691780656769811
 21
312.52741430486208
 31
0.0
  0
ARC
  5
ACF6
  8
AM_0
 10
39.691780656769829
 20
313.52741430486191
 30
0.0
 40
5.0
 50
179.99997999999781
 51
269.99995000000138
  0
ARC
  5
ACF7
  8
AM_0
 10
37.193210756769872
 20
317.77741430486191
 30
0.0
 40
2.0
 50
179.99997999999781
 51
269.99995000000138
  0
LINE
  5
ACF8
  8
AM_0
 10
36.093240756769767
 20
325.13642430486198
 30
0.0
 11
36.393220756769772
 21
325.13642430486198
 31
0.0
  0
LINE
  5
ACF9
  8
AM_0
 10
36.093240756769767
 20
334.13642430486192
 30
0.0
 11
36.393220756769772
 21
334.13642430486192
 31
0.0
  0
LINE
  5
ACFA
  8
AM_0
 10
33.093240756769781
 20
331.13642430486192
 30
0.0
 11
33.093240756769781
 21
328.13642430486192
 31
0.0
  0
LINE
  5
ACFB
  8
AM_0
 10
34.691780656769822
 20
325.48389540056928
 30
0.0
 11
34.691780656769822
 21
313.52741430486191
 31
0.0
  0
LINE
  5
ACFC
  8
AM_0
 10
35.193210756769872
 20
325.27448430486209
 30
0.0
 11
35.193210756769872
 21
317.77741430486191
 31
0.0
  0
ARC
  5
ACFD
  8
AM_0
 10
36.093240756769767
 20
328.13642430486192
 30
0.0
 40
3.0
 50
179.99997999999781
 51
269.99995000000138
  0
ARC
  5
ACFE
  8
AM_0
 10
36.093240756769767
 20
331.13642430486192
 30
0.0
 40
3.0
 50
89.999988999997569
 51
179.99997999999781
  0
LINE
  5
ACFF
  8
AM_0
 10
36.393220756769772
 20
334.23639430486202
 30
0.0
 11
36.393220756769772
 21
325.03644430486202
 31
0.0
  0
LINE
  5
AD00
  8
AM_0
 10
39.691780656769829
 20
308.52741430486208
 30
0.0
 11
63.193210756769851
 21
308.52741430486208
 31
0.0
  0
LINE
  5
AD01
  8
AM_0
 10
36.393220756769772
 20
325.03644430486202
 30
0.0
 11
37.693210756769872
 21
325.03644430486202
 31
0.0
  0
LINE
  5
AD02
  8
AM_0
 10
60.193210756769872
 20
309.77741430486202
 30
0.0
 11
60.193210756769872
 21
315.77741430486202
 31
0.0
  0
LINE
  5
AD03
  8
AM_0
 10
36.393220756769772
 20
334.23639430486202
 30
0.0
 11
37.693210756769872
 21
334.23639430486202
 31
0.0
  0
LINE
  5
AD04
  8
AM_0
 10
28.69324075676985
 20
363.52741430486191
 30
0.0
 11
28.69324075676985
 21
373.52741430486202
 31
0.0
  0
LINE
  5
AD05
  8
AM_0
 10
29.691780656769811
 20
363.52741430486191
 30
0.0
 11
28.69324075676985
 21
363.52741430486191
 31
0.0
  0
LINE
  5
AD06
  8
AM_0
 10
35.193210756769872
 20
363.52741430486191
 30
0.0
 11
34.691780656769822
 21
363.52741430486191
 31
0.0
  0
LINE
  5
AD07
  8
AM_0
 10
29.691780656769811
 20
373.52741430486202
 30
0.0
 11
28.69324075676985
 21
373.52741430486202
 31
0.0
  0
LINE
  5
AD08
  8
AM_0
 10
35.193210756769872
 20
373.52741430486202
 30
0.0
 11
34.691780656769822
 21
373.52741430486202
 31
0.0
  0
LINE
  5
AD09
  8
AM_0
 10
36.093240756769767
 20
402.91840430486201
 30
0.0
 11
36.393220756769772
 21
402.91840430486201
 31
0.0
  0
LINE
  5
AD0A
  8
AM_0
 10
36.093240756769767
 20
411.91840430486201
 30
0.0
 11
36.393220756769772
 21
411.91840430486201
 31
0.0
  0
ARC
  5
AD0B
  8
AM_0
 10
37.193210756769872
 20
419.27741430486202
 30
0.0
 40
2.0
 50
90.000049999998538
 51
180.00002000000191
  0
ARC
  5
AD0C
  8
AM_0
 10
38.691780656769829
 20
424.52741430486208
 30
0.0
 40
9.0
 50
89.999988999997569
 51
179.99997999999781
  0
ARC
  5
AD0D
  8
AM_0
 10
39.691780656769829
 20
423.52741430486179
 30
0.0
 40
5.0
 50
89.999988999997569
 51
180.0
  0
LINE
  5
AD0E
  8
AM_0
 10
34.691780656769822
 20
411.57093320915459
 30
0.0
 11
34.691780656769822
 21
423.52741430486168
 31
0.0
  0
LINE
  5
AD0F
  8
AM_0
 10
35.193210756769872
 20
411.7803443048619
 30
0.0
 11
35.193210756769872
 21
419.27741430486202
 31
0.0
  0
ARC
  5
AD10
  8
AM_0
 10
36.093240756769767
 20
405.91840430486178
 30
0.0
 40
3.0
 50
180.00002000000191
 51
270.00001100000242
  0
ARC
  5
AD11
  8
AM_0
 10
36.093240756769767
 20
408.91840430486212
 30
0.0
 40
3.0
 50
90.000049999998538
 51
180.00002000000191
  0
LINE
  5
AD12
  8
AM_0
 10
33.093240756769781
 20
405.91840430486178
 30
0.0
 11
33.093240756769781
 21
408.91840430486212
 31
0.0
  0
LINE
  5
AD13
  8
AM_0
 10
36.393220756769772
 20
402.81843430486202
 30
0.0
 11
36.393220756769772
 21
412.01838430486202
 31
0.0
  0
LINE
  5
AD14
  8
AM_0
 10
36.393220756769772
 20
402.81843430486202
 30
0.0
 11
37.693210756769872
 21
402.81843430486202
 31
0.0
  0
LINE
  5
AD15
  8
AM_0
 10
36.393220756769772
 20
412.01838430486202
 30
0.0
 11
37.693210756769872
 21
412.01838430486202
 31
0.0
  0
LINE
  5
AD16
  8
AM_0
 10
39.691780656769829
 20
428.52741430486208
 30
0.0
 11
63.193210756769851
 21
428.52741430486208
 31
0.0
  0
LINE
  5
AD17
  8
AM_0
 10
63.193210756769851
 20
427.27741430486208
 30
0.0
 11
63.193210756769851
 21
433.52741430486208
 31
0.0
  0
LINE
  5
AD18
  8
AM_0
 10
60.193210756769872
 20
427.27741430486202
 30
0.0
 11
60.193210756769872
 21
421.27741430486168
 31
0.0
  0
LINE
  5
AD19
  8
AM_0
 10
80.193210756769872
 20
331.342354304862
 30
0.0
 11
80.193210756769872
 21
405.71344430486192
 31
0.0
  0
ARC
  5
AD1A
  8
AM_0
 10
180.1932107567697
 20
396.02741430486208
 30
0.0
 40
1.02
 50
179.99998999999889
 51
270.0
  0
ARC
  5
AD1B
  8
AM_0
 10
180.1932107567697
 20
396.02741430486208
 30
0.0
 40
1.5
 50
179.99998999999889
 51
270.0
  0
ARC
  5
AD1C
  8
AM_0
 10
162.19321075676979
 20
396.02741430486208
 30
0.0
 40
1.02
 50
269.999989999999
 51
0.0000006832429909
  0
ARC
  5
AD1D
  8
AM_0
 10
162.19321075676979
 20
396.02741430486208
 30
0.0
 40
1.5
 50
269.999989999999
 51
0.0000006832495047
  0
ARC
  5
AD1E
  8
AM_0
 10
94.653230756769872
 20
393.55243430486212
 30
0.0
 40
1.465004
 50
90.00000299999769
 51
270.0
  0
LINE
  5
AD1F
  8
AM_0
 10
93.193210756769858
 20
421.52741430486202
 30
0.0
 11
93.193210756769858
 21
315.52741430486191
 31
0.0
  0
LINE
  5
AD20
  8
AM_0
 10
85.193210756769872
 20
427.27741430486208
 30
0.0
 11
85.193210756769872
 21
309.77741430486202
 31
0.0
  0
LINE
  5
AD21
  8
AM_0
 10
194.52604075676959
 20
392.52741430486191
 30
0.0
 11
95.553200756769925
 21
392.52741430486191
 31
0.0
  0
LINE
  5
AD22
  8
AM_0
 10
162.19321075676979
 20
394.52741430486191
 30
0.0
 11
95.553200756769925
 21
394.52741430486191
 31
0.0
  0
ARC
  5
AD23
  8
AM_0
 10
130.85819075676969
 20
383.54242430486198
 30
0.0
 40
1.3350147999999991
 50
269.73042999999973
 51
90.269556000001316
  0
ARC
  5
AD24
  8
AM_0
 10
130.85819075676969
 20
353.51740430486211
 30
0.0
 40
1.3300148000000001
 50
269.72941999999853
 51
90.270567000000995
  0
ARC
  5
AD25
  8
AM_0
 10
130.9201407567698
 20
363.52741430486191
 30
0.0
 40
1.2700266
 50
269.62931999999989
 51
90.370670000004694
  0
ARC
  5
AD26
  8
AM_0
 10
130.9201407567698
 20
373.53742430486199
 30
0.0
 40
1.2700266
 50
269.62931999999989
 51
90.370670000004694
  0
LINE
  5
AD27
  8
AM_0
 10
194.52604075676959
 20
344.52741430486202
 30
0.0
 11
95.553200756769925
 21
344.52741430486202
 31
0.0
  0
LINE
  5
AD28
  8
AM_0
 10
150.19321075676979
 20
332.52741430486202
 30
0.0
 11
95.553200756769925
 21
332.52741430486202
 31
0.0
  0
LINE
  5
AD29
  8
AM_0
 10
150.19321075676979
 20
334.52741430486202
 30
0.0
 11
95.553200756769925
 21
334.52741430486202
 31
0.0
  0
LINE
  5
AD2A
  8
AM_0
 10
94.873200756769847
 20
335.1574143048619
 30
0.0
 11
162.2132307567698
 21
335.1574143048619
 31
0.0
  0
LINE
  5
AD2B
  8
AM_0
 10
94.873200756769847
 20
331.80744430486197
 30
0.0
 11
150.19321075676979
 21
331.80744430486197
 31
0.0
  0
LINE
  5
AD2C
  8
AM_0
 10
94.653230756769872
 20
342.03742430486199
 30
0.0
 11
162.19321075676979
 21
342.03742430486199
 31
0.0
  0
LINE
  5
AD2D
  8
AM_0
 10
162.19321075676979
 20
342.52741430486191
 30
0.0
 11
95.553200756769925
 21
342.52741430486191
 31
0.0
  0
LINE
  5
AD2E
  8
AM_0
 10
96.403230756769887
 20
312.24738430486201
 30
0.0
 11
193.32322075676981
 21
312.24738430486201
 31
0.0
  0
POLYLINE
  5
AD2F
  8
AM_0
 66
     1
 10
0.0
 20
0.0
 30
0.0
  0
VERTEX
  5
AD30
  8
AM_0
 10
96.071450756769863
 20
352.18683430486197
 30
0.0
 42
0.00073721992
  0
VERTEX
  5
AD31
  8
AM_0
 10
96.115600756769851
 20
351.58442430486201
 30
0.0
 42
0.00074398496
  0
VERTEX
  5
AD32
  8
AM_0
 10
96.161530756769864
 20
350.98215430486198
 30
0.0
 42
0.00073322625
  0
VERTEX
  5
AD33
  8
AM_0
 10
96.209260756769851
 20
350.37982430486198
 30
0.0
 42
0.00073594289
  0
VERTEX
  5
AD34
  8
AM_0
 10
96.258740756769868
 20
349.77783430486198
 30
0.0
 42
0.00074742568
  0
VERTEX
  5
AD35
  8
AM_0
 10
96.31001075676987
 20
349.175974304862
 30
0.0
 42
0.00073216749
  0
VERTEX
  5
AD36
  8
AM_0
 10
96.363070756769844
 20
348.57416430486199
 30
0.0
 42
0.00074184065
  0
VERTEX
  5
AD37
  8
AM_0
 10
96.417890756769793
 20
347.97263430486208
 30
0.0
 42
0.00072077528
  0
VERTEX
  5
AD38
  8
AM_0
 10
96.474470756769861
 20
347.37140430486221
 30
0.0
 42
0.00074978179
  0
VERTEX
  5
AD39
  8
AM_0
 10
96.532810756769791
 20
346.77020430486198
 30
0.0
 42
0.00074288888
  0
VERTEX
  5
AD3A
  8
AM_0
 10
96.592960756769784
 20
346.16918430486197
 30
0.0
 42
0.00072503679
  0
VERTEX
  5
AD3B
  8
AM_0
 10
96.654870756769796
 20
345.568444304862
 30
0.0
 42
0.00074640584
  0
VERTEX
  5
AD3C
  8
AM_0
 10
96.718540756769826
 20
344.96784430486201
 30
0.0
  0
SEQEND
  5
AD3D
  8
AM_0
  0
LINE
  5
AD3E
  8
AM_0
 10
96.099460756769872
 20
309.39740430486199
 30
0.0
 11
118.5258609554366
 21
309.39740430486199
 31
0.0
  0
LINE
  5
AD3F
  8
AM_0
 10
98.553200756769925
 20
331.87741430486221
 30
0.0
 11
93.193210756769858
 21
320.4374143048621
 31
0.0
  0
LINE
  5
AD40
  8
AM_0
 10
80.193210756769872
 20
324.63642430486192
 30
0.0
 11
80.193210756769872
 21
315.77741430486202
 31
0.0
  0
LINE
  5
AD41
  8
AM_0
 10
73.193210756769872
 20
308.52741430486208
 30
0.0
 11
76.193210756769872
 21
308.52741430486208
 31
0.0
  0
LINE
  5
AD42
  8
AM_0
 10
93.193210756769858
 20
317.7474143048621
 30
0.0
 11
94.118690756769865
 21
311.12079430486227
 31
0.0
  0
LINE
  5
AD43
  8
AM_0
 10
93.193210756769858
 20
317.74735430486197
 30
0.0
 11
94.202430756769914
 21
311.09732430486179
 31
0.0
  0
LINE
  5
AD44
  8
AM_0
 10
93.193210756769858
 20
319.08734430486197
 30
0.0
 11
94.473180756769807
 21
311.08740430486199
 31
0.0
  0
LINE
  5
AD45
  8
AM_0
 10
93.193210756769858
 20
320.43735430486208
 30
0.0
 11
94.433200756769907
 21
313.87735430486208
 31
0.0
  0
LINE
  5
AD46
  8
AM_0
 10
85.193210756769872
 20
315.52741430486191
 30
0.0
 11
93.193210756769858
 21
315.52741430486191
 31
0.0
  0
ARC
  5
AD47
  8
AM_0
 10
96.099460756769872
 20
311.39740430486199
 30
0.0
 40
2.0
 50
187.9504400000034
 51
269.999989999999
  0
ARC
  5
AD48
  8
AM_0
 10
96.179840756769863
 20
311.39740430486199
 30
0.0
 40
2.0
 50
188.62962000000411
 51
269.999989999999
  0
ARC
  5
AD49
  8
AM_0
 10
96.449380756769884
 20
311.39777430486208
 30
0.0
 40
2.000420099999999
 50
188.9268200000015
 51
269.82270999999599
  0
ARC
  5
AD4A
  8
AM_0
 10
96.398050756769877
 20
314.24665430486198
 30
0.0
 40
1.9992490000000001
 50
190.643100000001
 51
270.14743000000129
  0
LINE
  5
AD4B
  8
AM_0
 10
85.893220756769793
 20
325.33747430486198
 30
0.0
 11
92.123200756769833
 21
325.33747430486198
 31
0.0
  0
POLYLINE
  5
AD4C
  8
AM_0
 66
     1
 10
0.0
 20
0.0
 30
0.0
  0
VERTEX
  5
AD4D
  8
AM_0
 10
97.054110756769873
 20
342.044374304862
 30
0.0
 42
0.00068900015
  0
VERTEX
  5
AD4E
  8
AM_0
 10
97.124990756769776
 20
341.46962430486201
 30
0.0
 42
0.00070644648
  0
VERTEX
  5
AD4F
  8
AM_0
 10
97.197490756769866
 20
340.89494430486201
 30
0.0
 42
0.00069245587
  0
VERTEX
  5
AD50
  8
AM_0
 10
97.271580756769822
 20
340.32062430486212
 30
0.0
 42
0.00069587802
  0
VERTEX
  5
AD51
  8
AM_0
 10
97.347260756769842
 20
339.74648430486201
 30
0.0
 42
0.00068980012
  0
VERTEX
  5
AD52
  8
AM_0
 10
97.424560756769793
 20
339.17248430486211
 30
0.0
 42
0.00072079193
  0
VERTEX
  5
AD53
  8
AM_0
 10
97.503450756769865
 20
338.59870430486211
 30
0.0
 42
0.00071003147
  0
VERTEX
  5
AD54
  8
AM_0
 10
97.58399075676985
 20
338.02522430486198
 30
0.0
 42
0.00072658712
  0
VERTEX
  5
AD55
  8
AM_0
 10
97.666150756769881
 20
337.452134304862
 30
0.0
 42
0.00069571059
  0
VERTEX
  5
AD56
  8
AM_0
 10
97.749970756769784
 20
336.87909430486201
 30
0.0
 42
0.0007126617
  0
VERTEX
  5
AD57
  8
AM_0
 10
97.8354007567699
 20
336.30633430486199
 30
0.0
 42
0.00071614574
  0
VERTEX
  5
AD58
  8
AM_0
 10
97.922430756769785
 20
335.73398430486208
 30
0.0
 42
0.00072290803
  0
VERTEX
  5
AD59
  8
AM_0
 10
98.011140756769791
 20
335.16168430486209
 30
0.0
  0
SEQEND
  5
AD5A
  8
AM_0
  0
ARC
  5
AD5B
  8
AM_0
 10
95.737830756769867
 20
333.52741430486208
 30
0.0
 40
1.000013899999999
 50
89.691659999999231
 51
270.30834000000078
  0
ARC
  5
AD5C
  8
AM_0
 10
94.866370756769797
 20
333.48236430486207
 30
0.0
 40
1.675014
 50
89.766498999996756
 51
270.2335099999994
  0
ARC
  5
AD5D
  8
AM_0
 10
94.653230756769872
 20
343.50238430486201
 30
0.0
 40
1.465004
 50
90.00000299999769
 51
270.0
  0
ARC
  5
AD5E
  8
AM_0
 10
95.737830756769867
 20
343.52741430486202
 30
0.0
 40
1.000013899999999
 50
89.691659999999231
 51
270.30834000000078
  0
ARC
  5
AD5F
  8
AM_0
 10
118.5258609554366
 20
307.89740430486211
 30
0.0
 40
1.5
 50
1.499738863867264
 51
90.0
1001
GENIUS_GENODEF_13
1002
{
1000
HIER
1070
     0
1002
}
1002
{
1000
MANEDIT
1070
     0
1002
}
1002
{
1000
NOSEL
1070
     0
1002
}
1002
{
1000
BEHIND
1070
     0
1002
}
1002
{
1000
REACTOR
1002
}
1001
GENIUS_GENOBJ-N-FIL_13
1002
{
1000
OWNER
1000
GEN
1002
}
  0
LINE
  5
AD60
  8
AM_0
 10
94.523230756769863
 20
382.2074643048619
 30
0.0
 11
130.85190075676979
 21
382.2074643048619
 31
0.0
  0
LINE
  5
AD61
  8
AM_0
 10
129.6319307567698
 20
382.52741430486202
 30
0.0
 11
95.553200756769925
 21
382.52741430486202
 31
0.0
  0
LINE
  5
AD62
  8
AM_0
 10
94.523230756769863
 20
384.8673743048621
 30
0.0
 11
130.85190075676979
 21
384.8673743048621
 31
0.0
  0
LINE
  5
AD63
  8
AM_0
 10
129.6319307567698
 20
384.52741430486202
 30
0.0
 11
95.553200756769925
 21
384.52741430486202
 31
0.0
  0
LINE
  5
AD64
  8
AM_0
 10
94.463230756769775
 20
372.26740430486211
 30
0.0
 11
130.91190075676991
 21
372.26740430486211
 31
0.0
  0
LINE
  5
AD65
  8
AM_0
 10
94.463230756769775
 20
374.79743430486201
 30
0.0
 11
130.91190075676991
 21
374.79743430486201
 31
0.0
  0
LINE
  5
AD66
  8
AM_0
 10
129.6319307567698
 20
372.52741430486202
 30
0.0
 11
95.553200756769925
 21
372.52741430486202
 31
0.0
  0
LINE
  5
AD67
  8
AM_0
 10
129.6319307567698
 20
374.52741430486202
 30
0.0
 11
95.553200756769925
 21
374.52741430486202
 31
0.0
  0
LINE
  5
AD68
  8
AM_0
 10
129.6319307567698
 20
352.52741430486202
 30
0.0
 11
95.553200756769925
 21
352.52741430486202
 31
0.0
  0
LINE
  5
AD69
  8
AM_0
 10
129.6319307567698
 20
354.52741430486202
 30
0.0
 11
95.553200756769925
 21
354.52741430486202
 31
0.0
  0
LINE
  5
AD6A
  8
AM_0
 10
94.523230756769863
 20
354.84735430486211
 30
0.0
 11
130.85190075676979
 21
354.84735430486211
 31
0.0
  0
LINE
  5
AD6B
  8
AM_0
 10
94.463230756769775
 20
362.25739430486209
 30
0.0
 11
130.91190075676991
 21
362.25739430486209
 31
0.0
  0
LINE
  5
AD6C
  8
AM_0
 10
129.6319307567698
 20
362.52741430486208
 30
0.0
 11
95.553200756769925
 21
362.52741430486208
 31
0.0
  0
LINE
  5
AD6D
  8
AM_0
 10
129.6319307567698
 20
364.52741430486202
 30
0.0
 11
95.553200756769925
 21
364.52741430486202
 31
0.0
  0
LINE
  5
AD6E
  8
AM_0
 10
94.463230756769775
 20
364.79743430486201
 30
0.0
 11
130.91190075676991
 21
364.79743430486201
 31
0.0
  0
LINE
  5
AD6F
  8
AM_0
 10
94.523230756769863
 20
352.18744430486208
 30
0.0
 11
130.86448075676969
 21
352.18744430486208
 31
0.0
  0
ARC
  5
AD70
  8
AM_0
 10
94.457370756769777
 20
373.5324143048619
 30
0.0
 40
1.2650129999999991
 50
89.735579000001735
 51
270.26441000000239
  0
ARC
  5
AD71
  8
AM_0
 10
95.737830756769867
 20
373.52741430486202
 30
0.0
 40
1.000013899999999
 50
89.691659999999231
 51
270.30834000000078
  0
POLYLINE
  5
AD72
  8
AM_0
 66
     1
 10
0.0
 20
0.0
 30
0.0
  0
VERTEX
  5
AD73
  8
AM_0
 10
95.597260756769842
 20
362.257024304862
 30
0.0
 42
0.00076695235
  0
VERTEX
  5
AD74
  8
AM_0
 10
95.612060756769765
 20
361.63926430486202
 30
0.0
 42
0.00073263043
  0
VERTEX
  5
AD75
  8
AM_0
 10
95.628700756769845
 20
361.02166430486199
 30
0.0
 42
0.00076525988
  0
VERTEX
  5
AD76
  8
AM_0
 10
95.647190756769746
 20
360.40399430486201
 30
0.0
 42
0.00075144488
  0
VERTEX
  5
AD77
  8
AM_0
 10
95.667560756769788
 20
359.78639430486209
 30
0.0
 42
0.00076035096
  0
VERTEX
  5
AD78
  8
AM_0
 10
95.689800756769841
 20
359.16896430486207
 30
0.0
 42
0.00075543154
  0
VERTEX
  5
AD79
  8
AM_0
 10
95.713900756769775
 20
358.55158430486188
 30
0.0
 42
0.0007577325
  0
VERTEX
  5
AD7A
  8
AM_0
 10
95.739880756769793
 20
357.93418430486207
 30
0.0
 42
0.00076034585
  0
VERTEX
  5
AD7B
  8
AM_0
 10
95.767730756769865
 20
357.31679430486201
 30
0.0
 42
0.00074823143
  0
VERTEX
  5
AD7C
  8
AM_0
 10
95.797460756769837
 20
356.69940430486213
 30
0.0
 42
0.00074896605
  0
VERTEX
  5
AD7D
  8
AM_0
 10
95.829020756769694
 20
356.08227430486198
 30
0.0
 42
0.00076039763
  0
VERTEX
  5
AD7E
  8
AM_0
 10
95.862440756769857
 20
355.46524430486221
 30
0.0
 42
0.00075616127
  0
VERTEX
  5
AD7F
  8
AM_0
 10
95.897740756769835
 20
354.84821430486198
 30
0.0
  0
SEQEND
  5
AD80
  8
AM_0
  0
ARC
  5
AD81
  8
AM_0
 10
95.737830756769867
 20
353.52741430486202
 30
0.0
 40
1.000013899999999
 50
89.691659999999231
 51
270.30834000000078
  0
ARC
  5
AD82
  8
AM_0
 10
94.523230756769863
 20
353.51740430486211
 30
0.0
 40
1.3300049999999981
 50
90.00000299999769
 51
270.0
  0
POLYLINE
  5
AD83
  8
AM_0
 66
     1
 10
0.0
 20
0.0
 30
0.0
  0
VERTEX
  5
AD84
  8
AM_0
 10
95.553200756769925
 20
368.52741430486202
 30
0.0
 42
0.00039106589
  0
VERTEX
  5
AD85
  8
AM_0
 10
95.550840756769844
 20
368.216274304862
 30
0.0
 42
0.00035488584
  0
VERTEX
  5
AD86
  8
AM_0
 10
95.548950756769841
 20
367.90516430486201
 30
0.0
 42
0.00039705232
  0
VERTEX
  5
AD87
  8
AM_0
 10
95.547520756769785
 20
367.594064304862
 30
0.0
 42
0.0003876649
  0
VERTEX
  5
AD88
  8
AM_0
 10
95.546590756769774
 20
367.28292430486198
 30
0.0
 42
0.00040613779
  0
VERTEX
  5
AD89
  8
AM_0
 10
95.546140756769773
 20
366.97181430486199
 30
0.0
 42
0.00035571855
  0
VERTEX
  5
AD8A
  8
AM_0
 10
95.546180756769871
 20
366.66071430486198
 30
0.0
 42
0.00038547358
  0
VERTEX
  5
AD8B
  8
AM_0
 10
95.546670756769785
 20
366.34957430486202
 30
0.0
 42
0.000355015
  0
VERTEX
  5
AD8C
  8
AM_0
 10
95.547630756769848
 20
366.03847430486201
 30
0.0
 42
0.00040118616
  0
VERTEX
  5
AD8D
  8
AM_0
 10
95.549050756769788
 20
365.72724430486221
 30
0.0
 42
0.00038319867
  0
VERTEX
  5
AD8E
  8
AM_0
 10
95.550960756769868
 20
365.4161043048619
 30
0.0
 42
0.00035656356
  0
VERTEX
  5
AD8F
  8
AM_0
 10
95.553340756769785
 20
365.10487430486199
 30
0.0
 42
0.00040140992
  0
VERTEX
  5
AD90
  8
AM_0
 10
95.556190756769865
 20
364.79376430486201
 30
0.0
  0
SEQEND
  5
AD91
  8
AM_0
  0
ARC
  5
AD92
  8
AM_0
 10
95.737830756769867
 20
363.52741430486191
 30
0.0
 40
1.000013899999999
 50
89.691659999999231
 51
270.30834000000078
  0
ARC
  5
AD93
  8
AM_0
 10
94.457370756769777
 20
363.52741430486191
 30
0.0
 40
1.2700129999999981
 50
89.736617000001587
 51
270.2633699999991
  0
POLYLINE
  5
AD94
  8
AM_0
 66
     1
 10
0.0
 20
0.0
 30
0.0
  0
VERTEX
  5
AD95
  8
AM_0
 10
95.553200756769925
 20
368.52741430486202
 30
0.0
 42
-0.00039106649
  0
VERTEX
  5
AD96
  8
AM_0
 10
95.550840756769844
 20
368.83854430486213
 30
0.0
 42
-0.00035488198
  0
VERTEX
  5
AD97
  8
AM_0
 10
95.548950756769841
 20
369.149654304862
 30
0.0
 42
-0.00039706113
  0
VERTEX
  5
AD98
  8
AM_0
 10
95.547520756769785
 20
369.46076430486198
 30
0.0
 42
-0.00038765718
  0
VERTEX
  5
AD99
  8
AM_0
 10
95.546590756769774
 20
369.77190430486212
 30
0.0
 42
-0.00040613432
  0
VERTEX
  5
AD9A
  8
AM_0
 10
95.546140756769773
 20
370.08300430486202
 30
0.0
 42
-0.00035573434
  0
VERTEX
  5
AD9B
  8
AM_0
 10
95.546180756769871
 20
370.394114304862
 30
0.0
 42
-0.00038545884
  0
VERTEX
  5
AD9C
  8
AM_0
 10
95.546670756769785
 20
370.70524430486199
 30
0.0
 42
-0.00035501205
  0
VERTEX
  5
AD9D
  8
AM_0
 10
95.547630756769848
 20
371.01635430486198
 30
0.0
 42
-0.00040120779
  0
VERTEX
  5
AD9E
  8
AM_0
 10
95.549050756769788
 20
371.327584304862
 30
0.0
 42
-0.00038317817
  0
VERTEX
  5
AD9F
  8
AM_0
 10
95.550960756769868
 20
371.63871430486211
 30
0.0
 42
-0.00035656084
  0
VERTEX
  5
ADA0
  8
AM_0
 10
95.553340756769785
 20
371.9499543048621
 30
0.0
 42
-0.00040143615
  0
VERTEX
  5
ADA1
  8
AM_0
 10
95.556190756769865
 20
372.261054304862
 30
0.0
  0
SEQEND
  5
ADA2
  8
AM_0
  0
ARC
  5
ADA3
  8
AM_0
 10
94.523230756769863
 20
383.53742430486199
 30
0.0
 40
1.3300049999999981
 50
90.00000299999769
 51
270.0
  0
ARC
  5
ADA4
  8
AM_0
 10
95.737830756769867
 20
383.52741430486208
 30
0.0
 40
1.000013899999999
 50
89.691659999999231
 51
270.30834000000078
  0
POLYLINE
  5
ADA5
  8
AM_0
 66
     1
 10
0.0
 20
0.0
 30
0.0
  0
VERTEX
  5
ADA6
  8
AM_0
 10
95.597260756769842
 20
374.79779430486201
 30
0.0
 42
-0.00076691992
  0
VERTEX
  5
ADA7
  8
AM_0
 10
95.612060756769765
 20
375.41556430486202
 30
0.0
 42
-0.00073262792
  0
VERTEX
  5
ADA8
  8
AM_0
 10
95.628700756769845
 20
376.03315430486208
 30
0.0
 42
-0.00076529537
  0
VERTEX
  5
ADA9
  8
AM_0
 10
95.647190756769746
 20
376.65082430486183
 30
0.0
 42
-0.00075141097
  0
VERTEX
  5
ADAA
  8
AM_0
 10
95.667560756769788
 20
377.26842430486198
 30
0.0
 42
-0.00075841687
  0
VERTEX
  5
ADAB
  8
AM_0
 10
95.689790756769867
 20
377.88585430486199
 30
0.0
 42
-0.00075711788
  0
VERTEX
  5
ADAC
  8
AM_0
 10
95.713900756769775
 20
378.50336430486198
 30
0.0
 42
-0.00075976003
  0
VERTEX
  5
ADAD
  8
AM_0
 10
95.739890756769796
 20
379.12075430486198
 30
0.0
 42
-0.00075797311
  0
VERTEX
  5
ADAE
  8
AM_0
 10
95.767730756769865
 20
379.73803430486208
 30
0.0
 42
-0.0007482613
  0
VERTEX
  5
ADAF
  8
AM_0
 10
95.797460756769837
 20
380.35541430486199
 30
0.0
 42
-0.00074893561
  0
VERTEX
  5
ADB0
  8
AM_0
 10
95.829020756769694
 20
380.97254430486208
 30
0.0
 42
-0.00076039839
  0
VERTEX
  5
ADB1
  8
AM_0
 10
95.862440756769857
 20
381.58957430486203
 30
0.0
 42
-0.00075618786
  0
VERTEX
  5
ADB2
  8
AM_0
 10
95.897740756769835
 20
382.20661430486211
 30
0.0
  0
SEQEND
  5
ADB3
  8
AM_0
  0
POLYLINE
  5
ADB4
  8
AM_0
 66
     1
 10
0.0
 20
0.0
 30
0.0
  0
VERTEX
  5
ADB5
  8
AM_0
 10
96.071450756769863
 20
384.86798430486198
 30
0.0
 42
-0.0007337051
  0
VERTEX
  5
ADB6
  8
AM_0
 10
96.115590756769862
 20
385.47040430486197
 30
0.0
 42
-0.00075211323
  0
VERTEX
  5
ADB7
  8
AM_0
 10
96.161530756769864
 20
386.07279430486221
 30
0.0
 42
-0.0007297491
  0
VERTEX
  5
ADB8
  8
AM_0
 10
96.209260756769851
 20
386.67499430486208
 30
0.0
 42
-0.00073593041
  0
VERTEX
  5
ADB9
  8
AM_0
 10
96.258740756769868
 20
387.27698430486203
 30
0.0
 42
-0.00074742739
  0
VERTEX
  5
ADBA
  8
AM_0
 10
96.31001075676987
 20
387.87885430486182
 30
0.0
 42
-0.00073217363
  0
VERTEX
  5
ADBB
  8
AM_0
 10
96.363070756769844
 20
388.48065430486201
 30
0.0
 42
-0.00073754168
  0
VERTEX
  5
ADBC
  8
AM_0
 10
96.417890756769793
 20
389.0821943048619
 30
0.0
 42
-0.00073075073
  0
VERTEX
  5
ADBD
  8
AM_0
 10
96.474470756769861
 20
389.68355430486201
 30
0.0
 42
-0.00074550816
  0
VERTEX
  5
ADBE
  8
AM_0
 10
96.532810756769791
 20
390.28461430486198
 30
0.0
 42
-0.00074288416
  0
VERTEX
  5
ADBF
  8
AM_0
 10
96.592960756769784
 20
390.88563430486198
 30
0.0
 42
-0.00072504001
  0
VERTEX
  5
ADC0
  8
AM_0
 10
96.654870756769796
 20
391.4863843048621
 30
0.0
 42
-0.00074640667
  0
VERTEX
  5
ADC1
  8
AM_0
 10
96.718540756769826
 20
392.08698430486203
 30
0.0
  0
SEQEND
  5
ADC2
  8
AM_0
  0
ARC
  5
ADC3
  8
AM_0
 10
95.737830756769867
 20
393.52741430486202
 30
0.0
 40
1.000013899999999
 50
89.691659999999231
 51
270.30834000000078
  0
ARC
  5
ADC4
  8
AM_0
 10
129.6319307567698
 20
373.52741430486202
 30
0.0
 40
1.0000056999999991
 50
269.999989999999
 51
90.00000299999769
  0
ARC
  5
ADC5
  8
AM_0
 10
129.6319307567698
 20
353.52741430486202
 30
0.0
 40
1.0000056999999991
 50
269.999989999999
 51
90.00000299999769
  0
ARC
  5
ADC6
  8
AM_0
 10
129.6319307567698
 20
363.52741430486191
 30
0.0
 40
1.0000056999999991
 50
269.999989999999
 51
90.00000299999769
  0
ARC
  5
ADC7
  8
AM_0
 10
129.6319307567698
 20
383.52741430486208
 30
0.0
 40
1.0000056999999991
 50
269.999989999999
 51
90.00000299999769
  0
ARC
  5
ADC8
  8
AM_0
 10
162.19321075676979
 20
341.02741430486202
 30
0.0
 40
1.5
 50
0.0
 51
90.00000299999769
  0
ARC
  5
ADC9
  8
AM_0
 10
162.19321075676979
 20
336.02741430486202
 30
0.0
 40
1.5
 50
269.999989999999
 51
0.0000006832495047
  0
LINE
  5
ADCA
  8
AM_0
 10
194.5332407567698
 20
332.52741430486202
 30
0.0
 11
150.19321075676979
 21
332.52741430486202
 31
0.0
  0
LINE
  5
ADCB
  8
AM_0
 10
194.5332407567698
 20
334.52741430486202
 30
0.0
 11
150.19321075676979
 21
334.52741430486202
 31
0.0
  0
LINE
  5
ADCC
  8
AM_0
 10
163.2132307567698
 20
341.02741430486202
 30
0.0
 11
163.2132307567698
 21
336.16742430486198
 31
0.0
  0
ARC
  5
ADCD
  8
AM_0
 10
162.2132307567698
 20
336.16742430486198
 30
0.0
 40
1.0
 50
269.999989999999
 51
0.0000006832495047
  0
ARC
  5
ADCE
  8
AM_0
 10
162.19321075676979
 20
341.02741430486202
 30
0.0
 40
1.02
 50
0.0
 51
90.00000299999769
  0
ARC
  5
ADCF
  8
AM_0
 10
193.3183907567697
 20
314.25214430486221
 30
0.0
 40
2.0047290000000002
 50
270.13832000000423
 51
344.82650000000177
  0
ARC
  5
ADD0
  8
AM_0
 10
180.1932107567697
 20
341.02741430486202
 30
0.0
 40
1.02
 50
90.00000299999769
 51
180.00001000000091
  0
ARC
  5
ADD1
  8
AM_0
 10
180.1932107567697
 20
341.02741430486202
 30
0.0
 40
1.5
 50
90.00000299999769
 51
180.00001000000091
  0
ARC
  5
ADD2
  8
AM_0
 10
180.1932107567697
 20
336.02741430486202
 30
0.0
 40
1.5
 50
179.99998999999889
 51
270.0
  0
ARC
  5
ADD3
  8
AM_0
 10
180.1731907567698
 20
336.16742430486198
 30
0.0
 40
1.0
 50
179.99998999999889
 51
270.0
  0
CIRCLE
  5
ADD4
  8
AM_0
 10
173.69321075676979
 20
340.02741430486202
 30
0.0
 40
1.0
  0
CIRCLE
  5
ADD5
  8
AM_0
 10
168.69321075676979
 20
340.02741430486202
 30
0.0
 40
1.1000000000000001
  0
CIRCLE
  5
ADD6
  8
AM_0
 10
168.69321075676979
 20
340.02741430486202
 30
0.0
 40
1.149999999999999
  0
LINE
  5
ADD7
  8
AM_0
 10
163.69321075676979
 20
341.02741430486202
 30
0.0
 11
163.69321075676979
 21
336.02741430486202
 31
0.0
  0
LINE
  5
ADD8
  8
AM_0
 10
178.69321075676979
 20
341.02741430486202
 30
0.0
 11
178.69321075676979
 21
336.02741430486202
 31
0.0
  0
LINE
  5
ADD9
  8
AM_0
 10
179.1731907567698
 20
341.02741430486202
 30
0.0
 11
179.1731907567698
 21
336.16742430486198
 31
0.0
  0
LINE
  5
ADDA
  8
AM_0
 10
194.52604075676959
 20
342.52741430486191
 30
0.0
 11
180.1932107567697
 21
342.52741430486191
 31
0.0
  0
LINE
  5
ADDB
  8
AM_0
 10
194.54038075676971
 20
394.52741430486191
 30
0.0
 11
180.1932107567697
 21
394.52741430486191
 31
0.0
  0
LINE
  5
ADDC
  8
AM_0
 10
194.5332407567698
 20
402.52741430486179
 30
0.0
 11
95.553200756769925
 21
402.52741430486179
 31
0.0
  0
LINE
  5
ADDD
  8
AM_0
 10
194.5332407567698
 20
404.52741430486202
 30
0.0
 11
95.553200756769925
 21
404.52741430486202
 31
0.0
  0
LINE
  5
ADDE
  8
AM_0
 10
96.483190756769801
 20
430.41742430486198
 30
0.0
 11
193.3232807567698
 21
430.41742430486198
 31
0.0
  0
LINE
  5
ADDF
  8
AM_0
 10
96.463230756769789
 20
429.50739430486198
 30
0.0
 11
193.32322075676981
 21
429.50739430486198
 31
0.0
  0
LINE
  5
ADE0
  8
AM_0
 10
96.443210756769872
 20
427.65741430486207
 30
0.0
 11
193.32322075676981
 21
427.65741430486207
 31
0.0
  0
LINE
  5
ADE1
  8
AM_0
 10
96.403230756769887
 20
424.80744430486192
 30
0.0
 11
193.32322075676981
 21
424.80744430486192
 31
0.0
  0
LINE
  5
ADE2
  8
AM_0
 10
94.653230756769872
 20
395.01740430486211
 30
0.0
 11
162.19321075676979
 21
395.01740430486211
 31
0.0
  0
LINE
  5
ADE3
  8
AM_0
 10
94.873200756769847
 20
401.89740430486182
 30
0.0
 11
162.2132307567698
 21
401.89740430486182
 31
0.0
  0
LINE
  5
ADE4
  8
AM_0
 10
80.193210756769872
 20
412.41840430486201
 30
0.0
 11
80.193210756769872
 21
421.27741430486168
 31
0.0
  0
LINE
  5
ADE5
  8
AM_0
 10
93.193210756769858
 20
416.62744430486191
 30
0.0
 11
94.433200756769907
 21
423.1874143048621
 31
0.0
  0
LINE
  5
ADE6
  8
AM_0
 10
98.553200756769925
 20
405.1774043048618
 30
0.0
 11
93.193210756769858
 21
416.62738430486178
 31
0.0
  0
POLYLINE
  5
ADE7
  8
AM_0
 66
     1
 10
0.0
 20
0.0
 30
0.0
  0
VERTEX
  5
ADE8
  8
AM_0
 10
97.054110756769873
 20
395.01044430486201
 30
0.0
 42
-0.00068898288
  0
VERTEX
  5
ADE9
  8
AM_0
 10
97.124990756769776
 20
395.585194304862
 30
0.0
 42
-0.00070644354
  0
VERTEX
  5
ADEA
  8
AM_0
 10
97.197490756769866
 20
396.15988430486198
 30
0.0
 42
-0.00069248071
  0
VERTEX
  5
ADEB
  8
AM_0
 10
97.271580756769822
 20
396.734194304862
 30
0.0
 42
-0.00069585665
  0
VERTEX
  5
ADEC
  8
AM_0
 10
97.347260756769842
 20
397.30833430486211
 30
0.0
 42
-0.00068980191
  0
VERTEX
  5
ADED
  8
AM_0
 10
97.424560756769793
 20
397.8823343048619
 30
0.0
 42
-0.00072080104
  0
VERTEX
  5
ADEE
  8
AM_0
 10
97.503450756769865
 20
398.45612430486199
 30
0.0
 42
-0.00071002307
  0
VERTEX
  5
ADEF
  8
AM_0
 10
97.58399075676985
 20
399.02959430486197
 30
0.0
 42
-0.00072659056
  0
VERTEX
  5
ADF0
  8
AM_0
 10
97.666150756769881
 20
399.6026943048621
 30
0.0
 42
-0.00069570481
  0
VERTEX
  5
ADF1
  8
AM_0
 10
97.749970756769784
 20
400.17572430486177
 30
0.0
 42
-0.00071266935
  0
VERTEX
  5
ADF2
  8
AM_0
 10
97.8354007567699
 20
400.74849430486199
 30
0.0
 42
-0.00071614426
  0
VERTEX
  5
ADF3
  8
AM_0
 10
97.922430756769785
 20
401.32083430486199
 30
0.0
 42
-0.00072288975
  0
VERTEX
  5
ADF4
  8
AM_0
 10
98.011140756769791
 20
401.89313430486192
 30
0.0
  0
SEQEND
  5
ADF5
  8
AM_0
  0
ARC
  5
ADF6
  8
AM_0
 10
95.737830756769867
 20
403.52741430486208
 30
0.0
 40
1.000013899999999
 50
89.691659999999231
 51
270.30834000000078
  0
ARC
  5
ADF7
  8
AM_0
 10
94.865820756769835
 20
403.57245430486199
 30
0.0
 40
1.6750160000000001
 50
89.746145000004447
 51
270.25387000000092
  0
LINE
  5
ADF8
  8
AM_0
 10
85.893220756769793
 20
411.717354304862
 30
0.0
 11
92.123200756769833
 21
411.717354304862
 31
0.0
  0
LINE
  5
ADF9
  8
AM_0
 10
73.193210756769872
 20
427.27741430486208
 30
0.0
 11
73.193210756769872
 21
433.52741430486208
 31
0.0
  0
LINE
  5
ADFA
  8
AM_0
 10
73.193210756769872
 20
428.52741430486208
 30
0.0
 11
76.193210756769872
 21
428.52741430486208
 31
0.0
  0
LINE
  5
ADFB
  8
AM_0
 10
76.193210756769872
 20
428.52741430486208
 30
0.0
 11
76.193210756769872
 21
433.52741430486208
 31
0.0
  0
ARC
  5
ADFC
  8
AM_0
 10
96.457800756769885
 20
427.51068430486191
 30
0.0
 40
1.9967330000000001
 50
89.843966999998912
 51
171.45387999999721
  0
LINE
  5
ADFD
  8
AM_0
 10
93.193210756769858
 20
419.3174243048619
 30
0.0
 11
94.503210756769789
 21
428.69745430486211
 31
0.0
  0
LINE
  5
ADFE
  8
AM_0
 10
85.193210756769872
 20
421.52741430486202
 30
0.0
 11
93.193210756769858
 21
421.52741430486202
 31
0.0
  0
LINE
  5
ADFF
  8
AM_0
 10
93.193210756769858
 20
417.967444304862
 30
0.0
 11
94.473180756769807
 21
425.97739430486178
 31
0.0
  0
LINE
  5
AE00
  8
AM_0
 10
93.193210756769858
 20
419.3174243048619
 30
0.0
 11
94.483190756769773
 21
427.80738430486213
 31
0.0
  0
ARC
  5
AE01
  8
AM_0
 10
96.391940756769785
 20
422.8133043048619
 30
0.0
 40
1.994108999999999
 50
89.675548000002749
 51
169.18776999999869
  0
ARC
  5
AE02
  8
AM_0
 10
96.443460756769795
 20
425.66217430486171
 30
0.0
 40
1.9952829999999979
 50
90.006203999996856
 51
170.90835000000069
  0
ARC
  5
AE03
  8
AM_0
 10
96.479710756769791
 20
428.4218243048619
 30
0.0
 40
1.995633
 50
89.899708000002292
 51
172.06112999999959
  0
ARC
  5
AE04
  8
AM_0
 10
162.19321075676979
 20
401.02741430486191
 30
0.0
 40
1.5
 50
0.0
 51
90.00000299999769
  0
LINE
  5
AE05
  8
AM_0
 10
163.2132307567698
 20
396.02741430486208
 30
0.0
 11
163.2132307567698
 21
400.88739430486191
 31
0.0
  0
ARC
  5
AE06
  8
AM_0
 10
162.2132307567698
 20
400.88739430486191
 30
0.0
 40
1.0
 50
0.0
 51
90.00000299999769
  0
ARC
  5
AE07
  8
AM_0
 10
180.1731907567698
 20
400.88739430486191
 30
0.0
 40
1.0
 50
90.00000299999769
 51
180.00001000000091
  0
ARC
  5
AE08
  8
AM_0
 10
180.1932107567697
 20
401.02741430486191
 30
0.0
 40
1.5
 50
90.00000299999769
 51
180.00001000000091
  0
LINE
  5
AE09
  8
AM_0
 10
163.69321075676979
 20
396.02741430486208
 30
0.0
 11
163.69321075676979
 21
401.02741430486191
 31
0.0
  0
CIRCLE
  5
AE0A
  8
AM_0
 10
168.69321075676979
 20
397.02741430486202
 30
0.0
 40
1.149999999999999
  0
CIRCLE
  5
AE0B
  8
AM_0
 10
168.69321075676979
 20
397.02741430486202
 30
0.0
 40
1.1000000000000001
  0
LINE
  5
AE0C
  8
AM_0
 10
178.69321075676979
 20
396.02741430486208
 30
0.0
 11
178.69321075676979
 21
401.02741430486191
 31
0.0
  0
LINE
  5
AE0D
  8
AM_0
 10
179.1731907567698
 20
396.02741430486208
 30
0.0
 11
179.1731907567698
 21
400.88739430486191
 31
0.0
  0
CIRCLE
  5
AE0E
  8
AM_0
 10
173.69321075676979
 20
397.02741430486202
 30
0.0
 40
1.0
  0
ARC
  5
AE0F
  8
AM_0
 10
193.3183907567697
 20
427.50263430486211
 30
0.0
 40
2.0047290000000002
 50
15.173495999996319
 51
89.861678000000197
  0
ARC
  5
AE10
  8
AM_0
 10
193.3232807567698
 20
422.80915430486192
 30
0.0
 40
1.9982919999999991
 50
15.032547999996
 51
90.002632000001341
  0
ARC
  5
AE11
  8
AM_0
 10
193.3183907567697
 20
425.65265430486198
 30
0.0
 40
2.0047290000000002
 50
15.173495999996319
 51
89.861678000000197
  0
ARC
  5
AE12
  8
AM_0
 10
193.3183907567697
 20
428.41266430486212
 30
0.0
 40
2.0047290000000002
 50
15.173495999996319
 51
89.861678000000197
  0
ARC
  5
AE13
  8
AM_0
 10
198.2331907567698
 20
393.55744430486192
 30
0.0
 40
1.460011199999999
 50
269.77524999999662
 51
90.224749999996845
  0
LINE
  5
AE14
  8
AM_0
 10
201.19321075676979
 20
424.52741430486208
 30
0.0
 11
201.19321075676979
 21
312.52741430486208
 31
0.0
  0
LINE
  5
AE15
  8
AM_0
 10
201.19321075676979
 20
312.52741430486208
 30
0.0
 11
209.19321075676979
 21
312.52741430486208
 31
0.0
  0
LINE
  5
AE16
  8
AM_0
 10
195.7352607567698
 20
315.52741430486191
 30
0.0
 11
201.19321075676979
 21
315.52741430486191
 31
0.0
  0
LINE
  5
AE17
  8
AM_0
 10
201.19321075676979
 20
322.52741430486202
 30
0.0
 11
209.19321075676979
 21
322.52741430486202
 31
0.0
  0
LINE
  5
AE18
  8
AM_0
 10
201.19321075676979
 20
336.5874743048621
 30
0.0
 11
209.19321075676979
 21
336.5874743048621
 31
0.0
  0
ARC
  5
AE19
  8
AM_0
 10
198.0132207567697
 20
333.48236430486207
 30
0.0
 40
1.6750020000000001
 50
269.999989999999
 51
90.00000299999769
  0
ARC
  5
AE1A
  8
AM_0
 10
200.84641075676981
 20
328.80463430486202
 30
0.0
 40
1.502775999999999
 50
90.122413000001615
 51
165.2435700000006
  0
ARC
  5
AE1B
  8
AM_0
 10
198.2331907567698
 20
343.49738430486201
 30
0.0
 40
1.460011199999999
 50
269.77524999999662
 51
90.224749999996845
  0
LINE
  5
AE1C
  8
AM_0
 10
201.19321075676979
 20
400.46735430486177
 30
0.0
 11
209.19321075676979
 21
400.46735430486177
 31
0.0
  0
ARC
  5
AE1D
  8
AM_0
 10
198.0132207567697
 20
403.57245430486199
 30
0.0
 40
1.6750020000000001
 50
269.999989999999
 51
90.00000299999769
  0
LINE
  5
AE1E
  8
AM_0
 10
201.19321075676979
 20
414.52741430486179
 30
0.0
 11
209.19321075676979
 21
414.52741430486179
 31
0.0
  0
ARC
  5
AE1F
  8
AM_0
 10
200.84641075676981
 20
412.95014430486208
 30
0.0
 40
1.502775999999999
 50
194.7564299999992
 51
269.8775799999986
  0
ARC
  5
AE20
  8
AM_0
 10
200.84641075676981
 20
408.25019430486208
 30
0.0
 40
1.502775999999999
 50
194.7564299999992
 51
269.8775799999986
  0
ARC
  5
AE21
  8
AM_0
 10
200.84641075676981
 20
411.10016430486201
 30
0.0
 40
1.502775999999999
 50
194.7564299999992
 51
269.8775799999986
  0
ARC
  5
AE22
  8
AM_0
 10
200.84641075676981
 20
413.86017430486208
 30
0.0
 40
1.502775999999999
 50
194.7564299999992
 51
269.8775799999986
  0
LINE
  5
AE23
  8
AM_0
 10
201.19321075676979
 20
424.52741430486208
 30
0.0
 11
209.19321075676979
 21
424.52741430486208
 31
0.0
  0
LINE
  5
AE24
  8
AM_0
 10
195.7331907567698
 20
421.52741430486202
 30
0.0
 11
201.19321075676979
 21
421.52741430486202
 31
0.0
  0
TEXT
  5
B1BA
  8
0
  6
CONTINUOUS
 62
     0
 10
398.39643642868521
 20
359.06774565413048
 30
0.0
 40
10.0
  1
VX02-003B~VX02-030B
  0
VIEWPORT
  5
89
 67
     1
  8
0
 10
210.0
 20
148.5
 30
0.0
 40
420.0
 41
297.0
 68
    -1
 69
     1
1001
ACAD
1000
MVIEW
1002
{
1070
    16
1010
0.0
1020
0.0
1030
0.0
1010
0.0
1020
0.0
1030
1.0
1040
0.0
1040
297.0
1040
221.70154043645701
1040
148.5
1040
50.0
1040
0.0
1040
0.0
1070
     0
1070
   100
1070
     1
1070
     1
1070
     0
1070
     0
1070
     0
1070
     0
1040
0.0
1040
0.0
1040
0.0
1040
10.0
1040
10.0
1040
10.0
1040
10.0
1070
     0
1002
{
1002
}
1002
}
1001
GENIUS_GENOREF_13
1005
1B94
1001
GENIUS_GENSCREG_15
1000
PF
1040
1.0
1000
DF
1040
1.0
1000
MIN
1011
0.0
1021
0.0
1031
0.0
1021
0.0
1031
0.0
1000
MAX
1011
420.0
1021
0.0
1031
0.0
1021
297.0
1031
0.0
1000
FLAGS
1070
     4
  0
ENDSEC
  0
EOF
