  0
SECTION
  2
HEADER
  9
$ACADVER
  1
AC1009
  9
$INSBASE
 10
0.0
 20
0.0
 30
0.0
  9
$EXTMIN
 10
0.0
 20
0.0
 30
0.0
  9
$EXTMAX
 10
624.09105298053225
 20
476.03855362289062
 30
0.0
  9
$LIMMIN
 10
0.0
 20
0.0
  9
$LIMMAX
 10
408.0
 20
284.0
  9
$ORTHOMODE
 70
     0
  9
$REGENMODE
 70
     1
  9
$FILLMODE
 70
     1
  9
$QTEXTMODE
 70
     0
  9
$MIRRTEXT
 70
     1
  9
$DRAGMODE
 70
     2
  9
$LTSCALE
 40
1.0
  9
$OSMODE
 70
   551
  9
$ATTMODE
 70
     1
  9
$TEXTSIZE
 40
2.5
  9
$TRACEWID
 40
1.0
  9
$TEXTSTYLE
  7
STANDARD
  9
$CLAYER
  8
AM_0
  9
$CELTYPE
  6
BYLAYER
  9
$CECOLOR
 62
   256
  9
$DIMSCALE
 40
1.0
  9
$DIMASZ
 40
2.5
  9
$DIMEXO
 40
1.0
  9
$DIMDLI
 40
7.0
  9
$DIMRND
 40
0.0
  9
$DIMDLE
 40
0.0
  9
$DIMEXE
 40
1.0
  9
$DIMTP
 40
0.1
  9
$DIMTM
 40
0.1000000001
  9
$DIMTXT
 40
2.5
  9
$DIMCEN
 40
0.0
  9
$DIMTSZ
 40
0.0
  9
$DIMTOL
 70
     0
  9
$DIMLIM
 70
     0
  9
$DIMTIH
 70
     0
  9
$DIMTOH
 70
     0
  9
$DIMSE1
 70
     0
  9
$DIMSE2
 70
     0
  9
$DIMTAD
 70
     3
  9
$DIMZIN
 70
     8
  9
$DIMBLK
  1

  9
$DIMASO
 70
     1
  9
$DIMSHO
 70
     1
  9
$DIMPOST
  1

  9
$DIMAPOST
  1
"
  9
$DIMALT
 70
     0
  9
$DIMALTD
 70
     2
  9
$DIMALTF
 40
0.0393701
  9
$DIMLFAC
 40
1.0
  9
$DIMTOFL
 70
     1
  9
$DIMTVP
 40
0.0
  9
$DIMTIX
 70
     0
  9
$DIMSOXD
 70
     0
  9
$DIMSAH
 70
     0
  9
$DIMBLK1
  1

  9
$DIMBLK2
  1

  9
$DIMSTYLE
  2
AM_JIS
  9
$DIMCLRD
 70
   256
  9
$DIMCLRE
 70
   256
  9
$DIMCLRT
 70
     4
  9
$DIMTFAC
 40
0.71
  9
$DIMGAP
 40
1.0
  9
$LUNITS
 70
     2
  9
$LUPREC
 70
     2
  9
$SKETCHINC
 40
1.0
  9
$FILLETRAD
 40
2.5
  9
$AUNITS
 70
     0
  9
$AUPREC
 70
     3
  9
$MENU
  1
.
  9
$ELEVATION
 40
0.0
  9
$PELEVATION
 40
0.0
  9
$THICKNESS
 40
0.0
  9
$LIMCHECK
 70
     0
  9
$BLIPMODE
 70
     0
  9
$CHAMFERA
 40
2.5
  9
$CHAMFERB
 40
2.5
  9
$SKPOLY
 70
     0
  9
$TDCREATE
 40
2453061.580974028
  9
$TDUPDATE
 40
2458540.7012797692
  9
$TDINDWG
 40
0.1198551157
  9
$TDUSRTIMER
 40
0.1198550694
  9
$USRTIMER
 70
     1
  9
$ANGBASE
 50
0.0
  9
$ANGDIR
 70
     0
  9
$PDMODE
 70
     0
  9
$PDSIZE
 40
0.0
  9
$PLINEWID
 40
0.0
  9
$COORDS
 70
     1
  9
$SPLFRAME
 70
     0
  9
$SPLINETYPE
 70
     6
  9
$SPLINESEGS
 70
     8
  9
$ATTDIA
 70
     1
  9
$ATTREQ
 70
     1
  9
$HANDLING
 70
     1
  9
$HANDSEED
  5
A955
  9
$SURFTAB1
 70
     6
  9
$SURFTAB2
 70
     6
  9
$SURFTYPE
 70
     6
  9
$SURFU
 70
     6
  9
$SURFV
 70
     6
  9
$UCSNAME
  2

  9
$UCSORG
 10
0.0
 20
0.0
 30
0.0
  9
$UCSXDIR
 10
1.0
 20
0.0
 30
0.0
  9
$UCSYDIR
 10
0.0
 20
1.0
 30
0.0
  9
$PUCSNAME
  2

  9
$PUCSORG
 10
0.0
 20
0.0
 30
0.0
  9
$PUCSXDIR
 10
1.0
 20
0.0
 30
0.0
  9
$PUCSYDIR
 10
0.0
 20
1.0
 30
0.0
  9
$USERI1
 70
     0
  9
$USERI2
 70
     0
  9
$USERI3
 70
     0
  9
$USERI4
 70
     0
  9
$USERI5
 70
     0
  9
$USERR1
 40
0.0
  9
$USERR2
 40
0.0
  9
$USERR3
 40
0.0
  9
$USERR4
 40
0.0
  9
$USERR5
 40
0.0
  9
$WORLDVIEW
 70
     1
  9
$SHADEDGE
 70
     3
  9
$SHADEDIF
 70
    70
  9
$TILEMODE
 70
     1
  9
$MAXACTVP
 70
    48
  9
$PLIMCHECK
 70
     0
  9
$PEXTMIN
 10
1.0000000000000000E+020
 20
1.0000000000000000E+020
 30
1.0000000000000000E+020
  9
$PEXTMAX
 10
-1.0000000000000000E+020
 20
-1.0000000000000000E+020
 30
-1.0000000000000000E+020
  9
$PLIMMIN
 10
0.0
 20
0.0
  9
$PLIMMAX
 10
420.0
 20
297.0
  9
$UNITMODE
 70
     0
  9
$VISRETAIN
 70
     1
  9
$PLINEGEN
 70
     0
  9
$PSLTSCALE
 70
     1
  0
ENDSEC
  0
SECTION
  2
TABLES
  0
TABLE
  2
VPORT
 70
     1
  0
VPORT
  2
*ACTIVE
 70
     0
 10
0.0
 20
0.0
 11
1.0
 21
1.0
 12
325.70769661107067
 22
264.96787088807719
 13
0.0
 23
0.0
 14
1.0
 24
1.0
 15
10.0
 25
10.0
 16
0.0
 26
0.0
 36
1.0
 17
0.0
 27
0.0
 37
0.0
 40
425.26475889534032
 41
1.7571592210767459
 42
50.0
 43
0.0
 44
0.0
 50
0.0
 51
0.0
 71
     0
 72
   100
 73
     1
 74
     1
 75
     0
 76
     0
 77
     0
 78
     0
  0
ENDTAB
  0
TABLE
  2
LTYPE
 70
    26
  0
LTYPE
  2
CONTINUOUS
 70
     0
  3
Solid line
 72
    65
 73
     0
 40
0.0
  0
LTYPE
  2
PHANTOM2
 70
     0
  3
Phantom (.5x) ___ _ _ ___ _ _ ___ _ _ ___ _ _
 72
    65
 73
     6
 40
31.75
 49
15.875
 49
-3.174999999999998
 49
3.174999999999998
 49
-3.174999999999998
 49
3.174999999999998
 49
-3.174999999999998
  0
LTYPE
  2
CENTER
 70
     0
  3
Center ____ _ ____ _ ____ _ ____ _ ____ _ ____
 72
    65
 73
     4
 40
50.799999999999997
 49
31.75
 49
-6.349999999999997
 49
6.349999999999997
 49
-6.349999999999997
  0
LTYPE
  2
ACANSTGBM
 70
     0
  3
__ . . __ . .
 72
    65
 73
     6
 40
9.0
 49
4.0
 49
-1.0
 49
1.0
 49
-1.0
 49
1.0
 49
-1.0
  0
LTYPE
  2
ACANSTGLM
 70
     0
  3
_ _ _ _ _
 72
    65
 73
     2
 40
3.0
 49
2.0
 49
-1.0
  0
LTYPE
  2
GEN7
 70
     0
  3
____ . ____ . ____ . ____ . ____ . ____ . ____
 72
    65
 73
     4
 40
14.25
 49
9.75
 49
-1.5
 49
1.5
 49
-1.5
  0
LTYPE
  2
GEN3B
 70
     0
  3
 - - - - -
 72
    65
 73
     2
 40
1.0
 49
0.5
 49
-0.5
  0
LTYPE
  2
AM_ISO02W050
 70
     0
  3
__ __ __ __ __ __ __ __ __ __ __ __ __ __ __
 72
    65
 73
     2
 40
7.5
 49
6.0
 49
-1.5
  0
LTYPE
  2
AM_ISO08W050
 70
     0
  3
____ . ____ . ____ . ____ . ____ . ____ . ____
 72
    65
 73
     4
 40
18.0
 49
12.0
 49
-1.5
 49
3.0
 49
-1.5
  0
LTYPE
  2
AM_ISO09W050
 70
     0
  3
_____ . . _____ . . _____ . . ____ .. ____
 72
    65
 73
     6
 40
22.5
 49
12.0
 49
-1.5
 49
3.0
 49
-1.5
 49
3.0
 49
-1.5
  0
LTYPE
  2
AMCONSTR
 70
     0
  3
_______________________
 72
    65
 73
     2
 40
9999.0
 49
9999.0
 49
0.0
  0
LTYPE
  2
AM_ISO02W050X2
 70
     0
  3
 _ _ _ _ _ _ _ _ _ _ _ _
 72
    65
 73
     2
 40
3.75
 49
3.0
 49
-0.75
  0
LTYPE
  2
AM_ISO08W050X2
 70
     0
  3
__ . __ . __ . __ . __ . __
 72
    65
 73
     4
 40
9.0
 49
6.0
 49
-0.75
 49
1.5
 49
-0.75
  0
LTYPE
  2
AMZIGZAG
 70
     0
  3
/\/-/\/-/\/-/\/-/\/-/\/
 72
    65
 73
     2
 40
11.000099999999991
 49
0.0001
 49
-11.0
  0
LTYPE
  2
ACJISTGB
 70
     0
  3
__ . . __ . .
 72
    65
 73
     6
 40
9.0
 49
4.0
 49
-1.0
 49
1.0
 49
-1.0
 49
1.0
 49
-1.0
  0
LTYPE
  2
ACJISTGL
 70
     0
  3
_ _ _ _ _
 72
    65
 73
     2
 40
3.0
 49
2.0
 49
-1.0
  0
LTYPE
  2
ACISOWELD
 70
     0
  3
_ _ _ _ _
 72
    65
 73
     2
 40
2.0
 49
2.0
 49
-1.0
  0
LTYPE
  2
ACISOTGB
 70
     0
  3
__ . . __ . .
 72
    65
 73
     6
 40
9.0
 49
4.0
 49
-1.0
 49
1.0
 49
-1.0
 49
1.0
 49
-1.0
  0
LTYPE
  2
ACISOTGL
 70
     0
  3
_ _ _ _ _
 72
    65
 73
     2
 40
3.0
 49
2.0
 49
-1.0
  0
LTYPE
  2
HIDDEN
 70
     0
  3
Hidden __ __ __ __ __ __ __ __ __ __ __ __ __ _
 72
    65
 73
     2
 40
0.375
 49
0.25
 49
-0.125
  0
LTYPE
  2
CENTER2
 70
     0
  3
Center (.5x) ___ _ ___ _ ___ _ ___ _ ___ _ ___
 72
    65
 73
     4
 40
1.125
 49
0.75
 49
-0.125
 49
0.125
 49
-0.125
  0
LTYPE
  2
HIDDEN2
 70
     0
  3
Hidden (.5x) _ _ _ _ _ _ _ _ _ _ _ _ _ _ _ _ _
 72
    65
 73
     2
 40
0.1875
 49
0.125
 49
-0.0625
  0
LTYPE
  2
AMZIGZAG2
 70
     0
  3
/\/-/\/-/\/-/\/-/\/-/\/
 72
    65
 73
     2
 40
0.4401
 49
0.0001
 49
-0.4400000000000002
  0
LTYPE
  2
ACANSTGB
 70
     0
  3
__ . . __ . .
 72
    65
 73
     6
 40
0.35433070866
 49
0.15748031496
 49
-0.03937007874
 49
0.03937007874
 49
-0.03937007874
 49
0.03937007874
 49
-0.03937007874
  0
LTYPE
  2
ACANSTGL
 70
     0
  3
_ _ _ _ _
 72
    65
 73
     2
 40
0.11811023622
 49
0.07874015748
 49
-0.03937007874
  0
ENDTAB
  0
TABLE
  2
LAYER
 70
     7
  0
LAYER
  2
0
 70
     0
 62
     7
  6
CONTINUOUS
  0
LAYER
  2
AM_0
 70
     0
 62
     7
  6
CONTINUOUS
  0
LAYER
  2
DEFPOINTS
 70
     0
 62
     7
  6
CONTINUOUS
  0
LAYER
  2
ｶｸﾚｾﾝ2
 70
     0
 62
     3
  6
GEN3B
  0
LAYER
  2
ﾁｭｳｼﾝｾﾝ
 70
     0
 62
     1
  6
GEN7
  0
LAYER
  2
AM_0N
 70
     0
 62
     7
  6
CONTINUOUS
  0
LAYER
  2
AM_5
 70
     0
 62
     2
  6
CONTINUOUS
  0
ENDTAB
  0
TABLE
  2
STYLE
 70
    10
  0
STYLE
  2
STANDARD
 70
     0
 40
0.0
 41
0.8299999999999999
 50
0.0
 71
     0
 42
2.5
  3
txt.shx
  4
bigfont.shx
  0
STYLE
  2
ANNOTATIVE
 70
     0
 40
0.0
 41
1.0
 50
0.0
 71
     0
 42
0.2
  3
txt
  4

  0
STYLE
  2
ACANSTS
 70
     0
 40
1.0
 41
1.0
 50
0.0
 71
     0
 42
2.5
  3
romans.shx
  4
bigfont.shx
  0
STYLE
  2
ACANSGDT
 70
     0
 40
0.0
 41
1.0
 50
0.0
 71
     0
 42
2.5
  3
amgdt.shx
  4

  0
STYLE
  2

 70
     1
 40
0.0
 41
1.0
 50
0.0
 71
     0
 42
2.5
  3
ltypeshp.shx
  4

  0
STYLE
  2
ACJISTS
 70
     0
 40
1.0
 41
0.8299999999999999
 50
0.0
 71
     0
 42
2.5
  3
txt.shx
  4
bigfont.shx
  0
STYLE
  2
ACJISGDT
 70
     0
 40
0.0
 41
1.0
 50
0.0
 71
     0
 42
2.5
  3
amgdt.shx
  4

  0
STYLE
  2
ACISOTS
 70
     0
 40
1.0
 41
1.0
 50
0.0
 71
     0
 42
2.5
  3
isocp.shx
  4
extfont.shx
  0
STYLE
  2
ACISOGDT
 70
     0
 40
0.0
 41
1.0
 50
0.0
 71
     0
 42
2.5
  3
amgdt.shx
  4

  0
STYLE
  2

 70
     1
 40
0.0
 41
1.0
 50
0.0
 71
     0
 42
2.5
  3
genltshp.shx
  4

  0
ENDTAB
  0
TABLE
  2
VIEW
 70
    12
  0
VIEW
  2
GEN1
 70
     0
 40
95.824742268041234
 10
71.5
 20
137.08762886597941
 41
143.0
 11
0.0
 21
0.0
 31
1.0
 12
0.0
 22
0.0
 32
0.0
 42
50.0
 43
0.0
 44
0.0
 50
0.0
 71
     0
  0
VIEW
  2
GEN2
 70
     0
 40
95.824742268041234
 10
214.5
 20
137.08762886597941
 41
143.0
 11
0.0
 21
0.0
 31
1.0
 12
0.0
 22
0.0
 32
0.0
 42
50.0
 43
0.0
 44
0.0
 50
0.0
 71
     0
  0
VIEW
  2
GEN3
 70
     0
 40
95.824742268041234
 10
71.5
 20
47.912371134020603
 41
143.0
 11
0.0
 21
0.0
 31
1.0
 12
0.0
 22
0.0
 32
0.0
 42
50.0
 43
0.0
 44
0.0
 50
0.0
 71
     0
  0
VIEW
  2
GEN4
 70
     0
 40
95.824742268041234
 10
214.5
 20
47.912371134020603
 41
143.0
 11
0.0
 21
0.0
 31
1.0
 12
0.0
 22
0.0
 32
0.0
 42
50.0
 43
0.0
 44
0.0
 50
0.0
 71
     0
  0
VIEW
  2
GEN5
 70
     0
 40
95.824742268041234
 10
143.0
 20
92.500000000000057
 41
143.0
 11
0.0
 21
0.0
 31
1.0
 12
0.0
 22
0.0
 32
0.0
 42
50.0
 43
0.0
 44
0.0
 50
0.0
 71
     0
  0
VIEW
  2
GEN6
 70
     0
 40
191.64756804123709
 10
143.0
 20
92.5
 41
285.99713999999989
 11
0.0
 21
0.0
 31
1.0
 12
0.0
 22
0.0
 32
0.0
 42
50.0
 43
0.0
 44
0.0
 50
0.0
 71
     0
  0
VIEW
  2
AM_VIEW1
 70
     0
 40
142.0
 10
119.7777777777777
 20
213.0
 41
239.55555555555549
 11
0.0
 21
0.0
 31
1.0
 12
0.0
 22
0.0
 32
0.0
 42
50.0
 43
0.0
 44
0.0
 50
0.0
 71
     0
  0
VIEW
  2
AM_VIEW2
 70
     0
 40
142.0
 10
288.22222222222211
 20
213.0
 41
239.55555555555549
 11
0.0
 21
0.0
 31
1.0
 12
0.0
 22
0.0
 32
0.0
 42
50.0
 43
0.0
 44
0.0
 50
0.0
 71
     0
  0
VIEW
  2
AM_VIEW3
 70
     0
 40
142.0
 10
119.7777777777777
 20
71.0
 41
239.55555555555549
 11
0.0
 21
0.0
 31
1.0
 12
0.0
 22
0.0
 32
0.0
 42
50.0
 43
0.0
 44
0.0
 50
0.0
 71
     0
  0
VIEW
  2
AM_VIEW4
 70
     0
 40
142.0
 10
288.22222222222211
 20
71.0
 41
239.55555555555549
 11
0.0
 21
0.0
 31
1.0
 12
0.0
 22
0.0
 32
0.0
 42
50.0
 43
0.0
 44
0.0
 50
0.0
 71
     0
  0
VIEW
  2
AM_VIEW5
 70
     0
 40
142.0
 10
204.0
 20
142.0
 41
239.55555555555549
 11
0.0
 21
0.0
 31
1.0
 12
0.0
 22
0.0
 32
0.0
 42
50.0
 43
0.0
 44
0.0
 50
0.0
 71
     0
  0
VIEW
  2
AM_VIEW6
 70
     0
 40
283.99716000000001
 10
204.0
 20
142.0
 41
479.10631999999993
 11
0.0
 21
0.0
 31
1.0
 12
0.0
 22
0.0
 32
0.0
 42
50.0
 43
0.0
 44
0.0
 50
0.0
 71
     0
  0
ENDTAB
  0
TABLE
  2
UCS
 70
     0
  0
ENDTAB
  0
TABLE
  2
APPID
 70
   107
  0
APPID
  2
ACAD
 70
     0
  0
APPID
  2
ACADANNOTATIVE
 70
     0
  0
APPID
  2
MCAD_NO_VIS
 70
     0
  0
APPID
  2
ACAD_TEMP_GRAPHIC
 70
     0
  0
APPID
  2
AD_DRAW
 70
     0
  0
APPID
  2
DESIGNERASSEMBLIES
 70
     0
  0
APPID
  2
ASURF_PCURVE_APPNAME
 70
     0
  0
APPID
  2
GENIUS_GE3SECT_13
 70
     0
  0
APPID
  2
GENIUS_GENCFG_13
 70
     0
  0
APPID
  2
GENIUS_GE3CFG0_13
 70
     0
  0
APPID
  2
GENIUS_GENCFG0_13
 70
     0
  0
APPID
  2
GENIUS_GENCFG1_13
 70
     0
  0
APPID
  2
GENIUS_GENCFG2_13
 70
     0
  0
APPID
  2
GENIUS_GENCFG3_13
 70
     0
  0
APPID
  2
GENIUS_GENCFG4_13
 70
     0
  0
APPID
  2
GENIUS_GEVCFG0_13
 70
     0
  0
APPID
  2
GENIUS_GENOENT_13
 70
     0
  0
APPID
  2
GENIUS_GENREC_14
 70
     0
  0
APPID
  2
GENIUS_GENODEF_13
 70
     0
  0
APPID
  2
GENIUS_GENOBJ-N-REC_13
 70
     0
  0
APPID
  2
GENIUS_GENHINW_13
 70
     0
  0
APPID
  2
GENIUS_FIRSTVISTXT_14
 70
     0
  0
APPID
  2
GENIUS_GENOBJ-N-LEADER_13
 70
     0
  0
APPID
  2
GENIUS_GENOREF_13
 70
     0
  0
APPID
  2
GENIUS_GENOLIS_13
 70
     0
  0
APPID
  2
GEV_VCCNULL_SWITCH_OFF
 70
     0
  0
APPID
  2
GENIUS_GENDTOL_13
 70
     0
  0
APPID
  2
GENIUS_GEFCFG0_13
 70
     0
  0
APPID
  2
GENIUS_GENOBJ-N-TIT_13
 70
     0
  0
APPID
  2
GENIUS_GENTITLE_13
 70
     0
  0
APPID
  2
GENIUS_GENZVEED_13
 70
     0
  0
APPID
  2
GENIUS_GENOBJ-N-SDF_13
 70
     0
  0
APPID
  2
GENIUS_GENSCREG_13
 70
     0
  0
APPID
  2
GENIUS_DUMCFG0_13
 70
     0
  0
APPID
  2
GEVID936201362
 70
     0
  0
APPID
  2
GEVDC
 70
     0
  0
APPID
  2
GEVCON
 70
     0
  0
APPID
  2
VCC
 70
     0
  0
APPID
  2
GEVPT
 70
     0
  0
APPID
  2
GEVIT
 70
     0
  0
APPID
  2
GENBH
 70
     0
  0
APPID
  2
GEVMK
 70
     0
  0
APPID
  2
GENIUS_GENBH_13
 70
     0
  0
APPID
  2
GENIUS_GENOBJ-NBEHI-BHF_13
 70
     0
  0
APPID
  2
GENIUS_GENOBJ-NBEHI-BHB_13
 70
     0
  0
APPID
  2
GENIUS_GENOBJ-F-DESC_13
 70
     0
  0
APPID
  2
GENIUS_GEFDESC_14
 70
     0
  0
APPID
  2
GENIUS_GENOBJ-F-PART_13
 70
     0
  0
APPID
  2
GENIUS_GEFSTDP_13
 70
     0
  0
APPID
  2
GENIUS_GEFPARTINS_13
 70
     0
  0
APPID
  2
GENIUS_GENTRA_14
 70
     0
  0
APPID
  2
GENIUS_GENINF13_13
 70
     0
  0
APPID
  2
GENIUS_GENOBJ-N-INFOPT_13
 70
     0
  0
APPID
  2
GENIUS_GENOBJ-N-RSSYM_13
 70
     0
  0
APPID
  2
GENIUS_GENSYMENT_13
 70
     0
  0
APPID
  2
GENIUS_GENSCSYM_13
 70
     0
  0
APPID
  2
GENIUS_GEFINFNAM_13
 70
     0
  0
APPID
  2
GENIUS_GENSCREG_15
 70
     0
  0
APPID
  2
GENIUS_GENOBJ-N-CEN_13
 70
     0
  0
APPID
  2
GENIUS_GENOBJ-N-CRS_13
 70
     0
  0
APPID
  2
GENIUS_GENOBJ-N-CRC_13
 70
     0
  0
APPID
  2
GENIUS_GENCRC_14
 70
     0
  0
APPID
  2
GEVID942827039
 70
     0
  0
APPID
  2
GEVID942827040
 70
     0
  0
APPID
  2
GEVID942827041
 70
     0
  0
APPID
  2
GENIUS_GENOBJ-F-SCPASSM_13
 70
     0
  0
APPID
  2
GENIUS_GENDIMSH_14
 70
     0
  0
APPID
  2
GENIUS_GENFIL_13
 70
     0
  0
APPID
  2
GENIUS_GENOBJ-N-CHA_13
 70
     0
  0
APPID
  2
GENIUS_GENOBJ-N-FIL_13
 70
     0
  0
APPID
  2
GEVID942827042
 70
     0
  0
APPID
  2
GEVID946020473
 70
     0
  0
APPID
  2
GEVID946020474
 70
     0
  0
APPID
  2
GEVID946020475
 70
     0
  0
APPID
  2
GENIUS_GENOBJ-N-HTC_13
 70
     0
  0
APPID
  2
GENIUS_GENHATCH_13
 70
     0
  0
APPID
  2
GEVID948854295
 70
     0
  0
APPID
  2
GEVID939402019
 70
     0
  0
APPID
  2
GEVID952919491
 70
     0
  0
APPID
  2
GEVID952919492
 70
     0
  0
APPID
  2
GENIUS_GEFWELD_13
 70
     0
  0
APPID
  2
GENIUS_GENOBJ-F-WELS_13
 70
     0
  0
APPID
  2
GEVID952919493
 70
     0
  0
APPID
  2
GENIUS_GENOBJ-N-RSBK_13
 70
     0
  0
APPID
  2
GENIUS_GENOBJ-N-LIB_13
 70
     0
  0
APPID
  2
GENIUS_GENSCALE_13
 70
     0
  0
APPID
  2
GEVID986376691
 70
     0
  0
APPID
  2
ACATTRIBSERVICES
 70
     0
  0
APPID
  2
GENIUS_AMGTXT_16
 70
     0
  0
APPID
  2
ACADM_DIM_EDIT
 70
     0
  0
APPID
  2
AMDT_DM_ADJ
 70
     0
  0
APPID
  2
GEVID1057795304
 70
     0
  0
APPID
  2
GENIUS_GEFSH_13
 70
     0
  0
APPID
  2
GENIUS_GENOBJ-F-SHS_13
 70
     0
  0
APPID
  2
GENIUS_GENOBJ-N-ADDLEAD_13
 70
     0
  0
APPID
  2
GENIUS_GENMAINADDLEADER_14
 70
     0
  0
APPID
  2
GENIUS_GENADDLEADER_14
 70
     0
  0
APPID
  2
GENIUS_GENDREL_13
 70
     0
  0
APPID
  2
GEVID1121934822
 70
     0
  0
APPID
  2
GEVID1121934823
 70
     0
  0
APPID
  2
GEVID1121934824
 70
     0
  0
APPID
  2
ACAD_DSTYLE_DIMJAG
 70
     0
  0
APPID
  2
ACAD_DSTYLE_DIMBREAK
 70
     0
  0
APPID
  2
ACAD_NAV_VCDISPLAY
 70
     0
  0
APPID
  2
ACADANNOPO
 70
     0
  0
APPID
  2
ACAD_EXEMPT_FROM_CAD_STANDARDS
 70
     0
  0
APPID
  2
ACAD_MLEADERVER
 70
     0
  0
ENDTAB
  0
TABLE
  2
DIMSTYLE
 70
    29
  0
DIMSTYLE
  2
STANDARD
 70
     0
  3

  4

  5

  6

  7

 40
1.0
 41
0.18
 42
0.0625
 43
0.38
 44
0.18
 45
0.0
 46
0.0
 47
0.0
 48
0.0
140
0.18
141
0.09
142
0.0
143
25.399999999999999
144
1.0
145
0.0
146
1.0
147
0.09
 71
     0
 72
     0
 73
     1
 74
     1
 75
     0
 76
     0
 77
     0
 78
     0
170
     0
171
     2
172
     0
173
     0
174
     0
175
     0
176
     0
177
     0
178
     0
  0
DIMSTYLE
  2
ANNOTATIVE
 70
     0
  3

  4

  5

  6

  7

 40
1.0
 41
0.18
 42
0.0625
 43
0.38
 44
0.18
 45
0.0
 46
0.0
 47
0.0
 48
0.0
140
0.18
141
0.09
142
0.0
143
25.399999999999999
144
1.0
145
0.0
146
1.0
147
0.09
 71
     0
 72
     0
 73
     1
 74
     1
 75
     0
 76
     0
 77
     0
 78
     0
170
     0
171
     2
172
     0
173
     0
174
     0
175
     0
176
     0
177
     0
178
     0
  0
DIMSTYLE
  2
AM_JIS
 70
     0
  3

  4
"
  5

  6

  7

 40
1.0
 41
2.0
 42
1.0
 43
8.0
 44
1.0
 45
0.0
 46
0.0
 47
0.1
 48
0.1
140
2.5
141
0.0
142
0.0
143
0.0393701
144
1.0
145
0.0
146
0.71
147
1.5
 71
     0
 72
     0
 73
     0
 74
     0
 75
     0
 76
     0
 77
     3
 78
     8
170
     0
171
     2
172
     1
173
     0
174
     0
175
     0
176
   256
177
   256
178
     4
  0
DIMSTYLE
  2
AM_JIS$3
 70
     0
  3

  4
"
  5

  6

  7

 40
1.0
 41
2.0
 42
1.0
 43
10.0
 44
1.0
 45
0.0
 46
0.0
 47
0.1
 48
0.1
140
2.5
141
0.0
142
0.0
143
0.0393701
144
1.0
145
0.0
146
0.71
147
1.5
 71
     0
 72
     0
 73
     0
 74
     1
 75
     0
 76
     0
 77
     3
 78
     8
170
     0
171
     2
172
     0
173
     0
174
     0
175
     0
176
   256
177
   256
178
     4
  0
DIMSTYLE
  2
AM_JIS$4
 70
     0
  3

  4
"
  5

  6

  7

 40
1.0
 41
2.0
 42
1.0
 43
10.0
 44
1.0
 45
0.0
 46
0.0
 47
0.1
 48
0.1
140
2.5
141
0.0
142
0.0
143
0.0393701
144
1.0
145
0.0
146
0.71
147
1.5
 71
     0
 72
     0
 73
     0
 74
     0
 75
     0
 76
     0
 77
     3
 78
     8
170
     0
171
     2
172
     0
173
     0
174
     0
175
     0
176
   256
177
   256
178
     4
  0
DIMSTYLE
  2
AM_JIS$6
 70
     0
  3

  4
"
  5

  6

  7

 40
1.0
 41
2.0
 42
1.0
 43
10.0
 44
1.0
 45
0.0
 46
0.0
 47
0.1
 48
0.1
140
2.5
141
0.0
142
0.0
143
0.0393701
144
1.0
145
0.0
146
0.71
147
1.5
 71
     0
 72
     0
 73
     0
 74
     0
 75
     0
 76
     0
 77
     0
 78
     8
170
     0
171
     2
172
     1
173
     0
174
     0
175
     0
176
   256
177
   256
178
     4
  0
DIMSTYLE
  2
AM_JIS$7
 70
     0
  3

  4
"
  5

  6

  7

 40
1.0
 41
2.0
 42
1.0
 43
10.0
 44
1.0
 45
0.0
 46
0.0
 47
0.1
 48
0.1
140
2.5
141
0.0
142
0.0
143
0.0393701
144
1.0
145
0.0
146
0.71
147
1.5
 71
     0
 72
     0
 73
     0
 74
     0
 75
     0
 76
     0
 77
     3
 78
     8
170
     0
171
     2
172
     1
173
     0
174
     0
175
     0
176
   256
177
   256
178
     4
  0
DIMSTYLE
  2
AM_JIS$SF
 70
     0
  3

  4
"
  5

  6

  7

 40
1.0
 41
2.0
 42
1.0
 43
10.0
 44
1.0
 45
0.0
 46
0.0
 47
0.1
 48
0.1
140
2.5
141
0.0
142
0.0
143
0.0393701
144
1.0
145
0.0
146
0.71
147
1.5
 71
     0
 72
     0
 73
     0
 74
     0
 75
     1
 76
     1
 77
     3
 78
     8
170
     0
171
     2
172
     1
173
     0
174
     0
175
     0
176
   256
177
   256
178
     4
  0
DIMSTYLE
  2
AM_JIS$SH
 70
     0
  3

  4
"
  5

  6

  7

 40
1.0
 41
2.0
 42
1.0
 43
10.0
 44
1.0
 45
0.0
 46
0.0
 47
0.1
 48
0.1
140
2.5
141
0.0
142
0.0
143
0.0393701
144
2.0
145
0.0
146
0.71
147
1.5
 71
     0
 72
     0
 73
     0
 74
     0
 75
     1
 76
     1
 77
     3
 78
     8
170
     0
171
     2
172
     1
173
     1
174
     0
175
     0
176
   256
177
   256
178
     4
  0
DIMSTYLE
  2
AM_ISO
 70
     0
  3

  4
"
  5

  6

  7

 40
1.0
 41
2.5
 42
1.0
 43
10.0
 44
1.0
 45
0.0
 46
0.0
 47
0.1
 48
0.1
140
3.5
141
0.0
142
0.0
143
0.0393701
144
1.0
145
0.0
146
0.71
147
1.5
 71
     0
 72
     0
 73
     0
 74
     0
 75
     0
 76
     0
 77
     1
 78
     8
170
     0
171
     2
172
     1
173
     0
174
     0
175
     0
176
   256
177
   256
178
     2
  0
DIMSTYLE
  2
AM_ISO$3
 70
     0
  3

  4
"
  5

  6

  7

 40
1.0
 41
2.5
 42
1.0
 43
10.0
 44
1.0
 45
0.0
 46
0.0
 47
0.1
 48
0.1
140
3.5
141
0.0
142
0.0
143
0.0393701
144
1.0
145
0.0
146
0.71
147
1.5
 71
     0
 72
     0
 73
     0
 74
     1
 75
     0
 76
     0
 77
     1
 78
     8
170
     0
171
     2
172
     0
173
     0
174
     0
175
     0
176
   256
177
   256
178
     2
  0
DIMSTYLE
  2
AM_ISO$4
 70
     0
  3

  4
"
  5

  6

  7

 40
1.0
 41
2.5
 42
1.0
 43
10.0
 44
1.0
 45
0.0
 46
0.0
 47
0.1
 48
0.1
140
3.5
141
0.0
142
0.0
143
0.0393701
144
1.0
145
0.0
146
0.71
147
1.5
 71
     0
 72
     0
 73
     0
 74
     1
 75
     0
 76
     0
 77
     1
 78
     8
170
     0
171
     2
172
     0
173
     0
174
     0
175
     0
176
   256
177
   256
178
     2
  0
DIMSTYLE
  2
AM_ISO$6
 70
     0
  3

  4
"
  5

  6

  7

 40
1.0
 41
2.5
 42
1.0
 43
10.0
 44
1.0
 45
0.0
 46
0.0
 47
0.1
 48
0.1
140
3.5
141
0.0
142
0.0
143
0.0393701
144
1.0
145
0.0
146
0.71
147
1.5
 71
     0
 72
     0
 73
     0
 74
     0
 75
     0
 76
     0
 77
     0
 78
     8
170
     0
171
     2
172
     1
173
     0
174
     0
175
     0
176
   256
177
   256
178
     2
  0
DIMSTYLE
  2
AM_ISO$7
 70
     0
  3

  4
"
  5

  6

  7

 40
1.0
 41
2.5
 42
1.0
 43
10.0
 44
1.0
 45
0.0
 46
0.0
 47
0.1
 48
0.1
140
5.0
141
0.0
142
0.0
143
0.0393701
144
1.0
145
0.0
146
0.71
147
1.5
 71
     0
 72
     0
 73
     0
 74
     0
 75
     0
 76
     0
 77
     1
 78
     8
170
     0
171
     2
172
     1
173
     0
174
     0
175
     0
176
   256
177
   256
178
     2
  0
DIMSTYLE
  2
AM_ISO$SF
 70
     0
  3

  4
"
  5

  6

  7

 40
1.0
 41
2.5
 42
1.0
 43
10.0
 44
1.0
 45
0.0
 46
0.0
 47
0.1
 48
0.1
140
3.5
141
0.0
142
0.0
143
0.0393701
144
1.0
145
0.0
146
0.71
147
1.5
 71
     0
 72
     0
 73
     0
 74
     0
 75
     1
 76
     1
 77
     1
 78
     8
170
     0
171
     2
172
     1
173
     0
174
     0
175
     0
176
   256
177
   256
178
     2
  0
DIMSTYLE
  2
AM_ISO$SH
 70
     0
  3

  4
"
  5

  6

  7

 40
1.0
 41
2.5
 42
1.0
 43
10.0
 44
1.0
 45
0.0
 46
0.0
 47
0.1
 48
0.1
140
3.5
141
0.0
142
0.0
143
0.0393701
144
2.0
145
0.0
146
0.71
147
1.5
 71
     0
 72
     0
 73
     0
 74
     0
 75
     1
 76
     1
 77
     1
 78
     8
170
     0
171
     2
172
     1
173
     1
174
     0
175
     0
176
   256
177
   256
178
     2
  0
DIMSTYLE
  2
GEN-ANSI
 70
     0
  3

  4
"
  5

  6

  7

 40
1.0
 41
2.0
 42
0.5
 43
10.0
 44
0.5
 45
0.0
 46
0.0
 47
0.1
 48
0.1
140
2.5
141
0.0
142
0.0
143
0.0393701
144
1.0
145
0.0
146
0.71
147
1.5
 71
     0
 72
     0
 73
     1
 74
     1
 75
     0
 76
     0
 77
     0
 78
     8
170
     0
171
     2
172
     0
173
     0
174
     0
175
     0
176
   256
177
   256
178
     4
  0
DIMSTYLE
  2
GEN-ANSI$3
 70
     0
  3

  4
"
  5

  6

  7

 40
1.0
 41
2.0
 42
0.5
 43
10.0
 44
0.5
 45
0.0
 46
0.0
 47
0.1
 48
0.1
140
2.5
141
0.0
142
0.0
143
0.0393701
144
1.0
145
0.0
146
0.71
147
1.5
 71
     0
 72
     0
 73
     1
 74
     1
 75
     0
 76
     0
 77
     0
 78
     8
170
     0
171
     2
172
     0
173
     0
174
     0
175
     0
176
   256
177
   256
178
     4
  0
DIMSTYLE
  2
GEN-ANSI$4
 70
     0
  3

  4
"
  5

  6

  7

 40
1.0
 41
2.0
 42
0.5
 43
10.0
 44
0.5
 45
0.0
 46
0.0
 47
0.1
 48
0.1
140
2.5
141
0.0
142
0.0
143
0.0393701
144
1.0
145
0.0
146
0.71
147
1.5
 71
     0
 72
     0
 73
     1
 74
     1
 75
     0
 76
     0
 77
     0
 78
     8
170
     0
171
     2
172
     0
173
     0
174
     0
175
     0
176
   256
177
   256
178
     4
  0
DIMSTYLE
  2
GEN-ANSI$6
 70
     0
  3

  4
"
  5

  6

  7

 40
1.0
 41
2.0
 42
0.5
 43
10.0
 44
0.5
 45
0.0
 46
0.0
 47
0.1
 48
0.1
140
2.5
141
0.0
142
0.0
143
0.0393701
144
1.0
145
0.0
146
0.71
147
1.5
 71
     0
 72
     0
 73
     1
 74
     1
 75
     0
 76
     0
 77
     0
 78
     8
170
     0
171
     2
172
     0
173
     0
174
     0
175
     0
176
   256
177
   256
178
     4
  0
DIMSTYLE
  2
GEN-ANSI-POS
 70
     0
  3

  4
"
  5

  6

  7

 40
1.0
 41
2.5
 42
0.5
 43
10.0
 44
0.5
 45
0.0
 46
0.0
 47
0.1
 48
0.1
140
5.0
141
0.0
142
0.0
143
0.0393701
144
1.0
145
0.0
146
0.71
147
1.5
 71
     0
 72
     0
 73
     0
 74
     0
 75
     0
 76
     0
 77
     0
 78
     8
170
     0
171
     2
172
     0
173
     0
174
     0
175
     0
176
   256
177
   256
178
     4
  0
DIMSTYLE
  2
GEN-ANSI-AXE-F
 70
     0
  3

  4
"
  5

  6

  7

 40
1.0
 41
2.0
 42
0.5
 43
10.0
 44
0.5
 45
0.0
 46
0.0
 47
0.1
 48
0.1
140
2.5
141
0.0
142
0.0
143
0.0393701
144
1.0
145
0.0
146
0.71
147
1.5
 71
     0
 72
     0
 73
     1
 74
     1
 75
     1
 76
     1
 77
     0
 78
     8
170
     0
171
     2
172
     0
173
     1
174
     0
175
     0
176
   256
177
   256
178
     4
  0
DIMSTYLE
  2
GEN-ANSI-AXE-H
 70
     0
  3

  4
"
  5

  6

  7

 40
1.0
 41
2.0
 42
0.5
 43
10.0
 44
0.5
 45
0.0
 46
0.0
 47
0.1
 48
0.1
140
2.5
141
0.0
142
0.0
143
0.0393701
144
2.0
145
0.0
146
0.71
147
1.5
 71
     0
 72
     0
 73
     0
 74
     0
 75
     1
 76
     1
 77
     0
 78
     8
170
     0
171
     2
172
     1
173
     1
174
     0
175
     0
176
   256
177
   256
178
     4
  0
DIMSTYLE
  2
AM_ANSI
 70
     0
  3

  4
mm
  5

  6

  7

 40
1.0
 41
0.12
 42
0.05
 43
0.5
 44
0.1
 45
0.0
 46
0.0
 47
0.1
 48
0.1
140
0.12
141
0.0
142
0.0
143
25.399999999999999
144
1.0
145
0.0
146
0.71
147
0.06
 71
     0
 72
     0
 73
     1
 74
     1
 75
     0
 76
     0
 77
     0
 78
     7
170
     0
171
     2
172
     0
173
     0
174
     0
175
     0
176
   256
177
   256
178
     2
  0
DIMSTYLE
  2
AM_ANSI$3
 70
     0
  3

  4
mm
  5

  6

  7

 40
1.0
 41
0.12
 42
0.05
 43
0.5
 44
0.1
 45
0.0
 46
0.0
 47
0.1
 48
0.1
140
0.12
141
0.0
142
0.0
143
25.399999999999999
144
1.0
145
0.0
146
0.71
147
0.06
 71
     0
 72
     0
 73
     1
 74
     1
 75
     0
 76
     0
 77
     0
 78
     7
170
     0
171
     2
172
     0
173
     0
174
     0
175
     0
176
   256
177
   256
178
     2
  0
DIMSTYLE
  2
AM_ANSI$4
 70
     0
  3

  4
mm
  5

  6

  7

 40
1.0
 41
0.12
 42
0.05
 43
0.5
 44
0.1
 45
0.0
 46
0.0
 47
0.1
 48
0.1
140
0.12
141
0.0
142
0.0
143
25.399999999999999
144
1.0
145
0.0
146
0.71
147
0.06
 71
     0
 72
     0
 73
     1
 74
     1
 75
     0
 76
     0
 77
     0
 78
     7
170
     0
171
     2
172
     0
173
     0
174
     0
175
     0
176
   256
177
   256
178
     2
  0
DIMSTYLE
  2
AM_ANSI$7
 70
     0
  3

  4
mm
  5

  6

  7

 40
1.0
 41
0.12
 42
0.05
 43
0.5
 44
0.1
 45
0.0
 46
0.0
 47
0.1
 48
0.1
140
0.12
141
0.0
142
0.0
143
25.399999999999999
144
1.0
145
0.0
146
0.71
147
0.06
 71
     0
 72
     0
 73
     1
 74
     1
 75
     0
 76
     0
 77
     0
 78
     7
170
     0
171
     2
172
     0
173
     0
174
     0
175
     0
176
   256
177
   256
178
     2
  0
DIMSTYLE
  2
AM_ANSI$SF
 70
     0
  3

  4
mm
  5

  6

  7

 40
1.0
 41
0.12
 42
0.05
 43
0.5
 44
0.1
 45
0.0
 46
0.0
 47
0.1
 48
0.1
140
0.12
141
0.0
142
0.0
143
25.399999999999999
144
1.0
145
0.0
146
0.71
147
0.06
 71
     0
 72
     0
 73
     1
 74
     1
 75
     1
 76
     1
 77
     0
 78
     7
170
     0
171
     2
172
     0
173
     0
174
     0
175
     0
176
   256
177
   256
178
     2
  0
DIMSTYLE
  2
AM_ANSI$SH
 70
     0
  3

  4
mm
  5

  6

  7

 40
1.0
 41
0.12
 42
0.05
 43
0.5
 44
0.1
 45
0.0
 46
0.0
 47
0.1
 48
0.1
140
0.12
141
0.0
142
0.0
143
25.399999999999999
144
1.0
145
0.0
146
0.71
147
0.06
 71
     0
 72
     0
 73
     1
 74
     1
 75
     1
 76
     1
 77
     0
 78
     7
170
     0
171
     2
172
     0
173
     1
174
     0
175
     0
176
   256
177
   256
178
     2
  0
ENDTAB
  0
ENDSEC
  0
SECTION
  2
BLOCKS
  0
BLOCK
  8
0
  2
$MODEL_SPACE
 70
     0
 10
0.0
 20
0.0
 30
0.0
  3
$MODEL_SPACE
  1

  0
ENDBLK
  5
A7D0
  8
0
  0
BLOCK
 67
     1
  8
0
  2
$PAPER_SPACE
 70
     0
 10
0.0
 20
0.0
 30
0.0
  3
$PAPER_SPACE
  1

  0
ENDBLK
  5
A7CC
 67
     1
  8
0
  0
BLOCK
  8
0
  2
GENAXEH
 70
     0
 10
0.0
 20
0.0
 30
0.0
  3
GENAXEH
  1

  0
LINE
  5
A512
  8
0
 10
-1.0
 20
0.0
 30
0.0
 11
1.0
 21
0.0
 31
0.0
  0
ENDBLK
  5
A514
  8
0
  0
BLOCK
  8
0
  2
_ACMFILLEDHALF
 70
     0
 10
0.0
 20
0.0
 30
0.0
  3
_ACMFILLEDHALF
  1

  0
TRACE
  5
A6D9
  8
AM_0
 62
     0
 10
-0.8
 20
0.0
 30
0.0
 11
-1.0
 21
0.166666666
 31
0.0
 12
0.0
 22
0.0
 32
0.0
 13
0.0
 23
0.0
 33
0.0
  0
LINE
  5
A6DA
  8
AM_0
 62
     0
 10
-1.0
 20
0.0
 30
0.0
 11
-0.8
 21
0.0
 31
0.0
  0
ENDBLK
  5
A6D8
  8
0
  0
ENDSEC
  0
SECTION
  2
ENTITIES
  0
POINT
  5
1B94
  8
0
 10
0.0
 20
0.0
 30
0.0
1001
GENIUS_GENODEF_13
1002
{
1000
HIER
1070
     1
1002
}
1002
{
1000
MANEDIT
1070
     0
1002
}
1002
{
1000
NOSEL
1070
     0
1002
}
1002
{
1000
BEHIND
1070
     0
1002
}
1002
{
1000
REACTOR
1002
}
1001
GENIUS_GENOBJ-N-SDF_13
1002
{
1000
OWNER
1000
GEN
1002
}
1001
GENIUS_GENOENT_13
1002
{
1000
MYREF
1005
1B94
1002
}
1002
{
1000
GRP
1005
0
1002
}
1001
GENIUS_GENOLIS_13
1002
{
1000
ENT
1005
89
1002
}
  0
LINE
  5
8C7B
  8
ﾁｭｳｼﾝｾﾝ
 10
362.5510922658616
 20
153.9190092091506
 30
0.0
 11
226.5364794359665
 21
153.9190092091506
 31
0.0
  0
LINE
  5
8C7C
  8
AM_0
 10
318.83857226586173
 20
141.9190092091504
 30
0.0
 11
358.83862226586172
 21
141.9190092091504
 31
0.0
  0
LINE
  5
8C7D
  8
AM_0
 10
318.83857226586173
 20
165.91901220915051
 30
0.0
 11
358.83862226586172
 21
165.91901220915051
 31
0.0
  0
LINE
  5
8C84
  8
AM_0
 10
244.83865226586181
 20
175.4133462091504
 30
0.0
 11
244.83865226586181
 21
71.0489352091505
 31
0.0
  0
LINE
  5
8C85
  8
AM_0
 10
300.8386022658616
 20
198.7651062091505
 30
0.0
 11
300.8386022658616
 21
89.959810209150618
 31
0.0
  0
LINE
  5
8C86
  8
AM_0
 10
287.8385822658617
 20
163.7098122091505
 30
0.0
 11
287.8385822658617
 21
75.91900920915046
 31
0.0
  0
LINE
  5
8C87
  8
AM_0
 10
254.8385822658617
 20
141.1352562091507
 30
0.0
 11
254.8385822658617
 21
104.4434832091505
 31
0.0
  0
LINE
  5
8C88
  8
AM_0
 10
313.83862226586172
 20
184.17001620915059
 30
0.0
 11
313.83862226586172
 21
74.663575209150494
 31
0.0
  0
LINE
  5
8C89
  8
AM_0
 10
251.8385822658617
 20
204.91900620915061
 30
0.0
 11
251.8385822658617
 21
89.776156209150486
 31
0.0
  0
LINE
  5
8C8A
  8
AM_0
 10
316.83862226586189
 20
128.57370420915069
 30
0.0
 11
316.83862226586189
 21
179.2643262091504
 31
0.0
  0
LINE
  5
8C8B
  8
AM_0
 10
213.8386322658618
 20
77.919007209150493
 30
0.0
 11
213.8386322658618
 21
189.91900620915061
 31
0.0
  0
LINE
  5
8C8D
  8
ﾁｭｳｼﾝｾﾝ
 10
31.16264561219316
 20
133.91901120915051
 30
0.0
 11
236.17630198356301
 21
133.91901120915051
 31
0.0
  0
LINE
  5
8C9D
  8
AM_0
 10
248.8385822658617
 20
59.919007209150493
 30
0.0
 11
290.8385822658617
 21
59.919007209150493
 31
0.0
  0
LINE
  5
8C9E
  8
AM_0
 10
248.67916226586181
 20
74.881486209150538
 30
0.0
 11
254.7298322658618
 21
103.4059632091509
 31
0.0
  0
ARC
  5
8C9F
  8
AM_0
 10
224.8385822658617
 20
68.919007209150436
 30
0.0
 40
2.00000007
 50
90.00000299999769
 51
180.00001000000091
  0
LINE
  5
8CA0
  8
AM_0
 10
213.8386322658618
 20
87.919009209150502
 30
0.0
 11
244.83865226586181
 21
87.919009209150502
 31
0.0
  0
LINE
  5
8CA1
  8
AM_0
 10
222.8386322658618
 20
58.919023209150502
 30
0.0
 11
247.83865226586181
 21
58.919023209150502
 31
0.0
  0
LINE
  5
8CA2
  8
AM_0
 10
213.8386322658618
 20
77.919022209150512
 30
0.0
 11
236.91718226586181
 21
77.314684209150641
 31
0.0
  0
LINE
  5
8CA3
  8
AM_0
 10
222.8386322658618
 20
68.919007209150436
 30
0.0
 11
222.8386322658618
 21
58.919023209150502
 31
0.0
  0
LINE
  5
8CA4
  8
AM_0
 10
205.8386522658619
 20
87.919039209150526
 30
0.0
 11
213.8386322658618
 21
87.919039209150526
 31
0.0
  0
LINE
  5
8CA5
  8
AM_0
 10
205.8386522658619
 20
77.919022209150512
 30
0.0
 11
213.8386322658618
 21
77.919022209150512
 31
0.0
  0
ARC
  5
8CA6
  8
AM_0
 10
243.7879922658619
 20
75.91900920915046
 30
0.0
 40
5.0000000999999958
 50
270.0
 51
348.0238700000009
  0
ARC
  5
8CA7
  8
AM_0
 10
236.8385822658617
 20
74.315692209150484
 30
0.0
 40
3.0
 50
0.0
 51
88.499997000000747
  0
LINE
  5
8CA8
  8
AM_0
 10
239.8385822658617
 20
82.703248209150502
 30
0.0
 11
239.8385822658617
 21
70.91902320915051
 31
0.0
  0
LINE
  5
8CA9
  8
ﾁｭｳｼﾝｾﾝ
 10
234.8386322658618
 20
73.919023209150495
 30
0.0
 11
234.83863226586189
 21
55.919023209150502
 31
0.0
  0
LINE
  5
8CAA
  8
AM_0
 10
224.8385822658617
 20
70.91902320915051
 30
0.0
 11
243.7879922658619
 21
70.91902320915051
 31
0.0
  0
LINE
  5
8CAB
  8
ｶｸﾚｾﾝ2
 10
228.8386322658618
 20
70.91902320915051
 30
0.0
 11
228.8386322658618
 21
58.919023209150502
 31
0.0
  0
LINE
  5
8CAC
  8
ｶｸﾚｾﾝ2
 10
240.8386322658618
 20
70.91902320915051
 30
0.0
 11
240.8386322658618
 21
58.919023209150502
 31
0.0
  0
ARC
  5
8CAD
  8
AM_0
 10
248.8385822658617
 20
58.919023209150502
 30
0.0
 40
1.0000000199999941
 50
90.00000299999769
 51
180.00001000000091
  0
LINE
  5
8CAE
  8
AM_0
 10
247.83865226586181
 20
58.919023209150502
 30
0.0
 11
247.83865226586181
 21
58.919023209150502
 31
0.0
  0
LINE
  5
8CAF
  8
AM_0
 10
239.8385822658617
 20
84.703264209150532
 30
0.0
 11
244.83865226586181
 21
84.703264209150532
 31
0.0
  0
ARC
  5
8CB0
  8
AM_0
 10
237.8386322658618
 20
82.703248209150502
 30
0.0
 40
2.00000007
 50
0.0
 51
90.00000299999769
  0
LINE
  5
8CB1
  8
AM_0
 10
213.8386322658618
 20
101.9819982091505
 30
0.0
 11
244.83865226586181
 21
101.9819982091505
 31
0.0
  0
LINE
  5
8CB2
  8
AM_0
 10
205.8386522658619
 20
101.9790222091505
 30
0.0
 11
213.8386322658618
 21
101.9790222091505
 31
0.0
  0
ARC
  5
8CB3
  8
AM_0
 10
249.8386322658618
 20
104.4434832091505
 30
0.0
 40
5.0000000999999958
 50
348.0238700000009
 51
0.0
  0
ARC
  5
8CB4
  8
AM_0
 10
292.83862226586172
 20
75.91900920915046
 30
0.0
 40
5.0000000999999958
 50
180.00001000000091
 51
270.0
  0
ARC
  5
8CB5
  8
AM_0
 10
290.8385822658617
 20
58.919023209150502
 30
0.0
 40
1.0000000199999941
 50
0.0
 51
90.00000299999769
  0
LINE
  5
8CB6
  8
AM_0
 10
287.8385822658617
 20
85.959826209150506
 30
0.0
 11
296.8385822658617
 21
85.959826209150506
 31
0.0
  0
ARC
  5
8CB7
  8
AM_0
 10
318.83860226586171
 20
74.663575209150494
 30
0.0
 40
5.0000000999999958
 50
179.99998999999889
 51
235.1501100000003
  0
LINE
  5
8CB8
  8
ﾁｭｳｼﾝｾﾝ
 10
304.83862226586172
 20
73.919023209150495
 30
0.0
 11
304.83862226586189
 21
55.919023209150502
 31
0.0
  0
LINE
  5
8CB9
  8
AM_0
 10
292.83862226586172
 20
70.91902320915051
 30
0.0
 11
314.8385822658617
 21
70.91902320915051
 31
0.0
  0
LINE
  5
8CBA
  8
AM_0
 10
291.83860226586171
 20
58.919023209150502
 30
0.0
 11
316.83862226586189
 21
58.919023209150502
 31
0.0
  0
LINE
  5
8CBB
  8
ｶｸﾚｾﾝ2
 10
298.83862226586172
 20
70.91902320915051
 30
0.0
 11
298.83862226586172
 21
58.919023209150502
 31
0.0
  0
LINE
  5
8CBC
  8
AM_0
 10
291.83860226586171
 20
58.919023209150502
 30
0.0
 11
291.83860226586171
 21
58.919023209150502
 31
0.0
  0
LINE
  5
8CBD
  8
ｶｸﾚｾﾝ2
 10
310.83862226586172
 20
70.91902320915051
 30
0.0
 11
310.83862226586172
 21
58.919023209150502
 31
0.0
  0
LINE
  5
8CBE
  8
AM_0
 10
316.83862226586189
 20
68.919007209150436
 30
0.0
 11
316.83862226586189
 21
58.919023209150502
 31
0.0
  0
ARC
  5
8CBF
  8
AM_0
 10
314.8385822658617
 20
68.919007209150436
 30
0.0
 40
2.00000007
 50
0.0
 51
90.00000299999769
  0
ARC
  5
8CC0
  8
AM_0
 10
296.8385822658617
 20
89.959810209150618
 30
0.0
 40
4.000000199999997
 50
270.0
 51
0.0
  0
ARC
  5
8CC1
  8
AM_0
 10
314.8385822658617
 20
128.57370420915069
 30
0.0
 40
2.00000007
 50
300.00000000000051
 51
0.0
  0
ARC
  5
8CC2
  8
AM_0
 10
315.83860226586171
 20
124.53226020915039
 30
0.0
 40
2.00000007
 50
120.0000000000005
 51
180.00001000000091
  0
LINE
  5
8CC3
  8
AM_0
 10
314.83861226586163
 20
126.26431620915049
 30
0.0
 11
315.83860226586171
 21
126.8416782091506
 31
0.0
  0
LINE
  5
8CD8
  8
AM_0
 10
254.8385822658617
 20
141.1352562091507
 30
0.0
 11
265.83862226586172
 21
141.1352562091507
 31
0.0
  0
LINE
  5
8CD9
  8
AM_0
 10
251.83864226586181
 20
204.91900620915061
 30
0.0
 11
295.96951226586168
 21
203.7634062091505
 31
0.0
  0
LINE
  5
8CDA
  8
AM_0
 10
239.8385822658617
 20
183.5861562091506
 30
0.0
 11
239.8385822658617
 21
163.94705520915059
 31
0.0
  0
LINE
  5
8CDB
  8
AM_0
 10
213.8386322658618
 20
165.8560212091505
 30
0.0
 11
239.8385822658617
 21
165.8560212091505
 31
0.0
  0
LINE
  5
8CDC
  8
AM_0
 10
213.8386322658618
 20
179.9190162091505
 30
0.0
 11
239.8385822658617
 21
179.9190162091505
 31
0.0
  0
LINE
  5
8CDD
  8
AM_0
 10
205.8386522658619
 20
179.9190162091505
 30
0.0
 11
213.8386322658618
 21
179.9190162091505
 31
0.0
  0
LINE
  5
8CDE
  8
AM_0
 10
205.8386522658619
 20
165.85901220915059
 30
0.0
 11
213.8386322658618
 21
165.85901220915059
 31
0.0
  0
ARC
  5
8CE1
  8
AM_0
 10
241.83865226586181
 20
179.4133662091505
 30
0.0
 40
2.00000007
 50
179.99998999999889
 51
270.0
  0
LINE
  5
8CE2
  8
AM_0
 10
239.8385822658617
 20
161.9470272091506
 30
0.0
 11
244.83865226586181
 21
161.9470272091506
 31
0.0
  0
ARC
  5
8CE3
  8
AM_0
 10
237.8386322658618
 20
163.94705520915059
 30
0.0
 40
2.00000007
 50
270.0
 51
0.0
  0
ARC
  5
8CE4
  8
AM_0
 10
242.8385822658617
 20
175.4133462091504
 30
0.0
 40
2.00000007
 50
0.0
 51
90.00000299999769
  0
LINE
  5
8CE5
  8
AM_0
 10
241.83865226586181
 20
177.41335620915041
 30
0.0
 11
242.8385822658617
 21
177.41335620915041
 31
0.0
  0
LINE
  5
8CE6
  8
AM_0
 10
213.8385722658617
 20
189.91900620915061
 30
0.0
 11
239.96950226586179
 21
190.60327620915061
 31
0.0
  0
LINE
  5
8CE7
  8
AM_0
 10
205.8386522658619
 20
189.91903620915059
 30
0.0
 11
213.8386322658618
 21
189.91903620915059
 31
0.0
  0
ARC
  5
8CE8
  8
AM_0
 10
246.8386322658618
 20
202.9190262091505
 30
0.0
 40
2.00000007
 50
90.00000299999769
 51
180.00001000000091
  0
ARC
  5
8CE9
  8
AM_0
 10
241.83865226586181
 20
183.5861562091506
 30
0.0
 40
2.00000007
 50
90.00000299999769
 51
180.00001000000091
  0
ARC
  5
8CEA
  8
AM_0
 10
239.8385822658617
 20
195.6015462091506
 30
0.0
 40
5.0000000999999958
 50
271.50000000000267
 51
0.0
  0
LINE
  5
8CEB
  8
AM_0
 10
244.83865226586181
 20
202.9190262091505
 30
0.0
 11
244.83865226586181
 21
187.5861462091504
 31
0.0
  0
ARC
  5
8CEC
  8
AM_0
 10
242.8385822658617
 20
187.5861462091504
 30
0.0
 40
2.00000007
 50
270.0
 51
0.0
  0
LINE
  5
8CED
  8
AM_0
 10
241.83865226586181
 20
185.5861662091506
 30
0.0
 11
242.8385822658617
 21
185.5861662091506
 31
0.0
  0
LINE
  5
8CEE
  8
AM_0
 10
246.8386322658618
 20
204.91900620915061
 30
0.0
 11
251.8385822658617
 21
204.91900620915061
 31
0.0
  0
ARC
  5
8CF0
  8
AM_0
 10
315.83860226586171
 20
183.3057462091505
 30
0.0
 40
2.00000007
 50
179.99998999999889
 51
240.00000999999969
  0
LINE
  5
8CF1
  8
AM_0
 10
262.83862226586172
 20
190.4458062091505
 30
0.0
 11
262.83862226586172
 21
167.54373720915041
 31
0.0
  0
LINE
  5
8CF2
  8
AM_0
 10
263.8385822658617
 20
185.4365262091504
 30
0.0
 11
263.8385822658617
 21
171.8894562091505
 31
0.0
  0
LINE
  5
8CF3
  8
AM_0
 10
267.83857226586173
 20
173.88946620915041
 30
0.0
 11
267.83857226586173
 21
183.4364862091509
 31
0.0
  0
ARC
  5
8CF4
  8
AM_0
 10
295.83862226586189
 20
163.7098122091505
 30
0.0
 40
8.0000000999999976
 50
90.00000299999769
 51
180.00001000000091
  0
LINE
  5
8CF5
  8
AM_0
 10
278.66821226586171
 20
167.2677342091504
 30
0.0
 11
265.83859226586168
 21
141.13528920915061
 31
0.0
  0
LINE
  5
8CF6
  8
AM_0
 10
265.83862226586172
 20
167.26770420915059
 30
0.0
 11
265.83862226586172
 21
141.1352562091507
 31
0.0
  0
LINE
  5
8CF7
  8
AM_0
 10
265.83862226586172
 20
167.26770420915059
 30
0.0
 11
288.67333226586192
 21
167.26770420915059
 31
0.0
  0
ARC
  5
8CF8
  8
AM_0
 10
263.8385822658617
 20
164.54373720915041
 30
0.0
 40
2.00000007
 50
0.0
 51
90.00000299999769
  0
ARC
  5
8CF9
  8
AM_0
 10
263.8385822658617
 20
167.54373720915041
 30
0.0
 40
1.0000000199999941
 50
179.99998999999889
 51
270.0
  0
LINE
  5
8CFA
  8
AM_0
 10
262.83862226586172
 20
171.8894562091505
 30
0.0
 11
263.8385822658617
 21
171.8894562091505
 31
0.0
  0
LINE
  5
8CFB
  8
AM_0
 10
263.8385822658617
 20
181.5497562091505
 30
0.0
 11
266.8385822658617
 21
181.5497562091505
 31
0.0
  0
LINE
  5
8CFC
  8
AM_0
 10
263.8385822658617
 20
175.7762562091506
 30
0.0
 11
266.8385822658617
 21
175.7762562091506
 31
0.0
  0
LINE
  5
8CFD
  8
AM_0
 10
263.8385822658617
 20
172.8895062091504
 30
0.0
 11
266.8385822658617
 21
172.8895062091504
 31
0.0
  0
ARC
  5
8CFE
  8
AM_0
 10
266.8385822658617
 20
173.88946620915041
 30
0.0
 40
1.0000000199999941
 50
270.0
 51
0.0
  0
ARC
  5
8CFF
  8
AM_0
 10
266.8385822658617
 20
174.77620620915059
 30
0.0
 40
1.0000000199999941
 50
0.0
 51
90.00000299999769
  0
ARC
  5
8D00
  8
AM_0
 10
266.8385822658617
 20
182.54974620915061
 30
0.0
 40
1.0000000199999941
 50
270.0
 51
0.0
  0
ARC
  5
8D01
  8
AM_0
 10
266.8385822658617
 20
180.5497362091505
 30
0.0
 40
1.0000000199999941
 50
0.0
 51
90.00000299999769
  0
ARC
  5
8D02
  8
AM_0
 10
266.8385822658617
 20
176.77621620915039
 30
0.0
 40
1.0000000199999941
 50
270.0
 51
0.0
  0
LINE
  5
8D03
  8
AM_0
 10
318.83857226586173
 20
166.41901020915051
 30
0.0
 11
318.83857226586173
 21
141.41901120915071
 31
0.0
  0
LINE
  5
8D04
  8
AM_0
 10
316.83862226586189
 20
141.41901120915071
 30
0.0
 11
318.83857226586173
 21
141.41901120915071
 31
0.0
  0
LINE
  5
8D05
  8
AM_0
 10
295.83862226586189
 20
171.7098162091504
 30
0.0
 11
300.8386022658616
 21
171.7098162091504
 31
0.0
  0
LINE
  5
8D06
  8
AM_0
 10
316.83862226586189
 20
166.41901020915051
 30
0.0
 11
318.83857226586173
 21
166.41901020915051
 31
0.0
  0
ARC
  5
8D07
  8
AM_0
 10
314.8385822658617
 20
179.2643262091504
 30
0.0
 40
2.00000007
 50
0.0
 51
60.000002000001302
  0
LINE
  5
8D08
  8
AM_0
 10
314.83861226586163
 20
181.5736962091506
 30
0.0
 11
315.8386322658618
 21
180.99637620915041
 31
0.0
  0
LINE
  5
8D09
  8
AM_0
 10
265.83862226586172
 20
185.44648620915041
 30
0.0
 11
300.8386022658616
 21
185.44648620915041
 31
0.0
  0
LINE
  5
8D0A
  8
AM_0
 10
265.83862226586172
 20
204.4738662091504
 30
0.0
 11
279.42058226586181
 21
185.44648620915041
 31
0.0
  0
LINE
  5
8D0B
  8
AM_0
 10
265.83862226586172
 20
204.4738662091504
 30
0.0
 11
265.83862226586172
 21
185.44648620915041
 31
0.0
  0
ARC
  5
8D0C
  8
AM_0
 10
263.8385822658617
 20
193.44580620915059
 30
0.0
 40
2.00000007
 50
270.0
 51
0.0
  0
LINE
  5
8D0D
  8
AM_0
 10
263.8385822658617
 20
184.43650620915051
 30
0.0
 11
266.8385822658617
 21
184.43650620915051
 31
0.0
  0
ARC
  5
8D0E
  8
AM_0
 10
263.8385822658617
 20
190.4458062091505
 30
0.0
 40
1.0000000199999941
 50
90.00000299999769
 51
180.00001000000091
  0
LINE
  5
8D0F
  8
AM_0
 10
262.83862226586172
 20
185.4365262091504
 30
0.0
 11
263.8385822658617
 21
185.4365262091504
 31
0.0
  0
ARC
  5
8D10
  8
AM_0
 10
266.8385822658617
 20
183.4364862091509
 30
0.0
 40
1.0000000199999941
 50
0.0
 51
90.00000299999769
  0
ARC
  5
8D11
  8
AM_0
 10
295.83862226586189
 20
198.7651062091505
 30
0.0
 40
5.0000000999999958
 50
0.0
 51
88.499997000000747
  0
LINE
  5
8D12
  8
AM_0
 10
305.40283226586189
 20
187.65703620915039
 30
0.0
 11
311.10010226586172
 21
187.15861620915061
 31
0.0
  0
ARC
  5
8D13
  8
AM_0
 10
305.8385822658617
 20
192.6379962091504
 30
0.0
 40
5.0000000999999958
 50
179.99998999999889
 51
265.00000000000028
  0
ARC
  5
8D14
  8
AM_0
 10
310.83862226586172
 20
184.17001620915059
 30
0.0
 40
3.0
 50
0.0
 51
84.999996999998572
  0
LINE
  5
8D22
  8
AM_0
 10
326.8385822658617
 20
168.91900620915061
 30
0.0
 11
358.83862226586172
 21
168.91900620915061
 31
0.0
  0
LINE
  5
8D23
  8
AM_0
 10
326.8385822658617
 20
168.91900620915061
 30
0.0
 11
326.8385822658617
 21
165.91901220915051
 31
0.0
  0
LINE
  5
8D26
  8
AM_0
 10
358.83862226586172
 20
168.91900620915061
 30
0.0
 11
358.83862226586172
 21
141.9190092091504
 31
0.0
  0
ARC
  5
8D35
  8
AM_0
 10
541.75067126586157
 20
153.9190092091506
 30
0.0
 40
26.500002599999998
 50
270.0
 51
90.00000299999769
  0
ARC
  5
8D36
  8
AM_0
 10
541.75067126586157
 20
138.91900920915069
 30
0.0
 40
48.0
 50
0.0
 51
180.00001000000091
  0
ARC
  5
8D37
  8
AM_0
 10
541.75067126586157
 20
153.9190092091506
 30
0.0
 40
26.500002599999998
 50
90.00000299999769
 51
270.0
  0
LINE
  5
8D38
  8
AM_0
 10
488.75070026586138
 20
169.17154620915059
 30
0.0
 11
488.75070026586138
 21
107.9190102091506
 31
0.0
  0
LINE
  5
8D39
  8
AM_0
 10
594.75067226586179
 20
169.17154620915059
 30
0.0
 11
594.75067226586179
 21
107.9190102091506
 31
0.0
  0
LINE
  5
8D3A
  8
AM_0
 10
463.75066226586108
 20
70.91902320915051
 30
0.0
 11
474.51910226586148
 21
173.5491762091504
 31
0.0
  0
LINE
  5
8D3B
  8
AM_0
 10
619.75067426586156
 20
70.91902320915051
 30
0.0
 11
608.9822552658618
 21
173.54920620915061
 31
0.0
  0
LINE
  5
8D3C
  8
ﾁｭｳｼﾝｾﾝ
 10
541.75067126586157
 20
208.95779403608319
 30
0.0
 11
541.75067126586157
 21
53.889775375778846
 31
0.0
  0
ARC
  5
8D3F
  8
AM_0
 10
560.75068526586165
 20
107.9190102091506
 30
0.0
 40
34.000001999999988
 50
328.53302000000122
 51
0.0
  0
ARC
  5
8D40
  8
AM_0
 10
591.75067226586145
 20
68.919022209150512
 30
0.0
 40
2.00000007
 50
90.00000299999769
 51
180.00001000000091
  0
ARC
  5
8D41
  8
AM_0
 10
594.75067226586179
 20
75.91900920915046
 30
0.0
 40
5.0000000999999958
 50
179.99998999999889
 51
270.0
  0
LINE
  5
8D42
  8
AM_0
 10
619.75067426586156
 20
58.919023209150502
 30
0.0
 11
589.75067126586191
 21
58.919023209150502
 31
0.0
  0
LINE
  5
8D4A
  8
AM_0
 10
507.7506692658618
 20
75.91900920915046
 30
0.0
 11
575.75068826586153
 21
75.91900920915046
 31
0.0
  0
LINE
  5
8D4B
  8
AM_0
 10
588.75067226586179
 20
59.919037209150531
 30
0.0
 11
494.75070026586172
 21
59.919037209150531
 31
0.0
  0
ARC
  5
8D4C
  8
AM_0
 10
522.75066926586192
 20
107.9190102091506
 30
0.0
 40
34.000001999999988
 50
179.99998999999889
 51
211.46696999999961
  0
LINE
  5
8D4D
  8
AM_0
 10
493.75066826586141
 20
138.91900920915069
 30
0.0
 11
493.75066826586141
 21
75.91900920915046
 31
0.0
  0
ARC
  5
8D4E
  8
AM_0
 10
488.75070026586138
 20
75.91900920915046
 30
0.0
 40
5.0000000999999958
 50
270.0
 51
0.0
  0
LINE
  5
8D4F
  8
AM_0
 10
491.75070026586161
 20
70.91902320915051
 30
0.0
 11
465.75066926586192
 21
70.91902320915051
 31
0.0
  0
LINE
  5
8D50
  8
AM_0
 10
463.75066226586108
 20
58.919023209150502
 30
0.0
 11
493.75066826586141
 21
58.919023209150502
 31
0.0
  0
LINE
  5
8D51
  8
ﾁｭｳｼﾝｾﾝ
 10
476.7506702658614
 20
73.919023209150495
 30
0.0
 11
476.7506702658614
 21
55.919023209150502
 31
0.0
  0
LINE
  5
8D52
  8
AM_0
 10
463.75066226586108
 20
58.919023209150502
 30
0.0
 11
463.75066226586108
 21
70.91902320915051
 31
0.0
  0
LINE
  5
8D53
  8
ｶｸﾚｾﾝ2
 10
470.75070026586161
 20
70.91902320915051
 30
0.0
 11
470.75070026586161
 21
58.919023209150502
 31
0.0
  0
ARC
  5
8D54
  8
AM_0
 10
465.75066926586192
 20
68.919022209150512
 30
0.0
 40
2.00000007
 50
90.00000299999769
 51
180.00001000000091
  0
LINE
  5
8D55
  8
ｶｸﾚｾﾝ2
 10
482.75070026586172
 20
70.91902320915051
 30
0.0
 11
482.75070026586172
 21
58.919023209150502
 31
0.0
  0
ARC
  5
8D56
  8
AM_0
 10
507.7506692658618
 20
70.91902320915051
 30
0.0
 40
5.0000000999999958
 50
90.00000299999769
 51
180.00001000000091
  0
ARC
  5
8D57
  8
AM_0
 10
499.75066826586152
 20
64.91902320915051
 30
0.0
 40
3.0
 50
270.0
 51
0.0
  0
LINE
  5
8D58
  8
AM_0
 10
493.75066826586141
 20
58.919023209150502
 30
0.0
 11
493.75066826586141
 21
68.919022209150512
 31
0.0
  0
LINE
  5
8D59
  8
AM_0
 10
499.75066826586152
 20
61.919023209150488
 30
0.0
 11
495.75066926586152
 21
61.919023209150488
 31
0.0
  0
ARC
  5
8D5A
  8
AM_0
 10
495.75066926586152
 20
59.919037209150531
 30
0.0
 40
2.00000007
 50
90.00000299999769
 51
180.00001000000091
  0
ARC
  5
8D5B
  8
AM_0
 10
494.75070026586172
 20
58.919023209150502
 30
0.0
 40
1.0000000199999941
 50
90.00000299999769
 51
180.00001000000091
  0
ARC
  5
8D5C
  8
AM_0
 10
491.75070026586161
 20
68.919022209150512
 30
0.0
 40
2.00000007
 50
0.0
 51
90.00000299999769
  0
LINE
  5
8D5D
  8
AM_0
 10
502.75066826586152
 20
70.91902320915051
 30
0.0
 11
502.75066826586152
 21
64.91902320915051
 31
0.0
  0
CIRCLE
  5
8D5E
  8
AM_0
 10
513.62338226586155
 20
66.013870209150539
 30
0.0
 40
4.9999998000000003
  0
LINE
  5
8D5F
  8
AM_0
 10
508.28936726586159
 20
68.223313209150433
 30
0.0
 11
509.04296726586159
 21
62.499208209150467
 31
0.0
  0
LINE
  5
8D60
  8
AM_0
 10
514.3769822658619
 20
60.289780209150457
 30
0.0
 11
518.95741226586165
 21
63.804475209150489
 31
0.0
  0
LINE
  5
8D61
  8
AM_0
 10
509.04299726586169
 20
62.499178209150493
 30
0.0
 11
514.37699726586152
 21
60.289765209150488
 31
0.0
  0
LINE
  5
8D62
  8
AM_0
 10
518.20384226586157
 20
69.528550209150538
 30
0.0
 11
512.86980926586136
 21
71.73797820915064
 31
0.0
  0
LINE
  5
8D63
  8
AM_0
 10
512.86980926586136
 20
71.737993209150432
 30
0.0
 11
508.28939726586168
 21
68.223298209150528
 31
0.0
  0
LINE
  5
8D64
  8
AM_0
 10
518.95741226586165
 20
63.804475209150489
 30
0.0
 11
518.20382426586161
 21
69.528580209150491
 31
0.0
  0
LINE
  5
8D65
  8
AM_0
 10
589.75067126586191
 20
138.91900920915069
 30
0.0
 11
589.75067126586191
 21
75.91900920915046
 31
0.0
  0
ARC
  5
8D66
  8
AM_0
 10
575.75068826586153
 20
70.91902320915051
 30
0.0
 40
5.0000000999999958
 50
0.0
 51
90.00000299999769
  0
CIRCLE
  5
8D67
  8
AM_0
 10
569.8779152658617
 20
66.013870209150539
 30
0.0
 40
4.9999998000000003
  0
LINE
  5
8D68
  8
AM_0
 10
574.45836026586176
 20
62.499193209150398
 30
0.0
 11
575.21194526586146
 21
68.223298209150528
 31
0.0
  0
LINE
  5
8D69
  8
AM_0
 10
575.21197526586138
 20
68.223283209150495
 30
0.0
 11
570.63154526586163
 21
71.73797820915064
 31
0.0
  0
LINE
  5
8D6A
  8
AM_0
 10
564.5439302658616
 20
63.804445209150622
 30
0.0
 11
569.1243602658617
 21
60.289765209150488
 31
0.0
  0
LINE
  5
8D6B
  8
AM_0
 10
569.1243602658617
 20
60.289780209150457
 30
0.0
 11
574.45839026586191
 21
62.499208209150467
 31
0.0
  0
LINE
  5
8D6C
  8
AM_0
 10
570.63156026586159
 20
71.737993209150432
 30
0.0
 11
565.29753026586161
 21
69.5285652091505
 31
0.0
  0
LINE
  5
8D6D
  8
AM_0
 10
565.29748526586161
 20
69.5285652091505
 30
0.0
 11
564.54390026586157
 21
63.804460209150477
 31
0.0
  0
ARC
  5
8D6E
  8
AM_0
 10
583.75067126586191
 20
64.91902320915051
 30
0.0
 40
3.0
 50
179.99998999999889
 51
270.0
  0
LINE
  5
8D6F
  8
AM_0
 10
589.75067126586191
 20
58.919023209150502
 30
0.0
 11
589.75067126586191
 21
68.919022209150512
 31
0.0
  0
ARC
  5
8D70
  8
AM_0
 10
587.75068826586175
 20
59.919037209150531
 30
0.0
 40
2.00000007
 50
0.0
 51
90.00000299999769
  0
ARC
  5
8D71
  8
AM_0
 10
588.75067226586179
 20
58.919023209150502
 30
0.0
 40
1.0000000199999941
 50
0.0
 51
90.00000299999769
  0
LINE
  5
8D72
  8
AM_0
 10
587.75068826586175
 20
61.919023209150488
 30
0.0
 11
583.75067126586191
 21
61.919023209150488
 31
0.0
  0
LINE
  5
8D73
  8
AM_0
 10
580.75067126586191
 20
70.91902320915051
 30
0.0
 11
580.75067126586191
 21
64.91902320915051
 31
0.0
  0
LINE
  5
8D83
  8
ﾁｭｳｼﾝｾﾝ
 10
606.75068726586153
 20
73.919023209150495
 30
0.0
 11
606.75068726586176
 21
55.919023209150502
 31
0.0
  0
LINE
  5
8D84
  8
AM_0
 10
591.75067226586145
 20
70.91902320915051
 30
0.0
 11
617.75068826586175
 21
70.91902320915051
 31
0.0
  0
LINE
  5
8D85
  8
ｶｸﾚｾﾝ2
 10
600.75067226586123
 20
70.91902320915051
 30
0.0
 11
600.75067226586123
 21
58.919023209150502
 31
0.0
  0
LINE
  5
8D86
  8
AM_0
 10
619.75067426586156
 20
58.919023209150502
 30
0.0
 11
619.75067426586156
 21
70.91902320915051
 31
0.0
  0
LINE
  5
8D87
  8
ｶｸﾚｾﾝ2
 10
612.75068726586164
 20
70.91902320915051
 30
0.0
 11
612.75068726586164
 21
58.919023209150502
 31
0.0
  0
ARC
  5
8D88
  8
AM_0
 10
617.75068826586175
 20
68.919022209150512
 30
0.0
 40
2.00000007
 50
0.0
 51
90.00000299999769
  0
ARC
  5
8D92
  8
AM_0
 10
541.75067126586157
 20
94.919023209150481
 30
0.0
 40
110.000004
 50
58.263836000000381
 51
121.736169999997
  0
ARC
  5
8D93
  8
AM_0
 10
604.02894626586135
 20
181.70677620915041
 30
0.0
 40
13.9999986
 50
154.9370399999996
 51
273.19937000000061
  0
ARC
  5
8D94
  8
AM_0
 10
586.81791626586153
 20
189.75544620915051
 30
0.0
 40
5.0000000999999958
 50
334.93702999999948
 51
64.582444000001288
  0
ARC
  5
8D96
  8
AM_0
 10
541.75067126586157
 20
133.91901120915051
 30
0.0
 40
71.000000999999983
 50
47.99935899999911
 51
132.0006499999993
  0
LINE
  5
8D97
  8
ﾁｭｳｼﾝｾﾝ
 10
500.94147541212578
 20
153.9190092091506
 30
0.0
 11
582.55986711959736
 21
153.9190092091506
 31
0.0
  0
ARC
  5
8D98
  8
AM_0
 10
494.40990926586159
 20
171.46216620915061
 30
0.0
 40
20.000000700000001
 50
121.736169999997
 51
174.01019000000019
  0
ARC
  5
8D99
  8
AM_0
 10
479.47240826586147
 20
181.70677620915041
 30
0.0
 40
13.9999986
 50
266.80063999999902
 51
25.06296900000175
  0
CIRCLE
  5
8D9A
  8
AM_0
 10
483.4392062658618
 20
178.6630062091505
 30
0.0
 40
4.9999998000000003
  0
LINE
  5
8D9B
  8
AM_0
 10
482.68566626586158
 20
184.38712620915041
 30
0.0
 11
478.10522126586147
 21
180.8724162091504
 31
0.0
  0
LINE
  5
8D9C
  8
AM_0
 10
488.01965126586151
 20
182.17768620915029
 30
0.0
 11
482.68563626586109
 21
184.38712620915041
 31
0.0
  0
ARC
  5
8D9D
  8
AM_0
 10
541.75067126586157
 20
133.91901120915051
 30
0.0
 40
71.000000999999983
 50
152.9994200000007
 51
174.01019000000019
  0
ARC
  5
8D9E
  8
AM_0
 10
478.41201626586161
 20
162.7363632091506
 30
0.0
 40
5.0000000999999958
 50
86.800639000002292
 51
174.01019000000019
  0
ARC
  5
8D9F
  8
AM_0
 10
493.75066826586141
 20
169.17154620915059
 30
0.0
 40
5.0000000999999958
 50
138.71940999999779
 51
180.00001000000091
  0
ARC
  5
8DA0
  8
AM_0
 10
481.16253326586121
 20
164.7909882091505
 30
0.0
 40
3.0
 50
95.70573799999886
 51
152.9994200000007
  0
LINE
  5
8DA1
  8
AM_0
 10
478.8587912658615
 20
175.1483262091505
 30
0.0
 11
484.1928062658618
 21
172.9388862091505
 31
0.0
  0
LINE
  5
8DA2
  8
AM_0
 10
478.10522126586147
 20
180.87244620915041
 30
0.0
 11
478.8587912658615
 21
175.14835620915059
 31
0.0
  0
LINE
  5
8DA3
  8
AM_0
 10
488.77325126586129
 20
176.45359620915059
 30
0.0
 11
488.01968126586172
 21
182.17771620915059
 31
0.0
  0
LINE
  5
8DA4
  8
AM_0
 10
484.19283926586161
 20
172.93891620915051
 30
0.0
 11
488.7732812658619
 21
176.45359620915059
 31
0.0
  0
ARC
  5
8DA5
  8
AM_0
 10
496.68343826586158
 20
189.75544620915051
 30
0.0
 40
5.0000000999999958
 50
115.4175599999964
 51
205.0629700000004
  0
ARC
  5
8DA6
  8
AM_0
 10
496.24923626586173
 20
184.45234620915059
 30
0.0
 40
3.0
 50
132.0006499999993
 51
189.2943400000016
  0
ARC
  5
8DA7
  8
AM_0
 10
541.75067126586157
 20
153.9190092091506
 30
0.0
 40
12.000000299999989
 50
109.47121999999951
 51
70.528788999999293
  0
CIRCLE
  5
8DA8
  8
AM_0
 10
541.75067126586157
 20
153.9190092091506
 30
0.0
 40
3.0
  0
CIRCLE
  5
8DA9
  8
AM_5
 10
541.75067126586157
 20
153.9190092091506
 30
0.0
 40
4.000000199999997
  0
LINE
  5
8DAA
  8
AM_0
 10
537.75066926586192
 20
161.9190102091506
 30
0.0
 11
545.7506552658615
 21
161.9190102091506
 31
0.0
  0
LINE
  5
8DAB
  8
AM_0
 10
537.75066926586192
 20
168.91900620915061
 30
0.0
 11
545.7506552658615
 21
168.91900620915061
 31
0.0
  0
LINE
  5
8DAC
  8
AM_0
 10
537.75066926586192
 20
168.91900620915061
 30
0.0
 11
537.75066926586192
 21
161.9190102091506
 31
0.0
  0
LINE
  5
8DAD
  8
AM_0
 10
545.7506552658615
 20
168.91900620915061
 30
0.0
 11
545.7506552658615
 21
161.9190102091506
 31
0.0
  0
ARC
  5
8DAE
  8
AM_0
 10
587.25213626586174
 20
184.45234620915059
 30
0.0
 40
3.0
 50
350.70567000000091
 51
47.99935899999911
  0
ARC
  5
8DB0
  8
AM_0
 10
589.09144526586147
 20
171.46216620915061
 30
0.0
 40
20.000000700000001
 50
5.9898155000000548
 51
58.263836000000381
  0
CIRCLE
  5
8DB1
  8
AM_0
 10
600.06215126586164
 20
178.6629162091505
 30
0.0
 40
4.9999998000000003
  0
LINE
  5
8DB2
  8
AM_0
 10
605.39619626586159
 20
180.8723562091505
 30
0.0
 11
600.81576626586161
 21
184.38703620915061
 31
0.0
  0
LINE
  5
8DB3
  8
AM_0
 10
600.81576626586161
 20
184.38706620915059
 30
0.0
 11
595.48173626586185
 21
182.1776562091504
 31
0.0
  0
ARC
  5
8DB4
  8
AM_0
 10
541.75067126586157
 20
133.91901120915051
 30
0.0
 40
71.000000999999983
 50
5.9898141999993397
 51
27.0005730000006
  0
ARC
  5
8DB5
  8
AM_0
 10
605.08934126586155
 20
162.7363632091506
 30
0.0
 40
5.0000000999999958
 50
5.9898155000000548
 51
93.199358999997784
  0
ARC
  5
8DB6
  8
AM_0
 10
589.75067126586191
 20
169.17154620915059
 30
0.0
 40
5.0000000999999958
 50
0.0
 51
41.280591000000527
  0
ARC
  5
8DB7
  8
AM_0
 10
602.33880626586154
 20
164.7909882091505
 30
0.0
 40
3.0
 50
27.0005730000006
 51
84.294261000002294
  0
LINE
  5
8DB8
  8
AM_0
 10
599.30857826586146
 20
172.9388562091504
 30
0.0
 11
604.64261126586155
 21
175.14826620915059
 31
0.0
  0
LINE
  5
8DB9
  8
AM_0
 10
595.4817062658617
 20
182.17762620915059
 30
0.0
 11
594.72812126586177
 21
176.4535062091505
 31
0.0
  0
LINE
  5
8DBA
  8
AM_0
 10
594.7281512658617
 20
176.4535062091505
 30
0.0
 11
599.30857826586146
 21
172.93882620915051
 31
0.0
  0
LINE
  5
8DBB
  8
AM_0
 10
605.39611826586145
 20
180.8724162091504
 30
0.0
 11
604.64253326586163
 21
175.1483262091505
 31
0.0
  0
ARC
  5
8DBE
  8
AM_0
 10
99.162432265861781
 20
148.9290222091507
 30
0.0
 40
1.335016049999999
 50
89.732355000002002
 51
270.26763000000221
  0
LINE
  5
8DBF
  8
ﾁｭｳｼﾝｾﾝ
 10
154.83862226586211
 20
174.54402570915059
 30
0.0
 11
154.83862226586211
 21
93.293996709150434
 31
0.0
  0
LINE
  5
8DC0
  8
AM_0
 10
195.60865226586171
 20
163.9140072091505
 30
0.0
 11
195.60865226586171
 21
103.9140042091507
 31
0.0
  0
LINE
  5
8DC1
  8
AM_0
 10
97.838622265861872
 20
186.91399620915061
 30
0.0
 11
97.838622265861872
 21
84.474016209150463
 31
0.0
  0
LINE
  5
8DC2
  8
AM_0
 10
205.8386522658619
 20
189.91900620915061
 30
0.0
 11
205.8386522658619
 21
77.918995209150779
 31
0.0
  0
LINE
  5
8DC3
  8
AM_0
 10
199.07868682187461
 20
97.919011209150554
 30
0.0
 11
100.4811264227842
 21
97.919011209150554
 31
0.0
  0
LINE
  5
8DC4
  8
AM_0
 10
154.83862226586211
 20
97.194004209150521
 30
0.0
 11
202.65865226586189
 21
97.194004209150521
 31
0.0
  0
LINE
  5
8DC5
  8
AM_0
 10
101.03863226586201
 20
77.633989209150513
 30
0.0
 11
197.9586422658617
 21
77.633989209150513
 31
0.0
  0
LINE
  5
8DC6
  8
AM_0
 10
123.338622265862
 20
95.694004209150506
 30
0.0
 11
205.8386522658619
 21
95.694004209150506
 31
0.0
  0
ARC
  5
8DC7
  8
AM_0
 10
304.88981547311522
 20
135.60658514907229
 30
0.0
 40
204.69842337270771
 50
178.02572260412779
 51
178.71785518950381
  0
ARC
  5
8DC8
  8
AM_0
 10
304.81256358495261
 20
132.2270412831252
 30
0.0
 40
204.6212004872653
 50
181.28349981584489
 51
181.9756167481539
  0
ARC
  5
8DC9
  8
AM_0
 10
100.3808822658619
 20
98.914006209150713
 30
0.0
 40
1.0000319699999971
 50
89.552707000000453
 51
270.44730000000112
  0
ARC
  5
8DCA
  8
AM_0
 10
100.3808822658619
 20
148.9140072091507
 30
0.0
 40
1.0000319699999971
 50
89.552707000000453
 51
270.44730000000112
  0
ARC
  5
8DCB
  8
AM_0
 10
100.3808822658619
 20
138.9140052091507
 30
0.0
 40
1.0000319699999971
 50
89.552707000000453
 51
270.44730000000112
  0
ARC
  5
8DCC
  8
AM_0
 10
100.3808822658619
 20
128.9140062091505
 30
0.0
 40
1.0000319699999971
 50
89.552707000000453
 51
270.44730000000112
  0
ARC
  5
8DCD
  8
AM_0
 10
100.3808822658619
 20
118.9140042091507
 30
0.0
 40
1.0000319699999971
 50
89.552707000000453
 51
270.44730000000112
  0
ARC
  5
8DCE
  8
AM_0
 10
100.3808822658619
 20
108.9139902091505
 30
0.0
 40
1.0000319699999971
 50
89.552707000000453
 51
270.44730000000112
  0
ARC
  5
8DCF
  8
AM_0
 10
99.100422265861781
 20
138.92398620915071
 30
0.0
 40
1.270028039999999
 50
89.627211000000699
 51
270.37279000000223
  0
ARC
  5
8DD0
  8
AM_0
 10
99.100422265861781
 20
128.9140062091505
 30
0.0
 40
1.270028039999999
 50
89.627211000000699
 51
270.37279000000223
  0
ARC
  5
8DD1
  8
AM_0
 10
99.162432265861781
 20
118.90399620915051
 30
0.0
 40
1.3300160699999981
 50
89.731343999997904
 51
270.2686499999993
  0
ARC
  5
8DD2
  8
AM_0
 10
99.293052265861874
 20
108.89401620915071
 30
0.0
 40
1.4600120099999969
 50
89.778814000002811
 51
270.22118999999998
  0
ARC
  5
8DD3
  8
AM_0
 10
101.130762265862
 20
74.024479209150513
 30
0.0
 40
2.000475929999999
 50
187.77046000000081
 51
269.93969000000249
  0
ARC
  5
8DD4
  8
AM_0
 10
101.043282265862
 20
79.632997209150517
 30
0.0
 40
1.999007999999999
 50
190.6374099999999
 51
269.86655000000292
  0
ARC
  5
8DD5
  8
AM_0
 10
101.0946122658617
 20
76.784182209150615
 30
0.0
 40
2.0001841200000001
 50
188.9209999999994
 51
269.8285299999992
  0
ARC
  5
8DD6
  8
AM_0
 10
101.1021722658618
 20
74.941333209150514
 30
0.0
 40
1.997348129999998
 50
188.85146999999961
 51
270.18467999999751
  0
LINE
  5
8DD7
  8
AM_0
 10
103.8386222658618
 20
149.9140062091507
 30
0.0
 11
100.19869226586199
 21
149.9140062091507
 31
0.0
  0
LINE
  5
8DD8
  8
AM_0
 10
103.8386222658618
 20
147.9140052091507
 30
0.0
 11
100.19869226586199
 21
147.9140052091507
 31
0.0
  0
LINE
  5
8DD9
  8
AM_0
 10
103.8386222658618
 20
139.9140072091507
 30
0.0
 11
100.19869226586199
 21
139.9140072091507
 31
0.0
  0
LINE
  5
8DDA
  8
AM_0
 10
103.8386222658618
 20
137.91400620915081
 30
0.0
 11
100.19869226586199
 21
137.91400620915081
 31
0.0
  0
LINE
  5
8DDB
  8
AM_0
 10
99.168642265861791
 20
147.5939982091505
 30
0.0
 11
103.8386222658618
 21
147.5939982091505
 31
0.0
  0
LINE
  5
8DDC
  8
AM_0
 10
99.108642265861704
 20
140.1940062091505
 30
0.0
 11
103.8386222658618
 21
140.1940062091505
 31
0.0
  0
LINE
  5
8DDD
  8
AM_0
 10
99.108642265861704
 20
137.65399620915051
 30
0.0
 11
103.8386222658618
 21
137.65399620915051
 31
0.0
  0
LINE
  5
8DDE
  8
AM_0
 10
99.108642265861704
 20
130.18399620915079
 30
0.0
 11
103.8386222658618
 21
130.18399620915079
 31
0.0
  0
LINE
  5
8DDF
  8
AM_0
 10
103.8386222658618
 20
129.91400520915079
 30
0.0
 11
100.19869226586199
 21
129.91400520915079
 31
0.0
  0
LINE
  5
8DE0
  8
AM_0
 10
103.8386222658618
 20
127.9140072091507
 30
0.0
 11
100.19869226586199
 21
127.9140072091507
 31
0.0
  0
LINE
  5
8DE1
  8
AM_0
 10
99.108642265861704
 20
127.64401620915071
 30
0.0
 11
103.8386222658618
 21
127.64401620915071
 31
0.0
  0
LINE
  5
8DE2
  8
AM_0
 10
99.168642265861791
 20
120.2340132091507
 30
0.0
 11
103.8386222658618
 21
120.2340132091507
 31
0.0
  0
LINE
  5
8DE3
  8
AM_0
 10
103.8386222658618
 20
119.9140062091507
 30
0.0
 11
100.19869226586199
 21
119.9140062091507
 31
0.0
  0
LINE
  5
8DE4
  8
AM_0
 10
103.8386222658618
 20
117.9139902091507
 30
0.0
 11
100.19869226586199
 21
117.9139902091507
 31
0.0
  0
LINE
  5
8DE5
  8
AM_0
 10
99.168642265861791
 20
117.5740092091506
 30
0.0
 11
103.8386222658618
 21
117.5740092091506
 31
0.0
  0
LINE
  5
8DE6
  8
AM_0
 10
103.8386222658618
 20
109.9140042091507
 30
0.0
 11
100.19869226586199
 21
109.9140042091507
 31
0.0
  0
LINE
  5
8DE7
  8
AM_0
 10
99.298662265861878
 20
110.35400820915071
 30
0.0
 11
103.8386222658618
 21
110.35400820915071
 31
0.0
  0
LINE
  5
8DE8
  8
AM_0
 10
103.8386222658618
 20
107.9140062091505
 30
0.0
 11
100.19869226586199
 21
107.9140062091505
 31
0.0
  0
LINE
  5
8DE9
  8
AM_0
 10
99.298662265861878
 20
107.4339942091509
 30
0.0
 11
103.8386222658618
 21
107.4339942091509
 31
0.0
  0
LINE
  5
8DEA
  8
AM_0
 10
99.508632265861792
 20
97.194004209150521
 30
0.0
 11
154.83862226586211
 21
97.194004209150521
 31
0.0
  0
LINE
  5
8DEB
  8
AM_0
 10
99.508632265861792
 20
100.5540192091507
 30
0.0
 11
103.94552629427599
 21
100.5540192091507
 31
0.0
  0
LINE
  5
8DEC
  8
AM_0
 10
104.17599142696641
 20
99.913990209150541
 30
0.0
 11
100.19869226586199
 21
99.913990209150541
 31
0.0
  0
LINE
  5
8DED
  8
AM_0
 10
103.198632265862
 20
97.264012209150721
 30
0.0
 11
97.838622265861872
 21
85.824007209150494
 31
0.0
  0
LINE
  5
8DEE
  8
AM_0
 10
97.838622265861872
 20
85.823992209150731
 30
0.0
 11
99.078612265862006
 21
79.263994209150709
 31
0.0
  0
LINE
  5
8DEF
  8
AM_0
 10
97.838622265861872
 20
83.134021209150688
 30
0.0
 11
99.148632265861764
 21
73.754017209150732
 31
0.0
  0
LINE
  5
8DF0
  8
AM_0
 10
89.838642265861907
 20
80.918995209150609
 30
0.0
 11
97.838622265861872
 21
80.918995209150609
 31
0.0
  0
LINE
  5
8DF1
  8
AM_0
 10
89.838642265861907
 20
80.914003209150735
 30
0.0
 11
97.838622265861872
 21
80.914003209150735
 31
0.0
  0
LINE
  5
8DF2
  8
AM_0
 10
97.838622265861872
 20
84.474001209150515
 30
0.0
 11
99.118602265861782
 21
76.47400320915051
 31
0.0
  0
LINE
  5
8DF3
  8
AM_0
 10
97.838622265861872
 20
83.133991209150736
 30
0.0
 11
99.128682265862281
 21
74.634004209150532
 31
0.0
  0
LINE
  5
8DF4
  8
AM_0
 10
90.528642265861762
 20
90.724003209150496
 30
0.0
 11
96.758682265862006
 21
90.724003209150496
 31
0.0
  0
ARC
  5
8DF5
  8
AM_0
 10
99.508632265861792
 20
98.873995209150735
 30
0.0
 40
1.679999999999999
 50
90.00000299999769
 51
270.0
  0
ARC
  5
8DF6
  8
AM_0
 10
301.80234690724029
 20
135.6268517746739
 30
0.0
 40
201.61085738285439
 50
179.42527489174191
 51
180.13294661222409
  0
ARC
  5
8DF7
  8
AM_0
 10
304.83226618537401
 20
135.6262345527899
 30
0.0
 40
204.64076721509861
 50
180.13080539050139
 51
180.4794013531876
  0
ARC
  5
8DF8
  8
AM_0
 10
303.08560023622653
 20
132.20126247215899
 30
0.0
 40
202.89403267033549
 50
180.21919094446349
 51
180.57069649463509
  0
ARC
  5
8DF9
  8
AM_0
 10
304.1222397980323
 20
132.20950580468019
 30
0.0
 40
203.93069622692141
 50
179.87077327205679
 51
180.22039274125319
  0
ARC
  5
8DFA
  8
AM_0
 10
303.74424530746268
 20
132.21227542267599
 30
0.0
 40
203.55269646012371
 50
179.5209954422055
 51
179.87131288696011
  0
ARC
  5
8DFB
  8
AM_0
 10
305.15771407064489
 20
132.21380371821479
 30
0.0
 40
204.96200297080929
 50
186.94488316605711
 51
187.59240971813199
  0
LINE
  5
8DFC
  8
AM_0
 10
101.08864226586179
 20
74.783998209150539
 30
0.0
 11
134.83864226586181
 21
74.783998209150539
 31
0.0
  0
LINE
  5
8DFD
  8
AM_0
 10
101.10865226586201
 20
72.944002209150483
 30
0.0
 11
134.83864226586181
 21
72.944002209150483
 31
0.0
  0
LINE
  5
8DFE
  8
AM_0
 10
101.12866226586171
 20
72.024004209150633
 30
0.0
 11
134.83864226586181
 21
72.024004209150633
 31
0.0
  0
LINE
  5
8DFF
  8
AM_0
 10
123.338622265862
 20
95.694004209150506
 30
0.0
 11
103.1658422658617
 21
97.194004209150521
 31
0.0
  0
ARC
  5
8E00
  8
AM_0
 10
305.63994943339088
 20
132.2841201790539
 30
0.0
 40
205.44930125633391
 50
187.5940787099787
 51
188.88606759391769
  0
ARC
  5
8E01
  8
AM_0
 10
134.8353422658617
 20
74.947285209150721
 30
0.0
 40
2.003279969999999
 50
270.09378999999711
 51
359.9062099999997
  0
LINE
  5
8E02
  8
AM_0
 10
136.8386222658618
 20
74.02400520915063
 30
0.0
 11
136.8386222658618
 21
77.633989209150513
 31
0.0
  0
ARC
  5
8E03
  8
AM_0
 10
134.83063226586179
 20
74.032015209150757
 30
0.0
 40
2.0080361999999981
 50
270.22878999999938
 51
359.77121000000051
  0
ARC
  5
8E04
  8
AM_0
 10
134.8314422658618
 20
76.791187209150493
 30
0.0
 40
2.007180029999998
 50
270.20461999999759
 51
359.795379999999
  0
ARC
  5
8E06
  8
AM_0
 10
304.74498013818771
 20
132.2223977407416
 30
0.0
 40
204.55326957220879
 50
185.460313996346
 51
186.1370008544751
  0
ARC
  5
8E07
  8
AM_0
 10
305.39834903194873
 20
132.28160278913191
 30
0.0
 40
205.2093074617344
 50
184.78473638767409
 51
185.4594105542368
  0
ARC
  5
8E08
  8
AM_0
 10
304.8279852972571
 20
132.2316793385188
 30
0.0
 40
204.63676715666841
 50
184.10764570184509
 51
184.78412767205279
  0
ARC
  5
8E09
  8
AM_0
 10
304.56934194937691
 20
132.21993771600631
 30
0.0
 40
204.37787853975311
 50
181.97597713470071
 51
183.3618692197046
  0
ARC
  5
8E0A
  8
AM_0
 10
304.89816517510212
 20
135.6039342353412
 30
0.0
 40
204.70684984457009
 50
176.6408431394315
 51
177.33301926919839
  0
ARC
  5
8E0B
  8
AM_0
 10
306.21503084808199
 20
135.54975922611891
 30
0.0
 40
206.0248100930055
 50
177.33501004864439
 51
178.02262526942761
  0
LINE
  5
8E0C
  8
AM_0
 10
202.65865226586189
 20
100.5540192091507
 30
0.0
 11
192.8386222658614
 21
100.5540192091507
 31
0.0
  0
LINE
  5
8E0D
  8
AM_0
 10
204.33865226586181
 20
95.694004209150506
 30
0.0
 11
199.8886322658617
 21
79.11400020915049
 31
0.0
  0
ARC
  5
8E0E
  8
AM_0
 10
197.95576226586181
 20
79.63614120915048
 30
0.0
 40
2.0021281800000001
 50
270.0815199999999
 51
344.88329999999883
  0
LINE
  5
8E0F
  8
AM_0
 10
199.17865226586201
 20
99.913990209150541
 30
0.0
 11
192.8386222658614
 21
99.913990209150541
 31
0.0
  0
LINE
  5
8E10
  8
AM_0
 10
192.8386222658614
 20
103.8362991248237
 30
0.0
 11
195.60865226586171
 21
103.9139892091506
 31
0.0
  0
ARC
  5
8E11
  8
AM_0
 10
199.17865226586201
 20
98.914006209150713
 30
0.0
 40
1.000004069999999
 50
270.0
 51
90.00000299999769
  0
LINE
  5
8E12
  8
AM_0
 10
200.37862226586159
 20
80.914003209150735
 30
0.0
 11
205.8386522658619
 21
80.914003209150735
 31
0.0
  0
ARC
  5
8E13
  8
AM_0
 10
202.65865226586189
 20
98.873995209150735
 30
0.0
 40
1.680008099999998
 50
270.0
 51
90.00000299999769
  0
ARC
  5
8E14
  8
AM_0
 10
202.65865226586189
 20
98.873995209150735
 30
0.0
 40
1.675004159999999
 50
270.0
 51
90.00000299999769
  0
LINE
  5
8E15
  8
AM_0
 10
100.3886891717147
 20
169.91400970577081
 30
0.0
 11
199.17865221350141
 21
169.91401227915051
 31
0.0
  0
LINE
  5
8E16
  8
AM_0
 10
99.508632265861792
 20
170.64397620915051
 30
0.0
 11
202.65865226586189
 21
170.64397620915051
 31
0.0
  0
LINE
  5
8E17
  8
AM_0
 10
101.03863226586201
 20
190.20400620915061
 30
0.0
 11
197.9586422658617
 21
190.20400620915061
 31
0.0
  0
LINE
  5
8E18
  8
AM_0
 10
123.338622265862
 20
172.14397620915059
 30
0.0
 11
205.8386522658619
 21
172.14397620915059
 31
0.0
  0
ARC
  5
8E19
  8
AM_0
 10
100.3808822658619
 20
168.91400820915061
 30
0.0
 40
1.0000319699999971
 50
89.552707000000453
 51
270.44730000000112
  0
ARC
  5
8E1A
  8
AM_0
 10
100.3808822658619
 20
158.91400620915081
 30
0.0
 40
1.0000319699999971
 50
89.552707000000453
 51
270.44730000000112
  0
ARC
  5
8E1B
  8
AM_0
 10
99.292992265861884
 20
158.9440062091505
 30
0.0
 40
1.4600120099999969
 50
89.777016999998949
 51
270.22298999999867
  0
ARC
  5
8E1C
  8
AM_0
 10
101.041512265862
 20
188.2070862091505
 30
0.0
 40
1.9969040699999969
 50
90.083473999999597
 51
169.41256000000109
  0
ARC
  5
8E1D
  8
AM_0
 10
101.0870522658617
 20
191.0508762091506
 30
0.0
 40
1.9931281199999991
 50
89.953373000000497
 51
170.96118000000021
  0
ARC
  5
8E1E
  8
AM_0
 10
101.1013922658617
 20
192.89941620915059
 30
0.0
 40
1.9945880699999969
 50
89.790753000002425
 51
171.507090000001
  0
ARC
  5
8E1F
  8
AM_0
 10
101.12329226586159
 20
193.81051620915059
 30
0.0
 40
1.9934921999999999
 50
89.84609100000138
 51
172.1147399999993
  0
LINE
  5
8E20
  8
AM_0
 10
104.17414838689351
 20
167.91400620915061
 30
0.0
 11
100.19869226586199
 21
167.91400620915061
 31
0.0
  0
LINE
  5
8E21
  8
AM_0
 10
103.8386222658618
 20
159.91400820915061
 30
0.0
 11
100.19869226586199
 21
159.91400820915061
 31
0.0
  0
LINE
  5
8E22
  8
AM_0
 10
103.8386222658618
 20
157.9140072091507
 30
0.0
 11
100.19869226586199
 21
157.9140072091507
 31
0.0
  0
LINE
  5
8E23
  8
AM_0
 10
99.508632265861792
 20
167.2840032091506
 30
0.0
 11
103.9472948698135
 21
167.2840032091506
 31
0.0
  0
LINE
  5
8E24
  8
AM_0
 10
99.298662265861878
 20
160.4039982091509
 30
0.0
 11
103.8386222658618
 21
160.4039982091509
 31
0.0
  0
LINE
  5
8E25
  8
AM_0
 10
99.298662265861878
 20
157.48398420915069
 30
0.0
 11
103.8386222658618
 21
157.48398420915069
 31
0.0
  0
LINE
  5
8E26
  8
AM_0
 10
99.168642265861791
 20
150.2640132091507
 30
0.0
 11
103.8386222658618
 21
150.2640132091507
 31
0.0
  0
LINE
  5
8E27
  8
AM_0
 10
103.198632265862
 20
170.56399620915059
 30
0.0
 11
97.838622265861872
 21
182.0139762091504
 31
0.0
  0
LINE
  5
8E28
  8
AM_0
 10
97.838622265861872
 20
184.7039862091504
 30
0.0
 11
99.148632265861764
 21
194.0839962091504
 31
0.0
  0
ARC
  5
8E29
  8
AM_0
 10
99.508632265861792
 20
168.96399420915051
 30
0.0
 40
1.679999999999999
 50
90.00000299999769
 51
270.0
  0
LINE
  5
8E2A
  8
AM_0
 10
97.838622265861872
 20
182.0140062091503
 30
0.0
 11
99.078612265862006
 21
188.57401620915061
 31
0.0
  0
LINE
  5
8E2B
  8
AM_0
 10
90.528642265861762
 20
177.10399620915041
 30
0.0
 11
96.758682265862006
 21
177.10399620915041
 31
0.0
  0
LINE
  5
8E2C
  8
AM_0
 10
89.838642265861907
 20
186.91900620915061
 30
0.0
 11
97.838622265861872
 21
186.91900620915061
 31
0.0
  0
LINE
  5
8E2D
  8
AM_0
 10
89.838642265861907
 20
186.91399620915061
 30
0.0
 11
97.838622265861872
 21
186.91399620915061
 31
0.0
  0
LINE
  5
8E2E
  8
AM_0
 10
97.838622265861872
 20
183.3540162091507
 30
0.0
 11
99.118602265861782
 21
191.3639862091504
 31
0.0
  0
LINE
  5
8E2F
  8
AM_0
 10
97.838622265861872
 20
184.70401620915061
 30
0.0
 11
99.128682265862281
 21
193.19401620915059
 31
0.0
  0
ARC
  5
8E30
  8
AM_0
 10
134.8371122658618
 20
192.89245620915071
 30
0.0
 40
2.0015440500000001
 50
0.0442139990008822
 51
89.95578399999907
  0
LINE
  5
8E31
  8
AM_0
 10
136.8386222658618
 20
193.80400620915071
 30
0.0
 11
136.8386222658618
 21
190.20400620915061
 31
0.0
  0
LINE
  5
8E32
  8
AM_0
 10
101.08864226586179
 20
193.0439862091504
 30
0.0
 11
134.83864226586181
 21
193.0439862091504
 31
0.0
  0
LINE
  5
8E33
  8
AM_0
 10
123.338622265862
 20
172.14397620915059
 30
0.0
 11
103.1611922658619
 21
170.6440062091504
 31
0.0
  0
ARC
  5
8E34
  8
AM_0
 10
304.61963177367687
 20
135.6630810289536
 30
0.0
 40
204.4231110527293
 50
172.39935376234251
 51
173.04804061343009
  0
ARC
  5
8E35
  8
AM_0
 10
305.27591391148343
 20
135.5644080349696
 30
0.0
 40
205.086602105558
 50
173.86479656848161
 51
175.2153393800649
  0
ARC
  5
8E36
  8
AM_0
 10
304.6701502513742
 20
135.62193662127069
 30
0.0
 40
204.47815098782999
 50
175.21724497659139
 51
175.89452073852021
  0
ARC
  5
8E37
  8
AM_0
 10
304.95046865431522
 20
135.61379141658341
 30
0.0
 40
204.75756069728581
 50
171.10266677355679
 51
172.39792734853171
  0
ARC
  5
8E38
  8
AM_0
 10
134.8382222658617
 20
191.0435862091505
 30
0.0
 40
2.0004079799999981
 50
0.0116490000006953
 51
89.98834999999788
  0
LINE
  5
8E39
  8
AM_0
 10
101.10865226586201
 20
194.8939962091504
 30
0.0
 11
134.83864226586181
 21
194.8939962091504
 31
0.0
  0
LINE
  5
8E3A
  8
AM_0
 10
101.12866226586171
 20
195.8040162091504
 30
0.0
 11
134.83864226586181
 21
195.8040162091504
 31
0.0
  0
ARC
  5
8E3B
  8
AM_0
 10
134.83735226586171
 20
193.8027162091505
 30
0.0
 40
2.0012880000000002
 50
0.0368719989989404
 51
89.963125999997985
  0
LINE
  5
8E3C
  8
AM_0
 10
202.65865226586189
 20
167.2840032091506
 30
0.0
 11
192.8386222658614
 21
167.2840032091506
 31
0.0
  0
LINE
  5
8E3D
  8
AM_0
 10
204.03865226586211
 20
173.2540062091505
 30
0.0
 11
199.88869226586209
 21
188.71399620915039
 31
0.0
  0
LINE
  5
8E3E
  8
AM_0
 10
192.8386222658614
 20
164.00170829347749
 30
0.0
 11
195.60865226586171
 21
163.9240182091504
 31
0.0
  0
ARC
  5
8E3F
  8
AM_0
 10
199.17865226586201
 20
168.91400820915061
 30
0.0
 40
1.000004069999999
 50
270.0
 51
90.00000299999769
  0
ARC
  5
8E40
  8
AM_0
 10
197.95582226586171
 20
188.2054062091506
 30
0.0
 40
1.99860411
 50
14.74271599999944
 51
89.919516000001124
  0
ARC
  5
8E41
  8
AM_0
 10
202.65865226586189
 20
168.96399420915051
 30
0.0
 40
1.680008099999998
 50
270.0
 51
90.00000299999769
  0
ARC
  5
8E42
  8
AM_0
 10
202.65865226586189
 20
168.96399420915051
 30
0.0
 40
1.675004159999999
 50
270.0
 51
90.00000299999769
  0
ARC
  5
8E43
  8
AM_0
 10
205.491822265862
 20
173.6417562091504
 30
0.0
 40
1.502776079999999
 50
194.75642999999971
 51
269.8775900000029
  0
LINE
  5
8E44
  8
AM_0
 10
200.37862226586159
 20
186.91399620915061
 30
0.0
 11
205.8386522658619
 21
186.91399620915061
 31
0.0
  0
LINE
  5
8E45
  8
AM_0
 10
188.3386222658618
 20
156.41901120915051
 30
0.0
 11
188.3386222658614
 21
111.4190112091507
 31
0.0
  0
LINE
  5
8E46
  8
AM_0
 10
186.23862226586169
 20
156.9692637408445
 30
0.0
 11
186.23862226586141
 21
110.8687586774568
 31
0.0
  0
LINE
  5
8E47
  8
AM_0
 10
103.338622265862
 20
115.9190112091506
 30
0.0
 11
103.338622265862
 21
105.91900120915069
 31
0.0
  0
LINE
  5
8E48
  8
AM_0
 10
103.8386222658618
 20
101.4190052091509
 30
0.0
 11
103.8386222658618
 21
166.41900120915031
 31
0.0
  0
LINE
  5
8E49
  8
AM_0
 10
175.3888667975562
 20
100.0190032091505
 30
0.0
 11
108.2586022658617
 21
100.0190032091505
 31
0.0
  0
LINE
  5
8E4A
  8
AM_0
 10
108.2586022658617
 20
100.0190032091505
 30
0.0
 11
108.2586022658617
 21
97.919012209150424
 31
0.0
  0
ARC
  5
8E4B
  8
AM_0
 10
107.331242265862
 20
101.4116582091507
 30
0.0
 40
3.492651899999998
 50
179.8793300000022
 51
270.12067999999482
  0
ARC
  5
8E4C
  8
AM_0
 10
103.83130226586169
 20
105.91166120915079
 30
0.0
 40
0.4927000100000001
 50
179.14455999999711
 51
270.85544000000272
  0
ARC
  5
8E4D
  8
AM_0
 10
190.3386222658614
 20
111.4190112091507
 30
0.0
 40
2.0
 50
180.0
 51
270.0
  0
LINE
  5
8E4E
  8
AM_0
 10
185.8285717595229
 20
109.8788091837946
 30
0.0
 11
176.3788162912173
 21
100.4290537154894
 31
0.0
  0
LINE
  5
8E4F
  8
AM_0
 10
176.3788242912172
 20
100.4290617154894
 30
0.0
 11
185.8285717595231
 21
109.878809183795
 31
0.0
  0
ARC
  5
8E50
  8
AM_0
 10
175.3888667975562
 20
101.4190032091507
 30
0.0
 40
1.399999999999999
 50
270.0
 51
315.00000000000921
1001
GENIUS_GENODEF_13
1002
{
1000
HIER
1070
     0
1002
}
1002
{
1000
MANEDIT
1070
     0
1002
}
1002
{
1000
NOSEL
1070
     0
1002
}
1002
{
1000
BEHIND
1070
     0
1002
}
1002
{
1000
OTHER
1070
     0
1002
}
1002
{
1000
REACTOR
1002
}
1001
GENIUS_GENOBJ-N-FIL_13
1002
{
1000
OWNER
1000
GEN
1002
}
  0
ARC
  5
8E51
  8
AM_0
 10
184.8386222658616
 20
110.8687586774568
 30
0.0
 40
1.4000000000006301
 50
314.99999999997232
 51
0.0
  0
ARC
  5
8E52
  8
AM_0
 10
190.8386222658614
 20
99.91901120915054
 30
0.0
 40
2.0
 50
270.0
 51
0.0
  0
ARC
  5
8E53
  8
AM_0
 10
190.8386222658614
 20
107.4190112091506
 30
0.0
 40
2.0
 50
0.0
 51
90.0
  0
LINE
  5
8E54
  8
AM_0
 10
190.8386222658614
 20
109.4190112091507
 30
0.0
 11
190.3386222658614
 21
109.4190112091507
 31
0.0
  0
LINE
  5
8E55
  8
AM_0
 10
192.8386222658614
 20
99.91901120915054
 30
0.0
 11
192.8386222658614
 21
107.4190112091506
 31
0.0
  0
LINE
  5
8E56
  8
AM_0
 10
108.2586022658617
 20
167.8189912091506
 30
0.0
 11
175.39635808573701
 21
167.8189912091506
 31
0.0
  0
ARC
  5
8E57
  8
AM_0
 10
103.8391722658619
 20
115.91846120915029
 30
0.0
 40
0.5005480100000002
 50
90.062622000000005
 51
179.93736999999041
  0
ARC
  5
8E58
  8
AM_0
 10
103.8391722658619
 20
161.91846120915031
 30
0.0
 40
0.5005480100000002
 50
90.062622000000005
 51
179.93736999999041
  0
ARC
  5
8E59
  8
AM_0
 10
103.83111226586171
 20
151.9115012091504
 30
0.0
 40
0.49254802
 50
179.1265600000018
 51
270.87345000000158
  0
LINE
  5
8E5A
  8
AM_0
 10
103.338622265862
 20
161.91900120915031
 30
0.0
 11
103.338622265862
 21
151.91901120915051
 31
0.0
  0
LINE
  5
8E5B
  8
AM_0
 10
108.2586022658617
 20
167.8189912091506
 30
0.0
 11
108.2586022658617
 21
169.91399120915059
 31
0.0
  0
ARC
  5
8E5C
  8
AM_0
 10
107.3391122658617
 20
166.41851120915041
 30
0.0
 40
3.5005001999999981
 50
90.008164999996055
 51
179.99183999999781
  0
LINE
  5
8E5D
  8
AM_0
 10
190.3386222658618
 20
139.41901120915051
 30
0.0
 11
188.3386222658614
 21
139.41901120915051
 31
0.0
  0
LINE
  5
8E5E
  8
AM_0
 10
188.3386222658614
 20
128.4190112091506
 30
0.0
 11
190.33862226586211
 21
128.4190112091506
 31
0.0
  0
LINE
  5
8E5F
  8
AM_0
 10
190.33862226586211
 20
128.4190112091506
 30
0.0
 11
190.3386222658618
 21
139.41901120915051
 31
0.0
  0
ARC
  5
8E60
  8
AM_0
 10
190.3386222658614
 20
156.41901120915051
 30
0.0
 40
2.0
 50
90.0
 51
180.0
  0
CIRCLE
  5
8E61
  8
AM_0
 10
187.3386222658614
 20
164.9190112091504
 30
0.0
 40
3.4999999999999631
  0
LINE
  5
8E62
  8
AM_0
 10
176.378824291218
 20
167.40896070281161
 30
0.0
 11
185.8285717595229
 21
157.95921323450671
 31
0.0
  0
LINE
  5
8E63
  8
AM_0
 10
184.23862226586141
 20
159.54916272816681
 30
0.0
 11
185.8285717595229
 21
157.95921323450651
 31
0.0
  0
ARC
  5
8E64
  8
AM_0
 10
184.8386222658616
 20
156.9692637408445
 30
0.0
 40
1.400000000000118
 50
0.0
 51
45.000000000027619
  0
ARC
  5
8E65
  8
AM_0
 10
175.38887479755559
 20
166.41901120915051
 30
0.0
 40
1.40000000000077
 50
44.999999999972353
 51
89.999999999954383
  0
LINE
  5
8E66
  8
AM_0
 10
192.8386222658614
 20
160.41901120915051
 30
0.0
 11
192.8386222658614
 21
167.9190112091506
 31
0.0
  0
LINE
  5
8E67
  8
AM_0
 10
192.8386222658614
 20
160.41901120915051
 30
0.0
 11
192.8386222658614
 21
167.9190112091506
 31
0.0
  0
ARC
  5
8E68
  8
AM_0
 10
190.8386222658614
 20
160.41901120915051
 30
0.0
 40
2.0
 50
270.0
 51
0.0
  0
LINE
  5
8E69
  8
AM_0
 10
190.3386222658614
 20
158.41901120915051
 30
0.0
 11
190.8386222658614
 21
158.41901120915051
 31
0.0
  0
ARC
  5
8E6A
  8
AM_0
 10
190.8386222658614
 20
167.9190112091506
 30
0.0
 40
2.0
 50
0.0
 51
90.0
  0
LINE
  5
8E6B
  8
AM_0
 10
184.70005058465469
 20
164.91901120915151
 30
0.0
 11
189.9771939470682
 21
164.91901120915131
 31
0.0
  0
LINE
  5
8E6C
  8
AM_0
 10
187.3386222658614
 20
167.557582890357
 30
0.0
 11
187.3386222658614
 21
162.2804395279436
 31
0.0
  0
CIRCLE
  5
8E6D
  8
AM_0
 10
187.3386222658614
 20
102.9190112091504
 30
0.0
 40
3.4999999999999631
  0
LINE
  5
8E6E
  8
AM_0
 10
184.70005058465469
 20
102.91901120915171
 30
0.0
 11
189.9771939470682
 21
102.91901120915151
 31
0.0
  0
LINE
  5
8E6F
  8
AM_0
 10
187.3386222658614
 20
105.5575828903571
 30
0.0
 11
187.3386222658614
 21
100.2804395279437
 31
0.0
  0
LINE
  5
8E70
  8
AM_0
 10
199.17865226586201
 20
167.92403220915051
 30
0.0
 11
192.8386222658614
 21
167.92403220915051
 31
0.0
  0
LINE
  5
8E75
  8
AM_0
 10
465.033884825634
 20
128.4190112091504
 30
0.0
 11
450.75067126586191
 21
128.4190112091504
 31
0.0
  0
LINE
  5
8E76
  8
AM_0
 10
450.75067126586191
 20
139.41901120915051
 30
0.0
 11
465.033884825634
 21
139.41901120915051
 31
0.0
  0
LINE
  5
8E77
  8
AM_0
 10
470.75067126586191
 20
169.91901120914901
 30
0.0
 11
438.25067126586191
 21
169.91901120914901
 31
0.0
  0
LINE
  5
8E78
  8
AM_0
 10
438.25067126586191
 20
97.919011209148877
 30
0.0
 11
466.58362842911657
 21
97.919011209148877
 31
0.0
  0
LINE
  5
8E79
  8
AM_0
 10
437.75067126586191
 20
165.3190112091508
 30
0.0
 11
437.75067126586191
 21
102.519011209151
 31
0.0
  0
LINE
  5
8E7A
  8
AM_0
 10
450.75067126586151
 20
97.919011209148877
 30
0.0
 11
450.75067126586151
 21
169.91901120914901
 31
0.0
  0
LINE
  5
8E7B
  8
AM_0
 10
450.75067126586151
 20
158.9990112091503
 30
0.0
 11
449.28567126586182
 21
167.81901120915069
 31
0.0
  0
ARC
  5
8E7C
  8
AM_0
 10
440.2506712658618
 20
165.3190112091508
 30
0.0
 40
2.5
 50
90.0
 51
180.0
  0
LINE
  5
8E7D
  8
AM_0
 10
437.75067126586191
 20
169.41901120915051
 30
0.0
 11
437.75067126586191
 21
165.3190112091508
 31
0.0
  0
ARC
  5
8E7E
  8
AM_0
 10
438.25067126586191
 20
169.41901120915051
 30
0.0
 40
0.5
 50
90.0
 51
180.0
  0
LINE
  5
8E7F
  8
AM_0
 10
449.28567126586182
 20
167.81901120915069
 30
0.0
 11
440.2506712658618
 21
167.81901120915069
 31
0.0
  0
POLYLINE
  5
8E80
  8
AM_0
 66
     1
 10
0.0
 20
0.0
 30
0.0
 70
     8
  0
VERTEX
  5
8E81
  8
AM_0
 10
440.2506242007878
 20
157.54942601219341
 30
0.0
 70
    32
  0
VERTEX
  5
8E82
  8
AM_0
 10
440.24662420078789
 20
157.54942601219341
 30
0.0
 70
    32
  0
VERTEX
  5
8E83
  8
AM_0
 10
440.24262420078759
 20
157.54942601219341
 30
0.0
 70
    32
  0
VERTEX
  5
8E84
  8
AM_0
 10
440.23762420078782
 20
157.54942601219341
 30
0.0
 70
    32
  0
VERTEX
  5
8E85
  8
AM_0
 10
440.23362420078752
 20
157.54942601219341
 30
0.0
 70
    32
  0
VERTEX
  5
8E86
  8
AM_0
 10
440.2296242007879
 20
157.54942601219341
 30
0.0
 70
    32
  0
VERTEX
  5
8E87
  8
AM_0
 10
440.2246242007879
 20
157.54942601219341
 30
0.0
 70
    32
  0
VERTEX
  5
8E88
  8
AM_0
 10
440.22062420078788
 20
157.5484260121934
 30
0.0
 70
    32
  0
VERTEX
  5
8E89
  8
AM_0
 10
440.21662420078758
 20
157.5484260121934
 30
0.0
 70
    32
  0
VERTEX
  5
8E8A
  8
AM_0
 10
440.21262420078762
 20
157.5484260121934
 30
0.0
 70
    32
  0
VERTEX
  5
8E8B
  8
AM_0
 10
440.20762420078762
 20
157.5484260121934
 30
0.0
 70
    32
  0
VERTEX
  5
8E8C
  8
AM_0
 10
440.20362420078737
 20
157.5484260121934
 30
0.0
 70
    32
  0
VERTEX
  5
8E8D
  8
AM_0
 10
440.19962420078758
 20
157.5484260121934
 30
0.0
 70
    32
  0
VERTEX
  5
8E8E
  8
AM_0
 10
440.19562420078768
 20
157.5484260121934
 30
0.0
 70
    32
  0
VERTEX
  5
8E8F
  8
AM_0
 10
440.19062420078768
 20
157.5484260121934
 30
0.0
 70
    32
  0
VERTEX
  5
8E90
  8
AM_0
 10
440.18662420078761
 20
157.5484260121934
 30
0.0
 70
    32
  0
VERTEX
  5
8E91
  8
AM_0
 10
440.18262420078798
 20
157.5484260121934
 30
0.0
 70
    32
  0
VERTEX
  5
8E92
  8
AM_0
 10
440.17762420078759
 20
157.5484260121934
 30
0.0
 70
    32
  0
VERTEX
  5
8E93
  8
AM_0
 10
440.17362420078803
 20
157.5484260121934
 30
0.0
 70
    32
  0
VERTEX
  5
8E94
  8
AM_0
 10
440.16962420078772
 20
157.5484260121934
 30
0.0
 70
    32
  0
VERTEX
  5
8E95
  8
AM_0
 10
440.16562420078759
 20
157.5484260121934
 30
0.0
 70
    32
  0
VERTEX
  5
8E96
  8
AM_0
 10
440.16062420078759
 20
157.5484260121934
 30
0.0
 70
    32
  0
VERTEX
  5
8E97
  8
AM_0
 10
440.1566242007878
 20
157.5484260121934
 30
0.0
 70
    32
  0
VERTEX
  5
8E98
  8
AM_0
 10
440.15262420078761
 20
157.5484260121934
 30
0.0
 70
    32
  0
VERTEX
  5
8E99
  8
AM_0
 10
440.14862420078759
 20
157.5484260121934
 30
0.0
 70
    32
  0
VERTEX
  5
8E9A
  8
AM_0
 10
440.14362420078783
 20
157.5474260121936
 30
0.0
 70
    32
  0
VERTEX
  5
8E9B
  8
AM_0
 10
440.13962420078758
 20
157.5474260121936
 30
0.0
 70
    32
  0
VERTEX
  5
8E9C
  8
AM_0
 10
440.1356242007879
 20
157.5474260121936
 30
0.0
 70
    32
  0
VERTEX
  5
8E9D
  8
AM_0
 10
440.13162420078731
 20
157.5474260121936
 30
0.0
 70
    32
  0
VERTEX
  5
8E9E
  8
AM_0
 10
440.12662420078789
 20
157.5474260121936
 30
0.0
 70
    32
  0
VERTEX
  5
8E9F
  8
AM_0
 10
440.12262420078758
 20
157.5474260121936
 30
0.0
 70
    32
  0
VERTEX
  5
8EA0
  8
AM_0
 10
440.11862420078762
 20
157.5474260121936
 30
0.0
 70
    32
  0
VERTEX
  5
8EA1
  8
AM_0
 10
440.11362420078768
 20
157.5474260121936
 30
0.0
 70
    32
  0
VERTEX
  5
8EA2
  8
AM_0
 10
440.10962420078761
 20
157.5474260121936
 30
0.0
 70
    32
  0
VERTEX
  5
8EA3
  8
AM_0
 10
440.10562420078782
 20
157.5474260121936
 30
0.0
 70
    32
  0
VERTEX
  5
8EA4
  8
AM_0
 10
440.10162420078768
 20
157.54642601219351
 30
0.0
 70
    32
  0
VERTEX
  5
8EA5
  8
AM_0
 10
440.0966242007878
 20
157.54642601219351
 30
0.0
 70
    32
  0
VERTEX
  5
8EA6
  8
AM_0
 10
440.09262420078761
 20
157.54642601219351
 30
0.0
 70
    32
  0
VERTEX
  5
8EA7
  8
AM_0
 10
440.08862420078799
 20
157.54642601219351
 30
0.0
 70
    32
  0
VERTEX
  5
8EA8
  8
AM_0
 10
440.0846242007878
 20
157.54642601219351
 30
0.0
 70
    32
  0
VERTEX
  5
8EA9
  8
AM_0
 10
440.0796242007878
 20
157.54642601219351
 30
0.0
 70
    32
  0
VERTEX
  5
8EAA
  8
AM_0
 10
440.07562420078767
 20
157.54642601219351
 30
0.0
 70
    32
  0
VERTEX
  5
8EAB
  8
AM_0
 10
440.07162420078782
 20
157.5454260121933
 30
0.0
 70
    32
  0
VERTEX
  5
8EAC
  8
AM_0
 10
440.0676242007878
 20
157.5454260121933
 30
0.0
 70
    32
  0
VERTEX
  5
8EAD
  8
AM_0
 10
440.06262420078798
 20
157.5454260121933
 30
0.0
 70
    32
  0
VERTEX
  5
8EAE
  8
AM_0
 10
440.05862420078762
 20
157.5454260121933
 30
0.0
 70
    32
  0
VERTEX
  5
8EAF
  8
AM_0
 10
440.05462420078783
 20
157.5454260121933
 30
0.0
 70
    32
  0
VERTEX
  5
8EB0
  8
AM_0
 10
440.04962420078789
 20
157.5454260121933
 30
0.0
 70
    32
  0
VERTEX
  5
8EB1
  8
AM_0
 10
440.04562420078759
 20
157.5454260121933
 30
0.0
 70
    32
  0
VERTEX
  5
8EB2
  8
AM_0
 10
440.04162420078762
 20
157.54442601219341
 30
0.0
 70
    32
  0
VERTEX
  5
8EB3
  8
AM_0
 10
440.03762420078789
 20
157.54442601219341
 30
0.0
 70
    32
  0
VERTEX
  5
8EB4
  8
AM_0
 10
440.03262420078789
 20
157.54442601219341
 30
0.0
 70
    32
  0
VERTEX
  5
8EB5
  8
AM_0
 10
440.02862420078759
 20
157.54442601219341
 30
0.0
 70
    32
  0
VERTEX
  5
8EB6
  8
AM_0
 10
440.02462420078763
 20
157.54442601219341
 30
0.0
 70
    32
  0
VERTEX
  5
8EB7
  8
AM_0
 10
440.02062420078738
 20
157.54342601219369
 30
0.0
 70
    32
  0
VERTEX
  5
8EB8
  8
AM_0
 10
440.0156242007879
 20
157.54342601219369
 30
0.0
 70
    32
  0
VERTEX
  5
8EB9
  8
AM_0
 10
440.01162420078759
 20
157.54342601219369
 30
0.0
 70
    32
  0
VERTEX
  5
8EBA
  8
AM_0
 10
440.0076242007878
 20
157.54342601219369
 30
0.0
 70
    32
  0
VERTEX
  5
8EBB
  8
AM_0
 10
440.00362420078761
 20
157.54342601219369
 30
0.0
 70
    32
  0
VERTEX
  5
8EBC
  8
AM_0
 10
439.99862420078767
 20
157.54342601219369
 30
0.0
 70
    32
  0
VERTEX
  5
8EBD
  8
AM_0
 10
439.99462420078783
 20
157.54242601219391
 30
0.0
 70
    32
  0
VERTEX
  5
8EBE
  8
AM_0
 10
439.99062420078798
 20
157.54242601219391
 30
0.0
 70
    32
  0
VERTEX
  5
8EBF
  8
AM_0
 10
439.98662420078767
 20
157.54242601219391
 30
0.0
 70
    32
  0
VERTEX
  5
8EC0
  8
AM_0
 10
439.98162420078768
 20
157.54242601219391
 30
0.0
 70
    32
  0
VERTEX
  5
8EC1
  8
AM_0
 10
439.9776242007876
 20
157.54142601219371
 30
0.0
 70
    32
  0
VERTEX
  5
8EC2
  8
AM_0
 10
439.97362420078781
 20
157.54142601219371
 30
0.0
 70
    32
  0
VERTEX
  5
8EC3
  8
AM_0
 10
439.96862420078759
 20
157.54142601219371
 30
0.0
 70
    32
  0
VERTEX
  5
8EC4
  8
AM_0
 10
439.9646242007878
 20
157.54142601219371
 30
0.0
 70
    32
  0
VERTEX
  5
8EC5
  8
AM_0
 10
439.96062420078761
 20
157.54142601219371
 30
0.0
 70
    32
  0
VERTEX
  5
8EC6
  8
AM_0
 10
439.95662420078759
 20
157.54042601219351
 30
0.0
 70
    32
  0
VERTEX
  5
8EC7
  8
AM_0
 10
439.95162420078759
 20
157.54042601219351
 30
0.0
 70
    32
  0
VERTEX
  5
8EC8
  8
AM_0
 10
439.94762420078791
 20
157.54042601219351
 30
0.0
 70
    32
  0
VERTEX
  5
8EC9
  8
AM_0
 10
439.94362420078789
 20
157.54042601219351
 30
0.0
 70
    32
  0
VERTEX
  5
8ECA
  8
AM_0
 10
439.93962420078782
 20
157.5394260121935
 30
0.0
 70
    32
  0
VERTEX
  5
8ECB
  8
AM_0
 10
439.93462420078788
 20
157.5394260121935
 30
0.0
 70
    32
  0
VERTEX
  5
8ECC
  8
AM_0
 10
439.93062420078758
 20
157.5394260121935
 30
0.0
 70
    32
  0
VERTEX
  5
8ECD
  8
AM_0
 10
439.92662420078727
 20
157.53842601219361
 30
0.0
 70
    32
  0
VERTEX
  5
8ECE
  8
AM_0
 10
439.92262420078782
 20
157.53842601219361
 30
0.0
 70
    32
  0
VERTEX
  5
8ECF
  8
AM_0
 10
439.91762420078783
 20
157.53842601219361
 30
0.0
 70
    32
  0
VERTEX
  5
8ED0
  8
AM_0
 10
439.91362420078781
 20
157.53842601219361
 30
0.0
 70
    32
  0
VERTEX
  5
8ED1
  8
AM_0
 10
439.90962420078762
 20
157.53742601219341
 30
0.0
 70
    32
  0
VERTEX
  5
8ED2
  8
AM_0
 10
439.90562420078788
 20
157.53742601219341
 30
0.0
 70
    32
  0
VERTEX
  5
8ED3
  8
AM_0
 10
439.9006242007876
 20
157.53742601219341
 30
0.0
 70
    32
  0
VERTEX
  5
8ED4
  8
AM_0
 10
439.89662420078798
 20
157.53742601219341
 30
0.0
 70
    32
  0
VERTEX
  5
8ED5
  8
AM_0
 10
439.89262420078768
 20
157.5364260121934
 30
0.0
 70
    32
  0
VERTEX
  5
8ED6
  8
AM_0
 10
439.8886242007876
 20
157.5364260121934
 30
0.0
 70
    32
  0
VERTEX
  5
8ED7
  8
AM_0
 10
439.88362420078772
 20
157.5364260121934
 30
0.0
 70
    32
  0
VERTEX
  5
8ED8
  8
AM_0
 10
439.87962420078782
 20
157.53542601219331
 30
0.0
 70
    32
  0
VERTEX
  5
8ED9
  8
AM_0
 10
439.8756242007878
 20
157.53542601219331
 30
0.0
 70
    32
  0
VERTEX
  5
8EDA
  8
AM_0
 10
439.87062420078757
 20
157.53542601219331
 30
0.0
 70
    32
  0
VERTEX
  5
8EDB
  8
AM_0
 10
439.86662420078761
 20
157.53442601219351
 30
0.0
 70
    32
  0
VERTEX
  5
8EDC
  8
AM_0
 10
439.86262420078759
 20
157.53442601219351
 30
0.0
 70
    32
  0
VERTEX
  5
8EDD
  8
AM_0
 10
439.85862420078757
 20
157.53442601219351
 30
0.0
 70
    32
  0
VERTEX
  5
8EDE
  8
AM_0
 10
439.85362420078758
 20
157.53342601219379
 30
0.0
 70
    32
  0
VERTEX
  5
8EDF
  8
AM_0
 10
439.8496242007879
 20
157.53342601219379
 30
0.0
 70
    32
  0
VERTEX
  5
8EE0
  8
AM_0
 10
439.84562420078788
 20
157.53342601219379
 30
0.0
 70
    32
  0
VERTEX
  5
8EE1
  8
AM_0
 10
439.84162420078758
 20
157.53242601219361
 30
0.0
 70
    32
  0
VERTEX
  5
8EE2
  8
AM_0
 10
439.83662420078758
 20
157.53242601219361
 30
0.0
 70
    32
  0
VERTEX
  5
8EE3
  8
AM_0
 10
439.8326242007879
 20
157.53242601219361
 30
0.0
 70
    32
  0
VERTEX
  5
8EE4
  8
AM_0
 10
439.8286242007876
 20
157.53142601219369
 30
0.0
 70
    32
  0
VERTEX
  5
8EE5
  8
AM_0
 10
439.82462420078781
 20
157.53142601219369
 30
0.0
 70
    32
  0
VERTEX
  5
8EE6
  8
AM_0
 10
439.81962420078759
 20
157.53142601219369
 30
0.0
 70
    32
  0
VERTEX
  5
8EE7
  8
AM_0
 10
439.81562420078768
 20
157.5304260121934
 30
0.0
 70
    32
  0
VERTEX
  5
8EE8
  8
AM_0
 10
439.81162420078789
 20
157.5304260121934
 30
0.0
 70
    32
  0
VERTEX
  5
8EE9
  8
AM_0
 10
439.80762420078798
 20
157.52942601219371
 30
0.0
 70
    32
  0
VERTEX
  5
8EEA
  8
AM_0
 10
439.80262420078799
 20
157.52942601219371
 30
0.0
 70
    32
  0
VERTEX
  5
8EEB
  8
AM_0
 10
439.79862420078791
 20
157.52942601219371
 30
0.0
 70
    32
  0
VERTEX
  5
8EEC
  8
AM_0
 10
439.79462420078761
 20
157.52842601219351
 30
0.0
 70
    32
  0
VERTEX
  5
8EED
  8
AM_0
 10
439.79062420078799
 20
157.52842601219351
 30
0.0
 70
    32
  0
VERTEX
  5
8EEE
  8
AM_0
 10
439.78562420078759
 20
157.52742601219339
 30
0.0
 70
    32
  0
VERTEX
  5
8EEF
  8
AM_0
 10
439.7816242007878
 20
157.52742601219339
 30
0.0
 70
    32
  0
VERTEX
  5
8EF0
  8
AM_0
 10
439.77762420078773
 20
157.52742601219339
 30
0.0
 70
    32
  0
VERTEX
  5
8EF1
  8
AM_0
 10
439.77362420078782
 20
157.52642601219341
 30
0.0
 70
    32
  0
VERTEX
  5
8EF2
  8
AM_0
 10
439.76862420078771
 20
157.52642601219341
 30
0.0
 70
    32
  0
VERTEX
  5
8EF3
  8
AM_0
 10
439.76462420078792
 20
157.52542601219341
 30
0.0
 70
    32
  0
VERTEX
  5
8EF4
  8
AM_0
 10
439.76062420078802
 20
157.52542601219341
 30
0.0
 70
    32
  0
VERTEX
  5
8EF5
  8
AM_0
 10
439.75662420078783
 20
157.52442601219369
 30
0.0
 70
    32
  0
VERTEX
  5
8EF6
  8
AM_0
 10
439.75162420078789
 20
157.52442601219369
 30
0.0
 70
    32
  0
VERTEX
  5
8EF7
  8
AM_0
 10
439.74762420078758
 20
157.52442601219369
 30
0.0
 70
    32
  0
VERTEX
  5
8EF8
  8
AM_0
 10
439.74362420078762
 20
157.52342601219351
 30
0.0
 70
    32
  0
VERTEX
  5
8EF9
  8
AM_0
 10
439.7396242007876
 20
157.52342601219351
 30
0.0
 70
    32
  0
VERTEX
  5
8EFA
  8
AM_0
 10
439.73462420078789
 20
157.52242601219359
 30
0.0
 70
    32
  0
VERTEX
  5
8EFB
  8
AM_0
 10
439.73062420078759
 20
157.52242601219359
 30
0.0
 70
    32
  0
VERTEX
  5
8EFC
  8
AM_0
 10
439.72662420078763
 20
157.52142601219339
 30
0.0
 70
    32
  0
VERTEX
  5
8EFD
  8
AM_0
 10
439.72262420078789
 20
157.52142601219339
 30
0.0
 70
    32
  0
VERTEX
  5
8EFE
  8
AM_0
 10
439.71862420078759
 20
157.5204260121935
 30
0.0
 70
    32
  0
VERTEX
  5
8EFF
  8
AM_0
 10
439.71362420078799
 20
157.5204260121935
 30
0.0
 70
    32
  0
VERTEX
  5
8F00
  8
AM_0
 10
439.70962420078769
 20
157.51942601219369
 30
0.0
 70
    32
  0
VERTEX
  5
8F01
  8
AM_0
 10
439.70562420078761
 20
157.51942601219369
 30
0.0
 70
    32
  0
VERTEX
  5
8F02
  8
AM_0
 10
439.70162420078782
 20
157.51842601219329
 30
0.0
 70
    32
  0
VERTEX
  5
8F03
  8
AM_0
 10
439.69662420078782
 20
157.51842601219329
 30
0.0
 70
    32
  0
VERTEX
  5
8F04
  8
AM_0
 10
439.6926242007878
 20
157.5174260121934
 30
0.0
 70
    32
  0
VERTEX
  5
8F05
  8
AM_0
 10
439.68862420078767
 20
157.5174260121934
 30
0.0
 70
    32
  0
VERTEX
  5
8F06
  8
AM_0
 10
439.68462420078788
 20
157.51642601219351
 30
0.0
 70
    32
  0
VERTEX
  5
8F07
  8
AM_0
 10
439.67962420078783
 20
157.51642601219351
 30
0.0
 70
    32
  0
VERTEX
  5
8F08
  8
AM_0
 10
439.67562420078781
 20
157.51542601219359
 30
0.0
 70
    32
  0
VERTEX
  5
8F09
  8
AM_0
 10
439.67162420078762
 20
157.51542601219359
 30
0.0
 70
    32
  0
VERTEX
  5
8F0A
  8
AM_0
 10
439.66762420078771
 20
157.5144260121935
 30
0.0
 70
    32
  0
VERTEX
  5
8F0B
  8
AM_0
 10
439.66262420078789
 20
157.5144260121935
 30
0.0
 70
    32
  0
VERTEX
  5
8F0C
  8
AM_0
 10
439.65862420078759
 20
157.51342601219341
 30
0.0
 70
    32
  0
VERTEX
  5
8F0D
  8
AM_0
 10
439.65462420078762
 20
157.51342601219341
 30
0.0
 70
    32
  0
VERTEX
  5
8F0E
  8
AM_0
 10
439.6506242007876
 20
157.51242601219371
 30
0.0
 70
    32
  0
VERTEX
  5
8F0F
  8
AM_0
 10
439.64562420078761
 20
157.51242601219371
 30
0.0
 70
    32
  0
VERTEX
  5
8F10
  8
AM_0
 10
439.64162420078782
 20
157.5114260121936
 30
0.0
 70
    32
  0
VERTEX
  5
8F11
  8
AM_0
 10
439.63762420078763
 20
157.5114260121936
 30
0.0
 70
    32
  0
VERTEX
  5
8F12
  8
AM_0
 10
439.63362420078761
 20
157.51042601219339
 30
0.0
 70
    32
  0
VERTEX
  5
8F13
  8
AM_0
 10
439.62962420078787
 20
157.51042601219339
 30
0.0
 70
    32
  0
VERTEX
  5
8F14
  8
AM_0
 10
439.62462420078799
 20
157.50942601219359
 30
0.0
 70
    32
  0
VERTEX
  5
8F15
  8
AM_0
 10
439.6206242007878
 20
157.50842601219341
 30
0.0
 70
    32
  0
VERTEX
  5
8F16
  8
AM_0
 10
439.61662420078761
 20
157.50842601219341
 30
0.0
 70
    32
  0
VERTEX
  5
8F17
  8
AM_0
 10
439.61262420078759
 20
157.50742601219341
 30
0.0
 70
    32
  0
VERTEX
  5
8F18
  8
AM_0
 10
439.60762420078788
 20
157.50742601219341
 30
0.0
 70
    32
  0
VERTEX
  5
8F19
  8
AM_0
 10
439.60362420078781
 20
157.5064260121934
 30
0.0
 70
    32
  0
VERTEX
  5
8F1A
  8
AM_0
 10
439.59962420078767
 20
157.5064260121934
 30
0.0
 70
    32
  0
VERTEX
  5
8F1B
  8
AM_0
 10
439.5956242007876
 20
157.50542601219351
 30
0.0
 70
    32
  0
VERTEX
  5
8F1C
  8
AM_0
 10
439.5906242007876
 20
157.50442601219339
 30
0.0
 70
    32
  0
VERTEX
  5
8F1D
  8
AM_0
 10
439.58662420078798
 20
157.50442601219339
 30
0.0
 70
    32
  0
VERTEX
  5
8F1E
  8
AM_0
 10
439.5826242007879
 20
157.50342601219359
 30
0.0
 70
    32
  0
VERTEX
  5
8F1F
  8
AM_0
 10
439.57862420078771
 20
157.50342601219359
 30
0.0
 70
    32
  0
VERTEX
  5
8F20
  8
AM_0
 10
439.57462420078781
 20
157.5024260121935
 30
0.0
 70
    32
  0
VERTEX
  5
8F21
  8
AM_0
 10
439.56962420078793
 20
157.5014260121938
 30
0.0
 70
    32
  0
VERTEX
  5
8F22
  8
AM_0
 10
439.56562420078762
 20
157.5014260121938
 30
0.0
 70
    32
  0
VERTEX
  5
8F23
  8
AM_0
 10
439.56162420078789
 20
157.50042601219371
 30
0.0
 70
    32
  0
VERTEX
  5
8F24
  8
AM_0
 10
439.55762420078793
 20
157.50042601219371
 30
0.0
 70
    32
  0
VERTEX
  5
8F25
  8
AM_0
 10
439.55262420078782
 20
157.49942601219331
 30
0.0
 70
    32
  0
VERTEX
  5
8F26
  8
AM_0
 10
439.54862420078757
 20
157.49842601219351
 30
0.0
 70
    32
  0
VERTEX
  5
8F27
  8
AM_0
 10
439.54462420078789
 20
157.49842601219351
 30
0.0
 70
    32
  0
VERTEX
  5
8F28
  8
AM_0
 10
439.54062420078782
 20
157.49742601219361
 30
0.0
 70
    32
  0
VERTEX
  5
8F29
  8
AM_0
 10
439.53662420078763
 20
157.4964260121935
 30
0.0
 70
    32
  0
VERTEX
  5
8F2A
  8
AM_0
 10
439.53162420078758
 20
157.4964260121935
 30
0.0
 70
    32
  0
VERTEX
  5
8F2B
  8
AM_0
 10
439.52762420078761
 20
157.49542601219341
 30
0.0
 70
    32
  0
VERTEX
  5
8F2C
  8
AM_0
 10
439.52362420078788
 20
157.49542601219341
 30
0.0
 70
    32
  0
VERTEX
  5
8F2D
  8
AM_0
 10
439.51962420078792
 20
157.4944260121934
 30
0.0
 70
    32
  0
VERTEX
  5
8F2E
  8
AM_0
 10
439.51462420078792
 20
157.49342601219371
 30
0.0
 70
    32
  0
VERTEX
  5
8F2F
  8
AM_0
 10
439.51062420078779
 20
157.49342601219371
 30
0.0
 70
    32
  0
VERTEX
  5
8F30
  8
AM_0
 10
439.50662420078783
 20
157.49242601219379
 30
0.0
 70
    32
  0
VERTEX
  5
8F31
  8
AM_0
 10
439.50262420078781
 20
157.4914260121937
 30
0.0
 70
    32
  0
VERTEX
  5
8F32
  8
AM_0
 10
439.49862420078767
 20
157.4914260121937
 30
0.0
 70
    32
  0
VERTEX
  5
8F33
  8
AM_0
 10
439.49362420078791
 20
157.4904260121933
 30
0.0
 70
    32
  0
VERTEX
  5
8F34
  8
AM_0
 10
439.4896242007876
 20
157.48942601219341
 30
0.0
 70
    32
  0
VERTEX
  5
8F35
  8
AM_0
 10
439.48562420078781
 20
157.48942601219341
 30
0.0
 70
    32
  0
VERTEX
  5
8F36
  8
AM_0
 10
439.48162420078802
 20
157.48842601219371
 30
0.0
 70
    32
  0
VERTEX
  5
8F37
  8
AM_0
 10
439.4766242007878
 20
157.48742601219351
 30
0.0
 70
    32
  0
VERTEX
  5
8F38
  8
AM_0
 10
439.47262420078789
 20
157.48742601219351
 30
0.0
 70
    32
  0
VERTEX
  5
8F39
  8
AM_0
 10
439.46862420078759
 20
157.4864260121935
 30
0.0
 70
    32
  0
VERTEX
  5
8F3A
  8
AM_0
 10
439.4646242007878
 20
157.4854260121933
 30
0.0
 70
    32
  0
VERTEX
  5
8F3B
  8
AM_0
 10
439.46062420078761
 20
157.48442601219369
 30
0.0
 70
    32
  0
VERTEX
  5
8F3C
  8
AM_0
 10
439.45562420078761
 20
157.48442601219369
 30
0.0
 70
    32
  0
VERTEX
  5
8F3D
  8
AM_0
 10
439.45162420078782
 20
157.48342601219369
 30
0.0
 70
    32
  0
VERTEX
  5
8F3E
  8
AM_0
 10
439.44762420078757
 20
157.48242601219351
 30
0.0
 70
    32
  0
VERTEX
  5
8F3F
  8
AM_0
 10
439.44362420078789
 20
157.48242601219351
 30
0.0
 70
    32
  0
VERTEX
  5
8F40
  8
AM_0
 10
439.43962420078759
 20
157.4814260121932
 30
0.0
 70
    32
  0
VERTEX
  5
8F41
  8
AM_0
 10
439.43462420078788
 20
157.48042601219339
 30
0.0
 70
    32
  0
VERTEX
  5
8F42
  8
AM_0
 10
439.4306242007878
 20
157.47942601219361
 30
0.0
 70
    32
  0
VERTEX
  5
8F43
  8
AM_0
 10
439.42662420078761
 20
157.47942601219361
 30
0.0
 70
    32
  0
VERTEX
  5
8F44
  8
AM_0
 10
439.4226242007876
 20
157.47842601219381
 30
0.0
 70
    32
  0
VERTEX
  5
8F45
  8
AM_0
 10
439.4186242007878
 20
157.4774260121934
 30
0.0
 70
    32
  0
VERTEX
  5
8F46
  8
AM_0
 10
439.41362420078781
 20
157.4764260121934
 30
0.0
 70
    32
  0
VERTEX
  5
8F47
  8
AM_0
 10
439.40962420078768
 20
157.4764260121934
 30
0.0
 70
    32
  0
VERTEX
  5
8F48
  8
AM_0
 10
439.40562420078788
 20
157.47542601219359
 30
0.0
 70
    32
  0
VERTEX
  5
8F49
  8
AM_0
 10
439.40162420078781
 20
157.4744260121937
 30
0.0
 70
    32
  0
VERTEX
  5
8F4A
  8
AM_0
 10
439.39762420078767
 20
157.47342601219361
 30
0.0
 70
    32
  0
VERTEX
  5
8F4B
  8
AM_0
 10
439.39262420078768
 20
157.47342601219361
 30
0.0
 70
    32
  0
VERTEX
  5
8F4C
  8
AM_0
 10
439.38862420078772
 20
157.47242601219341
 30
0.0
 70
    32
  0
VERTEX
  5
8F4D
  8
AM_0
 10
439.38462420078781
 20
157.47142601219369
 30
0.0
 70
    32
  0
VERTEX
  5
8F4E
  8
AM_0
 10
439.38062420078762
 20
157.47042601219371
 30
0.0
 70
    32
  0
VERTEX
  5
8F4F
  8
AM_0
 10
439.37662420078789
 20
157.47042601219371
 30
0.0
 70
    32
  0
VERTEX
  5
8F50
  8
AM_0
 10
439.37162420078789
 20
157.46942601219359
 30
0.0
 70
    32
  0
VERTEX
  5
8F51
  8
AM_0
 10
439.36762420078759
 20
157.46842601219339
 30
0.0
 70
    32
  0
VERTEX
  5
8F52
  8
AM_0
 10
439.3636242007878
 20
157.46742601219341
 30
0.0
 70
    32
  0
VERTEX
  5
8F53
  8
AM_0
 10
439.35962420078761
 20
157.46642601219369
 30
0.0
 70
    32
  0
VERTEX
  5
8F54
  8
AM_0
 10
439.35562420078759
 20
157.46642601219369
 30
0.0
 70
    32
  0
VERTEX
  5
8F55
  8
AM_0
 10
439.35062420078782
 20
157.4654260121938
 30
0.0
 70
    32
  0
VERTEX
  5
8F56
  8
AM_0
 10
439.34662420078757
 20
157.46442601219371
 30
0.0
 70
    32
  0
VERTEX
  5
8F57
  8
AM_0
 10
439.34262420078761
 20
157.46342601219351
 30
0.0
 70
    32
  0
VERTEX
  5
8F58
  8
AM_0
 10
439.33862420078788
 20
157.4624260121935
 30
0.0
 70
    32
  0
VERTEX
  5
8F59
  8
AM_0
 10
439.33462420078769
 20
157.4624260121935
 30
0.0
 70
    32
  0
VERTEX
  5
8F5A
  8
AM_0
 10
439.3296242007878
 20
157.46142601219361
 30
0.0
 70
    32
  0
VERTEX
  5
8F5B
  8
AM_0
 10
439.32562420078762
 20
157.46042601219341
 30
0.0
 70
    32
  0
VERTEX
  5
8F5C
  8
AM_0
 10
439.3216242007876
 20
157.4594260121934
 30
0.0
 70
    32
  0
VERTEX
  5
8F5D
  8
AM_0
 10
439.31762420078758
 20
157.45842601219331
 30
0.0
 70
    32
  0
VERTEX
  5
8F5E
  8
AM_0
 10
439.31362420078767
 20
157.45742601219371
 30
0.0
 70
    32
  0
VERTEX
  5
8F5F
  8
AM_0
 10
439.30962420078788
 20
157.45742601219371
 30
0.0
 70
    32
  0
VERTEX
  5
8F60
  8
AM_0
 10
439.3046242007876
 20
157.45642601219359
 30
0.0
 70
    32
  0
VERTEX
  5
8F61
  8
AM_0
 10
439.30062420078781
 20
157.45542601219361
 30
0.0
 70
    32
  0
VERTEX
  5
8F62
  8
AM_0
 10
439.29662420078768
 20
157.45442601219341
 30
0.0
 70
    32
  0
VERTEX
  5
8F63
  8
AM_0
 10
439.29262420078783
 20
157.4534260121934
 30
0.0
 70
    32
  0
VERTEX
  5
8F64
  8
AM_0
 10
439.28862420078781
 20
157.45242601219351
 30
0.0
 70
    32
  0
VERTEX
  5
8F65
  8
AM_0
 10
439.28362420078781
 20
157.45142601219331
 30
0.0
 70
    32
  0
VERTEX
  5
8F66
  8
AM_0
 10
439.27962420078762
 20
157.45142601219331
 30
0.0
 70
    32
  0
VERTEX
  5
8F67
  8
AM_0
 10
439.2756242007876
 20
157.45042601219339
 30
0.0
 70
    32
  0
VERTEX
  5
8F68
  8
AM_0
 10
439.27162420078758
 20
157.4494260121933
 30
0.0
 70
    32
  0
VERTEX
  5
8F69
  8
AM_0
 10
439.26762420078762
 20
157.44842601219341
 30
0.0
 70
    32
  0
VERTEX
  5
8F6A
  8
AM_0
 10
439.26362420078789
 20
157.44742601219349
 30
0.0
 70
    32
  0
VERTEX
  5
8F6B
  8
AM_0
 10
439.25862420078761
 20
157.4464260121936
 30
0.0
 70
    32
  0
VERTEX
  5
8F6C
  8
AM_0
 10
439.25462420078782
 20
157.44542601219351
 30
0.0
 70
    32
  0
VERTEX
  5
8F6D
  8
AM_0
 10
439.25062420078763
 20
157.4444260121935
 30
0.0
 70
    32
  0
VERTEX
  5
8F6E
  8
AM_0
 10
439.24662420078789
 20
157.44342601219361
 30
0.0
 70
    32
  0
VERTEX
  5
8F6F
  8
AM_0
 10
439.24262420078787
 20
157.44342601219361
 30
0.0
 70
    32
  0
VERTEX
  5
8F70
  8
AM_0
 10
439.23862420078763
 20
157.44242601219381
 30
0.0
 70
    32
  0
VERTEX
  5
8F71
  8
AM_0
 10
439.23362420078757
 20
157.44142601219329
 30
0.0
 70
    32
  0
VERTEX
  5
8F72
  8
AM_0
 10
439.22962420078761
 20
157.44042601219351
 30
0.0
 70
    32
  0
VERTEX
  5
8F73
  8
AM_0
 10
439.22562420078799
 20
157.43942601219351
 30
0.0
 70
    32
  0
VERTEX
  5
8F74
  8
AM_0
 10
439.22162420078757
 20
157.43842601219359
 30
0.0
 70
    32
  0
VERTEX
  5
8F75
  8
AM_0
 10
439.21762420078761
 20
157.4374260121937
 30
0.0
 70
    32
  0
VERTEX
  5
8F76
  8
AM_0
 10
439.21362420078799
 20
157.43642601219341
 30
0.0
 70
    32
  0
VERTEX
  5
8F77
  8
AM_0
 10
439.2086242007876
 20
157.43542601219369
 30
0.0
 70
    32
  0
VERTEX
  5
8F78
  8
AM_0
 10
439.2046242007878
 20
157.4344260121936
 30
0.0
 70
    32
  0
VERTEX
  5
8F79
  8
AM_0
 10
439.20062420078767
 20
157.43342601219379
 30
0.0
 70
    32
  0
VERTEX
  5
8F7A
  8
AM_0
 10
439.19662420078782
 20
157.4324260121933
 30
0.0
 70
    32
  0
VERTEX
  5
8F7B
  8
AM_0
 10
439.19262420078758
 20
157.43142601219341
 30
0.0
 70
    32
  0
VERTEX
  5
8F7C
  8
AM_0
 10
439.1886242007879
 20
157.43042601219369
 30
0.0
 70
    32
  0
VERTEX
  5
8F7D
  8
AM_0
 10
439.18362420078762
 20
157.42942601219369
 30
0.0
 70
    32
  0
VERTEX
  5
8F7E
  8
AM_0
 10
439.17962420078771
 20
157.4284260121936
 30
0.0
 70
    32
  0
VERTEX
  5
8F7F
  8
AM_0
 10
439.17562420078781
 20
157.42742601219351
 30
0.0
 70
    32
  0
VERTEX
  5
8F80
  8
AM_0
 10
439.17162420078762
 20
157.4264260121935
 30
0.0
 70
    32
  0
VERTEX
  5
8F81
  8
AM_0
 10
439.16762420078783
 20
157.42542601219361
 30
0.0
 70
    32
  0
VERTEX
  5
8F82
  8
AM_0
 10
439.16362420078758
 20
157.42442601219341
 30
0.0
 70
    32
  0
VERTEX
  5
8F83
  8
AM_0
 10
439.15962420078762
 20
157.4234260121934
 30
0.0
 70
    32
  0
VERTEX
  5
8F84
  8
AM_0
 10
439.15462420078762
 20
157.42242601219331
 30
0.0
 70
    32
  0
VERTEX
  5
8F85
  8
AM_0
 10
439.15062420078789
 20
157.42142601219359
 30
0.0
 70
    32
  0
VERTEX
  5
8F86
  8
AM_0
 10
439.14662420078781
 20
157.42042601219359
 30
0.0
 70
    32
  0
VERTEX
  5
8F87
  8
AM_0
 10
439.14262420078762
 20
157.4194260121935
 30
0.0
 70
    32
  0
VERTEX
  5
8F88
  8
AM_0
 10
439.1386242007876
 20
157.41842601219341
 30
0.0
 70
    32
  0
VERTEX
  5
8F89
  8
AM_0
 10
439.13462420078781
 20
157.4174260121934
 30
0.0
 70
    32
  0
VERTEX
  5
8F8A
  8
AM_0
 10
439.12962420078782
 20
157.41642601219371
 30
0.0
 70
    32
  0
VERTEX
  5
8F8B
  8
AM_0
 10
439.1256242007878
 20
157.41542601219371
 30
0.0
 70
    32
  0
VERTEX
  5
8F8C
  8
AM_0
 10
439.12162420078761
 20
157.41442601219359
 30
0.0
 70
    32
  0
VERTEX
  5
8F8D
  8
AM_0
 10
439.11762420078799
 20
157.4134260121937
 30
0.0
 70
    32
  0
VERTEX
  5
8F8E
  8
AM_0
 10
439.1136242007878
 20
157.41242601219341
 30
0.0
 70
    32
  0
VERTEX
  5
8F8F
  8
AM_0
 10
439.10962420078761
 20
157.41142601219369
 30
0.0
 70
    32
  0
VERTEX
  5
8F90
  8
AM_0
 10
439.10562420078782
 20
157.41042601219351
 30
0.0
 70
    32
  0
VERTEX
  5
8F91
  8
AM_0
 10
439.1016242007878
 20
157.40942601219339
 30
0.0
 70
    32
  0
VERTEX
  5
8F92
  8
AM_0
 10
439.09662420078757
 20
157.4084260121935
 30
0.0
 70
    32
  0
VERTEX
  5
8F93
  8
AM_0
 10
439.09262420078772
 20
157.40742601219361
 30
0.0
 70
    32
  0
VERTEX
  5
8F94
  8
AM_0
 10
439.08862420078788
 20
157.40642601219369
 30
0.0
 70
    32
  0
VERTEX
  5
8F95
  8
AM_0
 10
439.0846242007878
 20
157.40442601219351
 30
0.0
 70
    32
  0
VERTEX
  5
8F96
  8
AM_0
 10
439.08062420078761
 20
157.40342601219339
 30
0.0
 70
    32
  0
VERTEX
  5
8F97
  8
AM_0
 10
439.07662420078771
 20
157.40242601219359
 30
0.0
 70
    32
  0
VERTEX
  5
8F98
  8
AM_0
 10
439.07262420078729
 20
157.4014260121935
 30
0.0
 70
    32
  0
VERTEX
  5
8F99
  8
AM_0
 10
439.06862420078801
 20
157.40042601219341
 30
0.0
 70
    32
  0
VERTEX
  5
8F9A
  8
AM_0
 10
439.06362420078761
 20
157.3994260121934
 30
0.0
 70
    32
  0
VERTEX
  5
8F9B
  8
AM_0
 10
439.05962420078788
 20
157.3984260121936
 30
0.0
 70
    32
  0
VERTEX
  5
8F9C
  8
AM_0
 10
439.05562420078758
 20
157.3974260121937
 30
0.0
 70
    32
  0
VERTEX
  5
8F9D
  8
AM_0
 10
439.05162420078761
 20
157.39642601219359
 30
0.0
 70
    32
  0
VERTEX
  5
8F9E
  8
AM_0
 10
439.04762420078782
 20
157.39442601219369
 30
0.0
 70
    32
  0
VERTEX
  5
8F9F
  8
AM_0
 10
439.04362420078758
 20
157.3934260121934
 30
0.0
 70
    32
  0
VERTEX
  5
8FA0
  8
AM_0
 10
439.0396242007879
 20
157.39242601219351
 30
0.0
 70
    32
  0
VERTEX
  5
8FA1
  8
AM_0
 10
439.03562420078759
 20
157.39142601219339
 30
0.0
 70
    32
  0
VERTEX
  5
8FA2
  8
AM_0
 10
439.03062420078788
 20
157.39042601219339
 30
0.0
 70
    32
  0
VERTEX
  5
8FA3
  8
AM_0
 10
439.02662420078758
 20
157.38942601219361
 30
0.0
 70
    32
  0
VERTEX
  5
8FA4
  8
AM_0
 10
439.02262420078767
 20
157.38842601219361
 30
0.0
 70
    32
  0
VERTEX
  5
8FA5
  8
AM_0
 10
439.01862420078783
 20
157.38642601219351
 30
0.0
 70
    32
  0
VERTEX
  5
8FA6
  8
AM_0
 10
439.01462420078781
 20
157.38542601219339
 30
0.0
 70
    32
  0
VERTEX
  5
8FA7
  8
AM_0
 10
439.01062420078779
 20
157.38442601219381
 30
0.0
 70
    32
  0
VERTEX
  5
8FA8
  8
AM_0
 10
439.0066242007876
 20
157.3834260121935
 30
0.0
 70
    32
  0
VERTEX
  5
8FA9
  8
AM_0
 10
439.00262420078781
 20
157.38242601219341
 30
0.0
 70
    32
  0
VERTEX
  5
8FAA
  8
AM_0
 10
438.99862420078767
 20
157.3814260121934
 30
0.0
 70
    32
  0
VERTEX
  5
8FAB
  8
AM_0
 10
438.99462420078783
 20
157.37942601219359
 30
0.0
 70
    32
  0
VERTEX
  5
8FAC
  8
AM_0
 10
438.98962420078772
 20
157.37842601219359
 30
0.0
 70
    32
  0
VERTEX
  5
8FAD
  8
AM_0
 10
438.98562420078758
 20
157.3774260121935
 30
0.0
 70
    32
  0
VERTEX
  5
8FAE
  8
AM_0
 10
438.98162420078802
 20
157.37642601219341
 30
0.0
 70
    32
  0
VERTEX
  5
8FAF
  8
AM_0
 10
438.9776242007876
 20
157.3754260121934
 30
0.0
 70
    32
  0
VERTEX
  5
8FB0
  8
AM_0
 10
438.97362420078758
 20
157.37342601219339
 30
0.0
 70
    32
  0
VERTEX
  5
8FB1
  8
AM_0
 10
438.96962420078762
 20
157.3724260121933
 30
0.0
 70
    32
  0
VERTEX
  5
8FB2
  8
AM_0
 10
438.9656242007876
 20
157.3714260121935
 30
0.0
 70
    32
  0
VERTEX
  5
8FB3
  8
AM_0
 10
438.96162420078758
 20
157.37042601219369
 30
0.0
 70
    32
  0
VERTEX
  5
8FB4
  8
AM_0
 10
438.9576242007879
 20
157.36842601219371
 30
0.0
 70
    32
  0
VERTEX
  5
8FB5
  8
AM_0
 10
438.9536242007876
 20
157.3674260121935
 30
0.0
 70
    32
  0
VERTEX
  5
8FB6
  8
AM_0
 10
438.94962420078781
 20
157.36642601219361
 30
0.0
 70
    32
  0
VERTEX
  5
8FB7
  8
AM_0
 10
438.94462420078793
 20
157.3654260121935
 30
0.0
 70
    32
  0
VERTEX
  5
8FB8
  8
AM_0
 10
438.94062420078762
 20
157.3634260121934
 30
0.0
 70
    32
  0
VERTEX
  5
8FB9
  8
AM_0
 10
438.93662420078761
 20
157.36242601219351
 30
0.0
 70
    32
  0
VERTEX
  5
8FBA
  8
AM_0
 10
438.93262420078798
 20
157.36142601219359
 30
0.0
 70
    32
  0
VERTEX
  5
8FBB
  8
AM_0
 10
438.92862420078768
 20
157.36042601219361
 30
0.0
 70
    32
  0
VERTEX
  5
8FBC
  8
AM_0
 10
438.92462420078789
 20
157.35842601219341
 30
0.0
 70
    32
  0
VERTEX
  5
8FBD
  8
AM_0
 10
438.92062420078781
 20
157.3574260121936
 30
0.0
 70
    32
  0
VERTEX
  5
8FBE
  8
AM_0
 10
438.91662420078768
 20
157.3564260121934
 30
0.0
 70
    32
  0
VERTEX
  5
8FBF
  8
AM_0
 10
438.91262420078789
 20
157.35542601219331
 30
0.0
 70
    32
  0
VERTEX
  5
8FC0
  8
AM_0
 10
438.90862420078781
 20
157.35342601219369
 30
0.0
 70
    32
  0
VERTEX
  5
8FC1
  8
AM_0
 10
438.90462420078768
 20
157.3524260121934
 30
0.0
 70
    32
  0
VERTEX
  5
8FC2
  8
AM_0
 10
438.90062420078772
 20
157.35142601219351
 30
0.0
 70
    32
  0
VERTEX
  5
8FC3
  8
AM_0
 10
438.89662420078781
 20
157.3494260121935
 30
0.0
 70
    32
  0
VERTEX
  5
8FC4
  8
AM_0
 10
438.89162420078759
 20
157.34842601219361
 30
0.0
 70
    32
  0
VERTEX
  5
8FC5
  8
AM_0
 10
438.88762420078763
 20
157.34742601219381
 30
0.0
 70
    32
  0
VERTEX
  5
8FC6
  8
AM_0
 10
438.88362420078761
 20
157.3454260121934
 30
0.0
 70
    32
  0
VERTEX
  5
8FC7
  8
AM_0
 10
438.87962420078759
 20
157.34442601219351
 30
0.0
 70
    32
  0
VERTEX
  5
8FC8
  8
AM_0
 10
438.8756242007878
 20
157.34342601219359
 30
0.0
 70
    32
  0
VERTEX
  5
8FC9
  8
AM_0
 10
438.87162420078761
 20
157.34142601219341
 30
0.0
 70
    32
  0
VERTEX
  5
8FCA
  8
AM_0
 10
438.86762420078787
 20
157.3404260121934
 30
0.0
 70
    32
  0
VERTEX
  5
8FCB
  8
AM_0
 10
438.86362420078763
 20
157.33942601219371
 30
0.0
 70
    32
  0
VERTEX
  5
8FCC
  8
AM_0
 10
438.85962420078789
 20
157.3374260121935
 30
0.0
 70
    32
  0
VERTEX
  5
8FCD
  8
AM_0
 10
438.85562420078759
 20
157.3364260121933
 30
0.0
 70
    32
  0
VERTEX
  5
8FCE
  8
AM_0
 10
438.85162420078763
 20
157.33542601219341
 30
0.0
 70
    32
  0
VERTEX
  5
8FCF
  8
AM_0
 10
438.84762420078789
 20
157.33342601219351
 30
0.0
 70
    32
  0
VERTEX
  5
8FD0
  8
AM_0
 10
438.84362420078759
 20
157.33242601219339
 30
0.0
 70
    32
  0
VERTEX
  5
8FD1
  8
AM_0
 10
438.83962420078768
 20
157.33142601219339
 30
0.0
 70
    32
  0
VERTEX
  5
8FD2
  8
AM_0
 10
438.83562420078761
 20
157.32942601219381
 30
0.0
 70
    32
  0
VERTEX
  5
8FD3
  8
AM_0
 10
438.83162420078759
 20
157.3284260121934
 30
0.0
 70
    32
  0
VERTEX
  5
8FD4
  8
AM_0
 10
438.82762420078791
 20
157.32642601219351
 30
0.0
 70
    32
  0
VERTEX
  5
8FD5
  8
AM_0
 10
438.82362420078761
 20
157.32542601219359
 30
0.0
 70
    32
  0
VERTEX
  5
8FD6
  8
AM_0
 10
438.81962420078759
 20
157.32442601219341
 30
0.0
 70
    32
  0
VERTEX
  5
8FD7
  8
AM_0
 10
438.81562420078768
 20
157.3224260121934
 30
0.0
 70
    32
  0
VERTEX
  5
8FD8
  8
AM_0
 10
438.81162420078761
 20
157.32142601219371
 30
0.0
 70
    32
  0
VERTEX
  5
8FD9
  8
AM_0
 10
438.80762420078798
 20
157.31942601219359
 30
0.0
 70
    32
  0
VERTEX
  5
8FDA
  8
AM_0
 10
438.80362420078802
 20
157.3184260121935
 30
0.0
 70
    32
  0
VERTEX
  5
8FDB
  8
AM_0
 10
438.79962420078789
 20
157.31742601219341
 30
0.0
 70
    32
  0
VERTEX
  5
8FDC
  8
AM_0
 10
438.79562420078781
 20
157.31542601219371
 30
0.0
 70
    32
  0
VERTEX
  5
8FDD
  8
AM_0
 10
438.79162420078802
 20
157.31442601219331
 30
0.0
 70
    32
  0
VERTEX
  5
8FDE
  8
AM_0
 10
438.7866242007878
 20
157.3124260121935
 30
0.0
 70
    32
  0
VERTEX
  5
8FDF
  8
AM_0
 10
438.78262420078789
 20
157.31142601219361
 30
0.0
 70
    32
  0
VERTEX
  5
8FE0
  8
AM_0
 10
438.77862420078787
 20
157.30942601219351
 30
0.0
 70
    32
  0
VERTEX
  5
8FE1
  8
AM_0
 10
438.77462420078791
 20
157.30842601219351
 30
0.0
 70
    32
  0
VERTEX
  5
8FE2
  8
AM_0
 10
438.77062420078761
 20
157.30642601219361
 30
0.0
 70
    32
  0
VERTEX
  5
8FE3
  8
AM_0
 10
438.76662420078782
 20
157.30542601219369
 30
0.0
 70
    32
  0
VERTEX
  5
8FE4
  8
AM_0
 10
438.76262420078763
 20
157.30342601219351
 30
0.0
 70
    32
  0
VERTEX
  5
8FE5
  8
AM_0
 10
438.75862420078761
 20
157.30242601219371
 30
0.0
 70
    32
  0
VERTEX
  5
8FE6
  8
AM_0
 10
438.75462420078787
 20
157.30042601219361
 30
0.0
 70
    32
  0
VERTEX
  5
8FE7
  8
AM_0
 10
438.75062420078763
 20
157.29942601219341
 30
0.0
 70
    32
  0
VERTEX
  5
8FE8
  8
AM_0
 10
438.74662420078761
 20
157.29742601219351
 30
0.0
 70
    32
  0
VERTEX
  5
8FE9
  8
AM_0
 10
438.74262420078799
 20
157.29642601219339
 30
0.0
 70
    32
  0
VERTEX
  5
8FEA
  8
AM_0
 10
438.73862420078768
 20
157.2944260121935
 30
0.0
 70
    32
  0
VERTEX
  5
8FEB
  8
AM_0
 10
438.73462420078761
 20
157.29342601219369
 30
0.0
 70
    32
  0
VERTEX
  5
8FEC
  8
AM_0
 10
438.73062420078759
 20
157.29142601219371
 30
0.0
 70
    32
  0
VERTEX
  5
8FED
  8
AM_0
 10
438.7266242007878
 20
157.29042601219351
 30
0.0
 70
    32
  0
VERTEX
  5
8FEE
  8
AM_0
 10
438.72362420078798
 20
157.28842601219381
 30
0.0
 70
    32
  0
VERTEX
  5
8FEF
  8
AM_0
 10
438.71962420078768
 20
157.28742601219341
 30
0.0
 70
    32
  0
VERTEX
  5
8FF0
  8
AM_0
 10
438.7156242007876
 20
157.28542601219351
 30
0.0
 70
    32
  0
VERTEX
  5
8FF1
  8
AM_0
 10
438.71162420078758
 20
157.28442601219371
 30
0.0
 70
    32
  0
VERTEX
  5
8FF2
  8
AM_0
 10
438.7076242007879
 20
157.2824260121935
 30
0.0
 70
    32
  0
VERTEX
  5
8FF3
  8
AM_0
 10
438.70362420078771
 20
157.2814260121938
 30
0.0
 70
    32
  0
VERTEX
  5
8FF4
  8
AM_0
 10
438.69962420078781
 20
157.2794260121938
 30
0.0
 70
    32
  0
VERTEX
  5
8FF5
  8
AM_0
 10
438.69562420078762
 20
157.27742601219339
 30
0.0
 70
    32
  0
VERTEX
  5
8FF6
  8
AM_0
 10
438.69162420078771
 20
157.2764260121935
 30
0.0
 70
    32
  0
VERTEX
  5
8FF7
  8
AM_0
 10
438.68762420078792
 20
157.27442601219369
 30
0.0
 70
    32
  0
VERTEX
  5
8FF8
  8
AM_0
 10
438.68362420078762
 20
157.27342601219351
 30
0.0
 70
    32
  0
VERTEX
  5
8FF9
  8
AM_0
 10
438.67962420078783
 20
157.27142601219359
 30
0.0
 70
    32
  0
VERTEX
  5
8FFA
  8
AM_0
 10
438.67562420078758
 20
157.26942601219329
 30
0.0
 70
    32
  0
VERTEX
  5
8FFB
  8
AM_0
 10
438.67162420078762
 20
157.26842601219329
 30
0.0
 70
    32
  0
VERTEX
  5
8FFC
  8
AM_0
 10
438.66762420078783
 20
157.26642601219359
 30
0.0
 70
    32
  0
VERTEX
  5
8FFD
  8
AM_0
 10
438.66362420078758
 20
157.2654260121935
 30
0.0
 70
    32
  0
VERTEX
  5
8FFE
  8
AM_0
 10
438.6596242007879
 20
157.26342601219341
 30
0.0
 70
    32
  0
VERTEX
  5
8FFF
  8
AM_0
 10
438.65562420078788
 20
157.26142601219391
 30
0.0
 70
    32
  0
VERTEX
  5
9000
  8
AM_0
 10
438.65162420078781
 20
157.26042601219339
 30
0.0
 70
    32
  0
VERTEX
  5
9001
  8
AM_0
 10
438.64762420078762
 20
157.2584260121935
 30
0.0
 70
    32
  0
VERTEX
  5
9002
  8
AM_0
 10
438.6436242007876
 20
157.2564260121934
 30
0.0
 70
    32
  0
VERTEX
  5
9003
  8
AM_0
 10
438.63962420078792
 20
157.2554260121934
 30
0.0
 70
    32
  0
VERTEX
  5
9004
  8
AM_0
 10
438.63562420078779
 20
157.25342601219359
 30
0.0
 70
    32
  0
VERTEX
  5
9005
  8
AM_0
 10
438.63262420078757
 20
157.25142601219341
 30
0.0
 70
    32
  0
VERTEX
  5
9006
  8
AM_0
 10
438.62862420078761
 20
157.2504260121934
 30
0.0
 70
    32
  0
VERTEX
  5
9007
  8
AM_0
 10
438.62462420078799
 20
157.2484260121937
 30
0.0
 70
    32
  0
VERTEX
  5
9008
  8
AM_0
 10
438.6206242007878
 20
157.24642601219341
 30
0.0
 70
    32
  0
VERTEX
  5
9009
  8
AM_0
 10
438.61662420078773
 20
157.24542601219341
 30
0.0
 70
    32
  0
VERTEX
  5
900A
  8
AM_0
 10
438.61262420078759
 20
157.24342601219371
 30
0.0
 70
    32
  0
VERTEX
  5
900B
  8
AM_0
 10
438.6086242007878
 20
157.2414260121935
 30
0.0
 70
    32
  0
VERTEX
  5
900C
  8
AM_0
 10
438.60462420078773
 20
157.24042601219341
 30
0.0
 70
    32
  0
VERTEX
  5
900D
  8
AM_0
 10
438.60062420078782
 20
157.23842601219371
 30
0.0
 70
    32
  0
VERTEX
  5
900E
  8
AM_0
 10
438.5966242007878
 20
157.23642601219339
 30
0.0
 70
    32
  0
VERTEX
  5
900F
  8
AM_0
 10
438.59262420078761
 20
157.2344260121935
 30
0.0
 70
    32
  0
VERTEX
  5
9010
  8
AM_0
 10
438.58862420078771
 20
157.23342601219369
 30
0.0
 70
    32
  0
VERTEX
  5
9011
  8
AM_0
 10
438.58562420078761
 20
157.2314260121934
 30
0.0
 70
    32
  0
VERTEX
  5
9012
  8
AM_0
 10
438.58162420078759
 20
157.2294260121935
 30
0.0
 70
    32
  0
VERTEX
  5
9013
  8
AM_0
 10
438.57762420078791
 20
157.2274260121934
 30
0.0
 70
    32
  0
VERTEX
  5
9014
  8
AM_0
 10
438.57362420078761
 20
157.22642601219371
 30
0.0
 70
    32
  0
VERTEX
  5
9015
  8
AM_0
 10
438.56962420078793
 20
157.22442601219359
 30
0.0
 70
    32
  0
VERTEX
  5
9016
  8
AM_0
 10
438.56562420078762
 20
157.22242601219341
 30
0.0
 70
    32
  0
VERTEX
  5
9017
  8
AM_0
 10
438.56162420078789
 20
157.22042601219351
 30
0.0
 70
    32
  0
VERTEX
  5
9018
  8
AM_0
 10
438.55762420078793
 20
157.2194260121934
 30
0.0
 70
    32
  0
VERTEX
  5
9019
  8
AM_0
 10
438.55362420078762
 20
157.21742601219361
 30
0.0
 70
    32
  0
VERTEX
  5
901A
  8
AM_0
 10
438.55062420078781
 20
157.2154260121934
 30
0.0
 70
    32
  0
VERTEX
  5
901B
  8
AM_0
 10
438.54662420078762
 20
157.21342601219339
 30
0.0
 70
    32
  0
VERTEX
  5
901C
  8
AM_0
 10
438.54262420078783
 20
157.2114260121935
 30
0.0
 70
    32
  0
VERTEX
  5
901D
  8
AM_0
 10
438.53862420078758
 20
157.21042601219341
 30
0.0
 70
    32
  0
VERTEX
  5
901E
  8
AM_0
 10
438.53462420078768
 20
157.20842601219351
 30
0.0
 70
    32
  0
VERTEX
  5
901F
  8
AM_0
 10
438.53062420078788
 20
157.20642601219359
 30
0.0
 70
    32
  0
VERTEX
  5
9020
  8
AM_0
 10
438.52662420078781
 20
157.20442601219341
 30
0.0
 70
    32
  0
VERTEX
  5
9021
  8
AM_0
 10
438.52362420078782
 20
157.2024260121934
 30
0.0
 70
    32
  0
VERTEX
  5
9022
  8
AM_0
 10
438.51962420078797
 20
157.20142601219339
 30
0.0
 70
    32
  0
VERTEX
  5
9023
  8
AM_0
 10
438.51562420078773
 20
157.19942601219341
 30
0.0
 70
    32
  0
VERTEX
  5
9024
  8
AM_0
 10
438.51162420078759
 20
157.19742601219369
 30
0.0
 70
    32
  0
VERTEX
  5
9025
  8
AM_0
 10
438.50762420078757
 20
157.19542601219351
 30
0.0
 70
    32
  0
VERTEX
  5
9026
  8
AM_0
 10
438.5036242007879
 20
157.1934260121937
 30
0.0
 70
    32
  0
VERTEX
  5
9027
  8
AM_0
 10
438.49962420078788
 20
157.19142601219329
 30
0.0
 70
    32
  0
VERTEX
  5
9028
  8
AM_0
 10
438.49662420078761
 20
157.18942601219359
 30
0.0
 70
    32
  0
VERTEX
  5
9029
  8
AM_0
 10
438.49262420078759
 20
157.1874260121933
 30
0.0
 70
    32
  0
VERTEX
  5
902A
  8
AM_0
 10
438.4886242007878
 20
157.18642601219341
 30
0.0
 70
    32
  0
VERTEX
  5
902B
  8
AM_0
 10
438.48462420078789
 20
157.18442601219371
 30
0.0
 70
    32
  0
VERTEX
  5
902C
  8
AM_0
 10
438.48062420078759
 20
157.1824260121933
 30
0.0
 70
    32
  0
VERTEX
  5
902D
  8
AM_0
 10
438.4776242007876
 20
157.18042601219369
 30
0.0
 70
    32
  0
VERTEX
  5
902E
  8
AM_0
 10
438.47362420078758
 20
157.1784260121934
 30
0.0
 70
    32
  0
VERTEX
  5
902F
  8
AM_0
 10
438.46962420078762
 20
157.17642601219359
 30
0.0
 70
    32
  0
VERTEX
  5
9030
  8
AM_0
 10
438.4656242007876
 20
157.17442601219361
 30
0.0
 70
    32
  0
VERTEX
  5
9031
  8
AM_0
 10
438.46162420078792
 20
157.17242601219351
 30
0.0
 70
    32
  0
VERTEX
  5
9032
  8
AM_0
 10
438.4586242007876
 20
157.1704260121935
 30
0.0
 70
    32
  0
VERTEX
  5
9033
  8
AM_0
 10
438.4546242007878
 20
157.16842601219341
 30
0.0
 70
    32
  0
VERTEX
  5
9034
  8
AM_0
 10
438.45062420078762
 20
157.16642601219371
 30
0.0
 70
    32
  0
VERTEX
  5
9035
  8
AM_0
 10
438.4466242007876
 20
157.16442601219359
 30
0.0
 70
    32
  0
VERTEX
  5
9036
  8
AM_0
 10
438.44262420078758
 20
157.16242601219361
 30
0.0
 70
    32
  0
VERTEX
  5
9037
  8
AM_0
 10
438.43962420078759
 20
157.16042601219331
 30
0.0
 70
    32
  0
VERTEX
  5
9038
  8
AM_0
 10
438.4356242007878
 20
157.15842601219359
 30
0.0
 70
    32
  0
VERTEX
  5
9039
  8
AM_0
 10
438.43162420078761
 20
157.15642601219369
 30
0.0
 70
    32
  0
VERTEX
  5
903A
  8
AM_0
 10
438.42762420078782
 20
157.15442601219351
 30
0.0
 70
    32
  0
VERTEX
  5
903B
  8
AM_0
 10
438.42362420078791
 20
157.1524260121935
 30
0.0
 70
    32
  0
VERTEX
  5
903C
  8
AM_0
 10
438.42062420078781
 20
157.15042601219329
 30
0.0
 70
    32
  0
VERTEX
  5
903D
  8
AM_0
 10
438.41662420078791
 20
157.14842601219391
 30
0.0
 70
    32
  0
VERTEX
  5
903E
  8
AM_0
 10
438.41262420078789
 20
157.1464260121935
 30
0.0
 70
    32
  0
VERTEX
  5
903F
  8
AM_0
 10
438.40862420078781
 20
157.14442601219369
 30
0.0
 70
    32
  0
VERTEX
  5
9040
  8
AM_0
 10
438.40562420078788
 20
157.1424260121934
 30
0.0
 70
    32
  0
VERTEX
  5
9041
  8
AM_0
 10
438.40162420078781
 20
157.1404260121935
 30
0.0
 70
    32
  0
VERTEX
  5
9042
  8
AM_0
 10
438.39762420078762
 20
157.13842601219361
 30
0.0
 70
    32
  0
VERTEX
  5
9043
  8
AM_0
 10
438.39362420078783
 20
157.13642601219351
 30
0.0
 70
    32
  0
VERTEX
  5
9044
  8
AM_0
 10
438.39062420078761
 20
157.13442601219381
 30
0.0
 70
    32
  0
VERTEX
  5
9045
  8
AM_0
 10
438.38662420078759
 20
157.13242601219341
 30
0.0
 70
    32
  0
VERTEX
  5
9046
  8
AM_0
 10
438.38262420078757
 20
157.1304260121936
 30
0.0
 70
    32
  0
VERTEX
  5
9047
  8
AM_0
 10
438.37962420078759
 20
157.1284260121935
 30
0.0
 70
    32
  0
VERTEX
  5
9048
  8
AM_0
 10
438.37562420078763
 20
157.1254260121938
 30
0.0
 70
    32
  0
VERTEX
  5
9049
  8
AM_0
 10
438.37162420078789
 20
157.12342601219339
 30
0.0
 70
    32
  0
VERTEX
  5
904A
  8
AM_0
 10
438.36762420078759
 20
157.12142601219361
 30
0.0
 70
    32
  0
VERTEX
  5
904B
  8
AM_0
 10
438.3646242007876
 20
157.1194260121934
 30
0.0
 70
    32
  0
VERTEX
  5
904C
  8
AM_0
 10
438.36062420078781
 20
157.11742601219359
 30
0.0
 70
    32
  0
VERTEX
  5
904D
  8
AM_0
 10
438.35662420078791
 20
157.1154260121933
 30
0.0
 70
    32
  0
VERTEX
  5
904E
  8
AM_0
 10
438.35362420078781
 20
157.1134260121934
 30
0.0
 70
    32
  0
VERTEX
  5
904F
  8
AM_0
 10
438.34962420078762
 20
157.1114260121935
 30
0.0
 70
    32
  0
VERTEX
  5
9050
  8
AM_0
 10
438.34562420078782
 20
157.10842601219369
 30
0.0
 70
    32
  0
VERTEX
  5
9051
  8
AM_0
 10
438.34262420078761
 20
157.10642601219331
 30
0.0
 70
    32
  0
VERTEX
  5
9052
  8
AM_0
 10
438.33862420078799
 20
157.1044260121935
 30
0.0
 70
    32
  0
VERTEX
  5
9053
  8
AM_0
 10
438.33462420078769
 20
157.1024260121934
 30
0.0
 70
    32
  0
VERTEX
  5
9054
  8
AM_0
 10
438.33162420078759
 20
157.10042601219351
 30
0.0
 70
    32
  0
VERTEX
  5
9055
  8
AM_0
 10
438.32762420078791
 20
157.09742601219361
 30
0.0
 70
    32
  0
VERTEX
  5
9056
  8
AM_0
 10
438.32362420078761
 20
157.09542601219351
 30
0.0
 70
    32
  0
VERTEX
  5
9057
  8
AM_0
 10
438.3206242007879
 20
157.0934260121935
 30
0.0
 70
    32
  0
VERTEX
  5
9058
  8
AM_0
 10
438.3166242007876
 20
157.09142601219341
 30
0.0
 70
    32
  0
VERTEX
  5
9059
  8
AM_0
 10
438.31262420078781
 20
157.08942601219371
 30
0.0
 70
    32
  0
VERTEX
  5
905A
  8
AM_0
 10
438.30962420078788
 20
157.0864260121933
 30
0.0
 70
    32
  0
VERTEX
  5
905B
  8
AM_0
 10
438.3056242007878
 20
157.0844260121934
 30
0.0
 70
    32
  0
VERTEX
  5
905C
  8
AM_0
 10
438.30162420078761
 20
157.08242601219339
 30
0.0
 70
    32
  0
VERTEX
  5
905D
  8
AM_0
 10
438.29862420078803
 20
157.0804260121937
 30
0.0
 70
    32
  0
VERTEX
  5
905E
  8
AM_0
 10
438.29462420078789
 20
157.0774260121934
 30
0.0
 70
    32
  0
VERTEX
  5
905F
  8
AM_0
 10
438.29162420078791
 20
157.07542601219359
 30
0.0
 70
    32
  0
VERTEX
  5
9060
  8
AM_0
 10
438.28762420078789
 20
157.07342601219341
 30
0.0
 70
    32
  0
VERTEX
  5
9061
  8
AM_0
 10
438.28362420078759
 20
157.07142601219371
 30
0.0
 70
    32
  0
VERTEX
  5
9062
  8
AM_0
 10
438.28062420078783
 20
157.0684260121935
 30
0.0
 70
    32
  0
VERTEX
  5
9063
  8
AM_0
 10
438.27662420078758
 20
157.0664260121934
 30
0.0
 70
    32
  0
VERTEX
  5
9064
  8
AM_0
 10
438.27362420078788
 20
157.06442601219331
 30
0.0
 70
    32
  0
VERTEX
  5
9065
  8
AM_0
 10
438.26962420078792
 20
157.06142601219341
 30
0.0
 70
    32
  0
VERTEX
  5
9066
  8
AM_0
 10
438.26562420078761
 20
157.05942601219351
 30
0.0
 70
    32
  0
VERTEX
  5
9067
  8
AM_0
 10
438.26262420078763
 20
157.0574260121933
 30
0.0
 70
    32
  0
VERTEX
  5
9068
  8
AM_0
 10
438.25862420078761
 20
157.0544260121934
 30
0.0
 70
    32
  0
VERTEX
  5
9069
  8
AM_0
 10
438.25562420078762
 20
157.05242601219359
 30
0.0
 70
    32
  0
VERTEX
  5
906A
  8
AM_0
 10
438.25162420078789
 20
157.0504260121937
 30
0.0
 70
    32
  0
VERTEX
  5
906B
  8
AM_0
 10
438.24862420078762
 20
157.04742601219331
 30
0.0
 70
    32
  0
VERTEX
  5
906C
  8
AM_0
 10
438.24462420078783
 20
157.0454260121935
 30
0.0
 70
    32
  0
VERTEX
  5
906D
  8
AM_0
 10
438.24162420078761
 20
157.0424260121934
 30
0.0
 70
    32
  0
VERTEX
  5
906E
  8
AM_0
 10
438.23762420078759
 20
157.04042601219359
 30
0.0
 70
    32
  0
VERTEX
  5
906F
  8
AM_0
 10
438.23362420078757
 20
157.03842601219381
 30
0.0
 70
    32
  0
VERTEX
  5
9070
  8
AM_0
 10
438.23062420078782
 20
157.03542601219371
 30
0.0
 70
    32
  0
VERTEX
  5
9071
  8
AM_0
 10
438.22662420078768
 20
157.0334260121933
 30
0.0
 70
    32
  0
VERTEX
  5
9072
  8
AM_0
 10
438.22362420078781
 20
157.03042601219369
 30
0.0
 70
    32
  0
VERTEX
  5
9073
  8
AM_0
 10
438.21962420078768
 20
157.02842601219331
 30
0.0
 70
    32
  0
VERTEX
  5
9074
  8
AM_0
 10
438.21662420078798
 20
157.02542601219341
 30
0.0
 70
    32
  0
VERTEX
  5
9075
  8
AM_0
 10
438.21262420078767
 20
157.02342601219351
 30
0.0
 70
    32
  0
VERTEX
  5
9076
  8
AM_0
 10
438.20962420078757
 20
157.02142601219359
 30
0.0
 70
    32
  0
VERTEX
  5
9077
  8
AM_0
 10
438.20562420078761
 20
157.0184260121934
 30
0.0
 70
    32
  0
VERTEX
  5
9078
  8
AM_0
 10
438.20262420078802
 20
157.01642601219339
 30
0.0
 70
    32
  0
VERTEX
  5
9079
  8
AM_0
 10
438.19862420078789
 20
157.01342601219361
 30
0.0
 70
    32
  0
VERTEX
  5
907A
  8
AM_0
 10
438.1956242007879
 20
157.0114260121936
 30
0.0
 70
    32
  0
VERTEX
  5
907B
  8
AM_0
 10
438.19262420078758
 20
157.00842601219361
 30
0.0
 70
    32
  0
VERTEX
  5
907C
  8
AM_0
 10
438.1886242007879
 20
157.0064260121934
 30
0.0
 70
    32
  0
VERTEX
  5
907D
  8
AM_0
 10
438.18562420078757
 20
157.0034260121937
 30
0.0
 70
    32
  0
VERTEX
  5
907E
  8
AM_0
 10
438.18162420078761
 20
157.00142601219341
 30
0.0
 70
    32
  0
VERTEX
  5
907F
  8
AM_0
 10
438.17862420078791
 20
156.99842601219351
 30
0.0
 70
    32
  0
VERTEX
  5
9080
  8
AM_0
 10
438.17462420078789
 20
156.99642601219341
 30
0.0
 70
    32
  0
VERTEX
  5
9081
  8
AM_0
 10
438.17162420078762
 20
156.99342601219371
 30
0.0
 70
    32
  0
VERTEX
  5
9082
  8
AM_0
 10
438.16862420078792
 20
156.99042601219381
 30
0.0
 70
    32
  0
VERTEX
  5
9083
  8
AM_0
 10
438.1646242007879
 20
156.9884260121934
 30
0.0
 70
    32
  0
VERTEX
  5
9084
  8
AM_0
 10
438.16162420078768
 20
156.98542601219361
 30
0.0
 70
    32
  0
VERTEX
  5
9085
  8
AM_0
 10
438.15762420078789
 20
156.98342601219369
 30
0.0
 70
    32
  0
VERTEX
  5
9086
  8
AM_0
 10
438.15462420078768
 20
156.9804260121935
 30
0.0
 70
    32
  0
VERTEX
  5
9087
  8
AM_0
 10
438.15162420078758
 20
156.9774260121934
 30
0.0
 70
    32
  0
VERTEX
  5
9088
  8
AM_0
 10
438.14762420078762
 20
156.97542601219371
 30
0.0
 70
    32
  0
VERTEX
  5
9089
  8
AM_0
 10
438.14462420078792
 20
156.97242601219361
 30
0.0
 70
    32
  0
VERTEX
  5
908A
  8
AM_0
 10
438.14062420078761
 20
156.97042601219329
 30
0.0
 70
    32
  0
VERTEX
  5
908B
  8
AM_0
 10
438.13762420078791
 20
156.96742601219361
 30
0.0
 70
    32
  0
VERTEX
  5
908C
  8
AM_0
 10
438.13462420078781
 20
156.96442601219351
 30
0.0
 70
    32
  0
VERTEX
  5
908D
  8
AM_0
 10
438.13062420078768
 20
156.96242601219379
 30
0.0
 70
    32
  0
VERTEX
  5
908E
  8
AM_0
 10
438.12762420078781
 20
156.9594260121934
 30
0.0
 70
    32
  0
VERTEX
  5
908F
  8
AM_0
 10
438.12462420078799
 20
156.9564260121933
 30
0.0
 70
    32
  0
VERTEX
  5
9090
  8
AM_0
 10
438.12062420078797
 20
156.95442601219369
 30
0.0
 70
    32
  0
VERTEX
  5
9091
  8
AM_0
 10
438.11762420078782
 20
156.95142601219339
 30
0.0
 70
    32
  0
VERTEX
  5
9092
  8
AM_0
 10
438.11462420078772
 20
156.94842601219341
 30
0.0
 70
    32
  0
VERTEX
  5
9093
  8
AM_0
 10
438.11162420078762
 20
156.94542601219359
 30
0.0
 70
    32
  0
VERTEX
  5
9094
  8
AM_0
 10
438.10762420078771
 20
156.9434260121935
 30
0.0
 70
    32
  0
VERTEX
  5
9095
  8
AM_0
 10
438.10462420078761
 20
156.9404260121936
 30
0.0
 70
    32
  0
VERTEX
  5
9096
  8
AM_0
 10
438.1016242007878
 20
156.93742601219361
 30
0.0
 70
    32
  0
VERTEX
  5
9097
  8
AM_0
 10
438.09762420078789
 20
156.9344260121936
 30
0.0
 70
    32
  0
VERTEX
  5
9098
  8
AM_0
 10
438.09462420078762
 20
156.9324260121935
 30
0.0
 70
    32
  0
VERTEX
  5
9099
  8
AM_0
 10
438.09162420078758
 20
156.92942601219329
 30
0.0
 70
    32
  0
VERTEX
  5
909A
  8
AM_0
 10
438.08862420078788
 20
156.9264260121937
 30
0.0
 70
    32
  0
VERTEX
  5
909B
  8
AM_0
 10
438.08462420078757
 20
156.9234260121934
 30
0.0
 70
    32
  0
VERTEX
  5
909C
  8
AM_0
 10
438.08162420078781
 20
156.92142601219359
 30
0.0
 70
    32
  0
VERTEX
  5
909D
  8
AM_0
 10
438.0786242007876
 20
156.91842601219341
 30
0.0
 70
    32
  0
VERTEX
  5
909E
  8
AM_0
 10
438.07562420078762
 20
156.91542601219339
 30
0.0
 70
    32
  0
VERTEX
  5
909F
  8
AM_0
 10
438.07262420078757
 20
156.91242601219341
 30
0.0
 70
    32
  0
VERTEX
  5
90A0
  8
AM_0
 10
438.06862420078789
 20
156.90942601219351
 30
0.0
 70
    32
  0
VERTEX
  5
90A1
  8
AM_0
 10
438.06562420078762
 20
156.90642601219369
 30
0.0
 70
    32
  0
VERTEX
  5
90A2
  8
AM_0
 10
438.06262420078781
 20
156.90442601219371
 30
0.0
 70
    32
  0
VERTEX
  5
90A3
  8
AM_0
 10
438.05962420078788
 20
156.90142601219341
 30
0.0
 70
    32
  0
VERTEX
  5
90A4
  8
AM_0
 10
438.05662420078761
 20
156.8984260121936
 30
0.0
 70
    32
  0
VERTEX
  5
90A5
  8
AM_0
 10
438.05362420078768
 20
156.89542601219361
 30
0.0
 70
    32
  0
VERTEX
  5
90A6
  8
AM_0
 10
438.05062420078792
 20
156.8924260121934
 30
0.0
 70
    32
  0
VERTEX
  5
90A7
  8
AM_0
 10
438.04662420078768
 20
156.8894260121935
 30
0.0
 70
    32
  0
VERTEX
  5
90A8
  8
AM_0
 10
438.04362420078792
 20
156.8864260121936
 30
0.0
 70
    32
  0
VERTEX
  5
90A9
  8
AM_0
 10
438.04062420078799
 20
156.88342601219341
 30
0.0
 70
    32
  0
VERTEX
  5
90AA
  8
AM_0
 10
438.03762420078789
 20
156.88042601219371
 30
0.0
 70
    32
  0
VERTEX
  5
90AB
  8
AM_0
 10
438.03462420078768
 20
156.87742601219361
 30
0.0
 70
    32
  0
VERTEX
  5
90AC
  8
AM_0
 10
438.0316242007878
 20
156.87442601219331
 30
0.0
 70
    32
  0
VERTEX
  5
90AD
  8
AM_0
 10
438.02862420078799
 20
156.8714260121935
 30
0.0
 70
    32
  0
VERTEX
  5
90AE
  8
AM_0
 10
438.0256242007876
 20
156.86842601219371
 30
0.0
 70
    32
  0
VERTEX
  5
90AF
  8
AM_0
 10
438.0226242007879
 20
156.8654260121933
 30
0.0
 70
    32
  0
VERTEX
  5
90B0
  8
AM_0
 10
438.01962420078797
 20
156.86242601219351
 30
0.0
 70
    32
  0
VERTEX
  5
90B1
  8
AM_0
 10
438.01662420078759
 20
156.85942601219361
 30
0.0
 70
    32
  0
VERTEX
  5
90B2
  8
AM_0
 10
438.01362420078772
 20
156.85642601219331
 30
0.0
 70
    32
  0
VERTEX
  5
90B3
  8
AM_0
 10
438.01062420078802
 20
156.85342601219369
 30
0.0
 70
    32
  0
VERTEX
  5
90B4
  8
AM_0
 10
438.0076242007878
 20
156.85042601219359
 30
0.0
 70
    32
  0
VERTEX
  5
90B5
  8
AM_0
 10
438.00462420078759
 20
156.84742601219341
 30
0.0
 70
    32
  0
VERTEX
  5
90B6
  8
AM_0
 10
438.00162420078789
 20
156.84442601219351
 30
0.0
 70
    32
  0
VERTEX
  5
90B7
  8
AM_0
 10
437.99862420078762
 20
156.84142601219381
 30
0.0
 70
    32
  0
VERTEX
  5
90B8
  8
AM_0
 10
437.99562420078792
 20
156.83842601219351
 30
0.0
 70
    32
  0
VERTEX
  5
90B9
  8
AM_0
 10
437.99262420078759
 20
156.83542601219341
 30
0.0
 70
    32
  0
VERTEX
  5
90BA
  8
AM_0
 10
437.9896242007876
 20
156.83242601219359
 30
0.0
 70
    32
  0
VERTEX
  5
90BB
  8
AM_0
 10
437.98662420078762
 20
156.82942601219341
 30
0.0
 70
    32
  0
VERTEX
  5
90BC
  8
AM_0
 10
437.98362420078757
 20
156.82642601219351
 30
0.0
 70
    32
  0
VERTEX
  5
90BD
  8
AM_0
 10
437.98062420078782
 20
156.82342601219349
 30
0.0
 70
    32
  0
VERTEX
  5
90BE
  8
AM_0
 10
437.9776242007876
 20
156.81942601219339
 30
0.0
 70
    32
  0
VERTEX
  5
90BF
  8
AM_0
 10
437.9746242007879
 20
156.8164260121934
 30
0.0
 70
    32
  0
VERTEX
  5
90C0
  8
AM_0
 10
437.97162420078757
 20
156.8134260121937
 30
0.0
 70
    32
  0
VERTEX
  5
90C1
  8
AM_0
 10
437.96962420078762
 20
156.8104260121934
 30
0.0
 70
    32
  0
VERTEX
  5
90C2
  8
AM_0
 10
437.96662420078781
 20
156.8074260121933
 30
0.0
 70
    32
  0
VERTEX
  5
90C3
  8
AM_0
 10
437.96362420078799
 20
156.8044260121934
 30
0.0
 70
    32
  0
VERTEX
  5
90C4
  8
AM_0
 10
437.96062420078761
 20
156.80042601219361
 30
0.0
 70
    32
  0
VERTEX
  5
90C5
  8
AM_0
 10
437.95762420078762
 20
156.79742601219331
 30
0.0
 70
    32
  0
VERTEX
  5
90C6
  8
AM_0
 10
437.95462420078792
 20
156.7944260121935
 30
0.0
 70
    32
  0
VERTEX
  5
90C7
  8
AM_0
 10
437.95262420078791
 20
156.79142601219371
 30
0.0
 70
    32
  0
VERTEX
  5
90C8
  8
AM_0
 10
437.94962420078781
 20
156.78742601219341
 30
0.0
 70
    32
  0
VERTEX
  5
90C9
  8
AM_0
 10
437.94662420078782
 20
156.78442601219339
 30
0.0
 70
    32
  0
VERTEX
  5
90CA
  8
AM_0
 10
437.94362420078789
 20
156.78142601219369
 30
0.0
 70
    32
  0
VERTEX
  5
90CB
  8
AM_0
 10
437.9416242007876
 20
156.77842601219351
 30
0.0
 70
    32
  0
VERTEX
  5
90CC
  8
AM_0
 10
437.93862420078767
 20
156.7744260121934
 30
0.0
 70
    32
  0
VERTEX
  5
90CD
  8
AM_0
 10
437.9356242007878
 20
156.77142601219359
 30
0.0
 70
    32
  0
VERTEX
  5
90CE
  8
AM_0
 10
437.93362420078768
 20
156.7684260121936
 30
0.0
 70
    32
  0
VERTEX
  5
90CF
  8
AM_0
 10
437.93062420078758
 20
156.76442601219361
 30
0.0
 70
    32
  0
VERTEX
  5
90D0
  8
AM_0
 10
437.92762420078782
 20
156.76142601219351
 30
0.0
 70
    32
  0
VERTEX
  5
90D1
  8
AM_0
 10
437.92562420078781
 20
156.7584260121935
 30
0.0
 70
    32
  0
VERTEX
  5
90D2
  8
AM_0
 10
437.92262420078782
 20
156.75442601219379
 30
0.0
 70
    32
  0
VERTEX
  5
90D3
  8
AM_0
 10
437.91962420078772
 20
156.75142601219341
 30
0.0
 70
    32
  0
VERTEX
  5
90D4
  8
AM_0
 10
437.91762420078783
 20
156.74842601219339
 30
0.0
 70
    32
  0
VERTEX
  5
90D5
  8
AM_0
 10
437.91462420078761
 20
156.74442601219371
 30
0.0
 70
    32
  0
VERTEX
  5
90D6
  8
AM_0
 10
437.91262420078789
 20
156.74142601219361
 30
0.0
 70
    32
  0
VERTEX
  5
90D7
  8
AM_0
 10
437.90962420078762
 20
156.73742601219351
 30
0.0
 70
    32
  0
VERTEX
  5
90D8
  8
AM_0
 10
437.90662420078758
 20
156.7344260121935
 30
0.0
 70
    32
  0
VERTEX
  5
90D9
  8
AM_0
 10
437.90462420078762
 20
156.73142601219379
 30
0.0
 70
    32
  0
VERTEX
  5
90DA
  8
AM_0
 10
437.90162420078758
 20
156.7274260121936
 30
0.0
 70
    32
  0
VERTEX
  5
90DB
  8
AM_0
 10
437.8996242007878
 20
156.72442601219359
 30
0.0
 70
    32
  0
VERTEX
  5
90DC
  8
AM_0
 10
437.89662420078758
 20
156.7204260121934
 30
0.0
 70
    32
  0
VERTEX
  5
90DD
  8
AM_0
 10
437.89462420078792
 20
156.7174260121935
 30
0.0
 70
    32
  0
VERTEX
  5
90DE
  8
AM_0
 10
437.89162420078759
 20
156.71342601219379
 30
0.0
 70
    32
  0
VERTEX
  5
90DF
  8
AM_0
 10
437.88962420078758
 20
156.71042601219341
 30
0.0
 70
    32
  0
VERTEX
  5
90E0
  8
AM_0
 10
437.88762420078763
 20
156.70642601219339
 30
0.0
 70
    32
  0
VERTEX
  5
90E1
  8
AM_0
 10
437.88462420078758
 20
156.7034260121936
 30
0.0
 70
    32
  0
VERTEX
  5
90E2
  8
AM_0
 10
437.88262420078757
 20
156.6994260121935
 30
0.0
 70
    32
  0
VERTEX
  5
90E3
  8
AM_0
 10
437.87962420078782
 20
156.6964260121936
 30
0.0
 70
    32
  0
VERTEX
  5
90E4
  8
AM_0
 10
437.87762420078758
 20
156.69242601219369
 30
0.0
 70
    32
  0
VERTEX
  5
90E5
  8
AM_0
 10
437.87562420078763
 20
156.68842601219339
 30
0.0
 70
    32
  0
VERTEX
  5
90E6
  8
AM_0
 10
437.87262420078781
 20
156.68542601219369
 30
0.0
 70
    32
  0
VERTEX
  5
90E7
  8
AM_0
 10
437.87062420078757
 20
156.68142601219341
 30
0.0
 70
    32
  0
VERTEX
  5
90E8
  8
AM_0
 10
437.86862420078762
 20
156.67842601219371
 30
0.0
 70
    32
  0
VERTEX
  5
90E9
  8
AM_0
 10
437.86562420078792
 20
156.67442601219341
 30
0.0
 70
    32
  0
VERTEX
  5
90EA
  8
AM_0
 10
437.86362420078768
 20
156.6704260121933
 30
0.0
 70
    32
  0
VERTEX
  5
90EB
  8
AM_0
 10
437.86162420078762
 20
156.6674260121934
 30
0.0
 70
    32
  0
VERTEX
  5
90EC
  8
AM_0
 10
437.85962420078789
 20
156.66342601219381
 30
0.0
 70
    32
  0
VERTEX
  5
90ED
  8
AM_0
 10
437.85662420078791
 20
156.65942601219371
 30
0.0
 70
    32
  0
VERTEX
  5
90EE
  8
AM_0
 10
437.85462420078778
 20
156.65642601219369
 30
0.0
 70
    32
  0
VERTEX
  5
90EF
  8
AM_0
 10
437.8526242007876
 20
156.65242601219339
 30
0.0
 70
    32
  0
VERTEX
  5
90F0
  8
AM_0
 10
437.85062420078799
 20
156.64842601219351
 30
0.0
 70
    32
  0
VERTEX
  5
90F1
  8
AM_0
 10
437.84862420078781
 20
156.6454260121935
 30
0.0
 70
    32
  0
VERTEX
  5
90F2
  8
AM_0
 10
437.84662420078757
 20
156.64142601219359
 30
0.0
 70
    32
  0
VERTEX
  5
90F3
  8
AM_0
 10
437.84462420078768
 20
156.63742601219371
 30
0.0
 70
    32
  0
VERTEX
  5
90F4
  8
AM_0
 10
437.84162420078781
 20
156.63442601219359
 30
0.0
 70
    32
  0
VERTEX
  5
90F5
  8
AM_0
 10
437.8396242007878
 20
156.6304260121934
 30
0.0
 70
    32
  0
VERTEX
  5
90F6
  8
AM_0
 10
437.83762420078767
 20
156.6264260121936
 30
0.0
 70
    32
  0
VERTEX
  5
90F7
  8
AM_0
 10
437.83562420078761
 20
156.62242601219339
 30
0.0
 70
    32
  0
VERTEX
  5
90F8
  8
AM_0
 10
437.8336242007876
 20
156.6194260121936
 30
0.0
 70
    32
  0
VERTEX
  5
90F9
  8
AM_0
 10
437.83162420078759
 20
156.61542601219361
 30
0.0
 70
    32
  0
VERTEX
  5
90FA
  8
AM_0
 10
437.8296242007878
 20
156.61142601219339
 30
0.0
 70
    32
  0
VERTEX
  5
90FB
  8
AM_0
 10
437.82762420078802
 20
156.60742601219351
 30
0.0
 70
    32
  0
VERTEX
  5
90FC
  8
AM_0
 10
437.82562420078767
 20
156.60342601219341
 30
0.0
 70
    32
  0
VERTEX
  5
90FD
  8
AM_0
 10
437.82462420078781
 20
156.60042601219371
 30
0.0
 70
    32
  0
VERTEX
  5
90FE
  8
AM_0
 10
437.82262420078803
 20
156.5964260121934
 30
0.0
 70
    32
  0
VERTEX
  5
90FF
  8
AM_0
 10
437.82062420078762
 20
156.59242601219361
 30
0.0
 70
    32
  0
VERTEX
  5
9100
  8
AM_0
 10
437.81862420078789
 20
156.58842601219351
 30
0.0
 70
    32
  0
VERTEX
  5
9101
  8
AM_0
 10
437.81662420078771
 20
156.5844260121934
 30
0.0
 70
    32
  0
VERTEX
  5
9102
  8
AM_0
 10
437.81462420078759
 20
156.5804260121935
 30
0.0
 70
    32
  0
VERTEX
  5
9103
  8
AM_0
 10
437.81362420078761
 20
156.57642601219331
 30
0.0
 70
    32
  0
VERTEX
  5
9104
  8
AM_0
 10
437.81162420078761
 20
156.57342601219341
 30
0.0
 70
    32
  0
VERTEX
  5
9105
  8
AM_0
 10
437.80962420078771
 20
156.56942601219359
 30
0.0
 70
    32
  0
VERTEX
  5
9106
  8
AM_0
 10
437.80762420078793
 20
156.56542601219351
 30
0.0
 70
    32
  0
VERTEX
  5
9107
  8
AM_0
 10
437.80662420078761
 20
156.56142601219341
 30
0.0
 70
    32
  0
VERTEX
  5
9108
  8
AM_0
 10
437.8046242007876
 20
156.5574260121933
 30
0.0
 70
    32
  0
VERTEX
  5
9109
  8
AM_0
 10
437.80262420078759
 20
156.5534260121934
 30
0.0
 70
    32
  0
VERTEX
  5
910A
  8
AM_0
 10
437.80162420078761
 20
156.54942601219369
 30
0.0
 70
    32
  0
VERTEX
  5
910B
  8
AM_0
 10
437.79962420078789
 20
156.5454260121935
 30
0.0
 70
    32
  0
VERTEX
  5
910C
  8
AM_0
 10
437.79762420078782
 20
156.54142601219371
 30
0.0
 70
    32
  0
VERTEX
  5
910D
  8
AM_0
 10
437.79662420078762
 20
156.53742601219341
 30
0.0
 70
    32
  0
VERTEX
  5
910E
  8
AM_0
 10
437.79462420078761
 20
156.5334260121935
 30
0.0
 70
    32
  0
VERTEX
  5
910F
  8
AM_0
 10
437.79362420078758
 20
156.52942601219351
 30
0.0
 70
    32
  0
VERTEX
  5
9110
  8
AM_0
 10
437.79162420078791
 20
156.52542601219341
 30
0.0
 70
    32
  0
VERTEX
  5
9111
  8
AM_0
 10
437.79062420078787
 20
156.52142601219339
 30
0.0
 70
    32
  0
VERTEX
  5
9112
  8
AM_0
 10
437.78862420078758
 20
156.5174260121934
 30
0.0
 70
    32
  0
VERTEX
  5
9113
  8
AM_0
 10
437.78762420078789
 20
156.51342601219361
 30
0.0
 70
    32
  0
VERTEX
  5
9114
  8
AM_0
 10
437.78662420078763
 20
156.5094260121939
 30
0.0
 70
    32
  0
VERTEX
  5
9115
  8
AM_0
 10
437.78462420078728
 20
156.50542601219371
 30
0.0
 70
    32
  0
VERTEX
  5
9116
  8
AM_0
 10
437.78362420078781
 20
156.50142601219369
 30
0.0
 70
    32
  0
VERTEX
  5
9117
  8
AM_0
 10
437.78262420078789
 20
156.49742601219339
 30
0.0
 70
    32
  0
VERTEX
  5
9118
  8
AM_0
 10
437.78062420078788
 20
156.49342601219359
 30
0.0
 70
    32
  0
VERTEX
  5
9119
  8
AM_0
 10
437.77962420078762
 20
156.48942601219329
 30
0.0
 70
    32
  0
VERTEX
  5
911A
  8
AM_0
 10
437.77862420078787
 20
156.4854260121935
 30
0.0
 70
    32
  0
VERTEX
  5
911B
  8
AM_0
 10
437.77762420078761
 20
156.48042601219331
 30
0.0
 70
    32
  0
VERTEX
  5
911C
  8
AM_0
 10
437.77662420078781
 20
156.4764260121934
 30
0.0
 70
    32
  0
VERTEX
  5
911D
  8
AM_0
 10
437.77462420078791
 20
156.47242601219341
 30
0.0
 70
    32
  0
VERTEX
  5
911E
  8
AM_0
 10
437.77362420078782
 20
156.4684260121935
 30
0.0
 70
    32
  0
VERTEX
  5
911F
  8
AM_0
 10
437.77262420078762
 20
156.46442601219371
 30
0.0
 70
    32
  0
VERTEX
  5
9120
  8
AM_0
 10
437.77162420078793
 20
156.46042601219361
 30
0.0
 70
    32
  0
VERTEX
  5
9121
  8
AM_0
 10
437.77062420078738
 20
156.45642601219359
 30
0.0
 70
    32
  0
VERTEX
  5
9122
  8
AM_0
 10
437.76962420078792
 20
156.4524260121936
 30
0.0
 70
    32
  0
VERTEX
  5
9123
  8
AM_0
 10
437.76862420078783
 20
156.44742601219369
 30
0.0
 70
    32
  0
VERTEX
  5
9124
  8
AM_0
 10
437.76762420078762
 20
156.4434260121935
 30
0.0
 70
    32
  0
VERTEX
  5
9125
  8
AM_0
 10
437.76662420078759
 20
156.43942601219339
 30
0.0
 70
    32
  0
VERTEX
  5
9126
  8
AM_0
 10
437.76562420078761
 20
156.4354260121934
 30
0.0
 70
    32
  0
VERTEX
  5
9127
  8
AM_0
 10
437.76462420078781
 20
156.43142601219341
 30
0.0
 70
    32
  0
VERTEX
  5
9128
  8
AM_0
 10
437.7636242007876
 20
156.42742601219359
 30
0.0
 70
    32
  0
VERTEX
  5
9129
  8
AM_0
 10
437.7636242007876
 20
156.4224260121934
 30
0.0
 70
    32
  0
VERTEX
  5
912A
  8
AM_0
 10
437.76262420078768
 20
156.41842601219369
 30
0.0
 70
    32
  0
VERTEX
  5
912B
  8
AM_0
 10
437.76162420078759
 20
156.41442601219379
 30
0.0
 70
    32
  0
VERTEX
  5
912C
  8
AM_0
 10
437.76062420078779
 20
156.4104260121936
 30
0.0
 70
    32
  0
VERTEX
  5
912D
  8
AM_0
 10
437.75962420078781
 20
156.40642601219369
 30
0.0
 70
    32
  0
VERTEX
  5
912E
  8
AM_0
 10
437.75962420078781
 20
156.4014260121935
 30
0.0
 70
    32
  0
VERTEX
  5
912F
  8
AM_0
 10
437.75862420078761
 20
156.39742601219359
 30
0.0
 70
    32
  0
VERTEX
  5
9130
  8
AM_0
 10
437.75762420078757
 20
156.3934260121934
 30
0.0
 70
    32
  0
VERTEX
  5
9131
  8
AM_0
 10
437.75762420078757
 20
156.3894260121935
 30
0.0
 70
    32
  0
VERTEX
  5
9132
  8
AM_0
 10
437.7566242007876
 20
156.38442601219359
 30
0.0
 70
    32
  0
VERTEX
  5
9133
  8
AM_0
 10
437.75562420078768
 20
156.3804260121934
 30
0.0
 70
    32
  0
VERTEX
  5
9134
  8
AM_0
 10
437.75562420078768
 20
156.37642601219341
 30
0.0
 70
    32
  0
VERTEX
  5
9135
  8
AM_0
 10
437.75462420078799
 20
156.3724260121933
 30
0.0
 70
    32
  0
VERTEX
  5
9136
  8
AM_0
 10
437.75462420078799
 20
156.3674260121935
 30
0.0
 70
    32
  0
VERTEX
  5
9137
  8
AM_0
 10
437.75362420078761
 20
156.3634260121934
 30
0.0
 70
    32
  0
VERTEX
  5
9138
  8
AM_0
 10
437.75362420078761
 20
156.35942601219361
 30
0.0
 70
    32
  0
VERTEX
  5
9139
  8
AM_0
 10
437.75262420078792
 20
156.35542601219339
 30
0.0
 70
    32
  0
VERTEX
  5
913A
  8
AM_0
 10
437.75262420078792
 20
156.35042601219351
 30
0.0
 70
    32
  0
VERTEX
  5
913B
  8
AM_0
 10
437.75262420078792
 20
156.3464260121938
 30
0.0
 70
    32
  0
VERTEX
  5
913C
  8
AM_0
 10
437.75162420078789
 20
156.34242601219361
 30
0.0
 70
    32
  0
VERTEX
  5
913D
  8
AM_0
 10
437.75162420078789
 20
156.33842601219359
 30
0.0
 70
    32
  0
VERTEX
  5
913E
  8
AM_0
 10
437.75162420078789
 20
156.3334260121936
 30
0.0
 70
    32
  0
VERTEX
  5
913F
  8
AM_0
 10
437.75162420078789
 20
156.32942601219369
 30
0.0
 70
    32
  0
VERTEX
  5
9140
  8
AM_0
 10
437.7506242007878
 20
156.3254260121935
 30
0.0
 70
    32
  0
VERTEX
  5
9141
  8
AM_0
 10
437.7506242007878
 20
156.32142601219351
 30
0.0
 70
    32
  0
VERTEX
  5
9142
  8
AM_0
 10
437.7506242007878
 20
156.3164260121934
 30
0.0
 70
    32
  0
VERTEX
  5
9143
  8
AM_0
 10
437.7506242007878
 20
156.3124260121933
 30
0.0
 70
    32
  0
VERTEX
  5
9144
  8
AM_0
 10
437.7506242007878
 20
156.30842601219351
 30
0.0
 70
    32
  0
VERTEX
  5
9145
  8
AM_0
 10
437.7506242007878
 20
156.3034260121934
 30
0.0
 70
    32
  0
VERTEX
  5
9146
  8
AM_0
 10
437.7506242007878
 20
156.29942601219341
 30
0.0
 70
    32
  0
VERTEX
  5
9147
  8
AM_0
 10
437.7506242007878
 20
156.2954260121933
 30
0.0
 70
    32
  0
VERTEX
  5
9148
  8
AM_0
 10
437.7506242007878
 20
156.2914260121936
 30
0.0
 70
    32
  0
VERTEX
  5
9149
  8
AM_0
 10
437.7506242007878
 20
156.2864260121934
 30
0.0
 70
    32
  0
VERTEX
  5
914A
  8
AM_0
 10
437.75162420078789
 20
156.2824260121935
 30
0.0
 70
    32
  0
VERTEX
  5
914B
  8
AM_0
 10
437.75162420078789
 20
156.27842601219331
 30
0.0
 70
    32
  0
VERTEX
  5
914C
  8
AM_0
 10
437.75162420078789
 20
156.27442601219349
 30
0.0
 70
    32
  0
VERTEX
  5
914D
  8
AM_0
 10
437.75162420078789
 20
156.2694260121938
 30
0.0
 70
    32
  0
VERTEX
  5
914E
  8
AM_0
 10
437.75262420078792
 20
156.26542601219359
 30
0.0
 70
    32
  0
VERTEX
  5
914F
  8
AM_0
 10
437.75262420078792
 20
156.2614260121936
 30
0.0
 70
    32
  0
VERTEX
  5
9150
  8
AM_0
 10
437.75262420078792
 20
156.25742601219369
 30
0.0
 70
    32
  0
VERTEX
  5
9151
  8
AM_0
 10
437.75362420078761
 20
156.25242601219361
 30
0.0
 70
    32
  0
VERTEX
  5
9152
  8
AM_0
 10
437.75362420078761
 20
156.24842601219359
 30
0.0
 70
    32
  0
VERTEX
  5
9153
  8
AM_0
 10
437.75362420078761
 20
156.2444260121934
 30
0.0
 70
    32
  0
VERTEX
  5
9154
  8
AM_0
 10
437.75462420078799
 20
156.2404260121933
 30
0.0
 70
    32
  0
VERTEX
  5
9155
  8
AM_0
 10
437.75462420078799
 20
156.2354260121935
 30
0.0
 70
    32
  0
VERTEX
  5
9156
  8
AM_0
 10
437.75562420078768
 20
156.23142601219351
 30
0.0
 70
    32
  0
VERTEX
  5
9157
  8
AM_0
 10
437.75562420078768
 20
156.2274260121934
 30
0.0
 70
    32
  0
VERTEX
  5
9158
  8
AM_0
 10
437.7566242007876
 20
156.22342601219361
 30
0.0
 70
    32
  0
VERTEX
  5
9159
  8
AM_0
 10
437.7566242007876
 20
156.21842601219339
 30
0.0
 70
    32
  0
VERTEX
  5
915A
  8
AM_0
 10
437.75762420078757
 20
156.21442601219371
 30
0.0
 70
    32
  0
VERTEX
  5
915B
  8
AM_0
 10
437.75762420078757
 20
156.21042601219341
 30
0.0
 70
    32
  0
VERTEX
  5
915C
  8
AM_0
 10
437.75862420078761
 20
156.20642601219359
 30
0.0
 70
    32
  0
VERTEX
  5
915D
  8
AM_0
 10
437.75862420078761
 20
156.20142601219351
 30
0.0
 70
    32
  0
VERTEX
  5
915E
  8
AM_0
 10
437.75962420078781
 20
156.19742601219369
 30
0.0
 70
    32
  0
VERTEX
  5
915F
  8
AM_0
 10
437.75962420078781
 20
156.19342601219361
 30
0.0
 70
    32
  0
VERTEX
  5
9160
  8
AM_0
 10
437.76062420078779
 20
156.18942601219351
 30
0.0
 70
    32
  0
SEQEND
  5
9161
  8
AM_0
  0
LINE
  5
9162
  8
AM_0
 10
450.75067126586151
 20
157.5491627281676
 30
0.0
 11
440.2506712658577
 21
157.5491627281676
 31
0.0
  0
LINE
  5
9163
  8
AM_0
 10
450.75067126586151
 20
108.8390112091507
 30
0.0
 11
449.28567126586182
 21
100.019011209151
 31
0.0
  0
POLYLINE
  5
9164
  8
AM_0
 66
     1
 10
0.0
 20
0.0
 30
0.0
 70
     8
  0
VERTEX
  5
9165
  8
AM_0
 10
437.76062420078779
 20
111.4288260121934
 30
0.0
 70
    32
  0
VERTEX
  5
9166
  8
AM_0
 10
437.76162420078759
 20
111.4246260121935
 30
0.0
 70
    32
  0
VERTEX
  5
9167
  8
AM_0
 10
437.76262420078768
 20
111.4203260121936
 30
0.0
 70
    32
  0
VERTEX
  5
9168
  8
AM_0
 10
437.7636242007876
 20
111.4161260121938
 30
0.0
 70
    32
  0
VERTEX
  5
9169
  8
AM_0
 10
437.76462420078781
 20
111.4118260121936
 30
0.0
 70
    32
  0
VERTEX
  5
916A
  8
AM_0
 10
437.76562420078761
 20
111.4076260121935
 30
0.0
 70
    32
  0
VERTEX
  5
916B
  8
AM_0
 10
437.76662420078759
 20
111.4033260121936
 30
0.0
 70
    32
  0
VERTEX
  5
916C
  8
AM_0
 10
437.76762420078762
 20
111.3991260121937
 30
0.0
 70
    32
  0
VERTEX
  5
916D
  8
AM_0
 10
437.76862420078783
 20
111.39492601219349
 30
0.0
 70
    32
  0
VERTEX
  5
916E
  8
AM_0
 10
437.76962420078792
 20
111.39062601219359
 30
0.0
 70
    32
  0
VERTEX
  5
916F
  8
AM_0
 10
437.77062420078738
 20
111.3864260121935
 30
0.0
 70
    32
  0
VERTEX
  5
9170
  8
AM_0
 10
437.77162420078793
 20
111.3822260121935
 30
0.0
 70
    32
  0
VERTEX
  5
9171
  8
AM_0
 10
437.77262420078762
 20
111.3779260121937
 30
0.0
 70
    32
  0
VERTEX
  5
9172
  8
AM_0
 10
437.77362420078782
 20
111.3737260121933
 30
0.0
 70
    32
  0
VERTEX
  5
9173
  8
AM_0
 10
437.77462420078791
 20
111.3695260121935
 30
0.0
 70
    32
  0
VERTEX
  5
9174
  8
AM_0
 10
437.77562420078789
 20
111.36532601219371
 30
0.0
 70
    32
  0
VERTEX
  5
9175
  8
AM_0
 10
437.77662420078781
 20
111.36112601219369
 30
0.0
 70
    32
  0
VERTEX
  5
9176
  8
AM_0
 10
437.77862420078787
 20
111.3569260121935
 30
0.0
 70
    32
  0
VERTEX
  5
9177
  8
AM_0
 10
437.77962420078762
 20
111.3527260121939
 30
0.0
 70
    32
  0
VERTEX
  5
9178
  8
AM_0
 10
437.78062420078788
 20
111.34862601219361
 30
0.0
 70
    32
  0
VERTEX
  5
9179
  8
AM_0
 10
437.78162420078758
 20
111.34442601219349
 30
0.0
 70
    32
  0
VERTEX
  5
917A
  8
AM_0
 10
437.78262420078789
 20
111.3402260121935
 30
0.0
 70
    32
  0
VERTEX
  5
917B
  8
AM_0
 10
437.78462420078728
 20
111.3361260121936
 30
0.0
 70
    32
  0
VERTEX
  5
917C
  8
AM_0
 10
437.78562420078759
 20
111.33192601219331
 30
0.0
 70
    32
  0
VERTEX
  5
917D
  8
AM_0
 10
437.78662420078763
 20
111.3278260121933
 30
0.0
 70
    32
  0
VERTEX
  5
917E
  8
AM_0
 10
437.78862420078758
 20
111.3237260121936
 30
0.0
 70
    32
  0
VERTEX
  5
917F
  8
AM_0
 10
437.78962420078761
 20
111.3196260121935
 30
0.0
 70
    32
  0
VERTEX
  5
9180
  8
AM_0
 10
437.79062420078787
 20
111.3154260121937
 30
0.0
 70
    32
  0
VERTEX
  5
9181
  8
AM_0
 10
437.79262420078783
 20
111.31142601219349
 30
0.0
 70
    32
  0
VERTEX
  5
9182
  8
AM_0
 10
437.79362420078758
 20
111.3073260121937
 30
0.0
 70
    32
  0
VERTEX
  5
9183
  8
AM_0
 10
437.79562420078759
 20
111.3032260121937
 30
0.0
 70
    32
  0
VERTEX
  5
9184
  8
AM_0
 10
437.79662420078762
 20
111.2991260121936
 30
0.0
 70
    32
  0
VERTEX
  5
9185
  8
AM_0
 10
437.79862420078791
 20
111.29512601219361
 30
0.0
 70
    32
  0
VERTEX
  5
9186
  8
AM_0
 10
437.79962420078789
 20
111.2910260121935
 30
0.0
 70
    32
  0
VERTEX
  5
9187
  8
AM_0
 10
437.80162420078761
 20
111.28702601219371
 30
0.0
 70
    32
  0
VERTEX
  5
9188
  8
AM_0
 10
437.80362420078791
 20
111.2830260121937
 30
0.0
 70
    32
  0
VERTEX
  5
9189
  8
AM_0
 10
437.8046242007876
 20
111.2790260121935
 30
0.0
 70
    32
  0
VERTEX
  5
918A
  8
AM_0
 10
437.80662420078761
 20
111.27502601219351
 30
0.0
 70
    32
  0
VERTEX
  5
918B
  8
AM_0
 10
437.80862420078762
 20
111.2710260121935
 30
0.0
 70
    32
  0
VERTEX
  5
918C
  8
AM_0
 10
437.8106242007878
 20
111.2670260121935
 30
0.0
 70
    32
  0
VERTEX
  5
918D
  8
AM_0
 10
437.81162420078761
 20
111.2631260121934
 30
0.0
 70
    32
  0
VERTEX
  5
918E
  8
AM_0
 10
437.81362420078761
 20
111.2591260121936
 30
0.0
 70
    32
  0
VERTEX
  5
918F
  8
AM_0
 10
437.81562420078762
 20
111.2552260121936
 30
0.0
 70
    32
  0
VERTEX
  5
9190
  8
AM_0
 10
437.8176242007878
 20
111.2512260121933
 30
0.0
 70
    32
  0
VERTEX
  5
9191
  8
AM_0
 10
437.81962420078759
 20
111.2473260121935
 30
0.0
 70
    32
  0
VERTEX
  5
9192
  8
AM_0
 10
437.82162420078782
 20
111.24342601219369
 30
0.0
 70
    32
  0
VERTEX
  5
9193
  8
AM_0
 10
437.82362420078772
 20
111.23952601219329
 30
0.0
 70
    32
  0
VERTEX
  5
9194
  8
AM_0
 10
437.82562420078767
 20
111.23562601219351
 30
0.0
 70
    32
  0
VERTEX
  5
9195
  8
AM_0
 10
437.82762420078802
 20
111.2317260121936
 30
0.0
 70
    32
  0
VERTEX
  5
9196
  8
AM_0
 10
437.8296242007878
 20
111.2278260121934
 30
0.0
 70
    32
  0
VERTEX
  5
9197
  8
AM_0
 10
437.83162420078759
 20
111.2240260121936
 30
0.0
 70
    32
  0
VERTEX
  5
9198
  8
AM_0
 10
437.8336242007876
 20
111.2201260121934
 30
0.0
 70
    32
  0
VERTEX
  5
9199
  8
AM_0
 10
437.83562420078761
 20
111.2163260121936
 30
0.0
 70
    32
  0
VERTEX
  5
919A
  8
AM_0
 10
437.83762420078767
 20
111.21252601219351
 30
0.0
 70
    32
  0
VERTEX
  5
919B
  8
AM_0
 10
437.8396242007878
 20
111.2086260121938
 30
0.0
 70
    32
  0
VERTEX
  5
919C
  8
AM_0
 10
437.84162420078781
 20
111.20482601219329
 30
0.0
 70
    32
  0
VERTEX
  5
919D
  8
AM_0
 10
437.84362420078759
 20
111.20102601219369
 30
0.0
 70
    32
  0
VERTEX
  5
919E
  8
AM_0
 10
437.84562420078788
 20
111.1973260121936
 30
0.0
 70
    32
  0
VERTEX
  5
919F
  8
AM_0
 10
437.84762420078789
 20
111.1935260121934
 30
0.0
 70
    32
  0
VERTEX
  5
91A0
  8
AM_0
 10
437.85062420078799
 20
111.1897260121938
 30
0.0
 70
    32
  0
VERTEX
  5
91A1
  8
AM_0
 10
437.8526242007876
 20
111.1860260121933
 30
0.0
 70
    32
  0
VERTEX
  5
91A2
  8
AM_0
 10
437.85462420078778
 20
111.1822260121936
 30
0.0
 70
    32
  0
VERTEX
  5
91A3
  8
AM_0
 10
437.85662420078791
 20
111.1785260121936
 30
0.0
 70
    32
  0
VERTEX
  5
91A4
  8
AM_0
 10
437.85962420078789
 20
111.17482601219361
 30
0.0
 70
    32
  0
VERTEX
  5
91A5
  8
AM_0
 10
437.86162420078762
 20
111.17102601219349
 30
0.0
 70
    32
  0
VERTEX
  5
91A6
  8
AM_0
 10
437.86362420078768
 20
111.1673260121937
 30
0.0
 70
    32
  0
VERTEX
  5
91A7
  8
AM_0
 10
437.86562420078792
 20
111.16372601219349
 30
0.0
 70
    32
  0
VERTEX
  5
91A8
  8
AM_0
 10
437.86862420078762
 20
111.1600260121937
 30
0.0
 70
    32
  0
VERTEX
  5
91A9
  8
AM_0
 10
437.87062420078757
 20
111.1563260121934
 30
0.0
 70
    32
  0
VERTEX
  5
91AA
  8
AM_0
 10
437.87262420078781
 20
111.1527260121936
 30
0.0
 70
    32
  0
VERTEX
  5
91AB
  8
AM_0
 10
437.87562420078763
 20
111.1490260121935
 30
0.0
 70
    32
  0
VERTEX
  5
91AC
  8
AM_0
 10
437.87762420078758
 20
111.1454260121935
 30
0.0
 70
    32
  0
VERTEX
  5
91AD
  8
AM_0
 10
437.88062420078791
 20
111.1417260121935
 30
0.0
 70
    32
  0
VERTEX
  5
91AE
  8
AM_0
 10
437.88262420078757
 20
111.1381260121934
 30
0.0
 70
    32
  0
VERTEX
  5
91AF
  8
AM_0
 10
437.88462420078758
 20
111.1345260121934
 30
0.0
 70
    32
  0
VERTEX
  5
91B0
  8
AM_0
 10
437.88762420078763
 20
111.1309260121934
 30
0.0
 70
    32
  0
VERTEX
  5
91B1
  8
AM_0
 10
437.88962420078758
 20
111.1274260121935
 30
0.0
 70
    32
  0
VERTEX
  5
91B2
  8
AM_0
 10
437.89262420078762
 20
111.1238260121937
 30
0.0
 70
    32
  0
VERTEX
  5
91B3
  8
AM_0
 10
437.89462420078792
 20
111.1202260121936
 30
0.0
 70
    32
  0
VERTEX
  5
91B4
  8
AM_0
 10
437.8976242007879
 20
111.1167260121936
 30
0.0
 70
    32
  0
VERTEX
  5
91B5
  8
AM_0
 10
437.8996242007878
 20
111.11322601219349
 30
0.0
 70
    32
  0
VERTEX
  5
91B6
  8
AM_0
 10
437.90262420078761
 20
111.10972601219351
 30
0.0
 70
    32
  0
VERTEX
  5
91B7
  8
AM_0
 10
437.90562420078788
 20
111.1061260121934
 30
0.0
 70
    32
  0
VERTEX
  5
91B8
  8
AM_0
 10
437.90762420078789
 20
111.1027260121937
 30
0.0
 70
    32
  0
VERTEX
  5
91B9
  8
AM_0
 10
437.91062420078771
 20
111.0992260121934
 30
0.0
 70
    32
  0
VERTEX
  5
91BA
  8
AM_0
 10
437.91262420078789
 20
111.09572601219369
 30
0.0
 70
    32
  0
VERTEX
  5
91BB
  8
AM_0
 10
437.91562420078787
 20
111.09222601219351
 30
0.0
 70
    32
  0
VERTEX
  5
91BC
  8
AM_0
 10
437.9186242007878
 20
111.08882601219349
 30
0.0
 70
    32
  0
VERTEX
  5
91BD
  8
AM_0
 10
437.92062420078781
 20
111.0853260121937
 30
0.0
 70
    32
  0
VERTEX
  5
91BE
  8
AM_0
 10
437.92362420078803
 20
111.08192601219331
 30
0.0
 70
    32
  0
VERTEX
  5
91BF
  8
AM_0
 10
437.92662420078773
 20
111.07852601219371
 30
0.0
 70
    32
  0
VERTEX
  5
91C0
  8
AM_0
 10
437.92862420078791
 20
111.07512601219339
 30
0.0
 70
    32
  0
VERTEX
  5
91C1
  8
AM_0
 10
437.93162420078772
 20
111.07172601219369
 30
0.0
 70
    32
  0
VERTEX
  5
91C2
  8
AM_0
 10
437.93462420078782
 20
111.06832601219349
 30
0.0
 70
    32
  0
VERTEX
  5
91C3
  8
AM_0
 10
437.93762420078798
 20
111.0650260121937
 30
0.0
 70
    32
  0
VERTEX
  5
91C4
  8
AM_0
 10
437.93962420078759
 20
111.0616260121934
 30
0.0
 70
    32
  0
VERTEX
  5
91C5
  8
AM_0
 10
437.9426242007878
 20
111.0583260121936
 30
0.0
 70
    32
  0
VERTEX
  5
91C6
  8
AM_0
 10
437.94562420078768
 20
111.0549260121935
 30
0.0
 70
    32
  0
VERTEX
  5
91C7
  8
AM_0
 10
437.94862420078761
 20
111.05162601219359
 30
0.0
 70
    32
  0
VERTEX
  5
91C8
  8
AM_0
 10
437.95062420078762
 20
111.0483260121939
 30
0.0
 70
    32
  0
VERTEX
  5
91C9
  8
AM_0
 10
437.9536242007876
 20
111.0450260121937
 30
0.0
 70
    32
  0
VERTEX
  5
91CA
  8
AM_0
 10
437.95662420078781
 20
111.04172601219349
 30
0.0
 70
    32
  0
VERTEX
  5
91CB
  8
AM_0
 10
437.9596242007878
 20
111.0384260121938
 30
0.0
 70
    32
  0
VERTEX
  5
91CC
  8
AM_0
 10
437.96262420078762
 20
111.0351260121935
 30
0.0
 70
    32
  0
VERTEX
  5
91CD
  8
AM_0
 10
437.9656242007876
 20
111.0319260121934
 30
0.0
 70
    32
  0
VERTEX
  5
91CE
  8
AM_0
 10
437.96862420078759
 20
111.0286260121936
 30
0.0
 70
    32
  0
VERTEX
  5
91CF
  8
AM_0
 10
437.97162420078757
 20
111.02542601219361
 30
0.0
 70
    32
  0
VERTEX
  5
91D0
  8
AM_0
 10
437.9746242007879
 20
111.0222260121938
 30
0.0
 70
    32
  0
VERTEX
  5
91D1
  8
AM_0
 10
437.97662420078763
 20
111.01902601219351
 30
0.0
 70
    32
  0
VERTEX
  5
91D2
  8
AM_0
 10
437.9796242007879
 20
111.0158260121933
 30
0.0
 70
    32
  0
VERTEX
  5
91D3
  8
AM_0
 10
437.9826242007876
 20
111.01262601219339
 30
0.0
 70
    32
  0
VERTEX
  5
91D4
  8
AM_0
 10
437.98562420078758
 20
111.0094260121936
 30
0.0
 70
    32
  0
VERTEX
  5
91D5
  8
AM_0
 10
437.98862420078763
 20
111.00622601219349
 30
0.0
 70
    32
  0
VERTEX
  5
91D6
  8
AM_0
 10
437.99162420078761
 20
111.0031260121937
 30
0.0
 70
    32
  0
VERTEX
  5
91D7
  8
AM_0
 10
437.99462420078783
 20
110.9999260121933
 30
0.0
 70
    32
  0
VERTEX
  5
91D8
  8
AM_0
 10
437.99762420078758
 20
110.99682601219349
 30
0.0
 70
    32
  0
VERTEX
  5
91D9
  8
AM_0
 10
438.0006242007878
 20
110.99372601219341
 30
0.0
 70
    32
  0
VERTEX
  5
91DA
  8
AM_0
 10
438.00362420078761
 20
110.9905260121935
 30
0.0
 70
    32
  0
VERTEX
  5
91DB
  8
AM_0
 10
438.00662420078771
 20
110.9874260121934
 30
0.0
 70
    32
  0
VERTEX
  5
91DC
  8
AM_0
 10
438.00962420078758
 20
110.9843260121937
 30
0.0
 70
    32
  0
VERTEX
  5
91DD
  8
AM_0
 10
438.0126242007878
 20
110.9813260121937
 30
0.0
 70
    32
  0
VERTEX
  5
91DE
  8
AM_0
 10
438.01662420078759
 20
110.9782260121936
 30
0.0
 70
    32
  0
VERTEX
  5
91DF
  8
AM_0
 10
438.01962420078797
 20
110.9751260121934
 30
0.0
 70
    32
  0
VERTEX
  5
91E0
  8
AM_0
 10
438.0226242007879
 20
110.9721260121934
 30
0.0
 70
    32
  0
VERTEX
  5
91E1
  8
AM_0
 10
438.0256242007876
 20
110.96902601219359
 30
0.0
 70
    32
  0
VERTEX
  5
91E2
  8
AM_0
 10
438.02862420078799
 20
110.96602601219359
 30
0.0
 70
    32
  0
VERTEX
  5
91E3
  8
AM_0
 10
438.0316242007878
 20
110.9630260121934
 30
0.0
 70
    32
  0
VERTEX
  5
91E4
  8
AM_0
 10
438.03462420078768
 20
110.96002601219359
 30
0.0
 70
    32
  0
VERTEX
  5
91E5
  8
AM_0
 10
438.03762420078789
 20
110.95702601219369
 30
0.0
 70
    32
  0
VERTEX
  5
91E6
  8
AM_0
 10
438.04162420078768
 20
110.9540260121934
 30
0.0
 70
    32
  0
VERTEX
  5
91E7
  8
AM_0
 10
438.04462420078761
 20
110.95102601219369
 30
0.0
 70
    32
  0
VERTEX
  5
91E8
  8
AM_0
 10
438.04762420078782
 20
110.94802601219359
 30
0.0
 70
    32
  0
VERTEX
  5
91E9
  8
AM_0
 10
438.05062420078792
 20
110.9451260121937
 30
0.0
 70
    32
  0
VERTEX
  5
91EA
  8
AM_0
 10
438.05362420078768
 20
110.9421260121935
 30
0.0
 70
    32
  0
VERTEX
  5
91EB
  8
AM_0
 10
438.05662420078761
 20
110.9392260121933
 30
0.0
 70
    32
  0
VERTEX
  5
91EC
  8
AM_0
 10
438.06062420078769
 20
110.9362260121933
 30
0.0
 70
    32
  0
VERTEX
  5
91ED
  8
AM_0
 10
438.06362420078761
 20
110.93332601219331
 30
0.0
 70
    32
  0
VERTEX
  5
91EE
  8
AM_0
 10
438.0666242007876
 20
110.93042601219371
 30
0.0
 70
    32
  0
VERTEX
  5
91EF
  8
AM_0
 10
438.06962420078781
 20
110.9275260121934
 30
0.0
 70
    32
  0
VERTEX
  5
91F0
  8
AM_0
 10
438.07362420078789
 20
110.9246260121937
 30
0.0
 70
    32
  0
VERTEX
  5
91F1
  8
AM_0
 10
438.07662420078759
 20
110.9217260121937
 30
0.0
 70
    32
  0
VERTEX
  5
91F2
  8
AM_0
 10
438.07962420078758
 20
110.9189260121933
 30
0.0
 70
    32
  0
VERTEX
  5
91F3
  8
AM_0
 10
438.08262420078762
 20
110.9160260121937
 30
0.0
 70
    32
  0
VERTEX
  5
91F4
  8
AM_0
 10
438.08662420078792
 20
110.9132260121937
 30
0.0
 70
    32
  0
VERTEX
  5
91F5
  8
AM_0
 10
438.08962420078763
 20
110.91032601219339
 30
0.0
 70
    32
  0
VERTEX
  5
91F6
  8
AM_0
 10
438.09262420078761
 20
110.9075260121936
 30
0.0
 70
    32
  0
VERTEX
  5
91F7
  8
AM_0
 10
438.09662420078757
 20
110.90472601219361
 30
0.0
 70
    32
  0
VERTEX
  5
91F8
  8
AM_0
 10
438.09962420078762
 20
110.9019260121937
 30
0.0
 70
    32
  0
VERTEX
  5
91F9
  8
AM_0
 10
438.1026242007876
 20
110.89912601219351
 30
0.0
 70
    32
  0
VERTEX
  5
91FA
  8
AM_0
 10
438.10662420078802
 20
110.8963260121935
 30
0.0
 70
    32
  0
VERTEX
  5
91FB
  8
AM_0
 10
438.10962420078772
 20
110.8935260121937
 30
0.0
 70
    32
  0
VERTEX
  5
91FC
  8
AM_0
 10
438.11262420078759
 20
110.8907260121938
 30
0.0
 70
    32
  0
VERTEX
  5
91FD
  8
AM_0
 10
438.11662420078773
 20
110.88802601219381
 30
0.0
 70
    32
  0
VERTEX
  5
91FE
  8
AM_0
 10
438.11962420078783
 20
110.8852260121933
 30
0.0
 70
    32
  0
VERTEX
  5
91FF
  8
AM_0
 10
438.12262420078781
 20
110.8825260121934
 30
0.0
 70
    32
  0
VERTEX
  5
9200
  8
AM_0
 10
438.12662420078789
 20
110.8797260121934
 30
0.0
 70
    32
  0
VERTEX
  5
9201
  8
AM_0
 10
438.12962420078782
 20
110.8770260121934
 30
0.0
 70
    32
  0
VERTEX
  5
9202
  8
AM_0
 10
438.13362420078761
 20
110.87432601219339
 30
0.0
 70
    32
  0
VERTEX
  5
9203
  8
AM_0
 10
438.13662420078742
 20
110.8716260121934
 30
0.0
 70
    32
  0
VERTEX
  5
9204
  8
AM_0
 10
438.13962420078781
 20
110.8689260121936
 30
0.0
 70
    32
  0
VERTEX
  5
9205
  8
AM_0
 10
438.14362420078783
 20
110.86622601219359
 30
0.0
 70
    32
  0
VERTEX
  5
9206
  8
AM_0
 10
438.14662420078781
 20
110.8635260121936
 30
0.0
 70
    32
  0
VERTEX
  5
9207
  8
AM_0
 10
438.1506242007876
 20
110.8609260121933
 30
0.0
 70
    32
  0
VERTEX
  5
9208
  8
AM_0
 10
438.15362420078799
 20
110.8582260121933
 30
0.0
 70
    32
  0
VERTEX
  5
9209
  8
AM_0
 10
438.15762420078789
 20
110.85552601219329
 30
0.0
 70
    32
  0
VERTEX
  5
920A
  8
AM_0
 10
438.16062420078759
 20
110.85292601219381
 30
0.0
 70
    32
  0
VERTEX
  5
920B
  8
AM_0
 10
438.16362420078781
 20
110.8503260121937
 30
0.0
 70
    32
  0
VERTEX
  5
920C
  8
AM_0
 10
438.16762420078783
 20
110.84772601219331
 30
0.0
 70
    32
  0
VERTEX
  5
920D
  8
AM_0
 10
438.17062420078781
 20
110.8450260121935
 30
0.0
 70
    32
  0
VERTEX
  5
920E
  8
AM_0
 10
438.17462420078789
 20
110.8424260121934
 30
0.0
 70
    32
  0
VERTEX
  5
920F
  8
AM_0
 10
438.17762420078782
 20
110.8398260121935
 30
0.0
 70
    32
  0
VERTEX
  5
9210
  8
AM_0
 10
438.18162420078761
 20
110.8373260121933
 30
0.0
 70
    32
  0
VERTEX
  5
9211
  8
AM_0
 10
438.18462420078788
 20
110.8347260121935
 30
0.0
 70
    32
  0
VERTEX
  5
9212
  8
AM_0
 10
438.1886242007879
 20
110.8321260121937
 30
0.0
 70
    32
  0
VERTEX
  5
9213
  8
AM_0
 10
438.1916242007876
 20
110.8296260121936
 30
0.0
 70
    32
  0
VERTEX
  5
9214
  8
AM_0
 10
438.1956242007879
 20
110.8270260121934
 30
0.0
 70
    32
  0
VERTEX
  5
9215
  8
AM_0
 10
438.19862420078789
 20
110.8245260121935
 30
0.0
 70
    32
  0
VERTEX
  5
9216
  8
AM_0
 10
438.20262420078802
 20
110.8219260121937
 30
0.0
 70
    32
  0
VERTEX
  5
9217
  8
AM_0
 10
438.20562420078761
 20
110.8194260121935
 30
0.0
 70
    32
  0
VERTEX
  5
9218
  8
AM_0
 10
438.20962420078757
 20
110.8169260121938
 30
0.0
 70
    32
  0
VERTEX
  5
9219
  8
AM_0
 10
438.21362420078799
 20
110.81442601219339
 30
0.0
 70
    32
  0
VERTEX
  5
921A
  8
AM_0
 10
438.21662420078798
 20
110.8119260121935
 30
0.0
 70
    32
  0
VERTEX
  5
921B
  8
AM_0
 10
438.22062420078788
 20
110.8094260121935
 30
0.0
 70
    32
  0
VERTEX
  5
921C
  8
AM_0
 10
438.22362420078781
 20
110.8069260121936
 30
0.0
 70
    32
  0
VERTEX
  5
921D
  8
AM_0
 10
438.2276242007876
 20
110.80452601219341
 30
0.0
 70
    32
  0
VERTEX
  5
921E
  8
AM_0
 10
438.23062420078782
 20
110.80202601219339
 30
0.0
 70
    32
  0
VERTEX
  5
921F
  8
AM_0
 10
438.23462420078761
 20
110.7996260121936
 30
0.0
 70
    32
  0
VERTEX
  5
9220
  8
AM_0
 10
438.2386242007878
 20
110.7971260121936
 30
0.0
 70
    32
  0
VERTEX
  5
9221
  8
AM_0
 10
438.24162420078761
 20
110.79472601219381
 30
0.0
 70
    32
  0
VERTEX
  5
9222
  8
AM_0
 10
438.24562420078757
 20
110.7923260121935
 30
0.0
 70
    32
  0
VERTEX
  5
9223
  8
AM_0
 10
438.24862420078762
 20
110.7898260121936
 30
0.0
 70
    32
  0
VERTEX
  5
9224
  8
AM_0
 10
438.25262420078781
 20
110.78742601219339
 30
0.0
 70
    32
  0
VERTEX
  5
9225
  8
AM_0
 10
438.2566242007876
 20
110.7850260121937
 30
0.0
 70
    32
  0
VERTEX
  5
9226
  8
AM_0
 10
438.25962420078781
 20
110.7826260121935
 30
0.0
 70
    32
  0
VERTEX
  5
9227
  8
AM_0
 10
438.26362420078789
 20
110.7802260121933
 30
0.0
 70
    32
  0
VERTEX
  5
9228
  8
AM_0
 10
438.26762420078762
 20
110.7779260121935
 30
0.0
 70
    32
  0
VERTEX
  5
9229
  8
AM_0
 10
438.27062420078761
 20
110.77552601219369
 30
0.0
 70
    32
  0
VERTEX
  5
922A
  8
AM_0
 10
438.27462420078763
 20
110.7731260121937
 30
0.0
 70
    32
  0
VERTEX
  5
922B
  8
AM_0
 10
438.27862420078787
 20
110.7708260121934
 30
0.0
 70
    32
  0
VERTEX
  5
922C
  8
AM_0
 10
438.28162420078758
 20
110.7684260121936
 30
0.0
 70
    32
  0
VERTEX
  5
922D
  8
AM_0
 10
438.28562420078782
 20
110.7661260121935
 30
0.0
 70
    32
  0
VERTEX
  5
922E
  8
AM_0
 10
438.28962420078801
 20
110.7638260121937
 30
0.0
 70
    32
  0
VERTEX
  5
922F
  8
AM_0
 10
438.29262420078783
 20
110.7615260121937
 30
0.0
 70
    32
  0
VERTEX
  5
9230
  8
AM_0
 10
438.29662420078762
 20
110.75922601219349
 30
0.0
 70
    32
  0
VERTEX
  5
9231
  8
AM_0
 10
438.30062420078781
 20
110.7568260121934
 30
0.0
 70
    32
  0
VERTEX
  5
9232
  8
AM_0
 10
438.30362420078802
 20
110.7546260121933
 30
0.0
 70
    32
  0
VERTEX
  5
9233
  8
AM_0
 10
438.30762420078798
 20
110.75232601219339
 30
0.0
 70
    32
  0
VERTEX
  5
9234
  8
AM_0
 10
438.31162420078772
 20
110.7500260121934
 30
0.0
 70
    32
  0
VERTEX
  5
9235
  8
AM_0
 10
438.31462420078759
 20
110.7477260121935
 30
0.0
 70
    32
  0
VERTEX
  5
9236
  8
AM_0
 10
438.31862420078789
 20
110.7454260121937
 30
0.0
 70
    32
  0
VERTEX
  5
9237
  8
AM_0
 10
438.3226242007878
 20
110.7432260121935
 30
0.0
 70
    32
  0
VERTEX
  5
9238
  8
AM_0
 10
438.32662420078782
 20
110.7409260121937
 30
0.0
 70
    32
  0
VERTEX
  5
9239
  8
AM_0
 10
438.3296242007878
 20
110.7387260121935
 30
0.0
 70
    32
  0
VERTEX
  5
923A
  8
AM_0
 10
438.3336242007876
 20
110.73652601219329
 30
0.0
 70
    32
  0
VERTEX
  5
923B
  8
AM_0
 10
438.33762420078767
 20
110.7342260121935
 30
0.0
 70
    32
  0
VERTEX
  5
923C
  8
AM_0
 10
438.3406242007876
 20
110.7320260121933
 30
0.0
 70
    32
  0
VERTEX
  5
923D
  8
AM_0
 10
438.34462420078768
 20
110.7298260121937
 30
0.0
 70
    32
  0
VERTEX
  5
923E
  8
AM_0
 10
438.34862420078758
 20
110.7276260121933
 30
0.0
 70
    32
  0
VERTEX
  5
923F
  8
AM_0
 10
438.3526242007876
 20
110.72542601219349
 30
0.0
 70
    32
  0
VERTEX
  5
9240
  8
AM_0
 10
438.35562420078759
 20
110.72322601219381
 30
0.0
 70
    32
  0
VERTEX
  5
9241
  8
AM_0
 10
438.35962420078761
 20
110.72112601219349
 30
0.0
 70
    32
  0
VERTEX
  5
9242
  8
AM_0
 10
438.36362420078763
 20
110.71892601219371
 30
0.0
 70
    32
  0
VERTEX
  5
9243
  8
AM_0
 10
438.36762420078759
 20
110.7167260121934
 30
0.0
 70
    32
  0
VERTEX
  5
9244
  8
AM_0
 10
438.37162420078789
 20
110.7146260121937
 30
0.0
 70
    32
  0
VERTEX
  5
9245
  8
AM_0
 10
438.37462420078788
 20
110.7124260121938
 30
0.0
 70
    32
  0
VERTEX
  5
9246
  8
AM_0
 10
438.37862420078761
 20
110.71032601219351
 30
0.0
 70
    32
  0
VERTEX
  5
9247
  8
AM_0
 10
438.38262420078757
 20
110.7081260121936
 30
0.0
 70
    32
  0
VERTEX
  5
9248
  8
AM_0
 10
438.38662420078759
 20
110.70602601219331
 30
0.0
 70
    32
  0
VERTEX
  5
9249
  8
AM_0
 10
438.38962420078792
 20
110.70392601219361
 30
0.0
 70
    32
  0
VERTEX
  5
924A
  8
AM_0
 10
438.39362420078783
 20
110.70182601219349
 30
0.0
 70
    32
  0
VERTEX
  5
924B
  8
AM_0
 10
438.39762420078762
 20
110.6997260121933
 30
0.0
 70
    32
  0
VERTEX
  5
924C
  8
AM_0
 10
438.40162420078781
 20
110.69762601219369
 30
0.0
 70
    32
  0
VERTEX
  5
924D
  8
AM_0
 10
438.40562420078788
 20
110.6955260121935
 30
0.0
 70
    32
  0
VERTEX
  5
924E
  8
AM_0
 10
438.4096242007879
 20
110.6934260121934
 30
0.0
 70
    32
  0
VERTEX
  5
924F
  8
AM_0
 10
438.41262420078789
 20
110.6913260121936
 30
0.0
 70
    32
  0
VERTEX
  5
9250
  8
AM_0
 10
438.41662420078791
 20
110.6893260121934
 30
0.0
 70
    32
  0
VERTEX
  5
9251
  8
AM_0
 10
438.42062420078781
 20
110.6872260121937
 30
0.0
 70
    32
  0
VERTEX
  5
9252
  8
AM_0
 10
438.42462420078789
 20
110.68512601219339
 30
0.0
 70
    32
  0
VERTEX
  5
9253
  8
AM_0
 10
438.42862420078768
 20
110.6831260121937
 30
0.0
 70
    32
  0
VERTEX
  5
9254
  8
AM_0
 10
438.43162420078761
 20
110.6810260121936
 30
0.0
 70
    32
  0
VERTEX
  5
9255
  8
AM_0
 10
438.4356242007878
 20
110.6790260121936
 30
0.0
 70
    32
  0
VERTEX
  5
9256
  8
AM_0
 10
438.43962420078759
 20
110.67702601219339
 30
0.0
 70
    32
  0
VERTEX
  5
9257
  8
AM_0
 10
438.44362420078789
 20
110.6750260121935
 30
0.0
 70
    32
  0
VERTEX
  5
9258
  8
AM_0
 10
438.44762420078769
 20
110.6730260121934
 30
0.0
 70
    32
  0
VERTEX
  5
9259
  8
AM_0
 10
438.45162420078782
 20
110.67102601219359
 30
0.0
 70
    32
  0
VERTEX
  5
925A
  8
AM_0
 10
438.45562420078761
 20
110.6690260121935
 30
0.0
 70
    32
  0
VERTEX
  5
925B
  8
AM_0
 10
438.4586242007876
 20
110.6670260121938
 30
0.0
 70
    32
  0
VERTEX
  5
925C
  8
AM_0
 10
438.46262420078762
 20
110.66502601219339
 30
0.0
 70
    32
  0
VERTEX
  5
925D
  8
AM_0
 10
438.46662420078792
 20
110.6630260121935
 30
0.0
 70
    32
  0
VERTEX
  5
925E
  8
AM_0
 10
438.4706242007876
 20
110.6610260121936
 30
0.0
 70
    32
  0
VERTEX
  5
925F
  8
AM_0
 10
438.47462420078762
 20
110.6591260121935
 30
0.0
 70
    32
  0
VERTEX
  5
9260
  8
AM_0
 10
438.47862420078758
 20
110.6571260121937
 30
0.0
 70
    32
  0
VERTEX
  5
9261
  8
AM_0
 10
438.48262420078788
 20
110.6552260121933
 30
0.0
 70
    32
  0
VERTEX
  5
9262
  8
AM_0
 10
438.4866242007879
 20
110.6532260121933
 30
0.0
 70
    32
  0
VERTEX
  5
9263
  8
AM_0
 10
438.49062420078792
 20
110.65132601219349
 30
0.0
 70
    32
  0
VERTEX
  5
9264
  8
AM_0
 10
438.49362420078802
 20
110.6494260121937
 30
0.0
 70
    32
  0
VERTEX
  5
9265
  8
AM_0
 10
438.49762420078758
 20
110.64742601219361
 30
0.0
 70
    32
  0
VERTEX
  5
9266
  8
AM_0
 10
438.50162420078789
 20
110.6455260121935
 30
0.0
 70
    32
  0
VERTEX
  5
9267
  8
AM_0
 10
438.50562420078762
 20
110.64362601219349
 30
0.0
 70
    32
  0
VERTEX
  5
9268
  8
AM_0
 10
438.50962420078781
 20
110.6417260121934
 30
0.0
 70
    32
  0
VERTEX
  5
9269
  8
AM_0
 10
438.5136242007876
 20
110.63982601219369
 30
0.0
 70
    32
  0
VERTEX
  5
926A
  8
AM_0
 10
438.51762420078768
 20
110.6379260121934
 30
0.0
 70
    32
  0
VERTEX
  5
926B
  8
AM_0
 10
438.52162420078758
 20
110.6361260121933
 30
0.0
 70
    32
  0
VERTEX
  5
926C
  8
AM_0
 10
438.5256242007876
 20
110.63422601219369
 30
0.0
 70
    32
  0
VERTEX
  5
926D
  8
AM_0
 10
438.52962420078768
 20
110.6323260121937
 30
0.0
 70
    32
  0
VERTEX
  5
926E
  8
AM_0
 10
438.53362420078781
 20
110.6305260121936
 30
0.0
 70
    32
  0
VERTEX
  5
926F
  8
AM_0
 10
438.5366242007878
 20
110.62862601219349
 30
0.0
 70
    32
  0
VERTEX
  5
9270
  8
AM_0
 10
438.54062420078799
 20
110.6268260121936
 30
0.0
 70
    32
  0
VERTEX
  5
9271
  8
AM_0
 10
438.54462420078789
 20
110.6249260121937
 30
0.0
 70
    32
  0
VERTEX
  5
9272
  8
AM_0
 10
438.54862420078769
 20
110.6231260121934
 30
0.0
 70
    32
  0
VERTEX
  5
9273
  8
AM_0
 10
438.55262420078782
 20
110.62132601219351
 30
0.0
 70
    32
  0
VERTEX
  5
9274
  8
AM_0
 10
438.55662420078761
 20
110.6194260121935
 30
0.0
 70
    32
  0
VERTEX
  5
9275
  8
AM_0
 10
438.56062420078757
 20
110.6176260121935
 30
0.0
 70
    32
  0
VERTEX
  5
9276
  8
AM_0
 10
438.56462420078759
 20
110.6158260121933
 30
0.0
 70
    32
  0
VERTEX
  5
9277
  8
AM_0
 10
438.56862420078789
 20
110.61402601219351
 30
0.0
 70
    32
  0
VERTEX
  5
9278
  8
AM_0
 10
438.57262420078757
 20
110.6122260121935
 30
0.0
 70
    32
  0
VERTEX
  5
9279
  8
AM_0
 10
438.57662420078782
 20
110.6104260121933
 30
0.0
 70
    32
  0
VERTEX
  5
927A
  8
AM_0
 10
438.58062420078761
 20
110.6087260121934
 30
0.0
 70
    32
  0
VERTEX
  5
927B
  8
AM_0
 10
438.58462420078757
 20
110.6069260121934
 30
0.0
 70
    32
  0
VERTEX
  5
927C
  8
AM_0
 10
438.58862420078771
 20
110.6051260121934
 30
0.0
 70
    32
  0
VERTEX
  5
927D
  8
AM_0
 10
438.59262420078761
 20
110.60332601219341
 30
0.0
 70
    32
  0
VERTEX
  5
927E
  8
AM_0
 10
438.5966242007878
 20
110.60162601219351
 30
0.0
 70
    32
  0
VERTEX
  5
927F
  8
AM_0
 10
438.60062420078782
 20
110.5998260121936
 30
0.0
 70
    32
  0
VERTEX
  5
9280
  8
AM_0
 10
438.60462420078773
 20
110.5981260121936
 30
0.0
 70
    32
  0
VERTEX
  5
9281
  8
AM_0
 10
438.6086242007878
 20
110.5964260121937
 30
0.0
 70
    32
  0
VERTEX
  5
9282
  8
AM_0
 10
438.61262420078759
 20
110.5946260121935
 30
0.0
 70
    32
  0
VERTEX
  5
9283
  8
AM_0
 10
438.61662420078773
 20
110.5929260121933
 30
0.0
 70
    32
  0
VERTEX
  5
9284
  8
AM_0
 10
438.6206242007878
 20
110.5912260121937
 30
0.0
 70
    32
  0
VERTEX
  5
9285
  8
AM_0
 10
438.62462420078799
 20
110.5895260121939
 30
0.0
 70
    32
  0
VERTEX
  5
9286
  8
AM_0
 10
438.62862420078761
 20
110.5878260121937
 30
0.0
 70
    32
  0
VERTEX
  5
9287
  8
AM_0
 10
438.63262420078757
 20
110.5861260121933
 30
0.0
 70
    32
  0
VERTEX
  5
9288
  8
AM_0
 10
438.63662420078759
 20
110.5844260121934
 30
0.0
 70
    32
  0
VERTEX
  5
9289
  8
AM_0
 10
438.64062420078761
 20
110.5827260121939
 30
0.0
 70
    32
  0
VERTEX
  5
928A
  8
AM_0
 10
438.64462420078792
 20
110.5810260121937
 30
0.0
 70
    32
  0
VERTEX
  5
928B
  8
AM_0
 10
438.64862420078782
 20
110.5793260121935
 30
0.0
 70
    32
  0
VERTEX
  5
928C
  8
AM_0
 10
438.65262420078761
 20
110.5776260121937
 30
0.0
 70
    32
  0
VERTEX
  5
928D
  8
AM_0
 10
438.65662420078758
 20
110.57602601219359
 30
0.0
 70
    32
  0
VERTEX
  5
928E
  8
AM_0
 10
438.66062420078759
 20
110.5743260121935
 30
0.0
 70
    32
  0
VERTEX
  5
928F
  8
AM_0
 10
438.6646242007879
 20
110.5727260121934
 30
0.0
 70
    32
  0
VERTEX
  5
9290
  8
AM_0
 10
438.66862420078758
 20
110.5710260121938
 30
0.0
 70
    32
  0
VERTEX
  5
9291
  8
AM_0
 10
438.67262420078782
 20
110.5694260121935
 30
0.0
 70
    32
  0
VERTEX
  5
9292
  8
AM_0
 10
438.6766242007879
 20
110.5677260121936
 30
0.0
 70
    32
  0
VERTEX
  5
9293
  8
AM_0
 10
438.68062420078758
 20
110.56612601219349
 30
0.0
 70
    32
  0
VERTEX
  5
9294
  8
AM_0
 10
438.68462420078788
 20
110.5645260121934
 30
0.0
 70
    32
  0
VERTEX
  5
9295
  8
AM_0
 10
438.68862420078761
 20
110.5629260121938
 30
0.0
 70
    32
  0
VERTEX
  5
9296
  8
AM_0
 10
438.6926242007878
 20
110.5612260121935
 30
0.0
 70
    32
  0
VERTEX
  5
9297
  8
AM_0
 10
438.69662420078782
 20
110.5596260121935
 30
0.0
 70
    32
  0
VERTEX
  5
9298
  8
AM_0
 10
438.70062420078767
 20
110.55802601219349
 30
0.0
 70
    32
  0
VERTEX
  5
9299
  8
AM_0
 10
438.7046242007878
 20
110.5564260121937
 30
0.0
 70
    32
  0
VERTEX
  5
929A
  8
AM_0
 10
438.7086242007876
 20
110.5549260121936
 30
0.0
 70
    32
  0
VERTEX
  5
929B
  8
AM_0
 10
438.71262420078767
 20
110.55332601219349
 30
0.0
 70
    32
  0
VERTEX
  5
929C
  8
AM_0
 10
438.71662420078781
 20
110.5517260121936
 30
0.0
 70
    32
  0
VERTEX
  5
929D
  8
AM_0
 10
438.72062420078788
 20
110.5501260121936
 30
0.0
 70
    32
  0
VERTEX
  5
929E
  8
AM_0
 10
438.72462420078767
 20
110.54862601219369
 30
0.0
 70
    32
  0
VERTEX
  5
929F
  8
AM_0
 10
438.72862420078781
 20
110.5470260121935
 30
0.0
 70
    32
  0
VERTEX
  5
92A0
  8
AM_0
 10
438.73362420078757
 20
110.5454260121936
 30
0.0
 70
    32
  0
VERTEX
  5
92A1
  8
AM_0
 10
438.73762420078759
 20
110.5439260121933
 30
0.0
 70
    32
  0
VERTEX
  5
92A2
  8
AM_0
 10
438.74162420078761
 20
110.5424260121935
 30
0.0
 70
    32
  0
VERTEX
  5
92A3
  8
AM_0
 10
438.74562420078757
 20
110.54082601219351
 30
0.0
 70
    32
  0
VERTEX
  5
92A4
  8
AM_0
 10
438.74962420078799
 20
110.5393260121937
 30
0.0
 70
    32
  0
VERTEX
  5
92A5
  8
AM_0
 10
438.75362420078761
 20
110.53782601219361
 30
0.0
 70
    32
  0
VERTEX
  5
92A6
  8
AM_0
 10
438.75762420078757
 20
110.5362260121934
 30
0.0
 70
    32
  0
VERTEX
  5
92A7
  8
AM_0
 10
438.76162420078759
 20
110.5347260121935
 30
0.0
 70
    32
  0
VERTEX
  5
92A8
  8
AM_0
 10
438.76562420078761
 20
110.53322601219379
 30
0.0
 70
    32
  0
VERTEX
  5
92A9
  8
AM_0
 10
438.76962420078792
 20
110.5317260121934
 30
0.0
 70
    32
  0
VERTEX
  5
92AA
  8
AM_0
 10
438.77362420078782
 20
110.53022601219349
 30
0.0
 70
    32
  0
VERTEX
  5
92AB
  8
AM_0
 10
438.77762420078761
 20
110.5287260121937
 30
0.0
 70
    32
  0
VERTEX
  5
92AC
  8
AM_0
 10
438.7816242007878
 20
110.5272260121934
 30
0.0
 70
    32
  0
VERTEX
  5
92AD
  8
AM_0
 10
438.78562420078771
 20
110.5258260121937
 30
0.0
 70
    32
  0
VERTEX
  5
92AE
  8
AM_0
 10
438.79062420078787
 20
110.5243260121936
 30
0.0
 70
    32
  0
VERTEX
  5
92AF
  8
AM_0
 10
438.79462420078772
 20
110.52282601219351
 30
0.0
 70
    32
  0
VERTEX
  5
92B0
  8
AM_0
 10
438.79862420078803
 20
110.5213260121935
 30
0.0
 70
    32
  0
VERTEX
  5
92B1
  8
AM_0
 10
438.80262420078782
 20
110.51992601219339
 30
0.0
 70
    32
  0
VERTEX
  5
92B2
  8
AM_0
 10
438.80662420078772
 20
110.5184260121939
 30
0.0
 70
    32
  0
VERTEX
  5
92B3
  8
AM_0
 10
438.8106242007878
 20
110.5170260121937
 30
0.0
 70
    32
  0
VERTEX
  5
92B4
  8
AM_0
 10
438.81462420078759
 20
110.51552601219331
 30
0.0
 70
    32
  0
VERTEX
  5
92B5
  8
AM_0
 10
438.81862420078789
 20
110.5141260121935
 30
0.0
 70
    32
  0
VERTEX
  5
92B6
  8
AM_0
 10
438.82262420078791
 20
110.5127260121934
 30
0.0
 70
    32
  0
VERTEX
  5
92B7
  8
AM_0
 10
438.82662420078759
 20
110.51132601219339
 30
0.0
 70
    32
  0
VERTEX
  5
92B8
  8
AM_0
 10
438.83162420078759
 20
110.5098260121939
 30
0.0
 70
    32
  0
VERTEX
  5
92B9
  8
AM_0
 10
438.83562420078761
 20
110.5084260121935
 30
0.0
 70
    32
  0
VERTEX
  5
92BA
  8
AM_0
 10
438.83962420078768
 20
110.50702601219351
 30
0.0
 70
    32
  0
VERTEX
  5
92BB
  8
AM_0
 10
438.84362420078759
 20
110.5056260121934
 30
0.0
 70
    32
  0
VERTEX
  5
92BC
  8
AM_0
 10
438.84762420078789
 20
110.5042260121934
 30
0.0
 70
    32
  0
VERTEX
  5
92BD
  8
AM_0
 10
438.85162420078763
 20
110.5028260121933
 30
0.0
 70
    32
  0
VERTEX
  5
92BE
  8
AM_0
 10
438.85562420078759
 20
110.50142601219341
 30
0.0
 70
    32
  0
VERTEX
  5
92BF
  8
AM_0
 10
438.85962420078789
 20
110.5000260121936
 30
0.0
 70
    32
  0
VERTEX
  5
92C0
  8
AM_0
 10
438.86362420078763
 20
110.4987260121933
 30
0.0
 70
    32
  0
VERTEX
  5
92C1
  8
AM_0
 10
438.86862420078762
 20
110.4973260121935
 30
0.0
 70
    32
  0
VERTEX
  5
92C2
  8
AM_0
 10
438.87262420078758
 20
110.49592601219361
 30
0.0
 70
    32
  0
VERTEX
  5
92C3
  8
AM_0
 10
438.87662420078789
 20
110.49462601219351
 30
0.0
 70
    32
  0
VERTEX
  5
92C4
  8
AM_0
 10
438.88062420078802
 20
110.4932260121937
 30
0.0
 70
    32
  0
VERTEX
  5
92C5
  8
AM_0
 10
438.88462420078781
 20
110.4919260121935
 30
0.0
 70
    32
  0
VERTEX
  5
92C6
  8
AM_0
 10
438.88862420078772
 20
110.4905260121936
 30
0.0
 70
    32
  0
VERTEX
  5
92C7
  8
AM_0
 10
438.89262420078762
 20
110.4892260121935
 30
0.0
 70
    32
  0
VERTEX
  5
92C8
  8
AM_0
 10
438.8976242007879
 20
110.4879260121935
 30
0.0
 70
    32
  0
VERTEX
  5
92C9
  8
AM_0
 10
438.90162420078781
 20
110.48652601219349
 30
0.0
 70
    32
  0
VERTEX
  5
92CA
  8
AM_0
 10
438.90562420078788
 20
110.48522601219371
 30
0.0
 70
    32
  0
VERTEX
  5
92CB
  8
AM_0
 10
438.90962420078768
 20
110.48392601219339
 30
0.0
 70
    32
  0
VERTEX
  5
92CC
  8
AM_0
 10
438.91362420078781
 20
110.48262601219351
 30
0.0
 70
    32
  0
VERTEX
  5
92CD
  8
AM_0
 10
438.91762420078783
 20
110.4813260121937
 30
0.0
 70
    32
  0
VERTEX
  5
92CE
  8
AM_0
 10
438.92162420078768
 20
110.4800260121937
 30
0.0
 70
    32
  0
VERTEX
  5
92CF
  8
AM_0
 10
438.92662420078761
 20
110.47872601219341
 30
0.0
 70
    32
  0
VERTEX
  5
92D0
  8
AM_0
 10
438.93062420078758
 20
110.4774260121936
 30
0.0
 70
    32
  0
VERTEX
  5
92D1
  8
AM_0
 10
438.93462420078788
 20
110.4761260121936
 30
0.0
 70
    32
  0
VERTEX
  5
92D2
  8
AM_0
 10
438.93862420078761
 20
110.4748260121935
 30
0.0
 70
    32
  0
VERTEX
  5
92D3
  8
AM_0
 10
438.9426242007878
 20
110.4735260121935
 30
0.0
 70
    32
  0
VERTEX
  5
92D4
  8
AM_0
 10
438.94662420078782
 20
110.4723260121937
 30
0.0
 70
    32
  0
VERTEX
  5
92D5
  8
AM_0
 10
438.95062420078762
 20
110.47102601219351
 30
0.0
 70
    32
  0
VERTEX
  5
92D6
  8
AM_0
 10
438.95562420078761
 20
110.46972601219341
 30
0.0
 70
    32
  0
VERTEX
  5
92D7
  8
AM_0
 10
438.95962420078757
 20
110.46852601219349
 30
0.0
 70
    32
  0
VERTEX
  5
92D8
  8
AM_0
 10
438.96362420078788
 20
110.46722601219351
 30
0.0
 70
    32
  0
VERTEX
  5
92D9
  8
AM_0
 10
438.9676242007879
 20
110.4660260121935
 30
0.0
 70
    32
  0
VERTEX
  5
92DA
  8
AM_0
 10
438.97162420078757
 20
110.46472601219349
 30
0.0
 70
    32
  0
VERTEX
  5
92DB
  8
AM_0
 10
438.97562420078759
 20
110.4635260121936
 30
0.0
 70
    32
  0
VERTEX
  5
92DC
  8
AM_0
 10
438.98062420078759
 20
110.4623260121933
 30
0.0
 70
    32
  0
VERTEX
  5
92DD
  8
AM_0
 10
438.98462420078761
 20
110.4610260121934
 30
0.0
 70
    32
  0
VERTEX
  5
92DE
  8
AM_0
 10
438.9886242007878
 20
110.4598260121938
 30
0.0
 70
    32
  0
VERTEX
  5
92DF
  8
AM_0
 10
438.99262420078759
 20
110.4586260121936
 30
0.0
 70
    32
  0
VERTEX
  5
92E0
  8
AM_0
 10
438.99662420078772
 20
110.45742601219339
 30
0.0
 70
    32
  0
VERTEX
  5
92E1
  8
AM_0
 10
439.0006242007878
 20
110.4562260121937
 30
0.0
 70
    32
  0
VERTEX
  5
92E2
  8
AM_0
 10
439.00562420078791
 20
110.4550260121937
 30
0.0
 70
    32
  0
VERTEX
  5
92E3
  8
AM_0
 10
439.00962420078758
 20
110.4538260121934
 30
0.0
 70
    32
  0
VERTEX
  5
92E4
  8
AM_0
 10
439.0136242007876
 20
110.4526260121937
 30
0.0
 70
    32
  0
VERTEX
  5
92E5
  8
AM_0
 10
439.01762420078768
 20
110.45142601219349
 30
0.0
 70
    32
  0
VERTEX
  5
92E6
  8
AM_0
 10
439.02162420078781
 20
110.4502260121934
 30
0.0
 70
    32
  0
VERTEX
  5
92E7
  8
AM_0
 10
439.02662420078758
 20
110.4490260121937
 30
0.0
 70
    32
  0
VERTEX
  5
92E8
  8
AM_0
 10
439.03062420078788
 20
110.44792601219341
 30
0.0
 70
    32
  0
VERTEX
  5
92E9
  8
AM_0
 10
439.03462420078762
 20
110.44672601219359
 30
0.0
 70
    32
  0
VERTEX
  5
92EA
  8
AM_0
 10
439.03862420078781
 20
110.4455260121936
 30
0.0
 70
    32
  0
VERTEX
  5
92EB
  8
AM_0
 10
439.04262420078788
 20
110.4444260121936
 30
0.0
 70
    32
  0
VERTEX
  5
92EC
  8
AM_0
 10
439.04662420078762
 20
110.44322601219361
 30
0.0
 70
    32
  0
VERTEX
  5
92ED
  8
AM_0
 10
439.05162420078761
 20
110.4421260121934
 30
0.0
 70
    32
  0
VERTEX
  5
92EE
  8
AM_0
 10
439.05562420078758
 20
110.4409260121937
 30
0.0
 70
    32
  0
VERTEX
  5
92EF
  8
AM_0
 10
439.05962420078788
 20
110.43982601219339
 30
0.0
 70
    32
  0
VERTEX
  5
92F0
  8
AM_0
 10
439.06362420078761
 20
110.4386260121935
 30
0.0
 70
    32
  0
VERTEX
  5
92F1
  8
AM_0
 10
439.06762420078758
 20
110.4375260121934
 30
0.0
 70
    32
  0
VERTEX
  5
92F2
  8
AM_0
 10
439.07262420078729
 20
110.43642601219371
 30
0.0
 70
    32
  0
VERTEX
  5
92F3
  8
AM_0
 10
439.07662420078771
 20
110.4353260121935
 30
0.0
 70
    32
  0
VERTEX
  5
92F4
  8
AM_0
 10
439.08062420078761
 20
110.4341260121935
 30
0.0
 70
    32
  0
VERTEX
  5
92F5
  8
AM_0
 10
439.0846242007878
 20
110.43302601219339
 30
0.0
 70
    32
  0
VERTEX
  5
92F6
  8
AM_0
 10
439.08862420078788
 20
110.4319260121938
 30
0.0
 70
    32
  0
VERTEX
  5
92F7
  8
AM_0
 10
439.09362420078759
 20
110.43082601219351
 30
0.0
 70
    32
  0
VERTEX
  5
92F8
  8
AM_0
 10
439.09762420078789
 20
110.4297260121937
 30
0.0
 70
    32
  0
VERTEX
  5
92F9
  8
AM_0
 10
439.1016242007878
 20
110.4286260121934
 30
0.0
 70
    32
  0
VERTEX
  5
92FA
  8
AM_0
 10
439.10562420078782
 20
110.4275260121935
 30
0.0
 70
    32
  0
VERTEX
  5
92FB
  8
AM_0
 10
439.11062420078781
 20
110.4265260121938
 30
0.0
 70
    32
  0
VERTEX
  5
92FC
  8
AM_0
 10
439.1146242007876
 20
110.4254260121937
 30
0.0
 70
    32
  0
VERTEX
  5
92FD
  8
AM_0
 10
439.11862420078768
 20
110.4243260121935
 30
0.0
 70
    32
  0
VERTEX
  5
92FE
  8
AM_0
 10
439.12262420078781
 20
110.4232260121934
 30
0.0
 70
    32
  0
VERTEX
  5
92FF
  8
AM_0
 10
439.12662420078789
 20
110.42222601219341
 30
0.0
 70
    32
  0
VERTEX
  5
9300
  8
AM_0
 10
439.1316242007876
 20
110.4211260121937
 30
0.0
 70
    32
  0
VERTEX
  5
9301
  8
AM_0
 10
439.1356242007879
 20
110.42012601219351
 30
0.0
 70
    32
  0
VERTEX
  5
9302
  8
AM_0
 10
439.13962420078781
 20
110.4190260121935
 30
0.0
 70
    32
  0
VERTEX
  5
9303
  8
AM_0
 10
439.14362420078783
 20
110.41802601219349
 30
0.0
 70
    32
  0
VERTEX
  5
9304
  8
AM_0
 10
439.1476242007879
 20
110.4169260121934
 30
0.0
 70
    32
  0
VERTEX
  5
9305
  8
AM_0
 10
439.15262420078761
 20
110.4159260121934
 30
0.0
 70
    32
  0
VERTEX
  5
9306
  8
AM_0
 10
439.15662420078758
 20
110.4149260121935
 30
0.0
 70
    32
  0
VERTEX
  5
9307
  8
AM_0
 10
439.16062420078782
 20
110.4138260121936
 30
0.0
 70
    32
  0
VERTEX
  5
9308
  8
AM_0
 10
439.1646242007879
 20
110.41282601219351
 30
0.0
 70
    32
  0
VERTEX
  5
9309
  8
AM_0
 10
439.16962420078801
 20
110.4118260121935
 30
0.0
 70
    32
  0
VERTEX
  5
930A
  8
AM_0
 10
439.17362420078791
 20
110.4108260121935
 30
0.0
 70
    32
  0
VERTEX
  5
930B
  8
AM_0
 10
439.17762420078759
 20
110.4098260121938
 30
0.0
 70
    32
  0
VERTEX
  5
930C
  8
AM_0
 10
439.18162420078761
 20
110.4088260121933
 30
0.0
 70
    32
  0
VERTEX
  5
930D
  8
AM_0
 10
439.18562420078757
 20
110.4078260121935
 30
0.0
 70
    32
  0
VERTEX
  5
930E
  8
AM_0
 10
439.19062420078762
 20
110.40682601219351
 30
0.0
 70
    32
  0
VERTEX
  5
930F
  8
AM_0
 10
439.19462420078742
 20
110.4058260121937
 30
0.0
 70
    32
  0
VERTEX
  5
9310
  8
AM_0
 10
439.19862420078772
 20
110.40482601219369
 30
0.0
 70
    32
  0
VERTEX
  5
9311
  8
AM_0
 10
439.20262420078791
 20
110.40392601219369
 30
0.0
 70
    32
  0
VERTEX
  5
9312
  8
AM_0
 10
439.20762420078768
 20
110.4029260121935
 30
0.0
 70
    32
  0
VERTEX
  5
9313
  8
AM_0
 10
439.21162420078798
 20
110.4019260121937
 30
0.0
 70
    32
  0
VERTEX
  5
9314
  8
AM_0
 10
439.2156242007876
 20
110.4010260121937
 30
0.0
 70
    32
  0
VERTEX
  5
9315
  8
AM_0
 10
439.21962420078768
 20
110.40002601219361
 30
0.0
 70
    32
  0
VERTEX
  5
9316
  8
AM_0
 10
439.22462420078762
 20
110.3990260121938
 30
0.0
 70
    32
  0
VERTEX
  5
9317
  8
AM_0
 10
439.22862420078781
 20
110.3981260121938
 30
0.0
 70
    32
  0
VERTEX
  5
9318
  8
AM_0
 10
439.23262420078788
 20
110.3971260121933
 30
0.0
 70
    32
  0
VERTEX
  5
9319
  8
AM_0
 10
439.23662420078762
 20
110.3962260121933
 30
0.0
 70
    32
  0
VERTEX
  5
931A
  8
AM_0
 10
439.24162420078733
 20
110.39532601219339
 30
0.0
 70
    32
  0
VERTEX
  5
931B
  8
AM_0
 10
439.24562420078792
 20
110.3943260121937
 30
0.0
 70
    32
  0
VERTEX
  5
931C
  8
AM_0
 10
439.24962420078788
 20
110.3934260121936
 30
0.0
 70
    32
  0
VERTEX
  5
931D
  8
AM_0
 10
439.25362420078761
 20
110.3925260121936
 30
0.0
 70
    32
  0
VERTEX
  5
931E
  8
AM_0
 10
439.25862420078761
 20
110.3916260121936
 30
0.0
 70
    32
  0
VERTEX
  5
931F
  8
AM_0
 10
439.26262420078763
 20
110.3907260121935
 30
0.0
 70
    32
  0
VERTEX
  5
9320
  8
AM_0
 10
439.26662420078759
 20
110.38982601219359
 30
0.0
 70
    32
  0
VERTEX
  5
9321
  8
AM_0
 10
439.27062420078761
 20
110.38892601219359
 30
0.0
 70
    32
  0
VERTEX
  5
9322
  8
AM_0
 10
439.2756242007876
 20
110.38802601219351
 30
0.0
 70
    32
  0
VERTEX
  5
9323
  8
AM_0
 10
439.27962420078762
 20
110.3871260121936
 30
0.0
 70
    32
  0
VERTEX
  5
9324
  8
AM_0
 10
439.28362420078781
 20
110.3862260121936
 30
0.0
 70
    32
  0
VERTEX
  5
9325
  8
AM_0
 10
439.28762420078789
 20
110.3853260121936
 30
0.0
 70
    32
  0
VERTEX
  5
9326
  8
AM_0
 10
439.29262420078783
 20
110.3844260121936
 30
0.0
 70
    32
  0
VERTEX
  5
9327
  8
AM_0
 10
439.29662420078768
 20
110.3835260121936
 30
0.0
 70
    32
  0
VERTEX
  5
9328
  8
AM_0
 10
439.30062420078781
 20
110.3827260121934
 30
0.0
 70
    32
  0
VERTEX
  5
9329
  8
AM_0
 10
439.3046242007876
 20
110.3818260121934
 30
0.0
 70
    32
  0
VERTEX
  5
932A
  8
AM_0
 10
439.30962420078788
 20
110.3809260121934
 30
0.0
 70
    32
  0
VERTEX
  5
932B
  8
AM_0
 10
439.31362420078767
 20
110.3801260121938
 30
0.0
 70
    32
  0
VERTEX
  5
932C
  8
AM_0
 10
439.31762420078758
 20
110.3792260121937
 30
0.0
 70
    32
  0
VERTEX
  5
932D
  8
AM_0
 10
439.3216242007876
 20
110.3784260121936
 30
0.0
 70
    32
  0
VERTEX
  5
932E
  8
AM_0
 10
439.32662420078782
 20
110.3775260121937
 30
0.0
 70
    32
  0
VERTEX
  5
932F
  8
AM_0
 10
439.33062420078761
 20
110.3767260121935
 30
0.0
 70
    32
  0
VERTEX
  5
9330
  8
AM_0
 10
439.33462420078769
 20
110.3758260121935
 30
0.0
 70
    32
  0
VERTEX
  5
9331
  8
AM_0
 10
439.33862420078788
 20
110.3750260121934
 30
0.0
 70
    32
  0
VERTEX
  5
9332
  8
AM_0
 10
439.34362420078759
 20
110.3742260121935
 30
0.0
 70
    32
  0
VERTEX
  5
9333
  8
AM_0
 10
439.34762420078789
 20
110.3734260121937
 30
0.0
 70
    32
  0
VERTEX
  5
9334
  8
AM_0
 10
439.35162420078763
 20
110.3725260121936
 30
0.0
 70
    32
  0
VERTEX
  5
9335
  8
AM_0
 10
439.35662420078791
 20
110.37172601219351
 30
0.0
 70
    32
  0
VERTEX
  5
9336
  8
AM_0
 10
439.36062420078758
 20
110.37092601219349
 30
0.0
 70
    32
  0
VERTEX
  5
9337
  8
AM_0
 10
439.3646242007876
 20
110.37012601219359
 30
0.0
 70
    32
  0
VERTEX
  5
9338
  8
AM_0
 10
439.36862420078802
 20
110.3693260121937
 30
0.0
 70
    32
  0
VERTEX
  5
9339
  8
AM_0
 10
439.37362420078762
 20
110.3685260121936
 30
0.0
 70
    32
  0
VERTEX
  5
933A
  8
AM_0
 10
439.37762420078781
 20
110.3677260121934
 30
0.0
 70
    32
  0
VERTEX
  5
933B
  8
AM_0
 10
439.38162420078771
 20
110.3669260121934
 30
0.0
 70
    32
  0
VERTEX
  5
933C
  8
AM_0
 10
439.3856242007879
 20
110.3661260121937
 30
0.0
 70
    32
  0
VERTEX
  5
933D
  8
AM_0
 10
439.39062420078773
 20
110.36532601219361
 30
0.0
 70
    32
  0
VERTEX
  5
933E
  8
AM_0
 10
439.39462420078797
 20
110.3646260121935
 30
0.0
 70
    32
  0
VERTEX
  5
933F
  8
AM_0
 10
439.39862420078782
 20
110.3638260121936
 30
0.0
 70
    32
  0
VERTEX
  5
9340
  8
AM_0
 10
439.40362420078799
 20
110.3630260121936
 30
0.0
 70
    32
  0
VERTEX
  5
9341
  8
AM_0
 10
439.40762420078761
 20
110.3622260121936
 30
0.0
 70
    32
  0
VERTEX
  5
9342
  8
AM_0
 10
439.4116242007878
 20
110.36152601219339
 30
0.0
 70
    32
  0
VERTEX
  5
9343
  8
AM_0
 10
439.41562420078799
 20
110.3607260121935
 30
0.0
 70
    32
  0
VERTEX
  5
9344
  8
AM_0
 10
439.42062420078781
 20
110.3600260121934
 30
0.0
 70
    32
  0
VERTEX
  5
9345
  8
AM_0
 10
439.42462420078789
 20
110.3592260121935
 30
0.0
 70
    32
  0
VERTEX
  5
9346
  8
AM_0
 10
439.42862420078762
 20
110.35852601219359
 30
0.0
 70
    32
  0
VERTEX
  5
9347
  8
AM_0
 10
439.43362420078762
 20
110.35772601219369
 30
0.0
 70
    32
  0
VERTEX
  5
9348
  8
AM_0
 10
439.43762420078781
 20
110.3570260121933
 30
0.0
 70
    32
  0
VERTEX
  5
9349
  8
AM_0
 10
439.4416242007876
 20
110.3563260121939
 30
0.0
 70
    32
  0
VERTEX
  5
934A
  8
AM_0
 10
439.4456242007879
 20
110.35552601219339
 30
0.0
 70
    32
  0
VERTEX
  5
934B
  8
AM_0
 10
439.45062420078762
 20
110.3548260121937
 30
0.0
 70
    32
  0
VERTEX
  5
934C
  8
AM_0
 10
439.45462420078758
 20
110.3541260121935
 30
0.0
 70
    32
  0
VERTEX
  5
934D
  8
AM_0
 10
439.45862420078782
 20
110.3534260121934
 30
0.0
 70
    32
  0
VERTEX
  5
934E
  8
AM_0
 10
439.46362420078759
 20
110.3526260121935
 30
0.0
 70
    32
  0
VERTEX
  5
934F
  8
AM_0
 10
439.46762420078761
 20
110.3519260121934
 30
0.0
 70
    32
  0
VERTEX
  5
9350
  8
AM_0
 10
439.4716242007878
 20
110.35122601219371
 30
0.0
 70
    32
  0
VERTEX
  5
9351
  8
AM_0
 10
439.47562420078782
 20
110.3505260121935
 30
0.0
 70
    32
  0
VERTEX
  5
9352
  8
AM_0
 10
439.48062420078759
 20
110.3498260121934
 30
0.0
 70
    32
  0
VERTEX
  5
9353
  8
AM_0
 10
439.48462420078772
 20
110.34912601219369
 30
0.0
 70
    32
  0
VERTEX
  5
9354
  8
AM_0
 10
439.4886242007878
 20
110.3484260121935
 30
0.0
 70
    32
  0
VERTEX
  5
9355
  8
AM_0
 10
439.49362420078791
 20
110.34782601219349
 30
0.0
 70
    32
  0
VERTEX
  5
9356
  8
AM_0
 10
439.49762420078758
 20
110.3471260121935
 30
0.0
 70
    32
  0
VERTEX
  5
9357
  8
AM_0
 10
439.50162420078789
 20
110.3464260121937
 30
0.0
 70
    32
  0
VERTEX
  5
9358
  8
AM_0
 10
439.50562420078768
 20
110.34572601219369
 30
0.0
 70
    32
  0
VERTEX
  5
9359
  8
AM_0
 10
439.51062420078779
 20
110.3450260121937
 30
0.0
 70
    32
  0
VERTEX
  5
935A
  8
AM_0
 10
439.51462420078792
 20
110.3444260121934
 30
0.0
 70
    32
  0
VERTEX
  5
935B
  8
AM_0
 10
439.51862420078783
 20
110.3437260121935
 30
0.0
 70
    32
  0
VERTEX
  5
935C
  8
AM_0
 10
439.52362420078788
 20
110.34312601219359
 30
0.0
 70
    32
  0
VERTEX
  5
935D
  8
AM_0
 10
439.52762420078761
 20
110.3424260121936
 30
0.0
 70
    32
  0
VERTEX
  5
935E
  8
AM_0
 10
439.53162420078758
 20
110.3417260121934
 30
0.0
 70
    32
  0
VERTEX
  5
935F
  8
AM_0
 10
439.53562420078759
 20
110.3411260121935
 30
0.0
 70
    32
  0
VERTEX
  5
9360
  8
AM_0
 10
439.54062420078782
 20
110.34052601219371
 30
0.0
 70
    32
  0
VERTEX
  5
9361
  8
AM_0
 10
439.54462420078789
 20
110.3398260121933
 30
0.0
 70
    32
  0
VERTEX
  5
9362
  8
AM_0
 10
439.54862420078757
 20
110.33922601219351
 30
0.0
 70
    32
  0
VERTEX
  5
9363
  8
AM_0
 10
439.55362420078762
 20
110.3385260121935
 30
0.0
 70
    32
  0
VERTEX
  5
9364
  8
AM_0
 10
439.55762420078793
 20
110.33792601219351
 30
0.0
 70
    32
  0
VERTEX
  5
9365
  8
AM_0
 10
439.56162420078789
 20
110.3373260121935
 30
0.0
 70
    32
  0
VERTEX
  5
9366
  8
AM_0
 10
439.56662420078783
 20
110.33672601219349
 30
0.0
 70
    32
  0
VERTEX
  5
9367
  8
AM_0
 10
439.57062420078762
 20
110.3361260121935
 30
0.0
 70
    32
  0
VERTEX
  5
9368
  8
AM_0
 10
439.57462420078781
 20
110.33542601219369
 30
0.0
 70
    32
  0
VERTEX
  5
9369
  8
AM_0
 10
439.5796242007878
 20
110.3348260121935
 30
0.0
 70
    32
  0
VERTEX
  5
936A
  8
AM_0
 10
439.5836242007876
 20
110.3342260121936
 30
0.0
 70
    32
  0
VERTEX
  5
936B
  8
AM_0
 10
439.58762420078767
 20
110.3336260121936
 30
0.0
 70
    32
  0
VERTEX
  5
936C
  8
AM_0
 10
439.59162420078798
 20
110.3330260121935
 30
0.0
 70
    32
  0
VERTEX
  5
936D
  8
AM_0
 10
439.5966242007878
 20
110.33242601219369
 30
0.0
 70
    32
  0
VERTEX
  5
936E
  8
AM_0
 10
439.60062420078782
 20
110.3318260121938
 30
0.0
 70
    32
  0
VERTEX
  5
936F
  8
AM_0
 10
439.60462420078778
 20
110.3312260121937
 30
0.0
 70
    32
  0
VERTEX
  5
9370
  8
AM_0
 10
439.60962420078761
 20
110.33072601219349
 30
0.0
 70
    32
  0
VERTEX
  5
9371
  8
AM_0
 10
439.6136242007878
 20
110.3301260121934
 30
0.0
 70
    32
  0
VERTEX
  5
9372
  8
AM_0
 10
439.61762420078799
 20
110.3295260121935
 30
0.0
 70
    32
  0
VERTEX
  5
9373
  8
AM_0
 10
439.62262420078781
 20
110.32892601219351
 30
0.0
 70
    32
  0
VERTEX
  5
9374
  8
AM_0
 10
439.62662420078789
 20
110.3284260121936
 30
0.0
 70
    32
  0
VERTEX
  5
9375
  8
AM_0
 10
439.63062420078762
 20
110.3278260121937
 30
0.0
 70
    32
  0
VERTEX
  5
9376
  8
AM_0
 10
439.63462420078781
 20
110.32722601219341
 30
0.0
 70
    32
  0
VERTEX
  5
9377
  8
AM_0
 10
439.63962420078792
 20
110.3267260121937
 30
0.0
 70
    32
  0
VERTEX
  5
9378
  8
AM_0
 10
439.6436242007876
 20
110.3261260121936
 30
0.0
 70
    32
  0
VERTEX
  5
9379
  8
AM_0
 10
439.64762420078762
 20
110.3256260121934
 30
0.0
 70
    32
  0
VERTEX
  5
937A
  8
AM_0
 10
439.65262420078761
 20
110.3250260121935
 30
0.0
 70
    32
  0
VERTEX
  5
937B
  8
AM_0
 10
439.65662420078758
 20
110.3245260121934
 30
0.0
 70
    32
  0
VERTEX
  5
937C
  8
AM_0
 10
439.66062420078759
 20
110.3240260121935
 30
0.0
 70
    32
  0
VERTEX
  5
937D
  8
AM_0
 10
439.66562420078759
 20
110.32342601219359
 30
0.0
 70
    32
  0
VERTEX
  5
937E
  8
AM_0
 10
439.66962420078789
 20
110.32292601219341
 30
0.0
 70
    32
  0
VERTEX
  5
937F
  8
AM_0
 10
439.67362420078803
 20
110.3224260121937
 30
0.0
 70
    32
  0
VERTEX
  5
9380
  8
AM_0
 10
439.67862420078762
 20
110.3218260121934
 30
0.0
 70
    32
  0
VERTEX
  5
9381
  8
AM_0
 10
439.68262420078798
 20
110.3213260121935
 30
0.0
 70
    32
  0
VERTEX
  5
9382
  8
AM_0
 10
439.68662420078772
 20
110.32082601219371
 30
0.0
 70
    32
  0
VERTEX
  5
9383
  8
AM_0
 10
439.6916242007876
 20
110.3203260121936
 30
0.0
 70
    32
  0
VERTEX
  5
9384
  8
AM_0
 10
439.69562420078768
 20
110.3198260121936
 30
0.0
 70
    32
  0
VERTEX
  5
9385
  8
AM_0
 10
439.69962420078781
 20
110.3193260121934
 30
0.0
 70
    32
  0
VERTEX
  5
9386
  8
AM_0
 10
439.70462420078792
 20
110.3188260121935
 30
0.0
 70
    32
  0
VERTEX
  5
9387
  8
AM_0
 10
439.7086242007876
 20
110.31832601219369
 30
0.0
 70
    32
  0
VERTEX
  5
9388
  8
AM_0
 10
439.71262420078762
 20
110.31782601219329
 30
0.0
 70
    32
  0
VERTEX
  5
9389
  8
AM_0
 10
439.71662420078781
 20
110.3173260121934
 30
0.0
 70
    32
  0
VERTEX
  5
938A
  8
AM_0
 10
439.72162420078757
 20
110.3168260121935
 30
0.0
 70
    32
  0
VERTEX
  5
938B
  8
AM_0
 10
439.72562420078782
 20
110.3164260121933
 30
0.0
 70
    32
  0
VERTEX
  5
938C
  8
AM_0
 10
439.7296242007879
 20
110.3159260121935
 30
0.0
 70
    32
  0
VERTEX
  5
938D
  8
AM_0
 10
439.73462420078789
 20
110.3154260121937
 30
0.0
 70
    32
  0
VERTEX
  5
938E
  8
AM_0
 10
439.73862420078763
 20
110.3150260121935
 30
0.0
 70
    32
  0
VERTEX
  5
938F
  8
AM_0
 10
439.74262420078787
 20
110.3145260121936
 30
0.0
 70
    32
  0
VERTEX
  5
9390
  8
AM_0
 10
439.74762420078758
 20
110.31402601219369
 30
0.0
 70
    32
  0
VERTEX
  5
9391
  8
AM_0
 10
439.75162420078789
 20
110.31362601219359
 30
0.0
 70
    32
  0
VERTEX
  5
9392
  8
AM_0
 10
439.75562420078791
 20
110.3132260121935
 30
0.0
 70
    32
  0
VERTEX
  5
9393
  8
AM_0
 10
439.76062420078802
 20
110.31272601219349
 30
0.0
 70
    32
  0
VERTEX
  5
9394
  8
AM_0
 10
439.76462420078792
 20
110.31232601219349
 30
0.0
 70
    32
  0
VERTEX
  5
9395
  8
AM_0
 10
439.76862420078771
 20
110.31182601219351
 30
0.0
 70
    32
  0
VERTEX
  5
9396
  8
AM_0
 10
439.77362420078782
 20
110.31142601219349
 30
0.0
 70
    32
  0
VERTEX
  5
9397
  8
AM_0
 10
439.77762420078773
 20
110.3110260121933
 30
0.0
 70
    32
  0
VERTEX
  5
9398
  8
AM_0
 10
439.7816242007878
 20
110.3106260121935
 30
0.0
 70
    32
  0
VERTEX
  5
9399
  8
AM_0
 10
439.7866242007878
 20
110.31012601219319
 30
0.0
 70
    32
  0
VERTEX
  5
939A
  8
AM_0
 10
439.79062420078799
 20
110.30972601219371
 30
0.0
 70
    32
  0
VERTEX
  5
939B
  8
AM_0
 10
439.79462420078761
 20
110.30932601219359
 30
0.0
 70
    32
  0
VERTEX
  5
939C
  8
AM_0
 10
439.79962420078789
 20
110.3089260121935
 30
0.0
 70
    32
  0
VERTEX
  5
939D
  8
AM_0
 10
439.80362420078768
 20
110.3085260121937
 30
0.0
 70
    32
  0
VERTEX
  5
939E
  8
AM_0
 10
439.80762420078798
 20
110.3081260121937
 30
0.0
 70
    32
  0
VERTEX
  5
939F
  8
AM_0
 10
439.81262420078792
 20
110.3077260121937
 30
0.0
 70
    32
  0
VERTEX
  5
93A0
  8
AM_0
 10
439.8166242007876
 20
110.3074260121933
 30
0.0
 70
    32
  0
VERTEX
  5
93A1
  8
AM_0
 10
439.82062420078762
 20
110.3070260121934
 30
0.0
 70
    32
  0
VERTEX
  5
93A2
  8
AM_0
 10
439.82562420078762
 20
110.3066260121936
 30
0.0
 70
    32
  0
VERTEX
  5
93A3
  8
AM_0
 10
439.82962420078758
 20
110.30622601219351
 30
0.0
 70
    32
  0
VERTEX
  5
93A4
  8
AM_0
 10
439.83362420078782
 20
110.30592601219359
 30
0.0
 70
    32
  0
VERTEX
  5
93A5
  8
AM_0
 10
439.83862420078782
 20
110.3055260121936
 30
0.0
 70
    32
  0
VERTEX
  5
93A6
  8
AM_0
 10
439.84262420078761
 20
110.3051260121933
 30
0.0
 70
    32
  0
VERTEX
  5
93A7
  8
AM_0
 10
439.84662420078757
 20
110.3048260121937
 30
0.0
 70
    32
  0
VERTEX
  5
93A8
  8
AM_0
 10
439.8516242007878
 20
110.3044260121935
 30
0.0
 70
    32
  0
VERTEX
  5
93A9
  8
AM_0
 10
439.85562420078759
 20
110.30412601219371
 30
0.0
 70
    32
  0
VERTEX
  5
93AA
  8
AM_0
 10
439.85962420078789
 20
110.3038260121934
 30
0.0
 70
    32
  0
VERTEX
  5
93AB
  8
AM_0
 10
439.86462420078772
 20
110.3034260121934
 30
0.0
 70
    32
  0
VERTEX
  5
93AC
  8
AM_0
 10
439.86862420078762
 20
110.3031260121937
 30
0.0
 70
    32
  0
VERTEX
  5
93AD
  8
AM_0
 10
439.87262420078781
 20
110.30282601219361
 30
0.0
 70
    32
  0
VERTEX
  5
93AE
  8
AM_0
 10
439.87762420078781
 20
110.3025260121934
 30
0.0
 70
    32
  0
VERTEX
  5
93AF
  8
AM_0
 10
439.8816242007876
 20
110.3021260121936
 30
0.0
 70
    32
  0
VERTEX
  5
93B0
  8
AM_0
 10
439.88562420078767
 20
110.3018260121936
 30
0.0
 70
    32
  0
VERTEX
  5
93B1
  8
AM_0
 10
439.89062420078773
 20
110.30152601219351
 30
0.0
 70
    32
  0
VERTEX
  5
93B2
  8
AM_0
 10
439.89462420078792
 20
110.3012260121936
 30
0.0
 70
    32
  0
VERTEX
  5
93B3
  8
AM_0
 10
439.89862420078782
 20
110.3009260121937
 30
0.0
 70
    32
  0
VERTEX
  5
93B4
  8
AM_0
 10
439.90362420078799
 20
110.30062601219331
 30
0.0
 70
    32
  0
VERTEX
  5
93B5
  8
AM_0
 10
439.90762420078761
 20
110.30032601219369
 30
0.0
 70
    32
  0
VERTEX
  5
93B6
  8
AM_0
 10
439.91162420078768
 20
110.3000260121937
 30
0.0
 70
    32
  0
VERTEX
  5
93B7
  8
AM_0
 10
439.91662420078762
 20
110.2997260121933
 30
0.0
 70
    32
  0
VERTEX
  5
93B8
  8
AM_0
 10
439.92062420078781
 20
110.2995260121937
 30
0.0
 70
    32
  0
VERTEX
  5
93B9
  8
AM_0
 10
439.92462420078789
 20
110.2992260121936
 30
0.0
 70
    32
  0
VERTEX
  5
93BA
  8
AM_0
 10
439.9296242007876
 20
110.29892601219341
 30
0.0
 70
    32
  0
VERTEX
  5
93BB
  8
AM_0
 10
439.93362420078762
 20
110.29862601219369
 30
0.0
 70
    32
  0
VERTEX
  5
93BC
  8
AM_0
 10
439.93762420078792
 20
110.2984260121933
 30
0.0
 70
    32
  0
VERTEX
  5
93BD
  8
AM_0
 10
439.94262420078758
 20
110.29812601219351
 30
0.0
 70
    32
  0
VERTEX
  5
93BE
  8
AM_0
 10
439.94662420078782
 20
110.2979260121935
 30
0.0
 70
    32
  0
VERTEX
  5
93BF
  8
AM_0
 10
439.95062420078762
 20
110.2976260121936
 30
0.0
 70
    32
  0
VERTEX
  5
93C0
  8
AM_0
 10
439.95562420078761
 20
110.2974260121937
 30
0.0
 70
    32
  0
VERTEX
  5
93C1
  8
AM_0
 10
439.9596242007878
 20
110.2971260121934
 30
0.0
 70
    32
  0
VERTEX
  5
93C2
  8
AM_0
 10
439.96362420078788
 20
110.29692601219359
 30
0.0
 70
    32
  0
VERTEX
  5
93C3
  8
AM_0
 10
439.96862420078759
 20
110.2966260121933
 30
0.0
 70
    32
  0
VERTEX
  5
93C4
  8
AM_0
 10
439.97262420078789
 20
110.29642601219361
 30
0.0
 70
    32
  0
VERTEX
  5
93C5
  8
AM_0
 10
439.9766242007878
 20
110.2962260121934
 30
0.0
 70
    32
  0
VERTEX
  5
93C6
  8
AM_0
 10
439.98162420078768
 20
110.29602601219349
 30
0.0
 70
    32
  0
VERTEX
  5
93C7
  8
AM_0
 10
439.98562420078798
 20
110.2957260121933
 30
0.0
 70
    32
  0
VERTEX
  5
93C8
  8
AM_0
 10
439.9896242007876
 20
110.2955260121937
 30
0.0
 70
    32
  0
VERTEX
  5
93C9
  8
AM_0
 10
439.99462420078783
 20
110.2953260121934
 30
0.0
 70
    32
  0
VERTEX
  5
93CA
  8
AM_0
 10
439.99862420078767
 20
110.29512601219361
 30
0.0
 70
    32
  0
VERTEX
  5
93CB
  8
AM_0
 10
440.00262420078792
 20
110.2949260121936
 30
0.0
 70
    32
  0
VERTEX
  5
93CC
  8
AM_0
 10
440.0076242007878
 20
110.29472601219361
 30
0.0
 70
    32
  0
VERTEX
  5
93CD
  8
AM_0
 10
440.01162420078759
 20
110.2945260121934
 30
0.0
 70
    32
  0
VERTEX
  5
93CE
  8
AM_0
 10
440.0156242007879
 20
110.29432601219339
 30
0.0
 70
    32
  0
VERTEX
  5
93CF
  8
AM_0
 10
440.02062420078738
 20
110.2941260121937
 30
0.0
 70
    32
  0
VERTEX
  5
93D0
  8
AM_0
 10
440.02462420078763
 20
110.2939260121933
 30
0.0
 70
    32
  0
VERTEX
  5
93D1
  8
AM_0
 10
440.02862420078759
 20
110.2937260121936
 30
0.0
 70
    32
  0
VERTEX
  5
93D2
  8
AM_0
 10
440.03362420078793
 20
110.2935260121934
 30
0.0
 70
    32
  0
VERTEX
  5
93D3
  8
AM_0
 10
440.03762420078789
 20
110.2933260121937
 30
0.0
 70
    32
  0
VERTEX
  5
93D4
  8
AM_0
 10
440.04162420078762
 20
110.2932260121937
 30
0.0
 70
    32
  0
VERTEX
  5
93D5
  8
AM_0
 10
440.04662420078762
 20
110.29302601219329
 30
0.0
 70
    32
  0
VERTEX
  5
93D6
  8
AM_0
 10
440.05062420078758
 20
110.2928260121936
 30
0.0
 70
    32
  0
VERTEX
  5
93D7
  8
AM_0
 10
440.0556242007878
 20
110.2927260121938
 30
0.0
 70
    32
  0
VERTEX
  5
93D8
  8
AM_0
 10
440.05962420078771
 20
110.29252601219351
 30
0.0
 70
    32
  0
VERTEX
  5
93D9
  8
AM_0
 10
440.0636242007879
 20
110.2923260121937
 30
0.0
 70
    32
  0
VERTEX
  5
93DA
  8
AM_0
 10
440.06862420078789
 20
110.2922260121935
 30
0.0
 70
    32
  0
VERTEX
  5
93DB
  8
AM_0
 10
440.07262420078803
 20
110.2920260121936
 30
0.0
 70
    32
  0
VERTEX
  5
93DC
  8
AM_0
 10
440.07662420078759
 20
110.2919260121936
 30
0.0
 70
    32
  0
VERTEX
  5
93DD
  8
AM_0
 10
440.08162420078799
 20
110.29172601219339
 30
0.0
 70
    32
  0
VERTEX
  5
93DE
  8
AM_0
 10
440.08562420078761
 20
110.2916260121934
 30
0.0
 70
    32
  0
VERTEX
  5
93DF
  8
AM_0
 10
440.0896242007878
 20
110.2915260121936
 30
0.0
 70
    32
  0
VERTEX
  5
93E0
  8
AM_0
 10
440.09462420078768
 20
110.29132601219359
 30
0.0
 70
    32
  0
VERTEX
  5
93E1
  8
AM_0
 10
440.09862420078798
 20
110.29122601219341
 30
0.0
 70
    32
  0
VERTEX
  5
93E2
  8
AM_0
 10
440.1026242007876
 20
110.2911260121936
 30
0.0
 70
    32
  0
VERTEX
  5
93E3
  8
AM_0
 10
440.10762420078731
 20
110.2910260121936
 30
0.0
 70
    32
  0
VERTEX
  5
93E4
  8
AM_0
 10
440.1116242007879
 20
110.29092601219349
 30
0.0
 70
    32
  0
VERTEX
  5
93E5
  8
AM_0
 10
440.11562420078792
 20
110.29082601219331
 30
0.0
 70
    32
  0
VERTEX
  5
93E6
  8
AM_0
 10
440.12062420078792
 20
110.2906260121936
 30
0.0
 70
    32
  0
VERTEX
  5
93E7
  8
AM_0
 10
440.12462420078759
 20
110.29052601219369
 30
0.0
 70
    32
  0
VERTEX
  5
93E8
  8
AM_0
 10
440.1286242007879
 20
110.29042601219361
 30
0.0
 70
    32
  0
VERTEX
  5
93E9
  8
AM_0
 10
440.13362420078761
 20
110.2903260121934
 30
0.0
 70
    32
  0
VERTEX
  5
93EA
  8
AM_0
 10
440.13762420078763
 20
110.2903260121934
 30
0.0
 70
    32
  0
VERTEX
  5
93EB
  8
AM_0
 10
440.14162420078759
 20
110.2902260121936
 30
0.0
 70
    32
  0
VERTEX
  5
93EC
  8
AM_0
 10
440.14662420078758
 20
110.2901260121937
 30
0.0
 70
    32
  0
VERTEX
  5
93ED
  8
AM_0
 10
440.1506242007876
 20
110.29002601219371
 30
0.0
 70
    32
  0
VERTEX
  5
93EE
  8
AM_0
 10
440.15462420078762
 20
110.2899260121934
 30
0.0
 70
    32
  0
VERTEX
  5
93EF
  8
AM_0
 10
440.15962420078762
 20
110.2899260121934
 30
0.0
 70
    32
  0
VERTEX
  5
93F0
  8
AM_0
 10
440.16362420078741
 20
110.2898260121934
 30
0.0
 70
    32
  0
VERTEX
  5
93F1
  8
AM_0
 10
440.16762420078783
 20
110.2897260121936
 30
0.0
 70
    32
  0
VERTEX
  5
93F2
  8
AM_0
 10
440.17262420078782
 20
110.2897260121936
 30
0.0
 70
    32
  0
VERTEX
  5
93F3
  8
AM_0
 10
440.17662420078773
 20
110.28962601219359
 30
0.0
 70
    32
  0
VERTEX
  5
93F4
  8
AM_0
 10
440.18162420078772
 20
110.2895260121936
 30
0.0
 70
    32
  0
VERTEX
  5
93F5
  8
AM_0
 10
440.1856242007878
 20
110.2895260121936
 30
0.0
 70
    32
  0
VERTEX
  5
93F6
  8
AM_0
 10
440.18962420078759
 20
110.2894260121934
 30
0.0
 70
    32
  0
VERTEX
  5
93F7
  8
AM_0
 10
440.19462420078798
 20
110.2894260121934
 30
0.0
 70
    32
  0
VERTEX
  5
93F8
  8
AM_0
 10
440.19862420078761
 20
110.2893260121935
 30
0.0
 70
    32
  0
VERTEX
  5
93F9
  8
AM_0
 10
440.20262420078768
 20
110.2893260121935
 30
0.0
 70
    32
  0
VERTEX
  5
93FA
  8
AM_0
 10
440.20762420078762
 20
110.2892260121935
 30
0.0
 70
    32
  0
VERTEX
  5
93FB
  8
AM_0
 10
440.21162420078792
 20
110.2892260121935
 30
0.0
 70
    32
  0
VERTEX
  5
93FC
  8
AM_0
 10
440.21562420078789
 20
110.28912601219371
 30
0.0
 70
    32
  0
VERTEX
  5
93FD
  8
AM_0
 10
440.22062420078788
 20
110.28912601219371
 30
0.0
 70
    32
  0
VERTEX
  5
93FE
  8
AM_0
 10
440.2246242007879
 20
110.28912601219371
 30
0.0
 70
    32
  0
VERTEX
  5
93FF
  8
AM_0
 10
440.22862420078758
 20
110.2890260121934
 30
0.0
 70
    32
  0
VERTEX
  5
9400
  8
AM_0
 10
440.23362420078752
 20
110.2890260121934
 30
0.0
 70
    32
  0
VERTEX
  5
9401
  8
AM_0
 10
440.23762420078782
 20
110.2889260121934
 30
0.0
 70
    32
  0
VERTEX
  5
9402
  8
AM_0
 10
440.24162420078761
 20
110.2889260121934
 30
0.0
 70
    32
  0
VERTEX
  5
9403
  8
AM_0
 10
440.24662420078789
 20
110.2889260121934
 30
0.0
 70
    32
  0
VERTEX
  5
9404
  8
AM_0
 10
440.2506242007878
 20
110.2888260121937
 30
0.0
 70
    32
  0
SEQEND
  5
9405
  8
AM_0
  0
LINE
  5
9406
  8
AM_0
 10
450.75067126586151
 20
110.2888596901339
 30
0.0
 11
440.2506712658618
 21
110.2888596901339
 31
0.0
  0
ARC
  5
9407
  8
AM_0
 10
440.2506712658618
 20
102.5190112091511
 30
0.0
 40
2.5
 50
180.0
 51
270.0
  0
LINE
  5
9408
  8
AM_0
 10
437.75067126586191
 20
98.419011209150426
 30
0.0
 11
437.75067126586191
 21
102.519011209151
 31
0.0
  0
ARC
  5
9409
  8
AM_0
 10
438.25067126586191
 20
98.419011209150526
 30
0.0
 40
0.5
 50
180.0
 51
270.0
  0
LINE
  5
940A
  8
AM_0
 10
440.2506712658618
 20
100.019011209151
 30
0.0
 11
449.28567126586182
 21
100.019011209151
 31
0.0
  0
ARC
  5
940B
  8
AM_0
 10
470.75067126586191
 20
159.41901120914901
 30
0.0
 40
1.0
 50
270.0
 51
0.0
  0
LINE
  5
940C
  8
AM_0
 10
454.75067126586191
 20
158.41901120914929
 30
0.0
 11
454.75067126586191
 21
169.91901120914901
 31
0.0
  0
LINE
  5
940D
  8
AM_0
 10
454.75067126586191
 20
169.9190112091504
 30
0.0
 11
454.75067126586191
 21
139.41901120915051
 31
0.0
  0
ARC
  5
940E
  8
AM_0
 10
470.75067126586191
 20
168.91901120914869
 30
0.0
 40
0.9999999999998864
 50
0.0
 51
90.0
  0
LINE
  5
940F
  8
AM_0
 10
471.75067126586191
 20
167.41895042370959
 30
0.0
 11
473.87589004579451
 21
167.41895042370959
 31
0.0
  0
LINE
  5
9410
  8
AM_0
 10
454.75067126586191
 20
128.4190112091504
 30
0.0
 11
454.75067126586191
 21
97.91901120915071
 31
0.0
  0
LINE
  5
9411
  8
AM_0
 10
470.75067126586191
 20
158.41901120914929
 30
0.0
 11
454.75067126586191
 21
158.41901120914929
 31
0.0
  0
LINE
  5
9412
  8
AM_0
 10
465.033884825634
 20
139.41901120915051
 30
0.0
 11
465.033884825634
 21
128.4190112091504
 31
0.0
  0
LINE
  5
9413
  8
AM_0
 10
471.75067126586191
 20
147.16424978527519
 30
0.0
 11
471.75067126586191
 21
168.91901120914869
 31
0.0
  0
LINE
  5
9414
  8
AM_0
 10
454.75067126586191
 20
97.919011209148877
 30
0.0
 11
454.75067126586191
 21
109.41901120914901
 31
0.0
  0
LINE
  5
9415
  8
AM_0
 10
467.7902627015996
 20
109.41901120914901
 30
0.0
 11
454.75067126586191
 21
109.41901120914901
 31
0.0
  0
LINE
  5
941D
  8
AM_0
 10
39.838632265862081
 20
102.24899520915081
 30
0.0
 11
39.838632265862081
 21
168.4489812091505
 31
0.0
  0
LINE
  5
941E
  8
AM_0
 10
42.338622265861893
 20
109.93900020915081
 30
0.0
 11
42.338622265861893
 21
190.91902620915059
 31
0.0
  0
LINE
  5
941F
  8
AM_0
 10
89.838642265861907
 20
190.91902620915059
 30
0.0
 11
89.838642265861907
 21
76.919008209150718
 31
0.0
  0
ARC
  5
9420
  8
AM_0
 10
33.549012265862068
 20
84.617953209150528
 30
0.0
 40
0.30119199
 50
5.9148297999986124
 51
88.175987000000191
  0
ARC
  5
9421
  8
AM_0
 10
33.550482265861767
 20
84.616657209150461
 30
0.0
 40
0.8023920299999998
 50
5.8908350000000427
 51
89.417558000000113
  0
LINE
  5
9422
  8
AM_0
 10
33.338622265861879
 20
85.418995209150623
 30
0.0
 11
33.338622265861879
 21
84.919009209150687
 31
0.0
  0
LINE
  5
9423
  8
AM_0
 10
33.338622265861879
 20
85.418995209150623
 30
0.0
 11
33.558672265861667
 21
85.418995209150623
 31
0.0
  0
LINE
  5
9424
  8
AM_0
 10
48.91864226586172
 20
130.19900820915049
 30
0.0
 11
34.458642265861783
 21
85.688998209150711
 31
0.0
  0
LINE
  5
9425
  8
AM_0
 10
53.67859226586171
 20
128.65900020915049
 30
0.0
 11
39.218652265861913
 21
84.149005209150744
 31
0.0
  0
LINE
  5
9426
  8
AM_0
 10
42.338622265861893
 20
90.028996209150435
 30
0.0
 11
89.838642265861907
 21
90.028996209150435
 31
0.0
  0
LINE
  5
9427
  8
AM_0
 10
41.838642265861893
 20
76.919008209150718
 30
0.0
 11
89.838642265861907
 21
76.919008209150718
 31
0.0
  0
ARC
  5
9428
  8
AM_0
 10
36.838632265862103
 20
84.919009209150687
 30
0.0
 40
2.5014601500000002
 50
162.07207999999801
 51
342.07206999999869
  0
LINE
  5
9429
  8
AM_0
 10
39.838632265862081
 20
86.069002209150483
 30
0.0
 11
39.838632265862081
 21
78.919009209150673
 31
0.0
  0
ARC
  5
942A
  8
AM_0
 10
36.837582265862068
 20
84.917467209150516
 30
0.0
 40
3.001016099999998
 50
185.13260000000091
 51
0.0291460009999036
  0
ARC
  5
942B
  8
AM_0
 10
41.836362265861901
 20
78.916690209150701
 30
0.0
 40
1.9976960999999991
 50
179.93382999999969
 51
270.06616999999687
  0
ARC
  5
942C
  8
AM_0
 10
39.88735226586185
 20
96.418918209150718
 30
0.0
 40
4.0507442999999981
 50
99.071790999998314
 51
224.9123400000025
  0
LINE
  5
942D
  8
AM_0
 10
42.338622265861893
 20
93.758992209150506
 30
0.0
 11
42.338622265861893
 21
76.919008209150718
 31
0.0
  0
LINE
  5
942E
  8
AM_0
 10
84.838632265861904
 20
90.028996209150435
 30
0.0
 11
84.838632265861904
 21
76.919008209150718
 31
0.0
  0
ARC
  5
942F
  8
AM_0
 10
72.838152265861993
 20
133.91879820915079
 30
0.0
 40
8.000195699999999
 50
89.996300999997729
 51
161.78902999999909
  0
ARC
  5
9430
  8
AM_0
 10
72.8362022658619
 20
133.91656920915079
 30
0.0
 40
7.997572199999996
 50
198.19734999999929
 51
270.0173099999991
  0
LINE
  5
9431
  8
AM_0
 10
57.488592265861882
 20
136.41898020915079
 30
0.0
 11
67.338642265861893
 21
136.41898020915079
 31
0.0
  0
LINE
  5
9432
  8
AM_0
 10
57.488592265861882
 20
131.41901220915051
 30
0.0
 11
67.338642265861893
 21
131.41901220915051
 31
0.0
  0
ARC
  5
9433
  8
AM_0
 10
57.486402265861699
 20
127.42191120915039
 30
0.0
 40
8.9970875999999986
 50
89.985774999998554
 51
162.0211999999996
  0
ARC
  5
9434
  8
AM_0
 10
57.481872265862002
 20
127.4186142091505
 30
0.0
 40
4.0003919999999971
 50
89.903054999997906
 51
161.93679000000009
  0
LINE
  5
9435
  8
ﾁｭｳｼﾝｾﾝ
 10
72.838632265861904
 20
124.20700020915071
 30
0.0
 11
72.838632265861904
 21
143.62699620915069
 31
0.0
  0
LINE
  5
9436
  8
AM_0
 10
72.838632265861904
 20
125.9189802091508
 30
0.0
 11
89.838642265861907
 21
125.9189802091508
 31
0.0
  0
LINE
  5
9437
  8
AM_0
 10
72.838632265861904
 20
141.91901220915051
 30
0.0
 11
89.838642265861907
 21
141.91901220915051
 31
0.0
  0
ARC
  5
9438
  8
AM_0
 10
72.838632265861904
 20
133.91699820915071
 30
0.0
 40
4.998440399999998
 50
23.61099900000109
 51
156.38900000000109
  0
ARC
  5
9439
  8
AM_0
 10
72.838632265861904
 20
133.91699820915071
 30
0.0
 40
4.9968401999999958
 50
203.56897999999919
 51
336.43102000000079
  0
LINE
  5
943A
  8
AM_0
 10
67.338642265861893
 20
135.91901220915051
 30
0.0
 11
78.338622265862
 21
135.91901220915051
 31
0.0
  0
LINE
  5
943B
  8
AM_0
 10
67.338642265861893
 20
131.91898020915079
 30
0.0
 11
78.338622265862
 21
131.91898020915079
 31
0.0
  0
LINE
  5
943C
  8
AM_0
 10
67.338642265861893
 20
131.41901220915051
 30
0.0
 11
67.338642265861893
 21
136.41898020915079
 31
0.0
  0
LINE
  5
943D
  8
AM_0
 10
80.838642265861978
 20
131.41901220915051
 30
0.0
 11
80.838642265861978
 21
136.41898020915079
 31
0.0
  0
LINE
  5
943E
  8
AM_0
 10
78.338622265862
 20
131.41901220915051
 30
0.0
 11
78.338622265862
 21
136.41898020915079
 31
0.0
  0
LINE
  5
943F
  8
AM_0
 10
78.338622265862
 20
136.41898020915079
 30
0.0
 11
80.838642265861978
 21
136.41898020915079
 31
0.0
  0
LINE
  5
9440
  8
AM_0
 10
78.338622265862
 20
131.41901220915051
 30
0.0
 11
80.838642265861978
 21
131.41901220915051
 31
0.0
  0
LINE
  5
9441
  8
AM_0
 10
42.338622265861893
 20
177.80899620915059
 30
0.0
 11
89.838642265861907
 21
177.80899620915059
 31
0.0
  0
LINE
  5
9442
  8
AM_0
 10
42.338622265861893
 20
167.55899520915071
 30
0.0
 11
84.838632265861904
 21
167.55899520915071
 31
0.0
  0
LINE
  5
9443
  8
AM_0
 10
41.838642265861893
 20
190.91902620915059
 30
0.0
 11
89.838642265861907
 21
190.91902620915059
 31
0.0
  0
LINE
  5
9444
  8
AM_0
 10
41.038632265861757
 20
168.20902020915051
 30
0.0
 11
41.038632265861757
 21
177.40900620915059
 31
0.0
  0
LINE
  5
9445
  8
AM_0
 10
37.738662265861869
 20
171.3089862091505
 30
0.0
 11
37.738662265861869
 21
174.30898620915079
 31
0.0
  0
LINE
  5
9446
  8
AM_0
 10
41.038632265861757
 20
168.20902020915051
 30
0.0
 11
42.338622265861893
 21
168.20902020915051
 31
0.0
  0
ARC
  5
9447
  8
AM_0
 10
40.734312265862002
 20
171.30916620915059
 30
0.0
 40
2.9956880400000001
 50
180.0036400000007
 51
275.83037000000309
  0
LINE
  5
9448
  8
AM_0
 10
39.838632265862081
 20
177.17899620915071
 30
0.0
 11
39.838632265862081
 21
188.9189862091508
 31
0.0
  0
LINE
  5
9449
  8
AM_0
 10
41.038632265861757
 20
177.40900620915059
 30
0.0
 11
42.338622265861893
 21
177.40900620915059
 31
0.0
  0
ARC
  5
944A
  8
AM_0
 10
40.740312265862087
 20
174.3121962091505
 30
0.0
 40
3.0016479
 50
84.295613000003058
 51
180.061350000001
  0
ARC
  5
944B
  8
AM_0
 10
41.838132265861759
 20
188.91949620915051
 30
0.0
 40
1.9994960399999999
 50
89.985542999997904
 51
180.0144599999999
  0
LINE
  5
944C
  8
AM_0
 10
84.838632265861904
 20
141.91901220915051
 30
0.0
 11
84.838632265861904
 21
190.91902620915059
 31
0.0
  0
LINE
  5
96E8
  8
ﾁｭｳｼﾝｾﾝ
 10
27.37263487496579
 20
398.03855362289079
 30
0.0
 11
365.05831226586167
 21
398.03855362289079
 31
0.0
  0
ARC
  5
9817
  8
AM_0
 10
367.32736226586172
 20
398.03855362289079
 30
0.0
 40
101.4887199999999
 50
151.89333000000019
 51
208.10666999999961
  0
LINE
  5
981A
  8
AM_0
 10
213.83865226586201
 20
342.0385536228909
 30
0.0
 11
213.83865226586201
 21
454.03855362289079
 31
0.0
  0
LINE
  5
981B
  8
AM_0
 10
244.8386522658619
 20
329.1701736228909
 30
0.0
 11
244.8386522658619
 21
466.9069236228907
 31
0.0
  0
LINE
  5
981C
  8
AM_0
 10
265.83865226586198
 20
347.97132362289091
 30
0.0
 11
265.83865226586198
 21
448.10578362289078
 31
0.0
  0
LINE
  5
981D
  8
AM_0
 10
300.83865226586181
 20
347.78754362289089
 30
0.0
 11
300.83865226586181
 21
448.28955362289071
 31
0.0
  0
LINE
  5
981E
  8
AM_0
 10
316.83862226586189
 20
372.50421362289092
 30
0.0
 11
316.83862226586189
 21
423.5728536228907
 31
0.0
  0
LINE
  5
981F
  8
AM_0
 10
313.83862226586172
 20
447.5835036228907
 30
0.0
 11
313.83862226586172
 21
348.49359362289078
 31
0.0
  0
LINE
  5
9820
  8
AM_0
 10
251.83862226586189
 20
469.03855362289079
 30
0.0
 11
251.83862226586189
 21
327.03855362289079
 31
0.0
  0
LINE
  5
9821
  8
AM_0
 10
264.57449226586192
 20
327.37204362289089
 30
0.0
 11
251.83865226586181
 21
327.03855362289079
 31
0.0
  0
LINE
  5
9822
  8
AM_0
 10
254.83865226586201
 20
320.0385536228909
 30
0.0
 11
314.89098226586191
 21
321.61109362289091
 31
0.0
  0
LINE
  5
988B
  8
AM_0
 10
239.83862226586189
 20
334.82727362289091
 30
0.0
 11
239.83862226586189
 21
350.03824362289077
 31
0.0
  0
LINE
  5
988C
  8
AM_0
 10
239.83865226586181
 20
341.35770362289088
 30
0.0
 11
213.83868226586191
 21
342.0385536228909
 31
0.0
  0
LINE
  5
988D
  8
AM_0
 10
222.83862226586189
 20
322.82483362289088
 30
0.0
 11
222.83862226586189
 21
341.80286362289092
 31
0.0
  0
ARC
  5
988E
  8
AM_0
 10
234.83862226586211
 20
333.03855362289079
 30
0.0
 40
6.0
 50
33.5572999999982
 51
0.5425182800010755
  0
LINE
  5
988F
  8
AM_0
 10
224.7862822658617
 20
320.82547362289091
 30
0.0
 11
254.83862226586211
 21
320.03852362289092
 31
0.0
  0
ARC
  5
9891
  8
AM_0
 10
224.83862226586189
 20
322.82483362289088
 30
0.0
 40
2.0
 50
180.00001000000091
 51
268.5000000000004
  0
LINE
  5
9893
  8
AM_0
 10
254.83862226586211
 20
323.89453362289078
 30
0.0
 11
247.83862226586189
 21
320.22187362289071
 31
0.0
  0
LINE
  5
9894
  8
AM_0
 10
247.83862226586189
 20
320.22187362289071
 30
0.0
 11
247.83862226586189
 21
324.73896362289099
 31
0.0
  0
LINE
  5
9895
  8
AM_0
 10
251.83865226586181
 20
327.03852362289081
 30
0.0
 11
246.78631226586191
 21
327.17084362289069
 31
0.0
  0
LINE
  5
9896
  8
AM_0
 10
252.24163226586199
 20
327.04914362289088
 30
0.0
 11
247.83859226586191
 21
324.73899362289092
 31
0.0
  0
ARC
  5
9897
  8
AM_0
 10
242.8386522658619
 20
330.82727362289091
 30
0.0
 40
2.0
 50
0.0
 51
90.000003000000945
  0
ARC
  5
9898
  8
AM_0
 10
246.83865226586201
 20
329.1701736228909
 30
0.0
 40
2.0
 50
180.00001000000091
 51
268.5000000000004
  0
ARC
  5
9899
  8
AM_0
 10
241.83862226586189
 20
334.82727362289091
 30
0.0
 40
2.0
 50
180.00001000000091
 51
270.0
  0
LINE
  5
989A
  8
AM_0
 10
241.83862226586189
 20
332.82727362289091
 30
0.0
 11
242.8386522658619
 21
332.82727362289091
 31
0.0
  0
LINE
  5
989B
  8
AM_0
 10
254.83862226586211
 20
327.11710362289091
 30
0.0
 11
254.83862226586211
 21
323.89453362289078
 31
0.0
  0
LINE
  5
989C
  8
AM_0
 10
213.83865226586201
 20
366.09861362289092
 30
0.0
 11
244.8386522658619
 21
366.09861362289092
 31
0.0
  0
LINE
  5
989D
  8
AM_0
 10
213.83865226586201
 20
352.038243622891
 30
0.0
 11
244.8386522658619
 21
352.038243622891
 31
0.0
  0
ARC
  5
989E
  8
AM_0
 10
237.8386222658618
 20
350.03824362289077
 30
0.0
 40
2.0
 50
0.0
 51
90.000003000000945
  0
ARC
  5
989F
  8
AM_0
 10
308.83862226586172
 20
354.62018362289092
 30
0.0
 40
5.0
 50
274.99999999999972
 51
0.0
  0
ARC
  5
98A0
  8
AM_0
 10
292.83862226586172
 20
339.31952362289093
 30
0.0
 40
5.0
 50
95.00000199999856
 51
180.00001000000091
  0
ARC
  5
98A1
  8
AM_0
 10
266.83862226586189
 20
341.61383362289092
 30
0.0
 40
1.0
 50
0.0
 51
90.000003000000945
  0
LINE
  5
98A2
  8
AM_0
 10
267.83859226586191
 20
334.9535636228909
 30
0.0
 11
267.83859226586191
 21
344.50058362289087
 31
0.0
  0
LINE
  5
98A3
  8
AM_0
 10
263.838622265862
 20
346.5006136228908
 30
0.0
 11
263.838622265862
 21
332.9535636228909
 31
0.0
  0
LINE
  5
98A4
  8
AM_0
 10
262.83862226586172
 20
347.97132362289091
 30
0.0
 11
262.83862226586172
 21
327.3266036228909
 31
0.0
  0
ARC
  5
98A5
  8
AM_0
 10
284.838622265862
 20
337.94123362289088
 30
0.0
 40
3.0
 50
271.49999999999937
 51
0.0
  0
ARC
  5
98A6
  8
AM_0
 10
292.83862226586172
 20
326.03534362289088
 30
0.0
 40
5.0
 50
180.00001000000091
 51
271.49999999999937
  0
LINE
  5
98A7
  8
AM_0
 10
266.93508226586192
 20
328.03525362289082
 30
0.0
 11
277.57183226586199
 21
334.14847362289078
 31
0.0
  0
ARC
  5
98A8
  8
AM_0
 10
264.4436022658619
 20
332.370333622891
 30
0.0
 40
5.0
 50
271.49999999999937
 51
299.8870199999991
  0
ARC
  5
98A9
  8
AM_0
 10
266.83862226586189
 20
337.84030362289087
 30
0.0
 40
1.0
 50
269.999989999999
 51
0.0000006832462478
  0
ARC
  5
98AA
  8
AM_0
 10
266.83862226586189
 20
334.9535636228909
 30
0.0
 40
1.0
 50
269.999989999999
 51
0.0000006832462478
  0
ARC
  5
98AB
  8
AM_0
 10
266.83862226586189
 20
335.84033362289091
 30
0.0
 40
1.0
 50
0.0
 51
90.000003000000945
  0
LINE
  5
98AC
  8
AM_0
 10
263.838622265862
 20
333.9535636228909
 30
0.0
 11
266.83862226586189
 21
333.9535636228909
 31
0.0
  0
LINE
  5
98AD
  8
AM_0
 10
263.838622265862
 20
336.8403336228908
 30
0.0
 11
266.83862226586189
 21
336.8403336228908
 31
0.0
  0
LINE
  5
98AE
  8
AM_0
 10
262.83862226586172
 20
332.9535636228909
 30
0.0
 11
263.838622265862
 21
332.9535636228909
 31
0.0
  0
LINE
  5
98AF
  8
AM_0
 10
284.91717226586189
 20
334.94226362289101
 30
0.0
 11
279.93243226586191
 21
334.8117436228909
 31
0.0
  0
ARC
  5
98B0
  8
AM_0
 10
280.06329226586189
 20
329.81345362289079
 30
0.0
 40
5.0
 50
91.500001000001546
 51
119.8870199999991
  0
CIRCLE
  5
98B1
  8
AM_0
 10
304.83862226586172
 20
333.03855362289079
 30
0.0
 40
6.0
  0
LINE
  5
98B3
  8
AM_0
 10
287.83862226586189
 20
326.03534362289088
 30
0.0
 11
287.83862226586189
 21
339.31952362289093
 31
0.0
  0
LINE
  5
98B5
  8
AM_0
 10
297.91720226586182
 20
351.01404362289088
 30
0.0
 11
279.42062226586188
 21
350.52967362289093
 31
0.0
  0
LINE
  5
98B6
  8
AM_0
 10
265.83862226586172
 20
347.97132362289091
 30
0.0
 11
279.42062226586188
 21
350.52970362289079
 31
0.0
  0
ARC
  5
98B7
  8
AM_0
 10
266.83862226586189
 20
343.61383362289092
 30
0.0
 40
1.0
 50
269.999989999999
 51
0.0000006832462478
  0
ARC
  5
98B8
  8
AM_0
 10
266.83862226586189
 20
344.50058362289087
 30
0.0
 40
1.0
 50
0.0
 51
90.000003000000945
  0
LINE
  5
98B9
  8
AM_0
 10
262.83862226586172
 20
347.97132362289091
 30
0.0
 11
265.83862226586172
 21
347.97132362289091
 31
0.0
  0
LINE
  5
98BA
  8
AM_0
 10
263.838622265862
 20
345.50061362289091
 30
0.0
 11
266.83862226586189
 21
345.50061362289091
 31
0.0
  0
LINE
  5
98BB
  8
AM_0
 10
263.838622265862
 20
342.61383362289092
 30
0.0
 11
266.83862226586189
 21
342.61383362289092
 31
0.0
  0
LINE
  5
98BC
  8
AM_0
 10
262.83862226586172
 20
346.5006136228908
 30
0.0
 11
263.838622265862
 21
346.5006136228908
 31
0.0
  0
ARC
  5
98BD
  8
AM_0
 10
305.01266226586188
 20
344.2472636228909
 30
0.0
 40
5.0
 50
95.00000199999856
 51
153.73432999999969
  0
ARC
  5
98BE
  8
AM_0
 10
297.83865226586181
 20
347.78754362289089
 30
0.0
 40
3.0
 50
274.99999999999972
 51
0.0
  0
ARC
  5
98BF
  8
AM_0
 10
297.83865226586181
 20
354.01300362289101
 30
0.0
 40
3.0
 50
271.49999999999937
 51
0.0
  0
LINE
  5
98C0
  8
AM_0
 10
298.1001222658619
 20
344.79895362289091
 30
0.0
 11
292.40283226586172
 21
344.300513622891
 31
0.0
  0
LINE
  5
98C1
  8
AM_0
 10
309.27441226586183
 20
349.63922362289082
 30
0.0
 11
304.57690226586192
 21
349.228243622891
 31
0.0
  0
LINE
  5
98C2
  8
AM_0
 10
316.83862226586189
 20
323.61038362289099
 30
0.0
 11
316.83862226586189
 21
346.46671362289101
 31
0.0
  0
ARC
  5
98C3
  8
AM_0
 10
314.83862226586189
 20
323.61038362289099
 30
0.0
 40
2.0
 50
271.49999999999937
 51
0.0
  0
ARC
  5
98C4
  8
AM_0
 10
314.83862226586189
 20
346.46671362289101
 30
0.0
 40
2.0
 50
0.0
 51
88.499997000000747
  0
LINE
  5
98C5
  8
AM_0
 10
314.89098226586191
 20
348.46601362289078
 30
0.0
 11
313.83862226586172
 21
348.49356362289092
 31
0.0
  0
ARC
  5
98C6
  8
AM_0
 10
315.83862226586172
 20
372.50421362289092
 30
0.0
 40
1.0
 50
272.0000000000004
 51
0.0
  0
ARC
  5
98C7
  8
AM_0
 10
314.83862226586189
 20
370.46808362289079
 30
0.0
 40
1.0
 50
91.999998000000545
 51
180.00001000000091
  0
LINE
  5
98C8
  8
AM_0
 10
314.8037422658619
 20
371.467503622891
 30
0.0
 11
315.87353226586191
 21
371.50486362289092
 31
0.0
  0
LINE
  5
98C9
  8
AM_0
 10
264.57449226586192
 20
468.70505362289072
 30
0.0
 11
251.83865226586181
 21
469.03855362289079
 31
0.0
  0
LINE
  5
98CA
  8
AM_0
 10
254.83865226586201
 20
476.03855362289062
 30
0.0
 11
314.89098226586191
 21
474.46604362289082
 31
0.0
  0
ARC
  5
98CB
  8
AM_0
 10
234.83862226586211
 20
463.03855362289062
 30
0.0
 40
6.0
 50
359.45747999999838
 51
326.4427199999991
  0
LINE
  5
98CC
  8
AM_0
 10
239.83862226586189
 20
461.24985362289073
 30
0.0
 11
239.83862226586189
 21
446.03885362289071
 31
0.0
  0
LINE
  5
98CE
  8
AM_0
 10
222.83862226586189
 20
473.25229362289082
 30
0.0
 11
222.83862226586189
 21
454.27423362289102
 31
0.0
  0
LINE
  5
98F5
  8
AM_0
 10
213.83865226586201
 20
429.97849362289088
 30
0.0
 11
244.8386522658619
 21
429.97849362289088
 31
0.0
  0
LINE
  5
98F6
  8
AM_0
 10
213.83865226586201
 20
444.03885362289071
 30
0.0
 11
244.8386522658619
 21
444.03885362289071
 31
0.0
  0
LINE
  5
98F7
  8
AM_0
 10
239.83865226586181
 20
454.71936362289068
 30
0.0
 11
213.83868226586191
 21
454.03855362289079
 31
0.0
  0
ARC
  5
98F8
  8
AM_0
 10
237.8386222658618
 20
446.03885362289071
 30
0.0
 40
2.0
 50
270.0
 51
0.0
  0
LINE
  5
98F9
  8
AM_0
 10
224.7862822658617
 20
475.25159362289088
 30
0.0
 11
254.83862226586211
 21
476.03855362289062
 31
0.0
  0
ARC
  5
98FB
  8
AM_0
 10
224.83862226586189
 20
473.25229362289082
 30
0.0
 40
2.0
 50
91.500001000001546
 51
180.00001000000091
  0
LINE
  5
98FC
  8
AM_0
 10
251.83862226586189
 20
469.03855362289079
 30
0.0
 11
246.78631226586191
 21
468.90625362289092
 31
0.0
  0
LINE
  5
98FD
  8
AM_0
 10
252.24163226586199
 20
469.02799362289079
 30
0.0
 11
247.83865226586181
 21
471.33811362289077
 31
0.0
  0
LINE
  5
98FE
  8
AM_0
 10
254.83862226586211
 20
472.18259362289069
 30
0.0
 11
247.83862226586189
 21
475.85526362289067
 31
0.0
  0
ARC
  5
98FF
  8
AM_0
 10
241.83862226586189
 20
461.24985362289073
 30
0.0
 40
2.0
 50
90.000003000000945
 51
180.00001000000091
  0
ARC
  5
9900
  8
AM_0
 10
242.8386522658619
 20
465.24985362289073
 30
0.0
 40
2.0
 50
270.0
 51
0.0
  0
ARC
  5
9901
  8
AM_0
 10
246.83865226586201
 20
466.9069236228907
 30
0.0
 40
2.0
 50
91.500001000001546
 51
180.00001000000091
  0
LINE
  5
9902
  8
AM_0
 10
241.83862226586189
 20
463.24985362289073
 30
0.0
 11
242.8386522658619
 21
463.24985362289073
 31
0.0
  0
LINE
  5
9903
  8
AM_0
 10
247.83862226586189
 20
475.85523362289081
 30
0.0
 11
247.83862226586189
 21
471.33814362289093
 31
0.0
  0
LINE
  5
9904
  8
AM_0
 10
254.83862226586211
 20
468.95999362289081
 30
0.0
 11
254.83862226586211
 21
472.182563622891
 31
0.0
  0
ARC
  5
9905
  8
AM_0
 10
284.838622265862
 20
458.1358736228907
 30
0.0
 40
3.0
 50
0.0
 51
88.499997000000747
  0
CIRCLE
  5
9906
  8
AM_0
 10
304.83862226586172
 20
463.03855362289062
 30
0.0
 40
6.0
  0
LINE
  5
9907
  8
AM_0
 10
262.83862226586172
 20
448.10578362289078
 30
0.0
 11
262.83862226586172
 21
468.75049362289087
 31
0.0
  0
LINE
  5
9908
  8
AM_0
 10
263.838622265862
 20
449.57648362289081
 30
0.0
 11
263.838622265862
 21
463.12354362289102
 31
0.0
  0
LINE
  5
9909
  8
AM_0
 10
267.83859226586191
 20
461.12354362289062
 30
0.0
 11
267.83859226586191
 21
451.57651362289079
 31
0.0
  0
LINE
  5
990A
  8
AM_0
 10
287.83862226586189
 20
456.75754362289069
 30
0.0
 11
287.83862226586189
 21
470.04175362289101
 31
0.0
  0
LINE
  5
990B
  8
ﾁｭｳｼﾝｾﾝ
 10
304.83862226586172
 20
473.03855362289062
 30
0.0
 11
304.83862226586172
 21
453.03855362289079
 31
0.0
  0
LINE
  5
990C
  8
AM_0
 10
316.83862226586189
 20
472.46671362289101
 30
0.0
 11
316.83862226586189
 21
449.61038362289082
 31
0.0
  0
ARC
  5
990D
  8
AM_0
 10
308.83862226586172
 20
441.45688362289081
 30
0.0
 40
5.0
 50
0.0
 51
85.000004000001198
  0
ARC
  5
990E
  8
AM_0
 10
292.83862226586172
 20
456.75754362289069
 30
0.0
 40
5.0
 50
180.00001000000091
 51
265.00001000000071
  0
LINE
  5
990F
  8
AM_0
 10
297.91720226586182
 20
445.06305362289072
 30
0.0
 11
279.4205922658619
 21
445.54740362289073
 31
0.0
  0
LINE
  5
9910
  8
AM_0
 10
265.83862226586172
 20
448.10581362289088
 30
0.0
 11
279.42062226586188
 21
445.54743362289088
 31
0.0
  0
ARC
  5
9911
  8
AM_0
 10
266.83862226586189
 20
451.57651362289079
 30
0.0
 40
1.0
 50
269.999989999999
 51
0.0000006832462478
  0
LINE
  5
9912
  8
AM_0
 10
262.83862226586172
 20
448.10578362289078
 30
0.0
 11
265.83862226586172
 21
448.10578362289078
 31
0.0
  0
LINE
  5
9913
  8
AM_0
 10
262.83862226586172
 20
449.57648362289081
 30
0.0
 11
263.838622265862
 21
449.57648362289081
 31
0.0
  0
ARC
  5
9914
  8
AM_0
 10
266.83862226586189
 20
454.46326362289068
 30
0.0
 40
1.0
 50
269.999989999999
 51
0.0000006832462478
  0
ARC
  5
9915
  8
AM_0
 10
266.83862226586189
 20
460.23676362289069
 30
0.0
 40
1.0
 50
269.999989999999
 51
0.0000006832462478
  0
ARC
  5
9916
  8
AM_0
 10
266.83862226586189
 20
458.23679362289101
 30
0.0
 40
1.0
 50
0.0
 51
90.000003000000945
  0
ARC
  5
9917
  8
AM_0
 10
266.83862226586189
 20
452.46326362289079
 30
0.0
 40
1.0
 50
0.0
 51
90.000003000000945
  0
LINE
  5
9918
  8
AM_0
 10
263.838622265862
 20
453.46326362289062
 30
0.0
 11
266.83862226586189
 21
453.46326362289062
 31
0.0
  0
LINE
  5
9919
  8
AM_0
 10
263.838622265862
 20
459.23676362289081
 30
0.0
 11
266.83862226586189
 21
459.23676362289081
 31
0.0
  0
LINE
  5
991A
  8
AM_0
 10
263.838622265862
 20
450.57651362289079
 30
0.0
 11
266.83862226586189
 21
450.57651362289079
 31
0.0
  0
ARC
  5
991B
  8
AM_0
 10
297.83865226586181
 20
448.28955362289071
 30
0.0
 40
3.0
 50
0.0
 51
85.000004000001198
  0
ARC
  5
991C
  8
AM_0
 10
297.83865226586181
 20
442.06409362289088
 30
0.0
 40
3.0
 50
0.0
 51
88.499997000000747
  0
ARC
  5
991D
  8
AM_0
 10
305.01266226586188
 20
451.8298136228907
 30
0.0
 40
5.0
 50
206.2656700000002
 51
265.00001000000071
  0
LINE
  5
991E
  8
AM_0
 10
298.1001222658619
 20
451.27814362289081
 30
0.0
 11
292.40286226586181
 21
451.77658362289083
 31
0.0
  0
LINE
  5
991F
  8
AM_0
 10
309.27441226586183
 20
446.43787362289078
 30
0.0
 11
304.57690226586192
 21
446.84885362289077
 31
0.0
  0
LINE
  5
9920
  8
AM_0
 10
326.83862226586189
 20
402.03852362289069
 30
0.0
 11
358.83862226586172
 21
402.03852362289069
 31
0.0
  0
LINE
  5
9921
  8
AM_0
 10
326.83862226586189
 20
394.03855362289079
 30
0.0
 11
358.83862226586172
 21
394.03855362289079
 31
0.0
  0
LINE
  5
9922
  8
AM_0
 10
318.83859226586191
 20
386.03855362289079
 30
0.0
 11
358.83862226586172
 21
386.03855362289079
 31
0.0
  0
LINE
  5
9923
  8
AM_0
 10
318.83859226586191
 20
410.03855362289067
 30
0.0
 11
358.83862226586172
 21
410.03855362289067
 31
0.0
  0
ARC
  5
9924
  8
AM_0
 10
326.83862226586189
 20
398.03852362289092
 30
0.0
 40
3.9999962
 50
90.000003000000945
 51
270.0
  0
LINE
  5
9925
  8
AM_0
 10
326.83862226586189
 20
402.03852362289069
 30
0.0
 11
326.83862226586189
 21
394.03855362289079
 31
0.0
  0
LINE
  5
9926
  8
AM_0
 10
318.83859226586191
 20
410.53852362289081
 30
0.0
 11
318.83859226586191
 21
385.538583622891
 31
0.0
  0
LINE
  5
9927
  8
AM_0
 10
316.83862226586189
 20
385.538583622891
 30
0.0
 11
318.83859226586191
 21
385.538583622891
 31
0.0
  0
LINE
  5
9928
  8
AM_0
 10
316.83862226586189
 20
410.53852362289081
 30
0.0
 11
318.83859226586191
 21
410.53852362289081
 31
0.0
  0
LINE
  5
9929
  8
AM_0
 10
358.83862226586172
 20
410.03855362289067
 30
0.0
 11
358.83862226586172
 21
386.03855362289079
 31
0.0
  0
ARC
  5
992A
  8
AM_0
 10
315.83862226586172
 20
423.5728536228907
 30
0.0
 40
1.0
 50
0.0
 51
87.999999999999659
  0
ARC
  5
992B
  8
AM_0
 10
314.83862226586189
 20
425.60901362289081
 30
0.0
 40
1.0
 50
180.00001000000091
 51
267.9999999999996
  0
LINE
  5
992C
  8
AM_0
 10
314.80370226586172
 20
424.60959362289083
 30
0.0
 11
315.87350226586182
 21
424.57224362289071
 31
0.0
  0
ARC
  5
992D
  8
AM_0
 10
314.83862226586189
 20
449.61038362289082
 30
0.0
 40
2.0
 50
271.49999999999937
 51
0.0
  0
LINE
  5
992E
  8
AM_0
 10
313.83865226586181
 20
447.58353362289068
 30
0.0
 11
314.89098226586191
 21
447.61109362289062
 31
0.0
  0
ARC
  5
992F
  8
AM_0
 10
292.83862226586172
 20
470.04175362289101
 30
0.0
 40
5.0
 50
88.499997000000747
 51
180.00001000000091
  0
LINE
  5
9930
  8
AM_0
 10
266.93508226586192
 20
468.04178362289082
 30
0.0
 11
277.57183226586199
 21
461.92859362289101
 31
0.0
  0
ARC
  5
9931
  8
AM_0
 10
266.83862226586189
 20
461.12354362289062
 30
0.0
 40
1.0
 50
0.0
 51
90.000003000000945
  0
ARC
  5
9932
  8
AM_0
 10
264.4436022658619
 20
463.706763622891
 30
0.0
 40
5.0
 50
60.112980000000888
 51
88.499997000000747
  0
LINE
  5
9933
  8
AM_0
 10
262.83862226586172
 20
463.12354362289102
 30
0.0
 11
263.838622265862
 21
463.12354362289102
 31
0.0
  0
LINE
  5
9934
  8
AM_0
 10
263.838622265862
 20
462.12351362289081
 30
0.0
 11
266.83862226586189
 21
462.12351362289081
 31
0.0
  0
LINE
  5
9935
  8
AM_0
 10
284.91714226586191
 20
461.13480362289101
 30
0.0
 11
279.93240226586181
 21
461.26535362289093
 31
0.0
  0
ARC
  5
9936
  8
AM_0
 10
280.06329226586189
 20
466.2636436228907
 30
0.0
 40
5.0
 50
240.11298000000079
 51
268.5000000000004
  0
LINE
  5
9937
  8
ﾁｭｳｼﾝｾﾝ
 10
294.83862226586172
 20
463.03855362289062
 30
0.0
 11
314.83862226586189
 21
463.03855362289062
 31
0.0
  0
ARC
  5
9938
  8
AM_0
 10
314.83862226586189
 20
472.46671362289101
 30
0.0
 40
2.0
 50
0.0
 51
88.499997000000747
  0
LINE
  5
9980
  8
ﾁｭｳｼﾝｾﾝ
 10
294.83862226586172
 20
333.03855362289079
 30
0.0
 11
314.83862226586189
 21
333.03855362289079
 31
0.0
  0
LINE
  5
9981
  8
ﾁｭｳｼﾝｾﾝ
 10
304.83862226586172
 20
343.0385536228909
 30
0.0
 11
304.83862226586172
 21
323.03855362289079
 31
0.0
  0
LINE
  5
9988
  8
ﾁｭｳｼﾝｾﾝ
 10
224.83862226586211
 20
333.03855362289079
 30
0.0
 11
244.83862226586211
 21
333.03855362289079
 31
0.0
  0
LINE
  5
9989
  8
ﾁｭｳｼﾝｾﾝ
 10
234.83862226586211
 20
343.0385536228909
 30
0.0
 11
234.83862226586211
 21
323.03855362289079
 31
0.0
  0
LINE
  5
9990
  8
ﾁｭｳｼﾝｾﾝ
 10
224.83862226586211
 20
463.03855362289062
 30
0.0
 11
244.83862226586211
 21
463.03855362289062
 31
0.0
  0
LINE
  5
9991
  8
ﾁｭｳｼﾝｾﾝ
 10
234.83862226586211
 20
473.03855362289062
 30
0.0
 11
234.83862226586211
 21
453.03855362289079
 31
0.0
  0
LINE
  5
9997
  8
ﾁｭｳｼﾝｾﾝ
 10
468.5466347854566
 20
133.91901120915051
 30
0.0
 11
614.95470774626688
 21
133.91901120915051
 31
0.0
  0
ARC
  5
A213
  8
AM_0
 10
199.17868226586191
 20
363.03855362289079
 30
0.0
 40
1.0
 50
269.999989999999
 51
90.00000299999769
  0
LINE
  5
A214
  8
AM_0
 10
154.8386522658619
 20
361.3185836228908
 30
0.0
 11
202.65866226586189
 21
361.3185836228908
 31
0.0
  0
LINE
  5
A215
  8
AM_0
 10
184.8386522658619
 20
371.55857362289078
 30
0.0
 11
202.87289226586199
 21
371.55857362289078
 31
0.0
  0
LINE
  5
A216
  8
AM_0
 10
202.65866226586189
 20
364.6685536228909
 30
0.0
 11
184.81863226586191
 21
364.6685536228909
 31
0.0
  0
ARC
  5
A217
  8
AM_0
 10
199.178622265862
 20
373.03855362289079
 30
0.0
 40
1.0000255999999981
 50
269.58947000000319
 51
90.410530999997775
  0
LINE
  5
A218
  8
AM_0
 10
99.298672265862024
 20
421.59861362289092
 30
0.0
 11
202.87289226586199
 21
421.59861362289092
 31
0.0
  0
LINE
  5
A219
  8
AM_0
 10
99.518642265862013
 20
434.75852362289078
 30
0.0
 11
202.65866226586189
 21
434.75852362289078
 31
0.0
  0
LINE
  5
A21A
  8
AM_0
 10
184.8386522658619
 20
424.52854362289082
 30
0.0
 11
202.88431226586189
 21
424.52854362289082
 31
0.0
  0
ARC
  5
A21B
  8
AM_0
 10
199.178622265862
 20
423.03855362289067
 30
0.0
 40
1.0000255999999981
 50
269.58947000000319
 51
90.410530999997775
  0
LINE
  5
A21C
  8
AM_0
 10
184.81863226586191
 20
431.3985336228908
 30
0.0
 11
202.65866226586189
 21
431.3985336228908
 31
0.0
  0
ARC
  5
A21D
  8
AM_0
 10
199.17868226586191
 20
433.03855362289079
 30
0.0
 40
1.0
 50
269.999989999999
 51
90.00000299999769
  0
LINE
  5
A21E
  8
AM_0
 10
204.04434226586201
 20
358.7196136228909
 30
0.0
 11
199.89859226586199
 21
343.2385036228909
 31
0.0
  0
LINE
  5
A21F
  8
AM_0
 10
204.8386522658619
 20
345.03852362289092
 30
0.0
 11
199.1128522658619
 21
336.22156362289093
 31
0.0
  0
LINE
  5
A220
  8
AM_0
 10
204.04437226586199
 20
442.05738362289088
 30
0.0
 11
199.8986522658619
 21
457.53849362289071
 31
0.0
  0
LINE
  5
A221
  8
AM_0
 10
204.044402265862
 20
442.96738362289108
 30
0.0
 11
199.89868226586191
 21
458.44849362289108
 31
0.0
  0
LINE
  5
A222
  8
AM_0
 10
204.04437226586199
 20
440.20740362289069
 30
0.0
 11
199.8986522658619
 21
455.68854362289079
 31
0.0
  0
LINE
  5
A223
  8
AM_0
 10
204.03866226586189
 20
437.37848362289083
 30
0.0
 11
199.8986522658619
 21
452.83850362289081
 31
0.0
  0
LINE
  5
A224
  8
AM_0
 10
99.298672265862024
 20
374.47849362289088
 30
0.0
 11
202.87289226586199
 21
374.47849362289088
 31
0.0
  0
ARC
  5
A225
  8
AM_0
 10
197.85483226586189
 20
337.0385536228909
 30
0.0
 40
1.5
 50
269.999989999999
 51
326.99999999999801
  0
ARC
  5
A226
  8
AM_0
 10
186.417732951647
 20
334.0385536228909
 30
0.0
 40
1.5
 50
90.0
 51
178.4998650936468
1001
GENIUS_GENODEF_13
1002
{
1000
HIER
1070
     0
1002
}
1002
{
1000
MANEDIT
1070
     0
1002
}
1002
{
1000
NOSEL
1070
     0
1002
}
1002
{
1000
BEHIND
1070
     0
1002
}
1002
{
1000
REACTOR
1002
}
1001
GENIUS_GENOBJ-N-FIL_13
1002
{
1000
OWNER
1000
GEN
1002
}
  0
LINE
  5
A227
  8
AM_0
 10
184.8386522658619
 20
331.03849362289088
 30
0.0
 11
185.1193913889251
 21
341.75852362289089
 31
0.0
  0
LINE
  5
A228
  8
AM_0
 10
124.838592265862
 20
331.03852362289092
 30
0.0
 11
124.55792807852301
 21
341.75852362289078
 31
0.0
  0
LINE
  5
A229
  8
AM_0
 10
80.838652265862024
 20
338.0385536228909
 30
0.0
 11
80.838652265862024
 21
333.0385536228909
 31
0.0
  0
LINE
  5
A22A
  8
AM_0
 10
77.838652265862052
 20
339.2885536228909
 30
0.0
 11
77.838652265862052
 21
333.0385536228909
 31
0.0
  0
LINE
  5
A22B
  8
AM_0
 10
67.838652265862038
 20
339.2885536228909
 30
0.0
 11
67.838652265862038
 21
333.0385536228909
 31
0.0
  0
ARC
  5
A22C
  8
AM_0
 10
43.337222165861981
 20
342.0385536228909
 30
0.0
 40
9.0
 50
179.99997999999781
 51
269.99995000000138
  0
LINE
  5
A22D
  8
AM_0
 10
43.337222165861981
 20
333.0385536228909
 30
0.0
 11
80.838652265862024
 21
333.0385536228909
 31
0.0
  0
LINE
  5
A22E
  8
AM_0
 10
173.7408146974409
 20
328.5385536228909
 30
0.0
 11
135.94081469744091
 21
328.5385536228909
 31
0.0
  0
LINE
  5
A22F
  8
AM_0
 10
188.3386522658619
 20
331.0385536228909
 30
0.0
 11
121.338652265862
 21
331.0385536228909
 31
0.0
  0
LINE
  5
A230
  8
AM_0
 10
184.5665098342819
 20
307.5385536228909
 30
0.0
 11
108.26650983428191
 21
294.5385536228909
 31
0.0
  0
LINE
  5
A231
  8
AM_0
 10
183.74081469744181
 20
294.5385536228909
 30
0.0
 11
108.26650983428191
 21
294.5385536228909
 31
0.0
  0
LINE
  5
A232
  8
AM_0
 10
107.940814697441
 20
298.5385536228909
 30
0.0
 11
184.2408146974409
 21
311.5385536228909
 31
0.0
  0
LINE
  5
A233
  8
AM_0
 10
107.940814697441
 20
298.5385536228909
 30
0.0
 11
184.2408146974409
 21
311.5385536228909
 31
0.0
  0
LINE
  5
A234
  8
AM_0
 10
107.8593909132299
 20
299.5385536228909
 30
0.0
 11
139.83746065196189
 21
304.98697965963493
 31
0.0
  0
ARC
  5
A235
  8
AM_0
 10
105.3408146974409
 20
296.03855362289107
 30
0.0
 40
1.5
 50
180.0
 51
270.0
  0
ARC
  5
A236
  8
AM_0
 10
104.8408146974419
 20
296.03855362289198
 30
0.0
 40
1.5
 50
180.00000000000659
 51
269.99999999999341
  0
LINE
  5
A237
  8
AM_0
 10
107.8593909132299
 20
299.5385536228909
 30
0.0
 11
104.1408146974409
 21
299.5385536228909
 31
0.0
  0
LINE
  5
A238
  8
AM_0
 10
104.1408146974409
 20
298.5385536228909
 30
0.0
 11
107.940814697441
 21
298.5385536228909
 31
0.0
  0
LINE
  5
A239
  8
AM_0
 10
103.8408146974409
 20
298.5385536228909
 30
0.0
 11
107.940814697441
 21
298.5385536228909
 31
0.0
  0
LINE
  5
A23A
  8
AM_0
 10
104.54081469744079
 20
303.5385536228909
 30
0.0
 11
104.1408146974409
 21
303.5385536228909
 31
0.0
  0
LINE
  5
A23B
  8
AM_0
 10
103.340814697442
 20
303.23855362289191
 30
0.0
 11
103.340814697442
 21
296.03855362289107
 31
0.0
  0
LINE
  5
A23C
  8
AM_0
 10
103.8408146974409
 20
298.23855362289208
 30
0.0
 11
103.8408146974409
 21
296.03855362289107
 31
0.0
  0
ARC
  5
A23D
  8
AM_0
 10
104.1408146974409
 20
299.23855362289191
 30
0.0
 40
0.3
 50
90.0
 51
180.0
  0
ARC
  5
A23E
  8
AM_0
 10
104.1408146974409
 20
298.23855362289208
 30
0.0
 40
0.3
 50
90.0
 51
180.0
  0
LINE
  5
A23F
  8
AM_0
 10
103.8408146974409
 20
299.23855362289191
 30
0.0
 11
103.8408146974409
 21
298.5385536228909
 31
0.0
  0
LINE
  5
A240
  8
AM_0
 10
104.1408146974409
 20
303.5385536228909
 30
0.0
 11
103.6408146974419
 21
303.5385536228909
 31
0.0
  0
ARC
  5
A241
  8
AM_0
 10
103.6408146974419
 20
303.23855362289191
 30
0.0
 40
0.3
 50
90.0
 51
180.0
  0
CIRCLE
  5
A242
  8
AM_0
 10
120.440814697441
 20
311.5385536228909
 30
0.0
 40
6.299999999999998
  0
LINE
  5
A243
  8
AM_0
 10
129.7408146974409
 20
328.5385536228909
 30
0.0
 11
129.7408146974409
 21
311.5385536228909
 31
0.0
  0
LINE
  5
A244
  8
AM_0
 10
111.1408146974409
 20
328.5385536228909
 30
0.0
 11
111.1408146974409
 21
311.5385536228909
 31
0.0
  0
LINE
  5
A245
  8
AM_0
 10
105.3408146974409
 20
327.5385536228909
 30
0.0
 11
105.3408146974409
 21
304.53855362289107
 31
0.0
  0
LINE
  5
A246
  8
ﾁｭｳｼﾝｾﾝ
 10
120.440814697441
 20
323.53856862289092
 30
0.0
 11
120.440814697441
 21
299.53856862289081
 31
0.0
  0
ARC
  5
A247
  8
AM_0
 10
120.440814697441
 20
311.5385536228909
 30
0.0
 40
9.3000000000000007
 50
180.0
 51
0.0
  0
LINE
  5
A248
  8
ﾁｭｳｼﾝｾﾝ
 10
108.44081469745031
 20
311.5385536228909
 30
0.0
 11
132.44081469743159
 21
311.5385536228909
 31
0.0
  0
LINE
  5
A249
  8
AM_0
 10
105.04081469744079
 20
301.73419630360689
 30
0.0
 11
105.04081469744079
 21
304.33855362289188
 31
0.0
  0
LINE
  5
A24A
  8
AM_0
 10
104.8408146974409
 20
299.5385536228909
 30
0.0
 11
104.8408146974409
 21
303.23855362289191
 31
0.0
  0
LINE
  5
A24B
  8
AM_0
 10
105.3408146974409
 20
304.53855362289107
 30
0.0
 11
105.3408146974399
 21
299.5385536228909
 31
0.0
  0
LINE
  5
A24C
  8
AM_0
 10
105.3408146974409
 20
294.5385536228909
 30
0.0
 11
108.26650983428191
 21
294.5385536228909
 31
0.0
  0
LINE
  5
A24D
  8
AM_0
 10
104.8408146974419
 20
294.5385536228909
 30
0.0
 11
105.1393005935989
 21
294.5385536228921
 31
0.0
  0
LINE
  5
A24E
  8
AM_0
 10
104.8408146974409
 20
301.73419630360689
 30
0.0
 11
105.04081469744079
 21
301.73419630360689
 31
0.0
  0
LINE
  5
A24F
  8
AM_0
 10
105.04081469744079
 20
299.5385536228909
 30
0.0
 11
105.04081469744079
 21
300.5341963036069
 31
0.0
  0
LINE
  5
A250
  8
AM_0
 10
105.04081469744079
 20
300.5341963036069
 30
0.0
 11
104.8408146974409
 21
300.5341963036069
 31
0.0
  0
LINE
  5
A251
  8
AM_0
 10
105.04081469744079
 20
300.5341963036069
 30
0.0
 11
105.04081469744079
 21
301.73419630360689
 31
0.0
  0
LINE
  5
A252
  8
AM_0
 10
105.04081469744079
 20
304.33855362289188
 30
0.0
 11
105.2408146974409
 21
304.53855362289107
 31
0.0
  0
LINE
  5
A253
  8
AM_0
 10
105.2408146974409
 20
304.53855362289107
 30
0.0
 11
105.3408146974409
 21
304.53855362289107
 31
0.0
  0
ARC
  5
A254
  8
AM_0
 10
104.54081469744079
 20
303.23855362289191
 30
0.0
 40
0.3
 50
0.0
 51
90.0
  0
CIRCLE
  5
A255
  8
AM_0
 10
134.94081469744091
 20
311.5385536228909
 30
0.0
 40
0.75
  0
LINE
  5
A256
  8
AM_0
 10
111.1408146974409
 20
328.5385536228909
 30
0.0
 11
128.7408146974409
 21
328.5385536228909
 31
0.0
  0
LINE
  5
A257
  8
AM_0
 10
106.3408146974409
 20
328.5385536228909
 30
0.0
 11
111.1408146974409
 21
328.5385536228909
 31
0.0
  0
ARC
  5
A258
  8
AM_0
 10
106.3408146974409
 20
327.5385536228909
 30
0.0
 40
1.0
 50
90.0
 51
180.0
  0
LINE
  5
A259
  8
AM_0
 10
121.338652265862
 20
328.5385536228909
 30
0.0
 11
121.338652265862
 21
331.0385536228909
 31
0.0
  0
LINE
  5
A25A
  8
AM_0
 10
135.94081469744091
 20
328.5385536228909
 30
0.0
 11
129.7408146974409
 21
328.5385536228909
 31
0.0
  0
LINE
  5
A25B
  8
AM_0
 10
128.7408146974409
 20
328.5385536228909
 30
0.0
 11
129.7408146974409
 21
328.5385536228909
 31
0.0
  0
LINE
  5
A25C
  8
AM_0
 10
167.7542308793488
 20
309.7434411662669
 30
0.0
 11
177.6159409632879
 21
311.4236801058629
 31
0.0
  0
LINE
  5
A25D
  8
AM_0
 10
153.4408146974429
 20
307.30472019162988
 30
0.0
 11
153.4408146974429
 21
320.82717744369307
 31
0.0
  0
LINE
  5
A25E
  8
AM_0
 10
139.83746065196189
 20
320.82717744369307
 30
0.0
 11
139.83746065196189
 21
304.98697965963493
 31
0.0
  0
LINE
  5
A25F
  8
AM_0
 10
167.7542308793488
 20
309.7434411662669
 30
0.0
 11
167.7542308793488
 21
323.5385536228909
 31
0.0
  0
LINE
  5
A260
  8
AM_0
 10
147.7374606519619
 20
323.5385536228909
 30
0.0
 11
147.7374606519619
 21
306.33298228086687
 31
0.0
  0
LINE
  5
A261
  8
AM_0
 10
145.53746065196191
 20
305.95814610786601
 30
0.0
 11
145.53746065196191
 21
323.5385536228909
 31
0.0
  0
LINE
  5
A262
  8
AM_0
 10
144.03746065196179
 20
323.5385536228909
 30
0.0
 11
144.0374606519629
 21
305.70257598990992
 31
0.0
  0
LINE
  5
A263
  8
AM_0
 10
141.83746065196189
 20
305.327739816909
 30
0.0
 11
141.83746065196189
 21
323.5385536228921
 31
0.0
  0
LINE
  5
A264
  8
AM_0
 10
151.44081469743989
 20
323.5385536228909
 30
0.0
 11
151.44081469743989
 21
306.96396003435609
 31
0.0
  0
LINE
  5
A265
  8
AM_0
 10
149.2374606519619
 20
306.588552398822
 30
0.0
 11
149.2374606519619
 21
323.5385536228909
 31
0.0
  0
LINE
  5
A266
  8
AM_0
 10
164.050876833872
 20
309.11246341277791
 30
0.0
 11
164.050876833872
 21
323.5385536228909
 31
0.0
  0
LINE
  5
A267
  8
AM_0
 10
162.55087683387191
 20
323.5385536228909
 30
0.0
 11
162.55087683387191
 21
308.85689329482187
 31
0.0
  0
LINE
  5
A268
  8
AM_0
 10
160.34752278839491
 20
308.48148565928881
 30
0.0
 11
160.34752278839491
 21
323.5385536228909
 31
0.0
  0
LINE
  5
A269
  8
AM_0
 10
158.84752278839491
 20
323.5385536228909
 30
0.0
 11
158.84752278839491
 21
308.2259155413339
 31
0.0
  0
LINE
  5
A26A
  8
AM_0
 10
156.6441687429168
 20
307.85050790579987
 30
0.0
 11
156.6441687429168
 21
323.5385536228909
 31
0.0
  0
LINE
  5
A26B
  8
AM_0
 10
155.1441687429168
 20
323.5385536228909
 30
0.0
 11
155.1441687429168
 21
307.59493778784508
 31
0.0
  0
LINE
  5
A26C
  8
AM_0
 10
166.2542308793488
 20
323.5385536228909
 30
0.0
 11
166.2542308793488
 21
309.48787104831092
 31
0.0
  0
LINE
  5
A26D
  8
AM_0
 10
141.83746065196189
 20
305.327739816909
 30
0.0
 11
144.0374606519629
 21
305.70257598990992
 31
0.0
  0
LINE
  5
A26E
  8
AM_0
 10
145.53746065196191
 20
305.95814610786601
 30
0.0
 11
147.7374606519619
 21
306.33298228086687
 31
0.0
  0
LINE
  5
A26F
  8
AM_0
 10
149.2374606519619
 20
306.588552398822
 30
0.0
 11
151.44081469743989
 21
306.96396003435609
 31
0.0
  0
LINE
  5
A270
  8
AM_0
 10
153.4408146974429
 20
307.30472019162988
 30
0.0
 11
155.1441687429168
 21
307.59493778784508
 31
0.0
  0
LINE
  5
A271
  8
AM_0
 10
156.6441687429168
 20
307.85050790579987
 30
0.0
 11
158.84752278839491
 21
308.2259155413339
 31
0.0
  0
LINE
  5
A272
  8
AM_0
 10
164.050876833872
 20
309.11246341277791
 30
0.0
 11
166.2542308793488
 21
309.48787104831092
 31
0.0
  0
LINE
  5
A273
  8
AM_0
 10
160.34752278839491
 20
308.48148565928881
 30
0.0
 11
162.55087683387191
 21
308.85689329482187
 31
0.0
  0
LINE
  5
A274
  8
AM_0
 10
152.7408146974399
 20
323.5385536228909
 30
0.0
 11
151.44081469743989
 21
323.5385536228909
 31
0.0
  0
LINE
  5
A275
  8
AM_0
 10
153.4408146974429
 20
319.5385536228909
 30
0.0
 11
151.44081469743989
 21
319.5385536228909
 31
0.0
  0
LINE
  5
A276
  8
AM_0
 10
145.53746065196191
 20
323.5385536228909
 30
0.0
 11
144.03746065196179
 21
323.5385536228909
 31
0.0
  0
LINE
  5
A277
  8
AM_0
 10
145.53746065196191
 20
319.5385536228909
 30
0.0
 11
144.03746065196179
 21
319.5385536228909
 31
0.0
  0
LINE
  5
A278
  8
AM_0
 10
140.53746065196191
 20
321.49452950029701
 30
0.0
 11
139.83746065196189
 21
320.82717744369307
 31
0.0
  0
LINE
  5
A279
  8
AM_0
 10
141.83746065196189
 20
319.5385536228909
 30
0.0
 11
139.83746065196189
 21
319.5385536228909
 31
0.0
  0
LINE
  5
A27A
  8
AM_0
 10
141.83746065196189
 20
323.5385536228921
 30
0.0
 11
140.53746065196191
 21
323.5385536228909
 31
0.0
  0
LINE
  5
A27B
  8
AM_0
 10
140.53746065196191
 20
323.5385536228909
 30
0.0
 11
140.53746065196191
 21
321.49452950029701
 31
0.0
  0
LINE
  5
A27C
  8
AM_0
 10
149.2374606519619
 20
323.5385536228909
 30
0.0
 11
147.7374606519619
 21
323.5385536228909
 31
0.0
  0
LINE
  5
A27D
  8
AM_0
 10
149.2374606519619
 20
319.5385536228909
 30
0.0
 11
147.7374606519619
 21
319.5385536228909
 31
0.0
  0
LINE
  5
A27E
  8
AM_0
 10
160.34752278839491
 20
323.5385536228909
 30
0.0
 11
158.84752278839491
 21
323.5385536228909
 31
0.0
  0
LINE
  5
A27F
  8
AM_0
 10
160.34752278839491
 20
319.5385536228909
 30
0.0
 11
158.84752278839491
 21
319.5385536228909
 31
0.0
  0
LINE
  5
A280
  8
AM_0
 10
156.6441687429168
 20
323.5385536228909
 30
0.0
 11
155.1441687429168
 21
323.5385536228909
 31
0.0
  0
LINE
  5
A281
  8
AM_0
 10
156.6441687429168
 20
319.5385536228909
 30
0.0
 11
155.1441687429168
 21
319.5385536228909
 31
0.0
  0
LINE
  5
A282
  8
AM_0
 10
153.4408146974429
 20
320.82717744369307
 30
0.0
 11
152.7408146974399
 21
321.49452950029701
 31
0.0
  0
LINE
  5
A283
  8
AM_0
 10
152.7408146974399
 20
321.49452950029701
 30
0.0
 11
152.7408146974399
 21
323.5385536228909
 31
0.0
  0
LINE
  5
A284
  8
AM_0
 10
164.050876833872
 20
323.5385536228909
 30
0.0
 11
162.55087683387191
 21
323.5385536228909
 31
0.0
  0
LINE
  5
A285
  8
AM_0
 10
164.050876833872
 20
319.5385536228909
 30
0.0
 11
162.55087683387191
 21
319.5385536228909
 31
0.0
  0
LINE
  5
A286
  8
AM_0
 10
167.7542308793488
 20
323.5385536228909
 30
0.0
 11
166.2542308793488
 21
323.5385536228909
 31
0.0
  0
LINE
  5
A287
  8
AM_0
 10
167.7542308793488
 20
319.5385536228909
 30
0.0
 11
166.2542308793488
 21
319.5385536228909
 31
0.0
  0
LINE
  5
A288
  8
AM_0
 10
192.6159409632879
 20
311.5385536228909
 30
0.0
 11
192.6159409632879
 21
327.5385536228909
 31
0.0
  0
LINE
  5
A289
  8
AM_0
 10
177.6159409632879
 20
311.4236801058629
 30
0.0
 11
177.6159409632879
 21
328.5385536228909
 31
0.0
  0
ARC
  5
A28A
  8
AM_0
 10
183.74081469744181
 20
297.0385536228909
 30
0.0
 40
2.5
 50
270.0
 51
0.0
  0
LINE
  5
A28B
  8
AM_0
 10
175.97096621645889
 20
294.5385536228909
 30
0.0
 11
175.97096621645889
 21
306.0740442253591
 31
0.0
  0
CIRCLE
  5
A28C
  8
AM_0
 10
169.440814697441
 20
311.5385536228909
 30
0.0
 40
0.75
  0
LINE
  5
A28D
  8
AM_0
 10
176.84081469744191
 20
306.22434839559401
 30
0.0
 11
176.84081469744191
 21
310.27774104097767
 31
0.0
  0
LINE
  5
A28E
  8
AM_0
 10
186.24081469744181
 20
307.0385536228909
 30
0.0
 11
186.24081469744181
 21
297.0385536228909
 31
0.0
  0
LINE
  5
A28F
  8
AM_0
 10
192.6159409632879
 20
311.5385536228909
 30
0.0
 11
184.2408146974409
 21
311.5385536228909
 31
0.0
  0
ARC
  5
A290
  8
AM_0
 10
192.1159409632879
 20
308.0385536228909
 30
0.0
 40
0.5
 50
270.0
 51
0.0
  0
LINE
  5
A291
  8
AM_0
 10
186.74081469744181
 20
307.5385536228909
 30
0.0
 11
192.1159409632879
 21
307.5385536228909
 31
0.0
  0
LINE
  5
A292
  8
AM_0
 10
186.74081469744181
 20
307.5385536228909
 30
0.0
 11
184.5665098342819
 21
307.5385536228909
 31
0.0
  0
ARC
  5
A293
  8
AM_0
 10
186.74081469744181
 20
307.0385536228909
 30
0.0
 40
0.5
 50
90.0
 51
180.0
  0
LINE
  5
A294
  8
AM_0
 10
192.6159409632879
 20
311.5385536228909
 30
0.0
 11
192.6159409632879
 21
308.0385536228909
 31
0.0
  0
LINE
  5
A295
  8
AM_0
 10
191.6159409632879
 20
328.5385536228909
 30
0.0
 11
180.940814697441
 21
328.5385536228909
 31
0.0
  0
LINE
  5
A296
  8
AM_0
 10
180.940814697441
 20
328.5385536228909
 30
0.0
 11
173.7408146974409
 21
328.5385536228909
 31
0.0
  0
LINE
  5
A297
  8
AM_0
 10
186.417732951647
 20
335.5385536228909
 30
0.0
 11
197.85483226586189
 21
335.5385536228909
 31
0.0
  0
ARC
  5
A298
  8
AM_0
 10
191.6159409632879
 20
327.5385536228909
 30
0.0
 40
1.0
 50
0.0
 51
90.0
  0
LINE
  5
A299
  8
AM_0
 10
188.3386522658619
 20
328.5385536228909
 30
0.0
 11
188.3386522658619
 21
331.0385536228909
 31
0.0
  0
LINE
  5
A29A
  8
AM_0
 10
64.838652265862024
 20
456.78855362289062
 30
0.0
 11
89.838652265862024
 21
456.78855362289062
 31
0.0
  0
LINE
  5
A29B
  8
AM_0
 10
41.838652265862031
 20
450.78855362289079
 30
0.0
 11
89.838652265862024
 21
450.78855362289079
 31
0.0
  0
LINE
  5
A29C
  8
AM_0
 10
42.338652265862017
 20
431.67954362289078
 30
0.0
 11
84.838652265862024
 21
431.67954362289078
 31
0.0
  0
LINE
  5
A29D
  8
AM_0
 10
42.338652265862017
 20
441.92954362289078
 30
0.0
 11
84.838652265862024
 21
441.92954362289078
 31
0.0
  0
LINE
  5
A29E
  8
AM_0
 10
64.838652265862024
 20
339.2885536228909
 30
0.0
 11
89.838652265862024
 21
339.2885536228909
 31
0.0
  0
LINE
  5
A29F
  8
AM_0
 10
42.338652265862017
 20
354.1475636228908
 30
0.0
 11
84.838652265862024
 21
354.1475636228908
 31
0.0
  0
LINE
  5
A2A0
  8
AM_0
 10
42.338652265862017
 20
364.3975636228908
 30
0.0
 11
84.838652265862024
 21
364.3975636228908
 31
0.0
  0
LINE
  5
A2A1
  8
AM_0
 10
41.838652265862031
 20
345.2885536228909
 30
0.0
 11
89.838652265862024
 21
345.2885536228909
 31
0.0
  0
LINE
  5
A2A2
  8
AM_0
 10
43.337222165861981
 20
463.03855362289067
 30
0.0
 11
80.838652265862024
 21
463.03855362289067
 31
0.0
  0
LINE
  5
A2A3
  8
AM_0
 10
42.338652265862017
 20
345.25656362289101
 30
0.0
 11
42.338652265862017
 21
450.78855362289079
 31
0.0
  0
LINE
  5
A2A4
  8
AM_0
 10
39.337222165862002
 20
432.77701471859791
 30
0.0
 11
39.337222165862002
 21
363.30009252718338
 31
0.0
  0
LINE
  5
A2A5
  8
AM_0
 10
39.838652265862031
 20
363.50949362289077
 30
0.0
 11
39.838652265862031
 21
432.56760362289111
 31
0.0
  0
LINE
  5
A2A6
  8
AM_0
 10
34.337222165861988
 20
454.03855362289079
 30
0.0
 11
34.337222165861988
 21
342.0385536228909
 31
0.0
  0
ARC
  5
A2A7
  8
AM_0
 10
44.337222165861988
 20
343.0385536228909
 30
0.0
 40
5.0
 50
179.99997999999781
 51
269.99995000000138
  0
ARC
  5
A2A8
  8
AM_0
 10
41.838652265862031
 20
347.2885536228909
 30
0.0
 40
2.0
 50
179.99997999999781
 51
269.99995000000138
  0
LINE
  5
A2A9
  8
AM_0
 10
40.738682265861932
 20
354.6475636228908
 30
0.0
 11
41.038662265861937
 21
354.6475636228908
 31
0.0
  0
LINE
  5
A2AA
  8
AM_0
 10
40.738682265861932
 20
363.6475636228908
 30
0.0
 11
41.038662265861937
 21
363.6475636228908
 31
0.0
  0
LINE
  5
A2AB
  8
AM_0
 10
37.738682265861939
 20
360.6475636228908
 30
0.0
 11
37.738682265861939
 21
357.6475636228908
 31
0.0
  0
LINE
  5
A2AC
  8
AM_0
 10
39.337222165862002
 20
354.99503471859811
 30
0.0
 11
39.337222165862002
 21
343.0385536228909
 31
0.0
  0
LINE
  5
A2AD
  8
AM_0
 10
39.838652265862031
 20
354.78562362289091
 30
0.0
 11
39.838652265862031
 21
347.2885536228909
 31
0.0
  0
ARC
  5
A2AE
  8
AM_0
 10
40.738682265861932
 20
357.6475636228908
 30
0.0
 40
3.0
 50
179.99997999999781
 51
269.99995000000138
  0
ARC
  5
A2AF
  8
AM_0
 10
40.738682265861932
 20
360.6475636228908
 30
0.0
 40
3.0
 50
89.999988999997569
 51
179.99997999999781
  0
LINE
  5
A2B0
  8
AM_0
 10
41.038662265861937
 20
363.74753362289078
 30
0.0
 11
41.038662265861937
 21
354.54758362289078
 31
0.0
  0
LINE
  5
A2B1
  8
AM_0
 10
44.337222165861988
 20
338.0385536228909
 30
0.0
 11
67.838652265862038
 21
338.0385536228909
 31
0.0
  0
LINE
  5
A2B2
  8
AM_0
 10
41.038662265861937
 20
354.54758362289078
 30
0.0
 11
42.338652265862017
 21
354.54758362289078
 31
0.0
  0
LINE
  5
A2B3
  8
AM_0
 10
64.838652265862024
 20
339.2885536228909
 30
0.0
 11
64.838652265862024
 21
345.2885536228909
 31
0.0
  0
LINE
  5
A2B4
  8
AM_0
 10
41.038662265861937
 20
363.74753362289078
 30
0.0
 11
42.338652265862017
 21
363.74753362289078
 31
0.0
  0
LINE
  5
A2B5
  8
AM_0
 10
33.338682265862019
 20
393.0385536228909
 30
0.0
 11
33.338682265862019
 21
403.03855362289102
 31
0.0
  0
LINE
  5
A2B6
  8
AM_0
 10
34.337222165861988
 20
393.0385536228909
 30
0.0
 11
33.338682265862019
 21
393.0385536228909
 31
0.0
  0
LINE
  5
A2B7
  8
AM_0
 10
39.838652265862031
 20
393.0385536228909
 30
0.0
 11
39.337222165862002
 21
393.0385536228909
 31
0.0
  0
LINE
  5
A2B8
  8
AM_0
 10
34.337222165861988
 20
403.03855362289102
 30
0.0
 11
33.338682265862019
 21
403.03855362289102
 31
0.0
  0
LINE
  5
A2B9
  8
AM_0
 10
39.838652265862031
 20
403.03855362289102
 30
0.0
 11
39.337222165862002
 21
403.03855362289102
 31
0.0
  0
LINE
  5
A2BA
  8
AM_0
 10
40.738682265861932
 20
432.42954362289072
 30
0.0
 11
41.038662265861937
 21
432.42954362289072
 31
0.0
  0
LINE
  5
A2BB
  8
AM_0
 10
40.738682265861932
 20
441.42954362289078
 30
0.0
 11
41.038662265861937
 21
441.42954362289078
 31
0.0
  0
ARC
  5
A2BC
  8
AM_0
 10
41.838652265862031
 20
448.78855362289062
 30
0.0
 40
2.0
 50
90.000049999998538
 51
180.00002000000191
  0
ARC
  5
A2BD
  8
AM_0
 10
43.337222165861981
 20
454.03855362289079
 30
0.0
 40
9.0
 50
89.999988999997569
 51
179.99997999999781
  0
ARC
  5
A2BE
  8
AM_0
 10
44.337222165861988
 20
453.03855362289102
 30
0.0
 40
5.0
 50
89.999988999997569
 51
180.0
  0
LINE
  5
A2BF
  8
AM_0
 10
39.337222165862002
 20
441.08207252718353
 30
0.0
 11
39.337222165862002
 21
453.03855362289079
 31
0.0
  0
LINE
  5
A2C0
  8
AM_0
 10
39.838652265862031
 20
441.29148362289078
 30
0.0
 11
39.838652265862031
 21
448.78855362289062
 31
0.0
  0
ARC
  5
A2C1
  8
AM_0
 10
40.738682265861932
 20
435.42954362289072
 30
0.0
 40
3.0
 50
180.00002000000191
 51
270.00001100000242
  0
ARC
  5
A2C2
  8
AM_0
 10
40.738682265861932
 20
438.42954362289072
 30
0.0
 40
3.0
 50
90.000049999998538
 51
180.00002000000191
  0
LINE
  5
A2C3
  8
AM_0
 10
37.738682265861939
 20
435.42954362289072
 30
0.0
 11
37.738682265861939
 21
438.42954362289072
 31
0.0
  0
LINE
  5
A2C4
  8
AM_0
 10
41.038662265861937
 20
432.32957362289062
 30
0.0
 11
41.038662265861937
 21
441.52952362289062
 31
0.0
  0
LINE
  5
A2C5
  8
AM_0
 10
41.038662265861937
 20
432.32957362289062
 30
0.0
 11
42.338652265862017
 21
432.32957362289062
 31
0.0
  0
LINE
  5
A2C6
  8
AM_0
 10
41.038662265861937
 20
441.52952362289062
 30
0.0
 11
42.338652265862017
 21
441.52952362289062
 31
0.0
  0
LINE
  5
A2C7
  8
AM_0
 10
44.337222165861988
 20
458.03855362289079
 30
0.0
 11
67.838652265862038
 21
458.03855362289079
 31
0.0
  0
LINE
  5
A2C8
  8
AM_0
 10
67.838652265862038
 20
456.78855362289067
 30
0.0
 11
67.838652265862038
 21
463.03855362289067
 31
0.0
  0
LINE
  5
A2C9
  8
AM_0
 10
64.838652265862024
 20
456.78855362289062
 30
0.0
 11
64.838652265862024
 21
450.78855362289079
 31
0.0
  0
LINE
  5
A2CA
  8
AM_0
 10
84.838652265862024
 20
360.85349362289088
 30
0.0
 11
84.838652265862024
 21
435.22458362289092
 31
0.0
  0
ARC
  5
A2CB
  8
AM_0
 10
184.8386522658619
 20
425.53855362289067
 30
0.0
 40
1.02
 50
179.99998999999889
 51
270.0
  0
ARC
  5
A2CC
  8
AM_0
 10
184.8386522658619
 20
425.53855362289067
 30
0.0
 40
1.5
 50
179.99998999999889
 51
270.0
  0
ARC
  5
A2CD
  8
AM_0
 10
166.8386522658619
 20
425.53855362289067
 30
0.0
 40
1.02
 50
269.999989999999
 51
0.0000006832429909
  0
ARC
  5
A2CE
  8
AM_0
 10
166.8386522658619
 20
425.53855362289067
 30
0.0
 40
1.5
 50
269.999989999999
 51
0.0000006832495047
  0
ARC
  5
A2CF
  8
AM_0
 10
99.298672265862024
 20
423.063573622891
 30
0.0
 40
1.465004
 50
90.00000299999769
 51
270.0
  0
LINE
  5
A2D0
  8
AM_0
 10
97.838652265862081
 20
451.03855362289067
 30
0.0
 11
97.838652265862081
 21
345.0385536228909
 31
0.0
  0
LINE
  5
A2D1
  8
AM_0
 10
89.838652265862024
 20
456.78855362289067
 30
0.0
 11
89.838652265862024
 21
339.2885536228909
 31
0.0
  0
LINE
  5
A2D2
  8
AM_0
 10
199.1714822658619
 20
422.03855362289067
 30
0.0
 11
100.19864226586201
 21
422.03855362289067
 31
0.0
  0
LINE
  5
A2D3
  8
AM_0
 10
166.8386522658619
 20
424.03855362289102
 30
0.0
 11
100.19864226586201
 21
424.03855362289102
 31
0.0
  0
ARC
  5
A2D4
  8
AM_0
 10
135.50363226586191
 20
413.05356362289069
 30
0.0
 40
1.3350147999999991
 50
269.73042999999973
 51
90.269556000001316
  0
ARC
  5
A2D5
  8
AM_0
 10
135.50363226586191
 20
383.02854362289088
 30
0.0
 40
1.3300148000000001
 50
269.72941999999853
 51
90.270567000000995
  0
ARC
  5
A2D6
  8
AM_0
 10
135.56558226586191
 20
393.0385536228909
 30
0.0
 40
1.2700266
 50
269.62931999999989
 51
90.370670000004694
  0
ARC
  5
A2D7
  8
AM_0
 10
135.56558226586191
 20
403.0485636228907
 30
0.0
 40
1.2700266
 50
269.62931999999989
 51
90.370670000004694
  0
LINE
  5
A2D8
  8
AM_0
 10
199.1714822658619
 20
374.0385536228909
 30
0.0
 11
100.19864226586201
 21
374.0385536228909
 31
0.0
  0
LINE
  5
A2D9
  8
AM_0
 10
154.8386522658619
 20
362.0385536228909
 30
0.0
 11
100.19864226586201
 21
362.0385536228909
 31
0.0
  0
LINE
  5
A2DA
  8
AM_0
 10
154.8386522658619
 20
364.0385536228909
 30
0.0
 11
100.19864226586201
 21
364.0385536228909
 31
0.0
  0
LINE
  5
A2DB
  8
AM_0
 10
99.518642265862013
 20
364.6685536228909
 30
0.0
 11
166.858672265862
 21
364.6685536228909
 31
0.0
  0
LINE
  5
A2DC
  8
AM_0
 10
99.518642265862013
 20
361.3185836228908
 30
0.0
 11
154.8386522658619
 21
361.3185836228908
 31
0.0
  0
LINE
  5
A2DD
  8
AM_0
 10
99.298672265862024
 20
371.54856362289092
 30
0.0
 11
166.8386522658619
 21
371.54856362289092
 31
0.0
  0
LINE
  5
A2DE
  8
AM_0
 10
166.8386522658619
 20
372.0385536228909
 30
0.0
 11
100.19864226586201
 21
372.0385536228909
 31
0.0
  0
LINE
  5
A2DF
  8
AM_0
 10
101.048672265862
 20
341.75852362289089
 30
0.0
 11
197.96866226586189
 21
341.75852362289089
 31
0.0
  0
POLYLINE
  5
A2E0
  8
AM_0
 66
     1
 10
0.0
 20
0.0
 30
0.0
  0
VERTEX
  5
A2E1
  8
AM_0
 10
100.716892265862
 20
381.69797362289091
 30
0.0
 42
0.00073721992
  0
VERTEX
  5
A2E2
  8
AM_0
 10
100.7610422658619
 20
381.09556362289089
 30
0.0
 42
0.00074398496
  0
VERTEX
  5
A2E3
  8
AM_0
 10
100.8069722658619
 20
380.4932936228908
 30
0.0
 42
0.00073322625
  0
VERTEX
  5
A2E4
  8
AM_0
 10
100.8547022658619
 20
379.89096362289092
 30
0.0
 42
0.00073594289
  0
VERTEX
  5
A2E5
  8
AM_0
 10
100.90418226586191
 20
379.28897362289092
 30
0.0
 42
0.00074742568
  0
VERTEX
  5
A2E6
  8
AM_0
 10
100.95545226586199
 20
378.68711362289088
 30
0.0
 42
0.00073216749
  0
VERTEX
  5
A2E7
  8
AM_0
 10
101.008512265862
 20
378.08530362289088
 30
0.0
 42
0.00074184065
  0
VERTEX
  5
A2E8
  8
AM_0
 10
101.0633322658619
 20
377.48377362289108
 30
0.0
 42
0.00072077528
  0
VERTEX
  5
A2E9
  8
AM_0
 10
101.119912265862
 20
376.88254362289092
 30
0.0
 42
0.00074978179
  0
VERTEX
  5
A2EA
  8
AM_0
 10
101.1782522658619
 20
376.2813436228908
 30
0.0
 42
0.00074288888
  0
VERTEX
  5
A2EB
  8
AM_0
 10
101.23840226586179
 20
375.6803236228908
 30
0.0
 42
0.00072503679
  0
VERTEX
  5
A2EC
  8
AM_0
 10
101.3003122658619
 20
375.07958362289088
 30
0.0
 42
0.00074640584
  0
VERTEX
  5
A2ED
  8
AM_0
 10
101.36398226586191
 20
374.47898362289078
 30
0.0
  0
SEQEND
  5
A2EE
  8
AM_0
  0
LINE
  5
A2EF
  8
AM_0
 10
100.744902265862
 20
338.90854362289099
 30
0.0
 11
123.17130246452879
 21
338.90854362289099
 31
0.0
  0
LINE
  5
A2F0
  8
AM_0
 10
103.19864226586201
 20
361.38855362289092
 30
0.0
 11
97.838652265862081
 21
349.94855362289093
 31
0.0
  0
LINE
  5
A2F1
  8
AM_0
 10
84.838652265862024
 20
354.1475636228908
 30
0.0
 11
84.838652265862024
 21
345.2885536228909
 31
0.0
  0
LINE
  5
A2F2
  8
AM_0
 10
77.838652265862052
 20
338.0385536228909
 30
0.0
 11
80.838652265862024
 21
338.0385536228909
 31
0.0
  0
LINE
  5
A2F3
  8
AM_0
 10
97.838652265862081
 20
347.25855362289087
 30
0.0
 11
98.764132265862045
 21
340.63193362289093
 31
0.0
  0
LINE
  5
A2F4
  8
AM_0
 10
97.838652265862081
 20
347.2584936228908
 30
0.0
 11
98.847872265862065
 21
340.60846362289089
 31
0.0
  0
LINE
  5
A2F5
  8
AM_0
 10
97.838652265862081
 20
348.5984836228908
 30
0.0
 11
99.118622265861944
 21
340.59854362289087
 31
0.0
  0
LINE
  5
A2F6
  8
AM_0
 10
97.838652265862081
 20
349.94849362289079
 30
0.0
 11
99.078642265862086
 21
343.38849362289102
 31
0.0
  0
LINE
  5
A2F7
  8
AM_0
 10
89.838652265862024
 20
345.0385536228909
 30
0.0
 11
97.838652265862081
 21
345.0385536228909
 31
0.0
  0
ARC
  5
A2F8
  8
AM_0
 10
100.744902265862
 20
340.90854362289099
 30
0.0
 40
2.0
 50
187.9504400000034
 51
269.999989999999
  0
ARC
  5
A2F9
  8
AM_0
 10
100.825282265862
 20
340.90854362289099
 30
0.0
 40
2.0
 50
188.62962000000411
 51
269.999989999999
  0
ARC
  5
A2FA
  8
AM_0
 10
101.09482226586201
 20
340.90891362289091
 30
0.0
 40
2.000420099999999
 50
188.9268200000015
 51
269.82270999999599
  0
ARC
  5
A2FB
  8
AM_0
 10
101.043492265862
 20
343.75779362289092
 30
0.0
 40
1.9992490000000001
 50
190.643100000001
 51
270.14743000000129
  0
LINE
  5
A2FC
  8
AM_0
 10
90.538662265861916
 20
354.84861362289092
 30
0.0
 11
96.768642265862013
 21
354.84861362289092
 31
0.0
  0
POLYLINE
  5
A2FD
  8
AM_0
 66
     1
 10
0.0
 20
0.0
 30
0.0
  0
VERTEX
  5
A2FE
  8
AM_0
 10
101.699552265862
 20
371.55551362289083
 30
0.0
 42
0.00068900015
  0
VERTEX
  5
A2FF
  8
AM_0
 10
101.7704322658619
 20
370.98076362289078
 30
0.0
 42
0.00070644648
  0
VERTEX
  5
A300
  8
AM_0
 10
101.842932265862
 20
370.40608362289078
 30
0.0
 42
0.00069245587
  0
VERTEX
  5
A301
  8
AM_0
 10
101.9170222658619
 20
369.831763622891
 30
0.0
 42
0.00069587802
  0
VERTEX
  5
A302
  8
AM_0
 10
101.99270226586199
 20
369.25762362289078
 30
0.0
 42
0.00068980012
  0
VERTEX
  5
A303
  8
AM_0
 10
102.0700022658619
 20
368.68362362289088
 30
0.0
 42
0.00072079193
  0
VERTEX
  5
A304
  8
AM_0
 10
102.148892265862
 20
368.10984362289088
 30
0.0
 42
0.00071003147
  0
VERTEX
  5
A305
  8
AM_0
 10
102.2294322658619
 20
367.53636362289092
 30
0.0
 42
0.00072658712
  0
VERTEX
  5
A306
  8
AM_0
 10
102.311592265862
 20
366.96327362289088
 30
0.0
 42
0.00069571059
  0
VERTEX
  5
A307
  8
AM_0
 10
102.39541226586191
 20
366.39023362289078
 30
0.0
 42
0.0007126617
  0
VERTEX
  5
A308
  8
AM_0
 10
102.48084226586199
 20
365.81747362289087
 30
0.0
 42
0.00071614574
  0
VERTEX
  5
A309
  8
AM_0
 10
102.56787226586189
 20
365.24512362289119
 30
0.0
 42
0.00072290803
  0
VERTEX
  5
A30A
  8
AM_0
 10
102.6565822658619
 20
364.67282362289092
 30
0.0
  0
SEQEND
  5
A30B
  8
AM_0
  0
ARC
  5
A30C
  8
AM_0
 10
100.383272265862
 20
363.03855362289079
 30
0.0
 40
1.000013899999999
 50
89.691659999999231
 51
270.30834000000078
  0
ARC
  5
A30D
  8
AM_0
 10
99.511812265861948
 20
362.99350362289118
 30
0.0
 40
1.675014
 50
89.766498999996756
 51
270.2335099999994
  0
ARC
  5
A30E
  8
AM_0
 10
99.298672265862024
 20
373.01352362289077
 30
0.0
 40
1.465004
 50
90.00000299999769
 51
270.0
  0
ARC
  5
A30F
  8
AM_0
 10
100.383272265862
 20
373.03855362289079
 30
0.0
 40
1.000013899999999
 50
89.691659999999231
 51
270.30834000000078
  0
ARC
  5
A310
  8
AM_0
 10
123.17130246452879
 20
337.40854362289087
 30
0.0
 40
1.5
 50
1.499738863867264
 51
90.0
1001
GENIUS_GENODEF_13
1002
{
1000
HIER
1070
     0
1002
}
1002
{
1000
MANEDIT
1070
     0
1002
}
1002
{
1000
NOSEL
1070
     0
1002
}
1002
{
1000
BEHIND
1070
     0
1002
}
1002
{
1000
REACTOR
1002
}
1001
GENIUS_GENOBJ-N-FIL_13
1002
{
1000
OWNER
1000
GEN
1002
}
  0
LINE
  5
A311
  8
AM_0
 10
99.168672265862014
 20
411.71860362289078
 30
0.0
 11
135.49734226586199
 21
411.71860362289078
 31
0.0
  0
LINE
  5
A312
  8
AM_0
 10
134.277372265862
 20
412.03855362289079
 30
0.0
 11
100.19864226586201
 21
412.03855362289079
 31
0.0
  0
LINE
  5
A313
  8
AM_0
 10
99.168672265862014
 20
414.37851362289081
 30
0.0
 11
135.49734226586199
 21
414.37851362289081
 31
0.0
  0
LINE
  5
A314
  8
AM_0
 10
134.277372265862
 20
414.03855362289067
 30
0.0
 11
100.19864226586201
 21
414.03855362289067
 31
0.0
  0
LINE
  5
A315
  8
AM_0
 10
99.108672265861983
 20
401.77854362289082
 30
0.0
 11
135.55734226586199
 21
401.77854362289082
 31
0.0
  0
LINE
  5
A316
  8
AM_0
 10
99.108672265861983
 20
404.30857362289072
 30
0.0
 11
135.55734226586199
 21
404.30857362289072
 31
0.0
  0
LINE
  5
A317
  8
AM_0
 10
134.277372265862
 20
402.03855362289067
 30
0.0
 11
100.19864226586201
 21
402.03855362289067
 31
0.0
  0
LINE
  5
A318
  8
AM_0
 10
134.277372265862
 20
404.03855362289079
 30
0.0
 11
100.19864226586201
 21
404.03855362289079
 31
0.0
  0
LINE
  5
A319
  8
AM_0
 10
134.277372265862
 20
382.03855362289079
 30
0.0
 11
100.19864226586201
 21
382.03855362289079
 31
0.0
  0
LINE
  5
A31A
  8
AM_0
 10
134.277372265862
 20
384.03855362289079
 30
0.0
 11
100.19864226586201
 21
384.03855362289079
 31
0.0
  0
LINE
  5
A31B
  8
AM_0
 10
99.168672265862014
 20
384.35849362289088
 30
0.0
 11
135.49734226586199
 21
384.35849362289088
 31
0.0
  0
LINE
  5
A31C
  8
AM_0
 10
99.108672265861983
 20
391.76853362289108
 30
0.0
 11
135.55734226586199
 21
391.76853362289108
 31
0.0
  0
LINE
  5
A31D
  8
AM_0
 10
134.277372265862
 20
392.03855362289079
 30
0.0
 11
100.19864226586201
 21
392.03855362289079
 31
0.0
  0
LINE
  5
A31E
  8
AM_0
 10
134.277372265862
 20
394.03855362289079
 30
0.0
 11
100.19864226586201
 21
394.03855362289079
 31
0.0
  0
LINE
  5
A31F
  8
AM_0
 10
99.108672265861983
 20
394.30857362289078
 30
0.0
 11
135.55734226586199
 21
394.30857362289078
 31
0.0
  0
LINE
  5
A320
  8
AM_0
 10
99.168672265862014
 20
381.69858362289091
 30
0.0
 11
135.5099222658618
 21
381.69858362289091
 31
0.0
  0
ARC
  5
A321
  8
AM_0
 10
99.102812265861985
 20
403.04355362289078
 30
0.0
 40
1.2650129999999991
 50
89.735579000001735
 51
270.26441000000239
  0
ARC
  5
A322
  8
AM_0
 10
100.383272265862
 20
403.03855362289102
 30
0.0
 40
1.000013899999999
 50
89.691659999999231
 51
270.30834000000078
  0
POLYLINE
  5
A323
  8
AM_0
 66
     1
 10
0.0
 20
0.0
 30
0.0
  0
VERTEX
  5
A324
  8
AM_0
 10
100.24270226586199
 20
391.76816362289088
 30
0.0
 42
0.00076695235
  0
VERTEX
  5
A325
  8
AM_0
 10
100.2575022658619
 20
391.15040362289079
 30
0.0
 42
0.00073263043
  0
VERTEX
  5
A326
  8
AM_0
 10
100.2741422658619
 20
390.53280362289092
 30
0.0
 42
0.00076525988
  0
VERTEX
  5
A327
  8
AM_0
 10
100.2926322658619
 20
389.91513362289089
 30
0.0
 42
0.00075144488
  0
VERTEX
  5
A328
  8
AM_0
 10
100.3130022658619
 20
389.29753362289119
 30
0.0
 42
0.00076035096
  0
VERTEX
  5
A329
  8
AM_0
 10
100.33524226586199
 20
388.68010362289118
 30
0.0
 42
0.00075543154
  0
VERTEX
  5
A32A
  8
AM_0
 10
100.3593422658619
 20
388.06272362289081
 30
0.0
 42
0.0007577325
  0
VERTEX
  5
A32B
  8
AM_0
 10
100.3853222658619
 20
387.44532362289118
 30
0.0
 42
0.00076034585
  0
VERTEX
  5
A32C
  8
AM_0
 10
100.413172265862
 20
386.82793362289078
 30
0.0
 42
0.00074823143
  0
VERTEX
  5
A32D
  8
AM_0
 10
100.442902265862
 20
386.21054362289118
 30
0.0
 42
0.00074896605
  0
VERTEX
  5
A32E
  8
AM_0
 10
100.4744622658619
 20
385.59341362289081
 30
0.0
 42
0.00076039763
  0
VERTEX
  5
A32F
  8
AM_0
 10
100.50788226586199
 20
384.97638362289092
 30
0.0
 42
0.00075616127
  0
VERTEX
  5
A330
  8
AM_0
 10
100.543182265862
 20
384.35935362289092
 30
0.0
  0
SEQEND
  5
A331
  8
AM_0
  0
ARC
  5
A332
  8
AM_0
 10
100.383272265862
 20
383.03855362289079
 30
0.0
 40
1.000013899999999
 50
89.691659999999231
 51
270.30834000000078
  0
ARC
  5
A333
  8
AM_0
 10
99.168672265862014
 20
383.02854362289088
 30
0.0
 40
1.3300049999999981
 50
90.00000299999769
 51
270.0
  0
POLYLINE
  5
A334
  8
AM_0
 66
     1
 10
0.0
 20
0.0
 30
0.0
  0
VERTEX
  5
A335
  8
AM_0
 10
100.19864226586201
 20
398.03855362289079
 30
0.0
 42
0.00039106589
  0
VERTEX
  5
A336
  8
AM_0
 10
100.196282265862
 20
397.72741362289088
 30
0.0
 42
0.00035488584
  0
VERTEX
  5
A337
  8
AM_0
 10
100.19439226586189
 20
397.41630362289089
 30
0.0
 42
0.00039705232
  0
VERTEX
  5
A338
  8
AM_0
 10
100.19296226586179
 20
397.10520362289088
 30
0.0
 42
0.0003876649
  0
VERTEX
  5
A339
  8
AM_0
 10
100.1920322658619
 20
396.79406362289092
 30
0.0
 42
0.00040613779
  0
VERTEX
  5
A33A
  8
AM_0
 10
100.1915822658619
 20
396.48295362289088
 30
0.0
 42
0.00035571855
  0
VERTEX
  5
A33B
  8
AM_0
 10
100.19162226586199
 20
396.17185362289092
 30
0.0
 42
0.00038547358
  0
VERTEX
  5
A33C
  8
AM_0
 10
100.19211226586189
 20
395.86071362289078
 30
0.0
 42
0.000355015
  0
VERTEX
  5
A33D
  8
AM_0
 10
100.193072265862
 20
395.549613622891
 30
0.0
 42
0.00040118616
  0
VERTEX
  5
A33E
  8
AM_0
 10
100.1944922658619
 20
395.23838362289092
 30
0.0
 42
0.00038319867
  0
VERTEX
  5
A33F
  8
AM_0
 10
100.19640226586201
 20
394.9272436228909
 30
0.0
 42
0.00035656356
  0
VERTEX
  5
A340
  8
AM_0
 10
100.19878226586179
 20
394.61601362289088
 30
0.0
 42
0.00040140992
  0
VERTEX
  5
A341
  8
AM_0
 10
100.201632265862
 20
394.30490362289089
 30
0.0
  0
SEQEND
  5
A342
  8
AM_0
  0
ARC
  5
A343
  8
AM_0
 10
100.383272265862
 20
393.0385536228909
 30
0.0
 40
1.000013899999999
 50
89.691659999999231
 51
270.30834000000078
  0
ARC
  5
A344
  8
AM_0
 10
99.102812265861985
 20
393.0385536228909
 30
0.0
 40
1.2700129999999981
 50
89.736617000001587
 51
270.2633699999991
  0
POLYLINE
  5
A345
  8
AM_0
 66
     1
 10
0.0
 20
0.0
 30
0.0
  0
VERTEX
  5
A346
  8
AM_0
 10
100.19864226586201
 20
398.03855362289079
 30
0.0
 42
-0.00039106649
  0
VERTEX
  5
A347
  8
AM_0
 10
100.196282265862
 20
398.34968362289118
 30
0.0
 42
-0.00035488198
  0
VERTEX
  5
A348
  8
AM_0
 10
100.19439226586189
 20
398.66079362289071
 30
0.0
 42
-0.00039706113
  0
VERTEX
  5
A349
  8
AM_0
 10
100.19296226586179
 20
398.97190362289092
 30
0.0
 42
-0.00038765718
  0
VERTEX
  5
A34A
  8
AM_0
 10
100.1920322658619
 20
399.283043622891
 30
0.0
 42
-0.00040613432
  0
VERTEX
  5
A34B
  8
AM_0
 10
100.1915822658619
 20
399.59414362289078
 30
0.0
 42
-0.00035573434
  0
VERTEX
  5
A34C
  8
AM_0
 10
100.19162226586199
 20
399.90525362289088
 30
0.0
 42
-0.00038545884
  0
VERTEX
  5
A34D
  8
AM_0
 10
100.19211226586189
 20
400.2163836228907
 30
0.0
 42
-0.00035501205
  0
VERTEX
  5
A34E
  8
AM_0
 10
100.193072265862
 20
400.52749362289069
 30
0.0
 42
-0.00040120779
  0
VERTEX
  5
A34F
  8
AM_0
 10
100.1944922658619
 20
400.83872362289088
 30
0.0
 42
-0.00038317817
  0
VERTEX
  5
A350
  8
AM_0
 10
100.19640226586201
 20
401.1498536228907
 30
0.0
 42
-0.00035656084
  0
VERTEX
  5
A351
  8
AM_0
 10
100.19878226586179
 20
401.4610936228907
 30
0.0
 42
-0.00040143615
  0
VERTEX
  5
A352
  8
AM_0
 10
100.201632265862
 20
401.77219362289071
 30
0.0
  0
SEQEND
  5
A353
  8
AM_0
  0
ARC
  5
A354
  8
AM_0
 10
99.168672265862014
 20
413.0485636228907
 30
0.0
 40
1.3300049999999981
 50
90.00000299999769
 51
270.0
  0
ARC
  5
A355
  8
AM_0
 10
100.383272265862
 20
413.03855362289067
 30
0.0
 40
1.000013899999999
 50
89.691659999999231
 51
270.30834000000078
  0
POLYLINE
  5
A356
  8
AM_0
 66
     1
 10
0.0
 20
0.0
 30
0.0
  0
VERTEX
  5
A357
  8
AM_0
 10
100.24270226586199
 20
404.30893362289072
 30
0.0
 42
-0.00076691992
  0
VERTEX
  5
A358
  8
AM_0
 10
100.2575022658619
 20
404.92670362289101
 30
0.0
 42
-0.00073262792
  0
VERTEX
  5
A359
  8
AM_0
 10
100.2741422658619
 20
405.54429362289102
 30
0.0
 42
-0.00076529537
  0
VERTEX
  5
A35A
  8
AM_0
 10
100.2926322658619
 20
406.16196362289082
 30
0.0
 42
-0.00075141097
  0
VERTEX
  5
A35B
  8
AM_0
 10
100.3130022658619
 20
406.77956362289081
 30
0.0
 42
-0.00075841687
  0
VERTEX
  5
A35C
  8
AM_0
 10
100.335232265862
 20
407.3969936228907
 30
0.0
 42
-0.00075711788
  0
VERTEX
  5
A35D
  8
AM_0
 10
100.3593422658619
 20
408.01450362289069
 30
0.0
 42
-0.00075976003
  0
VERTEX
  5
A35E
  8
AM_0
 10
100.3853322658619
 20
408.6318936228908
 30
0.0
 42
-0.00075797311
  0
VERTEX
  5
A35F
  8
AM_0
 10
100.413172265862
 20
409.24917362289102
 30
0.0
 42
-0.0007482613
  0
VERTEX
  5
A360
  8
AM_0
 10
100.442902265862
 20
409.86655362289071
 30
0.0
 42
-0.00074893561
  0
VERTEX
  5
A361
  8
AM_0
 10
100.4744622658619
 20
410.48368362289102
 30
0.0
 42
-0.00076039839
  0
VERTEX
  5
A362
  8
AM_0
 10
100.50788226586199
 20
411.10071362289079
 30
0.0
 42
-0.00075618786
  0
VERTEX
  5
A363
  8
AM_0
 10
100.543182265862
 20
411.717753622891
 30
0.0
  0
SEQEND
  5
A364
  8
AM_0
  0
POLYLINE
  5
A365
  8
AM_0
 66
     1
 10
0.0
 20
0.0
 30
0.0
  0
VERTEX
  5
A366
  8
AM_0
 10
100.716892265862
 20
414.3791236228908
 30
0.0
 42
-0.0007337051
  0
VERTEX
  5
A367
  8
AM_0
 10
100.761032265862
 20
414.98154362289108
 30
0.0
 42
-0.00075211323
  0
VERTEX
  5
A368
  8
AM_0
 10
100.8069722658619
 20
415.5839336228907
 30
0.0
 42
-0.0007297491
  0
VERTEX
  5
A369
  8
AM_0
 10
100.8547022658619
 20
416.18613362289102
 30
0.0
 42
-0.00073593041
  0
VERTEX
  5
A36A
  8
AM_0
 10
100.90418226586191
 20
416.78812362289062
 30
0.0
 42
-0.00074742739
  0
VERTEX
  5
A36B
  8
AM_0
 10
100.95545226586199
 20
417.38999362289093
 30
0.0
 42
-0.00073217363
  0
VERTEX
  5
A36C
  8
AM_0
 10
101.008512265862
 20
417.99179362289078
 30
0.0
 42
-0.00073754168
  0
VERTEX
  5
A36D
  8
AM_0
 10
101.0633322658619
 20
418.59333362289078
 30
0.0
 42
-0.00073075073
  0
VERTEX
  5
A36E
  8
AM_0
 10
101.119912265862
 20
419.19469362289072
 30
0.0
 42
-0.00074550816
  0
VERTEX
  5
A36F
  8
AM_0
 10
101.1782522658619
 20
419.7957536228908
 30
0.0
 42
-0.00074288416
  0
VERTEX
  5
A370
  8
AM_0
 10
101.23840226586179
 20
420.39677362289081
 30
0.0
 42
-0.00072504001
  0
VERTEX
  5
A371
  8
AM_0
 10
101.3003122658619
 20
420.99752362289081
 30
0.0
 42
-0.00074640667
  0
VERTEX
  5
A372
  8
AM_0
 10
101.36398226586191
 20
421.59812362289068
 30
0.0
  0
SEQEND
  5
A373
  8
AM_0
  0
ARC
  5
A374
  8
AM_0
 10
100.383272265862
 20
423.03855362289067
 30
0.0
 40
1.000013899999999
 50
89.691659999999231
 51
270.30834000000078
  0
ARC
  5
A375
  8
AM_0
 10
134.277372265862
 20
403.03855362289102
 30
0.0
 40
1.0000056999999991
 50
269.999989999999
 51
90.00000299999769
  0
ARC
  5
A376
  8
AM_0
 10
134.277372265862
 20
383.03855362289079
 30
0.0
 40
1.0000056999999991
 50
269.999989999999
 51
90.00000299999769
  0
ARC
  5
A377
  8
AM_0
 10
134.277372265862
 20
393.0385536228909
 30
0.0
 40
1.0000056999999991
 50
269.999989999999
 51
90.00000299999769
  0
ARC
  5
A378
  8
AM_0
 10
134.277372265862
 20
413.03855362289067
 30
0.0
 40
1.0000056999999991
 50
269.999989999999
 51
90.00000299999769
  0
ARC
  5
A379
  8
AM_0
 10
166.8386522658619
 20
370.53855362289079
 30
0.0
 40
1.5
 50
0.0
 51
90.00000299999769
  0
ARC
  5
A37A
  8
AM_0
 10
166.8386522658619
 20
365.5385536228909
 30
0.0
 40
1.5
 50
269.999989999999
 51
0.0000006832495047
  0
LINE
  5
A37B
  8
AM_0
 10
199.17868226586191
 20
362.0385536228909
 30
0.0
 11
154.8386522658619
 21
362.0385536228909
 31
0.0
  0
LINE
  5
A37C
  8
AM_0
 10
199.17868226586191
 20
364.0385536228909
 30
0.0
 11
154.8386522658619
 21
364.0385536228909
 31
0.0
  0
LINE
  5
A37D
  8
AM_0
 10
167.858672265862
 20
370.53855362289079
 30
0.0
 11
167.858672265862
 21
365.67856362289092
 31
0.0
  0
ARC
  5
A37E
  8
AM_0
 10
166.858672265862
 20
365.67856362289092
 30
0.0
 40
1.0
 50
269.999989999999
 51
0.0000006832495047
  0
ARC
  5
A37F
  8
AM_0
 10
166.8386522658619
 20
370.53855362289079
 30
0.0
 40
1.02
 50
0.0
 51
90.00000299999769
  0
ARC
  5
A380
  8
AM_0
 10
197.9638322658619
 20
343.76328362289092
 30
0.0
 40
2.0047290000000002
 50
270.13832000000423
 51
344.82650000000177
  0
ARC
  5
A381
  8
AM_0
 10
184.8386522658619
 20
370.53855362289079
 30
0.0
 40
1.02
 50
90.00000299999769
 51
180.00001000000091
  0
ARC
  5
A382
  8
AM_0
 10
184.8386522658619
 20
370.53855362289079
 30
0.0
 40
1.5
 50
90.00000299999769
 51
180.00001000000091
  0
ARC
  5
A383
  8
AM_0
 10
184.8386522658619
 20
365.5385536228909
 30
0.0
 40
1.5
 50
179.99998999999889
 51
270.0
  0
ARC
  5
A384
  8
AM_0
 10
184.81863226586191
 20
365.67856362289092
 30
0.0
 40
1.0
 50
179.99998999999889
 51
270.0
  0
CIRCLE
  5
A385
  8
AM_0
 10
178.3386522658619
 20
369.53855362289079
 30
0.0
 40
1.0
  0
CIRCLE
  5
A386
  8
AM_0
 10
173.3386522658619
 20
369.53855362289079
 30
0.0
 40
1.1000000000000001
  0
CIRCLE
  5
A387
  8
AM_0
 10
173.3386522658619
 20
369.53855362289079
 30
0.0
 40
1.149999999999999
  0
LINE
  5
A388
  8
AM_0
 10
168.3386522658619
 20
370.53855362289079
 30
0.0
 11
168.3386522658619
 21
365.5385536228909
 31
0.0
  0
LINE
  5
A389
  8
AM_0
 10
183.3386522658619
 20
370.53855362289079
 30
0.0
 11
183.3386522658619
 21
365.5385536228909
 31
0.0
  0
LINE
  5
A38A
  8
AM_0
 10
183.81863226586191
 20
370.53855362289079
 30
0.0
 11
183.81863226586191
 21
365.67856362289092
 31
0.0
  0
LINE
  5
A38B
  8
AM_0
 10
199.1714822658619
 20
372.0385536228909
 30
0.0
 11
184.8386522658619
 21
372.0385536228909
 31
0.0
  0
LINE
  5
A38C
  8
AM_0
 10
199.18582226586199
 20
424.03855362289102
 30
0.0
 11
184.8386522658619
 21
424.03855362289102
 31
0.0
  0
LINE
  5
A38D
  8
AM_0
 10
199.17868226586191
 20
432.03855362289102
 30
0.0
 11
100.19864226586201
 21
432.03855362289102
 31
0.0
  0
LINE
  5
A38E
  8
AM_0
 10
199.17868226586191
 20
434.03855362289067
 30
0.0
 11
100.19864226586201
 21
434.03855362289067
 31
0.0
  0
LINE
  5
A38F
  8
AM_0
 10
101.1286322658619
 20
459.92856362289069
 30
0.0
 11
197.968722265862
 21
459.92856362289069
 31
0.0
  0
LINE
  5
A390
  8
AM_0
 10
101.1086722658619
 20
459.01853362289108
 30
0.0
 11
197.96866226586189
 21
459.01853362289108
 31
0.0
  0
LINE
  5
A391
  8
AM_0
 10
101.088652265862
 20
457.16855362289073
 30
0.0
 11
197.96866226586189
 21
457.16855362289073
 31
0.0
  0
LINE
  5
A392
  8
AM_0
 10
101.048672265862
 20
454.31858362289063
 30
0.0
 11
197.96866226586189
 21
454.31858362289063
 31
0.0
  0
LINE
  5
A393
  8
AM_0
 10
99.298672265862024
 20
424.52854362289082
 30
0.0
 11
166.8386522658619
 21
424.52854362289082
 31
0.0
  0
LINE
  5
A394
  8
AM_0
 10
99.518642265862013
 20
431.40854362289059
 30
0.0
 11
166.858672265862
 21
431.40854362289059
 31
0.0
  0
LINE
  5
A395
  8
AM_0
 10
84.838652265862024
 20
441.92954362289078
 30
0.0
 11
84.838652265862024
 21
450.78855362289079
 31
0.0
  0
LINE
  5
A396
  8
AM_0
 10
97.838652265862081
 20
446.13858362289102
 30
0.0
 11
99.078642265862086
 21
452.69855362289093
 31
0.0
  0
LINE
  5
A397
  8
AM_0
 10
103.19864226586201
 20
434.68854362289079
 30
0.0
 11
97.838652265862081
 21
446.13852362289072
 31
0.0
  0
POLYLINE
  5
A398
  8
AM_0
 66
     1
 10
0.0
 20
0.0
 30
0.0
  0
VERTEX
  5
A399
  8
AM_0
 10
101.699552265862
 20
424.52158362289072
 30
0.0
 42
-0.00068898288
  0
VERTEX
  5
A39A
  8
AM_0
 10
101.7704322658619
 20
425.09633362289088
 30
0.0
 42
-0.00070644354
  0
VERTEX
  5
A39B
  8
AM_0
 10
101.842932265862
 20
425.67102362289108
 30
0.0
 42
-0.00069248071
  0
VERTEX
  5
A39C
  8
AM_0
 10
101.9170222658619
 20
426.24533362289071
 30
0.0
 42
-0.00069585665
  0
VERTEX
  5
A39D
  8
AM_0
 10
101.99270226586199
 20
426.819473622891
 30
0.0
 42
-0.00068980191
  0
VERTEX
  5
A39E
  8
AM_0
 10
102.0700022658619
 20
427.39347362289072
 30
0.0
 42
-0.00072080104
  0
VERTEX
  5
A39F
  8
AM_0
 10
102.148892265862
 20
427.9672636228907
 30
0.0
 42
-0.00071002307
  0
VERTEX
  5
A3A0
  8
AM_0
 10
102.2294322658619
 20
428.5407336228908
 30
0.0
 42
-0.00072659056
  0
VERTEX
  5
A3A1
  8
AM_0
 10
102.311592265862
 20
429.1138336228907
 30
0.0
 42
-0.00069570481
  0
VERTEX
  5
A3A2
  8
AM_0
 10
102.39541226586191
 20
429.686863622891
 30
0.0
 42
-0.00071266935
  0
VERTEX
  5
A3A3
  8
AM_0
 10
102.48084226586199
 20
430.25963362289087
 30
0.0
 42
-0.00071614426
  0
VERTEX
  5
A3A4
  8
AM_0
 10
102.56787226586189
 20
430.83197362289081
 30
0.0
 42
-0.00072288975
  0
VERTEX
  5
A3A5
  8
AM_0
 10
102.6565822658619
 20
431.40427362289068
 30
0.0
  0
SEQEND
  5
A3A6
  8
AM_0
  0
ARC
  5
A3A7
  8
AM_0
 10
100.383272265862
 20
433.03855362289079
 30
0.0
 40
1.000013899999999
 50
89.691659999999231
 51
270.30834000000078
  0
ARC
  5
A3A8
  8
AM_0
 10
99.511262265862001
 20
433.08359362289087
 30
0.0
 40
1.6750160000000001
 50
89.746145000004447
 51
270.25387000000092
  0
LINE
  5
A3A9
  8
AM_0
 10
90.538662265861916
 20
441.22849362289088
 30
0.0
 11
96.768642265862013
 21
441.22849362289088
 31
0.0
  0
LINE
  5
A3AA
  8
AM_0
 10
77.838652265862052
 20
456.78855362289067
 30
0.0
 11
77.838652265862052
 21
463.03855362289067
 31
0.0
  0
LINE
  5
A3AB
  8
AM_0
 10
77.838652265862052
 20
458.03855362289079
 30
0.0
 11
80.838652265862024
 21
458.03855362289079
 31
0.0
  0
LINE
  5
A3AC
  8
AM_0
 10
80.838652265862024
 20
458.03855362289079
 30
0.0
 11
80.838652265862024
 21
463.03855362289067
 31
0.0
  0
ARC
  5
A3AD
  8
AM_0
 10
101.10324226586199
 20
457.02182362289079
 30
0.0
 40
1.9967330000000001
 50
89.843966999998912
 51
171.45387999999721
  0
LINE
  5
A3AE
  8
AM_0
 10
97.838652265862081
 20
448.82856362289078
 30
0.0
 11
99.148652265861983
 21
458.2085936228907
 31
0.0
  0
LINE
  5
A3AF
  8
AM_0
 10
89.838652265862024
 20
451.03855362289067
 30
0.0
 11
97.838652265862081
 21
451.03855362289067
 31
0.0
  0
LINE
  5
A3B0
  8
AM_0
 10
97.838652265862081
 20
447.47858362289088
 30
0.0
 11
99.118622265861944
 21
455.48853362289071
 31
0.0
  0
LINE
  5
A3B1
  8
AM_0
 10
97.838652265862081
 20
448.82856362289078
 30
0.0
 11
99.128632265861924
 21
457.31852362289078
 31
0.0
  0
ARC
  5
A3B2
  8
AM_0
 10
101.03738226586179
 20
452.32444362289078
 30
0.0
 40
1.994108999999999
 50
89.675548000002749
 51
169.18776999999869
  0
ARC
  5
A3B3
  8
AM_0
 10
101.0889022658619
 20
455.17331362289059
 30
0.0
 40
1.9952829999999979
 50
90.006203999996856
 51
170.90835000000069
  0
ARC
  5
A3B4
  8
AM_0
 10
101.1251522658619
 20
457.93296362289078
 30
0.0
 40
1.995633
 50
89.899708000002292
 51
172.06112999999959
  0
ARC
  5
A3B5
  8
AM_0
 10
166.8386522658619
 20
430.53855362289067
 30
0.0
 40
1.5
 50
0.0
 51
90.00000299999769
  0
LINE
  5
A3B6
  8
AM_0
 10
167.858672265862
 20
425.53855362289067
 30
0.0
 11
167.858672265862
 21
430.39853362289068
 31
0.0
  0
ARC
  5
A3B7
  8
AM_0
 10
166.858672265862
 20
430.39853362289068
 30
0.0
 40
1.0
 50
0.0
 51
90.00000299999769
  0
ARC
  5
A3B8
  8
AM_0
 10
184.81863226586191
 20
430.39853362289068
 30
0.0
 40
1.0
 50
90.00000299999769
 51
180.00001000000091
  0
ARC
  5
A3B9
  8
AM_0
 10
184.8386522658619
 20
430.53855362289067
 30
0.0
 40
1.5
 50
90.00000299999769
 51
180.00001000000091
  0
LINE
  5
A3BA
  8
AM_0
 10
168.3386522658619
 20
425.53855362289067
 30
0.0
 11
168.3386522658619
 21
430.53855362289067
 31
0.0
  0
CIRCLE
  5
A3BB
  8
AM_0
 10
173.3386522658619
 20
426.53855362289067
 30
0.0
 40
1.149999999999999
  0
CIRCLE
  5
A3BC
  8
AM_0
 10
173.3386522658619
 20
426.53855362289067
 30
0.0
 40
1.1000000000000001
  0
LINE
  5
A3BD
  8
AM_0
 10
183.3386522658619
 20
425.53855362289067
 30
0.0
 11
183.3386522658619
 21
430.53855362289067
 31
0.0
  0
LINE
  5
A3BE
  8
AM_0
 10
183.81863226586191
 20
425.53855362289067
 30
0.0
 11
183.81863226586191
 21
430.39853362289068
 31
0.0
  0
CIRCLE
  5
A3BF
  8
AM_0
 10
178.3386522658619
 20
426.53855362289067
 30
0.0
 40
1.0
  0
ARC
  5
A3C0
  8
AM_0
 10
197.9638322658619
 20
457.01377362289071
 30
0.0
 40
2.0047290000000002
 50
15.173495999996319
 51
89.861678000000197
  0
ARC
  5
A3C1
  8
AM_0
 10
197.968722265862
 20
452.32029362289092
 30
0.0
 40
1.9982919999999991
 50
15.032547999996
 51
90.002632000001341
  0
ARC
  5
A3C2
  8
AM_0
 10
197.9638322658619
 20
455.16379362289058
 30
0.0
 40
2.0047290000000002
 50
15.173495999996319
 51
89.861678000000197
  0
ARC
  5
A3C3
  8
AM_0
 10
197.9638322658619
 20
457.92380362289077
 30
0.0
 40
2.0047290000000002
 50
15.173495999996319
 51
89.861678000000197
  0
ARC
  5
A3C4
  8
AM_0
 10
202.878632265862
 20
423.06858362289051
 30
0.0
 40
1.460011199999999
 50
269.77524999999662
 51
90.224749999996845
  0
LINE
  5
A3C5
  8
AM_0
 10
205.8386522658619
 20
454.03855362289079
 30
0.0
 11
205.8386522658619
 21
342.0385536228909
 31
0.0
  0
LINE
  5
A3C6
  8
AM_0
 10
205.8386522658619
 20
342.0385536228909
 30
0.0
 11
213.83865226586201
 21
342.0385536228909
 31
0.0
  0
LINE
  5
A3C7
  8
AM_0
 10
200.38070226586191
 20
345.0385536228909
 30
0.0
 11
205.8386522658619
 21
345.0385536228909
 31
0.0
  0
LINE
  5
A3C8
  8
AM_0
 10
205.8386522658619
 20
352.03855362289079
 30
0.0
 11
213.83865226586201
 21
352.03855362289079
 31
0.0
  0
LINE
  5
A3C9
  8
AM_0
 10
205.8386522658619
 20
366.09861362289092
 30
0.0
 11
213.83865226586201
 21
366.09861362289092
 31
0.0
  0
ARC
  5
A3CA
  8
AM_0
 10
202.65866226586189
 20
362.99350362289118
 30
0.0
 40
1.6750020000000001
 50
269.999989999999
 51
90.00000299999769
  0
ARC
  5
A3CB
  8
AM_0
 10
205.49185226586201
 20
358.31577362289079
 30
0.0
 40
1.502775999999999
 50
90.122413000001615
 51
165.2435700000006
  0
ARC
  5
A3CC
  8
AM_0
 10
202.878632265862
 20
373.00852362289078
 30
0.0
 40
1.460011199999999
 50
269.77524999999662
 51
90.224749999996845
  0
LINE
  5
A3CD
  8
AM_0
 10
205.8386522658619
 20
429.97849362289088
 30
0.0
 11
213.83865226586201
 21
429.97849362289088
 31
0.0
  0
ARC
  5
A3CE
  8
AM_0
 10
202.65866226586189
 20
433.08359362289087
 30
0.0
 40
1.6750020000000001
 50
269.999989999999
 51
90.00000299999769
  0
LINE
  5
A3CF
  8
AM_0
 10
205.8386522658619
 20
444.03855362289079
 30
0.0
 11
213.83865226586201
 21
444.03855362289079
 31
0.0
  0
ARC
  5
A3D0
  8
AM_0
 10
205.49185226586201
 20
442.46128362289079
 30
0.0
 40
1.502775999999999
 50
194.7564299999992
 51
269.8775799999986
  0
ARC
  5
A3D1
  8
AM_0
 10
205.49185226586201
 20
437.76133362289102
 30
0.0
 40
1.502775999999999
 50
194.7564299999992
 51
269.8775799999986
  0
ARC
  5
A3D2
  8
AM_0
 10
205.49185226586201
 20
440.611303622891
 30
0.0
 40
1.502775999999999
 50
194.7564299999992
 51
269.8775799999986
  0
ARC
  5
A3D3
  8
AM_0
 10
205.49185226586201
 20
443.37131362289091
 30
0.0
 40
1.502775999999999
 50
194.7564299999992
 51
269.8775799999986
  0
LINE
  5
A3D4
  8
AM_0
 10
205.8386522658619
 20
454.03855362289079
 30
0.0
 11
213.83865226586201
 21
454.03855362289079
 31
0.0
  0
LINE
  5
A3D5
  8
AM_0
 10
200.378632265862
 20
451.03855362289067
 30
0.0
 11
205.8386522658619
 21
451.03855362289067
 31
0.0
  0
TEXT
  5
A6FF
  8
0
  6
CONTINUOUS
 62
     0
 10
440.75771964719888
 20
369.9731830117492
 30
0.0
 40
10.0
  1
VX02-040B~VX02-060B
  0
VIEWPORT
  5
89
 67
     1
  8
0
 10
210.0
 20
148.5
 30
0.0
 40
420.0
 41
297.0
 68
    -1
 69
     1
1001
ACAD
1000
MVIEW
1002
{
1070
    16
1010
0.0
1020
0.0
1030
0.0
1010
0.0
1020
0.0
1030
1.0
1040
0.0
1040
297.0
1040
221.70154043645701
1040
148.5
1040
50.0
1040
0.0
1040
0.0
1070
     0
1070
   100
1070
     1
1070
     1
1070
     0
1070
     0
1070
     0
1070
     0
1040
0.0
1040
0.0
1040
0.0
1040
10.0
1040
10.0
1040
10.0
1040
10.0
1070
     0
1002
{
1002
}
1002
}
1001
GENIUS_GENOREF_13
1005
1B94
1001
GENIUS_GENSCREG_15
1000
PF
1040
1.0
1000
DF
1040
1.0
1000
MIN
1011
0.0
1021
0.0
1031
0.0
1021
0.0
1031
0.0
1000
MAX
1011
420.0
1021
0.0
1031
0.0
1021
297.0
1031
0.0
1000
FLAGS
1070
     4
  0
ENDSEC
  0
EOF
