  0
SECTION
  2
HEADER
  9
$ACADVER
  1
AC1009
  9
$INSBASE
 10
0.0
 20
0.0
 30
0.0
  9
$EXTMIN
 10
13.92237027826377
 20
20.415720036424769
 30
-0.0000000000112498
  9
$EXTMAX
 10
893.35876532017403
 20
595.17516661851982
 30
0.0000000000002956
  9
$LIMMIN
 10
0.0
 20
0.0
  9
$LIMMAX
 10
408.0
 20
284.0
  9
$ORTHOMODE
 70
     0
  9
$REGENMODE
 70
     1
  9
$FILLMODE
 70
     1
  9
$QTEXTMODE
 70
     0
  9
$MIRRTEXT
 70
     1
  9
$DRAGMODE
 70
     2
  9
$LTSCALE
 40
1.0
  9
$OSMODE
 70
   551
  9
$ATTMODE
 70
     1
  9
$TEXTSIZE
 40
2.5
  9
$TRACEWID
 40
1.0
  9
$TEXTSTYLE
  7
STANDARD
  9
$CLAYER
  8
AM_0
  9
$CELTYPE
  6
BYLAYER
  9
$CECOLOR
 62
   256
  9
$DIMSCALE
 40
1.0
  9
$DIMASZ
 40
2.5
  9
$DIMEXO
 40
1.0
  9
$DIMDLI
 40
7.0
  9
$DIMRND
 40
0.0
  9
$DIMDLE
 40
0.0
  9
$DIMEXE
 40
1.0
  9
$DIMTP
 40
0.1
  9
$DIMTM
 40
0.1000000001
  9
$DIMTXT
 40
2.5
  9
$DIMCEN
 40
0.0
  9
$DIMTSZ
 40
0.0
  9
$DIMTOL
 70
     0
  9
$DIMLIM
 70
     0
  9
$DIMTIH
 70
     0
  9
$DIMTOH
 70
     0
  9
$DIMSE1
 70
     0
  9
$DIMSE2
 70
     0
  9
$DIMTAD
 70
     3
  9
$DIMZIN
 70
     8
  9
$DIMBLK
  1

  9
$DIMASO
 70
     1
  9
$DIMSHO
 70
     1
  9
$DIMPOST
  1

  9
$DIMAPOST
  1
"
  9
$DIMALT
 70
     0
  9
$DIMALTD
 70
     2
  9
$DIMALTF
 40
0.0393701
  9
$DIMLFAC
 40
1.0
  9
$DIMTOFL
 70
     1
  9
$DIMTVP
 40
0.0
  9
$DIMTIX
 70
     0
  9
$DIMSOXD
 70
     0
  9
$DIMSAH
 70
     0
  9
$DIMBLK1
  1

  9
$DIMBLK2
  1

  9
$DIMSTYLE
  2
AM_JIS
  9
$DIMCLRD
 70
   256
  9
$DIMCLRE
 70
   256
  9
$DIMCLRT
 70
     4
  9
$DIMTFAC
 40
0.71
  9
$DIMGAP
 40
1.0
  9
$LUNITS
 70
     2
  9
$LUPREC
 70
     2
  9
$SKETCHINC
 40
1.0
  9
$FILLETRAD
 40
2.5
  9
$AUNITS
 70
     0
  9
$AUPREC
 70
     3
  9
$MENU
  1
.
  9
$ELEVATION
 40
0.0
  9
$PELEVATION
 40
0.0
  9
$THICKNESS
 40
0.0
  9
$LIMCHECK
 70
     0
  9
$BLIPMODE
 70
     0
  9
$CHAMFERA
 40
2.5
  9
$CHAMFERB
 40
2.5
  9
$SKPOLY
 70
     0
  9
$TDCREATE
 40
2453061.668904074
  9
$TDUPDATE
 40
2458540.6988004511
  9
$TDINDWG
 40
0.0449568056
  9
$TDUSRTIMER
 40
0.0449565856
  9
$USRTIMER
 70
     1
  9
$ANGBASE
 50
0.0
  9
$ANGDIR
 70
     0
  9
$PDMODE
 70
     0
  9
$PDSIZE
 40
0.0
  9
$PLINEWID
 40
0.0
  9
$COORDS
 70
     1
  9
$SPLFRAME
 70
     0
  9
$SPLINETYPE
 70
     6
  9
$SPLINESEGS
 70
     8
  9
$ATTDIA
 70
     1
  9
$ATTREQ
 70
     1
  9
$HANDLING
 70
     1
  9
$HANDSEED
  5
9D48
  9
$SURFTAB1
 70
     6
  9
$SURFTAB2
 70
     6
  9
$SURFTYPE
 70
     6
  9
$SURFU
 70
     6
  9
$SURFV
 70
     6
  9
$UCSNAME
  2

  9
$UCSORG
 10
0.0
 20
0.0
 30
0.0
  9
$UCSXDIR
 10
1.0
 20
0.0
 30
0.0
  9
$UCSYDIR
 10
0.0
 20
1.0
 30
0.0
  9
$PUCSNAME
  2

  9
$PUCSORG
 10
0.0
 20
0.0
 30
0.0
  9
$PUCSXDIR
 10
1.0
 20
0.0
 30
0.0
  9
$PUCSYDIR
 10
0.0
 20
1.0
 30
0.0
  9
$USERI1
 70
     0
  9
$USERI2
 70
     0
  9
$USERI3
 70
     0
  9
$USERI4
 70
     0
  9
$USERI5
 70
     0
  9
$USERR1
 40
0.0
  9
$USERR2
 40
0.0
  9
$USERR3
 40
0.0
  9
$USERR4
 40
0.0
  9
$USERR5
 40
0.0
  9
$WORLDVIEW
 70
     1
  9
$SHADEDGE
 70
     3
  9
$SHADEDIF
 70
    70
  9
$TILEMODE
 70
     1
  9
$MAXACTVP
 70
    48
  9
$PLIMCHECK
 70
     0
  9
$PEXTMIN
 10
1.0000000000000000E+020
 20
1.0000000000000000E+020
 30
1.0000000000000000E+020
  9
$PEXTMAX
 10
-1.0000000000000000E+020
 20
-1.0000000000000000E+020
 30
-1.0000000000000000E+020
  9
$PLIMMIN
 10
0.0
 20
0.0
  9
$PLIMMAX
 10
420.0
 20
297.0
  9
$UNITMODE
 70
     0
  9
$VISRETAIN
 70
     1
  9
$PLINEGEN
 70
     0
  9
$PSLTSCALE
 70
     1
  0
ENDSEC
  0
SECTION
  2
TABLES
  0
TABLE
  2
VPORT
 70
     1
  0
VPORT
  2
*ACTIVE
 70
     0
 10
0.0
 20
0.0
 11
1.0
 21
1.0
 12
453.6405677992189
 22
307.79544332747219
 13
0.0
 23
0.0
 14
1.0
 24
1.0
 15
10.0
 25
10.0
 16
0.0
 26
0.0
 36
1.0
 17
0.0
 27
0.0
 37
0.0
 40
578.70516360668603
 41
1.7571592210767459
 42
50.0
 43
0.0
 44
0.0
 50
0.0
 51
0.0
 71
     0
 72
   100
 73
     1
 74
     1
 75
     0
 76
     0
 77
     0
 78
     0
  0
ENDTAB
  0
TABLE
  2
LTYPE
 70
    26
  0
LTYPE
  2
CONTINUOUS
 70
     0
  3
Solid line
 72
    65
 73
     0
 40
0.0
  0
LTYPE
  2
PHANTOM2
 70
     0
  3
Phantom (.5x) ___ _ _ ___ _ _ ___ _ _ ___ _ _
 72
    65
 73
     6
 40
31.75
 49
15.875
 49
-3.174999999999998
 49
3.174999999999998
 49
-3.174999999999998
 49
3.174999999999998
 49
-3.174999999999998
  0
LTYPE
  2
CENTER
 70
     0
  3
Center ____ _ ____ _ ____ _ ____ _ ____ _ ____
 72
    65
 73
     4
 40
50.799999999999997
 49
31.75
 49
-6.3499999999999979
 49
6.3499999999999979
 49
-6.3499999999999979
  0
LTYPE
  2
ACANSTGBM
 70
     0
  3
__ . . __ . .
 72
    65
 73
     6
 40
9.0
 49
4.0
 49
-1.0
 49
1.0
 49
-1.0
 49
1.0
 49
-1.0
  0
LTYPE
  2
ACANSTGLM
 70
     0
  3
_ _ _ _ _
 72
    65
 73
     2
 40
3.0
 49
2.0
 49
-1.0
  0
LTYPE
  2
GEN7
 70
     0
  3
____ . ____ . ____ . ____ . ____ . ____ . ____
 72
    65
 73
     4
 40
14.25
 49
9.75
 49
-1.5
 49
1.5
 49
-1.5
  0
LTYPE
  2
GEN3B
 70
     0
  3
 - - - - -
 72
    65
 73
     2
 40
1.0
 49
0.5
 49
-0.5
  0
LTYPE
  2
AM_ISO02W050
 70
     0
  3
__ __ __ __ __ __ __ __ __ __ __ __ __ __ __
 72
    65
 73
     2
 40
7.5
 49
6.0
 49
-1.5
  0
LTYPE
  2
AM_ISO08W050
 70
     0
  3
____ . ____ . ____ . ____ . ____ . ____ . ____
 72
    65
 73
     4
 40
18.0
 49
12.0
 49
-1.5
 49
3.0
 49
-1.5
  0
LTYPE
  2
AM_ISO09W050
 70
     0
  3
_____ . . _____ . . _____ . . ____ .. ____
 72
    65
 73
     6
 40
22.5
 49
12.0
 49
-1.5
 49
3.0
 49
-1.5
 49
3.0
 49
-1.5
  0
LTYPE
  2
AMCONSTR
 70
     0
  3
_______________________
 72
    65
 73
     2
 40
9999.0
 49
9999.0
 49
0.0
  0
LTYPE
  2
AM_ISO02W050X2
 70
     0
  3
 _ _ _ _ _ _ _ _ _ _ _ _
 72
    65
 73
     2
 40
3.75
 49
3.0
 49
-0.75
  0
LTYPE
  2
AM_ISO08W050X2
 70
     0
  3
__ . __ . __ . __ . __ . __
 72
    65
 73
     4
 40
9.0
 49
6.0
 49
-0.75
 49
1.5
 49
-0.75
  0
LTYPE
  2
AMZIGZAG
 70
     0
  3
/\/-/\/-/\/-/\/-/\/-/\/
 72
    65
 73
     2
 40
11.000099999999991
 49
0.0001
 49
-11.0
  0
LTYPE
  2
ACJISTGB
 70
     0
  3
__ . . __ . .
 72
    65
 73
     6
 40
9.0
 49
4.0
 49
-1.0
 49
1.0
 49
-1.0
 49
1.0
 49
-1.0
  0
LTYPE
  2
ACJISTGL
 70
     0
  3
_ _ _ _ _
 72
    65
 73
     2
 40
3.0
 49
2.0
 49
-1.0
  0
LTYPE
  2
ACISOWELD
 70
     0
  3
_ _ _ _ _
 72
    65
 73
     2
 40
2.0
 49
2.0
 49
-1.0
  0
LTYPE
  2
ACISOTGB
 70
     0
  3
__ . . __ . .
 72
    65
 73
     6
 40
9.0
 49
4.0
 49
-1.0
 49
1.0
 49
-1.0
 49
1.0
 49
-1.0
  0
LTYPE
  2
ACISOTGL
 70
     0
  3
_ _ _ _ _
 72
    65
 73
     2
 40
3.0
 49
2.0
 49
-1.0
  0
LTYPE
  2
HIDDEN
 70
     0
  3
Hidden __ __ __ __ __ __ __ __ __ __ __ __ __ _
 72
    65
 73
     2
 40
0.375
 49
0.25
 49
-0.125
  0
LTYPE
  2
CENTER2
 70
     0
  3
Center (.5x) ___ _ ___ _ ___ _ ___ _ ___ _ ___
 72
    65
 73
     4
 40
1.125
 49
0.75
 49
-0.125
 49
0.125
 49
-0.125
  0
LTYPE
  2
HIDDEN2
 70
     0
  3
Hidden (.5x) _ _ _ _ _ _ _ _ _ _ _ _ _ _ _ _ _
 72
    65
 73
     2
 40
0.1875
 49
0.125
 49
-0.0625
  0
LTYPE
  2
AMZIGZAG2
 70
     0
  3
/\/-/\/-/\/-/\/-/\/-/\/
 72
    65
 73
     2
 40
0.4401
 49
0.0001
 49
-0.4400000000000001
  0
LTYPE
  2
ACANSTGB
 70
     0
  3
__ . . __ . .
 72
    65
 73
     6
 40
0.35433070866
 49
0.15748031496
 49
-0.03937007874
 49
0.03937007874
 49
-0.03937007874
 49
0.03937007874
 49
-0.03937007874
  0
LTYPE
  2
ACANSTGL
 70
     0
  3
_ _ _ _ _
 72
    65
 73
     2
 40
0.11811023622
 49
0.07874015748
 49
-0.03937007874
  0
ENDTAB
  0
TABLE
  2
LAYER
 70
     7
  0
LAYER
  2
0
 70
     0
 62
     7
  6
CONTINUOUS
  0
LAYER
  2
AM_0
 70
     0
 62
     7
  6
CONTINUOUS
  0
LAYER
  2
DEFPOINTS
 70
     0
 62
     7
  6
CONTINUOUS
  0
LAYER
  2
ｶｸﾚｾﾝ2
 70
     0
 62
     3
  6
GEN3B
  0
LAYER
  2
ﾁｭｳｼﾝｾﾝ
 70
     0
 62
     1
  6
GEN7
  0
LAYER
  2
AM_0N
 70
     0
 62
     7
  6
CONTINUOUS
  0
LAYER
  2
AM_5
 70
     0
 62
     2
  6
CONTINUOUS
  0
ENDTAB
  0
TABLE
  2
STYLE
 70
    10
  0
STYLE
  2
STANDARD
 70
     0
 40
0.0
 41
0.8299999999999999
 50
0.0
 71
     0
 42
2.5
  3
txt.shx
  4
bigfont.shx
  0
STYLE
  2
ANNOTATIVE
 70
     0
 40
0.0
 41
1.0
 50
0.0
 71
     0
 42
0.2
  3
txt
  4

  0
STYLE
  2
ACANSTS
 70
     0
 40
1.0
 41
1.0
 50
0.0
 71
     0
 42
2.5
  3
romans.shx
  4
bigfont.shx
  0
STYLE
  2
ACANSGDT
 70
     0
 40
0.0
 41
1.0
 50
0.0
 71
     0
 42
2.5
  3
amgdt.shx
  4

  0
STYLE
  2

 70
     1
 40
0.0
 41
1.0
 50
0.0
 71
     0
 42
2.5
  3
ltypeshp.shx
  4

  0
STYLE
  2
ACJISTS
 70
     0
 40
1.0
 41
0.8299999999999999
 50
0.0
 71
     0
 42
2.5
  3
txt.shx
  4
bigfont.shx
  0
STYLE
  2
ACJISGDT
 70
     0
 40
0.0
 41
1.0
 50
0.0
 71
     0
 42
2.5
  3
amgdt.shx
  4

  0
STYLE
  2
ACISOTS
 70
     0
 40
1.0
 41
1.0
 50
0.0
 71
     0
 42
2.5
  3
isocp.shx
  4
extfont.shx
  0
STYLE
  2
ACISOGDT
 70
     0
 40
0.0
 41
1.0
 50
0.0
 71
     0
 42
2.5
  3
amgdt.shx
  4

  0
STYLE
  2

 70
     1
 40
0.0
 41
1.0
 50
0.0
 71
     0
 42
2.5
  3
genltshp.shx
  4

  0
ENDTAB
  0
TABLE
  2
VIEW
 70
    12
  0
VIEW
  2
GEN1
 70
     0
 40
95.824742268041234
 10
71.5
 20
137.08762886597941
 41
143.0
 11
0.0
 21
0.0
 31
1.0
 12
0.0
 22
0.0
 32
0.0
 42
50.0
 43
0.0
 44
0.0
 50
0.0
 71
     0
  0
VIEW
  2
GEN2
 70
     0
 40
95.824742268041234
 10
214.5
 20
137.08762886597941
 41
143.0
 11
0.0
 21
0.0
 31
1.0
 12
0.0
 22
0.0
 32
0.0
 42
50.0
 43
0.0
 44
0.0
 50
0.0
 71
     0
  0
VIEW
  2
GEN3
 70
     0
 40
95.824742268041234
 10
71.5
 20
47.912371134020603
 41
143.0
 11
0.0
 21
0.0
 31
1.0
 12
0.0
 22
0.0
 32
0.0
 42
50.0
 43
0.0
 44
0.0
 50
0.0
 71
     0
  0
VIEW
  2
GEN4
 70
     0
 40
95.824742268041234
 10
214.5
 20
47.912371134020603
 41
143.0
 11
0.0
 21
0.0
 31
1.0
 12
0.0
 22
0.0
 32
0.0
 42
50.0
 43
0.0
 44
0.0
 50
0.0
 71
     0
  0
VIEW
  2
GEN5
 70
     0
 40
95.824742268041234
 10
143.0
 20
92.500000000000057
 41
143.0
 11
0.0
 21
0.0
 31
1.0
 12
0.0
 22
0.0
 32
0.0
 42
50.0
 43
0.0
 44
0.0
 50
0.0
 71
     0
  0
VIEW
  2
GEN6
 70
     0
 40
191.64756804123709
 10
143.0
 20
92.5
 41
285.99713999999989
 11
0.0
 21
0.0
 31
1.0
 12
0.0
 22
0.0
 32
0.0
 42
50.0
 43
0.0
 44
0.0
 50
0.0
 71
     0
  0
VIEW
  2
AM_VIEW1
 70
     0
 40
142.0
 10
119.7777777777777
 20
213.0
 41
239.55555555555549
 11
0.0
 21
0.0
 31
1.0
 12
0.0
 22
0.0
 32
0.0
 42
50.0
 43
0.0
 44
0.0
 50
0.0
 71
     0
  0
VIEW
  2
AM_VIEW2
 70
     0
 40
142.0
 10
288.22222222222211
 20
213.0
 41
239.55555555555549
 11
0.0
 21
0.0
 31
1.0
 12
0.0
 22
0.0
 32
0.0
 42
50.0
 43
0.0
 44
0.0
 50
0.0
 71
     0
  0
VIEW
  2
AM_VIEW3
 70
     0
 40
142.0
 10
119.7777777777777
 20
71.0
 41
239.55555555555549
 11
0.0
 21
0.0
 31
1.0
 12
0.0
 22
0.0
 32
0.0
 42
50.0
 43
0.0
 44
0.0
 50
0.0
 71
     0
  0
VIEW
  2
AM_VIEW4
 70
     0
 40
142.0
 10
288.22222222222211
 20
71.0
 41
239.55555555555549
 11
0.0
 21
0.0
 31
1.0
 12
0.0
 22
0.0
 32
0.0
 42
50.0
 43
0.0
 44
0.0
 50
0.0
 71
     0
  0
VIEW
  2
AM_VIEW5
 70
     0
 40
142.0
 10
204.0
 20
142.0
 41
239.55555555555549
 11
0.0
 21
0.0
 31
1.0
 12
0.0
 22
0.0
 32
0.0
 42
50.0
 43
0.0
 44
0.0
 50
0.0
 71
     0
  0
VIEW
  2
AM_VIEW6
 70
     0
 40
283.99716000000001
 10
204.0
 20
142.0
 41
479.10631999999993
 11
0.0
 21
0.0
 31
1.0
 12
0.0
 22
0.0
 32
0.0
 42
50.0
 43
0.0
 44
0.0
 50
0.0
 71
     0
  0
ENDTAB
  0
TABLE
  2
UCS
 70
     0
  0
ENDTAB
  0
TABLE
  2
APPID
 70
   106
  0
APPID
  2
ACAD
 70
     0
  0
APPID
  2
ACADANNOTATIVE
 70
     0
  0
APPID
  2
MCAD_NO_VIS
 70
     0
  0
APPID
  2
ACAD_TEMP_GRAPHIC
 70
     0
  0
APPID
  2
AD_DRAW
 70
     0
  0
APPID
  2
DESIGNERASSEMBLIES
 70
     0
  0
APPID
  2
ASURF_PCURVE_APPNAME
 70
     0
  0
APPID
  2
GENIUS_GE3SECT_13
 70
     0
  0
APPID
  2
GENIUS_GENCFG_13
 70
     0
  0
APPID
  2
GENIUS_GE3CFG0_13
 70
     0
  0
APPID
  2
GENIUS_GENCFG0_13
 70
     0
  0
APPID
  2
GENIUS_GENCFG1_13
 70
     0
  0
APPID
  2
GENIUS_GENCFG2_13
 70
     0
  0
APPID
  2
GENIUS_GENCFG3_13
 70
     0
  0
APPID
  2
GENIUS_GENCFG4_13
 70
     0
  0
APPID
  2
GENIUS_GEVCFG0_13
 70
     0
  0
APPID
  2
GENIUS_GENOENT_13
 70
     0
  0
APPID
  2
GENIUS_GENREC_14
 70
     0
  0
APPID
  2
GENIUS_GENODEF_13
 70
     0
  0
APPID
  2
GENIUS_GENOBJ-N-REC_13
 70
     0
  0
APPID
  2
GENIUS_GENHINW_13
 70
     0
  0
APPID
  2
GENIUS_FIRSTVISTXT_14
 70
     0
  0
APPID
  2
GENIUS_GENOBJ-N-LEADER_13
 70
     0
  0
APPID
  2
GENIUS_GENOREF_13
 70
     0
  0
APPID
  2
GENIUS_GENOLIS_13
 70
     0
  0
APPID
  2
GEV_VCCNULL_SWITCH_OFF
 70
     0
  0
APPID
  2
GENIUS_GENDTOL_13
 70
     0
  0
APPID
  2
GENIUS_GEFCFG0_13
 70
     0
  0
APPID
  2
GENIUS_GENOBJ-N-TIT_13
 70
     0
  0
APPID
  2
GENIUS_GENTITLE_13
 70
     0
  0
APPID
  2
GENIUS_GENZVEED_13
 70
     0
  0
APPID
  2
GENIUS_GENOBJ-N-SDF_13
 70
     0
  0
APPID
  2
GENIUS_GENSCREG_13
 70
     0
  0
APPID
  2
GENIUS_DUMCFG0_13
 70
     0
  0
APPID
  2
GEVID936201362
 70
     0
  0
APPID
  2
GEVDC
 70
     0
  0
APPID
  2
GEVCON
 70
     0
  0
APPID
  2
VCC
 70
     0
  0
APPID
  2
GEVPT
 70
     0
  0
APPID
  2
GEVIT
 70
     0
  0
APPID
  2
GENBH
 70
     0
  0
APPID
  2
GEVMK
 70
     0
  0
APPID
  2
GENIUS_GENBH_13
 70
     0
  0
APPID
  2
GENIUS_GENOBJ-NBEHI-BHF_13
 70
     0
  0
APPID
  2
GENIUS_GENOBJ-NBEHI-BHB_13
 70
     0
  0
APPID
  2
GENIUS_GENOBJ-F-DESC_13
 70
     0
  0
APPID
  2
GENIUS_GEFDESC_14
 70
     0
  0
APPID
  2
GENIUS_GENOBJ-F-PART_13
 70
     0
  0
APPID
  2
GENIUS_GEFSTDP_13
 70
     0
  0
APPID
  2
GENIUS_GEFPARTINS_13
 70
     0
  0
APPID
  2
GENIUS_GENTRA_14
 70
     0
  0
APPID
  2
GENIUS_GENINF13_13
 70
     0
  0
APPID
  2
GENIUS_GENOBJ-N-INFOPT_13
 70
     0
  0
APPID
  2
GENIUS_GENOBJ-N-RSSYM_13
 70
     0
  0
APPID
  2
GENIUS_GENSYMENT_13
 70
     0
  0
APPID
  2
GENIUS_GENSCSYM_13
 70
     0
  0
APPID
  2
GENIUS_GEFINFNAM_13
 70
     0
  0
APPID
  2
GENIUS_GENSCREG_15
 70
     0
  0
APPID
  2
GENIUS_GENOBJ-N-CEN_13
 70
     0
  0
APPID
  2
GENIUS_GENOBJ-N-CRS_13
 70
     0
  0
APPID
  2
GENIUS_GENOBJ-N-CRC_13
 70
     0
  0
APPID
  2
GENIUS_GENCRC_14
 70
     0
  0
APPID
  2
GEVID942827039
 70
     0
  0
APPID
  2
GEVID942827040
 70
     0
  0
APPID
  2
GEVID942827041
 70
     0
  0
APPID
  2
GENIUS_GENOBJ-F-SCPASSM_13
 70
     0
  0
APPID
  2
GENIUS_GENDIMSH_14
 70
     0
  0
APPID
  2
GENIUS_GENFIL_13
 70
     0
  0
APPID
  2
GENIUS_GENOBJ-N-CHA_13
 70
     0
  0
APPID
  2
GENIUS_GENOBJ-N-FIL_13
 70
     0
  0
APPID
  2
GEVID942827042
 70
     0
  0
APPID
  2
GEVID946020473
 70
     0
  0
APPID
  2
GEVID946020474
 70
     0
  0
APPID
  2
GEVID946020475
 70
     0
  0
APPID
  2
GENIUS_GENOBJ-N-HTC_13
 70
     0
  0
APPID
  2
GENIUS_GENHATCH_13
 70
     0
  0
APPID
  2
GEVID948854295
 70
     0
  0
APPID
  2
GEVID939402019
 70
     0
  0
APPID
  2
GEVID952919491
 70
     0
  0
APPID
  2
GEVID952919492
 70
     0
  0
APPID
  2
GENIUS_GEFWELD_13
 70
     0
  0
APPID
  2
GENIUS_GENOBJ-F-WELS_13
 70
     0
  0
APPID
  2
GEVID952919493
 70
     0
  0
APPID
  2
GENIUS_GENOBJ-N-RSBK_13
 70
     0
  0
APPID
  2
GENIUS_GENOBJ-N-LIB_13
 70
     0
  0
APPID
  2
GENIUS_GENSCALE_13
 70
     0
  0
APPID
  2
GEVID986376691
 70
     0
  0
APPID
  2
ACATTRIBSERVICES
 70
     0
  0
APPID
  2
ACADM_DIM_EDIT
 70
     0
  0
APPID
  2
AMDT_DM_ADJ
 70
     0
  0
APPID
  2
GEVID1057795304
 70
     0
  0
APPID
  2
GENIUS_GEFSH_13
 70
     0
  0
APPID
  2
GENIUS_GENOBJ-F-SHS_13
 70
     0
  0
APPID
  2
GENIUS_GENOBJ-N-ADDLEAD_13
 70
     0
  0
APPID
  2
GENIUS_GENMAINADDLEADER_14
 70
     0
  0
APPID
  2
GENIUS_GENADDLEADER_14
 70
     0
  0
APPID
  2
GENIUS_GENDREL_13
 70
     0
  0
APPID
  2
GEVID1121934822
 70
     0
  0
APPID
  2
GEVID1121934823
 70
     0
  0
APPID
  2
GEVID1121934824
 70
     0
  0
APPID
  2
ACAD_DSTYLE_DIMJAG
 70
     0
  0
APPID
  2
ACAD_DSTYLE_DIMBREAK
 70
     0
  0
APPID
  2
ACAD_NAV_VCDISPLAY
 70
     0
  0
APPID
  2
ACADANNOPO
 70
     0
  0
APPID
  2
ACAD_EXEMPT_FROM_CAD_STANDARDS
 70
     0
  0
APPID
  2
ACAD_MLEADERVER
 70
     0
  0
ENDTAB
  0
TABLE
  2
DIMSTYLE
 70
    29
  0
DIMSTYLE
  2
STANDARD
 70
     0
  3

  4

  5

  6

  7

 40
1.0
 41
0.18
 42
0.0625
 43
0.38
 44
0.18
 45
0.0
 46
0.0
 47
0.0
 48
0.0
140
0.18
141
0.09
142
0.0
143
25.399999999999999
144
1.0
145
0.0
146
1.0
147
0.09
 71
     0
 72
     0
 73
     1
 74
     1
 75
     0
 76
     0
 77
     0
 78
     0
170
     0
171
     2
172
     0
173
     0
174
     0
175
     0
176
     0
177
     0
178
     0
  0
DIMSTYLE
  2
ANNOTATIVE
 70
     0
  3

  4

  5

  6

  7

 40
1.0
 41
0.18
 42
0.0625
 43
0.38
 44
0.18
 45
0.0
 46
0.0
 47
0.0
 48
0.0
140
0.18
141
0.09
142
0.0
143
25.399999999999999
144
1.0
145
0.0
146
1.0
147
0.09
 71
     0
 72
     0
 73
     1
 74
     1
 75
     0
 76
     0
 77
     0
 78
     0
170
     0
171
     2
172
     0
173
     0
174
     0
175
     0
176
     0
177
     0
178
     0
  0
DIMSTYLE
  2
AM_JIS
 70
     0
  3

  4
"
  5

  6

  7

 40
1.0
 41
2.0
 42
1.0
 43
8.0
 44
1.0
 45
0.0
 46
0.0
 47
0.1
 48
0.1
140
2.5
141
0.0
142
0.0
143
0.0393701
144
1.0
145
0.0
146
0.71
147
1.5
 71
     0
 72
     0
 73
     0
 74
     0
 75
     0
 76
     0
 77
     3
 78
     8
170
     0
171
     2
172
     1
173
     0
174
     0
175
     0
176
   256
177
   256
178
     4
  0
DIMSTYLE
  2
AM_JIS$3
 70
     0
  3

  4
"
  5

  6

  7

 40
1.0
 41
2.0
 42
1.0
 43
10.0
 44
1.0
 45
0.0
 46
0.0
 47
0.1
 48
0.1
140
2.5
141
0.0
142
0.0
143
0.0393701
144
1.0
145
0.0
146
0.71
147
1.5
 71
     0
 72
     0
 73
     0
 74
     1
 75
     0
 76
     0
 77
     3
 78
     8
170
     0
171
     2
172
     0
173
     0
174
     0
175
     0
176
   256
177
   256
178
     4
  0
DIMSTYLE
  2
AM_JIS$4
 70
     0
  3

  4
"
  5

  6

  7

 40
1.0
 41
2.0
 42
1.0
 43
10.0
 44
1.0
 45
0.0
 46
0.0
 47
0.1
 48
0.1
140
2.5
141
0.0
142
0.0
143
0.0393701
144
1.0
145
0.0
146
0.71
147
1.5
 71
     0
 72
     0
 73
     0
 74
     0
 75
     0
 76
     0
 77
     3
 78
     8
170
     0
171
     2
172
     0
173
     0
174
     0
175
     0
176
   256
177
   256
178
     4
  0
DIMSTYLE
  2
AM_JIS$6
 70
     0
  3

  4
"
  5

  6

  7

 40
1.0
 41
2.0
 42
1.0
 43
10.0
 44
1.0
 45
0.0
 46
0.0
 47
0.1
 48
0.1
140
2.5
141
0.0
142
0.0
143
0.0393701
144
1.0
145
0.0
146
0.71
147
1.5
 71
     0
 72
     0
 73
     0
 74
     0
 75
     0
 76
     0
 77
     0
 78
     8
170
     0
171
     2
172
     1
173
     0
174
     0
175
     0
176
   256
177
   256
178
     4
  0
DIMSTYLE
  2
AM_JIS$7
 70
     0
  3

  4
"
  5

  6

  7

 40
1.0
 41
2.0
 42
1.0
 43
10.0
 44
1.0
 45
0.0
 46
0.0
 47
0.1
 48
0.1
140
2.5
141
0.0
142
0.0
143
0.0393701
144
1.0
145
0.0
146
0.71
147
1.5
 71
     0
 72
     0
 73
     0
 74
     0
 75
     0
 76
     0
 77
     3
 78
     8
170
     0
171
     2
172
     1
173
     0
174
     0
175
     0
176
   256
177
   256
178
     4
  0
DIMSTYLE
  2
AM_JIS$SF
 70
     0
  3

  4
"
  5

  6

  7

 40
1.0
 41
2.0
 42
1.0
 43
10.0
 44
1.0
 45
0.0
 46
0.0
 47
0.1
 48
0.1
140
2.5
141
0.0
142
0.0
143
0.0393701
144
1.0
145
0.0
146
0.71
147
1.5
 71
     0
 72
     0
 73
     0
 74
     0
 75
     1
 76
     1
 77
     3
 78
     8
170
     0
171
     2
172
     1
173
     0
174
     0
175
     0
176
   256
177
   256
178
     4
  0
DIMSTYLE
  2
AM_JIS$SH
 70
     0
  3

  4
"
  5

  6

  7

 40
1.0
 41
2.0
 42
1.0
 43
10.0
 44
1.0
 45
0.0
 46
0.0
 47
0.1
 48
0.1
140
2.5
141
0.0
142
0.0
143
0.0393701
144
2.0
145
0.0
146
0.71
147
1.5
 71
     0
 72
     0
 73
     0
 74
     0
 75
     1
 76
     1
 77
     3
 78
     8
170
     0
171
     2
172
     1
173
     1
174
     0
175
     0
176
   256
177
   256
178
     4
  0
DIMSTYLE
  2
AM_ISO
 70
     0
  3

  4
"
  5

  6

  7

 40
1.0
 41
2.5
 42
1.0
 43
10.0
 44
1.0
 45
0.0
 46
0.0
 47
0.1
 48
0.1
140
3.5
141
0.0
142
0.0
143
0.0393701
144
1.0
145
0.0
146
0.71
147
1.5
 71
     0
 72
     0
 73
     0
 74
     0
 75
     0
 76
     0
 77
     1
 78
     8
170
     0
171
     2
172
     1
173
     0
174
     0
175
     0
176
   256
177
   256
178
     2
  0
DIMSTYLE
  2
AM_ISO$3
 70
     0
  3

  4
"
  5

  6

  7

 40
1.0
 41
2.5
 42
1.0
 43
10.0
 44
1.0
 45
0.0
 46
0.0
 47
0.1
 48
0.1
140
3.5
141
0.0
142
0.0
143
0.0393701
144
1.0
145
0.0
146
0.71
147
1.5
 71
     0
 72
     0
 73
     0
 74
     1
 75
     0
 76
     0
 77
     1
 78
     8
170
     0
171
     2
172
     0
173
     0
174
     0
175
     0
176
   256
177
   256
178
     2
  0
DIMSTYLE
  2
AM_ISO$4
 70
     0
  3

  4
"
  5

  6

  7

 40
1.0
 41
2.5
 42
1.0
 43
10.0
 44
1.0
 45
0.0
 46
0.0
 47
0.1
 48
0.1
140
3.5
141
0.0
142
0.0
143
0.0393701
144
1.0
145
0.0
146
0.71
147
1.5
 71
     0
 72
     0
 73
     0
 74
     1
 75
     0
 76
     0
 77
     1
 78
     8
170
     0
171
     2
172
     0
173
     0
174
     0
175
     0
176
   256
177
   256
178
     2
  0
DIMSTYLE
  2
AM_ISO$6
 70
     0
  3

  4
"
  5

  6

  7

 40
1.0
 41
2.5
 42
1.0
 43
10.0
 44
1.0
 45
0.0
 46
0.0
 47
0.1
 48
0.1
140
3.5
141
0.0
142
0.0
143
0.0393701
144
1.0
145
0.0
146
0.71
147
1.5
 71
     0
 72
     0
 73
     0
 74
     0
 75
     0
 76
     0
 77
     0
 78
     8
170
     0
171
     2
172
     1
173
     0
174
     0
175
     0
176
   256
177
   256
178
     2
  0
DIMSTYLE
  2
AM_ISO$7
 70
     0
  3

  4
"
  5

  6

  7

 40
1.0
 41
2.5
 42
1.0
 43
10.0
 44
1.0
 45
0.0
 46
0.0
 47
0.1
 48
0.1
140
5.0
141
0.0
142
0.0
143
0.0393701
144
1.0
145
0.0
146
0.71
147
1.5
 71
     0
 72
     0
 73
     0
 74
     0
 75
     0
 76
     0
 77
     1
 78
     8
170
     0
171
     2
172
     1
173
     0
174
     0
175
     0
176
   256
177
   256
178
     2
  0
DIMSTYLE
  2
AM_ISO$SF
 70
     0
  3

  4
"
  5

  6

  7

 40
1.0
 41
2.5
 42
1.0
 43
10.0
 44
1.0
 45
0.0
 46
0.0
 47
0.1
 48
0.1
140
3.5
141
0.0
142
0.0
143
0.0393701
144
1.0
145
0.0
146
0.71
147
1.5
 71
     0
 72
     0
 73
     0
 74
     0
 75
     1
 76
     1
 77
     1
 78
     8
170
     0
171
     2
172
     1
173
     0
174
     0
175
     0
176
   256
177
   256
178
     2
  0
DIMSTYLE
  2
AM_ISO$SH
 70
     0
  3

  4
"
  5

  6

  7

 40
1.0
 41
2.5
 42
1.0
 43
10.0
 44
1.0
 45
0.0
 46
0.0
 47
0.1
 48
0.1
140
3.5
141
0.0
142
0.0
143
0.0393701
144
2.0
145
0.0
146
0.71
147
1.5
 71
     0
 72
     0
 73
     0
 74
     0
 75
     1
 76
     1
 77
     1
 78
     8
170
     0
171
     2
172
     1
173
     1
174
     0
175
     0
176
   256
177
   256
178
     2
  0
DIMSTYLE
  2
GEN-ANSI
 70
     0
  3

  4
"
  5

  6

  7

 40
1.0
 41
2.0
 42
0.5
 43
10.0
 44
0.5
 45
0.0
 46
0.0
 47
0.1
 48
0.1
140
2.5
141
0.0
142
0.0
143
0.0393701
144
1.0
145
0.0
146
0.71
147
1.5
 71
     0
 72
     0
 73
     1
 74
     1
 75
     0
 76
     0
 77
     0
 78
     8
170
     0
171
     2
172
     0
173
     0
174
     0
175
     0
176
   256
177
   256
178
     4
  0
DIMSTYLE
  2
GEN-ANSI$3
 70
     0
  3

  4
"
  5

  6

  7

 40
1.0
 41
2.0
 42
0.5
 43
10.0
 44
0.5
 45
0.0
 46
0.0
 47
0.1
 48
0.1
140
2.5
141
0.0
142
0.0
143
0.0393701
144
1.0
145
0.0
146
0.71
147
1.5
 71
     0
 72
     0
 73
     1
 74
     1
 75
     0
 76
     0
 77
     0
 78
     8
170
     0
171
     2
172
     0
173
     0
174
     0
175
     0
176
   256
177
   256
178
     4
  0
DIMSTYLE
  2
GEN-ANSI$4
 70
     0
  3

  4
"
  5

  6

  7

 40
1.0
 41
2.0
 42
0.5
 43
10.0
 44
0.5
 45
0.0
 46
0.0
 47
0.1
 48
0.1
140
2.5
141
0.0
142
0.0
143
0.0393701
144
1.0
145
0.0
146
0.71
147
1.5
 71
     0
 72
     0
 73
     1
 74
     1
 75
     0
 76
     0
 77
     0
 78
     8
170
     0
171
     2
172
     0
173
     0
174
     0
175
     0
176
   256
177
   256
178
     4
  0
DIMSTYLE
  2
GEN-ANSI$6
 70
     0
  3

  4
"
  5

  6

  7

 40
1.0
 41
2.0
 42
0.5
 43
10.0
 44
0.5
 45
0.0
 46
0.0
 47
0.1
 48
0.1
140
2.5
141
0.0
142
0.0
143
0.0393701
144
1.0
145
0.0
146
0.71
147
1.5
 71
     0
 72
     0
 73
     1
 74
     1
 75
     0
 76
     0
 77
     0
 78
     8
170
     0
171
     2
172
     0
173
     0
174
     0
175
     0
176
   256
177
   256
178
     4
  0
DIMSTYLE
  2
GEN-ANSI-POS
 70
     0
  3

  4
"
  5

  6

  7

 40
1.0
 41
2.5
 42
0.5
 43
10.0
 44
0.5
 45
0.0
 46
0.0
 47
0.1
 48
0.1
140
5.0
141
0.0
142
0.0
143
0.0393701
144
1.0
145
0.0
146
0.71
147
1.5
 71
     0
 72
     0
 73
     0
 74
     0
 75
     0
 76
     0
 77
     0
 78
     8
170
     0
171
     2
172
     0
173
     0
174
     0
175
     0
176
   256
177
   256
178
     4
  0
DIMSTYLE
  2
GEN-ANSI-AXE-F
 70
     0
  3

  4
"
  5

  6

  7

 40
1.0
 41
2.0
 42
0.5
 43
10.0
 44
0.5
 45
0.0
 46
0.0
 47
0.1
 48
0.1
140
2.5
141
0.0
142
0.0
143
0.0393701
144
1.0
145
0.0
146
0.71
147
1.5
 71
     0
 72
     0
 73
     1
 74
     1
 75
     1
 76
     1
 77
     0
 78
     8
170
     0
171
     2
172
     0
173
     1
174
     0
175
     0
176
   256
177
   256
178
     4
  0
DIMSTYLE
  2
GEN-ANSI-AXE-H
 70
     0
  3

  4
"
  5

  6

  7

 40
1.0
 41
2.0
 42
0.5
 43
10.0
 44
0.5
 45
0.0
 46
0.0
 47
0.1
 48
0.1
140
2.5
141
0.0
142
0.0
143
0.0393701
144
2.0
145
0.0
146
0.71
147
1.5
 71
     0
 72
     0
 73
     0
 74
     0
 75
     1
 76
     1
 77
     0
 78
     8
170
     0
171
     2
172
     1
173
     1
174
     0
175
     0
176
   256
177
   256
178
     4
  0
DIMSTYLE
  2
AM_ANSI
 70
     0
  3

  4
mm
  5

  6

  7

 40
1.0
 41
0.12
 42
0.05
 43
0.5
 44
0.1
 45
0.0
 46
0.0
 47
0.1
 48
0.1
140
0.12
141
0.0
142
0.0
143
25.399999999999999
144
1.0
145
0.0
146
0.71
147
0.06
 71
     0
 72
     0
 73
     1
 74
     1
 75
     0
 76
     0
 77
     0
 78
     7
170
     0
171
     2
172
     0
173
     0
174
     0
175
     0
176
   256
177
   256
178
     2
  0
DIMSTYLE
  2
AM_ANSI$3
 70
     0
  3

  4
mm
  5

  6

  7

 40
1.0
 41
0.12
 42
0.05
 43
0.5
 44
0.1
 45
0.0
 46
0.0
 47
0.1
 48
0.1
140
0.12
141
0.0
142
0.0
143
25.399999999999999
144
1.0
145
0.0
146
0.71
147
0.06
 71
     0
 72
     0
 73
     1
 74
     1
 75
     0
 76
     0
 77
     0
 78
     7
170
     0
171
     2
172
     0
173
     0
174
     0
175
     0
176
   256
177
   256
178
     2
  0
DIMSTYLE
  2
AM_ANSI$4
 70
     0
  3

  4
mm
  5

  6

  7

 40
1.0
 41
0.12
 42
0.05
 43
0.5
 44
0.1
 45
0.0
 46
0.0
 47
0.1
 48
0.1
140
0.12
141
0.0
142
0.0
143
25.399999999999999
144
1.0
145
0.0
146
0.71
147
0.06
 71
     0
 72
     0
 73
     1
 74
     1
 75
     0
 76
     0
 77
     0
 78
     7
170
     0
171
     2
172
     0
173
     0
174
     0
175
     0
176
   256
177
   256
178
     2
  0
DIMSTYLE
  2
AM_ANSI$7
 70
     0
  3

  4
mm
  5

  6

  7

 40
1.0
 41
0.12
 42
0.05
 43
0.5
 44
0.1
 45
0.0
 46
0.0
 47
0.1
 48
0.1
140
0.12
141
0.0
142
0.0
143
25.399999999999999
144
1.0
145
0.0
146
0.71
147
0.06
 71
     0
 72
     0
 73
     1
 74
     1
 75
     0
 76
     0
 77
     0
 78
     7
170
     0
171
     2
172
     0
173
     0
174
     0
175
     0
176
   256
177
   256
178
     2
  0
DIMSTYLE
  2
AM_ANSI$SF
 70
     0
  3

  4
mm
  5

  6

  7

 40
1.0
 41
0.12
 42
0.05
 43
0.5
 44
0.1
 45
0.0
 46
0.0
 47
0.1
 48
0.1
140
0.12
141
0.0
142
0.0
143
25.399999999999999
144
1.0
145
0.0
146
0.71
147
0.06
 71
     0
 72
     0
 73
     1
 74
     1
 75
     1
 76
     1
 77
     0
 78
     7
170
     0
171
     2
172
     0
173
     0
174
     0
175
     0
176
   256
177
   256
178
     2
  0
DIMSTYLE
  2
AM_ANSI$SH
 70
     0
  3

  4
mm
  5

  6
GENAXEH
  7

 40
1.0
 41
0.12
 42
0.05
 43
0.5
 44
0.1
 45
0.0
 46
0.0
 47
0.1
 48
0.1
140
0.12
141
0.0
142
0.0
143
25.399999999999999
144
1.0
145
0.0
146
0.71
147
0.06
 71
     0
 72
     0
 73
     1
 74
     1
 75
     1
 76
     1
 77
     0
 78
     7
170
     0
171
     2
172
     0
173
     1
174
     0
175
     0
176
   256
177
   256
178
     2
  0
ENDTAB
  0
ENDSEC
  0
SECTION
  2
BLOCKS
  0
BLOCK
  8
0
  2
$MODEL_SPACE
 70
     0
 10
0.0
 20
0.0
 30
0.0
  3
$MODEL_SPACE
  1

  0
ENDBLK
  5
9BB2
  8
0
  0
BLOCK
 67
     1
  8
0
  2
$PAPER_SPACE
 70
     0
 10
0.0
 20
0.0
 30
0.0
  3
$PAPER_SPACE
  1

  0
ENDBLK
  5
9BAE
 67
     1
  8
0
  0
BLOCK
  8
0
  2
GENAXEH
 70
     0
 10
0.0
 20
0.0
 30
0.0
  3
GENAXEH
  1

  0
LINE
  5
9AFB
  8
0
 10
-1.0
 20
0.0
 30
0.0
 11
1.0
 21
0.0
 31
0.0
  0
ENDBLK
  5
9AFD
  8
0
  0
BLOCK
  8
0
  2
_ACMFILLEDHALF
 70
     0
 10
0.0
 20
0.0
 30
0.0
  3
_ACMFILLEDHALF
  1

  0
TRACE
  5
9CC1
  8
AM_0
 62
     0
 10
-0.8
 20
0.0
 30
0.0
 11
-1.0
 21
0.166666666
 31
0.0
 12
0.0
 22
0.0
 32
0.0
 13
0.0
 23
0.0
 33
0.0
  0
LINE
  5
9CC2
  8
AM_0
 62
     0
 10
-1.0
 20
0.0
 30
0.0
 11
-0.8
 21
0.0
 31
0.0
  0
ENDBLK
  5
9CC0
  8
0
  0
ENDSEC
  0
SECTION
  2
ENTITIES
  0
POINT
  5
1B94
  8
0
 10
0.0
 20
0.0
 30
0.0
1001
GENIUS_GENODEF_13
1002
{
1000
HIER
1070
     1
1002
}
1002
{
1000
MANEDIT
1070
     0
1002
}
1002
{
1000
NOSEL
1070
     0
1002
}
1002
{
1000
BEHIND
1070
     0
1002
}
1002
{
1000
REACTOR
1002
}
1001
GENIUS_GENOBJ-N-SDF_13
1002
{
1000
OWNER
1000
GEN
1002
}
1001
GENIUS_GENOENT_13
1002
{
1000
MYREF
1005
1B94
1002
}
1002
{
1000
GRP
1005
0
1002
}
1001
GENIUS_GENOLIS_13
1002
{
1000
ENT
1005
89
1002
}
  0
LINE
  5
8984
  8
AM_0
 10
508.23740959659523
 20
183.7100389930861
 30
0.0
 11
450.23738959659511
 21
183.7100389930861
 31
0.0
  0
LINE
  5
8985
  8
AM_0
 10
508.23740959659523
 20
186.7100389930861
 30
0.0
 11
463.2373795965953
 21
186.7100389930861
 31
0.0
  0
LINE
  5
8986
  8
AM_0
 10
508.23740959659523
 20
151.71004399308521
 30
0.0
 11
450.23738959659511
 21
151.71004399308521
 31
0.0
  0
LINE
  5
8987
  8
ﾁｭｳｼﾝｾﾝ
 10
294.52235255329123
 20
167.71004899308511
 30
0.0
 11
515.24439947541146
 21
167.71004899308511
 31
0.0
  0
LINE
  5
8989
  8
AM_0
 10
228.1239295965951
 20
169.09655899308601
 30
0.0
 11
234.50027959659511
 21
157.71004399308609
 31
0.0
  0
LINE
  5
898A
  8
AM_0
 10
202.7374495965941
 20
55.21002499308544
 30
0.0
 11
202.7374495965941
 21
168.2100289930851
 31
0.0
  0
LINE
  5
898B
  8
AM_0
 10
276.7373995965952
 20
65.710039993085275
 30
0.0
 11
276.7373995965952
 21
213.71003899308619
 31
0.0
  0
LINE
  5
898C
  8
AM_0
 10
266.73737959659519
 20
68.597566993085209
 30
0.0
 11
266.73737959659519
 21
209.27594899308511
 31
0.0
  0
LINE
  5
898D
  8
AM_0
 10
323.23739959659508
 20
77.850664993085275
 30
0.0
 11
323.23739959659508
 21
204.0421489930861
 31
0.0
  0
LINE
  5
898E
  8
AM_0
 10
311.2373995965952
 20
230.7341089930853
 30
0.0
 11
311.2373995965952
 21
48.686587993085247
 31
0.0
  0
LINE
  5
898F
  8
AM_0
 10
418.23737959659508
 20
68.167774993085274
 30
0.0
 11
418.23737959659508
 21
229.1909989930852
 31
0.0
  0
LINE
  5
8990
  8
AM_0
 10
398.23739959659508
 20
60.71003899308522
 30
0.0
 11
398.23739959659508
 21
199.15274899308511
 31
0.0
  0
LINE
  5
8991
  8
AM_0
 10
439.23737959659508
 20
53.249422993087123
 30
0.0
 11
439.23737959659508
 21
211.7100589930871
 31
0.0
  0
LINE
  5
8992
  8
AM_0
 10
446.2373695965951
 20
140.4420979930872
 30
0.0
 11
446.2373695965951
 21
167.71004899308511
 31
0.0
  0
LINE
  5
8993
  8
AM_0
 10
333.23741959659401
 20
239.21006899308719
 30
0.0
 11
333.23741959659401
 21
83.210041993085284
 31
0.0
  0
LINE
  5
8994
  8
AM_0
 10
450.23738959659511
 20
150.21004399308521
 30
0.0
 11
450.23738959659511
 21
185.2100389930861
 31
0.0
  0
LINE
  5
8995
  8
AM_0
 10
202.7374495965941
 20
157.71004399308609
 30
0.0
 11
247.840469596595
 21
157.71004399308609
 31
0.0
  0
LINE
  5
8996
  8
AM_0
 10
202.7374495965941
 20
144.51589099308609
 30
0.0
 11
241.88894959659521
 21
144.51589099308609
 31
0.0
  0
LINE
  5
8997
  8
AM_0
 10
227.73737959659519
 20
95.214511993085196
 30
0.0
 11
266.73737959659519
 21
95.214511993085196
 31
0.0
  0
LINE
  5
8998
  8
AM_0
 10
226.87697959659519
 20
71.087818993085165
 30
0.0
 11
264.02486959659512
 21
69.79057699308629
 31
0.0
  0
LINE
  5
8999
  8
ﾁｭｳｼﾝｾﾝ
 10
307.21813389751009
 20
111.8202891332493
 30
0.0
 11
20.330099596595801
 21
111.7100419930872
 31
0.0
  0
ARC
  5
899A
  8
AM_0
 10
227.73737959659519
 20
90.214510993085284
 30
0.0
 40
5.0000000999999967
 50
90.00000299999769
 51
180.00001000000091
  0
ARC
  5
899B
  8
AM_0
 10
218.73737959659519
 20
59.771212993087197
 30
0.0
 40
4.000000199999997
 50
272.00000000000369
 51
0.0
  0
LINE
  5
899C
  8
AM_0
 10
202.73738959659519
 20
55.210039993087094
 30
0.0
 11
218.87696959659519
 21
55.77365299308542
 31
0.0
  0
LINE
  5
899D
  8
AM_0
 10
194.73737959659411
 20
55.710040993086061
 30
0.0
 11
202.7374495965941
 21
55.710040993086061
 31
0.0
  0
LINE
  5
899E
  8
AM_0
 10
202.7374495965941
 20
78.904207993085265
 30
0.0
 11
222.73739959659511
 21
78.904207993085265
 31
0.0
  0
LINE
  5
899F
  8
AM_0
 10
202.7374495965941
 20
65.710039993085275
 30
0.0
 11
222.73739959659511
 21
65.710039993085275
 31
0.0
  0
LINE
  5
89A0
  8
AM_0
 10
194.73737959659411
 20
65.710039993085275
 30
0.0
 11
202.7374495965941
 21
65.710039993085275
 31
0.0
  0
LINE
  5
89A1
  8
AM_0
 10
194.73737959659411
 20
79.770037993086191
 30
0.0
 11
202.7374495965941
 21
79.770037993086191
 31
0.0
  0
LINE
  5
89A2
  8
AM_0
 10
222.73739959659511
 20
90.214510993085284
 30
0.0
 11
222.73739959659511
 21
59.771212993087197
 31
0.0
  0
ARC
  5
89A3
  8
AM_0
 10
226.7374495965941
 20
67.09028899308629
 30
0.0
 40
4.000000199999997
 50
87.999999999996248
 51
180.00001000000091
  0
POINT
  5
89A4
  8
AM_0
 10
202.7374495965941
 20
111.7100419930872
 30
0.0
  0
LINE
  5
89A5
  8
AM_0
 10
194.73737959659411
 20
143.6500459930871
 30
0.0
 11
202.7374495965941
 21
143.6500459930871
 31
0.0
  0
LINE
  5
89A6
  8
AM_0
 10
194.73737959659411
 20
157.71004399308609
 30
0.0
 11
202.7374495965941
 21
157.71004399308609
 31
0.0
  0
LINE
  5
89A7
  8
AM_0
 10
323.23739959659508
 20
29.710024993085408
 30
0.0
 11
408.23741959659509
 21
29.710024993085408
 31
0.0
  0
LINE
  5
89A8
  8
AM_0
 10
322.12733959659522
 20
48.490891993085263
 30
0.0
 11
337.04714959659401
 21
95.11529899308529
 31
0.0
  0
LINE
  5
89A9
  8
AM_0
 10
266.73737959659519
 20
78.131410993086092
 30
0.0
 11
311.2373995965952
 21
78.131410993086092
 31
0.0
  0
LINE
  5
89AA
  8
AM_0
 10
276.7373995965952
 20
66.210025993086447
 30
0.0
 11
308.80718959659521
 21
65.090119993085182
 31
0.0
  0
LINE
  5
89AB
  8
AM_0
 10
285.2374495965941
 20
27.710023993086221
 30
0.0
 11
321.23741959659509
 21
27.710023993086221
 31
0.0
  0
LINE
  5
89AC
  8
AM_0
 10
287.23739959659508
 20
45.71002399308621
 30
0.0
 11
318.31754959659401
 21
45.71002399308621
 31
0.0
  0
LINE
  5
89AD
  8
ｶｸﾚｾﾝ2
 10
295.73744959659501
 20
45.71002399308621
 30
0.0
 11
295.73744959659501
 21
27.710023993086221
 31
0.0
  0
LINE
  5
89AE
  8
AM_0
 10
285.2374495965941
 20
27.710023993086221
 30
0.0
 11
285.2374495965941
 21
43.71002299308531
 31
0.0
  0
ARC
  5
89AF
  8
AM_0
 10
287.23739959659508
 20
43.71002299308531
 30
0.0
 40
2.00000007
 50
90.00000299999769
 51
180.00001000000091
  0
ARC
  5
89B0
  8
AM_0
 10
270.73739959659508
 20
69.922015993087257
 30
0.0
 40
4.000000199999997
 50
211.07234000000571
 51
267.99999999999631
  0
ARC
  5
89B1
  8
AM_0
 10
263.88527959659513
 20
65.793046993085227
 30
0.0
 40
4.000000199999997
 50
31.0723409999962
 51
87.999999999996248
  0
LINE
  5
89B2
  8
AM_0
 10
270.5978095965952
 20
65.924425993086103
 30
0.0
 11
276.7373995965952
 21
65.710024993085185
 31
0.0
  0
LINE
  5
89B3
  8
AM_0
 10
323.23739959659508
 20
51.960040993085158
 30
0.0
 11
323.23739959659508
 21
57.292270993085019
 31
0.0
  0
LINE
  5
89B4
  8
ｶｸﾚｾﾝ2
 10
310.73741959659401
 20
45.71002399308621
 30
0.0
 11
310.73741959659401
 21
27.710023993086221
 31
0.0
  0
LINE
  5
89B5
  8
ﾁｭｳｼﾝｾﾝ
 10
303.23744959659422
 20
24.710023993086221
 30
0.0
 11
303.2374495965941
 21
48.710023993086217
 31
0.0
  0
ARC
  5
89B6
  8
AM_0
 10
323.23739959659508
 20
27.710023993086221
 30
0.0
 40
2.00000007
 50
90.00000299999769
 51
180.00001000000091
  0
ARC
  5
89B7
  8
AM_0
 10
314.237399596594
 20
48.686587993085247
 30
0.0
 40
3.0
 50
179.99998999999889
 51
268.00001000000509
  0
ARC
  5
89B8
  8
AM_0
 10
318.31754959659401
 20
49.710025993087129
 30
0.0
 40
4.000000199999997
 50
270.0
 51
342.25533000000752
  0
LINE
  5
89B9
  8
AM_0
 10
323.23739959659508
 20
75.850666993085255
 30
0.0
 11
330.88241959659518
 21
75.850666993085255
 31
0.0
  0
ARC
  5
89BA
  8
AM_0
 10
313.23737959659519
 20
61.29225499308528
 30
0.0
 40
2.00000007
 50
179.99998999999889
 51
270.0
  0
ARC
  5
89BB
  8
AM_0
 10
308.23739959659508
 20
62.108218993086261
 30
0.0
 40
3.0
 50
0.0
 51
87.999999999996248
  0
ARC
  5
89BC
  8
AM_0
 10
321.23741959659509
 20
57.292270993085019
 30
0.0
 40
2.00000007
 50
0.0
 51
90.00000299999769
  0
LINE
  5
89BD
  8
AM_0
 10
313.23737959659519
 20
59.292253993085289
 30
0.0
 11
321.23741959659509
 21
59.292253993085289
 31
0.0
  0
ARC
  5
89BE
  8
AM_0
 10
313.23737959659519
 20
81.967378993085276
 30
0.0
 40
2.00000007
 50
179.99998999999889
 51
270.0
  0
ARC
  5
89BF
  8
AM_0
 10
321.23741959659509
 20
77.850664993085275
 30
0.0
 40
2.00000007
 50
270.0
 51
0.0
  0
ARC
  5
89C0
  8
AM_0
 10
321.23741959659509
 20
81.967378993085276
 30
0.0
 40
2.00000007
 50
270.0
 51
0.0
  0
LINE
  5
89C1
  8
AM_0
 10
313.23737959659519
 20
79.967365993085181
 30
0.0
 11
321.23741959659509
 21
79.967365993085181
 31
0.0
  0
LINE
  5
89C2
  8
AM_0
 10
266.73737959659519
 20
100.2353719930852
 30
0.0
 11
311.2373995965952
 21
100.2353719930852
 31
0.0
  0
LINE
  5
89C3
  8
AM_0
 10
241.88894959659521
 20
144.5158579930854
 30
0.0
 11
266.73737959659519
 21
100.1430559930852
 31
0.0
  0
LINE
  5
89C4
  8
AM_0
 10
241.88894959659521
 20
144.5158579930854
 30
0.0
 11
249.96173959659509
 21
152.5887049930862
 31
0.0
  0
ARC
  5
89C5
  8
AM_0
 10
247.840469596595
 20
154.71004399308609
 30
0.0
 40
3.0
 50
315.0000000000046
 51
90.00000299999769
  0
LINE
  5
89C6
  8
AM_0
 10
337.23737959659519
 20
96.334444993085313
 30
0.0
 11
337.23737959659519
 21
154.3578079930854
 31
0.0
  0
ARC
  5
89C7
  8
AM_0
 10
333.23741959659401
 20
96.334444993085313
 30
0.0
 40
4.000000199999997
 50
342.25533000000752
 51
0.0
  0
LINE
  5
89C8
  8
AM_0
 10
333.23741959659401
 20
154.3578079930854
 30
0.0
 11
337.23737959659519
 21
154.3578079930854
 31
0.0
  0
ARC
  5
89C9
  8
AM_0
 10
413.23739959659508
 20
60.71003899308522
 30
0.0
 40
15.000000299999989
 50
179.99998999999889
 51
270.0
  0
LINE
  5
89CA
  8
AM_0
 10
403.31237959659501
 20
60.167773993085291
 30
0.0
 11
410.23739959659508
 21
60.167773993085291
 31
0.0
  0
LINE
  5
89CB
  8
AM_0
 10
410.23739959659508
 20
27.710023993086221
 30
0.0
 11
446.2373695965951
 21
27.710023993086221
 31
0.0
  0
LINE
  5
89CC
  8
AM_0
 10
413.23739959659508
 20
45.71002399308621
 30
0.0
 11
444.23738959659522
 21
45.71002399308621
 31
0.0
  0
LINE
  5
89CD
  8
ｶｸﾚｾﾝ2
 10
420.73739959659508
 20
45.71002399308621
 30
0.0
 11
420.73739959659508
 21
27.710023993086221
 31
0.0
  0
LINE
  5
89CE
  8
ｶｸﾚｾﾝ2
 10
435.73739959659508
 20
45.71002399308621
 30
0.0
 11
435.73739959659508
 21
27.710023993086221
 31
0.0
  0
LINE
  5
89CF
  8
ﾁｭｳｼﾝｾﾝ
 10
428.23739959659531
 20
24.710023993086221
 30
0.0
 11
428.23739959659508
 21
48.710023993086217
 31
0.0
  0
ARC
  5
89D0
  8
AM_0
 10
408.23741959659509
 20
27.710023993086221
 30
0.0
 40
2.00000007
 50
0.0
 51
90.00000299999769
  0
LINE
  5
89D1
  8
AM_0
 10
410.23739959659508
 20
27.710023993086221
 30
0.0
 11
410.23739959659508
 21
27.710023993086221
 31
0.0
  0
LINE
  5
89D2
  8
AM_0
 10
446.2373695965951
 20
27.710023993086221
 30
0.0
 11
446.2373695965951
 21
43.71002299308531
 31
0.0
  0
ARC
  5
89D3
  8
AM_0
 10
447.23738959659511
 20
53.249422993087123
 30
0.0
 40
8.0000000999999976
 50
179.99998999999889
 51
252.5423899999993
  0
ARC
  5
89D4
  8
AM_0
 10
444.23738959659522
 20
43.71002299308531
 30
0.0
 40
2.00000007
 50
0.0
 51
90.00000299999769
  0
ARC
  5
89D5
  8
AM_0
 10
410.23739959659508
 20
68.167774993085274
 30
0.0
 40
8.0000000999999976
 50
270.0
 51
0.0
  0
ARC
  5
89D6
  8
AM_0
 10
443.2373695965951
 20
140.4420979930872
 30
0.0
 40
3.0
 50
300.00000000000051
 51
0.0
  0
ARC
  5
89D7
  8
AM_0
 10
442.23737959659508
 20
132.9365449930861
 30
0.0
 40
3.0
 50
120.0000000000005
 51
180.00001000000091
  0
LINE
  5
89D8
  8
AM_0
 10
440.73734959659481
 20
135.5346259930852
 30
0.0
 11
444.73739959659508
 21
137.8440439930861
 31
0.0
  0
LINE
  5
89D9
  8
AM_0
 10
450.23738959659511
 20
150.21004399308521
 30
0.0
 11
446.2373695965951
 21
150.21004399308521
 31
0.0
  0
LINE
  5
89DA
  8
AM_0
 10
228.6326395965952
 20
202.81115899308611
 30
0.0
 11
261.46535959659508
 21
203.95769899308519
 31
0.0
  0
LINE
  5
89DB
  8
AM_0
 10
229.2380695965951
 20
170.2106989930854
 30
0.0
 11
264.15419959659511
 21
205.12679899308529
 31
0.0
  0
ARC
  5
89DD
  8
AM_0
 10
228.7373995965952
 20
199.8129889930853
 30
0.0
 40
3.0
 50
91.999997999994008
 51
180.00001000000091
  0
LINE
  5
89DE
  8
AM_0
 10
202.73738959659519
 20
168.2100289930851
 30
0.0
 11
220.91762959659511
 21
168.84488899308519
 31
0.0
  0
LINE
  5
89DF
  8
AM_0
 10
194.73737959659411
 20
167.71004899308511
 30
0.0
 11
202.7374495965941
 21
167.71004899308511
 31
0.0
  0
LINE
  5
89E0
  8
AM_0
 10
225.7373995965952
 20
199.8129889930853
 30
0.0
 11
225.7373995965952
 21
173.1667189930852
 31
0.0
  0
ARC
  5
89E1
  8
AM_0
 10
226.40963959659501
 20
173.0391589930851
 30
0.0
 40
4.000000199999997
 50
272.00000000000369
 51
315.0000000000046
  0
ARC
  5
89E2
  8
AM_0
 10
222.73739959659511
 20
173.1667189930852
 30
0.0
 40
3.0
 50
309.62979000000041
 51
0.0
  0
ARC
  5
89E3
  8
AM_0
 10
220.77809959659521
 20
172.84247899308619
 30
0.0
 40
4.000000199999997
 50
272.00000000000369
 51
309.62979000000041
  0
LINE
  5
89E4
  8
AM_0
 10
224.6508295965952
 20
170.85611899308611
 30
0.0
 11
223.3292995965941
 21
169.7617189930852
 31
0.0
  0
LINE
  5
89E5
  8
AM_0
 10
220.91762959659511
 20
168.84488899308519
 30
0.0
 11
226.54922959659501
 21
169.04159899308621
 31
0.0
  0
LINE
  5
89E6
  8
AM_0
 10
333.23741959659401
 20
169.8953389930852
 30
0.0
 11
361.00607959659408
 21
195.1818289930861
 31
0.0
  0
LINE
  5
89E7
  8
AM_0
 10
333.23738959659522
 20
239.21006899308719
 30
0.0
 11
410.44682959659508
 21
237.18827899308721
 31
0.0
  0
ARC
  5
89E8
  8
AM_0
 10
325.23737959659519
 20
236.92943899308551
 30
0.0
 40
2.00000007
 50
91.999997999994008
 51
180.00001000000091
  0
LINE
  5
89E9
  8
AM_0
 10
266.73737959659519
 20
201.2886889930854
 30
0.0
 11
311.2373995965952
 21
201.2886889930854
 31
0.0
  0
LINE
  5
89EA
  8
AM_0
 10
266.73737959659519
 20
179.18471899308511
 30
0.0
 11
311.2373995965952
 21
179.18471899308511
 31
0.0
  0
LINE
  5
89EB
  8
AM_0
 10
276.7373995965952
 20
213.21002899308519
 30
0.0
 11
308.3420995965941
 21
214.31366899308611
 31
0.0
  0
ARC
  5
89EC
  8
AM_0
 10
270.73739959659508
 20
209.49809899308619
 30
0.0
 40
4.000000199999997
 50
91.999997999994008
 51
180.9319799999931
  0
ARC
  5
89ED
  8
AM_0
 10
262.73849959659509
 20
209.36792899308551
 30
0.0
 40
4.000000199999997
 50
315.0000000000046
 51
0.9319899800013384
  0
ARC
  5
89EE
  8
AM_0
 10
261.32576959659508
 20
207.9552589930851
 30
0.0
 40
4.000000199999997
 50
272.00000000000369
 51
315.0000000000046
  0
LINE
  5
89EF
  8
AM_0
 10
264.15419959659511
 20
205.12679899308529
 30
0.0
 11
265.5668695965951
 21
206.53949899308711
 31
0.0
  0
LINE
  5
89F0
  8
AM_0
 10
270.59774959659421
 20
213.49559899308599
 30
0.0
 11
276.7373995965952
 21
213.71000899308541
 31
0.0
  0
LINE
  5
89F1
  8
AM_0
 10
312.71591959659412
 20
197.0927089930851
 30
0.0
 11
321.66647959659508
 21
197.0927089930851
 31
0.0
  0
LINE
  5
89F2
  8
AM_0
 10
333.23741959659401
 20
169.8953689930851
 30
0.0
 11
333.23897959659507
 21
169.8953689930851
 31
0.0
  0
LINE
  5
89F3
  8
AM_0
 10
312.85859959659518
 20
217.84532899308621
 30
0.0
 11
333.23741959659401
 21
217.84532899308621
 31
0.0
  0
ARC
  5
89F4
  8
AM_0
 10
313.23737959659519
 20
208.04213899308621
 30
0.0
 40
2.00000007
 50
179.99998999999889
 51
270.0
  0
ARC
  5
89F5
  8
AM_0
 10
308.23739959659508
 20
217.3118689930852
 30
0.0
 40
3.0
 50
272.00000000000369
 51
0.0
  0
ARC
  5
89F6
  8
AM_0
 10
321.23741959659509
 20
204.0421489930861
 30
0.0
 40
2.00000007
 50
0.0
 51
90.00000299999769
  0
LINE
  5
89F7
  8
AM_0
 10
313.23737959659519
 20
206.04212899308521
 30
0.0
 11
321.23741959659509
 21
206.04212899308521
 31
0.0
  0
ARC
  5
89F8
  8
AM_0
 10
313.23737959659519
 20
221.01269899308519
 30
0.0
 40
2.00000007
 50
90.00000299999769
 51
180.00001000000091
  0
ARC
  5
89F9
  8
AM_0
 10
314.237399596594
 20
230.7341089930853
 30
0.0
 40
3.0
 50
91.999997999994008
 51
180.00001000000091
  0
ARC
  5
89FA
  8
AM_0
 10
321.23741959659509
 20
225.0127189930862
 30
0.0
 40
2.00000007
 50
270.0
 51
0.0
  0
ARC
  5
89FB
  8
AM_0
 10
321.23741959659509
 20
235.9815889930853
 30
0.0
 40
2.00000007
 50
272.00000000000369
 51
0.0
  0
LINE
  5
89FC
  8
AM_0
 10
323.23739959659508
 20
225.0127189930862
 30
0.0
 11
323.23739959659508
 21
236.92943899308551
 31
0.0
  0
LINE
  5
89FD
  8
AM_0
 10
313.23737959659519
 20
223.0126789930853
 30
0.0
 11
321.23741959659509
 21
223.0126789930853
 31
0.0
  0
LINE
  5
89FE
  8
AM_0
 10
314.13269959659488
 20
233.73221899308621
 30
0.0
 11
321.30719959659399
 21
233.9827489930851
 31
0.0
  0
LINE
  5
89FF
  8
AM_0
 10
325.16756959659517
 20
238.92821899308521
 30
0.0
 11
333.23738959659522
 21
239.2100089930853
 31
0.0
  0
ARC
  5
8A00
  8
AM_0
 10
410.23739959659508
 20
229.1909989930852
 30
0.0
 40
8.0000000999999976
 50
0.0
 51
88.499997000000647
  0
LINE
  5
8A01
  8
AM_0
 10
406.23737959659508
 20
207.15275899308509
 30
0.0
 11
414.63689959659507
 21
207.15275899308509
 31
0.0
  0
ARC
  5
8A02
  8
AM_0
 10
406.23737959659508
 20
199.15274899308511
 30
0.0
 40
8.0000000999999976
 50
90.00000299999769
 51
180.00001000000091
  0
ARC
  5
8A03
  8
AM_0
 10
442.23737959659508
 20
202.4835289930852
 30
0.0
 40
3.0
 50
179.99998999999889
 51
240.0000100000085
  0
LINE
  5
8A04
  8
AM_0
 10
446.2373695965951
 20
167.71004899308511
 30
0.0
 11
446.2373695965951
 21
194.9779789930854
 31
0.0
  0
LINE
  5
8A05
  8
AM_0
 10
450.23738959659511
 20
185.2100389930861
 30
0.0
 11
446.2373695965951
 21
185.2100389930861
 31
0.0
  0
ARC
  5
8A06
  8
AM_0
 10
443.2373695965951
 20
194.9779789930854
 30
0.0
 40
3.0
 50
0.0
 51
60.000002000001302
  0
LINE
  5
8A07
  8
AM_0
 10
440.73734959659481
 20
199.8854989930864
 30
0.0
 11
444.73733959659518
 21
197.57609899308511
 31
0.0
  0
LINE
  5
8A08
  8
AM_0
 10
463.2373795965953
 20
183.7100389930861
 30
0.0
 11
463.2373795965953
 21
186.7100389930861
 31
0.0
  0
ARC
  5
8A09
  8
AM_0
 10
435.23741959659509
 20
211.7100589930871
 30
0.0
 40
4.000000199999997
 50
0.0
 51
90.00000299999769
  0
ARC
  5
8A0A
  8
AM_0
 10
426.23741959659509
 20
223.71005899308551
 30
0.0
 40
8.0000000999999976
 50
179.99998999999889
 51
270.0
  0
LINE
  5
8A0B
  8
AM_0
 10
426.23741959659509
 20
215.71004899308519
 30
0.0
 11
435.23741959659509
 21
215.71004899308519
 31
0.0
  0
CIRCLE
  5
8A0D
  8
AM_0
 10
776.83957759659518
 20
167.71004899308511
 30
0.0
 40
29.000001000000001
  0
ARC
  5
8A0E
  8
AM_0
 10
776.83957759659518
 20
139.71004399308521
 30
0.0
 40
99.500004000000004
 50
8.4654901000033789
 51
171.53449999999941
  0
ARC
  5
8A0F
  8
AM_0
 10
776.83957759659518
 20
150.71004199308521
 30
0.0
 40
65.000000999999997
 50
0.0
 51
180.00001000000091
  0
ARC
  5
8A10
  8
AM_0
 10
776.83957759659518
 20
167.71004899308511
 30
0.0
 40
16.000000499999999
 50
108.2099599999986
 51
71.790052000004991
  0
CIRCLE
  5
8A11
  8
AM_5
 10
776.83957759659518
 20
167.71004899308511
 30
0.0
 40
4.000000199999997
  0
CIRCLE
  5
8A12
  8
AM_0
 10
776.83957759659518
 20
167.71004899308511
 30
0.0
 40
2.75000007
  0
LINE
  5
8A13
  8
AM_0
 10
699.83958859659515
 20
199.80371899308551
 30
0.0
 11
699.83958859659515
 21
101.4472999930852
 31
0.0
  0
LINE
  5
8A14
  8
AM_0
 10
853.83958759659527
 20
199.80371899308551
 30
0.0
 11
853.83958759659527
 21
101.4472999930852
 31
0.0
  0
LINE
  5
8A15
  8
ﾁｭｳｼﾝｾﾝ
 10
776.83957759659518
 20
20.43662177494377
 30
0.0
 11
776.83957759659518
 21
246.3711957403568
 31
0.0
  0
LINE
  5
8A16
  8
AM_0
 10
508.23740959659523
 20
151.71004399308521
 30
0.0
 11
508.23740959659523
 21
186.7100389930861
 31
0.0
  0
LINE
  5
8A17
  8
AM_0
 10
707.8395745965953
 20
45.71002399308621
 30
0.0
 11
664.83958759659515
 21
45.71002399308621
 31
0.0
  0
LINE
  5
8A18
  8
AM_0
 10
661.83958759659515
 20
27.710023993086221
 30
0.0
 11
711.83959159659526
 21
27.710023993086221
 31
0.0
  0
LINE
  5
8A1B
  8
AM_0
 10
661.87224259659524
 20
43.151659993086241
 30
0.0
 11
678.42363559659543
 21
154.3578079930854
 31
0.0
  0
LINE
  5
8A1C
  8
ｶｸﾚｾﾝ2
 10
674.33958859659515
 20
45.71002399308621
 30
0.0
 11
674.33958859659515
 21
27.710023993086221
 31
0.0
  0
LINE
  5
8A1D
  8
AM_0
 10
661.83958759659515
 20
42.71002399308621
 30
0.0
 11
661.83958759659515
 21
27.710023993086221
 31
0.0
  0
LINE
  5
8A1E
  8
ﾁｭｳｼﾝｾﾝ
 10
681.83958859659549
 20
48.710023993086217
 30
0.0
 11
681.83958859659515
 21
24.710023993086221
 31
0.0
  0
ARC
  5
8A1F
  8
AM_0
 10
664.83958759659515
 20
42.71002399308621
 30
0.0
 40
3.0
 50
90.00000299999769
 51
180.00001000000091
  0
LINE
  5
8A20
  8
AM_0
 10
713.8395745965953
 20
29.710024993085408
 30
0.0
 11
839.83957759659529
 21
29.710024993085408
 31
0.0
  0
ARC
  5
8A21
  8
AM_0
 10
776.83957759659518
 20
101.4472999930852
 30
0.0
 40
77.000000999999983
 50
179.99998999999889
 51
212.4183899999926
  0
LINE
  5
8A22
  8
AM_0
 10
711.83959159659526
 20
150.71004199308521
 30
0.0
 11
711.83959159659526
 21
60.71003899308522
 31
0.0
  0
ARC
  5
8A23
  8
AM_0
 10
696.83958859659526
 20
60.71003899308522
 30
0.0
 40
15.000000299999989
 50
270.0
 51
0.0
  0
ARC
  5
8A24
  8
AM_0
 10
713.8395745965953
 20
27.710023993086221
 30
0.0
 40
2.00000007
 50
90.00000299999769
 51
180.00001000000091
  0
LINE
  5
8A25
  8
ｶｸﾚｾﾝ2
 10
689.33958859659515
 20
45.71002399308621
 30
0.0
 11
689.33958859659515
 21
27.710023993086221
 31
0.0
  0
LINE
  5
8A26
  8
AM_0
 10
711.83959159659526
 20
41.710009993085237
 30
0.0
 11
711.83959159659526
 21
27.710023993086221
 31
0.0
  0
ARC
  5
8A27
  8
AM_0
 10
707.8395745965953
 20
41.710009993085237
 30
0.0
 40
4.000000199999997
 50
0.0
 51
90.00000299999769
  0
ARC
  5
8A28
  8
AM_0
 10
776.83957759659518
 20
101.4472999930852
 30
0.0
 40
77.000000999999983
 50
327.58159999999521
 51
0.0
  0
LINE
  5
8A29
  8
AM_0
 10
891.80690359659536
 20
43.151659993086241
 30
0.0
 11
875.2555045965953
 21
154.35777799308519
 31
0.0
  0
LINE
  5
8A2A
  8
AM_0
 10
841.83958759659504
 20
150.71004199308521
 30
0.0
 11
841.83958759659504
 21
60.71003899308522
 31
0.0
  0
ARC
  5
8A2B
  8
AM_0
 10
856.83958759659515
 20
60.71003899308522
 30
0.0
 40
15.000000299999989
 50
179.99998999999889
 51
270.0
  0
LINE
  5
8A2C
  8
AM_0
 10
845.83957759659518
 20
45.71002399308621
 30
0.0
 11
888.83958859659515
 21
45.71002399308621
 31
0.0
  0
LINE
  5
8A2D
  8
AM_0
 10
841.83958759659504
 20
27.710023993086221
 30
0.0
 11
891.83958859659526
 21
27.710023993086221
 31
0.0
  0
LINE
  5
8A2E
  8
AM_0
 10
841.83958759659504
 20
41.710009993085237
 30
0.0
 11
841.83958759659504
 21
27.710023993086221
 31
0.0
  0
ARC
  5
8A2F
  8
AM_0
 10
839.83957759659529
 20
27.710023993086221
 30
0.0
 40
2.00000007
 50
0.0
 51
90.00000299999769
  0
ARC
  5
8A30
  8
AM_0
 10
845.83957759659518
 20
41.710009993085237
 30
0.0
 40
4.000000199999997
 50
90.00000299999769
 51
180.00001000000091
  0
LINE
  5
8A31
  8
ｶｸﾚｾﾝ2
 10
879.33958759659504
 20
45.71002399308621
 30
0.0
 11
879.33958759659504
 21
27.710023993086221
 31
0.0
  0
LINE
  5
8A32
  8
ｶｸﾚｾﾝ2
 10
864.33959359659525
 20
45.71002399308621
 30
0.0
 11
864.33959359659525
 21
27.710023993086221
 31
0.0
  0
LINE
  5
8A33
  8
ﾁｭｳｼﾝｾﾝ
 10
871.83958759659527
 20
48.710023993086217
 30
0.0
 11
871.83958759659515
 21
24.710023993086221
 31
0.0
  0
LINE
  5
8A34
  8
AM_0
 10
891.83958859659526
 20
42.71002399308621
 30
0.0
 11
891.83958859659526
 21
27.710023993086221
 31
0.0
  0
ARC
  5
8A35
  8
AM_0
 10
888.83958859659515
 20
42.71002399308621
 30
0.0
 40
3.0
 50
0.0
 51
90.00000299999769
  0
LINE
  5
8A36
  8
AM_0
 10
695.12556859659526
 20
211.03199899308609
 30
0.0
 11
682.02873859659519
 21
169.8953389930852
 31
0.0
  0
LINE
  5
8A37
  8
ﾁｭｳｼﾝｾﾝ
 10
719.20883237919611
 20
167.71004899308511
 30
0.0
 11
834.47032281399424
 21
167.71004899308511
 31
0.0
  0
LINE
  5
8A38
  8
AM_0
 10
705.51761359659531
 20
221.4240589930852
 30
0.0
 11
746.65424359659505
 21
234.5208889930862
 31
0.0
  0
ARC
  5
8A39
  8
AM_0
 10
707.8395745965953
 20
199.80371899308551
 30
0.0
 40
8.0000000999999976
 50
138.9466500000033
 51
180.00001000000091
  0
ARC
  5
8A3A
  8
AM_0
 10
710.37154159659531
 20
206.1780889930871
 30
0.0
 40
16.000000499999999
 50
107.0794600000001
 51
162.9205299999976
  0
LINE
  5
8A3B
  8
AM_0
 10
771.83957659659529
 20
178.71002899308621
 30
0.0
 11
771.83957659659529
 21
186.7100389930861
 31
0.0
  0
LINE
  5
8A3C
  8
AM_0
 10
781.83957559659518
 20
178.71002899308621
 30
0.0
 11
781.83957559659518
 21
186.7100389930861
 31
0.0
  0
LINE
  5
8A3D
  8
AM_0
 10
771.83957659659529
 20
178.71002899308621
 30
0.0
 11
781.83957559659518
 21
178.71002899308621
 31
0.0
  0
LINE
  5
8A3E
  8
AM_0
 10
771.83957659659529
 20
186.7100389930861
 30
0.0
 11
781.83957559659518
 21
186.7100389930861
 31
0.0
  0
ARC
  5
8A3F
  8
AM_0
 10
845.83957759659518
 20
199.80371899308551
 30
0.0
 40
8.0000000999999976
 50
0.0
 51
41.053350999999701
  0
ARC
  5
8A40
  8
AM_0
 10
843.66117259659529
 20
206.53163899308521
 30
0.0
 40
16.000000499999999
 50
17.07946300000124
 51
72.920534000003912
  0
LINE
  5
8A41
  8
AM_0
 10
848.36030959659411
 20
221.82599899308519
 30
0.0
 11
806.06249359659535
 21
234.82190899308549
 31
0.0
  0
LINE
  5
8A42
  8
AM_0
 10
858.95555359659534
 20
211.2308089930853
 30
0.0
 11
871.95147859659528
 21
168.93293899308611
 31
0.0
  0
ARC
  5
8A44
  8
AM_0
 10
88.061249596595545
 20
126.79014963804001
 30
0.0
 40
1.335016049999999
 50
89.732355000002002
 51
270.26763000000221
  0
LINE
  5
8A45
  8
ﾁｭｳｼﾝｾﾝ
 10
143.73743959659569
 20
152.38248024271539
 30
0.0
 11
143.73743959659569
 21
71.132451242715362
 31
0.0
  0
LINE
  5
8A46
  8
AM_0
 10
184.5074695965952
 20
141.77513463803999
 30
0.0
 11
184.5074695965952
 21
81.77513163803917
 31
0.0
  0
LINE
  5
8A47
  8
AM_0
 10
86.737439596595777
 20
164.77512363803999
 30
0.0
 11
86.737439596595777
 21
62.335143638040151
 31
0.0
  0
LINE
  5
8A48
  8
AM_0
 10
194.7374695965951
 20
167.7801336380401
 30
0.0
 11
194.7374695965951
 21
55.78012263803906
 31
0.0
  0
LINE
  5
8A4A
  8
AM_0
 10
187.97750415260811
 20
75.780138638039261
 30
0.0
 11
89.379943753518205
 21
75.780138638039261
 31
0.0
  0
LINE
  5
8A4B
  8
AM_0
 10
143.73743959659569
 20
75.055131638040152
 30
0.0
 11
191.55746959659501
 21
75.055131638040152
 31
0.0
  0
LINE
  5
8A4C
  8
AM_0
 10
89.937449596595769
 20
55.495116638040152
 30
0.0
 11
186.85745959659411
 21
55.495116638040152
 31
0.0
  0
LINE
  5
8A4D
  8
AM_0
 10
112.23743959659571
 20
73.555131638040152
 30
0.0
 11
194.7374695965951
 21
73.555131638040152
 31
0.0
  0
ARC
  5
8A4E
  8
AM_0
 10
293.78863280384923
 20
113.467712577961
 30
0.0
 40
204.69842337270771
 50
178.02572260412779
 51
178.71785518950381
  0
ARC
  5
8A4F
  8
AM_0
 10
293.71138091568628
 20
110.0881687120141
 30
0.0
 40
204.6212004872653
 50
181.28349981584489
 51
181.97561674815401
  0
ARC
  5
8A50
  8
AM_0
 10
89.279699596595819
 20
76.775133638040117
 30
0.0
 40
1.0000319699999971
 50
89.552707000000495
 51
270.44730000000112
  0
ARC
  5
8A51
  8
AM_0
 10
89.279699596595819
 20
126.7751346380401
 30
0.0
 40
1.0000319699999971
 50
89.552707000000495
 51
270.44730000000112
  0
ARC
  5
8A52
  8
AM_0
 10
89.279699596595819
 20
116.7751326380402
 30
0.0
 40
1.0000319699999971
 50
89.552707000000495
 51
270.44730000000112
  0
ARC
  5
8A53
  8
AM_0
 10
89.279699596595819
 20
106.77513363803919
 30
0.0
 40
1.0000319699999971
 50
89.552707000000495
 51
270.44730000000112
  0
ARC
  5
8A54
  8
AM_0
 10
89.279699596595819
 20
96.775131638039127
 30
0.0
 40
1.0000319699999971
 50
89.552707000000495
 51
270.44730000000112
  0
ARC
  5
8A55
  8
AM_0
 10
89.279699596595819
 20
86.775117638040115
 30
0.0
 40
1.0000319699999971
 50
89.552707000000495
 51
270.44730000000112
  0
ARC
  5
8A56
  8
AM_0
 10
87.999239596595402
 20
116.7851136380401
 30
0.0
 40
1.270028039999999
 50
89.627211000000742
 51
270.37279000000223
  0
ARC
  5
8A57
  8
AM_0
 10
87.999239596595402
 20
106.77513363803919
 30
0.0
 40
1.270028039999999
 50
89.627211000000742
 51
270.37279000000223
  0
ARC
  5
8A58
  8
AM_0
 10
88.061249596595545
 20
96.765123638040123
 30
0.0
 40
1.3300160699999981
 50
89.73134399999789
 51
270.2686499999993
  0
ARC
  5
8A59
  8
AM_0
 10
88.19186959659578
 20
86.755143638040011
 30
0.0
 40
1.460012009999998
 50
89.778814000002811
 51
270.22118999999998
  0
ARC
  5
8A5A
  8
AM_0
 10
90.029579596595795
 20
51.885606638040151
 30
0.0
 40
2.000475929999999
 50
187.77046000000121
 51
269.93969000000249
  0
ARC
  5
8A5B
  8
AM_0
 10
89.942099596595725
 20
57.494124638039239
 30
0.0
 40
1.999007999999999
 50
190.63741000000331
 51
269.86655000000292
  0
ARC
  5
8A5C
  8
AM_0
 10
89.993429596595774
 20
54.645309638040082
 30
0.0
 40
2.0001841200000001
 50
188.9209999999957
 51
269.8285299999992
  0
ARC
  5
8A5D
  8
AM_0
 10
90.000989596595787
 20
52.802460638039072
 30
0.0
 40
1.997348129999998
 50
188.85146999999961
 51
270.18467999999763
  0
LINE
  5
8A5E
  8
AM_0
 10
92.737439596595436
 20
127.7751336380401
 30
0.0
 11
89.097509596595501
 21
127.7751336380401
 31
0.0
  0
LINE
  5
8A5F
  8
AM_0
 10
92.737439596595436
 20
125.77513263804011
 30
0.0
 11
89.097509596595501
 21
125.77513263804011
 31
0.0
  0
LINE
  5
8A60
  8
AM_0
 10
92.737439596595436
 20
117.7751346380401
 30
0.0
 11
89.097509596595501
 21
117.7751346380401
 31
0.0
  0
LINE
  5
8A61
  8
AM_0
 10
92.737439596595436
 20
115.77513363803919
 30
0.0
 11
89.097509596595501
 21
115.77513363803919
 31
0.0
  0
LINE
  5
8A62
  8
AM_0
 10
88.067459596595768
 20
125.4551256380401
 30
0.0
 11
92.737439596595436
 21
125.4551256380401
 31
0.0
  0
LINE
  5
8A63
  8
AM_0
 10
88.007459596595496
 20
118.05513363803919
 30
0.0
 11
92.737439596595436
 21
118.05513363803919
 31
0.0
  0
LINE
  5
8A64
  8
AM_0
 10
88.007459596595496
 20
115.5151236380391
 30
0.0
 11
92.737439596595436
 21
115.5151236380391
 31
0.0
  0
LINE
  5
8A65
  8
AM_0
 10
88.007459596595496
 20
108.0451236380401
 30
0.0
 11
92.737439596595436
 21
108.0451236380401
 31
0.0
  0
LINE
  5
8A66
  8
AM_0
 10
92.737439596595436
 20
107.7751326380392
 30
0.0
 11
89.097509596595501
 21
107.7751326380392
 31
0.0
  0
LINE
  5
8A67
  8
AM_0
 10
92.737439596595436
 20
105.7751346380401
 30
0.0
 11
89.097509596595501
 21
105.7751346380401
 31
0.0
  0
LINE
  5
8A68
  8
AM_0
 10
88.007459596595496
 20
105.50514363804
 30
0.0
 11
92.737439596595436
 21
105.50514363804
 31
0.0
  0
LINE
  5
8A69
  8
AM_0
 10
88.067459596595768
 20
98.095140638040093
 30
0.0
 11
92.737439596595436
 21
98.095140638040093
 31
0.0
  0
LINE
  5
8A6A
  8
AM_0
 10
92.737439596595436
 20
97.775133638040117
 30
0.0
 11
89.097509596595501
 21
97.775133638040117
 31
0.0
  0
LINE
  5
8A6B
  8
AM_0
 10
92.737439596595436
 20
95.775117638039205
 30
0.0
 11
89.097509596595501
 21
95.775117638039205
 31
0.0
  0
LINE
  5
8A6C
  8
AM_0
 10
88.067459596595768
 20
95.435136638040248
 30
0.0
 11
92.737439596595436
 21
95.435136638040248
 31
0.0
  0
LINE
  5
8A6D
  8
AM_0
 10
92.737439596595436
 20
87.775131638039994
 30
0.0
 11
89.097509596595501
 21
87.775131638039994
 31
0.0
  0
LINE
  5
8A6E
  8
AM_0
 10
88.197479596595471
 20
88.215135638039271
 30
0.0
 11
92.737439596595436
 21
88.215135638039271
 31
0.0
  0
LINE
  5
8A6F
  8
AM_0
 10
92.737439596595436
 20
85.775133638040145
 30
0.0
 11
89.097509596595501
 21
85.775133638040145
 31
0.0
  0
LINE
  5
8A70
  8
AM_0
 10
88.197479596595471
 20
85.295121638039134
 30
0.0
 11
92.737439596595436
 21
85.295121638039134
 31
0.0
  0
LINE
  5
8A71
  8
AM_0
 10
88.407449596595484
 20
75.055131638040152
 30
0.0
 11
143.73743959659569
 21
75.055131638040152
 31
0.0
  0
LINE
  5
8A72
  8
AM_0
 10
88.407449596595484
 20
78.415146638042231
 30
0.0
 11
92.844343625009515
 21
78.415146638042231
 31
0.0
  0
LINE
  5
8A73
  8
AM_0
 10
93.074808757700211
 20
77.775117638039092
 30
0.0
 11
89.097509596595501
 21
77.775117638039092
 31
0.0
  0
LINE
  5
8A74
  8
AM_0
 10
92.097449596595425
 20
75.125139638040267
 30
0.0
 11
86.737439596595777
 21
63.685134638039251
 31
0.0
  0
LINE
  5
8A75
  8
AM_0
 10
86.737439596595777
 20
63.685119638039168
 30
0.0
 11
87.977429596595826
 21
57.125121638039211
 31
0.0
  0
LINE
  5
8A76
  8
AM_0
 10
86.737439596595777
 20
60.99514863804017
 30
0.0
 11
88.047449596595925
 21
51.615144638040078
 31
0.0
  0
LINE
  5
8A77
  8
AM_0
 10
78.737459596595841
 20
58.780122638040091
 30
0.0
 11
86.737439596595777
 21
58.780122638040091
 31
0.0
  0
LINE
  5
8A78
  8
AM_0
 10
78.737459596595841
 20
58.775130638040203
 30
0.0
 11
86.737439596595777
 21
58.775130638040203
 31
0.0
  0
LINE
  5
8A79
  8
AM_0
 10
86.737439596595777
 20
62.335128638040082
 30
0.0
 11
88.017419596595815
 21
54.335130638040141
 31
0.0
  0
LINE
  5
8A7A
  8
AM_0
 10
86.737439596595777
 20
60.995118638040253
 30
0.0
 11
88.027499596596257
 21
52.49513163804
 31
0.0
  0
LINE
  5
8A7B
  8
AM_0
 10
79.42745959659544
 20
68.58513063804007
 30
0.0
 11
85.657499596595827
 21
68.58513063804007
 31
0.0
  0
ARC
  5
8A7C
  8
AM_0
 10
88.407449596595484
 20
76.735122638039414
 30
0.0
 40
1.679999999999999
 50
90.00000299999769
 51
270.0
  0
ARC
  5
8A7D
  8
AM_0
 10
290.70116423797413
 20
113.4879792035631
 30
0.0
 40
201.61085738285439
 50
179.42527489174191
 51
180.13294661222409
  0
ARC
  5
8A7E
  8
AM_0
 10
293.73108351610711
 20
113.4873619816792
 30
0.0
 40
204.64076721509861
 50
180.13080539050151
 51
180.4794013531876
  0
ARC
  5
8A7F
  8
AM_0
 10
291.98441756696019
 20
110.06238990104821
 30
0.0
 40
202.89403267033549
 50
180.21919094446361
 51
180.57069649463509
  0
ARC
  5
8A80
  8
AM_0
 10
293.02105712876607
 20
110.07063323357001
 30
0.0
 40
203.93069622692141
 50
179.8707732720535
 51
180.22039274125001
  0
ARC
  5
8A81
  8
AM_0
 10
292.64306263819611
 20
110.07340285156521
 30
0.0
 40
203.55269646012371
 50
179.52099544220221
 51
179.87131288696011
  0
ARC
  5
8A82
  8
AM_0
 10
294.05653140137809
 20
110.074931147104
 30
0.0
 40
204.96200297080929
 50
186.9448831660539
 51
187.59240971812881
  0
LINE
  5
8A83
  8
AM_0
 10
89.987459596595855
 20
52.645125638039289
 30
0.0
 11
123.7374595965958
 21
52.645125638039289
 31
0.0
  0
LINE
  5
8A84
  8
AM_0
 10
90.007469596595769
 20
50.805129638039261
 30
0.0
 11
123.7374595965958
 21
50.805129638039261
 31
0.0
  0
LINE
  5
8A85
  8
AM_0
 10
90.027479596595725
 20
49.885131638040093
 30
0.0
 11
123.7374595965958
 21
49.885131638040093
 31
0.0
  0
LINE
  5
8A86
  8
AM_0
 10
112.23743959659571
 20
73.555131638040152
 30
0.0
 11
92.064659596595433
 21
75.055131638040152
 31
0.0
  0
ARC
  5
8A87
  8
AM_0
 10
294.53876676412409
 20
110.14524760794301
 30
0.0
 40
205.44930125633391
 50
187.59407870998231
 51
188.8860675939145
  0
ARC
  5
8A88
  8
AM_0
 10
123.7341595965957
 20
52.80841263804006
 30
0.0
 40
2.003279969999999
 50
270.09378999999711
 51
359.90621000000289
  0
LINE
  5
8A89
  8
AM_0
 10
125.73743959659571
 20
51.885132638040098
 30
0.0
 11
125.73743959659571
 21
55.495116638040152
 31
0.0
  0
ARC
  5
8A8A
  8
AM_0
 10
123.7294495965958
 20
51.89314263803999
 30
0.0
 40
2.0080361999999989
 50
270.22878999999938
 51
359.77121000000051
  0
ARC
  5
8A8B
  8
AM_0
 10
123.7302595965958
 20
54.652314638040018
 30
0.0
 40
2.007180029999998
 50
270.20461999999759
 51
359.79537999999559
  0
ARC
  5
8A8D
  8
AM_0
 10
293.64379746892121
 20
110.083525169631
 30
0.0
 40
204.55326957220879
 50
185.46031399634279
 51
186.13700085447221
  0
ARC
  5
8A8E
  8
AM_0
 10
294.29716636268228
 20
110.1427302180212
 30
0.0
 40
205.2093074617344
 50
184.78473638767409
 51
185.4594105542331
  0
ARC
  5
8A8F
  8
AM_0
 10
293.72680262799122
 20
110.09280676740801
 30
0.0
 40
204.63676715666841
 50
184.10764570184199
 51
184.78412767205279
  0
ARC
  5
8A90
  8
AM_0
 10
293.46815928011023
 20
110.0810651448963
 30
0.0
 40
204.37787853975311
 50
181.97597713469739
 51
183.3618692197046
  0
ARC
  5
8A91
  8
AM_0
 10
293.79698250583419
 20
113.465061664231
 30
0.0
 40
204.70684984457009
 50
176.6408431394282
 51
177.3330192691985
  0
ARC
  5
8A92
  8
AM_0
 10
295.1138481788152
 20
113.4108866550082
 30
0.0
 40
206.0248100930055
 50
177.33501004864101
 51
178.02262526942451
  0
LINE
  5
8A93
  8
AM_0
 10
191.55746959659501
 20
78.415146638042231
 30
0.0
 11
181.73743959659521
 21
78.415146638042231
 31
0.0
  0
LINE
  5
8A94
  8
AM_0
 10
193.23746959659411
 20
73.555131638040152
 30
0.0
 11
188.78744959659511
 21
56.975127638040128
 31
0.0
  0
ARC
  5
8A95
  8
AM_0
 10
186.85457959659411
 20
57.497268638039252
 30
0.0
 40
2.0021281800000001
 50
270.0815199999999
 51
344.88329999999792
  0
LINE
  5
8A96
  8
AM_0
 10
188.07746959659411
 20
77.775117638039092
 30
0.0
 11
181.73743959659521
 21
77.775117638039092
 31
0.0
  0
LINE
  5
8A97
  8
AM_0
 10
181.73743959659521
 20
81.697426553713171
 30
0.0
 11
184.5074695965952
 21
81.775116638042235
 31
0.0
  0
ARC
  5
8A98
  8
AM_0
 10
188.07746959659411
 20
76.775133638040117
 30
0.0
 40
1.000004069999999
 50
270.0
 51
90.00000299999769
  0
LINE
  5
8A99
  8
AM_0
 10
189.27743959659409
 20
58.775130638040203
 30
0.0
 11
194.7374695965951
 21
58.775130638040203
 31
0.0
  0
ARC
  5
8A9A
  8
AM_0
 10
191.55746959659501
 20
76.735122638039414
 30
0.0
 40
1.680008099999998
 50
270.0
 51
90.00000299999769
  0
ARC
  5
8A9B
  8
AM_0
 10
191.55746959659501
 20
76.735122638039414
 30
0.0
 40
1.675004159999999
 50
270.0
 51
90.00000299999769
  0
LINE
  5
8A9D
  8
AM_0
 10
89.28750650244865
 20
147.77513713466121
 30
0.0
 11
188.07746954423521
 21
147.77513970803909
 31
0.0
  0
LINE
  5
8A9E
  8
AM_0
 10
88.407449596595484
 20
148.5051036380392
 30
0.0
 11
191.55746959659501
 21
148.5051036380392
 31
0.0
  0
LINE
  5
8A9F
  8
AM_0
 10
89.937449596595769
 20
168.0651336380391
 30
0.0
 11
186.85745959659411
 21
168.0651336380391
 31
0.0
  0
LINE
  5
8AA0
  8
AM_0
 10
112.23743959659571
 20
150.0051036380392
 30
0.0
 11
194.7374695965951
 21
150.0051036380392
 31
0.0
  0
ARC
  5
8AA1
  8
AM_0
 10
89.279699596595819
 20
146.77513563803899
 30
0.0
 40
1.0000319699999971
 50
89.552707000000495
 51
270.44730000000112
  0
ARC
  5
8AA2
  8
AM_0
 10
89.279699596595819
 20
136.77513363803919
 30
0.0
 40
1.0000319699999971
 50
89.552707000000495
 51
270.44730000000112
  0
ARC
  5
8AA3
  8
AM_0
 10
88.191809596595476
 20
136.80513363803919
 30
0.0
 40
1.460012009999998
 50
89.777016999998949
 51
270.22298999999867
  0
ARC
  5
8AA4
  8
AM_0
 10
89.940329596595816
 20
166.06821363804011
 30
0.0
 40
1.996904069999998
 50
90.083473999999597
 51
169.41256000000121
  0
ARC
  5
8AA5
  8
AM_0
 10
89.985869596595535
 20
168.91200363804009
 30
0.0
 40
1.9931281199999991
 50
89.953373000000497
 51
170.96118000000021
  0
ARC
  5
8AA6
  8
AM_0
 10
90.000209596595496
 20
170.7605436380401
 30
0.0
 40
1.994588069999998
 50
89.790753000002425
 51
171.50709000000151
  0
ARC
  5
8AA7
  8
AM_0
 10
90.022109596595442
 20
171.67164363803909
 30
0.0
 40
1.9934921999999999
 50
89.846091000001394
 51
172.11473999999609
  0
LINE
  5
8AA8
  8
AM_0
 10
93.072965717627426
 20
145.77513363803999
 30
0.0
 11
89.097509596595501
 21
145.77513363803999
 31
0.0
  0
LINE
  5
8AA9
  8
AM_0
 10
92.737439596595436
 20
137.77513563804001
 30
0.0
 11
89.097509596595501
 21
137.77513563804001
 31
0.0
  0
LINE
  5
8AAA
  8
AM_0
 10
92.737439596595436
 20
135.7751346380422
 30
0.0
 11
89.097509596595501
 21
135.7751346380422
 31
0.0
  0
LINE
  5
8AAB
  8
AM_0
 10
88.407449596595484
 20
145.14513063804
 30
0.0
 11
92.846112200547395
 21
145.14513063804
 31
0.0
  0
LINE
  5
8AAC
  8
AM_0
 10
88.197479596595471
 20
138.26512563803999
 30
0.0
 11
92.737439596595436
 21
138.26512563803999
 31
0.0
  0
LINE
  5
8AAD
  8
AM_0
 10
88.197479596595471
 20
135.34511163804009
 30
0.0
 11
92.737439596595436
 21
135.34511163804009
 31
0.0
  0
LINE
  5
8AAE
  8
AM_0
 10
88.067459596595768
 20
128.12514063804011
 30
0.0
 11
92.737439596595436
 21
128.12514063804011
 31
0.0
  0
LINE
  5
8AAF
  8
AM_0
 10
92.097449596595425
 20
148.42512363804011
 30
0.0
 11
86.737439596595777
 21
159.87510363804009
 31
0.0
  0
LINE
  5
8AB0
  8
AM_0
 10
86.737439596595777
 20
162.56511363804
 30
0.0
 11
88.047449596595925
 21
171.94512363803909
 31
0.0
  0
ARC
  5
8AB1
  8
AM_0
 10
88.407449596595484
 20
146.82512163804009
 30
0.0
 40
1.679999999999999
 50
90.00000299999769
 51
270.0
  0
LINE
  5
8AB2
  8
AM_0
 10
86.737439596595777
 20
159.87513363803919
 30
0.0
 11
87.977429596595826
 21
166.4351436380401
 31
0.0
  0
LINE
  5
8AB3
  8
AM_0
 10
79.42745959659544
 20
154.96512363804021
 30
0.0
 11
85.657499596595827
 21
154.96512363804021
 31
0.0
  0
LINE
  5
8AB4
  8
AM_0
 10
78.737459596595841
 20
164.7801336380401
 30
0.0
 11
86.737439596595777
 21
164.7801336380401
 31
0.0
  0
LINE
  5
8AB5
  8
AM_0
 10
78.737459596595841
 20
164.77512363803999
 30
0.0
 11
86.737439596595777
 21
164.77512363803999
 31
0.0
  0
LINE
  5
8AB6
  8
AM_0
 10
86.737439596595777
 20
161.21514363803919
 30
0.0
 11
88.017419596595815
 21
169.22511363804011
 31
0.0
  0
LINE
  5
8AB7
  8
AM_0
 10
86.737439596595777
 20
162.5651436380401
 30
0.0
 11
88.027499596596257
 21
171.05514363804011
 31
0.0
  0
ARC
  5
8AB8
  8
AM_0
 10
123.7359295965958
 20
170.75358363803909
 30
0.0
 40
2.0015440500000001
 50
0.0442139990008847
 51
89.955783999999085
  0
LINE
  5
8AB9
  8
AM_0
 10
125.73743959659571
 20
171.66513363804009
 30
0.0
 11
125.73743959659571
 21
168.0651336380391
 31
0.0
  0
LINE
  5
8ABA
  8
AM_0
 10
89.987459596595855
 20
170.90511363804009
 30
0.0
 11
123.7374595965958
 21
170.90511363804009
 31
0.0
  0
LINE
  5
8ABB
  8
AM_0
 10
112.23743959659571
 20
150.0051036380392
 30
0.0
 11
92.060009596595464
 21
148.5051336380391
 31
0.0
  0
ARC
  5
8ABC
  8
AM_0
 10
293.51844910440923
 20
113.5242084578432
 30
0.0
 40
204.4231110527293
 50
172.39935376234251
 51
173.04804061342651
  0
ARC
  5
8ABD
  8
AM_0
 10
294.17473124221709
 20
113.4255354638582
 30
0.0
 40
205.086602105558
 50
173.86479656848519
 51
175.21533938006141
  0
ARC
  5
8ABE
  8
AM_0
 10
293.56896758210701
 20
113.48306405016
 30
0.0
 40
204.47815098782999
 50
175.2172449765911
 51
175.89452073852041
  0
ARC
  5
8ABF
  8
AM_0
 10
293.84928598504911
 20
113.474918845472
 30
0.0
 40
204.75756069728581
 50
171.1026667735531
 51
172.3979273485281
  0
ARC
  5
8AC0
  8
AM_0
 10
123.73703959659539
 20
168.90471363804011
 30
0.0
 40
2.0004079799999981
 50
0.0116490000006953
 51
89.98834999999788
  0
LINE
  5
8AC1
  8
AM_0
 10
90.007469596595769
 20
172.75512363804009
 30
0.0
 11
123.7374595965958
 21
172.75512363804009
 31
0.0
  0
LINE
  5
8AC2
  8
AM_0
 10
90.027479596595725
 20
173.66514363804001
 30
0.0
 11
123.7374595965958
 21
173.66514363804001
 31
0.0
  0
ARC
  5
8AC3
  8
AM_0
 10
123.7361695965958
 20
171.66384363804221
 30
0.0
 40
2.0012880000000002
 50
0.0368719989956836
 51
89.963125999997985
  0
LINE
  5
8AC4
  8
AM_0
 10
191.55746959659501
 20
145.14513063804
 30
0.0
 11
181.73743959659521
 21
145.14513063804
 31
0.0
  0
LINE
  5
8AC5
  8
AM_0
 10
192.9374695965941
 20
151.11513363804221
 30
0.0
 11
188.7875095965951
 21
166.57512363804011
 31
0.0
  0
LINE
  5
8AC6
  8
AM_0
 10
181.73743959659521
 20
141.8628357223663
 30
0.0
 11
184.5074695965952
 21
141.7851456380414
 31
0.0
  0
ARC
  5
8AC7
  8
AM_0
 10
188.07746959659411
 20
146.77513563803899
 30
0.0
 40
1.000004069999999
 50
270.0
 51
90.00000299999769
  0
ARC
  5
8AC8
  8
AM_0
 10
186.85463959659501
 20
166.06653363803909
 30
0.0
 40
1.99860411
 50
14.74271599999944
 51
89.919516000001124
  0
ARC
  5
8AC9
  8
AM_0
 10
191.55746959659501
 20
146.82512163804009
 30
0.0
 40
1.680008099999998
 50
270.0
 51
90.00000299999769
  0
ARC
  5
8ACA
  8
AM_0
 10
191.55746959659501
 20
146.82512163804009
 30
0.0
 40
1.675004159999999
 50
270.0
 51
90.00000299999769
  0
ARC
  5
8ACB
  8
AM_0
 10
194.39063959659501
 20
151.50288363804
 30
0.0
 40
1.502776079999999
 50
194.7564299999988
 51
269.8775900000029
  0
LINE
  5
8ACC
  8
AM_0
 10
189.27743959659409
 20
164.77512363803999
 30
0.0
 11
194.7374695965951
 21
164.77512363803999
 31
0.0
  0
LINE
  5
8ACD
  8
AM_0
 10
177.23743959659521
 20
134.2801386380392
 30
0.0
 11
177.23743959659521
 21
89.280138638040142
 31
0.0
  0
LINE
  5
8ACE
  8
AM_0
 10
175.1374395965955
 20
134.83039116973421
 30
0.0
 11
175.1374395965955
 21
88.729886106345916
 31
0.0
  0
LINE
  5
8ACF
  8
AM_0
 10
92.237439596595763
 20
93.780138638039276
 30
0.0
 11
92.237439596595763
 21
83.780128638039997
 31
0.0
  0
LINE
  5
8AD0
  8
AM_0
 10
92.737439596595436
 20
79.280132638040016
 30
0.0
 11
92.737439596595436
 21
144.28012863803909
 31
0.0
  0
LINE
  5
8AD1
  8
AM_0
 10
164.2876841282901
 20
77.880130638039191
 30
0.0
 11
97.157419596595787
 21
77.880130638039191
 31
0.0
  0
LINE
  5
8AD2
  8
AM_0
 10
97.157419596595787
 20
77.880130638039191
 30
0.0
 11
97.157419596595787
 21
75.780139638040112
 31
0.0
  0
ARC
  5
8AD3
  8
AM_0
 10
96.230059596595765
 20
79.272785638040091
 30
0.0
 40
3.492651899999998
 50
179.8793300000022
 51
270.12067999999482
  0
ARC
  5
8AD4
  8
AM_0
 10
92.730119596595841
 20
83.772788638040183
 30
0.0
 40
0.4927000100000001
 50
179.14455999999711
 51
270.85544000000272
  0
ARC
  5
8AD5
  8
AM_0
 10
179.23743959659521
 20
89.280138638040142
 30
0.0
 40
2.0
 50
180.0
 51
270.0
  0
LINE
  5
8AD6
  8
AM_0
 10
174.72738909025651
 20
87.739936612683039
 30
0.0
 11
165.27763362195151
 21
78.290181144379233
 31
0.0
  0
LINE
  5
8AD7
  8
AM_0
 10
165.27764162195069
 20
78.290189144379326
 30
0.0
 11
174.72738909025699
 21
87.739936612685142
 31
0.0
  0
ARC
  5
8AD8
  8
AM_0
 10
164.2876841282901
 20
79.280130638040021
 30
0.0
 40
1.399999999999999
 50
270.0
 51
315.00000000000921
1001
GENIUS_GENODEF_13
1002
{
1000
HIER
1070
     0
1002
}
1002
{
1000
MANEDIT
1070
     0
1002
}
1002
{
1000
NOSEL
1070
     0
1002
}
1002
{
1000
BEHIND
1070
     0
1002
}
1002
{
1000
OTHER
1070
     0
1002
}
1002
{
1000
REACTOR
1002
}
1001
GENIUS_GENOBJ-N-FIL_13
1002
{
1000
OWNER
1000
GEN
1002
}
  0
ARC
  5
8AD9
  8
AM_0
 10
173.73743959659541
 20
88.729886106345916
 30
0.0
 40
1.4000000000006301
 50
314.99999999997232
 51
0.0
  0
ARC
  5
8ADA
  8
AM_0
 10
179.73743959659521
 20
77.780138638039261
 30
0.0
 40
2.0
 50
270.0
 51
0.0
  0
ARC
  5
8ADB
  8
AM_0
 10
179.73743959659521
 20
85.280138638040185
 30
0.0
 40
2.0
 50
0.0
 51
90.0
  0
LINE
  5
8ADC
  8
AM_0
 10
179.73743959659521
 20
87.280138638040185
 30
0.0
 11
179.23743959659521
 21
87.280138638040185
 31
0.0
  0
LINE
  5
8ADD
  8
AM_0
 10
181.73743959659521
 20
77.780138638039261
 30
0.0
 11
181.73743959659521
 21
85.280138638040185
 31
0.0
  0
LINE
  5
8ADE
  8
AM_0
 10
97.157419596595787
 20
145.68011863803909
 30
0.0
 11
164.29517541647101
 21
145.68011863803909
 31
0.0
  0
ARC
  5
8ADF
  8
AM_0
 10
92.737989596595995
 20
93.779588638039129
 30
0.0
 40
0.5005480100000002
 50
90.062622000000005
 51
179.93736999999041
  0
ARC
  5
8AE0
  8
AM_0
 10
92.737989596595995
 20
139.77958863803909
 30
0.0
 40
0.5005480100000002
 50
90.062622000000005
 51
179.93736999999041
  0
ARC
  5
8AE1
  8
AM_0
 10
92.729929596595525
 20
129.77262863803921
 30
0.0
 40
0.49254802
 50
179.1265600000018
 51
270.87345000000158
  0
LINE
  5
8AE2
  8
AM_0
 10
92.237439596595763
 20
139.78012863803909
 30
0.0
 11
92.237439596595763
 21
129.78013863804011
 31
0.0
  0
LINE
  5
8AE3
  8
AM_0
 10
97.157419596595787
 20
145.68011863803909
 30
0.0
 11
97.157419596595787
 21
147.77511863804011
 31
0.0
  0
ARC
  5
8AE4
  8
AM_0
 10
96.237929596595805
 20
144.27963863803919
 30
0.0
 40
3.5005001999999981
 50
90.008164999996055
 51
179.99183999999781
  0
LINE
  5
8AE5
  8
AM_0
 10
179.23743959659521
 20
117.2801386380401
 30
0.0
 11
177.23743959659521
 21
117.2801386380401
 31
0.0
  0
LINE
  5
8AE6
  8
AM_0
 10
177.23743959659521
 20
106.2801386380392
 30
0.0
 11
179.23743959659521
 21
106.2801386380392
 31
0.0
  0
LINE
  5
8AE7
  8
AM_0
 10
179.23743959659609
 20
106.2801386380392
 30
0.0
 11
179.23743959659521
 21
117.2801386380401
 31
0.0
  0
ARC
  5
8AE8
  8
AM_0
 10
179.23743959659521
 20
134.2801386380392
 30
0.0
 40
2.0
 50
90.0
 51
180.0
  0
CIRCLE
  5
8AE9
  8
AM_0
 10
176.23743959659541
 20
142.78013863804011
 30
0.0
 40
3.4999999999999631
  0
LINE
  5
8AEA
  8
AM_0
 10
165.2776416219518
 20
145.27008813169999
 30
0.0
 11
174.72738909025651
 21
135.82034066339611
 31
0.0
  0
LINE
  5
8AEB
  8
AM_0
 10
173.1374395965955
 20
137.41029015705601
 30
0.0
 11
174.72738909025699
 21
135.82034066339611
 31
0.0
  0
ARC
  5
8AEC
  8
AM_0
 10
173.73743959659541
 20
134.83039116973421
 30
0.0
 40
1.400000000000118
 50
0.0
 51
45.000000000027619
  0
ARC
  5
8AED
  8
AM_0
 10
164.28769212828931
 20
144.28013863804011
 30
0.0
 40
1.40000000000077
 50
44.999999999972353
 51
89.999999999954383
  0
LINE
  5
8AEE
  8
AM_0
 10
181.73743959659521
 20
138.2801386380392
 30
0.0
 11
181.73743959659521
 21
145.7801386380402
 31
0.0
  0
LINE
  5
8AEF
  8
AM_0
 10
181.73743959659521
 20
138.2801386380392
 30
0.0
 11
181.73743959659521
 21
145.7801386380402
 31
0.0
  0
ARC
  5
8AF0
  8
AM_0
 10
179.73743959659521
 20
138.2801386380392
 30
0.0
 40
2.0
 50
270.0
 51
0.0
  0
LINE
  5
8AF1
  8
AM_0
 10
179.23743959659521
 20
136.28013863804119
 30
0.0
 11
179.73743959659521
 21
136.28013863804119
 31
0.0
  0
ARC
  5
8AF2
  8
AM_0
 10
179.73743959659521
 20
145.7801386380402
 30
0.0
 40
2.0
 50
0.0
 51
90.0
  0
LINE
  5
8AF3
  8
AM_0
 10
173.59886791538841
 20
142.78013863804011
 30
0.0
 11
178.87601127780121
 21
142.78013863804011
 31
0.0
  0
LINE
  5
8AF4
  8
AM_0
 10
176.23743959659541
 20
145.4187103192462
 30
0.0
 11
176.23743959659541
 21
140.1415669568328
 31
0.0
  0
CIRCLE
  5
8AF5
  8
AM_0
 10
176.23743959659541
 20
80.780138638039261
 30
0.0
 40
3.4999999999999631
  0
LINE
  5
8AF6
  8
AM_0
 10
173.59886791538841
 20
80.780138638040185
 30
0.0
 11
178.87601127780121
 21
80.780138638040185
 31
0.0
  0
LINE
  5
8AF7
  8
AM_0
 10
176.23743959659541
 20
83.418710319246244
 30
0.0
 11
176.23743959659541
 21
78.14156695683306
 31
0.0
  0
LINE
  5
8AF8
  8
AM_0
 10
188.07746959659411
 20
145.78515963804011
 30
0.0
 11
181.73743959659521
 21
145.78515963804011
 31
0.0
  0
ARC
  5
8AFF
  8
AM_0
 10
675.33957759659518
 20
143.22028913324809
 30
0.0
 40
2.5
 50
90.0
 51
180.0
  0
ARC
  5
8B00
  8
AM_0
 10
673.33957759659506
 20
147.3202891332482
 30
0.0
 40
0.5
 50
90.0
 51
180.0
  0
LINE
  5
8B01
  8
AM_0
 10
677.13806846055786
 20
145.7202891332482
 30
0.0
 11
675.33957759659518
 21
145.7202891332482
 31
0.0
  0
LINE
  5
8B02
  8
AM_0
 10
677.45062245082795
 20
147.82028913324601
 30
0.0
 11
673.33957759659506
 21
147.82028913324601
 31
0.0
  0
LINE
  5
8B03
  8
AM_0
 10
672.83957759659506
 20
116.83942024236219
 30
0.0
 11
672.83957759659506
 21
147.3202891332482
 31
0.0
  0
LINE
  5
8B04
  8
AM_0
 10
675.33953053152015
 20
135.45070393629101
 30
0.0
 11
675.33553053152127
 21
135.45070393629101
 31
0.0
  0
LINE
  5
8B05
  8
AM_0
 10
675.33553053152127
 20
135.45070393629101
 30
0.0
 11
675.33153053152012
 21
135.45070393629101
 31
0.0
  0
LINE
  5
8B06
  8
AM_0
 10
675.33153053152012
 20
135.45070393629101
 30
0.0
 11
675.32653053152114
 21
135.45070393629101
 31
0.0
  0
LINE
  5
8B07
  8
AM_0
 10
675.32653053152114
 20
135.45070393629101
 30
0.0
 11
675.32253053152112
 21
135.45070393629101
 31
0.0
  0
LINE
  5
8B08
  8
AM_0
 10
675.32253053152112
 20
135.45070393629101
 30
0.0
 11
675.31853053152122
 21
135.45070393629101
 31
0.0
  0
LINE
  5
8B09
  8
AM_0
 10
675.31853053152122
 20
135.45070393629101
 30
0.0
 11
675.31353053152009
 21
135.45070393629101
 31
0.0
  0
LINE
  5
8B0A
  8
AM_0
 10
675.31353053152009
 20
135.45070393629101
 30
0.0
 11
675.3095305315212
 21
135.44970393629129
 31
0.0
  0
LINE
  5
8B0B
  8
AM_0
 10
675.3095305315212
 20
135.44970393629129
 30
0.0
 11
675.30553053152005
 21
135.44970393629129
 31
0.0
  0
LINE
  5
8B0C
  8
AM_0
 10
675.30553053152005
 20
135.44970393629129
 30
0.0
 11
675.30153053152026
 21
135.44970393629129
 31
0.0
  0
LINE
  5
8B0D
  8
AM_0
 10
675.30153053152026
 20
135.44970393629129
 30
0.0
 11
675.29653053152094
 21
135.44970393629129
 31
0.0
  0
LINE
  5
8B0E
  8
AM_0
 10
675.29653053152094
 20
135.44970393629129
 30
0.0
 11
675.29253053152115
 21
135.44970393629129
 31
0.0
  0
LINE
  5
8B0F
  8
AM_0
 10
675.29253053152115
 20
135.44970393629129
 30
0.0
 11
675.28853053152125
 21
135.44970393629129
 31
0.0
  0
LINE
  5
8B10
  8
AM_0
 10
675.28853053152125
 20
135.44970393629129
 30
0.0
 11
675.28453053152111
 21
135.44970393629129
 31
0.0
  0
LINE
  5
8B11
  8
AM_0
 10
675.28453053152111
 20
135.44970393629129
 30
0.0
 11
675.27953053152123
 21
135.44970393629129
 31
0.0
  0
LINE
  5
8B12
  8
AM_0
 10
675.27953053152123
 20
135.44970393629129
 30
0.0
 11
675.27553053152019
 21
135.44970393629129
 31
0.0
  0
LINE
  5
8B13
  8
AM_0
 10
675.27553053152019
 20
135.44970393629129
 30
0.0
 11
675.27153053152119
 21
135.44970393629129
 31
0.0
  0
LINE
  5
8B14
  8
AM_0
 10
675.27153053152119
 20
135.44970393629129
 30
0.0
 11
675.26653053152006
 21
135.44970393629129
 31
0.0
  0
LINE
  5
8B15
  8
AM_0
 10
675.26653053152006
 20
135.44970393629129
 30
0.0
 11
675.26253053152118
 21
135.44970393629129
 31
0.0
  0
LINE
  5
8B16
  8
AM_0
 10
675.26253053152118
 20
135.44970393629129
 30
0.0
 11
675.25853053152116
 21
135.44970393629129
 31
0.0
  0
LINE
  5
8B17
  8
AM_0
 10
675.25853053152116
 20
135.44970393629129
 30
0.0
 11
675.25453053152114
 21
135.44970393629129
 31
0.0
  0
LINE
  5
8B18
  8
AM_0
 10
675.25453053152114
 20
135.44970393629129
 30
0.0
 11
675.24953053152115
 21
135.44970393629129
 31
0.0
  0
LINE
  5
8B19
  8
AM_0
 10
675.24953053152115
 20
135.44970393629129
 30
0.0
 11
675.24553053152113
 21
135.44970393629129
 31
0.0
  0
LINE
  5
8B1A
  8
AM_0
 10
675.24553053152113
 20
135.44970393629129
 30
0.0
 11
675.24153053152122
 21
135.44970393629129
 31
0.0
  0
LINE
  5
8B1B
  8
AM_0
 10
675.24153053152122
 20
135.44970393629129
 30
0.0
 11
675.23753053152018
 21
135.44970393629129
 31
0.0
  0
LINE
  5
8B1C
  8
AM_0
 10
675.23753053152018
 20
135.44970393629129
 30
0.0
 11
675.23253053152121
 21
135.4487039362912
 31
0.0
  0
LINE
  5
8B1D
  8
AM_0
 10
675.23253053152121
 20
135.4487039362912
 30
0.0
 11
675.22853053152096
 21
135.4487039362912
 31
0.0
  0
LINE
  5
8B1E
  8
AM_0
 10
675.22853053152096
 20
135.4487039362912
 30
0.0
 11
675.22453053152094
 21
135.4487039362912
 31
0.0
  0
LINE
  5
8B1F
  8
AM_0
 10
675.22453053152094
 20
135.4487039362912
 30
0.0
 11
675.22053053152126
 21
135.4487039362912
 31
0.0
  0
LINE
  5
8B20
  8
AM_0
 10
675.22053053152126
 20
135.4487039362912
 30
0.0
 11
675.21553053152127
 21
135.4487039362912
 31
0.0
  0
LINE
  5
8B21
  8
AM_0
 10
675.21553053152127
 20
135.4487039362912
 30
0.0
 11
675.21153053152125
 21
135.4487039362912
 31
0.0
  0
LINE
  5
8B22
  8
AM_0
 10
675.21153053152125
 20
135.4487039362912
 30
0.0
 11
675.207530531521
 21
135.4487039362912
 31
0.0
  0
LINE
  5
8B23
  8
AM_0
 10
675.207530531521
 20
135.4487039362912
 30
0.0
 11
675.20253053152123
 21
135.4487039362912
 31
0.0
  0
LINE
  5
8B24
  8
AM_0
 10
675.20253053152123
 20
135.4487039362912
 30
0.0
 11
675.19853053152008
 21
135.4487039362912
 31
0.0
  0
LINE
  5
8B25
  8
AM_0
 10
675.19853053152008
 20
135.4487039362912
 30
0.0
 11
675.1945305315212
 21
135.4487039362912
 31
0.0
  0
LINE
  5
8B26
  8
AM_0
 10
675.1945305315212
 20
135.4487039362912
 30
0.0
 11
675.19053053152095
 21
135.44770393629051
 31
0.0
  0
LINE
  5
8B27
  8
AM_0
 10
675.19053053152095
 20
135.44770393629051
 30
0.0
 11
675.18553053152027
 21
135.44770393629051
 31
0.0
  0
LINE
  5
8B28
  8
AM_0
 10
675.18553053152027
 20
135.44770393629051
 30
0.0
 11
675.18153053152116
 21
135.44770393629051
 31
0.0
  0
LINE
  5
8B29
  8
AM_0
 10
675.18153053152116
 20
135.44770393629051
 30
0.0
 11
675.17753053152114
 21
135.44770393629051
 31
0.0
  0
LINE
  5
8B2A
  8
AM_0
 10
675.17753053152114
 20
135.44770393629051
 30
0.0
 11
675.17353053152124
 21
135.44770393629051
 31
0.0
  0
LINE
  5
8B2B
  8
AM_0
 10
675.17353053152124
 20
135.44770393629051
 30
0.0
 11
675.16853053152113
 21
135.44770393629051
 31
0.0
  0
LINE
  5
8B2C
  8
AM_0
 10
675.16853053152113
 20
135.44770393629051
 30
0.0
 11
675.16453053152122
 21
135.44770393629051
 31
0.0
  0
LINE
  5
8B2D
  8
AM_0
 10
675.16453053152122
 20
135.44770393629051
 30
0.0
 11
675.16053053152098
 21
135.4467039362913
 31
0.0
  0
LINE
  5
8B2E
  8
AM_0
 10
675.16053053152098
 20
135.4467039362913
 30
0.0
 11
675.15653053152084
 21
135.4467039362913
 31
0.0
  0
LINE
  5
8B2F
  8
AM_0
 10
675.15653053152084
 20
135.4467039362913
 30
0.0
 11
675.15153053152085
 21
135.4467039362913
 31
0.0
  0
LINE
  5
8B30
  8
AM_0
 10
675.15153053152085
 20
135.4467039362913
 30
0.0
 11
675.14753053152015
 21
135.4467039362913
 31
0.0
  0
LINE
  5
8B31
  8
AM_0
 10
675.14753053152015
 20
135.4467039362913
 30
0.0
 11
675.14353053152115
 21
135.4467039362913
 31
0.0
  0
LINE
  5
8B32
  8
AM_0
 10
675.14353053152115
 20
135.4467039362913
 30
0.0
 11
675.13853053152127
 21
135.4467039362913
 31
0.0
  0
LINE
  5
8B33
  8
AM_0
 10
675.13853053152127
 20
135.4467039362913
 30
0.0
 11
675.13453053152125
 21
135.4467039362913
 31
0.0
  0
LINE
  5
8B34
  8
AM_0
 10
675.13453053152125
 20
135.4467039362913
 30
0.0
 11
675.13053053152112
 21
135.44570393629121
 31
0.0
  0
LINE
  5
8B35
  8
AM_0
 10
675.13053053152112
 20
135.44570393629121
 30
0.0
 11
675.12653053152121
 21
135.44570393629121
 31
0.0
  0
LINE
  5
8B36
  8
AM_0
 10
675.12653053152121
 20
135.44570393629121
 30
0.0
 11
675.12153053152008
 21
135.44570393629121
 31
0.0
  0
LINE
  5
8B37
  8
AM_0
 10
675.12153053152008
 20
135.44570393629121
 30
0.0
 11
675.1175305315212
 21
135.44570393629121
 31
0.0
  0
LINE
  5
8B38
  8
AM_0
 10
675.1175305315212
 20
135.44570393629121
 30
0.0
 11
675.11353053152015
 21
135.44570393629121
 31
0.0
  0
LINE
  5
8B39
  8
AM_0
 10
675.11353053152015
 20
135.44570393629121
 30
0.0
 11
675.10953053152025
 21
135.44470393629101
 31
0.0
  0
LINE
  5
8B3A
  8
AM_0
 10
675.10953053152025
 20
135.44470393629101
 30
0.0
 11
675.10453053152116
 21
135.44470393629101
 31
0.0
  0
LINE
  5
8B3B
  8
AM_0
 10
675.10453053152116
 20
135.44470393629101
 30
0.0
 11
675.10053053152114
 21
135.44470393629101
 31
0.0
  0
LINE
  5
8B3C
  8
AM_0
 10
675.10053053152114
 20
135.44470393629101
 30
0.0
 11
675.09653053152124
 21
135.44470393629101
 31
0.0
  0
LINE
  5
8B3D
  8
AM_0
 10
675.09653053152124
 20
135.44470393629101
 30
0.0
 11
675.09253053152099
 21
135.44470393629101
 31
0.0
  0
LINE
  5
8B3E
  8
AM_0
 10
675.09253053152099
 20
135.44470393629101
 30
0.0
 11
675.08753053152111
 21
135.44470393629101
 31
0.0
  0
LINE
  5
8B3F
  8
AM_0
 10
675.08753053152111
 20
135.44470393629101
 30
0.0
 11
675.08353053152007
 21
135.44370393629191
 31
0.0
  0
LINE
  5
8B40
  8
AM_0
 10
675.08353053152007
 20
135.44370393629191
 30
0.0
 11
675.07953053152119
 21
135.44370393629191
 31
0.0
  0
LINE
  5
8B41
  8
AM_0
 10
675.07953053152119
 20
135.44370393629191
 30
0.0
 11
675.07553053152117
 21
135.44370393629191
 31
0.0
  0
LINE
  5
8B42
  8
AM_0
 10
675.07553053152117
 20
135.44370393629191
 30
0.0
 11
675.07053053152117
 21
135.44370393629191
 31
0.0
  0
LINE
  5
8B43
  8
AM_0
 10
675.07053053152117
 20
135.44370393629191
 30
0.0
 11
675.06653053152115
 21
135.44270393629199
 31
0.0
  0
LINE
  5
8B44
  8
AM_0
 10
675.06653053152115
 20
135.44270393629199
 30
0.0
 11
675.06253053152113
 21
135.44270393629199
 31
0.0
  0
LINE
  5
8B45
  8
AM_0
 10
675.06253053152113
 20
135.44270393629199
 30
0.0
 11
675.05753053152125
 21
135.44270393629199
 31
0.0
  0
LINE
  5
8B46
  8
AM_0
 10
675.05753053152125
 20
135.44270393629199
 30
0.0
 11
675.05353053152021
 21
135.44270393629199
 31
0.0
  0
LINE
  5
8B47
  8
AM_0
 10
675.05353053152021
 20
135.44270393629199
 30
0.0
 11
675.04953053152121
 21
135.44270393629199
 31
0.0
  0
LINE
  5
8B48
  8
AM_0
 10
675.04953053152121
 20
135.44270393629199
 30
0.0
 11
675.04553053152017
 21
135.44170393629099
 31
0.0
  0
LINE
  5
8B49
  8
AM_0
 10
675.04553053152017
 20
135.44170393629099
 30
0.0
 11
675.04053053152097
 21
135.44170393629099
 31
0.0
  0
LINE
  5
8B4A
  8
AM_0
 10
675.04053053152097
 20
135.44170393629099
 30
0.0
 11
675.03653053152095
 21
135.44170393629099
 31
0.0
  0
LINE
  5
8B4B
  8
AM_0
 10
675.03653053152095
 20
135.44170393629099
 30
0.0
 11
675.03253053152105
 21
135.44170393629099
 31
0.0
  0
LINE
  5
8B4C
  8
AM_0
 10
675.03253053152105
 20
135.44170393629099
 30
0.0
 11
675.02853053152126
 21
135.4407039362913
 31
0.0
  0
LINE
  5
8B4D
  8
AM_0
 10
675.02853053152126
 20
135.4407039362913
 30
0.0
 11
675.02353053152126
 21
135.4407039362913
 31
0.0
  0
LINE
  5
8B4E
  8
AM_0
 10
675.02353053152126
 20
135.4407039362913
 30
0.0
 11
675.01953053152124
 21
135.4407039362913
 31
0.0
  0
LINE
  5
8B4F
  8
AM_0
 10
675.01953053152124
 20
135.4407039362913
 30
0.0
 11
675.01553053152008
 21
135.43970393629129
 31
0.0
  0
LINE
  5
8B50
  8
AM_0
 10
675.01553053152008
 20
135.43970393629129
 30
0.0
 11
675.0115305315212
 21
135.43970393629129
 31
0.0
  0
LINE
  5
8B51
  8
AM_0
 10
675.0115305315212
 20
135.43970393629129
 30
0.0
 11
675.00653053152087
 21
135.43970393629129
 31
0.0
  0
LINE
  5
8B52
  8
AM_0
 10
675.00653053152087
 20
135.43970393629129
 30
0.0
 11
675.00253053152119
 21
135.43970393629129
 31
0.0
  0
LINE
  5
8B53
  8
AM_0
 10
675.00253053152119
 20
135.43970393629129
 30
0.0
 11
674.99853053152106
 21
135.4387039362912
 31
0.0
  0
LINE
  5
8B54
  8
AM_0
 10
674.99853053152106
 20
135.4387039362912
 30
0.0
 11
674.99453053152115
 21
135.4387039362912
 31
0.0
  0
LINE
  5
8B55
  8
AM_0
 10
674.99453053152115
 20
135.4387039362912
 30
0.0
 11
674.98953053152115
 21
135.4387039362912
 31
0.0
  0
LINE
  5
8B56
  8
AM_0
 10
674.98953053152115
 20
135.4387039362912
 30
0.0
 11
674.98553053152114
 21
135.4387039362912
 31
0.0
  0
LINE
  5
8B57
  8
AM_0
 10
674.98553053152114
 20
135.4387039362912
 30
0.0
 11
674.98153053152123
 21
135.43770393629131
 31
0.0
  0
LINE
  5
8B58
  8
AM_0
 10
674.98153053152123
 20
135.43770393629131
 30
0.0
 11
674.97753053152098
 21
135.43770393629131
 31
0.0
  0
LINE
  5
8B59
  8
AM_0
 10
674.97753053152098
 20
135.43770393629131
 30
0.0
 11
674.9725305315211
 21
135.43770393629131
 31
0.0
  0
LINE
  5
8B5A
  8
AM_0
 10
674.9725305315211
 20
135.43770393629131
 30
0.0
 11
674.96853053152086
 21
135.43670393629091
 31
0.0
  0
LINE
  5
8B5B
  8
AM_0
 10
674.96853053152086
 20
135.43670393629091
 30
0.0
 11
674.96453053152015
 21
135.43670393629091
 31
0.0
  0
LINE
  5
8B5C
  8
AM_0
 10
674.96453053152015
 20
135.43670393629091
 30
0.0
 11
674.95953053152095
 21
135.43670393629091
 31
0.0
  0
LINE
  5
8B5D
  8
AM_0
 10
674.95953053152095
 20
135.43670393629091
 30
0.0
 11
674.95553053152128
 21
135.43570393629099
 31
0.0
  0
LINE
  5
8B5E
  8
AM_0
 10
674.95553053152128
 20
135.43570393629099
 30
0.0
 11
674.95153053152114
 21
135.43570393629099
 31
0.0
  0
LINE
  5
8B5F
  8
AM_0
 10
674.95153053152114
 20
135.43570393629099
 30
0.0
 11
674.94753053152112
 21
135.43570393629099
 31
0.0
  0
LINE
  5
8B60
  8
AM_0
 10
674.94753053152112
 20
135.43570393629099
 30
0.0
 11
674.94253053152124
 21
135.43470393629099
 31
0.0
  0
LINE
  5
8B61
  8
AM_0
 10
674.94253053152124
 20
135.43470393629099
 30
0.0
 11
674.93853053152009
 21
135.43470393629099
 31
0.0
  0
LINE
  5
8B62
  8
AM_0
 10
674.93853053152009
 20
135.43470393629099
 30
0.0
 11
674.9345305315212
 21
135.43470393629099
 31
0.0
  0
LINE
  5
8B63
  8
AM_0
 10
674.9345305315212
 20
135.43470393629099
 30
0.0
 11
674.93053053152096
 21
135.43370393629101
 31
0.0
  0
LINE
  5
8B64
  8
AM_0
 10
674.93053053152096
 20
135.43370393629101
 30
0.0
 11
674.92553053152119
 21
135.43370393629101
 31
0.0
  0
LINE
  5
8B65
  8
AM_0
 10
674.92553053152119
 20
135.43370393629101
 30
0.0
 11
674.92153053152094
 21
135.43370393629101
 31
0.0
  0
LINE
  5
8B66
  8
AM_0
 10
674.92153053152094
 20
135.43370393629101
 30
0.0
 11
674.91753053152115
 21
135.43270393629101
 31
0.0
  0
LINE
  5
8B67
  8
AM_0
 10
674.91753053152115
 20
135.43270393629101
 30
0.0
 11
674.91353053152125
 21
135.43270393629101
 31
0.0
  0
LINE
  5
8B68
  8
AM_0
 10
674.91353053152125
 20
135.43270393629101
 30
0.0
 11
674.90853053152114
 21
135.43270393629101
 31
0.0
  0
LINE
  5
8B69
  8
AM_0
 10
674.90853053152114
 20
135.43270393629101
 30
0.0
 11
674.90453053152123
 21
135.431703936291
 31
0.0
  0
LINE
  5
8B6A
  8
AM_0
 10
674.90453053152123
 20
135.431703936291
 30
0.0
 11
674.90053053152008
 21
135.431703936291
 31
0.0
  0
LINE
  5
8B6B
  8
AM_0
 10
674.90053053152008
 20
135.431703936291
 30
0.0
 11
674.89653053152119
 21
135.43070393629131
 31
0.0
  0
LINE
  5
8B6C
  8
AM_0
 10
674.89653053152119
 20
135.43070393629131
 30
0.0
 11
674.89153053152006
 21
135.43070393629131
 31
0.0
  0
LINE
  5
8B6D
  8
AM_0
 10
674.89153053152006
 20
135.43070393629131
 30
0.0
 11
674.88753053152118
 21
135.43070393629131
 31
0.0
  0
LINE
  5
8B6E
  8
AM_0
 10
674.88753053152118
 20
135.43070393629131
 30
0.0
 11
674.88353053152116
 21
135.42970393629119
 31
0.0
  0
LINE
  5
8B6F
  8
AM_0
 10
674.88353053152116
 20
135.42970393629119
 30
0.0
 11
674.87953053152114
 21
135.42970393629119
 31
0.0
  0
LINE
  5
8B70
  8
AM_0
 10
674.87953053152114
 20
135.42970393629119
 30
0.0
 11
674.87453053152115
 21
135.4287039362913
 31
0.0
  0
LINE
  5
8B71
  8
AM_0
 10
674.87453053152115
 20
135.4287039362913
 30
0.0
 11
674.87053053152113
 21
135.4287039362913
 31
0.0
  0
LINE
  5
8B72
  8
AM_0
 10
674.87053053152113
 20
135.4287039362913
 30
0.0
 11
674.86653053152122
 21
135.4287039362913
 31
0.0
  0
LINE
  5
8B73
  8
AM_0
 10
674.86653053152122
 20
135.4287039362913
 30
0.0
 11
674.86253053152018
 21
135.42770393629121
 31
0.0
  0
LINE
  5
8B74
  8
AM_0
 10
674.86253053152018
 20
135.42770393629121
 30
0.0
 11
674.85753053152098
 21
135.42770393629121
 31
0.0
  0
LINE
  5
8B75
  8
AM_0
 10
674.85753053152098
 20
135.42770393629121
 30
0.0
 11
674.85353053152005
 21
135.42670393629101
 31
0.0
  0
LINE
  5
8B76
  8
AM_0
 10
674.85353053152005
 20
135.42670393629101
 30
0.0
 11
674.84953053152094
 21
135.42670393629101
 31
0.0
  0
LINE
  5
8B77
  8
AM_0
 10
674.84953053152094
 20
135.42670393629101
 30
0.0
 11
674.84553053152115
 21
135.425703936291
 31
0.0
  0
LINE
  5
8B78
  8
AM_0
 10
674.84553053152115
 20
135.425703936291
 30
0.0
 11
674.84053053152127
 21
135.425703936291
 31
0.0
  0
LINE
  5
8B79
  8
AM_0
 10
674.84053053152127
 20
135.425703936291
 30
0.0
 11
674.83653053152125
 21
135.425703936291
 31
0.0
  0
LINE
  5
8B7A
  8
AM_0
 10
674.83653053152125
 20
135.425703936291
 30
0.0
 11
674.83253053152112
 21
135.42470393629191
 31
0.0
  0
LINE
  5
8B7B
  8
AM_0
 10
674.83253053152112
 20
135.42470393629191
 30
0.0
 11
674.82853053152121
 21
135.42470393629191
 31
0.0
  0
LINE
  5
8B7C
  8
AM_0
 10
674.82853053152121
 20
135.42470393629191
 30
0.0
 11
674.82353053152008
 21
135.42370393629099
 31
0.0
  0
LINE
  5
8B7D
  8
AM_0
 10
674.82353053152008
 20
135.42370393629099
 30
0.0
 11
674.8195305315212
 21
135.42370393629099
 31
0.0
  0
LINE
  5
8B7E
  8
AM_0
 10
674.8195305315212
 20
135.42370393629099
 30
0.0
 11
674.81553053152095
 21
135.4227039362911
 31
0.0
  0
LINE
  5
8B7F
  8
AM_0
 10
674.81553053152095
 20
135.4227039362911
 30
0.0
 11
674.81153053152104
 21
135.4227039362911
 31
0.0
  0
LINE
  5
8B80
  8
AM_0
 10
674.81153053152104
 20
135.4227039362911
 30
0.0
 11
674.80753053152125
 21
135.42170393629121
 31
0.0
  0
LINE
  5
8B81
  8
AM_0
 10
674.80753053152125
 20
135.42170393629121
 30
0.0
 11
674.80253053152114
 21
135.42170393629121
 31
0.0
  0
LINE
  5
8B82
  8
AM_0
 10
674.80253053152114
 20
135.42170393629121
 30
0.0
 11
674.79853053152124
 21
135.42070393629021
 31
0.0
  0
LINE
  5
8B83
  8
AM_0
 10
674.79853053152124
 20
135.42070393629021
 30
0.0
 11
674.79453053152099
 21
135.42070393629021
 31
0.0
  0
LINE
  5
8B84
  8
AM_0
 10
674.79453053152099
 20
135.42070393629021
 30
0.0
 11
674.7905305315212
 21
135.4197039362912
 31
0.0
  0
LINE
  5
8B85
  8
AM_0
 10
674.7905305315212
 20
135.4197039362912
 30
0.0
 11
674.78553053152007
 21
135.4197039362912
 31
0.0
  0
LINE
  5
8B86
  8
AM_0
 10
674.78553053152007
 20
135.4197039362912
 30
0.0
 11
674.78153053152118
 21
135.41870393629131
 31
0.0
  0
LINE
  5
8B87
  8
AM_0
 10
674.78153053152118
 20
135.41870393629131
 30
0.0
 11
674.77753053152117
 21
135.41870393629131
 31
0.0
  0
LINE
  5
8B88
  8
AM_0
 10
674.77753053152117
 20
135.41870393629131
 30
0.0
 11
674.77353053152012
 21
135.41770393629099
 31
0.0
  0
LINE
  5
8B89
  8
AM_0
 10
674.77353053152012
 20
135.41770393629099
 30
0.0
 11
674.76853053152115
 21
135.41770393629099
 31
0.0
  0
LINE
  5
8B8A
  8
AM_0
 10
674.76853053152115
 20
135.41770393629099
 30
0.0
 11
674.76453053152011
 21
135.41670393629099
 31
0.0
  0
LINE
  5
8B8B
  8
AM_0
 10
674.76453053152011
 20
135.41670393629099
 30
0.0
 11
674.76053053152123
 21
135.41670393629099
 31
0.0
  0
LINE
  5
8B8C
  8
AM_0
 10
674.76053053152123
 20
135.41670393629099
 30
0.0
 11
674.75653053152098
 21
135.4157039362909
 31
0.0
  0
LINE
  5
8B8D
  8
AM_0
 10
674.75653053152098
 20
135.4157039362909
 30
0.0
 11
674.75153053152121
 21
135.4157039362909
 31
0.0
  0
LINE
  5
8B8E
  8
AM_0
 10
674.75153053152121
 20
135.4157039362909
 30
0.0
 11
674.74753053152097
 21
135.414703936291
 31
0.0
  0
LINE
  5
8B8F
  8
AM_0
 10
674.74753053152097
 20
135.414703936291
 30
0.0
 11
674.74353053152095
 21
135.414703936291
 31
0.0
  0
LINE
  5
8B90
  8
AM_0
 10
674.74353053152095
 20
135.414703936291
 30
0.0
 11
674.73953053152127
 21
135.413703936291
 31
0.0
  0
LINE
  5
8B91
  8
AM_0
 10
674.73953053152127
 20
135.413703936291
 30
0.0
 11
674.73453053152025
 21
135.413703936291
 31
0.0
  0
LINE
  5
8B92
  8
AM_0
 10
674.73453053152025
 20
135.413703936291
 30
0.0
 11
674.73053053152125
 21
135.41270393629119
 31
0.0
  0
LINE
  5
8B93
  8
AM_0
 10
674.73053053152125
 20
135.41270393629119
 30
0.0
 11
674.72653053152101
 21
135.41270393629119
 31
0.0
  0
LINE
  5
8B94
  8
AM_0
 10
674.72653053152101
 20
135.41270393629119
 30
0.0
 11
674.72253053152122
 21
135.4117039362913
 31
0.0
  0
LINE
  5
8B95
  8
AM_0
 10
674.72253053152122
 20
135.4117039362913
 30
0.0
 11
674.71853053152086
 21
135.4117039362913
 31
0.0
  0
LINE
  5
8B96
  8
AM_0
 10
674.71853053152086
 20
135.4117039362913
 30
0.0
 11
674.7135305315212
 21
135.4107039362911
 31
0.0
  0
LINE
  5
8B97
  8
AM_0
 10
674.7135305315212
 20
135.4107039362911
 30
0.0
 11
674.70953053152004
 21
135.40970393629121
 31
0.0
  0
LINE
  5
8B98
  8
AM_0
 10
674.70953053152004
 20
135.40970393629121
 30
0.0
 11
674.70553053152105
 21
135.40970393629121
 31
0.0
  0
LINE
  5
8B99
  8
AM_0
 10
674.70553053152105
 20
135.40970393629121
 30
0.0
 11
674.70153053152114
 21
135.4087039362912
 31
0.0
  0
LINE
  5
8B9A
  8
AM_0
 10
674.70153053152114
 20
135.4087039362912
 30
0.0
 11
674.69653053152012
 21
135.4087039362912
 31
0.0
  0
LINE
  5
8B9B
  8
AM_0
 10
674.69653053152012
 20
135.4087039362912
 30
0.0
 11
674.69253053152124
 21
135.407703936291
 31
0.0
  0
LINE
  5
8B9C
  8
AM_0
 10
674.69253053152124
 20
135.407703936291
 30
0.0
 11
674.68853053152111
 21
135.407703936291
 31
0.0
  0
LINE
  5
8B9D
  8
AM_0
 10
674.68853053152111
 20
135.407703936291
 30
0.0
 11
674.68453053152086
 21
135.406703936291
 31
0.0
  0
LINE
  5
8B9E
  8
AM_0
 10
674.68453053152086
 20
135.406703936291
 30
0.0
 11
674.67953053152098
 21
135.40570393629099
 31
0.0
  0
LINE
  5
8B9F
  8
AM_0
 10
674.67953053152098
 20
135.40570393629099
 30
0.0
 11
674.67553053152085
 21
135.40570393629099
 31
0.0
  0
LINE
  5
8BA0
  8
AM_0
 10
674.67553053152085
 20
135.40570393629099
 30
0.0
 11
674.67153053152015
 21
135.40470393629101
 31
0.0
  0
LINE
  5
8BA1
  8
AM_0
 10
674.67153053152015
 20
135.40470393629101
 30
0.0
 11
674.66753053152115
 21
135.40470393629101
 31
0.0
  0
LINE
  5
8BA2
  8
AM_0
 10
674.66753053152115
 20
135.40470393629101
 30
0.0
 11
674.66353053152125
 21
135.40370393629101
 31
0.0
  0
LINE
  5
8BA3
  8
AM_0
 10
674.66353053152125
 20
135.40370393629101
 30
0.0
 11
674.65853053152114
 21
135.40270393629129
 31
0.0
  0
LINE
  5
8BA4
  8
AM_0
 10
674.65853053152114
 20
135.40270393629129
 30
0.0
 11
674.65453053152123
 21
135.40270393629129
 31
0.0
  0
LINE
  5
8BA5
  8
AM_0
 10
674.65453053152123
 20
135.40270393629129
 30
0.0
 11
674.6505305315211
 21
135.4017039362912
 31
0.0
  0
LINE
  5
8BA6
  8
AM_0
 10
674.6505305315211
 20
135.4017039362912
 30
0.0
 11
674.64653053152097
 21
135.4017039362912
 31
0.0
  0
LINE
  5
8BA7
  8
AM_0
 10
674.64653053152097
 20
135.4017039362912
 30
0.0
 11
674.64153053152097
 21
135.40070393629119
 31
0.0
  0
LINE
  5
8BA8
  8
AM_0
 10
674.64153053152097
 20
135.40070393629119
 30
0.0
 11
674.63753053152095
 21
135.3997039362913
 31
0.0
  0
LINE
  5
8BA9
  8
AM_0
 10
674.63753053152095
 20
135.3997039362913
 30
0.0
 11
674.63353053152127
 21
135.3997039362913
 31
0.0
  0
LINE
  5
8BAA
  8
AM_0
 10
674.63353053152127
 20
135.3997039362913
 30
0.0
 11
674.62953053152114
 21
135.39870393629121
 31
0.0
  0
LINE
  5
8BAB
  8
AM_0
 10
674.62953053152114
 20
135.39870393629121
 30
0.0
 11
674.62553053152124
 21
135.3977039362918
 31
0.0
  0
LINE
  5
8BAC
  8
AM_0
 10
674.62553053152124
 20
135.3977039362918
 30
0.0
 11
674.62053053152113
 21
135.3977039362918
 31
0.0
  0
LINE
  5
8BAD
  8
AM_0
 10
674.62053053152113
 20
135.3977039362918
 30
0.0
 11
674.61653053152122
 21
135.396703936291
 31
0.0
  0
LINE
  5
8BAE
  8
AM_0
 10
674.61653053152122
 20
135.396703936291
 30
0.0
 11
674.61253053152086
 21
135.396703936291
 31
0.0
  0
LINE
  5
8BAF
  8
AM_0
 10
674.61253053152086
 20
135.396703936291
 30
0.0
 11
674.60853053152118
 21
135.395703936291
 31
0.0
  0
LINE
  5
8BB0
  8
AM_0
 10
674.60853053152118
 20
135.395703936291
 30
0.0
 11
674.60353053152085
 21
135.39470393629099
 31
0.0
  0
LINE
  5
8BB1
  8
AM_0
 10
674.60353053152085
 20
135.39470393629099
 30
0.0
 11
674.59953053152094
 21
135.39470393629099
 31
0.0
  0
LINE
  5
8BB2
  8
AM_0
 10
674.59953053152094
 20
135.39470393629099
 30
0.0
 11
674.59553053152115
 21
135.39370393629119
 31
0.0
  0
LINE
  5
8BB3
  8
AM_0
 10
674.59553053152115
 20
135.39370393629119
 30
0.0
 11
674.59153053152113
 21
135.3927039362913
 31
0.0
  0
LINE
  5
8BB4
  8
AM_0
 10
674.59153053152113
 20
135.3927039362913
 30
0.0
 11
674.58753053152122
 21
135.3927039362913
 31
0.0
  0
LINE
  5
8BB5
  8
AM_0
 10
674.58753053152122
 20
135.3927039362913
 30
0.0
 11
674.58253053152112
 21
135.39170393629121
 31
0.0
  0
LINE
  5
8BB6
  8
AM_0
 10
674.58253053152112
 20
135.39170393629121
 30
0.0
 11
674.5785305315211
 21
135.3907039362912
 31
0.0
  0
LINE
  5
8BB7
  8
AM_0
 10
674.5785305315211
 20
135.3907039362912
 30
0.0
 11
674.57453053152085
 21
135.3907039362912
 31
0.0
  0
LINE
  5
8BB8
  8
AM_0
 10
674.57453053152085
 20
135.3907039362912
 30
0.0
 11
674.57053053152015
 21
135.38970393629111
 31
0.0
  0
LINE
  5
8BB9
  8
AM_0
 10
674.57053053152015
 20
135.38970393629111
 30
0.0
 11
674.56553053152095
 21
135.38870393629091
 31
0.0
  0
LINE
  5
8BBA
  8
AM_0
 10
674.56553053152095
 20
135.38870393629091
 30
0.0
 11
674.56153053152127
 21
135.38870393629091
 31
0.0
  0
LINE
  5
8BBB
  8
AM_0
 10
674.56153053152127
 20
135.38870393629091
 30
0.0
 11
674.55753053152125
 21
135.38770393629099
 31
0.0
  0
LINE
  5
8BBC
  8
AM_0
 10
674.55753053152125
 20
135.38770393629099
 30
0.0
 11
674.55353053152112
 21
135.38670393629121
 31
0.0
  0
LINE
  5
8BBD
  8
AM_0
 10
674.55353053152112
 20
135.38670393629121
 30
0.0
 11
674.54953053152121
 21
135.38570393629101
 31
0.0
  0
LINE
  5
8BBE
  8
AM_0
 10
674.54953053152121
 20
135.38570393629101
 30
0.0
 11
674.54453053152008
 21
135.38570393629101
 31
0.0
  0
LINE
  5
8BBF
  8
AM_0
 10
674.54453053152008
 20
135.38570393629101
 30
0.0
 11
674.5405305315212
 21
135.3847039362912
 31
0.0
  0
LINE
  5
8BC0
  8
AM_0
 10
674.5405305315212
 20
135.3847039362912
 30
0.0
 11
674.53653053152095
 21
135.3837039362912
 31
0.0
  0
LINE
  5
8BC1
  8
AM_0
 10
674.53653053152095
 20
135.3837039362912
 30
0.0
 11
674.53253053152025
 21
135.3837039362912
 31
0.0
  0
LINE
  5
8BC2
  8
AM_0
 10
674.53253053152025
 20
135.3837039362912
 30
0.0
 11
674.52853053152126
 21
135.3827039362902
 31
0.0
  0
LINE
  5
8BC3
  8
AM_0
 10
674.52853053152126
 20
135.3827039362902
 30
0.0
 11
674.52353053152115
 21
135.38170393629119
 31
0.0
  0
LINE
  5
8BC4
  8
AM_0
 10
674.52353053152115
 20
135.38170393629119
 30
0.0
 11
674.51953053152124
 21
135.38070393629121
 31
0.0
  0
LINE
  5
8BC5
  8
AM_0
 10
674.51953053152124
 20
135.38070393629121
 30
0.0
 11
674.51553053152099
 21
135.38070393629121
 31
0.0
  0
LINE
  5
8BC6
  8
AM_0
 10
674.51553053152099
 20
135.38070393629121
 30
0.0
 11
674.5115305315212
 21
135.37970393629121
 31
0.0
  0
LINE
  5
8BC7
  8
AM_0
 10
674.5115305315212
 20
135.37970393629121
 30
0.0
 11
674.50753053152096
 21
135.378703936291
 31
0.0
  0
LINE
  5
8BC8
  8
AM_0
 10
674.50753053152096
 20
135.378703936291
 30
0.0
 11
674.50253053152119
 21
135.3777039362912
 31
0.0
  0
LINE
  5
8BC9
  8
AM_0
 10
674.50253053152119
 20
135.3777039362912
 30
0.0
 11
674.49853053152117
 21
135.3777039362912
 31
0.0
  0
LINE
  5
8BCA
  8
AM_0
 10
674.49853053152117
 20
135.3777039362912
 30
0.0
 11
674.49453053152013
 21
135.37670393629099
 31
0.0
  0
LINE
  5
8BCB
  8
AM_0
 10
674.49453053152013
 20
135.37670393629099
 30
0.0
 11
674.49053053152124
 21
135.37570393629099
 31
0.0
  0
LINE
  5
8BCC
  8
AM_0
 10
674.49053053152124
 20
135.37570393629099
 30
0.0
 11
674.4865305315202
 21
135.3747039362913
 31
0.0
  0
LINE
  5
8BCD
  8
AM_0
 10
674.4865305315202
 20
135.3747039362913
 30
0.0
 11
674.48153053152123
 21
135.3747039362913
 31
0.0
  0
LINE
  5
8BCE
  8
AM_0
 10
674.48153053152123
 20
135.3747039362913
 30
0.0
 11
674.4775305315211
 21
135.37370393629101
 31
0.0
  0
LINE
  5
8BCF
  8
AM_0
 10
674.4775305315211
 20
135.37370393629101
 30
0.0
 11
674.47353053152085
 21
135.37270393629129
 31
0.0
  0
LINE
  5
8BD0
  8
AM_0
 10
674.47353053152085
 20
135.37270393629129
 30
0.0
 11
674.46953053152095
 21
135.3717039362912
 31
0.0
  0
LINE
  5
8BD1
  8
AM_0
 10
674.46953053152095
 20
135.3717039362912
 30
0.0
 11
674.46553053152115
 21
135.3717039362912
 31
0.0
  0
LINE
  5
8BD2
  8
AM_0
 10
674.46553053152115
 20
135.3717039362912
 30
0.0
 11
674.46053053152127
 21
135.37070393629131
 31
0.0
  0
LINE
  5
8BD3
  8
AM_0
 10
674.46053053152127
 20
135.37070393629131
 30
0.0
 11
674.45653053152114
 21
135.36970393629119
 31
0.0
  0
LINE
  5
8BD4
  8
AM_0
 10
674.45653053152114
 20
135.36970393629119
 30
0.0
 11
674.45253053152123
 21
135.36870393629101
 31
0.0
  0
LINE
  5
8BD5
  8
AM_0
 10
674.45253053152123
 20
135.36870393629101
 30
0.0
 11
674.44853053152008
 21
135.36770393629121
 31
0.0
  0
LINE
  5
8BD6
  8
AM_0
 10
674.44853053152008
 20
135.36770393629121
 30
0.0
 11
674.4445305315212
 21
135.36770393629121
 31
0.0
  0
LINE
  5
8BD7
  8
AM_0
 10
674.4445305315212
 20
135.36770393629121
 30
0.0
 11
674.43953053152086
 21
135.366703936291
 31
0.0
  0
LINE
  5
8BD8
  8
AM_0
 10
674.43953053152086
 20
135.366703936291
 30
0.0
 11
674.43553053152095
 21
135.36570393629111
 31
0.0
  0
LINE
  5
8BD9
  8
AM_0
 10
674.43553053152095
 20
135.36570393629111
 30
0.0
 11
674.43153053152116
 21
135.36470393629099
 31
0.0
  0
LINE
  5
8BDA
  8
AM_0
 10
674.43153053152116
 20
135.36470393629099
 30
0.0
 11
674.42753053152114
 21
135.36370393629099
 31
0.0
  0
LINE
  5
8BDB
  8
AM_0
 10
674.42753053152114
 20
135.36370393629099
 30
0.0
 11
674.42353053152124
 21
135.36370393629099
 31
0.0
  0
LINE
  5
8BDC
  8
AM_0
 10
674.42353053152124
 20
135.36370393629099
 30
0.0
 11
674.41853053152113
 21
135.3627039362913
 31
0.0
  0
LINE
  5
8BDD
  8
AM_0
 10
674.41853053152113
 20
135.3627039362913
 30
0.0
 11
674.41453053152122
 21
135.36170393629121
 31
0.0
  0
LINE
  5
8BDE
  8
AM_0
 10
674.41453053152122
 20
135.36170393629121
 30
0.0
 11
674.41053053152007
 21
135.36070393629129
 31
0.0
  0
LINE
  5
8BDF
  8
AM_0
 10
674.41053053152007
 20
135.36070393629129
 30
0.0
 11
674.40653053152118
 21
135.35970393629091
 31
0.0
  0
LINE
  5
8BE0
  8
AM_0
 10
674.40653053152118
 20
135.35970393629091
 30
0.0
 11
674.40253053152117
 21
135.35870393629119
 31
0.0
  0
LINE
  5
8BE1
  8
AM_0
 10
674.40253053152117
 20
135.35870393629119
 30
0.0
 11
674.39853053152115
 21
135.35870393629119
 31
0.0
  0
LINE
  5
8BE2
  8
AM_0
 10
674.39853053152115
 20
135.35870393629119
 30
0.0
 11
674.39353053152115
 21
135.35770393629099
 31
0.0
  0
LINE
  5
8BE3
  8
AM_0
 10
674.39353053152115
 20
135.35770393629099
 30
0.0
 11
674.38953053152113
 21
135.35670393629101
 31
0.0
  0
LINE
  5
8BE4
  8
AM_0
 10
674.38953053152113
 20
135.35670393629101
 30
0.0
 11
674.38553053152123
 21
135.35570393629109
 31
0.0
  0
LINE
  5
8BE5
  8
AM_0
 10
674.38553053152123
 20
135.35570393629109
 30
0.0
 11
674.38153053152098
 21
135.354703936291
 31
0.0
  0
LINE
  5
8BE6
  8
AM_0
 10
674.38153053152098
 20
135.354703936291
 30
0.0
 11
674.37753053152085
 21
135.35370393629131
 31
0.0
  0
LINE
  5
8BE7
  8
AM_0
 10
674.37753053152085
 20
135.35370393629131
 30
0.0
 11
674.37253053152006
 21
135.35270393629119
 31
0.0
  0
LINE
  5
8BE8
  8
AM_0
 10
674.37253053152006
 20
135.35270393629119
 30
0.0
 11
674.36853053152095
 21
135.35270393629119
 31
0.0
  0
LINE
  5
8BE9
  8
AM_0
 10
674.36853053152095
 20
135.35270393629119
 30
0.0
 11
674.36453053152127
 21
135.35170393629119
 31
0.0
  0
LINE
  5
8BEA
  8
AM_0
 10
674.36453053152127
 20
135.35170393629119
 30
0.0
 11
674.36053053152011
 21
135.3507039362913
 31
0.0
  0
LINE
  5
8BEB
  8
AM_0
 10
674.36053053152011
 20
135.3507039362913
 30
0.0
 11
674.35653053152123
 21
135.34970393629101
 31
0.0
  0
LINE
  5
8BEC
  8
AM_0
 10
674.35653053152123
 20
135.34970393629101
 30
0.0
 11
674.35253053152019
 21
135.348703936291
 31
0.0
  0
LINE
  5
8BED
  8
AM_0
 10
674.35253053152019
 20
135.348703936291
 30
0.0
 11
674.34753053152122
 21
135.347703936291
 31
0.0
  0
LINE
  5
8BEE
  8
AM_0
 10
674.34753053152122
 20
135.347703936291
 30
0.0
 11
674.34353053152086
 21
135.34670393629099
 31
0.0
  0
LINE
  5
8BEF
  8
AM_0
 10
674.34353053152086
 20
135.34670393629099
 30
0.0
 11
674.33953053152095
 21
135.34570393629099
 31
0.0
  0
LINE
  5
8BF0
  8
AM_0
 10
674.33953053152095
 20
135.34570393629099
 30
0.0
 11
674.33553053152116
 21
135.34470393629121
 31
0.0
  0
LINE
  5
8BF1
  8
AM_0
 10
674.33553053152116
 20
135.34470393629121
 30
0.0
 11
674.33153053152114
 21
135.34470393629121
 31
0.0
  0
LINE
  5
8BF2
  8
AM_0
 10
674.33153053152114
 20
135.34470393629121
 30
0.0
 11
674.32753053152123
 21
135.34370393629121
 31
0.0
  0
LINE
  5
8BF3
  8
AM_0
 10
674.32753053152123
 20
135.34370393629121
 30
0.0
 11
674.3225305315201
 21
135.3427039362912
 31
0.0
  0
LINE
  5
8BF4
  8
AM_0
 10
674.3225305315201
 20
135.3427039362912
 30
0.0
 11
674.31853053152122
 21
135.34170393629131
 31
0.0
  0
LINE
  5
8BF5
  8
AM_0
 10
674.31853053152122
 20
135.34170393629131
 30
0.0
 11
674.31453053152006
 21
135.34070393629091
 31
0.0
  0
LINE
  5
8BF6
  8
AM_0
 10
674.31453053152006
 20
135.34070393629091
 30
0.0
 11
674.31053053152118
 21
135.33970393629099
 31
0.0
  0
LINE
  5
8BF7
  8
AM_0
 10
674.31053053152118
 20
135.33970393629099
 30
0.0
 11
674.30653053152116
 21
135.3387039362911
 31
0.0
  0
LINE
  5
8BF8
  8
AM_0
 10
674.30653053152116
 20
135.3387039362911
 30
0.0
 11
674.30253053152001
 21
135.33770393629101
 31
0.0
  0
LINE
  5
8BF9
  8
AM_0
 10
674.30253053152001
 20
135.33770393629101
 30
0.0
 11
674.29753053152115
 21
135.336703936291
 31
0.0
  0
LINE
  5
8BFA
  8
AM_0
 10
674.29753053152115
 20
135.336703936291
 30
0.0
 11
674.29353053152113
 21
135.335703936291
 31
0.0
  0
LINE
  5
8BFB
  8
AM_0
 10
674.29353053152113
 20
135.335703936291
 30
0.0
 11
674.28953053152122
 21
135.33470393629131
 31
0.0
  0
LINE
  5
8BFC
  8
AM_0
 10
674.28953053152122
 20
135.33470393629131
 30
0.0
 11
674.28553053152098
 21
135.33370393629119
 31
0.0
  0
LINE
  5
8BFD
  8
AM_0
 10
674.28553053152098
 20
135.33370393629119
 30
0.0
 11
674.28153053152084
 21
135.33270393629121
 31
0.0
  0
LINE
  5
8BFE
  8
AM_0
 10
674.28153053152084
 20
135.33270393629121
 30
0.0
 11
674.27753053152128
 21
135.33170393629121
 31
0.0
  0
LINE
  5
8BFF
  8
AM_0
 10
674.27753053152128
 20
135.33170393629121
 30
0.0
 11
674.27253053152094
 21
135.330703936291
 31
0.0
  0
LINE
  5
8C00
  8
AM_0
 10
674.27253053152094
 20
135.330703936291
 30
0.0
 11
674.26853053152115
 21
135.329703936291
 31
0.0
  0
LINE
  5
8C01
  8
AM_0
 10
674.26853053152115
 20
135.329703936291
 30
0.0
 11
674.26453053152011
 21
135.32870393629099
 31
0.0
  0
LINE
  5
8C02
  8
AM_0
 10
674.26453053152011
 20
135.32870393629099
 30
0.0
 11
674.26053053152123
 21
135.32770393629099
 31
0.0
  0
LINE
  5
8C03
  8
AM_0
 10
674.26053053152123
 20
135.32770393629099
 30
0.0
 11
674.25653053152098
 21
135.32670393629101
 31
0.0
  0
LINE
  5
8C04
  8
AM_0
 10
674.25653053152098
 20
135.32670393629101
 30
0.0
 11
674.25253053152096
 21
135.32570393629121
 31
0.0
  0
LINE
  5
8C05
  8
AM_0
 10
674.25253053152096
 20
135.32570393629121
 30
0.0
 11
674.24853053152106
 21
135.3247039362912
 31
0.0
  0
LINE
  5
8C06
  8
AM_0
 10
674.24853053152106
 20
135.3247039362912
 30
0.0
 11
674.24353053152095
 21
135.3237039362912
 31
0.0
  0
LINE
  5
8C07
  8
AM_0
 10
674.24353053152095
 20
135.3237039362912
 30
0.0
 11
674.23953053152127
 21
135.3227039362913
 31
0.0
  0
LINE
  5
8C08
  8
AM_0
 10
674.23953053152127
 20
135.3227039362913
 30
0.0
 11
674.23553053152114
 21
135.32170393629229
 31
0.0
  0
LINE
  5
8C09
  8
AM_0
 10
674.23553053152114
 20
135.32170393629229
 30
0.0
 11
674.23153053152123
 21
135.32070393629101
 31
0.0
  0
LINE
  5
8C0A
  8
AM_0
 10
674.23153053152123
 20
135.32070393629101
 30
0.0
 11
674.22753053152007
 21
135.31970393629081
 31
0.0
  0
LINE
  5
8C0B
  8
AM_0
 10
674.22753053152007
 20
135.31970393629081
 30
0.0
 11
674.22353053152119
 21
135.318703936291
 31
0.0
  0
LINE
  5
8C0C
  8
AM_0
 10
674.22353053152119
 20
135.318703936291
 30
0.0
 11
674.21853053152086
 21
135.317703936291
 31
0.0
  0
LINE
  5
8C0D
  8
AM_0
 10
674.21853053152086
 20
135.317703936291
 30
0.0
 11
674.21453053152118
 21
135.31670393629119
 31
0.0
  0
LINE
  5
8C0E
  8
AM_0
 10
674.21453053152118
 20
135.31670393629119
 30
0.0
 11
674.21053053152116
 21
135.3157039362913
 31
0.0
  0
LINE
  5
8C0F
  8
AM_0
 10
674.21053053152116
 20
135.3157039362913
 30
0.0
 11
674.20653053152114
 21
135.31470393629121
 31
0.0
  0
LINE
  5
8C10
  8
AM_0
 10
674.20653053152114
 20
135.31470393629121
 30
0.0
 11
674.20253053152123
 21
135.3137039362912
 31
0.0
  0
LINE
  5
8C11
  8
AM_0
 10
674.20253053152123
 20
135.3137039362912
 30
0.0
 11
674.1985305315211
 21
135.3127039362912
 31
0.0
  0
LINE
  5
8C12
  8
AM_0
 10
674.1985305315211
 20
135.3127039362912
 30
0.0
 11
674.19453053152006
 21
135.311703936291
 31
0.0
  0
LINE
  5
8C13
  8
AM_0
 10
674.19453053152006
 20
135.311703936291
 30
0.0
 11
674.19053053152095
 21
135.31070393629099
 31
0.0
  0
LINE
  5
8C14
  8
AM_0
 10
674.19053053152095
 20
135.31070393629099
 30
0.0
 11
674.18553053152118
 21
135.30970393629099
 31
0.0
  0
LINE
  5
8C15
  8
AM_0
 10
674.18553053152118
 20
135.30970393629099
 30
0.0
 11
674.18153053152128
 21
135.30870393629101
 31
0.0
  0
LINE
  5
8C16
  8
AM_0
 10
674.18153053152128
 20
135.30870393629101
 30
0.0
 11
674.17753053152114
 21
135.30770393629109
 31
0.0
  0
LINE
  5
8C17
  8
AM_0
 10
674.17753053152114
 20
135.30770393629109
 30
0.0
 11
674.17353053152124
 21
135.30570393629131
 31
0.0
  0
LINE
  5
8C18
  8
AM_0
 10
674.17353053152124
 20
135.30570393629131
 30
0.0
 11
674.1695305315211
 21
135.30470393629119
 31
0.0
  0
LINE
  5
8C19
  8
AM_0
 10
674.1695305315211
 20
135.30470393629119
 30
0.0
 11
674.16553053152097
 21
135.3037039362932
 31
0.0
  0
LINE
  5
8C1A
  8
AM_0
 10
674.16553053152097
 20
135.3037039362932
 30
0.0
 11
674.16153053152095
 21
135.302703936292
 31
0.0
  0
LINE
  5
8C1B
  8
AM_0
 10
674.16153053152095
 20
135.302703936292
 30
0.0
 11
674.15753053152025
 21
135.30170393629101
 31
0.0
  0
LINE
  5
8C1C
  8
AM_0
 10
674.15753053152025
 20
135.30170393629101
 30
0.0
 11
674.15253053152128
 21
135.30070393629089
 31
0.0
  0
LINE
  5
8C1D
  8
AM_0
 10
674.15253053152128
 20
135.30070393629089
 30
0.0
 11
674.14853053152126
 21
135.299703936291
 31
0.0
  0
LINE
  5
8C1E
  8
AM_0
 10
674.14853053152126
 20
135.299703936291
 30
0.0
 11
674.14453053152124
 21
135.29870393629099
 31
0.0
  0
LINE
  5
8C1F
  8
AM_0
 10
674.14453053152124
 20
135.29870393629099
 30
0.0
 11
674.14053053152111
 21
135.29770393629121
 31
0.0
  0
LINE
  5
8C20
  8
AM_0
 10
674.14053053152111
 20
135.29770393629121
 30
0.0
 11
674.1365305315212
 21
135.29570393629101
 31
0.0
  0
LINE
  5
8C21
  8
AM_0
 10
674.1365305315212
 20
135.29570393629101
 30
0.0
 11
674.13253053152096
 21
135.2947039362912
 31
0.0
  0
LINE
  5
8C22
  8
AM_0
 10
674.13253053152096
 20
135.2947039362912
 30
0.0
 11
674.12853053152105
 21
135.29370393629131
 31
0.0
  0
LINE
  5
8C23
  8
AM_0
 10
674.12853053152105
 20
135.29370393629131
 30
0.0
 11
674.12453053152115
 21
135.29270393629099
 31
0.0
  0
LINE
  5
8C24
  8
AM_0
 10
674.12453053152115
 20
135.29270393629099
 30
0.0
 11
674.11953053152013
 21
135.29170393629099
 31
0.0
  0
LINE
  5
8C25
  8
AM_0
 10
674.11953053152013
 20
135.29170393629099
 30
0.0
 11
674.11553053152124
 21
135.29070393629121
 31
0.0
  0
LINE
  5
8C26
  8
AM_0
 10
674.11553053152124
 20
135.29070393629121
 30
0.0
 11
674.1115305315202
 21
135.289703936291
 31
0.0
  0
LINE
  5
8C27
  8
AM_0
 10
674.1115305315202
 20
135.289703936291
 30
0.0
 11
674.10753053152121
 21
135.28770393629119
 31
0.0
  0
LINE
  5
8C28
  8
AM_0
 10
674.10753053152121
 20
135.28770393629119
 30
0.0
 11
674.10353053152005
 21
135.28670393629099
 31
0.0
  0
LINE
  5
8C29
  8
AM_0
 10
674.10353053152005
 20
135.28670393629099
 30
0.0
 11
674.09953053152117
 21
135.2857039362913
 31
0.0
  0
LINE
  5
8C2A
  8
AM_0
 10
674.09953053152117
 20
135.2857039362913
 30
0.0
 11
674.09553053152115
 21
135.2847039362932
 31
0.0
  0
LINE
  5
8C2B
  8
AM_0
 10
674.09553053152115
 20
135.2847039362932
 30
0.0
 11
674.09153053152113
 21
135.283703936292
 31
0.0
  0
LINE
  5
8C2C
  8
AM_0
 10
674.09153053152113
 20
135.283703936292
 30
0.0
 11
674.08753053152122
 21
135.282703936291
 31
0.0
  0
LINE
  5
8C2D
  8
AM_0
 10
674.08753053152122
 20
135.282703936291
 30
0.0
 11
674.08353053152098
 21
135.28070393629099
 31
0.0
  0
LINE
  5
8C2E
  8
AM_0
 10
674.08353053152098
 20
135.28070393629099
 30
0.0
 11
674.07853053152121
 21
135.27970393629101
 31
0.0
  0
LINE
  5
8C2F
  8
AM_0
 10
674.07853053152121
 20
135.27970393629101
 30
0.0
 11
674.07453053152005
 21
135.27870393629121
 31
0.0
  0
LINE
  5
8C30
  8
AM_0
 10
674.07453053152005
 20
135.27870393629121
 30
0.0
 11
674.07053053152094
 21
135.277703936291
 31
0.0
  0
LINE
  5
8C31
  8
AM_0
 10
674.07053053152094
 20
135.277703936291
 30
0.0
 11
674.06653053152127
 21
135.2767039362912
 31
0.0
  0
LINE
  5
8C32
  8
AM_0
 10
674.06653053152127
 20
135.2767039362912
 30
0.0
 11
674.06253053152113
 21
135.2747039362913
 31
0.0
  0
LINE
  5
8C33
  8
AM_0
 10
674.06253053152113
 20
135.2747039362913
 30
0.0
 11
674.05853053152123
 21
135.2737039362913
 31
0.0
  0
LINE
  5
8C34
  8
AM_0
 10
674.05853053152123
 20
135.2737039362913
 30
0.0
 11
674.05453053152007
 21
135.27270393629101
 31
0.0
  0
LINE
  5
8C35
  8
AM_0
 10
674.05453053152007
 20
135.27270393629101
 30
0.0
 11
674.05053053152096
 21
135.27170393629109
 31
0.0
  0
LINE
  5
8C36
  8
AM_0
 10
674.05053053152096
 20
135.27170393629109
 30
0.0
 11
674.04653053152015
 21
135.26970393629131
 31
0.0
  0
LINE
  5
8C37
  8
AM_0
 10
674.04653053152015
 20
135.26970393629131
 30
0.0
 11
674.04253053152127
 21
135.26870393629099
 31
0.0
  0
LINE
  5
8C38
  8
AM_0
 10
674.04253053152127
 20
135.26870393629099
 30
0.0
 11
674.03853053152125
 21
135.26770393629101
 31
0.0
  0
LINE
  5
8C39
  8
AM_0
 10
674.03853053152125
 20
135.26770393629101
 30
0.0
 11
674.03353053152114
 21
135.26670393629121
 31
0.0
  0
LINE
  5
8C3A
  8
AM_0
 10
674.03353053152114
 20
135.26670393629121
 30
0.0
 11
674.02953053152123
 21
135.26470393629199
 31
0.0
  0
LINE
  5
8C3B
  8
AM_0
 10
674.02953053152123
 20
135.26470393629199
 30
0.0
 11
674.02553053152087
 21
135.26370393629091
 31
0.0
  0
LINE
  5
8C3C
  8
AM_0
 10
674.02553053152087
 20
135.26370393629091
 30
0.0
 11
674.02153053152119
 21
135.26270393629119
 31
0.0
  0
LINE
  5
8C3D
  8
AM_0
 10
674.02153053152119
 20
135.26270393629119
 30
0.0
 11
674.01753053152015
 21
135.26170393629101
 31
0.0
  0
LINE
  5
8C3E
  8
AM_0
 10
674.01753053152015
 20
135.26170393629101
 30
0.0
 11
674.01353053152116
 21
135.259703936291
 31
0.0
  0
LINE
  5
8C3F
  8
AM_0
 10
674.01353053152116
 20
135.259703936291
 30
0.0
 11
674.00953053152125
 21
135.258703936291
 31
0.0
  0
LINE
  5
8C40
  8
AM_0
 10
674.00953053152125
 20
135.258703936291
 30
0.0
 11
674.00553053152112
 21
135.25770393629131
 31
0.0
  0
LINE
  5
8C41
  8
AM_0
 10
674.00553053152112
 20
135.25770393629131
 30
0.0
 11
674.00153053152098
 21
135.25670393629119
 31
0.0
  0
LINE
  5
8C42
  8
AM_0
 10
674.00153053152098
 20
135.25670393629119
 30
0.0
 11
673.99753053152006
 21
135.25470393629121
 31
0.0
  0
LINE
  5
8C43
  8
AM_0
 10
673.99753053152006
 20
135.25470393629121
 30
0.0
 11
673.99353053152117
 21
135.253703936291
 31
0.0
  0
LINE
  5
8C44
  8
AM_0
 10
673.99353053152117
 20
135.253703936291
 30
0.0
 11
673.98953053152115
 21
135.252703936291
 31
0.0
  0
LINE
  5
8C45
  8
AM_0
 10
673.98953053152115
 20
135.252703936291
 30
0.0
 11
673.98553053152011
 21
135.25070393629099
 31
0.0
  0
LINE
  5
8C46
  8
AM_0
 10
673.98553053152011
 20
135.25070393629099
 30
0.0
 11
673.98053053152125
 21
135.24970393629101
 31
0.0
  0
LINE
  5
8C47
  8
AM_0
 10
673.98053053152125
 20
135.24970393629101
 30
0.0
 11
673.97653053152021
 21
135.24870393629101
 31
0.0
  0
LINE
  5
8C48
  8
AM_0
 10
673.97653053152021
 20
135.24870393629101
 30
0.0
 11
673.97253053152122
 21
135.24670393629199
 31
0.0
  0
LINE
  5
8C49
  8
AM_0
 10
673.97253053152122
 20
135.24670393629199
 30
0.0
 11
673.96853053152097
 21
135.24570393629219
 31
0.0
  0
LINE
  5
8C4A
  8
AM_0
 10
673.96853053152097
 20
135.24570393629219
 30
0.0
 11
673.96453053152095
 21
135.24470393629119
 31
0.0
  0
LINE
  5
8C4B
  8
AM_0
 10
673.96453053152095
 20
135.24470393629119
 30
0.0
 11
673.96053053152127
 21
135.24270393629101
 31
0.0
  0
LINE
  5
8C4C
  8
AM_0
 10
673.96053053152127
 20
135.24270393629101
 30
0.0
 11
673.95653053152114
 21
135.241703936291
 31
0.0
  0
LINE
  5
8C4D
  8
AM_0
 10
673.95653053152114
 20
135.241703936291
 30
0.0
 11
673.95253053152123
 21
135.240703936291
 31
0.0
  0
LINE
  5
8C4E
  8
AM_0
 10
673.95253053152123
 20
135.240703936291
 30
0.0
 11
673.9485305315211
 21
135.23870393629119
 31
0.0
  0
LINE
  5
8C4F
  8
AM_0
 10
673.9485305315211
 20
135.23870393629119
 30
0.0
 11
673.9445305315212
 21
135.23770393629121
 31
0.0
  0
LINE
  5
8C50
  8
AM_0
 10
673.9445305315212
 20
135.23770393629121
 30
0.0
 11
673.94053053152015
 21
135.23670393629121
 31
0.0
  0
LINE
  5
8C51
  8
AM_0
 10
673.94053053152015
 20
135.23670393629121
 30
0.0
 11
673.93653053152104
 21
135.234703936291
 31
0.0
  0
LINE
  5
8C52
  8
AM_0
 10
673.93653053152104
 20
135.234703936291
 30
0.0
 11
673.93253053152125
 21
135.23370393629099
 31
0.0
  0
LINE
  5
8C53
  8
AM_0
 10
673.93253053152125
 20
135.23370393629099
 30
0.0
 11
673.92853053152021
 21
135.2327039362909
 31
0.0
  0
LINE
  5
8C54
  8
AM_0
 10
673.92853053152021
 20
135.2327039362909
 30
0.0
 11
673.92453053152121
 21
135.23070393629101
 31
0.0
  0
LINE
  5
8C55
  8
AM_0
 10
673.92453053152121
 20
135.23070393629101
 30
0.0
 11
673.92053053152006
 21
135.2297039362912
 31
0.0
  0
LINE
  5
8C56
  8
AM_0
 10
673.92053053152006
 20
135.2297039362912
 30
0.0
 11
673.91653053152118
 21
135.22770393629199
 31
0.0
  0
LINE
  5
8C57
  8
AM_0
 10
673.91653053152118
 20
135.22770393629199
 30
0.0
 11
673.91253053152116
 21
135.22670393629221
 31
0.0
  0
LINE
  5
8C58
  8
AM_0
 10
673.91253053152116
 20
135.22670393629221
 30
0.0
 11
673.90853053152
 21
135.22570393629121
 31
0.0
  0
LINE
  5
8C59
  8
AM_0
 10
673.90853053152
 20
135.22570393629121
 30
0.0
 11
673.90453053152123
 21
135.2237039362908
 31
0.0
  0
LINE
  5
8C5A
  8
AM_0
 10
673.90453053152123
 20
135.2237039362908
 30
0.0
 11
673.9005305315211
 21
135.222703936291
 31
0.0
  0
LINE
  5
8C5B
  8
AM_0
 10
673.9005305315211
 20
135.222703936291
 30
0.0
 11
673.89653053152085
 21
135.22070393629099
 31
0.0
  0
LINE
  5
8C5C
  8
AM_0
 10
673.89653053152085
 20
135.22070393629099
 30
0.0
 11
673.89253053152095
 21
135.2197039362913
 31
0.0
  0
LINE
  5
8C5D
  8
AM_0
 10
673.89253053152095
 20
135.2197039362913
 30
0.0
 11
673.88853053152116
 21
135.21870393629121
 31
0.0
  0
LINE
  5
8C5E
  8
AM_0
 10
673.88853053152116
 20
135.21870393629121
 30
0.0
 11
673.88453053152125
 21
135.21670393629219
 31
0.0
  0
LINE
  5
8C5F
  8
AM_0
 10
673.88453053152125
 20
135.21670393629219
 30
0.0
 11
673.88053053152112
 21
135.21570393629099
 31
0.0
  0
LINE
  5
8C60
  8
AM_0
 10
673.88053053152112
 20
135.21570393629099
 30
0.0
 11
673.87553053152124
 21
135.2137039362911
 31
0.0
  0
LINE
  5
8C61
  8
AM_0
 10
673.87553053152124
 20
135.2137039362911
 30
0.0
 11
673.87153053152019
 21
135.21270393629101
 31
0.0
  0
LINE
  5
8C62
  8
AM_0
 10
673.87153053152019
 20
135.21270393629101
 30
0.0
 11
673.86753053152097
 21
135.2107039362912
 31
0.0
  0
LINE
  5
8C63
  8
AM_0
 10
673.86753053152097
 20
135.2107039362912
 30
0.0
 11
673.86353053152015
 21
135.20970393629131
 31
0.0
  0
LINE
  5
8C64
  8
AM_0
 10
673.86353053152015
 20
135.20970393629131
 30
0.0
 11
673.85953053152105
 21
135.20770393629229
 31
0.0
  0
LINE
  5
8C65
  8
AM_0
 10
673.85953053152105
 20
135.20770393629229
 30
0.0
 11
673.85553053152125
 21
135.20670393629121
 31
0.0
  0
LINE
  5
8C66
  8
AM_0
 10
673.85553053152125
 20
135.20670393629121
 30
0.0
 11
673.85153053152021
 21
135.20470393629091
 31
0.0
  0
LINE
  5
8C67
  8
AM_0
 10
673.85153053152021
 20
135.20470393629091
 30
0.0
 11
673.84753053152122
 21
135.20370393629099
 31
0.0
  0
LINE
  5
8C68
  8
AM_0
 10
673.84753053152122
 20
135.20370393629099
 30
0.0
 11
673.84353053152086
 21
135.20170393629121
 31
0.0
  0
LINE
  5
8C69
  8
AM_0
 10
673.84353053152086
 20
135.20170393629121
 30
0.0
 11
673.83953053152095
 21
135.20070393629121
 31
0.0
  0
LINE
  5
8C6A
  8
AM_0
 10
673.83953053152095
 20
135.20070393629121
 30
0.0
 11
673.83553053152116
 21
135.1987039362912
 31
0.0
  0
LINE
  5
8C6B
  8
AM_0
 10
673.83553053152116
 20
135.1987039362912
 30
0.0
 11
673.83153053152114
 21
135.19770393629199
 31
0.0
  0
LINE
  5
8C6C
  8
AM_0
 10
673.83153053152114
 20
135.19770393629199
 30
0.0
 11
673.82753053152123
 21
135.19570393629101
 31
0.0
  0
LINE
  5
8C6D
  8
AM_0
 10
673.82753053152123
 20
135.19570393629101
 30
0.0
 11
673.82353053152087
 21
135.19470393629121
 31
0.0
  0
LINE
  5
8C6E
  8
AM_0
 10
673.82353053152087
 20
135.19470393629121
 30
0.0
 11
673.81953053152006
 21
135.192703936291
 31
0.0
  0
LINE
  5
8C6F
  8
AM_0
 10
673.81953053152006
 20
135.192703936291
 30
0.0
 11
673.81553053152095
 21
135.19170393629119
 31
0.0
  0
LINE
  5
8C70
  8
AM_0
 10
673.81553053152095
 20
135.19170393629119
 30
0.0
 11
673.81253053152113
 21
135.18970393629201
 31
0.0
  0
LINE
  5
8C71
  8
AM_0
 10
673.81253053152113
 20
135.18970393629201
 30
0.0
 11
673.80853053152123
 21
135.188703936292
 31
0.0
  0
LINE
  5
8C72
  8
AM_0
 10
673.80853053152123
 20
135.188703936292
 30
0.0
 11
673.80453053152098
 21
135.18670393629091
 31
0.0
  0
LINE
  5
8C73
  8
AM_0
 10
673.80453053152098
 20
135.18670393629091
 30
0.0
 11
673.80053053152005
 21
135.18570393629099
 31
0.0
  0
LINE
  5
8C74
  8
AM_0
 10
673.80053053152005
 20
135.18570393629099
 30
0.0
 11
673.79653053152094
 21
135.18370393629101
 31
0.0
  0
LINE
  5
8C75
  8
AM_0
 10
673.79653053152094
 20
135.18370393629101
 30
0.0
 11
673.79253053152115
 21
135.1827039362912
 31
0.0
  0
LINE
  5
8C76
  8
AM_0
 10
673.79253053152115
 20
135.1827039362912
 30
0.0
 11
673.78853053152125
 21
135.180703936291
 31
0.0
  0
LINE
  5
8C77
  8
AM_0
 10
673.78853053152125
 20
135.180703936291
 30
0.0
 11
673.78453053152111
 21
135.17870393629201
 31
0.0
  0
LINE
  5
8C78
  8
AM_0
 10
673.78453053152111
 20
135.17870393629201
 30
0.0
 11
673.78053053152121
 21
135.177703936292
 31
0.0
  0
LINE
  5
8C79
  8
AM_0
 10
673.78053053152121
 20
135.177703936292
 30
0.0
 11
673.77653053152017
 21
135.17570393629109
 31
0.0
  0
LINE
  5
8C7A
  8
AM_0
 10
673.77653053152017
 20
135.17570393629109
 30
0.0
 11
673.77253053152094
 21
135.174703936291
 31
0.0
  0
LINE
  5
8C7B
  8
AM_0
 10
673.77253053152094
 20
135.174703936291
 30
0.0
 11
673.76853053152126
 21
135.1727039362913
 31
0.0
  0
LINE
  5
8C7C
  8
AM_0
 10
673.76853053152126
 20
135.1727039362913
 30
0.0
 11
673.76453053152113
 21
135.170703936292
 31
0.0
  0
LINE
  5
8C7D
  8
AM_0
 10
673.76453053152113
 20
135.170703936292
 30
0.0
 11
673.76053053152123
 21
135.169703936292
 31
0.0
  0
LINE
  5
8C7E
  8
AM_0
 10
673.76053053152123
 20
135.169703936292
 30
0.0
 11
673.75653053152007
 21
135.16770393629091
 31
0.0
  0
LINE
  5
8C7F
  8
AM_0
 10
673.75653053152007
 20
135.16770393629091
 30
0.0
 11
673.75253053152085
 21
135.16670393629099
 31
0.0
  0
LINE
  5
8C80
  8
AM_0
 10
673.75253053152085
 20
135.16670393629099
 30
0.0
 11
673.74853053152106
 21
135.164703936291
 31
0.0
  0
LINE
  5
8C81
  8
AM_0
 10
673.74853053152106
 20
135.164703936291
 30
0.0
 11
673.74453053152013
 21
135.16270393629199
 31
0.0
  0
LINE
  5
8C82
  8
AM_0
 10
673.74453053152013
 20
135.16270393629199
 30
0.0
 11
673.74053053152124
 21
135.16170393629119
 31
0.0
  0
LINE
  5
8C83
  8
AM_0
 10
673.74053053152124
 20
135.16170393629119
 30
0.0
 11
673.7365305315202
 21
135.159703936292
 31
0.0
  0
LINE
  5
8C84
  8
AM_0
 10
673.7365305315202
 20
135.159703936292
 30
0.0
 11
673.73253053152121
 21
135.157703936291
 31
0.0
  0
LINE
  5
8C85
  8
AM_0
 10
673.73253053152121
 20
135.157703936291
 30
0.0
 11
673.72853053152005
 21
135.156703936291
 31
0.0
  0
LINE
  5
8C86
  8
AM_0
 10
673.72853053152005
 20
135.156703936291
 30
0.0
 11
673.72453053152094
 21
135.15470393629121
 31
0.0
  0
LINE
  5
8C87
  8
AM_0
 10
673.72453053152094
 20
135.15470393629121
 30
0.0
 11
673.72153053152124
 21
135.152703936291
 31
0.0
  0
LINE
  5
8C88
  8
AM_0
 10
673.72153053152124
 20
135.152703936291
 30
0.0
 11
673.7175305315202
 21
135.15170393629199
 31
0.0
  0
LINE
  5
8C89
  8
AM_0
 10
673.7175305315202
 20
135.15170393629199
 30
0.0
 11
673.7135305315212
 21
135.1497039362913
 31
0.0
  0
LINE
  5
8C8A
  8
AM_0
 10
673.7135305315212
 20
135.1497039362913
 30
0.0
 11
673.70953053152004
 21
135.14770393629101
 31
0.0
  0
LINE
  5
8C8B
  8
AM_0
 10
673.70953053152004
 20
135.14770393629101
 30
0.0
 11
673.70553053152116
 21
135.146703936291
 31
0.0
  0
LINE
  5
8C8C
  8
AM_0
 10
673.70553053152116
 20
135.146703936291
 30
0.0
 11
673.70153053152114
 21
135.14470393629099
 31
0.0
  0
LINE
  5
8C8D
  8
AM_0
 10
673.70153053152114
 20
135.14470393629099
 30
0.0
 11
673.69753053152112
 21
135.1427039362913
 31
0.0
  0
LINE
  5
8C8E
  8
AM_0
 10
673.69753053152112
 20
135.1427039362913
 30
0.0
 11
673.69353053152122
 21
135.14170393629121
 31
0.0
  0
LINE
  5
8C8F
  8
AM_0
 10
673.69353053152122
 20
135.14170393629121
 30
0.0
 11
673.68953053152097
 21
135.13970393629219
 31
0.0
  0
LINE
  5
8C90
  8
AM_0
 10
673.68953053152097
 20
135.13970393629219
 30
0.0
 11
673.68553053152095
 21
135.13770393629099
 31
0.0
  0
LINE
  5
8C91
  8
AM_0
 10
673.68553053152095
 20
135.13770393629099
 30
0.0
 11
673.68153053152128
 21
135.13570393629101
 31
0.0
  0
LINE
  5
8C92
  8
AM_0
 10
673.68153053152128
 20
135.13570393629101
 30
0.0
 11
673.67753053152114
 21
135.13470393629109
 31
0.0
  0
LINE
  5
8C93
  8
AM_0
 10
673.67753053152114
 20
135.13470393629109
 30
0.0
 11
673.67453053152121
 21
135.13270393629199
 31
0.0
  0
LINE
  5
8C94
  8
AM_0
 10
673.67453053152121
 20
135.13270393629199
 30
0.0
 11
673.67053053152097
 21
135.1307039362913
 31
0.0
  0
LINE
  5
8C95
  8
AM_0
 10
673.67053053152097
 20
135.1307039362913
 30
0.0
 11
673.66653053152095
 21
135.128703936291
 31
0.0
  0
LINE
  5
8C96
  8
AM_0
 10
673.66653053152095
 20
135.128703936291
 30
0.0
 11
673.66253053152127
 21
135.127703936291
 31
0.0
  0
LINE
  5
8C97
  8
AM_0
 10
673.66253053152127
 20
135.127703936291
 30
0.0
 11
673.65853053152114
 21
135.12570393629099
 31
0.0
  0
LINE
  5
8C98
  8
AM_0
 10
673.65853053152114
 20
135.12570393629099
 30
0.0
 11
673.65453053152044
 21
135.12370393629121
 31
0.0
  0
LINE
  5
8C99
  8
AM_0
 10
673.65453053152044
 20
135.12370393629121
 30
0.0
 11
673.6505305315211
 21
135.12170393629199
 31
0.0
  0
LINE
  5
8C9A
  8
AM_0
 10
673.6505305315211
 20
135.12170393629199
 30
0.0
 11
673.64653053152119
 21
135.12070393629219
 31
0.0
  0
LINE
  5
8C9B
  8
AM_0
 10
673.64653053152119
 20
135.12070393629219
 30
0.0
 11
673.64253053152015
 21
135.11870393629101
 31
0.0
  0
LINE
  5
8C9C
  8
AM_0
 10
673.64253053152015
 20
135.11870393629101
 30
0.0
 11
673.63953053152113
 21
135.116703936291
 31
0.0
  0
LINE
  5
8C9D
  8
AM_0
 10
673.63953053152113
 20
135.116703936291
 30
0.0
 11
673.63553053152123
 21
135.11470393629119
 31
0.0
  0
LINE
  5
8C9E
  8
AM_0
 10
673.63553053152123
 20
135.11470393629119
 30
0.0
 11
673.63153053152087
 21
135.11270393629201
 31
0.0
  0
LINE
  5
8C9F
  8
AM_0
 10
673.63153053152087
 20
135.11270393629201
 30
0.0
 11
673.62753053152119
 21
135.11170393629121
 31
0.0
  0
LINE
  5
8CA0
  8
AM_0
 10
673.62753053152119
 20
135.11170393629121
 30
0.0
 11
673.62353053152106
 21
135.109703936291
 31
0.0
  0
LINE
  5
8CA1
  8
AM_0
 10
673.62353053152106
 20
135.109703936291
 30
0.0
 11
673.61953053152115
 21
135.10770393629099
 31
0.0
  0
LINE
  5
8CA2
  8
AM_0
 10
673.61953053152115
 20
135.10770393629099
 30
0.0
 11
673.61553053152124
 21
135.1057039362918
 31
0.0
  0
LINE
  5
8CA3
  8
AM_0
 10
673.61553053152124
 20
135.1057039362918
 30
0.0
 11
673.61253053152086
 21
135.1037039362912
 31
0.0
  0
LINE
  5
8CA4
  8
AM_0
 10
673.61253053152086
 20
135.1037039362912
 30
0.0
 11
673.60853053152118
 21
135.10270393629199
 31
0.0
  0
LINE
  5
8CA5
  8
AM_0
 10
673.60853053152118
 20
135.10270393629199
 30
0.0
 11
673.60453053152116
 21
135.10070393629121
 31
0.0
  0
LINE
  5
8CA6
  8
AM_0
 10
673.60453053152116
 20
135.10070393629121
 30
0.0
 11
673.60053053152114
 21
135.098703936291
 31
0.0
  0
LINE
  5
8CA7
  8
AM_0
 10
673.60053053152114
 20
135.098703936291
 30
0.0
 11
673.59653053152124
 21
135.09670393629099
 31
0.0
  0
LINE
  5
8CA8
  8
AM_0
 10
673.59653053152124
 20
135.09670393629099
 30
0.0
 11
673.59253053152111
 21
135.09470393629201
 31
0.0
  0
LINE
  5
8CA9
  8
AM_0
 10
673.59253053152111
 20
135.09470393629201
 30
0.0
 11
673.58853053152097
 21
135.0927039362912
 31
0.0
  0
LINE
  5
8CAA
  8
AM_0
 10
673.58853053152097
 20
135.0927039362912
 30
0.0
 11
673.58553053152127
 21
135.09070393629091
 31
0.0
  0
LINE
  5
8CAB
  8
AM_0
 10
673.58553053152127
 20
135.09070393629091
 30
0.0
 11
673.58153053152114
 21
135.08870393629121
 31
0.0
  0
LINE
  5
8CAC
  8
AM_0
 10
673.58153053152114
 20
135.08870393629121
 30
0.0
 11
673.57753053152123
 21
135.0877039362918
 31
0.0
  0
LINE
  5
8CAD
  8
AM_0
 10
673.57753053152123
 20
135.0877039362918
 30
0.0
 11
673.5735305315211
 21
135.0857039362912
 31
0.0
  0
LINE
  5
8CAE
  8
AM_0
 10
673.5735305315211
 20
135.0857039362912
 30
0.0
 11
673.56953053152097
 21
135.0837039362913
 31
0.0
  0
LINE
  5
8CAF
  8
AM_0
 10
673.56953053152097
 20
135.0837039362913
 30
0.0
 11
673.56653053152127
 21
135.08170393629121
 31
0.0
  0
LINE
  5
8CB0
  8
AM_0
 10
673.56653053152127
 20
135.08170393629121
 30
0.0
 11
673.56253053152113
 21
135.0797039362912
 31
0.0
  0
LINE
  5
8CB1
  8
AM_0
 10
673.56253053152113
 20
135.0797039362912
 30
0.0
 11
673.55853053152123
 21
135.07770393629099
 31
0.0
  0
LINE
  5
8CB2
  8
AM_0
 10
673.55853053152123
 20
135.07770393629099
 30
0.0
 11
673.5545305315211
 21
135.075703936292
 31
0.0
  0
LINE
  5
8CB3
  8
AM_0
 10
673.5545305315211
 20
135.075703936292
 30
0.0
 11
673.55053053152119
 21
135.0737039362912
 31
0.0
  0
LINE
  5
8CB4
  8
AM_0
 10
673.55053053152119
 20
135.0737039362912
 30
0.0
 11
673.54753053152115
 21
135.0717039362913
 31
0.0
  0
LINE
  5
8CB5
  8
AM_0
 10
673.54753053152115
 20
135.0717039362913
 30
0.0
 11
673.54353053152113
 21
135.06970393629121
 31
0.0
  0
LINE
  5
8CB6
  8
AM_0
 10
673.54353053152113
 20
135.06970393629121
 30
0.0
 11
673.53953053152122
 21
135.06770393629199
 31
0.0
  0
LINE
  5
8CB7
  8
AM_0
 10
673.53953053152122
 20
135.06770393629199
 30
0.0
 11
673.53553053152086
 21
135.06570393629099
 31
0.0
  0
LINE
  5
8CB8
  8
AM_0
 10
673.53553053152086
 20
135.06570393629099
 30
0.0
 11
673.53153053152118
 21
135.0637039362912
 31
0.0
  0
LINE
  5
8CB9
  8
AM_0
 10
673.53153053152118
 20
135.0637039362912
 30
0.0
 11
673.52853053152126
 21
135.06170393629091
 31
0.0
  0
LINE
  5
8CBA
  8
AM_0
 10
673.52853053152126
 20
135.06170393629091
 30
0.0
 11
673.52453053152112
 21
135.05970393629099
 31
0.0
  0
LINE
  5
8CBB
  8
AM_0
 10
673.52453053152112
 20
135.05970393629099
 30
0.0
 11
673.52053053152099
 21
135.05770393629101
 31
0.0
  0
LINE
  5
8CBC
  8
AM_0
 10
673.52053053152099
 20
135.05770393629101
 30
0.0
 11
673.51653053152086
 21
135.05570393629131
 31
0.0
  0
LINE
  5
8CBD
  8
AM_0
 10
673.51653053152086
 20
135.05570393629131
 30
0.0
 11
673.51253053152118
 21
135.0537039362903
 31
0.0
  0
LINE
  5
8CBE
  8
AM_0
 10
673.51253053152118
 20
135.0537039362903
 30
0.0
 11
673.50953053152125
 21
135.05170393629101
 31
0.0
  0
LINE
  5
8CBF
  8
AM_0
 10
673.50953053152125
 20
135.05170393629101
 30
0.0
 11
673.50553053152112
 21
135.04970393629191
 31
0.0
  0
LINE
  5
8CC0
  8
AM_0
 10
673.50553053152112
 20
135.04970393629191
 30
0.0
 11
673.5015305315211
 21
135.04770393629099
 31
0.0
  0
LINE
  5
8CC1
  8
AM_0
 10
673.5015305315211
 20
135.04770393629099
 30
0.0
 11
673.49753053152085
 21
135.0457039362912
 31
0.0
  0
LINE
  5
8CC2
  8
AM_0
 10
673.49753053152085
 20
135.0457039362912
 30
0.0
 11
673.49453053152115
 21
135.04370393629131
 31
0.0
  0
LINE
  5
8CC3
  8
AM_0
 10
673.49453053152115
 20
135.04370393629131
 30
0.0
 11
673.49053053152124
 21
135.04170393629099
 31
0.0
  0
LINE
  5
8CC4
  8
AM_0
 10
673.49053053152124
 20
135.04170393629099
 30
0.0
 11
673.48653053152111
 21
135.039703936291
 31
0.0
  0
LINE
  5
8CC5
  8
AM_0
 10
673.48653053152111
 20
135.039703936291
 30
0.0
 11
673.48253053152121
 21
135.037703936291
 31
0.0
  0
LINE
  5
8CC6
  8
AM_0
 10
673.48253053152121
 20
135.037703936291
 30
0.0
 11
673.47953053152128
 21
135.03570393629121
 31
0.0
  0
LINE
  5
8CC7
  8
AM_0
 10
673.47953053152128
 20
135.03570393629121
 30
0.0
 11
673.47553053152114
 21
135.0337039362912
 31
0.0
  0
LINE
  5
8CC8
  8
AM_0
 10
673.47553053152114
 20
135.0337039362912
 30
0.0
 11
673.47153053152124
 21
135.031703936291
 31
0.0
  0
LINE
  5
8CC9
  8
AM_0
 10
673.47153053152124
 20
135.031703936291
 30
0.0
 11
673.46853053152097
 21
135.02970393629101
 31
0.0
  0
LINE
  5
8CCA
  8
AM_0
 10
673.46853053152097
 20
135.02970393629101
 30
0.0
 11
673.46453053152095
 21
135.02670393629111
 31
0.0
  0
LINE
  5
8CCB
  8
AM_0
 10
673.46453053152095
 20
135.02670393629111
 30
0.0
 11
673.46053053152127
 21
135.0247039362913
 31
0.0
  0
LINE
  5
8CCC
  8
AM_0
 10
673.46053053152127
 20
135.0247039362913
 30
0.0
 11
673.45653053152114
 21
135.02270393629101
 31
0.0
  0
LINE
  5
8CCD
  8
AM_0
 10
673.45653053152114
 20
135.02270393629101
 30
0.0
 11
673.45353053152121
 21
135.020703936291
 31
0.0
  0
LINE
  5
8CCE
  8
AM_0
 10
673.45353053152121
 20
135.020703936291
 30
0.0
 11
673.44953053152085
 21
135.01870393629119
 31
0.0
  0
LINE
  5
8CCF
  8
AM_0
 10
673.44953053152085
 20
135.01870393629119
 30
0.0
 11
673.44553053152094
 21
135.01670393629121
 31
0.0
  0
LINE
  5
8CD0
  8
AM_0
 10
673.44553053152094
 20
135.01670393629121
 30
0.0
 11
673.44253053152124
 21
135.0147039362912
 31
0.0
  0
LINE
  5
8CD1
  8
AM_0
 10
673.44253053152124
 20
135.0147039362912
 30
0.0
 11
673.438530531521
 21
135.01270393629099
 31
0.0
  0
LINE
  5
8CD2
  8
AM_0
 10
673.438530531521
 20
135.01270393629099
 30
0.0
 11
673.4345305315212
 21
135.009703936291
 31
0.0
  0
LINE
  5
8CD3
  8
AM_0
 10
673.4345305315212
 20
135.009703936291
 30
0.0
 11
673.43153053152116
 21
135.0077039362902
 31
0.0
  0
LINE
  5
8CD4
  8
AM_0
 10
673.43153053152116
 20
135.0077039362902
 30
0.0
 11
673.42753053152114
 21
135.00570393629121
 31
0.0
  0
LINE
  5
8CD5
  8
AM_0
 10
673.42753053152114
 20
135.00570393629121
 30
0.0
 11
673.42353053152124
 21
135.0037039362908
 31
0.0
  0
LINE
  5
8CD6
  8
AM_0
 10
673.42353053152124
 20
135.0037039362908
 30
0.0
 11
673.42053053152006
 21
135.00170393629099
 31
0.0
  0
LINE
  5
8CD7
  8
AM_0
 10
673.42053053152006
 20
135.00170393629099
 30
0.0
 11
673.41653053152118
 21
134.99870393629121
 31
0.0
  0
LINE
  5
8CD8
  8
AM_0
 10
673.41653053152118
 20
134.99870393629121
 30
0.0
 11
673.41253053152116
 21
134.9967039362912
 31
0.0
  0
LINE
  5
8CD9
  8
AM_0
 10
673.41253053152116
 20
134.9967039362912
 30
0.0
 11
673.40953053152111
 21
134.9947039362913
 31
0.0
  0
LINE
  5
8CDA
  8
AM_0
 10
673.40953053152111
 20
134.9947039362913
 30
0.0
 11
673.40553053152098
 21
134.99270393629121
 31
0.0
  0
LINE
  5
8CDB
  8
AM_0
 10
673.40553053152098
 20
134.99270393629121
 30
0.0
 11
673.40153053152005
 21
134.990703936291
 31
0.0
  0
LINE
  5
8CDC
  8
AM_0
 10
673.40153053152005
 20
134.990703936291
 30
0.0
 11
673.39853053152115
 21
134.9877039362913
 31
0.0
  0
LINE
  5
8CDD
  8
AM_0
 10
673.39853053152115
 20
134.9877039362913
 30
0.0
 11
673.39453053152124
 21
134.9857039362912
 31
0.0
  0
LINE
  5
8CDE
  8
AM_0
 10
673.39453053152124
 20
134.9857039362912
 30
0.0
 11
673.39053053152111
 21
134.98370393629099
 31
0.0
  0
LINE
  5
8CDF
  8
AM_0
 10
673.39053053152111
 20
134.98370393629099
 30
0.0
 11
673.38753053152016
 21
134.98170393629101
 31
0.0
  0
LINE
  5
8CE0
  8
AM_0
 10
673.38753053152016
 20
134.98170393629101
 30
0.0
 11
673.38353053152127
 21
134.97870393629111
 31
0.0
  0
LINE
  5
8CE1
  8
AM_0
 10
673.38353053152127
 20
134.97870393629111
 30
0.0
 11
673.38053053152009
 21
134.9767039362913
 31
0.0
  0
LINE
  5
8CE2
  8
AM_0
 10
673.38053053152009
 20
134.9767039362913
 30
0.0
 11
673.37653053152121
 21
134.97470393629101
 31
0.0
  0
LINE
  5
8CE3
  8
AM_0
 10
673.37653053152121
 20
134.97470393629101
 30
0.0
 11
673.37253053152097
 21
134.972703936291
 31
0.0
  0
LINE
  5
8CE4
  8
AM_0
 10
673.37253053152097
 20
134.972703936291
 30
0.0
 11
673.36953053152013
 21
134.96970393629101
 31
0.0
  0
LINE
  5
8CE5
  8
AM_0
 10
673.36953053152013
 20
134.96970393629101
 30
0.0
 11
673.36553053152124
 21
134.9677039362912
 31
0.0
  0
LINE
  5
8CE6
  8
AM_0
 10
673.36553053152124
 20
134.9677039362912
 30
0.0
 11
673.36253053152006
 21
134.96570393629091
 31
0.0
  0
LINE
  5
8CE7
  8
AM_0
 10
673.36253053152006
 20
134.96570393629091
 30
0.0
 11
673.35853053152096
 21
134.96270393629101
 31
0.0
  0
LINE
  5
8CE8
  8
AM_0
 10
673.35853053152096
 20
134.96270393629101
 30
0.0
 11
673.35453053152116
 21
134.960703936291
 31
0.0
  0
LINE
  5
8CE9
  8
AM_0
 10
673.35453053152116
 20
134.960703936291
 30
0.0
 11
673.35153053152112
 21
134.9587039362913
 31
0.0
  0
LINE
  5
8CEA
  8
AM_0
 10
673.35153053152112
 20
134.9587039362913
 30
0.0
 11
673.34753053152122
 21
134.955703936291
 31
0.0
  0
LINE
  5
8CEB
  8
AM_0
 10
673.34753053152122
 20
134.955703936291
 30
0.0
 11
673.34453053152095
 21
134.95370393629099
 31
0.0
  0
LINE
  5
8CEC
  8
AM_0
 10
673.34453053152095
 20
134.95370393629099
 30
0.0
 11
673.34053053152115
 21
134.9517039362911
 31
0.0
  0
LINE
  5
8CED
  8
AM_0
 10
673.34053053152115
 20
134.9517039362911
 30
0.0
 11
673.33753053152122
 21
134.9487039362912
 31
0.0
  0
LINE
  5
8CEE
  8
AM_0
 10
673.33753053152122
 20
134.9487039362912
 30
0.0
 11
673.33353053152086
 21
134.94670393629221
 31
0.0
  0
LINE
  5
8CEF
  8
AM_0
 10
673.33353053152086
 20
134.94670393629221
 30
0.0
 11
673.33053053152105
 21
134.943703936291
 31
0.0
  0
LINE
  5
8CF0
  8
AM_0
 10
673.33053053152105
 20
134.943703936291
 30
0.0
 11
673.32653053152114
 21
134.94170393629091
 31
0.0
  0
LINE
  5
8CF1
  8
AM_0
 10
673.32653053152114
 20
134.94170393629091
 30
0.0
 11
673.32253053152112
 21
134.93970393629121
 31
0.0
  0
LINE
  5
8CF2
  8
AM_0
 10
673.32253053152112
 20
134.93970393629121
 30
0.0
 11
673.3195305315212
 21
134.936703936291
 31
0.0
  0
LINE
  5
8CF3
  8
AM_0
 10
673.3195305315212
 20
134.936703936291
 30
0.0
 11
673.31553053152015
 21
134.9347039362909
 31
0.0
  0
LINE
  5
8CF4
  8
AM_0
 10
673.31553053152015
 20
134.9347039362909
 30
0.0
 11
673.31253053152
 21
134.9317039362912
 31
0.0
  0
LINE
  5
8CF5
  8
AM_0
 10
673.31253053152
 20
134.9317039362912
 30
0.0
 11
673.30853053152123
 21
134.92970393629119
 31
0.0
  0
LINE
  5
8CF6
  8
AM_0
 10
673.30853053152123
 20
134.92970393629119
 30
0.0
 11
673.30553053152005
 21
134.92670393629101
 31
0.0
  0
LINE
  5
8CF7
  8
AM_0
 10
673.30553053152005
 20
134.92670393629101
 30
0.0
 11
673.30153053152128
 21
134.924703936291
 31
0.0
  0
LINE
  5
8CF8
  8
AM_0
 10
673.30153053152128
 20
134.924703936291
 30
0.0
 11
673.29853053152124
 21
134.92270393629099
 31
0.0
  0
LINE
  5
8CF9
  8
AM_0
 10
673.29853053152124
 20
134.92270393629099
 30
0.0
 11
673.2945305315211
 21
134.9197039362912
 31
0.0
  0
LINE
  5
8CFA
  8
AM_0
 10
673.2945305315211
 20
134.9197039362912
 30
0.0
 11
673.29153053152095
 21
134.91770393629099
 31
0.0
  0
LINE
  5
8CFB
  8
AM_0
 10
673.29153053152095
 20
134.91770393629099
 30
0.0
 11
673.28753053152127
 21
134.914703936291
 31
0.0
  0
LINE
  5
8CFC
  8
AM_0
 10
673.28753053152127
 20
134.914703936291
 30
0.0
 11
673.28453053152111
 21
134.91270393629119
 31
0.0
  0
LINE
  5
8CFD
  8
AM_0
 10
673.28453053152111
 20
134.91270393629119
 30
0.0
 11
673.28153053152084
 21
134.9097039362932
 31
0.0
  0
LINE
  5
8CFE
  8
AM_0
 10
673.28153053152084
 20
134.9097039362932
 30
0.0
 11
673.27753053152128
 21
134.907703936291
 31
0.0
  0
LINE
  5
8CFF
  8
AM_0
 10
673.27753053152128
 20
134.907703936291
 30
0.0
 11
673.2745305315201
 21
134.90470393629101
 31
0.0
  0
LINE
  5
8D00
  8
AM_0
 10
673.2745305315201
 20
134.90470393629101
 30
0.0
 11
673.27053053152122
 21
134.9027039362912
 31
0.0
  0
LINE
  5
8D01
  8
AM_0
 10
673.27053053152122
 20
134.9027039362912
 30
0.0
 11
673.26753053152015
 21
134.8997039362913
 31
0.0
  0
LINE
  5
8D02
  8
AM_0
 10
673.26753053152015
 20
134.8997039362913
 30
0.0
 11
673.26353053152127
 21
134.89770393629101
 31
0.0
  0
LINE
  5
8D03
  8
AM_0
 10
673.26353053152127
 20
134.89770393629101
 30
0.0
 11
673.26053053152043
 21
134.89470393629099
 31
0.0
  0
LINE
  5
8D04
  8
AM_0
 10
673.26053053152043
 20
134.89470393629099
 30
0.0
 11
673.25753053152096
 21
134.89170393629121
 31
0.0
  0
LINE
  5
8D05
  8
AM_0
 10
673.25753053152096
 20
134.89170393629121
 30
0.0
 11
673.25353053152105
 21
134.88970393629199
 31
0.0
  0
LINE
  5
8D06
  8
AM_0
 10
673.25353053152105
 20
134.88970393629199
 30
0.0
 11
673.25053053152124
 21
134.88670393629121
 31
0.0
  0
LINE
  5
8D07
  8
AM_0
 10
673.25053053152124
 20
134.88670393629121
 30
0.0
 11
673.24653053152088
 21
134.88470393629129
 31
0.0
  0
LINE
  5
8D08
  8
AM_0
 10
673.24653053152088
 20
134.88470393629129
 30
0.0
 11
673.24353053152095
 21
134.88170393629119
 31
0.0
  0
LINE
  5
8D09
  8
AM_0
 10
673.24353053152095
 20
134.88170393629119
 30
0.0
 11
673.24053053152124
 21
134.878703936291
 31
0.0
  0
LINE
  5
8D0A
  8
AM_0
 10
673.24053053152124
 20
134.878703936291
 30
0.0
 11
673.23653053152111
 21
134.87670393629099
 31
0.0
  0
LINE
  5
8D0B
  8
AM_0
 10
673.23653053152111
 20
134.87670393629099
 30
0.0
 11
673.23353053152118
 21
134.87370393629101
 31
0.0
  0
LINE
  5
8D0C
  8
AM_0
 10
673.23353053152118
 20
134.87370393629101
 30
0.0
 11
673.22953053152116
 21
134.87170393629199
 31
0.0
  0
LINE
  5
8D0D
  8
AM_0
 10
673.22953053152116
 20
134.87170393629199
 30
0.0
 11
673.22653053152112
 21
134.86870393629101
 31
0.0
  0
LINE
  5
8D0E
  8
AM_0
 10
673.22653053152112
 20
134.86870393629101
 30
0.0
 11
673.22353053152005
 21
134.865703936291
 31
0.0
  0
LINE
  5
8D0F
  8
AM_0
 10
673.22353053152005
 20
134.865703936291
 30
0.0
 11
673.21953053152095
 21
134.86370393629119
 31
0.0
  0
LINE
  5
8D10
  8
AM_0
 10
673.21953053152095
 20
134.86370393629119
 30
0.0
 11
673.21653053152113
 21
134.86070393629129
 31
0.0
  0
LINE
  5
8D11
  8
AM_0
 10
673.21653053152113
 20
134.86070393629129
 30
0.0
 11
673.21353053152086
 21
134.85770393629099
 31
0.0
  0
LINE
  5
8D12
  8
AM_0
 10
673.21353053152086
 20
134.85770393629099
 30
0.0
 11
673.20953053152004
 21
134.85570393629101
 31
0.0
  0
LINE
  5
8D13
  8
AM_0
 10
673.20953053152004
 20
134.85570393629101
 30
0.0
 11
673.20653053152114
 21
134.85270393629199
 31
0.0
  0
LINE
  5
8D14
  8
AM_0
 10
673.20653053152114
 20
134.85270393629199
 30
0.0
 11
673.2035305315211
 21
134.84970393629101
 31
0.0
  0
LINE
  5
8D15
  8
AM_0
 10
673.2035305315211
 20
134.84970393629101
 30
0.0
 11
673.20053053152128
 21
134.84670393629099
 31
0.0
  0
LINE
  5
8D16
  8
AM_0
 10
673.20053053152128
 20
134.84670393629099
 30
0.0
 11
673.19653053152012
 21
134.84470393629121
 31
0.0
  0
LINE
  5
8D17
  8
AM_0
 10
673.19653053152012
 20
134.84470393629121
 30
0.0
 11
673.19353053152122
 21
134.84170393629219
 31
0.0
  0
LINE
  5
8D18
  8
AM_0
 10
673.19353053152122
 20
134.84170393629219
 30
0.0
 11
673.19053053152015
 21
134.8387039362909
 31
0.0
  0
LINE
  5
8D19
  8
AM_0
 10
673.19053053152015
 20
134.8387039362909
 30
0.0
 11
673.18653053152104
 21
134.8357039362912
 31
0.0
  0
LINE
  5
8D1A
  8
AM_0
 10
673.18653053152104
 20
134.8357039362912
 30
0.0
 11
673.18353053152123
 21
134.83370393629201
 31
0.0
  0
LINE
  5
8D1B
  8
AM_0
 10
673.18353053152123
 20
134.83370393629201
 30
0.0
 11
673.18053053152096
 21
134.830703936291
 31
0.0
  0
LINE
  5
8D1C
  8
AM_0
 10
673.18053053152096
 20
134.830703936291
 30
0.0
 11
673.17753053152012
 21
134.82770393629099
 31
0.0
  0
LINE
  5
8D1D
  8
AM_0
 10
673.17753053152012
 20
134.82770393629099
 30
0.0
 11
673.17353053152124
 21
134.8247039362912
 31
0.0
  0
LINE
  5
8D1E
  8
AM_0
 10
673.17353053152124
 20
134.8247039362912
 30
0.0
 11
673.17053053152017
 21
134.82270393629221
 31
0.0
  0
LINE
  5
8D1F
  8
AM_0
 10
673.17053053152017
 20
134.82270393629221
 30
0.0
 11
673.16753053152127
 21
134.81970393629081
 31
0.0
  0
LINE
  5
8D20
  8
AM_0
 10
673.16753053152127
 20
134.81970393629081
 30
0.0
 11
673.16453053152122
 21
134.81670393629119
 31
0.0
  0
LINE
  5
8D21
  8
AM_0
 10
673.16453053152122
 20
134.81670393629119
 30
0.0
 11
673.16153053152095
 21
134.81370393629231
 31
0.0
  0
LINE
  5
8D22
  8
AM_0
 10
673.16153053152095
 20
134.81370393629231
 30
0.0
 11
673.15753053152105
 21
134.81070393629099
 31
0.0
  0
LINE
  5
8D23
  8
AM_0
 10
673.15753053152105
 20
134.81070393629099
 30
0.0
 11
673.15453053152123
 21
134.80770393629101
 31
0.0
  0
LINE
  5
8D24
  8
AM_0
 10
673.15453053152123
 20
134.80770393629101
 30
0.0
 11
673.15153053152005
 21
134.80570393629131
 31
0.0
  0
LINE
  5
8D25
  8
AM_0
 10
673.15153053152005
 20
134.80570393629131
 30
0.0
 11
673.14853053152115
 21
134.802703936292
 31
0.0
  0
LINE
  5
8D26
  8
AM_0
 10
673.14853053152115
 20
134.802703936292
 30
0.0
 11
673.14553053152122
 21
134.799703936291
 31
0.0
  0
LINE
  5
8D27
  8
AM_0
 10
673.14553053152122
 20
134.799703936291
 30
0.0
 11
673.14253053152095
 21
134.79670393629121
 31
0.0
  0
LINE
  5
8D28
  8
AM_0
 10
673.14253053152095
 20
134.79670393629121
 30
0.0
 11
673.13953053152011
 21
134.79370393629131
 31
0.0
  0
LINE
  5
8D29
  8
AM_0
 10
673.13953053152011
 20
134.79370393629131
 30
0.0
 11
673.13553053152111
 21
134.79070393629121
 31
0.0
  0
LINE
  5
8D2A
  8
AM_0
 10
673.13553053152111
 20
134.79070393629121
 30
0.0
 11
673.13253053152005
 21
134.78770393629199
 31
0.0
  0
LINE
  5
8D2B
  8
AM_0
 10
673.13253053152005
 20
134.78770393629199
 30
0.0
 11
673.12953053152114
 21
134.784703936292
 31
0.0
  0
LINE
  5
8D2C
  8
AM_0
 10
673.12953053152114
 20
134.784703936292
 30
0.0
 11
673.12653053152098
 21
134.78170393629119
 31
0.0
  0
LINE
  5
8D2D
  8
AM_0
 10
673.12653053152098
 20
134.78170393629119
 30
0.0
 11
673.12353053152117
 21
134.77870393629121
 31
0.0
  0
LINE
  5
8D2E
  8
AM_0
 10
673.12353053152117
 20
134.77870393629121
 30
0.0
 11
673.12053053151999
 21
134.77570393629199
 31
0.0
  0
LINE
  5
8D2F
  8
AM_0
 10
673.12053053151999
 20
134.77570393629199
 30
0.0
 11
673.11753053152086
 21
134.77270393629101
 31
0.0
  0
LINE
  5
8D30
  8
AM_0
 10
673.11753053152086
 20
134.77270393629101
 30
0.0
 11
673.11453053152115
 21
134.76970393629131
 31
0.0
  0
LINE
  5
8D31
  8
AM_0
 10
673.11453053152115
 20
134.76970393629131
 30
0.0
 11
673.11153053152111
 21
134.76670393629121
 31
0.0
  0
LINE
  5
8D32
  8
AM_0
 10
673.11153053152111
 20
134.76670393629121
 30
0.0
 11
673.10853053152096
 21
134.76370393629099
 31
0.0
  0
LINE
  5
8D33
  8
AM_0
 10
673.10853053152096
 20
134.76370393629099
 30
0.0
 11
673.10553053152125
 21
134.76070393629121
 31
0.0
  0
LINE
  5
8D34
  8
AM_0
 10
673.10553053152125
 20
134.76070393629121
 30
0.0
 11
673.10253053152019
 21
134.75770393629199
 31
0.0
  0
LINE
  5
8D35
  8
AM_0
 10
673.10253053152019
 20
134.75770393629199
 30
0.0
 11
673.09953053152094
 21
134.7547039362922
 31
0.0
  0
LINE
  5
8D36
  8
AM_0
 10
673.09953053152094
 20
134.7547039362922
 30
0.0
 11
673.09653053152124
 21
134.75170393629099
 31
0.0
  0
LINE
  5
8D37
  8
AM_0
 10
673.09653053152124
 20
134.75170393629099
 30
0.0
 11
673.09353053152097
 21
134.74870393629121
 31
0.0
  0
LINE
  5
8D38
  8
AM_0
 10
673.09353053152097
 20
134.74870393629121
 30
0.0
 11
673.09053053152127
 21
134.74570393629219
 31
0.0
  0
LINE
  5
8D39
  8
AM_0
 10
673.09053053152127
 20
134.74570393629219
 30
0.0
 11
673.08753053152122
 21
134.74270393629101
 31
0.0
  0
LINE
  5
8D3A
  8
AM_0
 10
673.08753053152122
 20
134.74270393629101
 30
0.0
 11
673.08453053152095
 21
134.73970393629099
 31
0.0
  0
LINE
  5
8D3B
  8
AM_0
 10
673.08453053152095
 20
134.73970393629099
 30
0.0
 11
673.08153053152114
 21
134.73670393629121
 31
0.0
  0
LINE
  5
8D3C
  8
AM_0
 10
673.08153053152114
 20
134.73670393629121
 30
0.0
 11
673.07853053152121
 21
134.73370393629099
 31
0.0
  0
LINE
  5
8D3D
  8
AM_0
 10
673.07853053152121
 20
134.73370393629099
 30
0.0
 11
673.07553053152128
 21
134.730703936292
 31
0.0
  0
LINE
  5
8D3E
  8
AM_0
 10
673.07553053152128
 20
134.730703936292
 30
0.0
 11
673.07253053152101
 21
134.72770393629199
 31
0.0
  0
LINE
  5
8D3F
  8
AM_0
 10
673.07253053152101
 20
134.72770393629199
 30
0.0
 11
673.0695305315212
 21
134.72470393629101
 31
0.0
  0
LINE
  5
8D40
  8
AM_0
 10
673.0695305315212
 20
134.72470393629101
 30
0.0
 11
673.06653053152127
 21
134.72070393629119
 31
0.0
  0
LINE
  5
8D41
  8
AM_0
 10
673.06653053152127
 20
134.72070393629119
 30
0.0
 11
673.06353053152009
 21
134.7177039362912
 31
0.0
  0
LINE
  5
8D42
  8
AM_0
 10
673.06353053152009
 20
134.7177039362912
 30
0.0
 11
673.06053053152095
 21
134.71470393629099
 31
0.0
  0
LINE
  5
8D43
  8
AM_0
 10
673.06053053152095
 20
134.71470393629099
 30
0.0
 11
673.0585305315202
 21
134.71170393629191
 31
0.0
  0
LINE
  5
8D44
  8
AM_0
 10
673.0585305315202
 20
134.71170393629191
 30
0.0
 11
673.05553053152084
 21
134.70870393629201
 31
0.0
  0
LINE
  5
8D45
  8
AM_0
 10
673.05553053152084
 20
134.70870393629201
 30
0.0
 11
673.05253053152114
 21
134.70570393629089
 31
0.0
  0
LINE
  5
8D46
  8
AM_0
 10
673.05253053152114
 20
134.70570393629089
 30
0.0
 11
673.04953053152121
 21
134.7017039362913
 31
0.0
  0
LINE
  5
8D47
  8
AM_0
 10
673.04953053152121
 20
134.7017039362913
 30
0.0
 11
673.04653053152094
 21
134.6987039362912
 31
0.0
  0
LINE
  5
8D48
  8
AM_0
 10
673.04653053152094
 20
134.6987039362912
 30
0.0
 11
673.04353053152113
 21
134.69570393629101
 31
0.0
  0
LINE
  5
8D49
  8
AM_0
 10
673.04353053152113
 20
134.69570393629101
 30
0.0
 11
673.04153053152118
 21
134.69270393629199
 31
0.0
  0
LINE
  5
8D4A
  8
AM_0
 10
673.04153053152118
 20
134.69270393629199
 30
0.0
 11
673.03853053152125
 21
134.6887039362912
 31
0.0
  0
LINE
  5
8D4B
  8
AM_0
 10
673.03853053152125
 20
134.6887039362912
 30
0.0
 11
673.03553053152086
 21
134.68570393629099
 31
0.0
  0
LINE
  5
8D4C
  8
AM_0
 10
673.03553053152086
 20
134.68570393629099
 30
0.0
 11
673.03253053152105
 21
134.6827039362912
 31
0.0
  0
LINE
  5
8D4D
  8
AM_0
 10
673.03253053152105
 20
134.6827039362912
 30
0.0
 11
673.03053053152121
 21
134.67970393629119
 31
0.0
  0
LINE
  5
8D4E
  8
AM_0
 10
673.03053053152121
 20
134.67970393629119
 30
0.0
 11
673.02753053152117
 21
134.6757039362912
 31
0.0
  0
LINE
  5
8D4F
  8
AM_0
 10
673.02753053152117
 20
134.6757039362912
 30
0.0
 11
673.02453053152112
 21
134.67270393629099
 31
0.0
  0
LINE
  5
8D50
  8
AM_0
 10
673.02453053152112
 20
134.67270393629099
 30
0.0
 11
673.02253053152117
 21
134.6697039362912
 31
0.0
  0
LINE
  5
8D51
  8
AM_0
 10
673.02253053152117
 20
134.6697039362912
 30
0.0
 11
673.01953053152124
 21
134.66570393629101
 31
0.0
  0
LINE
  5
8D52
  8
AM_0
 10
673.01953053152124
 20
134.66570393629101
 30
0.0
 11
673.01653053152086
 21
134.662703936291
 31
0.0
  0
LINE
  5
8D53
  8
AM_0
 10
673.01653053152086
 20
134.662703936291
 30
0.0
 11
673.01453053152113
 21
134.6597039362903
 31
0.0
  0
LINE
  5
8D54
  8
AM_0
 10
673.01453053152113
 20
134.6597039362903
 30
0.0
 11
673.01153053152098
 21
134.65570393629201
 31
0.0
  0
LINE
  5
8D55
  8
AM_0
 10
673.01153053152098
 20
134.65570393629201
 30
0.0
 11
673.00853053152116
 21
134.6527039362912
 31
0.0
  0
LINE
  5
8D56
  8
AM_0
 10
673.00853053152116
 20
134.6527039362912
 30
0.0
 11
673.00653053152098
 21
134.6497039362913
 31
0.0
  0
LINE
  5
8D57
  8
AM_0
 10
673.00653053152098
 20
134.6497039362913
 30
0.0
 11
673.00353053152128
 21
134.645703936291
 31
0.0
  0
LINE
  5
8D58
  8
AM_0
 10
673.00353053152128
 20
134.645703936291
 30
0.0
 11
673.00153053152121
 21
134.64270393629121
 31
0.0
  0
LINE
  5
8D59
  8
AM_0
 10
673.00153053152121
 20
134.64270393629121
 30
0.0
 11
672.99853053152106
 21
134.63870393629099
 31
0.0
  0
LINE
  5
8D5A
  8
AM_0
 10
672.99853053152106
 20
134.63870393629099
 30
0.0
 11
672.99553053152113
 21
134.63570393629101
 31
0.0
  0
LINE
  5
8D5B
  8
AM_0
 10
672.99553053152113
 20
134.63570393629101
 30
0.0
 11
672.99353053152015
 21
134.63270393629131
 31
0.0
  0
LINE
  5
8D5C
  8
AM_0
 10
672.99353053152015
 20
134.63270393629131
 30
0.0
 11
672.99053053152124
 21
134.628703936291
 31
0.0
  0
LINE
  5
8D5D
  8
AM_0
 10
672.99053053152124
 20
134.628703936291
 30
0.0
 11
672.98853053152015
 21
134.62570393629099
 31
0.0
  0
LINE
  5
8D5E
  8
AM_0
 10
672.98853053152015
 20
134.62570393629099
 30
0.0
 11
672.98553053152114
 21
134.6217039362912
 31
0.0
  0
LINE
  5
8D5F
  8
AM_0
 10
672.98553053152114
 20
134.6217039362912
 30
0.0
 11
672.98353053152096
 21
134.61870393629101
 31
0.0
  0
LINE
  5
8D60
  8
AM_0
 10
672.98353053152096
 20
134.61870393629101
 30
0.0
 11
672.98053053152125
 21
134.61470393629119
 31
0.0
  0
LINE
  5
8D61
  8
AM_0
 10
672.98053053152125
 20
134.61470393629119
 30
0.0
 11
672.97853053152096
 21
134.61170393629121
 31
0.0
  0
LINE
  5
8D62
  8
AM_0
 10
672.97853053152096
 20
134.61170393629121
 30
0.0
 11
672.97653053152112
 21
134.60770393629099
 31
0.0
  0
LINE
  5
8D63
  8
AM_0
 10
672.97653053152112
 20
134.60770393629099
 30
0.0
 11
672.97353053152119
 21
134.6047039362912
 31
0.0
  0
LINE
  5
8D64
  8
AM_0
 10
672.97353053152119
 20
134.6047039362912
 30
0.0
 11
672.97153053152124
 21
134.6007039362913
 31
0.0
  0
LINE
  5
8D65
  8
AM_0
 10
672.97153053152124
 20
134.6007039362913
 30
0.0
 11
672.96853053152006
 21
134.597703936291
 31
0.0
  0
LINE
  5
8D66
  8
AM_0
 10
672.96853053152006
 20
134.597703936291
 30
0.0
 11
672.96653053152113
 21
134.59370393629121
 31
0.0
  0
LINE
  5
8D67
  8
AM_0
 10
672.96653053152113
 20
134.59370393629121
 30
0.0
 11
672.96453053152095
 21
134.58970393629099
 31
0.0
  0
LINE
  5
8D68
  8
AM_0
 10
672.96453053152095
 20
134.58970393629099
 30
0.0
 11
672.96153053152125
 21
134.58670393629129
 31
0.0
  0
LINE
  5
8D69
  8
AM_0
 10
672.96153053152125
 20
134.58670393629129
 30
0.0
 11
672.95953053152004
 21
134.5827039362913
 31
0.0
  0
LINE
  5
8D6A
  8
AM_0
 10
672.95953053152004
 20
134.5827039362913
 30
0.0
 11
672.957530531521
 21
134.5797039362912
 31
0.0
  0
LINE
  5
8D6B
  8
AM_0
 10
672.957530531521
 20
134.5797039362912
 30
0.0
 11
672.95453053152119
 21
134.57570393629101
 31
0.0
  0
LINE
  5
8D6C
  8
AM_0
 10
672.95453053152119
 20
134.57570393629101
 30
0.0
 11
672.95253053152123
 21
134.57170393629221
 31
0.0
  0
LINE
  5
8D6D
  8
AM_0
 10
672.95253053152123
 20
134.57170393629221
 30
0.0
 11
672.95053053152117
 21
134.568703936291
 31
0.0
  0
LINE
  5
8D6E
  8
AM_0
 10
672.95053053152117
 20
134.568703936291
 30
0.0
 11
672.94853053152008
 21
134.56470393629121
 31
0.0
  0
LINE
  5
8D6F
  8
AM_0
 10
672.94853053152008
 20
134.56470393629121
 30
0.0
 11
672.94553053152094
 21
134.56070393629099
 31
0.0
  0
LINE
  5
8D70
  8
AM_0
 10
672.94553053152094
 20
134.56070393629099
 30
0.0
 11
672.94353053152122
 21
134.55770393629101
 31
0.0
  0
LINE
  5
8D71
  8
AM_0
 10
672.94353053152122
 20
134.55770393629101
 30
0.0
 11
672.94153053152115
 21
134.55370393629121
 31
0.0
  0
LINE
  5
8D72
  8
AM_0
 10
672.94153053152115
 20
134.55370393629121
 30
0.0
 11
672.93953053152086
 21
134.549703936291
 31
0.0
  0
LINE
  5
8D73
  8
AM_0
 10
672.93953053152086
 20
134.549703936291
 30
0.0
 11
672.93753053152011
 21
134.54670393629121
 31
0.0
  0
LINE
  5
8D74
  8
AM_0
 10
672.93753053152011
 20
134.54670393629121
 30
0.0
 11
672.93553053152118
 21
134.54270393629099
 31
0.0
  0
LINE
  5
8D75
  8
AM_0
 10
672.93553053152118
 20
134.54270393629099
 30
0.0
 11
672.93353053152123
 21
134.538703936291
 31
0.0
  0
LINE
  5
8D76
  8
AM_0
 10
672.93353053152123
 20
134.538703936291
 30
0.0
 11
672.93053053152005
 21
134.53570393629121
 31
0.0
  0
LINE
  5
8D77
  8
AM_0
 10
672.93053053152005
 20
134.53570393629121
 30
0.0
 11
672.92853053152112
 21
134.531703936291
 31
0.0
  0
LINE
  5
8D78
  8
AM_0
 10
672.92853053152112
 20
134.531703936291
 30
0.0
 11
672.92653053152117
 21
134.5277039362912
 31
0.0
  0
LINE
  5
8D79
  8
AM_0
 10
672.92653053152117
 20
134.5277039362912
 30
0.0
 11
672.9245305315211
 21
134.52370393629121
 31
0.0
  0
LINE
  5
8D7A
  8
AM_0
 10
672.9245305315211
 20
134.52370393629121
 30
0.0
 11
672.92253053152115
 21
134.520703936291
 31
0.0
  0
LINE
  5
8D7B
  8
AM_0
 10
672.92253053152115
 20
134.520703936291
 30
0.0
 11
672.92053053152085
 21
134.51670393629121
 31
0.0
  0
LINE
  5
8D7C
  8
AM_0
 10
672.92053053152085
 20
134.51670393629121
 30
0.0
 11
672.91853053151999
 21
134.51270393629099
 31
0.0
  0
LINE
  5
8D7D
  8
AM_0
 10
672.91853053151999
 20
134.51270393629099
 30
0.0
 11
672.91653053152118
 21
134.5087039362912
 31
0.0
  0
LINE
  5
8D7E
  8
AM_0
 10
672.91653053152118
 20
134.5087039362912
 30
0.0
 11
672.91453053152122
 21
134.50470393629121
 31
0.0
  0
LINE
  5
8D7F
  8
AM_0
 10
672.91453053152122
 20
134.50470393629121
 30
0.0
 11
672.91353053152125
 21
134.50170393629099
 31
0.0
  0
LINE
  5
8D80
  8
AM_0
 10
672.91353053152125
 20
134.50170393629099
 30
0.0
 11
672.91153053152016
 21
134.4977039362912
 31
0.0
  0
LINE
  5
8D81
  8
AM_0
 10
672.91153053152016
 20
134.4977039362912
 30
0.0
 11
672.90953053152111
 21
134.49370393629101
 31
0.0
  0
LINE
  5
8D82
  8
AM_0
 10
672.90953053152111
 20
134.49370393629101
 30
0.0
 11
672.90753053152127
 21
134.48970393629099
 31
0.0
  0
LINE
  5
8D83
  8
AM_0
 10
672.90753053152127
 20
134.48970393629099
 30
0.0
 11
672.90553053152121
 21
134.48570393629129
 31
0.0
  0
LINE
  5
8D84
  8
AM_0
 10
672.90553053152121
 20
134.48570393629129
 30
0.0
 11
672.90353053152126
 21
134.48170393629101
 31
0.0
  0
LINE
  5
8D85
  8
AM_0
 10
672.90353053152126
 20
134.48170393629101
 30
0.0
 11
672.90253053152128
 21
134.47770393629199
 31
0.0
  0
LINE
  5
8D86
  8
AM_0
 10
672.90253053152128
 20
134.47770393629199
 30
0.0
 11
672.9005305315211
 21
134.47470393629101
 31
0.0
  0
LINE
  5
8D87
  8
AM_0
 10
672.9005305315211
 20
134.47470393629101
 30
0.0
 11
672.89853053152115
 21
134.47070393629099
 31
0.0
  0
LINE
  5
8D88
  8
AM_0
 10
672.89853053152115
 20
134.47070393629099
 30
0.0
 11
672.89653053152097
 21
134.46670393629131
 31
0.0
  0
LINE
  5
8D89
  8
AM_0
 10
672.89653053152097
 20
134.46670393629131
 30
0.0
 11
672.89553053152122
 21
134.46270393629101
 31
0.0
  0
LINE
  5
8D8A
  8
AM_0
 10
672.89553053152122
 20
134.46270393629101
 30
0.0
 11
672.89353053152126
 21
134.45870393629201
 31
0.0
  0
LINE
  5
8D8B
  8
AM_0
 10
672.89353053152126
 20
134.45870393629201
 30
0.0
 11
672.89153053152017
 21
134.454703936291
 31
0.0
  0
LINE
  5
8D8C
  8
AM_0
 10
672.89153053152017
 20
134.454703936291
 30
0.0
 11
672.89053053152111
 21
134.45070393629121
 31
0.0
  0
LINE
  5
8D8D
  8
AM_0
 10
672.89053053152111
 20
134.45070393629121
 30
0.0
 11
672.88853053152127
 21
134.44670393629221
 31
0.0
  0
LINE
  5
8D8E
  8
AM_0
 10
672.88853053152127
 20
134.44670393629221
 30
0.0
 11
672.8865305315212
 21
134.442703936291
 31
0.0
  0
LINE
  5
8D8F
  8
AM_0
 10
672.8865305315212
 20
134.442703936291
 30
0.0
 11
672.88553053152123
 21
134.438703936292
 31
0.0
  0
LINE
  5
8D90
  8
AM_0
 10
672.88553053152123
 20
134.438703936292
 30
0.0
 11
672.88353053152127
 21
134.43470393629099
 31
0.0
  0
LINE
  5
8D91
  8
AM_0
 10
672.88353053152127
 20
134.43470393629099
 30
0.0
 11
672.88253053152096
 21
134.43070393629131
 31
0.0
  0
LINE
  5
8D92
  8
AM_0
 10
672.88253053152096
 20
134.43070393629131
 30
0.0
 11
672.88053053152009
 21
134.42670393629101
 31
0.0
  0
LINE
  5
8D93
  8
AM_0
 10
672.88053053152009
 20
134.42670393629101
 30
0.0
 11
672.87953053152114
 21
134.42270393629121
 31
0.0
  0
LINE
  5
8D94
  8
AM_0
 10
672.87953053152114
 20
134.42270393629121
 30
0.0
 11
672.87753053152096
 21
134.41870393629131
 31
0.0
  0
LINE
  5
8D95
  8
AM_0
 10
672.87753053152096
 20
134.41870393629131
 30
0.0
 11
672.87653053152121
 21
134.414703936291
 31
0.0
  0
LINE
  5
8D96
  8
AM_0
 10
672.87653053152121
 20
134.414703936291
 30
0.0
 11
672.87553053152124
 21
134.4107039362913
 31
0.0
  0
LINE
  5
8D97
  8
AM_0
 10
672.87553053152124
 20
134.4107039362913
 30
0.0
 11
672.87353053152106
 21
134.406703936291
 31
0.0
  0
LINE
  5
8D98
  8
AM_0
 10
672.87353053152106
 20
134.406703936291
 30
0.0
 11
672.87253053152006
 21
134.40270393629129
 31
0.0
  0
LINE
  5
8D99
  8
AM_0
 10
672.87253053152006
 20
134.40270393629129
 30
0.0
 11
672.8715305315211
 21
134.3987039362913
 31
0.0
  0
LINE
  5
8D9A
  8
AM_0
 10
672.8715305315211
 20
134.3987039362913
 30
0.0
 11
672.86953053152126
 21
134.39470393629131
 31
0.0
  0
LINE
  5
8D9B
  8
AM_0
 10
672.86953053152126
 20
134.39470393629131
 30
0.0
 11
672.86853053152095
 21
134.390703936292
 31
0.0
  0
LINE
  5
8D9C
  8
AM_0
 10
672.86853053152095
 20
134.390703936292
 30
0.0
 11
672.8675305315212
 21
134.38670393629101
 31
0.0
  0
LINE
  5
8D9D
  8
AM_0
 10
672.8675305315212
 20
134.38670393629101
 30
0.0
 11
672.86653053152043
 21
134.38170393629201
 31
0.0
  0
LINE
  5
8D9E
  8
AM_0
 10
672.86653053152043
 20
134.38170393629201
 30
0.0
 11
672.86553053152124
 21
134.377703936291
 31
0.0
  0
LINE
  5
8D9F
  8
AM_0
 10
672.86553053152124
 20
134.377703936291
 30
0.0
 11
672.86353053152095
 21
134.37370393629101
 31
0.0
  0
LINE
  5
8DA0
  8
AM_0
 10
672.86353053152095
 20
134.37370393629101
 30
0.0
 11
672.86253053152086
 21
134.3697039362923
 31
0.0
  0
LINE
  5
8DA1
  8
AM_0
 10
672.86253053152086
 20
134.3697039362923
 30
0.0
 11
672.8615305315202
 21
134.365703936291
 31
0.0
  0
LINE
  5
8DA2
  8
AM_0
 10
672.8615305315202
 20
134.365703936291
 30
0.0
 11
672.86053053152114
 21
134.36170393629121
 31
0.0
  0
LINE
  5
8DA3
  8
AM_0
 10
672.86053053152114
 20
134.36170393629121
 30
0.0
 11
672.85953053152105
 21
134.35770393629099
 31
0.0
  0
LINE
  5
8DA4
  8
AM_0
 10
672.85953053152105
 20
134.35770393629099
 30
0.0
 11
672.85853053152118
 21
134.35370393629131
 31
0.0
  0
LINE
  5
8DA5
  8
AM_0
 10
672.85853053152118
 20
134.35370393629131
 30
0.0
 11
672.85753053152121
 21
134.348703936291
 31
0.0
  0
LINE
  5
8DA6
  8
AM_0
 10
672.85753053152121
 20
134.348703936291
 30
0.0
 11
672.85653053152123
 21
134.34470393629221
 31
0.0
  0
LINE
  5
8DA7
  8
AM_0
 10
672.85653053152123
 20
134.34470393629221
 30
0.0
 11
672.85553053152125
 21
134.34070393629099
 31
0.0
  0
LINE
  5
8DA8
  8
AM_0
 10
672.85553053152125
 20
134.34070393629099
 30
0.0
 11
672.85453053152116
 21
134.336703936292
 31
0.0
  0
LINE
  5
8DA9
  8
AM_0
 10
672.85453053152116
 20
134.336703936292
 30
0.0
 11
672.85353053152005
 21
134.33270393629229
 31
0.0
  0
LINE
  5
8DAA
  8
AM_0
 10
672.85353053152005
 20
134.33270393629229
 30
0.0
 11
672.85253053152087
 21
134.32870393629099
 31
0.0
  0
LINE
  5
8DAB
  8
AM_0
 10
672.85253053152087
 20
134.32870393629099
 30
0.0
 11
672.85253053152087
 21
134.3237039362912
 31
0.0
  0
LINE
  5
8DAC
  8
AM_0
 10
672.85253053152087
 20
134.3237039362912
 30
0.0
 11
672.85153053152112
 21
134.31970393629101
 31
0.0
  0
LINE
  5
8DAD
  8
AM_0
 10
672.85153053152112
 20
134.31970393629101
 30
0.0
 11
672.85053053152114
 21
134.3157039362913
 31
0.0
  0
LINE
  5
8DAE
  8
AM_0
 10
672.85053053152114
 20
134.3157039362913
 30
0.0
 11
672.84953053152094
 21
134.31170393629091
 31
0.0
  0
LINE
  5
8DAF
  8
AM_0
 10
672.84953053152094
 20
134.31170393629091
 30
0.0
 11
672.84853053152028
 21
134.3077039362912
 31
0.0
  0
LINE
  5
8DB0
  8
AM_0
 10
672.84853053152028
 20
134.3077039362912
 30
0.0
 11
672.84853053152028
 21
134.30270393629121
 31
0.0
  0
LINE
  5
8DB1
  8
AM_0
 10
672.84853053152028
 20
134.30270393629121
 30
0.0
 11
672.84753053152008
 21
134.2987039362919
 31
0.0
  0
LINE
  5
8DB2
  8
AM_0
 10
672.84753053152008
 20
134.2987039362919
 30
0.0
 11
672.84653053152124
 21
134.2947039362912
 31
0.0
  0
LINE
  5
8DB3
  8
AM_0
 10
672.84653053152124
 20
134.2947039362912
 30
0.0
 11
672.84653053152124
 21
134.29070393629121
 31
0.0
  0
LINE
  5
8DB4
  8
AM_0
 10
672.84653053152124
 20
134.29070393629121
 30
0.0
 11
672.84553053152115
 21
134.2857039362913
 31
0.0
  0
LINE
  5
8DB5
  8
AM_0
 10
672.84553053152115
 20
134.2857039362913
 30
0.0
 11
672.84453053152095
 21
134.28170393629119
 31
0.0
  0
LINE
  5
8DB6
  8
AM_0
 10
672.84453053152095
 20
134.28170393629119
 30
0.0
 11
672.84453053152095
 21
134.277703936291
 31
0.0
  0
LINE
  5
8DB7
  8
AM_0
 10
672.84453053152095
 20
134.277703936291
 30
0.0
 11
672.84353053152086
 21
134.2737039362913
 31
0.0
  0
LINE
  5
8DB8
  8
AM_0
 10
672.84353053152086
 20
134.2737039362913
 30
0.0
 11
672.84353053152086
 21
134.26870393629099
 31
0.0
  0
LINE
  5
8DB9
  8
AM_0
 10
672.84353053152086
 20
134.26870393629099
 30
0.0
 11
672.84253053152099
 21
134.26470393629131
 31
0.0
  0
LINE
  5
8DBA
  8
AM_0
 10
672.84253053152099
 20
134.26470393629131
 30
0.0
 11
672.84253053152099
 21
134.2607039362918
 31
0.0
  0
LINE
  5
8DBB
  8
AM_0
 10
672.84253053152099
 20
134.2607039362918
 30
0.0
 11
672.84153053152113
 21
134.25670393629119
 31
0.0
  0
LINE
  5
8DBC
  8
AM_0
 10
672.84153053152113
 20
134.25670393629119
 30
0.0
 11
672.84153053152113
 21
134.25170393629099
 31
0.0
  0
LINE
  5
8DBD
  8
AM_0
 10
672.84153053152113
 20
134.25170393629099
 30
0.0
 11
672.84153053152113
 21
134.24770393629109
 31
0.0
  0
LINE
  5
8DBE
  8
AM_0
 10
672.84153053152113
 20
134.24770393629109
 30
0.0
 11
672.84053053152115
 21
134.24370393629101
 31
0.0
  0
LINE
  5
8DBF
  8
AM_0
 10
672.84053053152115
 20
134.24370393629101
 30
0.0
 11
672.84053053152115
 21
134.23970393629119
 31
0.0
  0
LINE
  5
8DC0
  8
AM_0
 10
672.84053053152115
 20
134.23970393629119
 30
0.0
 11
672.84053053152115
 21
134.234703936291
 31
0.0
  0
LINE
  5
8DC1
  8
AM_0
 10
672.84053053152115
 20
134.234703936291
 30
0.0
 11
672.84053053152115
 21
134.23070393629101
 31
0.0
  0
LINE
  5
8DC2
  8
AM_0
 10
672.84053053152115
 20
134.23070393629101
 30
0.0
 11
672.83953053152118
 21
134.2267039362913
 31
0.0
  0
LINE
  5
8DC3
  8
AM_0
 10
672.83953053152118
 20
134.2267039362913
 30
0.0
 11
672.83953053152118
 21
134.222703936291
 31
0.0
  0
LINE
  5
8DC4
  8
AM_0
 10
672.83953053152118
 20
134.222703936291
 30
0.0
 11
672.83953053152118
 21
134.2177039362912
 31
0.0
  0
LINE
  5
8DC5
  8
AM_0
 10
672.83953053152118
 20
134.2177039362912
 30
0.0
 11
672.83953053152118
 21
134.21370393629121
 31
0.0
  0
LINE
  5
8DC6
  8
AM_0
 10
672.83953053152118
 20
134.21370393629121
 30
0.0
 11
672.83953053152118
 21
134.20970393629099
 31
0.0
  0
LINE
  5
8DC7
  8
AM_0
 10
672.83953053152118
 20
134.20970393629099
 30
0.0
 11
672.83953053152118
 21
134.204703936291
 31
0.0
  0
LINE
  5
8DC8
  8
AM_0
 10
672.83953053152118
 20
134.204703936291
 30
0.0
 11
672.83953053152118
 21
134.20070393629101
 31
0.0
  0
LINE
  5
8DC9
  8
AM_0
 10
672.83953053152118
 20
134.20070393629101
 30
0.0
 11
672.83953053152118
 21
134.1967039362913
 31
0.0
  0
LINE
  5
8DCA
  8
AM_0
 10
672.83953053152118
 20
134.1967039362913
 30
0.0
 11
672.83953053152118
 21
134.19270393629131
 31
0.0
  0
LINE
  5
8DCB
  8
AM_0
 10
672.83953053152118
 20
134.19270393629131
 30
0.0
 11
672.83953053152118
 21
134.18770393629131
 31
0.0
  0
LINE
  5
8DCC
  8
AM_0
 10
672.83953053152118
 20
134.18770393629131
 30
0.0
 11
672.84053053152115
 21
134.18370393629101
 31
0.0
  0
LINE
  5
8DCD
  8
AM_0
 10
672.84053053152115
 20
134.18370393629101
 30
0.0
 11
672.84053053152115
 21
134.17970393629119
 31
0.0
  0
LINE
  5
8DCE
  8
AM_0
 10
672.84053053152115
 20
134.17970393629119
 30
0.0
 11
672.84053053152115
 21
134.175703936291
 31
0.0
  0
LINE
  5
8DCF
  8
AM_0
 10
672.84053053152115
 20
134.175703936291
 30
0.0
 11
672.84053053152115
 21
134.1707039362912
 31
0.0
  0
LINE
  5
8DD0
  8
AM_0
 10
672.84053053152115
 20
134.1707039362912
 30
0.0
 11
672.84153053152113
 21
134.16670393629099
 31
0.0
  0
LINE
  5
8DD1
  8
AM_0
 10
672.84153053152113
 20
134.16670393629099
 30
0.0
 11
672.84153053152113
 21
134.162703936291
 31
0.0
  0
LINE
  5
8DD2
  8
AM_0
 10
672.84153053152113
 20
134.162703936291
 30
0.0
 11
672.84153053152113
 21
134.1587039362922
 31
0.0
  0
LINE
  5
8DD3
  8
AM_0
 10
672.84153053152113
 20
134.1587039362922
 30
0.0
 11
672.84253053152099
 21
134.15370393629101
 31
0.0
  0
LINE
  5
8DD4
  8
AM_0
 10
672.84253053152099
 20
134.15370393629101
 30
0.0
 11
672.84253053152099
 21
134.1497039362913
 31
0.0
  0
LINE
  5
8DD5
  8
AM_0
 10
672.84253053152099
 20
134.1497039362913
 30
0.0
 11
672.84253053152099
 21
134.145703936291
 31
0.0
  0
LINE
  5
8DD6
  8
AM_0
 10
672.84253053152099
 20
134.145703936291
 30
0.0
 11
672.84353053152086
 21
134.14170393629121
 31
0.0
  0
LINE
  5
8DD7
  8
AM_0
 10
672.84353053152086
 20
134.14170393629121
 30
0.0
 11
672.84353053152086
 21
134.13670393629101
 31
0.0
  0
LINE
  5
8DD8
  8
AM_0
 10
672.84353053152086
 20
134.13670393629101
 30
0.0
 11
672.84453053152095
 21
134.13270393629131
 31
0.0
  0
LINE
  5
8DD9
  8
AM_0
 10
672.84453053152095
 20
134.13270393629131
 30
0.0
 11
672.84453053152095
 21
134.128703936291
 31
0.0
  0
LINE
  5
8DDA
  8
AM_0
 10
672.84453053152095
 20
134.128703936291
 30
0.0
 11
672.84553053152115
 21
134.12470393629121
 31
0.0
  0
LINE
  5
8DDB
  8
AM_0
 10
672.84553053152115
 20
134.12470393629121
 30
0.0
 11
672.84553053152115
 21
134.11970393629119
 31
0.0
  0
LINE
  5
8DDC
  8
AM_0
 10
672.84553053152115
 20
134.11970393629119
 30
0.0
 11
672.84653053152124
 21
134.115703936291
 31
0.0
  0
LINE
  5
8DDD
  8
AM_0
 10
672.84653053152124
 20
134.115703936291
 30
0.0
 11
672.84653053152124
 21
134.11170393629121
 31
0.0
  0
LINE
  5
8DDE
  8
AM_0
 10
672.84653053152124
 20
134.11170393629121
 30
0.0
 11
672.84753053152008
 21
134.10770393629099
 31
0.0
  0
LINE
  5
8DDF
  8
AM_0
 10
672.84753053152008
 20
134.10770393629099
 30
0.0
 11
672.84753053152008
 21
134.10270393629321
 31
0.0
  0
LINE
  5
8DE0
  8
AM_0
 10
672.84753053152008
 20
134.10270393629321
 30
0.0
 11
672.84853053152028
 21
134.09870393629109
 31
0.0
  0
LINE
  5
8DE1
  8
AM_0
 10
672.84853053152028
 20
134.09870393629109
 30
0.0
 11
672.84853053152028
 21
134.09470393629101
 31
0.0
  0
LINE
  5
8DE2
  8
AM_0
 10
672.84853053152028
 20
134.09470393629101
 30
0.0
 11
672.84953053152094
 21
134.09070393629091
 31
0.0
  0
ARC
  5
8DFA
  8
AM_0
 10
343.63367150362018
 20
214.33471124591921
 30
0.0
 40
25.85789041733554
 50
312.21089051902129
 51
321.08945805694691
  0
ARC
  5
8DFB
  8
AM_0
 10
346.54089520043709
 20
211.99390495105209
 30
0.0
 40
22.125424876882569
 50
321.07754759117552
 51
331.45391671483719
  0
ARC
  5
8DFC
  8
AM_0
 10
349.07370651659312
 20
210.61344272156131
 30
0.0
 40
19.2408446571912
 50
331.46076761201527
 51
343.40674827562998
  0
ARC
  5
8DFD
  8
AM_0
 10
350.72184475559101
 20
210.1090078099721
 30
0.0
 40
17.517291529193649
 50
343.44848528993521
 51
356.55870836699859
  0
ARC
  5
8DFE
  8
AM_0
 10
351.07841512633621
 20
210.06716903129811
 30
0.0
 40
17.15886479053443
 50
356.62669294400291
 51
9.9963189987344272
  0
ARC
  5
8DFF
  8
AM_0
 10
350.04856764274308
 20
209.8670183613321
 30
0.0
 40
18.207830442195551
 50
10.05405015305527
 51
22.656785666998552
  0
ARC
  5
8E00
  8
AM_0
 10
347.90421337127492
 20
208.96288982284821
 30
0.0
 40
20.534983670006788
 50
22.680024752600659
 51
33.850304960573332
  0
ARC
  5
8E01
  8
AM_0
 10
345.12822138449508
 20
207.10306855586001
 30
0.0
 40
23.87640015132844
 50
33.846169579265251
 51
43.453442286755369
  0
ARC
  5
8E02
  8
AM_0
 10
342.20552636948838
 20
204.34497223233319
 30
0.0
 40
27.89500533460993
 50
43.43714879314637
 51
51.663181670083638
  0
ARC
  5
8E03
  8
AM_0
 10
339.50117351300509
 20
200.9411526854372
 30
0.0
 40
32.242352461327371
 50
51.645584353596497
 51
58.76245873012445
  0
ARC
  5
8E04
  8
AM_0
 10
337.23922721503408
 20
197.22990469911699
 30
0.0
 40
36.588578937404229
 50
58.747717529970501
 51
65.021611973048749
  0
ARC
  5
8E05
  8
AM_0
 10
335.51706030378517
 20
193.55417634418421
 30
0.0
 40
40.647737258718031
 50
65.00904641567719
 51
70.65667209670093
  0
ARC
  5
8E06
  8
AM_0
 10
334.34035862218911
 20
190.22446621242031
 30
0.0
 40
44.179244902427953
 50
70.647095224839788
 51
75.843518924530912
  0
ARC
  5
8E07
  8
AM_0
 10
333.64597296979088
 20
187.4986282646941
 30
0.0
 40
46.992129993390719
 50
75.835426327069783
 51
80.721214356470782
  0
ARC
  5
8E08
  8
AM_0
 10
333.3251857395432
 20
185.57109377200521
 30
0.0
 40
48.946167199002247
 50
80.714428137412867
 51
85.405397506332335
  0
ARC
  5
8E09
  8
AM_0
 10
333.24026143226109
 20
184.57376474486401
 30
0.0
 40
49.947094329067063
 50
85.399936789399334
 51
90.003259953196164
  0
ARC
  5
8E0A
  8
AM_0
 10
360.07391410840518
 20
202.9099284503101
 30
0.0
 40
11.531222401860671
 50
54.962820564622973
 51
65.57420963003446
  0
ARC
  5
8E0B
  8
AM_0
 10
355.56462185313518
 20
193.29849181174211
 30
0.0
 40
22.147458268887689
 50
65.23470538810362
 51
70.760007162400697
  0
ARC
  5
8E0C
  8
AM_0
 10
351.43695579488502
 20
181.6475423895468
 30
0.0
 40
34.507883132997812
 50
70.663981385009379
 51
74.211959770620226
  0
ARC
  5
8E0D
  8
AM_0
 10
347.78687993709121
 20
168.85162751227421
 30
0.0
 40
47.81419003980924
 50
74.174966634687323
 51
76.735006781294203
  0
ARC
  5
8E0E
  8
AM_0
 10
344.62749576542922
 20
155.53256908238521
 30
0.0
 40
61.502825699570948
 50
76.717340398570911
 51
78.70778783271831
  0
ARC
  5
8E0F
  8
AM_0
 10
341.94460009953508
 20
142.156705554724
 30
0.0
 40
75.145096055087521
 50
78.69879662259261
 51
80.328558278506947
  0
ARC
  5
8E10
  8
AM_0
 10
339.70774041253412
 20
129.08523408607019
 30
0.0
 40
88.406575514028148
 50
80.322669543354991
 51
81.708932295576062
  0
ARC
  5
8E11
  8
AM_0
 10
337.88595304796621
 20
116.6237991231631
 30
0.0
 40
101.00047249860189
 50
81.705651400200296
 51
82.917716157934109
  0
ARC
  5
8E12
  8
AM_0
 10
336.4390178056392
 20
105.0143229870981
 30
0.0
 40
112.699769038466
 50
82.915423741023986
 51
84.002909642452977
  0
ARC
  5
8E13
  8
AM_0
 10
335.32534067732831
 20
94.452283412708326
 30
0.0
 40
123.3203594877034
 50
84.001013169500013
 51
84.995083645089466
  0
ARC
  5
8E14
  8
AM_0
 10
334.50343148174721
 20
85.113056227319305
 30
0.0
 40
132.69568263964251
 50
84.993352264650142
 51
85.91717004022243
  0
ARC
  5
8E15
  8
AM_0
 10
333.93313923770211
 20
77.130684505954306
 30
0.0
 40
140.69840038392519
 50
85.916961635589473
 51
86.788247894102696
  0
ARC
  5
8E16
  8
AM_0
 10
333.56398075416507
 20
70.614674906986011
 30
0.0
 40
147.2248578687163
 50
86.78688160676937
 51
87.619572265728181
  0
ARC
  5
8E17
  8
AM_0
 10
333.3583567150431
 20
65.65123975219106
 30
0.0
 40
152.19255042145519
 50
87.619838223718489
 51
88.425365873581256
  0
ARC
  5
8E18
  8
AM_0
 10
333.26291690018411
 20
62.302519691276181
 30
0.0
 40
155.54262856977761
 50
88.424119343891164
 51
89.212293939127534
  0
ARC
  5
8E19
  8
AM_0
 10
333.23798998067241
 20
60.607397296085999
 30
0.0
 40
157.23793346501529
 50
89.211703393381867
 51
89.991407846378479
  0
LINE
  5
8E38
  8
AM_0
 10
28.73744959659598
 20
80.065545423823991
 30
0.0
 11
28.73744959659598
 21
146.265531423824
 31
0.0
  0
LINE
  5
8E39
  8
AM_0
 10
31.237439596595902
 20
87.755550423824161
 30
0.0
 11
31.237439596595902
 21
168.73557642382519
 31
0.0
  0
LINE
  5
8E3A
  8
AM_0
 10
78.737459596595841
 20
168.73557642382519
 30
0.0
 11
78.737459596595841
 21
54.735558423824159
 31
0.0
  0
ARC
  5
8E3B
  8
AM_0
 10
22.447829596595959
 20
62.434503423824083
 30
0.0
 40
0.30119199
 50
5.9148298000018524
 51
88.175987000000191
  0
ARC
  5
8E3C
  8
AM_0
 10
22.449299596595889
 20
62.433207423824157
 30
0.0
 40
0.8023920299999998
 50
5.8908350000000436
 51
89.417558000000113
  0
LINE
  5
8E3D
  8
AM_0
 10
22.23743959659577
 20
63.235545423825158
 30
0.0
 11
22.23743959659577
 21
62.73555942382518
 31
0.0
  0
LINE
  5
8E3E
  8
AM_0
 10
22.23743959659577
 20
63.235545423825158
 30
0.0
 11
22.457489596595678
 21
63.235545423825158
 31
0.0
  0
LINE
  5
8E3F
  8
AM_0
 10
37.81745959659542
 20
108.0155584238242
 30
0.0
 11
23.357459596595501
 21
63.50554842382553
 31
0.0
  0
LINE
  5
8E40
  8
AM_0
 10
42.577409596595771
 20
106.4755504238241
 30
0.0
 11
28.117469596596042
 21
61.965555423824121
 31
0.0
  0
LINE
  5
8E41
  8
AM_0
 10
31.237439596595902
 20
67.845546423824203
 30
0.0
 11
78.737459596595841
 21
67.845546423824203
 31
0.0
  0
LINE
  5
8E42
  8
AM_0
 10
30.737459596595951
 20
54.735558423824159
 30
0.0
 11
78.737459596595841
 21
54.735558423824159
 31
0.0
  0
ARC
  5
8E43
  8
AM_0
 10
25.73744959659598
 20
62.73555942382518
 30
0.0
 40
2.5014601500000002
 50
162.072079999999
 51
342.07206999999772
  0
LINE
  5
8E44
  8
AM_0
 10
28.73744959659598
 20
63.88555242382516
 30
0.0
 11
28.73744959659598
 21
56.735559423824157
 31
0.0
  0
ARC
  5
8E45
  8
AM_0
 10
25.736399596596129
 20
62.734017423824127
 30
0.0
 40
3.001016099999998
 50
185.13259999999761
 51
0.0291460009999036
  0
ARC
  5
8E46
  8
AM_0
 10
30.73517959659614
 20
56.73324042382422
 30
0.0
 40
1.9976960999999991
 50
179.9338299999965
 51
270.06616999999687
  0
ARC
  5
8E47
  8
AM_0
 10
28.786169596595641
 20
74.235468423824159
 30
0.0
 40
4.0507442999999981
 50
99.071790999998854
 51
224.9123400000025
  0
LINE
  5
8E48
  8
AM_0
 10
31.237439596595902
 20
71.575542423824189
 30
0.0
 11
31.237439596595902
 21
54.735558423824159
 31
0.0
  0
LINE
  5
8E49
  8
AM_0
 10
73.73744959659598
 20
67.845546423824203
 30
0.0
 11
73.737449596595738
 21
54.735558423824159
 31
0.0
  0
ARC
  5
8E4A
  8
AM_0
 10
61.73696959659604
 20
111.73534842382411
 30
0.0
 40
8.000195699999999
 50
89.996300999997729
 51
161.78903000000221
  0
ARC
  5
8E4B
  8
AM_0
 10
61.735019596596103
 20
111.7331194238252
 30
0.0
 40
7.9975721999999978
 50
198.1973499999981
 51
270.0173099999991
  0
LINE
  5
8E4C
  8
AM_0
 10
46.387409596595489
 20
114.2355304238241
 30
0.0
 11
56.23745959659594
 21
114.2355304238241
 31
0.0
  0
LINE
  5
8E4D
  8
AM_0
 10
46.387409596595489
 20
109.23556242382421
 30
0.0
 11
56.23745959659594
 21
109.23556242382421
 31
0.0
  0
ARC
  5
8E4E
  8
AM_0
 10
46.385219596595782
 20
105.23846142382411
 30
0.0
 40
8.9970875999999986
 50
89.985774999998554
 51
162.02120000000269
  0
ARC
  5
8E4F
  8
AM_0
 10
46.380689596595737
 20
105.2351644238241
 30
0.0
 40
4.0003919999999971
 50
89.903054999997906
 51
161.93679000000009
  0
LINE
  5
8E50
  8
ﾁｭｳｼﾝｾﾝ
 10
61.737449596595958
 20
102.01595627025939
 30
0.0
 11
61.737449596595958
 21
121.43595227025941
 31
0.0
  0
LINE
  5
8E51
  8
AM_0
 10
61.737449596595972
 20
103.7355304238241
 30
0.0
 11
78.737459596595841
 21
103.7355304238241
 31
0.0
  0
LINE
  5
8E52
  8
AM_0
 10
61.737449596595972
 20
119.73556242382421
 30
0.0
 11
78.737459596595841
 21
119.73556242382421
 31
0.0
  0
ARC
  5
8E53
  8
AM_0
 10
61.737449596595972
 20
111.7335484238241
 30
0.0
 40
4.998440399999998
 50
23.610999000002401
 51
156.3889999999995
  0
ARC
  5
8E54
  8
AM_0
 10
61.737449596595972
 20
111.7335484238241
 30
0.0
 40
4.9968401999999967
 50
203.56897999999919
 51
336.43102000000079
  0
LINE
  5
8E55
  8
AM_0
 10
56.23745959659594
 20
113.73556242382421
 30
0.0
 11
67.237439596595664
 21
113.73556242382421
 31
0.0
  0
LINE
  5
8E56
  8
AM_0
 10
56.23745959659594
 20
109.7355304238241
 30
0.0
 11
67.237439596595664
 21
109.7355304238241
 31
0.0
  0
LINE
  5
8E57
  8
AM_0
 10
56.23745959659594
 20
109.23556242382421
 30
0.0
 11
56.23745959659594
 21
114.2355304238241
 31
0.0
  0
LINE
  5
8E58
  8
AM_0
 10
69.737459596595954
 20
109.23556242382421
 30
0.0
 11
69.737459596595954
 21
114.2355304238241
 31
0.0
  0
LINE
  5
8E59
  8
AM_0
 10
67.237439596595664
 20
109.23556242382421
 30
0.0
 11
67.237439596595664
 21
114.2355304238241
 31
0.0
  0
LINE
  5
8E5A
  8
AM_0
 10
67.237439596595664
 20
114.2355304238241
 30
0.0
 11
69.737459596595954
 21
114.2355304238241
 31
0.0
  0
LINE
  5
8E5B
  8
AM_0
 10
67.237439596595664
 20
109.23556242382421
 30
0.0
 11
69.737459596595954
 21
109.23556242382421
 31
0.0
  0
LINE
  5
8E5C
  8
AM_0
 10
31.237439596595902
 20
155.62554642382409
 30
0.0
 11
78.737459596595841
 21
155.62554642382409
 31
0.0
  0
LINE
  5
8E5D
  8
AM_0
 10
31.237439596595902
 20
145.37554542382401
 30
0.0
 11
73.73744959659598
 21
145.37554542382401
 31
0.0
  0
LINE
  5
8E5E
  8
AM_0
 10
30.737459596595951
 20
168.73557642382519
 30
0.0
 11
78.737459596595841
 21
168.73557642382519
 31
0.0
  0
LINE
  5
8E5F
  8
AM_0
 10
29.937449596596132
 20
146.02557042382401
 30
0.0
 11
29.937449596596132
 21
155.2255564238254
 31
0.0
  0
LINE
  5
8E60
  8
AM_0
 10
26.637479596595771
 20
149.125536423824
 30
0.0
 11
26.637479596595771
 21
152.1255364238242
 31
0.0
  0
LINE
  5
8E61
  8
AM_0
 10
29.937449596596132
 20
146.02557042382401
 30
0.0
 11
31.237439596595902
 21
146.02557042382401
 31
0.0
  0
ARC
  5
8E62
  8
AM_0
 10
29.633129596595939
 20
149.125716423824
 30
0.0
 40
2.9956880400000001
 50
180.0036399999974
 51
275.83037000000309
  0
LINE
  5
8E63
  8
AM_0
 10
28.73744959659598
 20
154.9955464238252
 30
0.0
 11
28.73744959659598
 21
166.7355364238241
 31
0.0
  0
LINE
  5
8E64
  8
AM_0
 10
29.937449596596132
 20
155.2255564238254
 30
0.0
 11
31.237439596595902
 21
155.2255564238254
 31
0.0
  0
ARC
  5
8E65
  8
AM_0
 10
29.639129596595922
 20
152.12874642382411
 30
0.0
 40
3.0016479
 50
84.295613000003087
 51
180.06134999999779
  0
ARC
  5
8E66
  8
AM_0
 10
30.73694959659576
 20
166.73604642382409
 30
0.0
 40
1.9994960399999999
 50
89.985542999997904
 51
180.0144599999999
  0
LINE
  5
8E67
  8
AM_0
 10
73.737449596595738
 20
119.73556242382421
 30
0.0
 11
73.73744959659598
 21
168.73557642382519
 31
0.0
  0
LINE
  5
8E68
  8
ﾁｭｳｼﾝｾﾝ
 10
671.52886188065975
 20
111.8202891332493
 30
0.0
 11
882.15029331253095
 21
111.8202891332493
 31
0.0
  0
ARC
  5
9139
  8
AM_0
 10
435.23743959659492
 20
541.24061607640408
 30
0.0
 40
4.0
 50
0.0
 51
88.499997000000747
  0
ARC
  5
913A
  8
AM_0
 10
442.23743959659492
 20
514.91078607640452
 30
0.0
 40
3.0
 50
179.99998999999889
 51
240.00000999999969
  0
ARC
  5
913B
  8
AM_0
 10
442.23743959659492
 20
445.36378607640449
 30
0.0
 40
3.0
 50
120.0000000000005
 51
180.00001000000091
  0
ARC
  5
913C
  8
AM_0
 10
435.23743959659492
 20
419.03388607640437
 30
0.0
 40
4.0
 50
271.49999999999937
 51
0.0
  0
ARC
  5
913D
  8
AM_0
 10
443.2374395965951
 20
541.19996607640473
 30
0.0
 40
4.0
 50
97.180758000000424
 51
180.00001000000091
  0
ARC
  5
913E
  8
AM_0
 10
443.2374395965951
 20
419.07450607640448
 30
0.0
 40
4.0
 50
180.00001000000091
 51
262.8192499999995
  0
LINE
  5
913F
  8
ﾁｭｳｼﾝｾﾝ
 10
415.23743959659481
 20
575.13722607640432
 30
0.0
 11
441.23743959659492
 21
575.13722607640432
 31
0.0
  0
LINE
  5
9140
  8
AM_0
 10
339.2374395965951
 20
595.13722607640432
 30
0.0
 11
442.37702959659509
 21
591.53553607640447
 31
0.0
  0
LINE
  5
9141
  8
AM_0
 10
339.23740959659511
 20
365.1372560764043
 30
0.0
 11
442.37702959659509
 21
368.73896607640432
 31
0.0
  0
LINE
  5
9142
  8
ﾁｭｳｼﾝｾﾝ
 10
13.982355577933269
 20
480.1372560764043
 30
0.0
 11
516.15024959659513
 21
480.1372560764043
 31
0.0
  0
LINE
  5
92D8
  8
AM_0
 10
263.0401195965951
 20
469.36878607640438
 30
0.0
 11
263.0401195965951
 21
491.36927607640428
 31
0.0
  0
LINE
  5
92D9
  8
AM_0
 10
225.73737959659519
 20
470.13725607640453
 30
0.0
 11
225.73737959659519
 21
490.13722607640449
 31
0.0
  0
LINE
  5
92DA
  8
AM_0
 10
202.73737959659519
 20
423.6372560764043
 30
0.0
 11
202.73737959659519
 21
536.63722607640432
 31
0.0
  0
LINE
  5
92DB
  8
AM_0
 10
266.73737959659519
 20
410.8491960764045
 30
0.0
 11
266.73737959659519
 21
549.42524607640439
 31
0.0
  0
LINE
  5
92DC
  8
AM_0
 10
333.23737959659508
 20
380.63725607640441
 30
0.0
 11
333.23737959659508
 21
579.63722607640432
 31
0.0
  0
LINE
  5
92DD
  8
AM_0
 10
311.23737959659508
 20
389.2161460764043
 30
0.0
 11
311.23737959659508
 21
571.05836607640435
 31
0.0
  0
LINE
  5
92DE
  8
AM_0
 10
276.73743959659521
 20
406.6372560764043
 30
0.0
 11
276.73743959659521
 21
553.63722607640432
 31
0.0
  0
LINE
  5
92DF
  8
AM_0
 10
323.23737959659508
 20
415.06504607640449
 30
0.0
 11
323.23737959659508
 21
545.20948607640435
 31
0.0
  0
LINE
  5
92E0
  8
AM_0
 10
418.2374395965951
 20
410.93049607640449
 30
0.0
 11
418.2374395965951
 21
549.3440060764043
 31
0.0
  0
CIRCLE
  5
92E1
  8
AM_0
 10
303.23737959659508
 20
385.13725607640441
 30
0.0
 40
7.5
  0
LINE
  5
92E2
  8
AM_0
 10
266.73737959659519
 20
418.55860607640432
 30
0.0
 11
311.23737959659508
 21
418.55860607640432
 31
0.0
  0
LINE
  5
92E3
  8
AM_0
 10
266.73737959659519
 20
440.66258607640441
 30
0.0
 11
311.23737959659508
 21
440.66258607640441
 31
0.0
  0
LINE
  5
92E4
  8
AM_0
 10
270.59784959659521
 20
406.85163607640447
 30
0.0
 11
308.80726959659501
 21
405.51734607640418
 31
0.0
  0
LINE
  5
92E5
  8
AM_0
 10
288.88880959659508
 20
369.54219607640442
 30
0.0
 11
339.23740959659511
 21
365.1372560764043
 31
0.0
  0
LINE
  5
92E8
  8
AM_0
 10
285.23737959659508
 20
397.59870607640443
 30
0.0
 11
285.23737959659508
 21
373.52696607640428
 31
0.0
  0
ARC
  5
92EB
  8
AM_0
 10
289.23737959659519
 20
373.52696607640428
 30
0.0
 40
4.0
 50
180.00001000000091
 51
265.00001000000071
  0
POLYLINE
  5
92EC
  8
AM_0
 66
     1
 10
0.0
 20
0.0
 30
0.0
  0
VERTEX
  5
92ED
  8
AM_0
 10
241.41545959659501
 20
446.71847607640422
 30
0.0
 42
0.0058779435
  0
VERTEX
  5
92EE
  8
AM_0
 10
242.62507959659521
 20
444.71689607640428
 30
0.0
 42
0.0056588804
  0
VERTEX
  5
92EF
  8
AM_0
 10
243.8805495965953
 20
442.74374607640442
 30
0.0
 42
0.0054619297
  0
VERTEX
  5
92F0
  8
AM_0
 10
245.17958959659501
 20
440.79899607640442
 30
0.0
 42
0.0052861412
  0
VERTEX
  5
92F1
  8
AM_0
 10
246.5201195965949
 20
438.88259607640441
 30
0.0
  0
SEQEND
  5
92F2
  8
AM_0
  0
LINE
  5
92F3
  8
AM_0
 10
202.73737959659519
 20
434.1372560764043
 30
0.0
 11
244.08014959659499
 21
434.1372560764043
 31
0.0
  0
LINE
  5
92F4
  8
AM_0
 10
228.73737959659519
 20
467.1372560764043
 30
0.0
 11
260.04011959659482
 21
467.1372560764043
 31
0.0
  0
LINE
  5
92F5
  8
AM_0
 10
255.16877959659519
 20
421.80628607640438
 30
0.0
 11
202.7374395965951
 21
423.63722607640449
 31
0.0
  0
LINE
  5
9320
  8
AM_0
 10
202.73737959659519
 20
448.19731607640421
 30
0.0
 11
238.82978959659511
 21
448.19731607640421
 31
0.0
  0
POLYLINE
  5
9328
  8
AM_0
 66
     1
 10
0.0
 20
0.0
 30
0.0
  0
VERTEX
  5
9329
  8
AM_0
 10
229.70698959659489
 20
467.1375260764043
 30
0.0
  0
VERTEX
  5
932A
  8
AM_0
 10
237.134249596595
 20
448.19811607640429
 30
0.0
 42
-1.0
  0
SEQEND
  5
932B
  8
AM_0
  0
ARC
  5
932C
  8
AM_0
 10
238.82978959659511
 20
445.19731607640449
 30
0.0
 40
3.0
 50
30.468076999999091
 51
90.000003000000945
  0
ARC
  5
932D
  8
AM_0
 10
228.73737959659519
 20
470.13725607640453
 30
0.0
 40
3.0
 50
180.00001000000091
 51
270.0
  0
POLYLINE
  5
932E
  8
AM_0
 66
     1
 10
0.0
 20
0.0
 30
0.0
  0
VERTEX
  5
932F
  8
AM_0
 10
245.8571795965951
 20
434.71913607640431
 30
0.0
 42
0.011693549
  0
VERTEX
  5
9330
  8
AM_0
 10
249.420059596595
 20
430.2227660764043
 30
0.0
 42
0.011216814
  0
VERTEX
  5
9331
  8
AM_0
 10
253.1849395965952
 20
425.89400607640448
 30
0.0
 42
0.011000278
  0
VERTEX
  5
9332
  8
AM_0
 10
257.137039596595
 20
421.73756607640428
 30
0.0
  0
SEQEND
  5
9333
  8
AM_0
  0
ARC
  5
9334
  8
AM_0
 10
270.73737959659519
 20
410.8491960764045
 30
0.0
 40
4.0
 50
180.00001000000091
 51
267.9999999999996
  0
LINE
  5
9335
  8
AM_0
 10
265.31043959659502
 20
413.56422607640428
 30
0.0
 11
258.52979959659518
 21
420.34486607640451
 31
0.0
  0
ARC
  5
9336
  8
AM_0
 10
254.994219596595
 20
416.80934607640449
 30
0.0
 40
5.0
 50
44.999998000001611
 51
87.999999999999659
  0
ARC
  5
9337
  8
AM_0
 10
261.77485959659521
 20
410.02870607640432
 30
0.0
 40
5.0
 50
5.2307202000000732
 51
44.999998000001611
  0
LINE
  5
9338
  8
AM_0
 10
288.20215959659492
 20
401.46241607640451
 30
0.0
 11
303.9663195965951
 21
405.68638607640429
 31
0.0
  0
ARC
  5
9339
  8
AM_0
 10
289.23737959659519
 20
397.59870607640443
 30
0.0
 40
4.0
 50
105.00000000000161
 51
180.00001000000091
  0
ARC
  5
933A
  8
AM_0
 10
244.08014959659499
 20
437.13725607640453
 30
0.0
 40
3.0
 50
270.0
 51
35.575756999999612
  0
ARC
  5
933B
  8
AM_0
 10
260.04011959659482
 20
464.1372560764043
 30
0.0
 40
3.0
 50
0.0
 51
90.000003000000945
  0
ARC
  5
933C
  8
AM_0
 10
326.23737959659508
 20
383.88352607640422
 30
0.0
 40
3.0
 50
180.00001000000091
 51
267.9999999999996
  0
CIRCLE
  5
933D
  8
AM_0
 10
428.23743959659492
 20
385.13725607640441
 30
0.0
 40
7.5
  0
LINE
  5
933E
  8
AM_0
 10
398.237409596595
 20
375.48182607640427
 30
0.0
 11
398.237409596595
 21
390.92366607640452
 31
0.0
  0
LINE
  5
9340
  8
AM_0
 10
324.49891959659499
 20
372.44963607640449
 30
0.0
 11
332.88886959659487
 21
371.71559607640449
 31
0.0
  0
ARC
  5
9341
  8
AM_0
 10
324.23737959659508
 20
369.4610460764045
 30
0.0
 40
3.0
 50
85.000004000001198
 51
265.00000000000028
  0
ARC
  5
9342
  8
AM_0
 10
333.23737959659508
 20
375.7003960764045
 30
0.0
 40
4.0
 50
265.00001000000071
 51
0.0000006832462478
  0
LINE
  5
9343
  8
AM_0
 10
337.237409596595
 20
380.63725607640441
 30
0.0
 11
337.237409596595
 21
370.76875607640432
 31
0.0
  0
ARC
  5
9344
  8
AM_0
 10
332.23737959659508
 20
370.76875607640432
 30
0.0
 40
5.0
 50
265.00001000000071
 51
0.0000006832462478
  0
LINE
  5
9345
  8
AM_0
 10
326.13270959659508
 20
380.8853660764043
 30
0.0
 11
333.23737959659508
 21
380.63725607640441
 31
0.0
  0
LINE
  5
9346
  8
AM_0
 10
333.23737959659508
 20
380.63725607640441
 30
0.0
 11
337.237409596595
 21
380.63725607640441
 31
0.0
  0
ARC
  5
9347
  8
AM_0
 10
406.237409596595
 20
375.48182607640427
 30
0.0
 40
8.0
 50
180.00001000000091
 51
271.99999000000139
  0
POLYLINE
  5
9348
  8
AM_0
 66
     1
 10
0.0
 20
0.0
 30
0.0
  0
VERTEX
  5
9349
  8
AM_0
 10
333.23737959659508
 20
449.86082607640429
 30
0.0
 42
-0.070055462
  0
VERTEX
  5
934A
  8
AM_0
 10
359.59804959659522
 20
429.6634860764043
 30
0.0
 42
-0.27110597
  0
VERTEX
  5
934B
  8
AM_0
 10
368.237409596595
 20
409.78013607640429
 30
0.0
 42
-0.2130317
  0
VERTEX
  5
934C
  8
AM_0
 10
348.64694959659522
 20
391.64532607640422
 30
0.0
  0
VERTEX
  5
934D
  8
AM_0
 10
333.23737959659508
 20
385.34706607640442
 30
0.0
 42
-1.0
  0
SEQEND
  5
934E
  8
AM_0
  0
POLYLINE
  5
934F
  8
AM_0
 66
     1
 10
0.0
 20
0.0
 30
0.0
  0
VERTEX
  5
9350
  8
AM_0
 10
333.23737959659508
 20
402.72047607640428
 30
0.0
 42
0.040442845
  0
VERTEX
  5
9351
  8
AM_0
 10
344.76556959659501
 20
402.94381607640452
 30
0.0
 42
0.04246989
  0
VERTEX
  5
9352
  8
AM_0
 10
356.09927959659501
 20
405.0572960764045
 30
0.0
 42
0.022672802
  0
VERTEX
  5
9353
  8
AM_0
 10
361.58377959659492
 20
406.84824607640451
 30
0.0
  0
VERTEX
  5
9354
  8
AM_0
 10
366.88938959659509
 20
409.1171060764043
 30
0.0
 42
-1.0
  0
SEQEND
  5
9355
  8
AM_0
  0
LINE
  5
9356
  8
AM_0
 10
333.23737959659508
 20
402.72047607640428
 30
0.0
 11
311.23737959659508
 21
402.72047607640428
 31
0.0
  0
LINE
  5
9357
  8
AM_0
 10
333.23737959659508
 20
385.34706607640442
 30
0.0
 11
323.23737959659508
 21
385.34706607640442
 31
0.0
  0
ARC
  5
9358
  8
AM_0
 10
320.23737959659508
 20
394.24723607640431
 30
0.0
 40
3.0
 50
0.0
 51
90.000003000000945
  0
LINE
  5
9359
  8
AM_0
 10
314.23737959659519
 20
386.21614607640441
 30
0.0
 11
320.27460959659521
 21
386.21614607640441
 31
0.0
  0
ARC
  5
935A
  8
AM_0
 10
314.23737959659519
 20
389.2161460764043
 30
0.0
 40
3.0
 50
180.00001000000091
 51
270.0
  0
ARC
  5
935B
  8
AM_0
 10
320.27460959659521
 20
383.2161460764043
 30
0.0
 40
3.0
 50
6.3862993999993272
 51
90.000003000000945
  0
LINE
  5
935C
  8
AM_0
 10
323.23737959659508
 20
383.88352607640422
 30
0.0
 11
323.23737959659508
 21
394.24723607640431
 31
0.0
  0
LINE
  5
935D
  8
AM_0
 10
314.23737959659519
 20
397.24723607640442
 30
0.0
 11
320.23737959659508
 21
397.24723607640442
 31
0.0
  0
ARC
  5
935E
  8
AM_0
 10
308.23737959659508
 20
402.53541607640432
 30
0.0
 40
3.0
 50
0.0
 51
87.999999999999659
  0
ARC
  5
935F
  8
AM_0
 10
314.23737959659519
 20
400.24723607640431
 30
0.0
 40
3.0
 50
180.00001000000091
 51
270.0
  0
LINE
  5
9360
  8
AM_0
 10
311.23737959659508
 20
412.06504607640449
 30
0.0
 11
320.23737959659508
 21
412.06504607640449
 31
0.0
  0
ARC
  5
9361
  8
AM_0
 10
320.23737959659508
 20
415.06504607640449
 30
0.0
 40
3.0
 50
269.999989999999
 51
0.0000006832462478
  0
LINE
  5
9362
  8
AM_0
 10
311.23737959659508
 20
422.81968607640431
 30
0.0
 11
323.23737959659508
 21
422.81968607640431
 31
0.0
  0
LINE
  5
9363
  8
AM_0
 10
333.23737959659508
 20
449.86082607640429
 30
0.0
 11
323.23737959659508
 21
449.86082607640429
 31
0.0
  0
ARC
  5
9364
  8
AM_0
 10
410.237409596595
 20
390.92366607640452
 30
0.0
 40
12.0
 50
91.500001000001546
 51
180.00001000000091
  0
ARC
  5
9365
  8
AM_0
 10
410.23743959659492
 20
410.93049607640449
 30
0.0
 40
8.0
 50
271.49999999999937
 51
0.0
  0
LINE
  5
9367
  8
AM_0
 10
410.4468495965948
 20
402.9332760764043
 30
0.0
 11
409.923289596595
 21
402.9195760764045
 31
0.0
  0
ARC
  5
9368
  8
AM_0
 10
425.68964959659507
 20
406.77973607640428
 30
0.0
 40
8.0
 50
91.500001000001546
 51
164.96419999999981
  0
LINE
  5
9369
  8
AM_0
 10
435.34214959659488
 20
415.03526607640453
 30
0.0
 11
425.48023959659508
 21
414.7770260764043
 31
0.0
  0
CIRCLE
  5
936A
  8
AM_0
 10
303.23737959659508
 20
575.13722607640432
 30
0.0
 40
7.5
  0
LINE
  5
936B
  8
AM_0
 10
266.73737959659519
 20
541.71589607640431
 30
0.0
 11
311.23737959659508
 21
541.71589607640431
 31
0.0
  0
LINE
  5
936C
  8
AM_0
 10
266.73737959659519
 20
519.61195607640434
 30
0.0
 11
311.23737959659508
 21
519.61195607640434
 31
0.0
  0
LINE
  5
936D
  8
AM_0
 10
270.59784959659521
 20
553.4228060764043
 30
0.0
 11
308.34211959659501
 21
554.74085607640427
 31
0.0
  0
LINE
  5
936E
  8
AM_0
 10
288.88880959659508
 20
590.73231607640435
 30
0.0
 11
339.2374395965951
 21
595.13728607640451
 31
0.0
  0
LINE
  5
9370
  8
AM_0
 10
285.23737959659508
 20
562.67579607640437
 30
0.0
 11
285.23737959659508
 21
586.74751607640405
 31
0.0
  0
POLYLINE
  5
9372
  8
AM_0
 66
     1
 10
0.0
 20
0.0
 30
0.0
  0
VERTEX
  5
9373
  8
AM_0
 10
241.41545959659501
 20
513.55602607640435
 30
0.0
 42
-0.0058779435
  0
VERTEX
  5
9374
  8
AM_0
 10
242.62507959659521
 20
515.55760607640445
 30
0.0
 42
-0.0056588804
  0
VERTEX
  5
9375
  8
AM_0
 10
243.8805495965953
 20
517.53075607640449
 30
0.0
 42
-0.0054619297
  0
VERTEX
  5
9376
  8
AM_0
 10
245.17958959659501
 20
519.47551607640435
 30
0.0
 42
-0.0052861412
  0
VERTEX
  5
9377
  8
AM_0
 10
246.5201195965949
 20
521.39191607640396
 30
0.0
  0
SEQEND
  5
9378
  8
AM_0
  0
LINE
  5
9379
  8
AM_0
 10
228.73737959659519
 20
493.1372260764042
 30
0.0
 11
260.04011959659482
 21
493.1372260764042
 31
0.0
  0
LINE
  5
937A
  8
AM_0
 10
202.73737959659519
 20
536.63728607640451
 30
0.0
 11
255.16877959659519
 21
538.46821607640459
 31
0.0
  0
LINE
  5
937B
  8
AM_0
 10
202.73737959659519
 20
526.13728607640451
 30
0.0
 11
244.08014959659499
 21
526.13728607640451
 31
0.0
  0
LINE
  5
9380
  8
AM_0
 10
202.73737959659519
 20
512.07716607640418
 30
0.0
 11
238.82978959659511
 21
512.07716607640418
 31
0.0
  0
POLYLINE
  5
938B
  8
AM_0
 66
     1
 10
0.0
 20
0.0
 30
0.0
  0
VERTEX
  5
938C
  8
AM_0
 10
229.70698959659489
 20
493.13697607640421
 30
0.0
  0
VERTEX
  5
938D
  8
AM_0
 10
237.134249596595
 20
512.07639607640431
 30
0.0
 42
-1.0
  0
SEQEND
  5
938E
  8
AM_0
  0
ARC
  5
938F
  8
AM_0
 10
228.73737959659519
 20
490.13722607640449
 30
0.0
 40
3.0
 50
90.000003000000945
 51
180.00001000000091
  0
ARC
  5
9390
  8
AM_0
 10
238.82978959659511
 20
515.0771660764043
 30
0.0
 40
3.0
 50
270.0
 51
329.53192000000132
  0
POLYLINE
  5
9397
  8
AM_0
 66
     1
 10
0.0
 20
0.0
 30
0.0
  0
VERTEX
  5
9398
  8
AM_0
 10
245.8571795965951
 20
525.55536607640431
 30
0.0
 42
-0.011693549
  0
VERTEX
  5
9399
  8
AM_0
 10
249.420059596595
 20
530.0517360764045
 30
0.0
 42
-0.011216814
  0
VERTEX
  5
939A
  8
AM_0
 10
253.1849395965952
 20
534.38050607640434
 30
0.0
 42
-0.011000278
  0
VERTEX
  5
939B
  8
AM_0
 10
257.137039596595
 20
538.53694607640455
 30
0.0
  0
SEQEND
  5
939C
  8
AM_0
  0
ARC
  5
939D
  8
AM_0
 10
260.04011959659482
 20
496.13722607640432
 30
0.0
 40
3.0
 50
270.0
 51
0.0
  0
ARC
  5
939E
  8
AM_0
 10
244.08014959659499
 20
523.13728607640451
 30
0.0
 40
3.0
 50
324.42424000000028
 51
90.000003000000945
  0
ARC
  5
939F
  8
AM_0
 10
270.73737959659519
 20
549.42524607640439
 30
0.0
 40
4.0
 50
91.999998000000545
 51
180.00001000000091
  0
LINE
  5
93A0
  8
AM_0
 10
258.52979959659518
 20
539.92964607640431
 30
0.0
 11
265.31043959659502
 21
546.7102860764046
 31
0.0
  0
ARC
  5
93A1
  8
AM_0
 10
254.994219596595
 20
543.46516607640444
 30
0.0
 40
5.0
 50
272.0000000000004
 51
315.0
  0
ARC
  5
93A2
  8
AM_0
 10
261.77485959659521
 20
550.24580607640405
 30
0.0
 40
5.0
 50
315.0
 51
354.76906000000082
  0
LINE
  5
93A3
  8
AM_0
 10
288.20215959659492
 20
558.81208607640428
 30
0.0
 11
303.96644959659511
 21
554.58808607640458
 31
0.0
  0
ARC
  5
93A4
  8
AM_0
 10
289.23737959659519
 20
562.67579607640437
 30
0.0
 40
4.0
 50
180.00001000000091
 51
254.99999000000091
  0
ARC
  5
93A5
  8
AM_0
 10
289.23737959659519
 20
586.74751607640405
 30
0.0
 40
4.0
 50
95.00000199999856
 51
180.00001000000091
  0
ARC
  5
93A6
  8
AM_0
 10
326.23737959659508
 20
576.39100607640455
 30
0.0
 40
3.0
 50
91.999998000000545
 51
180.00001000000091
  0
ARC
  5
93A7
  8
AM_0
 10
320.27460959659521
 20
577.05836607640435
 30
0.0
 40
3.0
 50
269.999989999999
 51
353.61369000000099
  0
CIRCLE
  5
93A8
  8
AM_0
 10
428.23743959659492
 20
575.13722607640432
 30
0.0
 40
7.5
  0
LINE
  5
93A9
  8
AM_0
 10
398.237409596595
 20
569.35084607640431
 30
0.0
 11
398.237409596595
 21
584.79267607640429
 31
0.0
  0
LINE
  5
93AA
  8
ﾁｭｳｼﾝｾﾝ
 10
428.23743959659492
 20
562.13722607640432
 30
0.0
 11
428.23743959659492
 21
588.13722607640432
 31
0.0
  0
POLYLINE
  5
93AB
  8
AM_0
 66
     1
 10
0.0
 20
0.0
 30
0.0
  0
VERTEX
  5
93AC
  8
AM_0
 10
333.23737959659508
 20
510.41371607640428
 30
0.0
 42
0.070055443
  0
VERTEX
  5
93AD
  8
AM_0
 10
359.59804959659522
 20
530.61105607640434
 30
0.0
 42
0.27110593
  0
VERTEX
  5
93AE
  8
AM_0
 10
368.237409596595
 20
550.49439607640431
 30
0.0
 42
0.21303199
  0
VERTEX
  5
93AF
  8
AM_0
 10
348.64694959659522
 20
568.62918607640427
 30
0.0
  0
VERTEX
  5
93B0
  8
AM_0
 10
333.23737959659508
 20
574.92744607640395
 30
0.0
 42
-1.0
  0
SEQEND
  5
93B1
  8
AM_0
  0
LINE
  5
93B2
  8
AM_0
 10
333.23737959659508
 20
510.41371607640428
 30
0.0
 11
323.23737959659508
 21
510.41371607640428
 31
0.0
  0
POLYLINE
  5
93B3
  8
AM_0
 66
     1
 10
0.0
 20
0.0
 30
0.0
  0
VERTEX
  5
93B4
  8
AM_0
 10
333.23737959659508
 20
557.5540360764046
 30
0.0
 42
-0.040442832
  0
VERTEX
  5
93B5
  8
AM_0
 10
344.76555959659493
 20
557.33068607640416
 30
0.0
 42
-0.042469875
  0
VERTEX
  5
93B6
  8
AM_0
 10
356.09927959659501
 20
555.2172060764043
 30
0.0
 42
-0.022671837
  0
VERTEX
  5
93B7
  8
AM_0
 10
361.583769596595
 20
553.42626607640454
 30
0.0
  0
VERTEX
  5
93B8
  8
AM_0
 10
366.88938959659509
 20
551.15743607640434
 30
0.0
 42
-1.0
  0
SEQEND
  5
93B9
  8
AM_0
  0
LINE
  5
93BA
  8
AM_0
 10
311.23737959659508
 20
537.45484607640435
 30
0.0
 11
323.23737959659508
 21
537.45484607640435
 31
0.0
  0
LINE
  5
93BB
  8
AM_0
 10
311.23737959659508
 20
548.20948607640435
 30
0.0
 11
320.23737959659508
 21
548.20948607640435
 31
0.0
  0
ARC
  5
93BC
  8
AM_0
 10
320.23737959659508
 20
545.20948607640435
 30
0.0
 40
3.0
 50
0.0
 51
90.000003000000945
  0
LINE
  5
93BD
  8
AM_0
 10
333.23737959659508
 20
557.5540360764046
 30
0.0
 11
311.23737959659508
 21
557.5540360764046
 31
0.0
  0
LINE
  5
93BE
  8
AM_0
 10
333.23737959659508
 20
574.92744607640395
 30
0.0
 11
323.23737959659508
 21
574.92744607640395
 31
0.0
  0
ARC
  5
93BF
  8
AM_0
 10
320.23737959659508
 20
566.02729607640447
 30
0.0
 40
3.0
 50
269.999989999999
 51
0.0000006832462478
  0
LINE
  5
93C0
  8
AM_0
 10
314.23737959659519
 20
563.02729607640435
 30
0.0
 11
320.23737959659508
 21
563.02729607640435
 31
0.0
  0
ARC
  5
93C1
  8
AM_0
 10
308.23737959659508
 20
557.73908607640431
 30
0.0
 40
3.0
 50
272.0000000000004
 51
0.0
  0
ARC
  5
93C2
  8
AM_0
 10
314.23737959659519
 20
560.02729607640435
 30
0.0
 40
3.0
 50
90.000003000000945
 51
180.00001000000091
  0
LINE
  5
93C3
  8
AM_0
 10
314.23737959659519
 20
574.05836607640435
 30
0.0
 11
320.27460959659521
 21
574.05836607640435
 31
0.0
  0
ARC
  5
93C4
  8
AM_0
 10
314.23737959659519
 20
571.05836607640435
 30
0.0
 40
3.0
 50
90.000003000000945
 51
180.00001000000091
  0
LINE
  5
93C5
  8
AM_0
 10
323.23737959659508
 20
576.39100607640455
 30
0.0
 11
323.23737959659508
 21
566.02729607640447
 31
0.0
  0
ARC
  5
93C6
  8
AM_0
 10
410.237409596595
 20
569.35084607640431
 30
0.0
 40
12.0
 50
180.00001000000091
 51
268.5000000000004
  0
ARC
  5
93C7
  8
AM_0
 10
410.23743959659492
 20
549.3440060764043
 30
0.0
 40
8.0
 50
0.0
 51
88.499997000000747
  0
ARC
  5
93C8
  8
AM_0
 10
425.68964959659507
 20
553.49476607640429
 30
0.0
 40
8.0
 50
195.03580000000011
 51
268.5000000000004
  0
LINE
  5
93C9
  8
AM_0
 10
435.34214959659488
 20
545.23927607640439
 30
0.0
 11
425.48026959659518
 21
545.49751607640428
 31
0.0
  0
LINE
  5
93CA
  8
AM_0
 10
410.4468495965948
 20
557.34126607640405
 30
0.0
 11
409.92331959659509
 21
557.35499607640429
 31
0.0
  0
LINE
  5
93CB
  8
AM_0
 10
324.49891959659499
 20
587.8249060764042
 30
0.0
 11
332.88880959659508
 21
588.55891607640444
 31
0.0
  0
ARC
  5
93CC
  8
AM_0
 10
324.23737959659508
 20
590.81349607640436
 30
0.0
 40
3.0
 50
95.00000199999856
 51
274.99999999999972
  0
ARC
  5
93CD
  8
AM_0
 10
333.23737959659508
 20
584.57411607640449
 30
0.0
 40
4.0
 50
0.0
 51
95.00000199999856
  0
LINE
  5
93CE
  8
AM_0
 10
337.237409596595
 20
579.63722607640432
 30
0.0
 11
337.237409596595
 21
589.50575607640417
 31
0.0
  0
LINE
  5
93CF
  8
AM_0
 10
326.13270959659508
 20
579.3891760764044
 30
0.0
 11
333.23737959659508
 21
579.63728607640428
 31
0.0
  0
LINE
  5
93D0
  8
AM_0
 10
333.23737959659508
 20
579.63722607640432
 30
0.0
 11
337.237409596595
 21
579.63722607640432
 31
0.0
  0
ARC
  5
93D1
  8
AM_0
 10
332.23737959659508
 20
589.50575607640417
 30
0.0
 40
5.0
 50
0.0
 51
95.00000199999856
  0
ARC
  5
93D2
  8
AM_0
 10
406.237409596595
 20
584.79267607640429
 30
0.0
 40
8.0
 50
87.999999999999659
 51
180.00001000000091
  0
ARC
  5
93D3
  8
AM_0
 10
463.237409596595
 20
480.1372560764043
 30
0.0
 40
4.9999924
 50
90.000003000000945
 51
270.0
  0
LINE
  5
93D4
  8
AM_0
 10
439.2374395965951
 20
419.03388607640437
 30
0.0
 11
439.2374395965951
 21
541.24061607640408
 31
0.0
  0
LINE
  5
93D5
  8
AM_0
 10
446.237409596595
 20
452.86933607640441
 30
0.0
 11
446.237409596595
 21
480.1372560764043
 31
0.0
  0
LINE
  5
93D6
  8
AM_0
 10
508.23740959659523
 20
464.13728607640451
 30
0.0
 11
508.23740959659523
 21
496.13722607640432
 31
0.0
  0
LINE
  5
93D7
  8
AM_0
 10
450.23743959659492
 20
462.63728607640428
 30
0.0
 11
450.23743959659492
 21
497.63728607640428
 31
0.0
  0
LINE
  5
93D8
  8
AM_0
 10
463.23743959659492
 20
475.13728607640428
 30
0.0
 11
463.23743959659492
 21
485.13722607640432
 31
0.0
  0
LINE
  5
93D9
  8
AM_0
 10
446.23743959659492
 20
411.1372560764043
 30
0.0
 11
446.23743959659492
 21
372.73652607640429
 31
0.0
  0
ARC
  5
93DA
  8
AM_0
 10
442.23743959659492
 20
372.73652607640429
 30
0.0
 40
4.0
 50
272.0000000000004
 51
0.0
  0
LINE
  5
93DB
  8
AM_0
 10
463.237409596595
 20
475.13728607640428
 30
0.0
 11
508.23740959659523
 21
475.13728607640428
 31
0.0
  0
LINE
  5
93DC
  8
AM_0
 10
508.23740959659523
 20
464.13728607640451
 30
0.0
 11
450.23743959659492
 21
464.13728607640451
 31
0.0
  0
ARC
  5
93DD
  8
AM_0
 10
442.23743959659492
 20
411.1372560764043
 30
0.0
 40
4.0
 50
0.0
 51
82.819247000000175
  0
ARC
  5
93DE
  8
AM_0
 10
443.237409596595
 20
452.86933607640441
 30
0.0
 40
3.0
 50
300.00001000000083
 51
0.0
  0
LINE
  5
93DF
  8
AM_0
 10
440.73740959659489
 20
447.96183607640421
 30
0.0
 11
444.73740959659489
 21
450.27122607640428
 31
0.0
  0
LINE
  5
93E0
  8
AM_0
 10
450.23743959659492
 20
462.63728607640428
 30
0.0
 11
446.237409596595
 21
462.63728607640428
 31
0.0
  0
LINE
  5
93E1
  8
AM_0
 10
446.23743959659492
 20
549.13722607640432
 30
0.0
 11
446.23743959659492
 21
587.53797607640445
 31
0.0
  0
LINE
  5
93E2
  8
AM_0
 10
463.237409596595
 20
485.13722607640432
 30
0.0
 11
508.23740959659523
 21
485.13722607640432
 31
0.0
  0
LINE
  5
93E3
  8
AM_0
 10
508.23740959659523
 20
496.13722607640432
 30
0.0
 11
450.23743959659492
 21
496.13722607640432
 31
0.0
  0
LINE
  5
93E4
  8
AM_0
 10
446.237409596595
 20
480.1372560764043
 30
0.0
 11
446.237409596595
 21
507.40522607640452
 31
0.0
  0
LINE
  5
93E5
  8
AM_0
 10
450.23743959659492
 20
497.63728607640428
 30
0.0
 11
446.237409596595
 21
497.63728607640428
 31
0.0
  0
ARC
  5
93E6
  8
AM_0
 10
443.237409596595
 20
507.40522607640452
 30
0.0
 40
3.0
 50
0.0
 51
60.000002000001302
  0
LINE
  5
93E7
  8
AM_0
 10
440.73743959659492
 20
512.31263607640449
 30
0.0
 11
444.73743959659492
 21
510.00324607640448
 31
0.0
  0
ARC
  5
93E8
  8
AM_0
 10
442.23743959659492
 20
549.13722607640432
 30
0.0
 40
4.0
 50
277.18075000000027
 51
0.0
  0
ARC
  5
93E9
  8
AM_0
 10
442.23743959659492
 20
587.53797607640445
 30
0.0
 40
4.0
 50
0.0
 51
87.999999999999659
  0
LINE
  5
95B4
  8
AM_0
 10
192.94306959659531
 20
440.81830107640428
 30
0.0
 11
188.79731959659529
 21
425.33719107640428
 31
0.0
  0
LINE
  5
95B5
  8
AM_0
 10
92.097369596595357
 20
443.4872410764043
 30
0.0
 11
86.737379596595332
 21
432.04724107640442
 31
0.0
  0
LINE
  5
95B6
  8
AM_0
 10
86.737379596595332
 20
533.13724107640451
 30
0.0
 11
86.737379596595332
 21
427.13724107640428
 31
0.0
  0
LINE
  5
95B7
  8
AM_0
 10
194.7373795965951
 20
536.13724107640451
 30
0.0
 11
194.7373795965951
 21
424.13724107640428
 31
0.0
  0
ARC
  5
95B8
  8
AM_0
 10
29.63740959659523
 20
439.74625107640418
 30
0.0
 40
3.0
 50
179.99997999999781
 51
269.99995000000138
  0
LINE
  5
95B9
  8
AM_0
 10
29.937389596595231
 20
445.84622107640428
 30
0.0
 11
29.937389596595231
 21
436.64627107640428
 31
0.0
  0
LINE
  5
95BA
  8
AM_0
 10
23.235949496595278
 20
536.13724107640451
 30
0.0
 11
23.235949496595278
 21
424.13724107640428
 31
0.0
  0
LINE
  5
95BB
  8
AM_0
 10
31.237379596595328
 20
427.35525107640427
 30
0.0
 11
31.237379596595328
 21
532.88724107640405
 31
0.0
  0
LINE
  5
95BC
  8
AM_0
 10
78.737379596595332
 20
538.88724107640451
 30
0.0
 11
78.737379596595332
 21
421.38724107640428
 31
0.0
  0
LINE
  5
95BD
  8
AM_0
 10
78.737379596595332
 20
427.13724107640428
 30
0.0
 11
86.737379596595332
 21
427.13724107640428
 31
0.0
  0
LINE
  5
95BE
  8
AM_0
 10
79.437389596595253
 20
436.94730107640441
 30
0.0
 11
85.667369596595293
 21
436.94730107640441
 31
0.0
  0
LINE
  5
95BF
  8
AM_0
 10
30.737379596595328
 20
427.38724107640428
 30
0.0
 11
78.737379596595332
 21
427.38724107640428
 31
0.0
  0
LINE
  5
95C0
  8
AM_0
 10
31.237379596595328
 20
436.24625107640429
 30
0.0
 11
73.737379596595332
 21
436.24625107640429
 31
0.0
  0
LINE
  5
95C1
  8
AM_0
 10
33.235949496595282
 20
420.13724107640428
 30
0.0
 11
56.737379596595332
 21
420.13724107640428
 31
0.0
  0
LINE
  5
95C2
  8
AM_0
 10
32.235949496595282
 20
415.13724107640428
 30
0.0
 11
69.737379596595332
 21
415.13724107640428
 31
0.0
  0
ARC
  5
95C3
  8
AM_0
 10
32.235949496595282
 20
424.13724107640428
 30
0.0
 40
9.0
 50
179.99997999999781
 51
269.99995000000138
  0
LINE
  5
95C4
  8
AM_0
 10
28.235949496595278
 20
437.09372217211148
 30
0.0
 11
28.235949496595278
 21
425.13724107640428
 31
0.0
  0
ARC
  5
95C5
  8
AM_0
 10
33.235949496595282
 20
425.13724107640428
 30
0.0
 40
5.0
 50
179.99997999999781
 51
269.99995000000138
  0
LINE
  5
95C6
  8
AM_0
 10
28.737379596595328
 20
436.88431107640452
 30
0.0
 11
28.737379596595328
 21
429.38724107640428
 31
0.0
  0
ARC
  5
95C7
  8
AM_0
 10
30.737379596595328
 20
429.38724107640428
 30
0.0
 40
2.0
 50
179.99997999999781
 51
269.99995000000138
  0
LINE
  5
95C8
  8
AM_0
 10
29.937389596595231
 20
436.64627107640428
 30
0.0
 11
31.237379596595328
 21
436.64627107640428
 31
0.0
  0
LINE
  5
95C9
  8
AM_0
 10
29.63740959659523
 20
436.74625107640429
 30
0.0
 11
29.937389596595231
 21
436.74625107640429
 31
0.0
  0
LINE
  5
95CA
  8
AM_0
 10
53.737379596595318
 20
421.38724107640428
 30
0.0
 11
78.737379596595332
 21
421.38724107640428
 31
0.0
  0
LINE
  5
95CB
  8
AM_0
 10
66.737379596595332
 20
420.13724107640428
 30
0.0
 11
69.737379596595332
 21
420.13724107640428
 31
0.0
  0
LINE
  5
95CC
  8
AM_0
 10
53.737379596595318
 20
421.38724107640428
 30
0.0
 11
53.737379596595318
 21
427.38724107640428
 31
0.0
  0
LINE
  5
95CD
  8
AM_0
 10
56.737379596595332
 20
421.38724107640428
 30
0.0
 11
56.737379596595332
 21
415.13724107640428
 31
0.0
  0
LINE
  5
95CE
  8
AM_0
 10
66.737379596595332
 20
421.38724107640428
 30
0.0
 11
66.737379596595332
 21
415.13724107640428
 31
0.0
  0
LINE
  5
95CF
  8
AM_0
 10
69.737379596595332
 20
420.13724107640428
 30
0.0
 11
69.737379596595332
 21
415.13724107640428
 31
0.0
  0
LINE
  5
95D0
  8
AM_0
 10
73.737379596595332
 20
436.24625107640429
 30
0.0
 11
73.737379596595332
 21
427.38724107640428
 31
0.0
  0
LINE
  5
95D1
  8
AM_0
 10
89.947399596595304
 20
423.85721107640433
 30
0.0
 11
186.86738959659519
 21
423.85721107640433
 31
0.0
  0
LINE
  5
95D2
  8
AM_0
 10
96.839542028174293
 20
380.63724107640428
 30
0.0
 11
173.13954202817411
 21
393.63724107640439
 31
0.0
  0
LINE
  5
95D3
  8
AM_0
 10
96.839542028174293
 20
380.63724107640428
 30
0.0
 11
173.13954202817411
 21
393.63724107640439
 31
0.0
  0
LINE
  5
95D4
  8
AM_0
 10
172.63954202817521
 20
376.63724107640428
 30
0.0
 11
97.165237165015284
 21
376.63724107640428
 31
0.0
  0
LINE
  5
95D5
  8
AM_0
 10
173.4652371650152
 20
389.63724107640439
 30
0.0
 11
97.165237165015284
 21
376.63724107640428
 31
0.0
  0
LINE
  5
95D6
  8
AM_0
 10
145.54289607365021
 20
389.94919535931342
 30
0.0
 11
147.74625011912829
 21
390.3246029948474
 31
0.0
  0
LINE
  5
95D7
  8
AM_0
 10
177.23737959659519
 20
413.13724107640428
 30
0.0
 11
110.2373795965953
 21
413.13724107640428
 31
0.0
  0
LINE
  5
95D8
  8
AM_0
 10
162.63954202817419
 20
410.63724107640428
 30
0.0
 11
124.83954202817419
 21
410.63724107640428
 31
0.0
  0
LINE
  5
95D9
  8
AM_0
 10
144.04289607365021
 20
405.63724107640428
 30
0.0
 11
144.04289607365021
 21
389.69362524135852
 31
0.0
  0
LINE
  5
95DA
  8
AM_0
 10
145.54289607365021
 20
389.94919535931342
 30
0.0
 11
145.54289607365021
 21
405.63724107640428
 31
0.0
  0
LINE
  5
95DB
  8
AM_0
 10
138.13618798269519
 20
388.68723985233549
 30
0.0
 11
138.13618798269519
 21
405.63724107640428
 31
0.0
  0
LINE
  5
95DC
  8
AM_0
 10
140.33954202817321
 20
405.63724107640428
 30
0.0
 11
140.33954202817321
 21
389.06264748786953
 31
0.0
  0
LINE
  5
95DD
  8
AM_0
 10
130.73618798269521
 20
387.42642727042249
 30
0.0
 11
130.73618798269521
 21
405.63724107640559
 31
0.0
  0
LINE
  5
95DE
  8
AM_0
 10
132.93618798269509
 20
405.63724107640428
 30
0.0
 11
132.9361879826962
 21
387.80126344342341
 31
0.0
  0
LINE
  5
95DF
  8
AM_0
 10
134.4361879826952
 20
388.05683356137951
 30
0.0
 11
134.4361879826952
 21
405.63724107640428
 31
0.0
  0
LINE
  5
95E0
  8
AM_0
 10
136.63618798269519
 20
405.63724107640428
 30
0.0
 11
136.63618798269519
 21
388.43166973438048
 31
0.0
  0
LINE
  5
95E1
  8
AM_0
 10
128.73618798269521
 20
402.92586489720628
 30
0.0
 11
128.73618798269521
 21
387.08566711314847
 31
0.0
  0
LINE
  5
95E2
  8
AM_0
 10
142.3395420281762
 20
389.40340764514337
 30
0.0
 11
142.3395420281762
 21
402.92586489720628
 31
0.0
  0
CIRCLE
  5
95E3
  8
AM_0
 10
109.33954202817419
 20
393.63724107640439
 30
0.0
 40
6.299999999999998
  0
LINE
  5
95E4
  8
AM_0
 10
94.239542028174284
 20
409.63724107640428
 30
0.0
 11
94.239542028174284
 21
386.63724107640451
 31
0.0
  0
ARC
  5
95E6
  8
AM_0
 10
109.33954202817419
 20
393.63724107640439
 30
0.0
 40
9.3000000000000007
 50
180.0
 51
0.0
  0
LINE
  5
95E7
  8
AM_0
 10
96.75811824396321
 20
381.63724107640439
 30
0.0
 11
128.73618798269521
 21
387.08566711314847
 31
0.0
  0
LINE
  5
95E8
  8
AM_0
 10
93.939542028174216
 20
381.63724107640439
 30
0.0
 11
93.939542028174216
 21
382.6328837571204
 31
0.0
  0
LINE
  5
95E9
  8
AM_0
 10
92.239542028175279
 20
385.33724107640541
 30
0.0
 11
92.239542028175279
 21
378.13724107640451
 31
0.0
  0
LINE
  5
95EA
  8
AM_0
 10
94.239542028174284
 20
386.63724107640451
 30
0.0
 11
94.239542028173233
 21
381.63724107640439
 31
0.0
  0
LINE
  5
95EB
  8
AM_0
 10
93.739542028174284
 20
381.63724107640439
 30
0.0
 11
93.739542028174284
 21
385.33724107640541
 31
0.0
  0
LINE
  5
95EC
  8
AM_0
 10
92.739542028174228
 20
380.63724107640428
 30
0.0
 11
96.839542028174293
 21
380.63724107640428
 31
0.0
  0
LINE
  5
95ED
  8
AM_0
 10
93.039542028174196
 20
380.63724107640428
 30
0.0
 11
96.839542028174293
 21
380.63724107640428
 31
0.0
  0
LINE
  5
95EE
  8
AM_0
 10
96.75811824396321
 20
381.63724107640439
 30
0.0
 11
93.039542028174196
 21
381.63724107640439
 31
0.0
  0
LINE
  5
95EF
  8
AM_0
 10
94.239542028174284
 20
376.63724107640428
 30
0.0
 11
97.165237165015284
 21
376.63724107640428
 31
0.0
  0
LINE
  5
95F0
  8
AM_0
 10
92.739542028174228
 20
381.33724107640541
 30
0.0
 11
92.739542028174228
 21
380.63724107640428
 31
0.0
  0
ARC
  5
95F1
  8
AM_0
 10
93.039542028174196
 20
380.33724107640552
 30
0.0
 40
0.3
 50
90.0
 51
180.0
  0
ARC
  5
95F2
  8
AM_0
 10
93.039542028174196
 20
381.33724107640541
 30
0.0
 40
0.3
 50
90.0
 51
180.0
  0
LINE
  5
95F3
  8
AM_0
 10
92.739542028174228
 20
380.33724107640552
 30
0.0
 11
92.739542028174228
 21
378.13724107640451
 31
0.0
  0
LINE
  5
95F4
  8
AM_0
 10
93.739542028175265
 20
376.63724107640428
 30
0.0
 11
94.038027924332269
 21
376.6372410764057
 31
0.0
  0
ARC
  5
95F5
  8
AM_0
 10
93.739542028175265
 20
378.13724107640547
 30
0.0
 40
1.5
 50
180.00000000000659
 51
269.99999999999341
  0
ARC
  5
95F6
  8
AM_0
 10
94.239542028174284
 20
378.13724107640451
 30
0.0
 40
1.5
 50
180.0
 51
270.0
  0
LINE
  5
95F7
  8
AM_0
 10
93.439542028174188
 20
385.63724107640428
 30
0.0
 11
93.039542028174196
 21
385.63724107640428
 31
0.0
  0
ARC
  5
95F8
  8
AM_0
 10
92.539542028175234
 20
385.33724107640541
 30
0.0
 40
0.3
 50
90.0
 51
180.0
  0
LINE
  5
95F9
  8
AM_0
 10
93.039542028174196
 20
385.63724107640428
 30
0.0
 11
92.539542028175234
 21
385.63724107640428
 31
0.0
  0
LINE
  5
95FA
  8
AM_0
 10
93.939542028174216
 20
383.83288375712038
 30
0.0
 11
93.939542028174216
 21
386.43724107640543
 31
0.0
  0
LINE
  5
95FB
  8
AM_0
 10
93.739542028174284
 20
383.83288375712038
 30
0.0
 11
93.939542028174216
 21
383.83288375712038
 31
0.0
  0
ARC
  5
95FC
  8
AM_0
 10
93.439542028174188
 20
385.33724107640541
 30
0.0
 40
0.3
 50
0.0
 51
90.0
  0
LINE
  5
95FD
  8
AM_0
 10
94.139542028174233
 20
386.63724107640451
 30
0.0
 11
94.239542028174284
 21
386.63724107640451
 31
0.0
  0
LINE
  5
95FE
  8
AM_0
 10
93.939542028174216
 20
386.43724107640543
 30
0.0
 11
94.139542028174233
 21
386.63724107640451
 31
0.0
  0
LINE
  5
95FF
  8
AM_0
 10
93.939542028174216
 20
382.6328837571204
 30
0.0
 11
93.739542028174284
 21
382.6328837571204
 31
0.0
  0
LINE
  5
9600
  8
AM_0
 10
93.939542028174216
 20
382.6328837571204
 30
0.0
 11
93.939542028174216
 21
383.83288375712038
 31
0.0
  0
LINE
  5
9601
  8
AM_0
 10
130.73618798269521
 20
387.42642727042249
 30
0.0
 11
132.9361879826962
 21
387.80126344342341
 31
0.0
  0
LINE
  5
9602
  8
AM_0
 10
138.13618798269519
 20
388.68723985233549
 30
0.0
 11
140.33954202817321
 21
389.06264748786953
 31
0.0
  0
LINE
  5
9603
  8
AM_0
 10
134.4361879826952
 20
388.05683356137951
 30
0.0
 11
136.63618798269519
 21
388.43166973438048
 31
0.0
  0
LINE
  5
9604
  8
AM_0
 10
142.3395420281762
 20
389.40340764514337
 30
0.0
 11
144.04289607365021
 21
389.69362524135852
 31
0.0
  0
LINE
  5
9605
  8
AM_0
 10
100.0395420281742
 20
410.63724107640428
 30
0.0
 11
117.6395420281742
 21
410.63724107640428
 31
0.0
  0
LINE
  5
9607
  8
AM_0
 10
113.7373195965953
 20
413.1372110764043
 30
0.0
 11
113.4566554092563
 21
423.85721107640433
 31
0.0
  0
LINE
  5
9608
  8
AM_0
 10
95.239542028174228
 20
410.63724107640428
 30
0.0
 11
100.0395420281742
 21
410.63724107640428
 31
0.0
  0
ARC
  5
9609
  8
AM_0
 10
95.239542028174228
 20
409.63724107640428
 30
0.0
 40
1.0
 50
90.0
 51
180.0
  0
LINE
  5
960A
  8
AM_0
 10
100.0395420281742
 20
410.63724107640428
 30
0.0
 11
100.0395420281742
 21
393.63724107640439
 31
0.0
  0
LINE
  5
960B
  8
AM_0
 10
110.2373795965953
 20
410.63724107640428
 30
0.0
 11
110.2373795965953
 21
413.13724107640428
 31
0.0
  0
LINE
  5
960C
  8
AM_0
 10
89.643629596595332
 20
421.00723107640442
 30
0.0
 11
112.0700297952621
 21
421.00723107640442
 31
0.0
  0
LINE
  5
960D
  8
AM_0
 10
86.737379596595332
 20
432.04718107640429
 30
0.0
 11
87.977369596595366
 21
425.48718107640428
 31
0.0
  0
LINE
  5
960E
  8
AM_0
 10
86.737379596595332
 20
430.69717107640429
 30
0.0
 11
88.017349596595267
 21
422.69723107640431
 31
0.0
  0
LINE
  5
960F
  8
AM_0
 10
86.737379596595332
 20
429.35718107640429
 30
0.0
 11
87.746599596595345
 21
422.70715107640427
 31
0.0
  0
LINE
  5
9610
  8
AM_0
 10
86.737379596595332
 20
429.35724107640448
 30
0.0
 11
87.662859596595325
 21
422.73062107640442
 31
0.0
  0
ARC
  5
9611
  8
AM_0
 10
89.942219596595308
 20
425.85648107640452
 30
0.0
 40
1.9992490000000001
 50
190.643100000001
 51
270.14743000000129
  0
ARC
  5
9612
  8
AM_0
 10
89.993549596595301
 20
423.00760107640428
 30
0.0
 40
2.000420099999999
 50
188.9268200000015
 51
269.82270999999599
  0
ARC
  5
9613
  8
AM_0
 10
89.724009596595323
 20
423.00723107640431
 30
0.0
 40
2.0
 50
188.62962000000411
 51
269.999989999999
  0
ARC
  5
9614
  8
AM_0
 10
89.643629596595332
 20
423.00723107640431
 30
0.0
 40
2.0
 50
187.9504400000034
 51
269.999989999999
  0
ARC
  5
9615
  8
AM_0
 10
112.0700297952621
 20
419.50723107640448
 30
0.0
 40
1.5
 50
1.499738863867264
 51
90.0
1001
GENIUS_GENODEF_13
1002
{
1000
HIER
1070
     0
1002
}
1002
{
1000
MANEDIT
1070
     0
1002
}
1002
{
1000
NOSEL
1070
     0
1002
}
1002
{
1000
BEHIND
1070
     0
1002
}
1002
{
1000
REACTOR
1002
}
1001
GENIUS_GENOBJ-N-FIL_13
1002
{
1000
OWNER
1000
GEN
1002
}
  0
LINE
  5
9616
  8
AM_0
 10
129.4361879826952
 20
405.63724107640428
 30
0.0
 11
129.4361879826952
 21
403.5932169538105
 31
0.0
  0
LINE
  5
9617
  8
AM_0
 10
118.6395420281742
 20
410.63724107640428
 30
0.0
 11
118.6395420281742
 21
393.63724107640439
 31
0.0
  0
CIRCLE
  5
9618
  8
AM_0
 10
123.83954202817419
 20
393.63724107640439
 30
0.0
 40
0.75
  0
LINE
  5
9619
  8
AM_0
 10
130.73618798269521
 20
401.63724107640428
 30
0.0
 11
128.73618798269521
 21
401.63724107640428
 31
0.0
  0
LINE
  5
961A
  8
AM_0
 10
129.4361879826952
 20
403.5932169538105
 30
0.0
 11
128.73618798269521
 21
402.92586489720628
 31
0.0
  0
LINE
  5
961B
  8
AM_0
 10
124.83954202817419
 20
410.63724107640428
 30
0.0
 11
118.6395420281742
 21
410.63724107640428
 31
0.0
  0
LINE
  5
961C
  8
AM_0
 10
117.6395420281742
 20
410.63724107640428
 30
0.0
 11
118.6395420281742
 21
410.63724107640428
 31
0.0
  0
LINE
  5
961D
  8
AM_0
 10
130.73618798269521
 20
405.63724107640559
 30
0.0
 11
129.4361879826952
 21
405.63724107640428
 31
0.0
  0
LINE
  5
961E
  8
AM_0
 10
141.63954202817311
 20
403.5932169538105
 30
0.0
 11
141.63954202817311
 21
405.63724107640428
 31
0.0
  0
LINE
  5
961F
  8
AM_0
 10
134.4361879826952
 20
401.63724107640428
 30
0.0
 11
132.93618798269509
 21
401.63724107640428
 31
0.0
  0
LINE
  5
9620
  8
AM_0
 10
138.13618798269519
 20
401.63724107640428
 30
0.0
 11
136.63618798269519
 21
401.63724107640428
 31
0.0
  0
LINE
  5
9621
  8
AM_0
 10
142.3395420281762
 20
401.63724107640428
 30
0.0
 11
140.33954202817321
 21
401.63724107640428
 31
0.0
  0
LINE
  5
9622
  8
AM_0
 10
142.3395420281762
 20
402.92586489720628
 30
0.0
 11
141.63954202817311
 21
403.5932169538105
 31
0.0
  0
LINE
  5
9623
  8
AM_0
 10
145.54289607365021
 20
401.63724107640428
 30
0.0
 11
144.04289607365021
 21
401.63724107640428
 31
0.0
  0
LINE
  5
9624
  8
AM_0
 10
134.4361879826952
 20
405.63724107640428
 30
0.0
 11
132.93618798269509
 21
405.63724107640428
 31
0.0
  0
LINE
  5
9625
  8
AM_0
 10
138.13618798269519
 20
405.63724107640428
 30
0.0
 11
136.63618798269519
 21
405.63724107640428
 31
0.0
  0
LINE
  5
9626
  8
AM_0
 10
141.63954202817311
 20
405.63724107640428
 30
0.0
 11
140.33954202817321
 21
405.63724107640428
 31
0.0
  0
LINE
  5
9627
  8
AM_0
 10
145.54289607365021
 20
405.63724107640428
 30
0.0
 11
144.04289607365021
 21
405.63724107640428
 31
0.0
  0
LINE
  5
9628
  8
AM_0
 10
181.51466829402119
 20
393.63724107640439
 30
0.0
 11
181.51466829402119
 21
390.13724107640428
 31
0.0
  0
LINE
  5
9629
  8
AM_0
 10
156.65295821008209
 20
391.84212861978028
 30
0.0
 11
166.51466829402119
 21
393.52236755937639
 31
0.0
  0
LINE
  5
962A
  8
AM_0
 10
155.15295821008209
 20
405.63724107640428
 30
0.0
 11
155.15295821008209
 21
391.58655850182441
 31
0.0
  0
LINE
  5
962B
  8
AM_0
 10
147.74625011912829
 20
405.63724107640428
 30
0.0
 11
147.74625011912829
 21
390.3246029948474
 31
0.0
  0
LINE
  5
962C
  8
AM_0
 10
149.24625011912809
 20
390.5801731128023
 30
0.0
 11
149.24625011912809
 21
405.63724107640428
 31
0.0
  0
LINE
  5
962D
  8
AM_0
 10
151.4496041646052
 20
405.63724107640428
 30
0.0
 11
151.4496041646052
 21
390.95558074833542
 31
0.0
  0
LINE
  5
962E
  8
AM_0
 10
152.9496041646052
 20
391.21115086629129
 30
0.0
 11
152.9496041646052
 21
405.63724107640428
 31
0.0
  0
LINE
  5
962F
  8
AM_0
 10
156.65295821008209
 20
391.84212861978028
 30
0.0
 11
156.65295821008209
 21
405.63724107640428
 31
0.0
  0
LINE
  5
9630
  8
AM_0
 10
175.63954202817521
 20
389.63724107640439
 30
0.0
 11
181.01466829402119
 21
389.63724107640439
 31
0.0
  0
LINE
  5
9631
  8
AM_0
 10
149.24625011912809
 20
390.5801731128023
 30
0.0
 11
151.4496041646052
 21
390.95558074833542
 31
0.0
  0
LINE
  5
9632
  8
AM_0
 10
152.9496041646052
 20
391.21115086629129
 30
0.0
 11
155.15295821008209
 21
391.58655850182441
 31
0.0
  0
LINE
  5
9633
  8
AM_0
 10
175.13954202817521
 20
389.13724107640428
 30
0.0
 11
175.13954202817521
 21
379.13724107640439
 31
0.0
  0
LINE
  5
9634
  8
AM_0
 10
164.86969354719221
 20
376.63724107640428
 30
0.0
 11
164.86969354719221
 21
388.17273167887259
 31
0.0
  0
ARC
  5
9635
  8
AM_0
 10
172.63954202817521
 20
379.13724107640439
 30
0.0
 40
2.5
 50
270.0
 51
0.0
  0
LINE
  5
9636
  8
AM_0
 10
165.73954202817509
 20
388.3230358491075
 30
0.0
 11
165.73954202817509
 21
392.37642849449128
 31
0.0
  0
ARC
  5
9637
  8
AM_0
 10
175.63954202817521
 20
389.13724107640428
 30
0.0
 40
0.5
 50
90.0
 51
180.0
  0
LINE
  5
9638
  8
AM_0
 10
175.63954202817521
 20
389.63724107640439
 30
0.0
 11
173.4652371650152
 21
389.63724107640439
 31
0.0
  0
ARC
  5
9639
  8
AM_0
 10
181.01466829402119
 20
390.13724107640428
 30
0.0
 40
0.5
 50
270.0
 51
0.0
  0
LINE
  5
963A
  8
AM_0
 10
181.51466829402119
 20
393.63724107640439
 30
0.0
 11
173.13954202817411
 21
393.63724107640439
 31
0.0
  0
LINE
  5
963B
  8
AM_0
 10
175.31646028238029
 20
417.63724107640428
 30
0.0
 11
186.7535595965953
 21
417.63724107640428
 31
0.0
  0
LINE
  5
963C
  8
AM_0
 10
180.51466829402111
 20
410.63724107640428
 30
0.0
 11
169.83954202817429
 21
410.63724107640428
 31
0.0
  0
LINE
  5
963D
  8
AM_0
 10
173.73737959659519
 20
413.13718107640432
 30
0.0
 11
174.01811871965839
 21
423.85721107640433
 31
0.0
  0
LINE
  5
963E
  8
AM_0
 10
169.83954202817429
 20
410.63724107640428
 30
0.0
 11
162.63954202817419
 21
410.63724107640428
 31
0.0
  0
LINE
  5
963F
  8
AM_0
 10
156.65295821008209
 20
401.63724107640428
 30
0.0
 11
155.15295821008209
 21
401.63724107640428
 31
0.0
  0
LINE
  5
9640
  8
AM_0
 10
152.9496041646052
 20
401.63724107640428
 30
0.0
 11
151.4496041646052
 21
401.63724107640428
 31
0.0
  0
LINE
  5
9641
  8
AM_0
 10
149.24625011912809
 20
401.63724107640428
 30
0.0
 11
147.74625011912829
 21
401.63724107640428
 31
0.0
  0
CIRCLE
  5
9642
  8
AM_0
 10
158.33954202817429
 20
393.63724107640439
 30
0.0
 40
0.75
  0
LINE
  5
9643
  8
AM_0
 10
156.65295821008209
 20
405.63724107640428
 30
0.0
 11
155.15295821008209
 21
405.63724107640428
 31
0.0
  0
LINE
  5
9644
  8
AM_0
 10
152.9496041646052
 20
405.63724107640428
 30
0.0
 11
151.4496041646052
 21
405.63724107640428
 31
0.0
  0
LINE
  5
9645
  8
AM_0
 10
149.24625011912809
 20
405.63724107640428
 30
0.0
 11
147.74625011912829
 21
405.63724107640428
 31
0.0
  0
LINE
  5
9646
  8
AM_0
 10
166.51466829402119
 20
393.52236755937639
 30
0.0
 11
166.51466829402119
 21
410.63724107640428
 31
0.0
  0
LINE
  5
9647
  8
AM_0
 10
177.23737959659519
 20
410.63724107640428
 30
0.0
 11
177.23737959659519
 21
413.13724107640428
 31
0.0
  0
ARC
  5
9648
  8
AM_0
 10
175.31646028238029
 20
416.13724107640428
 30
0.0
 40
1.5
 50
90.0
 51
178.4998650936468
1001
GENIUS_GENODEF_13
1002
{
1000
HIER
1070
     0
1002
}
1002
{
1000
MANEDIT
1070
     0
1002
}
1002
{
1000
NOSEL
1070
     0
1002
}
1002
{
1000
BEHIND
1070
     0
1002
}
1002
{
1000
REACTOR
1002
}
1001
GENIUS_GENOBJ-N-FIL_13
1002
{
1000
OWNER
1000
GEN
1002
}
  0
LINE
  5
9649
  8
AM_0
 10
181.51466829402119
 20
393.63724107640439
 30
0.0
 11
181.51466829402119
 21
409.63724107640428
 31
0.0
  0
ARC
  5
964A
  8
AM_0
 10
180.51466829402111
 20
409.63724107640428
 30
0.0
 40
1.0
 50
0.0
 51
90.0
  0
LINE
  5
964B
  8
AM_0
 10
194.7373795965951
 20
434.13724107640428
 30
0.0
 11
202.73737959659519
 21
434.13724107640428
 31
0.0
  0
LINE
  5
964C
  8
AM_0
 10
194.7373795965951
 20
424.13724107640428
 30
0.0
 11
202.73737959659519
 21
424.13724107640428
 31
0.0
  0
LINE
  5
964D
  8
AM_0
 10
193.73737959659519
 20
427.1372110764043
 30
0.0
 11
188.0115795965952
 21
418.32025107640442
 31
0.0
  0
ARC
  5
964E
  8
AM_0
 10
186.86255959659519
 20
425.8619710764043
 30
0.0
 40
2.0047290000000002
 50
270.13832000000423
 51
344.82650000000177
  0
ARC
  5
964F
  8
AM_0
 10
186.7535595965953
 20
419.13724107640428
 30
0.0
 40
1.5
 50
269.999989999999
 51
326.99999999999801
  0
LINE
  5
9650
  8
AM_0
 10
189.27942959659521
 20
427.13724107640428
 30
0.0
 11
194.7373795965951
 21
427.13724107640428
 31
0.0
  0
LINE
  5
9651
  8
AM_0
 10
78.737379596595332
 20
533.13724107640451
 30
0.0
 11
86.737379596595332
 21
533.13724107640451
 31
0.0
  0
LINE
  5
9652
  8
AM_0
 10
79.437389596595253
 20
523.32718107640426
 30
0.0
 11
85.667369596595293
 21
523.32718107640426
 31
0.0
  0
LINE
  5
9653
  8
AM_0
 10
73.737379596595332
 20
524.02823107640415
 30
0.0
 11
73.737379596595332
 21
532.88724107640405
 31
0.0
  0
LINE
  5
9654
  8
AM_0
 10
28.737379596595328
 20
523.39017107640416
 30
0.0
 11
28.737379596595328
 21
530.88724107640428
 31
0.0
  0
LINE
  5
9655
  8
AM_0
 10
28.235949496595278
 20
523.18075998069708
 30
0.0
 11
28.235949496595278
 21
535.13724107640405
 31
0.0
  0
LINE
  5
9656
  8
AM_0
 10
22.23740959659531
 20
475.13724107640428
 30
0.0
 11
22.23740959659531
 21
485.13724107640428
 31
0.0
  0
LINE
  5
9657
  8
AM_0
 10
73.737379596595332
 20
442.9521810764042
 30
0.0
 11
73.737379596595332
 21
517.32327107640435
 31
0.0
  0
LINE
  5
9658
  8
AM_0
 10
28.737379596595328
 20
445.60818107640432
 30
0.0
 11
28.737379596595328
 21
514.6662910764046
 31
0.0
  0
LINE
  5
9659
  8
AM_0
 10
28.235949496595278
 20
514.87570217211169
 30
0.0
 11
28.235949496595278
 21
445.39877998069687
 31
0.0
  0
LINE
  5
965A
  8
AM_0
 10
31.237379596595328
 20
446.49625107640429
 30
0.0
 11
73.737379596595332
 21
446.49625107640429
 31
0.0
  0
ARC
  5
965B
  8
AM_0
 10
29.63740959659523
 20
442.74625107640418
 30
0.0
 40
3.0
 50
89.999988999997569
 51
179.99997999999781
  0
LINE
  5
965C
  8
AM_0
 10
26.63740959659523
 20
442.74625107640418
 30
0.0
 11
26.63740959659523
 21
439.74625107640418
 31
0.0
  0
LINE
  5
965D
  8
AM_0
 10
29.937389596595231
 20
445.84622107640428
 30
0.0
 11
31.237379596595328
 21
445.84622107640428
 31
0.0
  0
LINE
  5
965E
  8
AM_0
 10
29.63740959659523
 20
445.74625107640429
 30
0.0
 11
29.937389596595231
 21
445.74625107640429
 31
0.0
  0
LINE
  5
965F
  8
AM_0
 10
23.235949496595278
 20
475.13724107640428
 30
0.0
 11
22.23740959659531
 21
475.13724107640428
 31
0.0
  0
LINE
  5
9660
  8
AM_0
 10
28.737379596595328
 20
475.13724107640428
 30
0.0
 11
28.235949496595278
 21
475.13724107640428
 31
0.0
  0
LINE
  5
9661
  8
AM_0
 10
31.237379596595328
 20
524.02823107640415
 30
0.0
 11
73.737379596595332
 21
524.02823107640415
 31
0.0
  0
LINE
  5
9662
  8
AM_0
 10
31.237379596595328
 20
513.77823107640438
 30
0.0
 11
73.737379596595332
 21
513.77823107640438
 31
0.0
  0
LINE
  5
9663
  8
AM_0
 10
23.235949496595278
 20
485.13724107640428
 30
0.0
 11
22.23740959659531
 21
485.13724107640428
 31
0.0
  0
LINE
  5
9664
  8
AM_0
 10
28.737379596595328
 20
485.13724107640428
 30
0.0
 11
28.235949496595278
 21
485.13724107640428
 31
0.0
  0
ARC
  5
9665
  8
AM_0
 10
29.63740959659523
 20
517.52823107640427
 30
0.0
 40
3.0
 50
180.00002000000191
 51
270.00001100000242
  0
LINE
  5
9666
  8
AM_0
 10
29.937389596595231
 20
514.4282610764044
 30
0.0
 11
29.937389596595231
 21
523.62821107640434
 31
0.0
  0
LINE
  5
9667
  8
AM_0
 10
29.937389596595231
 20
514.4282610764044
 30
0.0
 11
31.237379596595328
 21
514.4282610764044
 31
0.0
  0
LINE
  5
9668
  8
AM_0
 10
29.63740959659523
 20
514.52823107640415
 30
0.0
 11
29.937389596595231
 21
514.52823107640415
 31
0.0
  0
ARC
  5
9669
  8
AM_0
 10
29.63740959659523
 20
520.52823107640438
 30
0.0
 40
3.0
 50
90.000049999998538
 51
180.00002000000191
  0
LINE
  5
966A
  8
AM_0
 10
26.63740959659523
 20
517.52823107640427
 30
0.0
 11
26.63740959659523
 21
520.52823107640438
 31
0.0
  0
LINE
  5
966B
  8
AM_0
 10
29.937389596595231
 20
523.62821107640434
 30
0.0
 11
31.237379596595328
 21
523.62821107640434
 31
0.0
  0
LINE
  5
966C
  8
AM_0
 10
29.63740959659523
 20
523.52823107640415
 30
0.0
 11
29.937389596595231
 21
523.52823107640415
 31
0.0
  0
LINE
  5
966D
  8
AM_0
 10
33.235949496595282
 20
540.13724107640451
 30
0.0
 11
56.737379596595332
 21
540.13724107640451
 31
0.0
  0
LINE
  5
966E
  8
AM_0
 10
30.737379596595328
 20
532.88724107640405
 30
0.0
 11
78.737379596595332
 21
532.88724107640405
 31
0.0
  0
LINE
  5
966F
  8
AM_0
 10
32.235949496595282
 20
545.13724107640451
 30
0.0
 11
69.737379596595332
 21
545.13724107640451
 31
0.0
  0
ARC
  5
9670
  8
AM_0
 10
33.235949496595282
 20
535.13724107640451
 30
0.0
 40
5.0
 50
89.999988999997569
 51
180.0
  0
ARC
  5
9671
  8
AM_0
 10
32.235949496595282
 20
536.13724107640451
 30
0.0
 40
9.0
 50
89.999988999997569
 51
179.99997999999781
  0
ARC
  5
9672
  8
AM_0
 10
30.737379596595328
 20
530.88724107640428
 30
0.0
 40
2.0
 50
90.000049999998538
 51
180.00002000000191
  0
LINE
  5
9673
  8
AM_0
 10
53.737379596595318
 20
538.88724107640428
 30
0.0
 11
78.737379596595332
 21
538.88724107640428
 31
0.0
  0
LINE
  5
9674
  8
AM_0
 10
66.737379596595332
 20
540.13724107640451
 30
0.0
 11
69.737379596595332
 21
540.13724107640451
 31
0.0
  0
LINE
  5
9675
  8
AM_0
 10
53.737379596595318
 20
538.88724107640428
 30
0.0
 11
53.737379596595318
 21
532.88724107640405
 31
0.0
  0
LINE
  5
9676
  8
AM_0
 10
56.737379596595332
 20
538.88724107640451
 30
0.0
 11
56.737379596595332
 21
545.13724107640451
 31
0.0
  0
LINE
  5
9677
  8
AM_0
 10
66.737379596595332
 20
538.88724107640451
 30
0.0
 11
66.737379596595332
 21
545.13724107640451
 31
0.0
  0
LINE
  5
9678
  8
AM_0
 10
69.737379596595332
 20
540.13724107640451
 30
0.0
 11
69.737379596595332
 21
545.13724107640451
 31
0.0
  0
LINE
  5
9679
  8
AM_0
 10
192.93738959659521
 20
519.47717107640415
 30
0.0
 11
188.79737959659519
 21
534.93719107640459
 31
0.0
  0
LINE
  5
967A
  8
AM_0
 10
192.9430995965952
 20
522.30609107640453
 30
0.0
 11
188.79737959659519
 21
537.78723107640417
 31
0.0
  0
LINE
  5
967B
  8
AM_0
 10
192.9430995965952
 20
524.15607107640426
 30
0.0
 11
188.79737959659519
 21
539.63718107640432
 31
0.0
  0
LINE
  5
967C
  8
AM_0
 10
192.9431295965953
 20
525.06607107640446
 30
0.0
 11
188.7974095965952
 21
540.54718107640451
 31
0.0
  0
LINE
  5
967D
  8
AM_0
 10
92.097369596595357
 20
516.78723107640417
 30
0.0
 11
86.737379596595332
 21
528.23721107640426
 31
0.0
  0
LINE
  5
967E
  8
AM_0
 10
88.417369596595307
 20
513.50723107640431
 30
0.0
 11
155.75739959659529
 21
513.50723107640431
 31
0.0
  0
LINE
  5
967F
  8
AM_0
 10
188.0774095965952
 20
516.13724107640451
 30
0.0
 11
89.097369596595385
 21
516.13724107640451
 31
0.0
  0
LINE
  5
9680
  8
AM_0
 10
188.0774095965952
 20
514.13724107640451
 30
0.0
 11
89.097369596595385
 21
514.13724107640451
 31
0.0
  0
LINE
  5
9681
  8
AM_0
 10
88.417369596595307
 20
516.85721107640461
 30
0.0
 11
191.55738959659519
 21
516.85721107640461
 31
0.0
  0
LINE
  5
9682
  8
AM_0
 10
88.197399596595346
 20
506.62723107640448
 30
0.0
 11
155.73737959659519
 21
506.62723107640448
 31
0.0
  0
LINE
  5
9683
  8
AM_0
 10
155.73737959659519
 20
454.13724107640428
 30
0.0
 11
89.097369596595385
 21
454.13724107640428
 31
0.0
  0
LINE
  5
9684
  8
AM_0
 10
88.197399596595346
 20
453.6472510764043
 30
0.0
 11
155.73737959659519
 21
453.6472510764043
 31
0.0
  0
LINE
  5
9685
  8
AM_0
 10
88.417369596595307
 20
446.76724107640428
 30
0.0
 11
155.75739959659529
 21
446.76724107640428
 31
0.0
  0
LINE
  5
9686
  8
AM_0
 10
188.07020959659519
 20
456.13724107640428
 30
0.0
 11
89.097369596595385
 21
456.13724107640428
 31
0.0
  0
LINE
  5
9687
  8
AM_0
 10
155.73737959659519
 20
506.13724107640428
 30
0.0
 11
89.097369596595385
 21
506.13724107640428
 31
0.0
  0
LINE
  5
9688
  8
AM_0
 10
188.07020959659519
 20
504.13724107640428
 30
0.0
 11
89.097369596595385
 21
504.13724107640428
 31
0.0
  0
LINE
  5
9689
  8
AM_0
 10
88.197399596595346
 20
456.57718107640432
 30
0.0
 11
191.7716195965952
 21
456.57718107640432
 31
0.0
  0
LINE
  5
968A
  8
AM_0
 10
88.197399596595346
 20
503.6973010764043
 30
0.0
 11
191.7716195965952
 21
503.6973010764043
 31
0.0
  0
LINE
  5
968B
  8
AM_0
 10
188.0774095965952
 20
446.13724107640428
 30
0.0
 11
143.73737959659519
 21
446.13724107640428
 31
0.0
  0
LINE
  5
968C
  8
AM_0
 10
188.0774095965952
 20
444.13724107640428
 30
0.0
 11
143.73737959659519
 21
444.13724107640428
 31
0.0
  0
LINE
  5
968D
  8
AM_0
 10
143.73737959659519
 20
443.41727107640429
 30
0.0
 11
191.55738959659519
 21
443.41727107640429
 31
0.0
  0
POLYLINE
  5
968E
  8
AM_0
 66
     1
 10
0.0
 20
0.0
 30
0.0
  0
VERTEX
  5
968F
  8
AM_0
 10
89.097369596595385
 20
480.13724107640428
 30
0.0
 42
-0.00039106649
  0
VERTEX
  5
9690
  8
AM_0
 10
89.095009596595304
 20
480.4483710764045
 30
0.0
 42
-0.00035488198
  0
VERTEX
  5
9691
  8
AM_0
 10
89.093119596595315
 20
480.75948107640431
 30
0.0
 42
-0.00039706113
  0
VERTEX
  5
9692
  8
AM_0
 10
89.091689596595273
 20
481.07059107640453
 30
0.0
 42
-0.00038765718
  0
VERTEX
  5
9693
  8
AM_0
 10
89.090759596595234
 20
481.38173107640432
 30
0.0
 42
-0.00040613432
  0
VERTEX
  5
9694
  8
AM_0
 10
89.090309596595219
 20
481.69283107640422
 30
0.0
 42
-0.00035573434
  0
VERTEX
  5
9695
  8
AM_0
 10
89.090349596595345
 20
482.00394107640449
 30
0.0
 42
-0.00038545884
  0
VERTEX
  5
9696
  8
AM_0
 10
89.090839596595245
 20
482.31507107640442
 30
0.0
 42
-0.00035501205
  0
VERTEX
  5
9697
  8
AM_0
 10
89.091799596595322
 20
482.62618107640441
 30
0.0
 42
-0.00040120779
  0
VERTEX
  5
9698
  8
AM_0
 10
89.093219596595276
 20
482.9374110764042
 30
0.0
 42
-0.00038317817
  0
VERTEX
  5
9699
  8
AM_0
 10
89.095129596595356
 20
483.24854107640448
 30
0.0
 42
-0.00035656084
  0
VERTEX
  5
969A
  8
AM_0
 10
89.097509596595245
 20
483.55978107640448
 30
0.0
 42
-0.00040143615
  0
VERTEX
  5
969B
  8
AM_0
 10
89.100359596595325
 20
483.87088107640432
 30
0.0
  0
SEQEND
  5
969C
  8
AM_0
  0
LINE
  5
969D
  8
AM_0
 10
88.007399596595263
 20
476.40726107640432
 30
0.0
 11
124.4560695965953
 21
476.40726107640432
 31
0.0
  0
LINE
  5
969E
  8
AM_0
 10
123.17609959659529
 20
476.13724107640428
 30
0.0
 11
89.097369596595385
 21
476.13724107640428
 31
0.0
  0
LINE
  5
969F
  8
AM_0
 10
123.17609959659529
 20
474.13724107640428
 30
0.0
 11
89.097369596595385
 21
474.13724107640428
 31
0.0
  0
LINE
  5
96A0
  8
AM_0
 10
88.007399596595263
 20
473.86722107640452
 30
0.0
 11
124.4560695965953
 21
473.86722107640452
 31
0.0
  0
LINE
  5
96A1
  8
AM_0
 10
88.067399596595322
 20
463.79727107640429
 30
0.0
 11
124.4086495965952
 21
463.79727107640429
 31
0.0
  0
LINE
  5
96A2
  8
AM_0
 10
88.067399596595322
 20
466.45718107640442
 30
0.0
 11
124.3960695965953
 21
466.45718107640442
 31
0.0
  0
LINE
  5
96A3
  8
AM_0
 10
123.17609959659529
 20
466.13724107640428
 30
0.0
 11
89.097369596595385
 21
466.13724107640428
 31
0.0
  0
LINE
  5
96A4
  8
AM_0
 10
123.17609959659529
 20
464.13724107640428
 30
0.0
 11
89.097369596595385
 21
464.13724107640428
 31
0.0
  0
LINE
  5
96A5
  8
AM_0
 10
88.417369596595307
 20
443.41727107640429
 30
0.0
 11
143.73737959659519
 21
443.41727107640429
 31
0.0
  0
LINE
  5
96A6
  8
AM_0
 10
143.73737959659519
 20
446.13724107640428
 30
0.0
 11
89.097369596595385
 21
446.13724107640428
 31
0.0
  0
LINE
  5
96A7
  8
AM_0
 10
143.73737959659519
 20
444.13724107640428
 30
0.0
 11
89.097369596595385
 21
444.13724107640428
 31
0.0
  0
POLYLINE
  5
96A8
  8
AM_0
 66
     1
 10
0.0
 20
0.0
 30
0.0
  0
VERTEX
  5
96A9
  8
AM_0
 10
89.615619596595309
 20
463.79666107640429
 30
0.0
 42
0.00073721992
  0
VERTEX
  5
96AA
  8
AM_0
 10
89.659769596595282
 20
463.19425107640433
 30
0.0
 42
0.00074398496
  0
VERTEX
  5
96AB
  8
AM_0
 10
89.705699596595281
 20
462.59198107640441
 30
0.0
 42
0.00073322625
  0
VERTEX
  5
96AC
  8
AM_0
 10
89.753429596595282
 20
461.9896510764043
 30
0.0
 42
0.00073594289
  0
VERTEX
  5
96AD
  8
AM_0
 10
89.802909596595313
 20
461.38766107640441
 30
0.0
 42
0.00074742568
  0
VERTEX
  5
96AE
  8
AM_0
 10
89.854179596595344
 20
460.78580107640443
 30
0.0
 42
0.00073216749
  0
VERTEX
  5
96AF
  8
AM_0
 10
89.907239596595304
 20
460.18399107640431
 30
0.0
 42
0.00074184065
  0
VERTEX
  5
96B0
  8
AM_0
 10
89.962059596595239
 20
459.58246107640451
 30
0.0
 42
0.00072077528
  0
VERTEX
  5
96B1
  8
AM_0
 10
90.018639596595307
 20
458.98123107640441
 30
0.0
 42
0.00074978179
  0
VERTEX
  5
96B2
  8
AM_0
 10
90.076979596595237
 20
458.38003107640429
 30
0.0
 42
0.00074288888
  0
VERTEX
  5
96B3
  8
AM_0
 10
90.13712959659523
 20
457.77901107640429
 30
0.0
 42
0.00072503679
  0
VERTEX
  5
96B4
  8
AM_0
 10
90.199039596595284
 20
457.1782710764042
 30
0.0
 42
0.00074640584
  0
VERTEX
  5
96B5
  8
AM_0
 10
90.262709596595286
 20
456.57767107640427
 30
0.0
  0
SEQEND
  5
96B6
  8
AM_0
  0
POLYLINE
  5
96B7
  8
AM_0
 66
     1
 10
0.0
 20
0.0
 30
0.0
  0
VERTEX
  5
96B8
  8
AM_0
 10
90.598279596595304
 20
453.65420107640432
 30
0.0
 42
0.00068900015
  0
VERTEX
  5
96B9
  8
AM_0
 10
90.669159596595236
 20
453.07945107640433
 30
0.0
 42
0.00070644648
  0
VERTEX
  5
96BA
  8
AM_0
 10
90.741659596595312
 20
452.50477107640421
 30
0.0
 42
0.00069245587
  0
VERTEX
  5
96BB
  8
AM_0
 10
90.815749596595282
 20
451.93045107640449
 30
0.0
 42
0.00069587802
  0
VERTEX
  5
96BC
  8
AM_0
 10
90.891429596595316
 20
451.35631107640432
 30
0.0
 42
0.00068980012
  0
VERTEX
  5
96BD
  8
AM_0
 10
90.968729596595225
 20
450.78231107640448
 30
0.0
 42
0.00072079193
  0
VERTEX
  5
96BE
  8
AM_0
 10
91.047619596595368
 20
450.20853107640443
 30
0.0
 42
0.00071003147
  0
VERTEX
  5
96BF
  8
AM_0
 10
91.128159596595282
 20
449.63505107640441
 30
0.0
 42
0.00072658712
  0
VERTEX
  5
96C0
  8
AM_0
 10
91.210319596595298
 20
449.06196107640432
 30
0.0
 42
0.00069571059
  0
VERTEX
  5
96C1
  8
AM_0
 10
91.294139596595286
 20
448.48892107640432
 30
0.0
 42
0.0007126617
  0
VERTEX
  5
96C2
  8
AM_0
 10
91.37956959659536
 20
447.91616107640442
 30
0.0
 42
0.00071614574
  0
VERTEX
  5
96C3
  8
AM_0
 10
91.466599596595273
 20
447.34381107640428
 30
0.0
 42
0.00072290803
  0
VERTEX
  5
96C4
  8
AM_0
 10
91.555309596595265
 20
446.77151107640452
 30
0.0
  0
SEQEND
  5
96C5
  8
AM_0
  0
ARC
  5
96C6
  8
AM_0
 10
88.410539596595271
 20
445.09219107640428
 30
0.0
 40
1.675014
 50
89.766498999996756
 51
270.2335099999994
  0
ARC
  5
96C7
  8
AM_0
 10
89.281999596595355
 20
445.13724107640428
 30
0.0
 40
1.000013899999999
 50
89.691659999999231
 51
270.30834000000078
  0
ARC
  5
96C8
  8
AM_0
 10
88.197399596595346
 20
455.11221107640432
 30
0.0
 40
1.465004
 50
90.00000299999769
 51
270.0
  0
ARC
  5
96C9
  8
AM_0
 10
89.281999596595355
 20
455.13724107640428
 30
0.0
 40
1.000013899999999
 50
89.691659999999231
 51
270.30834000000078
  0
POLYLINE
  5
96CA
  8
AM_0
 66
     1
 10
0.0
 20
0.0
 30
0.0
  0
VERTEX
  5
96CB
  8
AM_0
 10
89.141429596595302
 20
473.86685107640432
 30
0.0
 42
0.00076695235
  0
VERTEX
  5
96CC
  8
AM_0
 10
89.156229596595253
 20
473.24909107640428
 30
0.0
 42
0.00073263043
  0
VERTEX
  5
96CD
  8
AM_0
 10
89.172869596595305
 20
472.63149107640442
 30
0.0
 42
0.00076525988
  0
VERTEX
  5
96CE
  8
AM_0
 10
89.191359596595206
 20
472.01382107640433
 30
0.0
 42
0.00075144488
  0
VERTEX
  5
96CF
  8
AM_0
 10
89.211729596595305
 20
471.39622107640429
 30
0.0
 42
0.00076035096
  0
VERTEX
  5
96D0
  8
AM_0
 10
89.233969596595301
 20
470.7787910764045
 30
0.0
 42
0.00075543154
  0
VERTEX
  5
96D1
  8
AM_0
 10
89.258069596595263
 20
470.16141107640431
 30
0.0
 42
0.0007577325
  0
VERTEX
  5
96D2
  8
AM_0
 10
89.284049596595295
 20
469.5440110764045
 30
0.0
 42
0.00076034585
  0
VERTEX
  5
96D3
  8
AM_0
 10
89.311899596595325
 20
468.92662107640427
 30
0.0
 42
0.00074823143
  0
VERTEX
  5
96D4
  8
AM_0
 10
89.341629596595311
 20
468.30923107640427
 30
0.0
 42
0.00074896605
  0
VERTEX
  5
96D5
  8
AM_0
 10
89.373189596595211
 20
467.6921010764043
 30
0.0
 42
0.00076039763
  0
VERTEX
  5
96D6
  8
AM_0
 10
89.406609596595288
 20
467.07507107640441
 30
0.0
 42
0.00075616127
  0
VERTEX
  5
96D7
  8
AM_0
 10
89.441909596595309
 20
466.45804107640441
 30
0.0
  0
SEQEND
  5
96D8
  8
AM_0
  0
ARC
  5
96D9
  8
AM_0
 10
89.281999596595355
 20
465.13724107640428
 30
0.0
 40
1.000013899999999
 50
89.691659999999231
 51
270.30834000000078
  0
ARC
  5
96DA
  8
AM_0
 10
88.067399596595322
 20
465.12723107640448
 30
0.0
 40
1.3300049999999981
 50
90.00000299999769
 51
270.0
  0
ARC
  5
96DB
  8
AM_0
 10
89.281999596595355
 20
475.13724107640428
 30
0.0
 40
1.000013899999999
 50
89.691659999999231
 51
270.30834000000078
  0
ARC
  5
96DC
  8
AM_0
 10
88.001539596595293
 20
475.13724107640428
 30
0.0
 40
1.2700129999999981
 50
89.736617000001587
 51
270.2633699999991
  0
POLYLINE
  5
96DD
  8
AM_0
 66
     1
 10
0.0
 20
0.0
 30
0.0
  0
VERTEX
  5
96DE
  8
AM_0
 10
89.097369596595385
 20
480.13724107640428
 30
0.0
 42
0.00039106589
  0
VERTEX
  5
96DF
  8
AM_0
 10
89.095009596595304
 20
479.82610107640431
 30
0.0
 42
0.00035488584
  0
VERTEX
  5
96E0
  8
AM_0
 10
89.093119596595315
 20
479.51499107640433
 30
0.0
 42
0.00039705232
  0
VERTEX
  5
96E1
  8
AM_0
 10
89.091689596595273
 20
479.20389107640432
 30
0.0
 42
0.0003876649
  0
VERTEX
  5
96E2
  8
AM_0
 10
89.090759596595234
 20
478.89275107640429
 30
0.0
 42
0.00040613779
  0
VERTEX
  5
96E3
  8
AM_0
 10
89.090309596595219
 20
478.58164107640442
 30
0.0
 42
0.00035571855
  0
VERTEX
  5
96E4
  8
AM_0
 10
89.090349596595345
 20
478.27054107640441
 30
0.0
 42
0.00038547358
  0
VERTEX
  5
96E5
  8
AM_0
 10
89.090839596595245
 20
477.95940107640428
 30
0.0
 42
0.000355015
  0
VERTEX
  5
96E6
  8
AM_0
 10
89.091799596595322
 20
477.64830107640449
 30
0.0
 42
0.00040118616
  0
VERTEX
  5
96E7
  8
AM_0
 10
89.093219596595276
 20
477.3370710764043
 30
0.0
 42
0.00038319867
  0
VERTEX
  5
96E8
  8
AM_0
 10
89.095129596595356
 20
477.02593107640428
 30
0.0
 42
0.00035656356
  0
VERTEX
  5
96E9
  8
AM_0
 10
89.097509596595245
 20
476.71470107640431
 30
0.0
 42
0.00040140992
  0
VERTEX
  5
96EA
  8
AM_0
 10
89.100359596595325
 20
476.40359107640433
 30
0.0
  0
SEQEND
  5
96EB
  8
AM_0
  0
ARC
  5
96EC
  8
AM_0
 10
123.17609959659529
 20
465.13724107640428
 30
0.0
 40
1.0000056999999991
 50
269.999989999999
 51
90.00000299999769
  0
ARC
  5
96ED
  8
AM_0
 10
124.4023595965952
 20
465.12723107640448
 30
0.0
 40
1.3300148000000001
 50
269.72941999999853
 51
90.270567000000995
  0
ARC
  5
96EE
  8
AM_0
 10
123.17609959659529
 20
475.13724107640428
 30
0.0
 40
1.0000056999999991
 50
269.999989999999
 51
90.00000299999769
  0
ARC
  5
96EF
  8
AM_0
 10
124.4643095965952
 20
475.13724107640428
 30
0.0
 40
1.2700266
 50
269.62931999999989
 51
90.370670000004694
  0
LINE
  5
96F0
  8
AM_0
 10
123.17609959659529
 20
486.13724107640428
 30
0.0
 11
89.097369596595385
 21
486.13724107640428
 31
0.0
  0
LINE
  5
96F1
  8
AM_0
 10
123.17609959659529
 20
484.13724107640428
 30
0.0
 11
89.097369596595385
 21
484.13724107640428
 31
0.0
  0
LINE
  5
96F2
  8
AM_0
 10
88.007399596595263
 20
486.40726107640432
 30
0.0
 11
124.4560695965953
 21
486.40726107640432
 31
0.0
  0
LINE
  5
96F3
  8
AM_0
 10
88.007399596595263
 20
483.87723107640448
 30
0.0
 11
124.4560695965953
 21
483.87723107640448
 31
0.0
  0
LINE
  5
96F4
  8
AM_0
 10
123.17609959659529
 20
496.13724107640428
 30
0.0
 11
89.097369596595385
 21
496.13724107640428
 31
0.0
  0
LINE
  5
96F5
  8
AM_0
 10
88.067399596595322
 20
496.4772010764043
 30
0.0
 11
124.3960695965953
 21
496.4772010764043
 31
0.0
  0
LINE
  5
96F6
  8
AM_0
 10
123.17609959659529
 20
494.13724107640428
 30
0.0
 11
89.097369596595385
 21
494.13724107640428
 31
0.0
  0
LINE
  5
96F7
  8
AM_0
 10
88.067399596595322
 20
493.81729107640427
 30
0.0
 11
124.3960695965953
 21
493.81729107640427
 31
0.0
  0
ARC
  5
96F8
  8
AM_0
 10
88.197399596595346
 20
505.16226107640421
 30
0.0
 40
1.465004
 50
90.00000299999769
 51
270.0
  0
POLYLINE
  5
96F9
  8
AM_0
 66
     1
 10
0.0
 20
0.0
 30
0.0
  0
VERTEX
  5
96FA
  8
AM_0
 10
89.141429596595302
 20
486.40762107640433
 30
0.0
 42
-0.00076691992
  0
VERTEX
  5
96FB
  8
AM_0
 10
89.156229596595253
 20
487.02539107640428
 30
0.0
 42
-0.00073262792
  0
VERTEX
  5
96FC
  8
AM_0
 10
89.172869596595305
 20
487.64298107640451
 30
0.0
 42
-0.00076529537
  0
VERTEX
  5
96FD
  8
AM_0
 10
89.191359596595206
 20
488.26065107640432
 30
0.0
 42
-0.00075141097
  0
VERTEX
  5
96FE
  8
AM_0
 10
89.211729596595305
 20
488.8782510764043
 30
0.0
 42
-0.00075841687
  0
VERTEX
  5
96FF
  8
AM_0
 10
89.233959596595327
 20
489.49568107640431
 30
0.0
 42
-0.00075711788
  0
VERTEX
  5
9700
  8
AM_0
 10
89.258069596595263
 20
490.11319107640429
 30
0.0
 42
-0.00075976003
  0
VERTEX
  5
9701
  8
AM_0
 10
89.284059596595256
 20
490.73058107640429
 30
0.0
 42
-0.00075797311
  0
VERTEX
  5
9702
  8
AM_0
 10
89.311899596595325
 20
491.34786107640451
 30
0.0
 42
-0.0007482613
  0
VERTEX
  5
9703
  8
AM_0
 10
89.341629596595311
 20
491.96524107640431
 30
0.0
 42
-0.00074893561
  0
VERTEX
  5
9704
  8
AM_0
 10
89.373189596595211
 20
492.58237107640451
 30
0.0
 42
-0.00076039839
  0
VERTEX
  5
9705
  8
AM_0
 10
89.406609596595288
 20
493.19940107640429
 30
0.0
 42
-0.00075618786
  0
VERTEX
  5
9706
  8
AM_0
 10
89.441909596595309
 20
493.81644107640432
 30
0.0
  0
SEQEND
  5
9707
  8
AM_0
  0
ARC
  5
9708
  8
AM_0
 10
88.001539596595293
 20
485.14224107640428
 30
0.0
 40
1.2650129999999991
 50
89.735579000001735
 51
270.26441000000239
  0
ARC
  5
9709
  8
AM_0
 10
89.281999596595355
 20
485.13724107640428
 30
0.0
 40
1.000013899999999
 50
89.691659999999231
 51
270.30834000000078
  0
POLYLINE
  5
970A
  8
AM_0
 66
     1
 10
0.0
 20
0.0
 30
0.0
  0
VERTEX
  5
970B
  8
AM_0
 10
89.615619596595309
 20
496.47781107640429
 30
0.0
 42
-0.0007337051
  0
VERTEX
  5
970C
  8
AM_0
 10
89.659759596595293
 20
497.08023107640429
 30
0.0
 42
-0.00075211323
  0
VERTEX
  5
970D
  8
AM_0
 10
89.705699596595281
 20
497.6826210764043
 30
0.0
 42
-0.0007297491
  0
VERTEX
  5
970E
  8
AM_0
 10
89.753429596595282
 20
498.28482107640451
 30
0.0
 42
-0.00073593041
  0
VERTEX
  5
970F
  8
AM_0
 10
89.802909596595313
 20
498.88681107640429
 30
0.0
 42
-0.00074742739
  0
VERTEX
  5
9710
  8
AM_0
 10
89.854179596595344
 20
499.4886810764043
 30
0.0
 42
-0.00073217363
  0
VERTEX
  5
9711
  8
AM_0
 10
89.907239596595304
 20
500.09048107640422
 30
0.0
 42
-0.00073754168
  0
VERTEX
  5
9712
  8
AM_0
 10
89.962059596595239
 20
500.69202107640422
 30
0.0
 42
-0.00073075073
  0
VERTEX
  5
9713
  8
AM_0
 10
90.018639596595307
 20
501.29338107640422
 30
0.0
 42
-0.00074550816
  0
VERTEX
  5
9714
  8
AM_0
 10
90.076979596595237
 20
501.89444107640429
 30
0.0
 42
-0.00074288416
  0
VERTEX
  5
9715
  8
AM_0
 10
90.13712959659523
 20
502.49546107640441
 30
0.0
 42
-0.00072504001
  0
VERTEX
  5
9716
  8
AM_0
 10
90.199039596595284
 20
503.0962110764043
 30
0.0
 42
-0.00074640667
  0
VERTEX
  5
9717
  8
AM_0
 10
90.262709596595286
 20
503.69681107640429
 30
0.0
  0
SEQEND
  5
9718
  8
AM_0
  0
ARC
  5
9719
  8
AM_0
 10
88.067399596595322
 20
495.1472510764043
 30
0.0
 40
1.3300049999999981
 50
90.00000299999769
 51
270.0
  0
ARC
  5
971A
  8
AM_0
 10
89.281999596595355
 20
495.13724107640428
 30
0.0
 40
1.000013899999999
 50
89.691659999999231
 51
270.30834000000078
  0
ARC
  5
971B
  8
AM_0
 10
89.281999596595355
 20
515.13724107640451
 30
0.0
 40
1.000013899999999
 50
89.691659999999231
 51
270.30834000000078
  0
ARC
  5
971C
  8
AM_0
 10
88.40998959659531
 20
515.18228107640425
 30
0.0
 40
1.6750160000000001
 50
89.746145000004447
 51
270.25387000000092
  0
POLYLINE
  5
971D
  8
AM_0
 66
     1
 10
0.0
 20
0.0
 30
0.0
  0
VERTEX
  5
971E
  8
AM_0
 10
90.598279596595304
 20
506.62027107640432
 30
0.0
 42
-0.00068898288
  0
VERTEX
  5
971F
  8
AM_0
 10
90.669159596595236
 20
507.1950210764042
 30
0.0
 42
-0.00070644354
  0
VERTEX
  5
9720
  8
AM_0
 10
90.741659596595312
 20
507.76971107640429
 30
0.0
 42
-0.00069248071
  0
VERTEX
  5
9721
  8
AM_0
 10
90.815749596595282
 20
508.34402107640432
 30
0.0
 42
-0.00069585665
  0
VERTEX
  5
9722
  8
AM_0
 10
90.891429596595316
 20
508.9181610764042
 30
0.0
 42
-0.00068980191
  0
VERTEX
  5
9723
  8
AM_0
 10
90.968729596595225
 20
509.49216107640427
 30
0.0
 42
-0.00072080104
  0
VERTEX
  5
9724
  8
AM_0
 10
91.047619596595368
 20
510.0659510764043
 30
0.0
 42
-0.00071002307
  0
VERTEX
  5
9725
  8
AM_0
 10
91.128159596595282
 20
510.63942107640429
 30
0.0
 42
-0.00072659056
  0
VERTEX
  5
9726
  8
AM_0
 10
91.210319596595298
 20
511.21252107640453
 30
0.0
 42
-0.00069570481
  0
VERTEX
  5
9727
  8
AM_0
 10
91.294139596595286
 20
511.78555107640432
 30
0.0
 42
-0.00071266935
  0
VERTEX
  5
9728
  8
AM_0
 10
91.37956959659536
 20
512.35832107640454
 30
0.0
 42
-0.00071614426
  0
VERTEX
  5
9729
  8
AM_0
 10
91.466599596595273
 20
512.93066107640448
 30
0.0
 42
-0.00072288975
  0
VERTEX
  5
972A
  8
AM_0
 10
91.555309596595265
 20
513.50296107640429
 30
0.0
  0
SEQEND
  5
972B
  8
AM_0
  0
ARC
  5
972C
  8
AM_0
 10
89.281999596595355
 20
505.13724107640428
 30
0.0
 40
1.000013899999999
 50
89.691659999999231
 51
270.30834000000078
  0
ARC
  5
972D
  8
AM_0
 10
123.17609959659529
 20
485.13724107640428
 30
0.0
 40
1.0000056999999991
 50
269.999989999999
 51
90.00000299999769
  0
ARC
  5
972E
  8
AM_0
 10
124.4643095965952
 20
485.1472510764043
 30
0.0
 40
1.2700266
 50
269.62931999999989
 51
90.370670000004694
  0
ARC
  5
972F
  8
AM_0
 10
123.17609959659529
 20
495.13724107640428
 30
0.0
 40
1.0000056999999991
 50
269.999989999999
 51
90.00000299999769
  0
ARC
  5
9730
  8
AM_0
 10
124.4023595965952
 20
495.1522510764043
 30
0.0
 40
1.3350147999999991
 50
269.73042999999973
 51
90.269556000001344
  0
LINE
  5
9731
  8
AM_0
 10
188.07020959659519
 20
454.13724107640428
 30
0.0
 11
173.73737959659519
 21
454.13724107640428
 31
0.0
  0
LINE
  5
9732
  8
AM_0
 10
191.55738959659519
 20
446.76724107640428
 30
0.0
 11
173.7173595965952
 21
446.76724107640428
 31
0.0
  0
LINE
  5
9733
  8
AM_0
 10
173.73737959659519
 20
453.65726107640432
 30
0.0
 11
191.7716195965952
 21
453.65726107640432
 31
0.0
  0
LINE
  5
9734
  8
AM_0
 10
157.23737959659519
 20
452.63724107640428
 30
0.0
 11
157.23737959659519
 21
447.63724107640428
 31
0.0
  0
LINE
  5
9735
  8
AM_0
 10
156.75739959659529
 20
452.63724107640428
 30
0.0
 11
156.75739959659529
 21
447.7772510764043
 31
0.0
  0
ARC
  5
9736
  8
AM_0
 10
155.75739959659529
 20
447.7772510764043
 30
0.0
 40
1.0
 50
269.999989999999
 51
0.0000006832495047
  0
ARC
  5
9737
  8
AM_0
 10
155.73737959659519
 20
447.63724107640428
 30
0.0
 40
1.5
 50
269.999989999999
 51
0.0000006832495047
  0
ARC
  5
9738
  8
AM_0
 10
155.73737959659519
 20
452.63724107640428
 30
0.0
 40
1.5
 50
0.0
 51
90.00000299999769
  0
ARC
  5
9739
  8
AM_0
 10
155.73737959659519
 20
452.63724107640428
 30
0.0
 40
1.02
 50
0.0
 51
90.00000299999769
  0
CIRCLE
  5
973A
  8
AM_0
 10
162.23737959659519
 20
451.63724107640428
 30
0.0
 40
1.149999999999999
  0
CIRCLE
  5
973B
  8
AM_0
 10
162.23737959659519
 20
451.63724107640428
 30
0.0
 40
1.1000000000000001
  0
LINE
  5
973C
  8
AM_0
 10
172.7173595965952
 20
452.63724107640428
 30
0.0
 11
172.7173595965952
 21
447.7772510764043
 31
0.0
  0
LINE
  5
973D
  8
AM_0
 10
172.23737959659519
 20
452.63724107640428
 30
0.0
 11
172.23737959659519
 21
447.63724107640428
 31
0.0
  0
ARC
  5
973E
  8
AM_0
 10
173.7173595965952
 20
447.7772510764043
 30
0.0
 40
1.0
 50
179.99998999999889
 51
270.0
  0
ARC
  5
973F
  8
AM_0
 10
173.73737959659519
 20
447.63724107640428
 30
0.0
 40
1.5
 50
179.99998999999889
 51
270.0
  0
CIRCLE
  5
9740
  8
AM_0
 10
167.23737959659519
 20
451.63724107640428
 30
0.0
 40
1.0
  0
ARC
  5
9741
  8
AM_0
 10
173.73737959659519
 20
452.63724107640428
 30
0.0
 40
1.5
 50
90.00000299999769
 51
180.00001000000091
  0
ARC
  5
9742
  8
AM_0
 10
173.73737959659519
 20
452.63724107640428
 30
0.0
 40
1.02
 50
90.00000299999769
 51
180.00001000000091
  0
LINE
  5
9743
  8
AM_0
 10
194.7373795965951
 20
448.1973010764043
 30
0.0
 11
202.73737959659519
 21
448.1973010764043
 31
0.0
  0
ARC
  5
9744
  8
AM_0
 10
188.0774095965952
 20
445.13724107640428
 30
0.0
 40
1.0
 50
269.999989999999
 51
90.00000299999769
  0
ARC
  5
9745
  8
AM_0
 10
194.3905795965953
 20
440.41446107640428
 30
0.0
 40
1.502775999999999
 50
90.122413000001615
 51
165.2435700000006
  0
ARC
  5
9746
  8
AM_0
 10
191.55738959659519
 20
445.09219107640428
 30
0.0
 40
1.6750020000000001
 50
269.999989999999
 51
90.00000299999769
  0
ARC
  5
9747
  8
AM_0
 10
188.0773495965953
 20
455.13724107640428
 30
0.0
 40
1.0000255999999981
 50
269.58947000000319
 51
90.410530999997775
  0
ARC
  5
9748
  8
AM_0
 10
191.7773595965952
 20
455.10721107640433
 30
0.0
 40
1.460011199999999
 50
269.77524999999662
 51
90.224749999996845
  0
LINE
  5
9749
  8
AM_0
 10
173.7173595965952
 20
513.49722107640434
 30
0.0
 11
191.55738959659519
 21
513.49722107640434
 31
0.0
  0
LINE
  5
974A
  8
AM_0
 10
188.08454959659531
 20
506.13724107640428
 30
0.0
 11
173.73737959659519
 21
506.13724107640428
 31
0.0
  0
LINE
  5
974B
  8
AM_0
 10
173.73737959659519
 20
506.62723107640448
 30
0.0
 11
191.78303959659519
 21
506.62723107640448
 31
0.0
  0
CIRCLE
  5
974C
  8
AM_0
 10
162.23737959659519
 20
508.63724107640428
 30
0.0
 40
1.1000000000000001
  0
CIRCLE
  5
974D
  8
AM_0
 10
162.23737959659519
 20
508.63724107640428
 30
0.0
 40
1.149999999999999
  0
LINE
  5
974E
  8
AM_0
 10
157.23737959659519
 20
507.63724107640428
 30
0.0
 11
157.23737959659519
 21
512.63724107640439
 31
0.0
  0
LINE
  5
974F
  8
AM_0
 10
156.75739959659529
 20
507.63724107640428
 30
0.0
 11
156.75739959659529
 21
512.49722107640434
 31
0.0
  0
ARC
  5
9750
  8
AM_0
 10
155.73737959659519
 20
507.63724107640428
 30
0.0
 40
1.5
 50
269.999989999999
 51
0.0000006832495047
  0
ARC
  5
9751
  8
AM_0
 10
155.73737959659519
 20
507.63724107640428
 30
0.0
 40
1.02
 50
269.999989999999
 51
0.0000006832429909
  0
ARC
  5
9752
  8
AM_0
 10
155.75739959659529
 20
512.49722107640434
 30
0.0
 40
1.0
 50
0.0
 51
90.00000299999769
  0
ARC
  5
9753
  8
AM_0
 10
155.73737959659519
 20
512.63724107640439
 30
0.0
 40
1.5
 50
0.0
 51
90.00000299999769
  0
CIRCLE
  5
9754
  8
AM_0
 10
167.23737959659519
 20
508.63724107640428
 30
0.0
 40
1.0
  0
LINE
  5
9755
  8
AM_0
 10
172.7173595965952
 20
507.63724107640428
 30
0.0
 11
172.7173595965952
 21
512.49722107640434
 31
0.0
  0
LINE
  5
9756
  8
AM_0
 10
172.23737959659519
 20
507.63724107640428
 30
0.0
 11
172.23737959659519
 21
512.63724107640439
 31
0.0
  0
ARC
  5
9757
  8
AM_0
 10
173.73737959659519
 20
507.63724107640428
 30
0.0
 40
1.5
 50
179.99998999999889
 51
270.0
  0
ARC
  5
9758
  8
AM_0
 10
173.73737959659519
 20
507.63724107640428
 30
0.0
 40
1.02
 50
179.99998999999889
 51
270.0
  0
ARC
  5
9759
  8
AM_0
 10
173.73737959659519
 20
512.63724107640439
 30
0.0
 40
1.5
 50
90.00000299999769
 51
180.00001000000091
  0
ARC
  5
975A
  8
AM_0
 10
173.7173595965952
 20
512.49722107640434
 30
0.0
 40
1.0
 50
90.00000299999769
 51
180.00001000000091
  0
ARC
  5
975B
  8
AM_0
 10
191.7773595965952
 20
505.1672710764044
 30
0.0
 40
1.460011199999999
 50
269.77524999999662
 51
90.224749999996845
  0
LINE
  5
975C
  8
AM_0
 10
194.7373795965951
 20
512.07718107640426
 30
0.0
 11
202.73737959659519
 21
512.07718107640426
 31
0.0
  0
ARC
  5
975D
  8
AM_0
 10
191.55738959659519
 20
515.18228107640425
 30
0.0
 40
1.6750020000000001
 50
269.999989999999
 51
90.00000299999769
  0
ARC
  5
975E
  8
AM_0
 10
188.0774095965952
 20
515.13724107640451
 30
0.0
 40
1.0
 50
269.999989999999
 51
90.00000299999769
  0
ARC
  5
975F
  8
AM_0
 10
188.0773495965953
 20
505.13724107640428
 30
0.0
 40
1.0000255999999981
 50
269.58947000000319
 51
90.410530999997775
  0
ARC
  5
9760
  8
AM_0
 10
194.3905795965953
 20
519.86002107640456
 30
0.0
 40
1.502775999999999
 50
194.7564299999992
 51
269.8775799999986
  0
ARC
  5
9761
  8
AM_0
 10
194.3905795965953
 20
525.47000107640451
 30
0.0
 40
1.502775999999999
 50
194.7564299999992
 51
269.8775799999986
  0
ARC
  5
9762
  8
AM_0
 10
194.3905795965953
 20
524.55997107640451
 30
0.0
 40
1.502775999999999
 50
194.7564299999992
 51
269.8775799999986
  0
ARC
  5
9763
  8
AM_0
 10
194.3905795965953
 20
522.70999107640455
 30
0.0
 40
1.502775999999999
 50
194.7564299999992
 51
269.8775799999986
  0
LINE
  5
9764
  8
AM_0
 10
89.947399596595304
 20
536.41727107640429
 30
0.0
 11
186.86738959659519
 21
536.41727107640429
 31
0.0
  0
LINE
  5
9765
  8
AM_0
 10
89.987379596595346
 20
539.26724107640439
 30
0.0
 11
186.86738959659519
 21
539.26724107640439
 31
0.0
  0
LINE
  5
9766
  8
AM_0
 10
90.007399596595263
 20
541.11722107640435
 30
0.0
 11
186.86738959659519
 21
541.11722107640435
 31
0.0
  0
LINE
  5
9767
  8
AM_0
 10
90.027359596595218
 20
542.02725107640435
 30
0.0
 11
186.86744959659521
 21
542.02725107640435
 31
0.0
  0
LINE
  5
9768
  8
AM_0
 10
86.737379596595332
 20
530.92725107640445
 30
0.0
 11
88.027359596595232
 21
539.41721107640456
 31
0.0
  0
LINE
  5
9769
  8
AM_0
 10
86.737379596595332
 20
529.57727107640449
 30
0.0
 11
88.017349596595267
 21
537.58722107640415
 31
0.0
  0
LINE
  5
976A
  8
AM_0
 10
86.737379596595332
 20
530.92725107640445
 30
0.0
 11
88.047379596595263
 21
540.30728107640448
 31
0.0
  0
LINE
  5
976B
  8
AM_0
 10
86.737379596595332
 20
528.23727107640445
 30
0.0
 11
87.977369596595366
 21
534.79724107640459
 31
0.0
  0
ARC
  5
976C
  8
AM_0
 10
89.936109596595287
 20
534.42313107640416
 30
0.0
 40
1.994108999999999
 50
89.675548000002749
 51
169.18776999999869
  0
ARC
  5
976D
  8
AM_0
 10
90.023879596595265
 20
540.03165107640416
 30
0.0
 40
1.995633
 50
89.899708000002292
 51
172.06112999999959
  0
ARC
  5
976E
  8
AM_0
 10
90.00196959659533
 20
539.12051107640445
 30
0.0
 40
1.9967330000000001
 50
89.843966999998912
 51
171.45387999999721
  0
ARC
  5
976F
  8
AM_0
 10
89.987629596595269
 20
537.27200107640431
 30
0.0
 40
1.995282999999999
 50
90.006203999996856
 51
170.90835000000069
  0
LINE
  5
9770
  8
AM_0
 10
194.7373795965951
 20
536.13724107640451
 30
0.0
 11
202.73737959659519
 21
536.13724107640451
 31
0.0
  0
LINE
  5
9771
  8
AM_0
 10
194.7373795965951
 20
526.13724107640451
 30
0.0
 11
202.73737959659519
 21
526.13724107640451
 31
0.0
  0
ARC
  5
9772
  8
AM_0
 10
186.86744959659521
 20
534.41898107640418
 30
0.0
 40
1.9982919999999991
 50
15.032547999996
 51
90.002632000001341
  0
LINE
  5
9773
  8
AM_0
 10
189.2773595965952
 20
533.13724107640451
 30
0.0
 11
194.7373795965951
 21
533.13724107640451
 31
0.0
  0
ARC
  5
9774
  8
AM_0
 10
186.86255959659519
 20
540.02249107640455
 30
0.0
 40
2.0047290000000002
 50
15.173495999996319
 51
89.861678000000197
  0
ARC
  5
9775
  8
AM_0
 10
186.86255959659519
 20
537.26248107640436
 30
0.0
 40
2.0047290000000002
 50
15.173495999996319
 51
89.861678000000197
  0
ARC
  5
9776
  8
AM_0
 10
186.86255959659519
 20
539.11246107640454
 30
0.0
 40
2.0047290000000002
 50
15.173495999996319
 51
89.861678000000197
  0
LINE
  5
9785
  8
ﾁｭｳｼﾝｾﾝ
 10
428.23743959659492
 20
372.13725607640441
 30
0.0
 11
428.23743959659492
 21
398.1372560764043
 31
0.0
  0
LINE
  5
9786
  8
ﾁｭｳｼﾝｾﾝ
 10
415.23743959659481
 20
385.13725607640441
 30
0.0
 11
441.23743959659492
 21
385.13725607640441
 31
0.0
  0
LINE
  5
978D
  8
ﾁｭｳｼﾝｾﾝ
 10
303.23737959659508
 20
372.13725607640441
 30
0.0
 11
303.23737959659508
 21
398.1372560764043
 31
0.0
  0
LINE
  5
978E
  8
ﾁｭｳｼﾝｾﾝ
 10
290.23737959659508
 20
385.13725607640441
 30
0.0
 11
316.23737959659508
 21
385.13725607640441
 31
0.0
  0
LINE
  5
9795
  8
ﾁｭｳｼﾝｾﾝ
 10
303.23737959659508
 20
562.13722607640432
 30
0.0
 11
303.23737959659508
 21
588.13722607640432
 31
0.0
  0
LINE
  5
9796
  8
ﾁｭｳｼﾝｾﾝ
 10
290.23737959659508
 20
575.13722607640432
 30
0.0
 11
316.23737959659508
 21
575.13722607640432
 31
0.0
  0
LINE
  5
979A
  8
ﾁｭｳｼﾝｾﾝ
 10
109.33954202817419
 20
380.63724107640428
 30
0.0
 11
109.33954202817419
 21
406.63724107640428
 31
0.0
  0
LINE
  5
979B
  8
ﾁｭｳｼﾝｾﾝ
 10
96.339542028174293
 20
393.63724107640439
 30
0.0
 11
122.33954202817419
 21
393.63724107640439
 31
0.0
  0
TEXT
  5
9CE7
  8
0
  6
CONTINUOUS
 62
     0
 10
615.85737657431901
 20
458.43094064762499
 30
0.0
 40
15.0
  1
VX02-240B~VX02-600B
  0
VIEWPORT
  5
89
 67
     1
  8
0
 10
210.0
 20
148.5
 30
0.0
 40
420.0
 41
297.0
 68
    -1
 69
     1
1001
ACAD
1000
MVIEW
1002
{
1070
    16
1010
0.0
1020
0.0
1030
0.0
1010
0.0
1020
0.0
1030
1.0
1040
0.0
1040
297.0
1040
221.70154043645701
1040
148.5
1040
50.0
1040
0.0
1040
0.0
1070
     0
1070
   100
1070
     1
1070
     1
1070
     0
1070
     0
1070
     0
1070
     0
1040
0.0
1040
0.0
1040
0.0
1040
10.0
1040
10.0
1040
10.0
1040
10.0
1070
     0
1002
{
1002
}
1002
}
1001
GENIUS_GENOREF_13
1005
1B94
1001
GENIUS_GENSCREG_15
1000
PF
1040
1.0
1000
DF
1040
1.0
1000
MIN
1011
0.0
1021
0.0
1031
0.0
1021
0.0
1031
0.0
1000
MAX
1011
420.0
1021
0.0
1031
0.0
1021
297.0
1031
0.0
1000
FLAGS
1070
     4
  0
ENDSEC
  0
EOF
