  0
SECTION
  2
HEADER
  9
$ACADVER
  1
AC1009
  9
$INSBASE
 10
0.0
 20
0.0
 30
0.0
  9
$EXTMIN
 10
23.74368339310195
 20
9.271364565920976
 30
-0.0015258207003583
  9
$EXTMAX
 10
964.73240968513005
 20
705.39993015549408
 30
0.0000000349246037
  9
$LIMMIN
 10
0.0
 20
0.0
  9
$LIMMAX
 10
408.0
 20
284.0
  9
$ORTHOMODE
 70
     0
  9
$REGENMODE
 70
     1
  9
$FILLMODE
 70
     1
  9
$QTEXTMODE
 70
     0
  9
$MIRRTEXT
 70
     1
  9
$DRAGMODE
 70
     2
  9
$LTSCALE
 40
1.0
  9
$OSMODE
 70
   551
  9
$ATTMODE
 70
     1
  9
$TEXTSIZE
 40
2.5
  9
$TRACEWID
 40
1.0
  9
$TEXTSTYLE
  7
STANDARD
  9
$CLAYER
  8
AM_0
  9
$CELTYPE
  6
BYLAYER
  9
$CECOLOR
 62
   256
  9
$DIMSCALE
 40
1.0
  9
$DIMASZ
 40
2.5
  9
$DIMEXO
 40
1.0
  9
$DIMDLI
 40
7.0
  9
$DIMRND
 40
0.0
  9
$DIMDLE
 40
0.0
  9
$DIMEXE
 40
1.0
  9
$DIMTP
 40
0.1
  9
$DIMTM
 40
0.1000000001
  9
$DIMTXT
 40
2.5
  9
$DIMCEN
 40
0.0
  9
$DIMTSZ
 40
0.0
  9
$DIMTOL
 70
     0
  9
$DIMLIM
 70
     0
  9
$DIMTIH
 70
     0
  9
$DIMTOH
 70
     0
  9
$DIMSE1
 70
     0
  9
$DIMSE2
 70
     0
  9
$DIMTAD
 70
     3
  9
$DIMZIN
 70
     8
  9
$DIMBLK
  1

  9
$DIMASO
 70
     1
  9
$DIMSHO
 70
     1
  9
$DIMPOST
  1

  9
$DIMAPOST
  1
"
  9
$DIMALT
 70
     0
  9
$DIMALTD
 70
     2
  9
$DIMALTF
 40
0.0393701
  9
$DIMLFAC
 40
1.0
  9
$DIMTOFL
 70
     1
  9
$DIMTVP
 40
0.0
  9
$DIMTIX
 70
     0
  9
$DIMSOXD
 70
     0
  9
$DIMSAH
 70
     0
  9
$DIMBLK1
  1

  9
$DIMBLK2
  1

  9
$DIMSTYLE
  2
AM_JIS
  9
$DIMCLRD
 70
   256
  9
$DIMCLRE
 70
   256
  9
$DIMCLRT
 70
     4
  9
$DIMTFAC
 40
0.71
  9
$DIMGAP
 40
1.0
  9
$LUNITS
 70
     2
  9
$LUPREC
 70
     2
  9
$SKETCHINC
 40
1.0
  9
$FILLETRAD
 40
2.5
  9
$AUNITS
 70
     0
  9
$AUPREC
 70
     3
  9
$MENU
  1
.
  9
$ELEVATION
 40
0.0
  9
$PELEVATION
 40
0.0
  9
$THICKNESS
 40
0.0
  9
$LIMCHECK
 70
     0
  9
$BLIPMODE
 70
     0
  9
$CHAMFERA
 40
2.5
  9
$CHAMFERB
 40
2.5
  9
$SKPOLY
 70
     0
  9
$TDCREATE
 40
2453061.678124086
  9
$TDUPDATE
 40
2458540.6993590388
  9
$TDINDWG
 40
0.0355402662
  9
$TDUSRTIMER
 40
0.0355400694
  9
$USRTIMER
 70
     1
  9
$ANGBASE
 50
0.0
  9
$ANGDIR
 70
     0
  9
$PDMODE
 70
     0
  9
$PDSIZE
 40
0.0
  9
$PLINEWID
 40
0.0
  9
$COORDS
 70
     1
  9
$SPLFRAME
 70
     0
  9
$SPLINETYPE
 70
     6
  9
$SPLINESEGS
 70
     8
  9
$ATTDIA
 70
     1
  9
$ATTREQ
 70
     1
  9
$HANDLING
 70
     1
  9
$HANDSEED
  5
989E
  9
$SURFTAB1
 70
     6
  9
$SURFTAB2
 70
     6
  9
$SURFTYPE
 70
     6
  9
$SURFU
 70
     6
  9
$SURFV
 70
     6
  9
$UCSNAME
  2

  9
$UCSORG
 10
0.0
 20
0.0
 30
0.0
  9
$UCSXDIR
 10
1.0
 20
0.0
 30
0.0
  9
$UCSYDIR
 10
0.0
 20
1.0
 30
0.0
  9
$PUCSNAME
  2

  9
$PUCSORG
 10
0.0
 20
0.0
 30
0.0
  9
$PUCSXDIR
 10
1.0
 20
0.0
 30
0.0
  9
$PUCSYDIR
 10
0.0
 20
1.0
 30
0.0
  9
$USERI1
 70
     0
  9
$USERI2
 70
     0
  9
$USERI3
 70
     0
  9
$USERI4
 70
     0
  9
$USERI5
 70
     0
  9
$USERR1
 40
0.0
  9
$USERR2
 40
0.0
  9
$USERR3
 40
0.0
  9
$USERR4
 40
0.0
  9
$USERR5
 40
0.0
  9
$WORLDVIEW
 70
     1
  9
$SHADEDGE
 70
     3
  9
$SHADEDIF
 70
    70
  9
$TILEMODE
 70
     1
  9
$MAXACTVP
 70
    48
  9
$PLIMCHECK
 70
     0
  9
$PEXTMIN
 10
1.0000000000000000E+020
 20
1.0000000000000000E+020
 30
1.0000000000000000E+020
  9
$PEXTMAX
 10
-1.0000000000000000E+020
 20
-1.0000000000000000E+020
 30
-1.0000000000000000E+020
  9
$PLIMMIN
 10
0.0
 20
0.0
  9
$PLIMMAX
 10
420.0
 20
297.0
  9
$UNITMODE
 70
     0
  9
$VISRETAIN
 70
     1
  9
$PLINEGEN
 70
     0
  9
$PSLTSCALE
 70
     1
  0
ENDSEC
  0
SECTION
  2
TABLES
  0
TABLE
  2
VPORT
 70
     1
  0
VPORT
  2
*ACTIVE
 70
     0
 10
0.0
 20
0.0
 11
1.0
 21
1.0
 12
494.238046539116
 22
357.33564736070758
 13
0.0
 23
0.0
 14
1.0
 24
1.0
 15
10.0
 25
10.0
 16
0.0
 26
0.0
 36
1.0
 17
0.0
 27
0.0
 37
0.0
 40
700.90748022748789
 41
1.7571592210767459
 42
50.0
 43
0.0
 44
0.0
 50
0.0
 51
0.0
 71
     0
 72
   100
 73
     1
 74
     1
 75
     0
 76
     0
 77
     0
 78
     0
  0
ENDTAB
  0
TABLE
  2
LTYPE
 70
    26
  0
LTYPE
  2
CONTINUOUS
 70
     0
  3
Solid line
 72
    65
 73
     0
 40
0.0
  0
LTYPE
  2
PHANTOM2
 70
     0
  3
Phantom (.5x) ___ _ _ ___ _ _ ___ _ _ ___ _ _
 72
    65
 73
     6
 40
31.75
 49
15.875
 49
-3.174999999999998
 49
3.174999999999998
 49
-3.174999999999998
 49
3.174999999999998
 49
-3.174999999999998
  0
LTYPE
  2
CENTER
 70
     0
  3
Center ____ _ ____ _ ____ _ ____ _ ____ _ ____
 72
    65
 73
     4
 40
50.799999999999997
 49
31.75
 49
-6.3499999999999979
 49
6.3499999999999979
 49
-6.3499999999999979
  0
LTYPE
  2
ACANSTGBM
 70
     0
  3
__ . . __ . .
 72
    65
 73
     6
 40
9.0
 49
4.0
 49
-1.0
 49
1.0
 49
-1.0
 49
1.0
 49
-1.0
  0
LTYPE
  2
ACANSTGLM
 70
     0
  3
_ _ _ _ _
 72
    65
 73
     2
 40
3.0
 49
2.0
 49
-1.0
  0
LTYPE
  2
GEN7
 70
     0
  3
____ . ____ . ____ . ____ . ____ . ____ . ____
 72
    65
 73
     4
 40
14.25
 49
9.75
 49
-1.5
 49
1.5
 49
-1.5
  0
LTYPE
  2
GEN3B
 70
     0
  3
 - - - - -
 72
    65
 73
     2
 40
1.0
 49
0.5
 49
-0.5
  0
LTYPE
  2
AM_ISO02W050
 70
     0
  3
__ __ __ __ __ __ __ __ __ __ __ __ __ __ __
 72
    65
 73
     2
 40
7.5
 49
6.0
 49
-1.5
  0
LTYPE
  2
AM_ISO08W050
 70
     0
  3
____ . ____ . ____ . ____ . ____ . ____ . ____
 72
    65
 73
     4
 40
18.0
 49
12.0
 49
-1.5
 49
3.0
 49
-1.5
  0
LTYPE
  2
AM_ISO09W050
 70
     0
  3
_____ . . _____ . . _____ . . ____ .. ____
 72
    65
 73
     6
 40
22.5
 49
12.0
 49
-1.5
 49
3.0
 49
-1.5
 49
3.0
 49
-1.5
  0
LTYPE
  2
AMCONSTR
 70
     0
  3
_______________________
 72
    65
 73
     2
 40
9999.0
 49
9999.0
 49
0.0
  0
LTYPE
  2
AM_ISO02W050X2
 70
     0
  3
 _ _ _ _ _ _ _ _ _ _ _ _
 72
    65
 73
     2
 40
3.75
 49
3.0
 49
-0.75
  0
LTYPE
  2
AM_ISO08W050X2
 70
     0
  3
__ . __ . __ . __ . __ . __
 72
    65
 73
     4
 40
9.0
 49
6.0
 49
-0.75
 49
1.5
 49
-0.75
  0
LTYPE
  2
AMZIGZAG
 70
     0
  3
/\/-/\/-/\/-/\/-/\/-/\/
 72
    65
 73
     2
 40
11.000099999999991
 49
0.0001
 49
-11.0
  0
LTYPE
  2
ACJISTGB
 70
     0
  3
__ . . __ . .
 72
    65
 73
     6
 40
9.0
 49
4.0
 49
-1.0
 49
1.0
 49
-1.0
 49
1.0
 49
-1.0
  0
LTYPE
  2
ACJISTGL
 70
     0
  3
_ _ _ _ _
 72
    65
 73
     2
 40
3.0
 49
2.0
 49
-1.0
  0
LTYPE
  2
ACISOWELD
 70
     0
  3
_ _ _ _ _
 72
    65
 73
     2
 40
2.0
 49
2.0
 49
-1.0
  0
LTYPE
  2
ACISOTGB
 70
     0
  3
__ . . __ . .
 72
    65
 73
     6
 40
9.0
 49
4.0
 49
-1.0
 49
1.0
 49
-1.0
 49
1.0
 49
-1.0
  0
LTYPE
  2
ACISOTGL
 70
     0
  3
_ _ _ _ _
 72
    65
 73
     2
 40
3.0
 49
2.0
 49
-1.0
  0
LTYPE
  2
HIDDEN
 70
     0
  3
Hidden __ __ __ __ __ __ __ __ __ __ __ __ __ _
 72
    65
 73
     2
 40
0.375
 49
0.25
 49
-0.125
  0
LTYPE
  2
CENTER2
 70
     0
  3
Center (.5x) ___ _ ___ _ ___ _ ___ _ ___ _ ___
 72
    65
 73
     4
 40
1.125
 49
0.75
 49
-0.125
 49
0.125
 49
-0.125
  0
LTYPE
  2
HIDDEN2
 70
     0
  3
Hidden (.5x) _ _ _ _ _ _ _ _ _ _ _ _ _ _ _ _ _
 72
    65
 73
     2
 40
0.1875
 49
0.125
 49
-0.0625
  0
LTYPE
  2
AMZIGZAG2
 70
     0
  3
/\/-/\/-/\/-/\/-/\/-/\/
 72
    65
 73
     2
 40
0.4401
 49
0.0001
 49
-0.4400000000000001
  0
LTYPE
  2
ACANSTGB
 70
     0
  3
__ . . __ . .
 72
    65
 73
     6
 40
0.35433070866
 49
0.15748031496
 49
-0.03937007874
 49
0.03937007874
 49
-0.03937007874
 49
0.03937007874
 49
-0.03937007874
  0
LTYPE
  2
ACANSTGL
 70
     0
  3
_ _ _ _ _
 72
    65
 73
     2
 40
0.11811023622
 49
0.07874015748
 49
-0.03937007874
  0
ENDTAB
  0
TABLE
  2
LAYER
 70
     7
  0
LAYER
  2
0
 70
     0
 62
     7
  6
CONTINUOUS
  0
LAYER
  2
AM_0
 70
     0
 62
     7
  6
CONTINUOUS
  0
LAYER
  2
DEFPOINTS
 70
     0
 62
     7
  6
CONTINUOUS
  0
LAYER
  2
ｶｸﾚｾﾝ2
 70
     0
 62
     3
  6
GEN3B
  0
LAYER
  2
ﾁｭｳｼﾝｾﾝ
 70
     0
 62
     1
  6
GEN7
  0
LAYER
  2
AM_0N
 70
     0
 62
     7
  6
CONTINUOUS
  0
LAYER
  2
AM_5
 70
     0
 62
     2
  6
CONTINUOUS
  0
ENDTAB
  0
TABLE
  2
STYLE
 70
    10
  0
STYLE
  2
STANDARD
 70
     0
 40
0.0
 41
0.8299999999999999
 50
0.0
 71
     0
 42
2.5
  3
txt.shx
  4
bigfont.shx
  0
STYLE
  2
ANNOTATIVE
 70
     0
 40
0.0
 41
1.0
 50
0.0
 71
     0
 42
0.2
  3
txt
  4

  0
STYLE
  2
ACANSTS
 70
     0
 40
1.0
 41
1.0
 50
0.0
 71
     0
 42
2.5
  3
romans.shx
  4
bigfont.shx
  0
STYLE
  2
ACANSGDT
 70
     0
 40
0.0
 41
1.0
 50
0.0
 71
     0
 42
2.5
  3
amgdt.shx
  4

  0
STYLE
  2

 70
     1
 40
0.0
 41
1.0
 50
0.0
 71
     0
 42
2.5
  3
ltypeshp.shx
  4

  0
STYLE
  2
ACJISTS
 70
     0
 40
1.0
 41
0.8299999999999999
 50
0.0
 71
     0
 42
2.5
  3
txt.shx
  4
bigfont.shx
  0
STYLE
  2
ACJISGDT
 70
     0
 40
0.0
 41
1.0
 50
0.0
 71
     0
 42
2.5
  3
amgdt.shx
  4

  0
STYLE
  2
ACISOTS
 70
     0
 40
1.0
 41
1.0
 50
0.0
 71
     0
 42
2.5
  3
isocp.shx
  4
extfont.shx
  0
STYLE
  2
ACISOGDT
 70
     0
 40
0.0
 41
1.0
 50
0.0
 71
     0
 42
2.5
  3
amgdt.shx
  4

  0
STYLE
  2

 70
     1
 40
0.0
 41
1.0
 50
0.0
 71
     0
 42
2.5
  3
genltshp.shx
  4

  0
ENDTAB
  0
TABLE
  2
VIEW
 70
    12
  0
VIEW
  2
GEN1
 70
     0
 40
95.824742268041234
 10
71.5
 20
137.08762886597941
 41
143.0
 11
0.0
 21
0.0
 31
1.0
 12
0.0
 22
0.0
 32
0.0
 42
50.0
 43
0.0
 44
0.0
 50
0.0
 71
     0
  0
VIEW
  2
GEN2
 70
     0
 40
95.824742268041234
 10
214.5
 20
137.08762886597941
 41
143.0
 11
0.0
 21
0.0
 31
1.0
 12
0.0
 22
0.0
 32
0.0
 42
50.0
 43
0.0
 44
0.0
 50
0.0
 71
     0
  0
VIEW
  2
GEN3
 70
     0
 40
95.824742268041234
 10
71.5
 20
47.912371134020603
 41
143.0
 11
0.0
 21
0.0
 31
1.0
 12
0.0
 22
0.0
 32
0.0
 42
50.0
 43
0.0
 44
0.0
 50
0.0
 71
     0
  0
VIEW
  2
GEN4
 70
     0
 40
95.824742268041234
 10
214.5
 20
47.912371134020603
 41
143.0
 11
0.0
 21
0.0
 31
1.0
 12
0.0
 22
0.0
 32
0.0
 42
50.0
 43
0.0
 44
0.0
 50
0.0
 71
     0
  0
VIEW
  2
GEN5
 70
     0
 40
95.824742268041234
 10
143.0
 20
92.500000000000057
 41
143.0
 11
0.0
 21
0.0
 31
1.0
 12
0.0
 22
0.0
 32
0.0
 42
50.0
 43
0.0
 44
0.0
 50
0.0
 71
     0
  0
VIEW
  2
GEN6
 70
     0
 40
191.64756804123709
 10
143.0
 20
92.5
 41
285.99713999999989
 11
0.0
 21
0.0
 31
1.0
 12
0.0
 22
0.0
 32
0.0
 42
50.0
 43
0.0
 44
0.0
 50
0.0
 71
     0
  0
VIEW
  2
AM_VIEW1
 70
     0
 40
142.0
 10
119.7777777777777
 20
213.0
 41
239.55555555555549
 11
0.0
 21
0.0
 31
1.0
 12
0.0
 22
0.0
 32
0.0
 42
50.0
 43
0.0
 44
0.0
 50
0.0
 71
     0
  0
VIEW
  2
AM_VIEW2
 70
     0
 40
142.0
 10
288.22222222222211
 20
213.0
 41
239.55555555555549
 11
0.0
 21
0.0
 31
1.0
 12
0.0
 22
0.0
 32
0.0
 42
50.0
 43
0.0
 44
0.0
 50
0.0
 71
     0
  0
VIEW
  2
AM_VIEW3
 70
     0
 40
142.0
 10
119.7777777777777
 20
71.0
 41
239.55555555555549
 11
0.0
 21
0.0
 31
1.0
 12
0.0
 22
0.0
 32
0.0
 42
50.0
 43
0.0
 44
0.0
 50
0.0
 71
     0
  0
VIEW
  2
AM_VIEW4
 70
     0
 40
142.0
 10
288.22222222222211
 20
71.0
 41
239.55555555555549
 11
0.0
 21
0.0
 31
1.0
 12
0.0
 22
0.0
 32
0.0
 42
50.0
 43
0.0
 44
0.0
 50
0.0
 71
     0
  0
VIEW
  2
AM_VIEW5
 70
     0
 40
142.0
 10
204.0
 20
142.0
 41
239.55555555555549
 11
0.0
 21
0.0
 31
1.0
 12
0.0
 22
0.0
 32
0.0
 42
50.0
 43
0.0
 44
0.0
 50
0.0
 71
     0
  0
VIEW
  2
AM_VIEW6
 70
     0
 40
283.99716000000001
 10
204.0
 20
142.0
 41
479.10631999999993
 11
0.0
 21
0.0
 31
1.0
 12
0.0
 22
0.0
 32
0.0
 42
50.0
 43
0.0
 44
0.0
 50
0.0
 71
     0
  0
ENDTAB
  0
TABLE
  2
UCS
 70
     0
  0
ENDTAB
  0
TABLE
  2
APPID
 70
   108
  0
APPID
  2
ACAD
 70
     0
  0
APPID
  2
ACADANNOTATIVE
 70
     0
  0
APPID
  2
MCAD_NO_VIS
 70
     0
  0
APPID
  2
ACAD_TEMP_GRAPHIC
 70
     0
  0
APPID
  2
AD_DRAW
 70
     0
  0
APPID
  2
DESIGNERASSEMBLIES
 70
     0
  0
APPID
  2
ASURF_PCURVE_APPNAME
 70
     0
  0
APPID
  2
GENIUS_GE3SECT_13
 70
     0
  0
APPID
  2
GENIUS_GENCFG_13
 70
     0
  0
APPID
  2
GENIUS_GE3CFG0_13
 70
     0
  0
APPID
  2
GENIUS_GENCFG0_13
 70
     0
  0
APPID
  2
GENIUS_GENCFG1_13
 70
     0
  0
APPID
  2
GENIUS_GENCFG2_13
 70
     0
  0
APPID
  2
GENIUS_GENCFG3_13
 70
     0
  0
APPID
  2
GENIUS_GENCFG4_13
 70
     0
  0
APPID
  2
GENIUS_GEVCFG0_13
 70
     0
  0
APPID
  2
GENIUS_GENOENT_13
 70
     0
  0
APPID
  2
GENIUS_GENREC_14
 70
     0
  0
APPID
  2
GENIUS_GENODEF_13
 70
     0
  0
APPID
  2
GENIUS_GENOBJ-N-REC_13
 70
     0
  0
APPID
  2
GENIUS_GENHINW_13
 70
     0
  0
APPID
  2
GENIUS_FIRSTVISTXT_14
 70
     0
  0
APPID
  2
GENIUS_GENOBJ-N-LEADER_13
 70
     0
  0
APPID
  2
GENIUS_GENOREF_13
 70
     0
  0
APPID
  2
GENIUS_GENOLIS_13
 70
     0
  0
APPID
  2
GEV_VCCNULL_SWITCH_OFF
 70
     0
  0
APPID
  2
GENIUS_GENDTOL_13
 70
     0
  0
APPID
  2
GENIUS_GEFCFG0_13
 70
     0
  0
APPID
  2
GENIUS_GENOBJ-N-TIT_13
 70
     0
  0
APPID
  2
GENIUS_GENTITLE_13
 70
     0
  0
APPID
  2
GENIUS_GENZVEED_13
 70
     0
  0
APPID
  2
GENIUS_GENOBJ-N-SDF_13
 70
     0
  0
APPID
  2
GENIUS_GENSCREG_13
 70
     0
  0
APPID
  2
GENIUS_DUMCFG0_13
 70
     0
  0
APPID
  2
GEVID936201362
 70
     0
  0
APPID
  2
GEVDC
 70
     0
  0
APPID
  2
GEVCON
 70
     0
  0
APPID
  2
VCC
 70
     0
  0
APPID
  2
GEVPT
 70
     0
  0
APPID
  2
GEVIT
 70
     0
  0
APPID
  2
GENBH
 70
     0
  0
APPID
  2
GEVMK
 70
     0
  0
APPID
  2
GENIUS_GENBH_13
 70
     0
  0
APPID
  2
GENIUS_GENOBJ-NBEHI-BHF_13
 70
     0
  0
APPID
  2
GENIUS_GENOBJ-NBEHI-BHB_13
 70
     0
  0
APPID
  2
GENIUS_GENOBJ-F-DESC_13
 70
     0
  0
APPID
  2
GENIUS_GEFDESC_14
 70
     0
  0
APPID
  2
GENIUS_GENOBJ-F-PART_13
 70
     0
  0
APPID
  2
GENIUS_GEFSTDP_13
 70
     0
  0
APPID
  2
GENIUS_GEFPARTINS_13
 70
     0
  0
APPID
  2
GENIUS_GENTRA_14
 70
     0
  0
APPID
  2
GENIUS_GENINF13_13
 70
     0
  0
APPID
  2
GENIUS_GENOBJ-N-INFOPT_13
 70
     0
  0
APPID
  2
GENIUS_GENOBJ-N-RSSYM_13
 70
     0
  0
APPID
  2
GENIUS_GENSYMENT_13
 70
     0
  0
APPID
  2
GENIUS_GENSCSYM_13
 70
     0
  0
APPID
  2
GENIUS_GEFINFNAM_13
 70
     0
  0
APPID
  2
GENIUS_GENSCREG_15
 70
     0
  0
APPID
  2
GENIUS_GENOBJ-N-CEN_13
 70
     0
  0
APPID
  2
GENIUS_GENOBJ-N-CRS_13
 70
     0
  0
APPID
  2
GENIUS_GENOBJ-N-CRC_13
 70
     0
  0
APPID
  2
GENIUS_GENCRC_14
 70
     0
  0
APPID
  2
GEVID942827039
 70
     0
  0
APPID
  2
GEVID942827040
 70
     0
  0
APPID
  2
GEVID942827041
 70
     0
  0
APPID
  2
GENIUS_GENOBJ-F-SCPASSM_13
 70
     0
  0
APPID
  2
GENIUS_GENDIMSH_14
 70
     0
  0
APPID
  2
GENIUS_GENFIL_13
 70
     0
  0
APPID
  2
GENIUS_GENOBJ-N-CHA_13
 70
     0
  0
APPID
  2
GENIUS_GENOBJ-N-FIL_13
 70
     0
  0
APPID
  2
GEVID942827042
 70
     0
  0
APPID
  2
GEVID946020473
 70
     0
  0
APPID
  2
GEVID946020474
 70
     0
  0
APPID
  2
GEVID946020475
 70
     0
  0
APPID
  2
GENIUS_GENOBJ-N-HTC_13
 70
     0
  0
APPID
  2
GENIUS_GENHATCH_13
 70
     0
  0
APPID
  2
GEVID948854295
 70
     0
  0
APPID
  2
GEVID939402019
 70
     0
  0
APPID
  2
GEVID952919491
 70
     0
  0
APPID
  2
GEVID952919492
 70
     0
  0
APPID
  2
GENIUS_GEFWELD_13
 70
     0
  0
APPID
  2
GENIUS_GENOBJ-F-WELS_13
 70
     0
  0
APPID
  2
GEVID952919493
 70
     0
  0
APPID
  2
GENIUS_GENOBJ-N-RSBK_13
 70
     0
  0
APPID
  2
GENIUS_GENOBJ-N-LIB_13
 70
     0
  0
APPID
  2
GENIUS_GENSCALE_13
 70
     0
  0
APPID
  2
GEVID986376691
 70
     0
  0
APPID
  2
ACATTRIBSERVICES
 70
     0
  0
APPID
  2
ACADM_DIM_EDIT
 70
     0
  0
APPID
  2
AMDT_DM_ADJ
 70
     0
  0
APPID
  2
ACAD_PSEXT
 70
     0
  0
APPID
  2
ACAD_DSTYLE_DIMTEXT_FILL
 70
     0
  0
APPID
  2
GEVID1057795304
 70
     0
  0
APPID
  2
GENIUS_GEFSH_13
 70
     0
  0
APPID
  2
GENIUS_GENOBJ-F-SHS_13
 70
     0
  0
APPID
  2
GENIUS_GENOBJ-N-ADDLEAD_13
 70
     0
  0
APPID
  2
GENIUS_GENMAINADDLEADER_14
 70
     0
  0
APPID
  2
GENIUS_GENADDLEADER_14
 70
     0
  0
APPID
  2
GENIUS_GENDREL_13
 70
     0
  0
APPID
  2
GEVID1121934822
 70
     0
  0
APPID
  2
GEVID1121934823
 70
     0
  0
APPID
  2
GEVID1121934824
 70
     0
  0
APPID
  2
ACAD_DSTYLE_DIMJAG
 70
     0
  0
APPID
  2
ACAD_DSTYLE_DIMBREAK
 70
     0
  0
APPID
  2
ACAD_NAV_VCDISPLAY
 70
     0
  0
APPID
  2
ACADANNOPO
 70
     0
  0
APPID
  2
ACAD_EXEMPT_FROM_CAD_STANDARDS
 70
     0
  0
APPID
  2
ACAD_MLEADERVER
 70
     0
  0
ENDTAB
  0
TABLE
  2
DIMSTYLE
 70
    29
  0
DIMSTYLE
  2
STANDARD
 70
     0
  3

  4

  5

  6

  7

 40
1.0
 41
0.18
 42
0.0625
 43
0.38
 44
0.18
 45
0.0
 46
0.0
 47
0.0
 48
0.0
140
0.18
141
0.09
142
0.0
143
25.399999999999999
144
1.0
145
0.0
146
1.0
147
0.09
 71
     0
 72
     0
 73
     1
 74
     1
 75
     0
 76
     0
 77
     0
 78
     0
170
     0
171
     2
172
     0
173
     0
174
     0
175
     0
176
     0
177
     0
178
     0
  0
DIMSTYLE
  2
ANNOTATIVE
 70
     0
  3

  4

  5

  6

  7

 40
1.0
 41
0.18
 42
0.0625
 43
0.38
 44
0.18
 45
0.0
 46
0.0
 47
0.0
 48
0.0
140
0.18
141
0.09
142
0.0
143
25.399999999999999
144
1.0
145
0.0
146
1.0
147
0.09
 71
     0
 72
     0
 73
     1
 74
     1
 75
     0
 76
     0
 77
     0
 78
     0
170
     0
171
     2
172
     0
173
     0
174
     0
175
     0
176
     0
177
     0
178
     0
  0
DIMSTYLE
  2
AM_JIS
 70
     0
  3

  4
"
  5

  6

  7

 40
1.0
 41
2.0
 42
1.0
 43
8.0
 44
1.0
 45
0.0
 46
0.0
 47
0.1
 48
0.1
140
2.5
141
0.0
142
0.0
143
0.0393701
144
1.0
145
0.0
146
0.71
147
1.5
 71
     0
 72
     0
 73
     0
 74
     0
 75
     0
 76
     0
 77
     3
 78
     8
170
     0
171
     2
172
     1
173
     0
174
     0
175
     0
176
   256
177
   256
178
     4
  0
DIMSTYLE
  2
AM_JIS$3
 70
     0
  3

  4
"
  5

  6

  7

 40
1.0
 41
2.0
 42
1.0
 43
10.0
 44
1.0
 45
0.0
 46
0.0
 47
0.1
 48
0.1
140
2.5
141
0.0
142
0.0
143
0.0393701
144
1.0
145
0.0
146
0.71
147
1.5
 71
     0
 72
     0
 73
     0
 74
     1
 75
     0
 76
     0
 77
     3
 78
     8
170
     0
171
     2
172
     0
173
     0
174
     0
175
     0
176
   256
177
   256
178
     4
  0
DIMSTYLE
  2
AM_JIS$4
 70
     0
  3

  4
"
  5

  6

  7

 40
1.0
 41
2.0
 42
1.0
 43
10.0
 44
1.0
 45
0.0
 46
0.0
 47
0.1
 48
0.1
140
2.5
141
0.0
142
0.0
143
0.0393701
144
1.0
145
0.0
146
0.71
147
1.5
 71
     0
 72
     0
 73
     0
 74
     0
 75
     0
 76
     0
 77
     3
 78
     8
170
     0
171
     2
172
     0
173
     0
174
     0
175
     0
176
   256
177
   256
178
     4
  0
DIMSTYLE
  2
AM_JIS$6
 70
     0
  3

  4
"
  5

  6

  7

 40
1.0
 41
2.0
 42
1.0
 43
10.0
 44
1.0
 45
0.0
 46
0.0
 47
0.1
 48
0.1
140
2.5
141
0.0
142
0.0
143
0.0393701
144
1.0
145
0.0
146
0.71
147
1.5
 71
     0
 72
     0
 73
     0
 74
     0
 75
     0
 76
     0
 77
     0
 78
     8
170
     0
171
     2
172
     1
173
     0
174
     0
175
     0
176
   256
177
   256
178
     4
  0
DIMSTYLE
  2
AM_JIS$7
 70
     0
  3

  4
"
  5

  6

  7

 40
1.0
 41
2.0
 42
1.0
 43
10.0
 44
1.0
 45
0.0
 46
0.0
 47
0.1
 48
0.1
140
2.5
141
0.0
142
0.0
143
0.0393701
144
1.0
145
0.0
146
0.71
147
1.5
 71
     0
 72
     0
 73
     0
 74
     0
 75
     0
 76
     0
 77
     3
 78
     8
170
     0
171
     2
172
     1
173
     0
174
     0
175
     0
176
   256
177
   256
178
     4
  0
DIMSTYLE
  2
AM_JIS$SF
 70
     0
  3

  4
"
  5

  6

  7

 40
1.0
 41
2.0
 42
1.0
 43
10.0
 44
1.0
 45
0.0
 46
0.0
 47
0.1
 48
0.1
140
2.5
141
0.0
142
0.0
143
0.0393701
144
1.0
145
0.0
146
0.71
147
1.5
 71
     0
 72
     0
 73
     0
 74
     0
 75
     1
 76
     1
 77
     3
 78
     8
170
     0
171
     2
172
     1
173
     0
174
     0
175
     0
176
   256
177
   256
178
     4
  0
DIMSTYLE
  2
AM_JIS$SH
 70
     0
  3

  4
"
  5

  6

  7

 40
1.0
 41
2.0
 42
1.0
 43
10.0
 44
1.0
 45
0.0
 46
0.0
 47
0.1
 48
0.1
140
2.5
141
0.0
142
0.0
143
0.0393701
144
2.0
145
0.0
146
0.71
147
1.5
 71
     0
 72
     0
 73
     0
 74
     0
 75
     1
 76
     1
 77
     3
 78
     8
170
     0
171
     2
172
     1
173
     1
174
     0
175
     0
176
   256
177
   256
178
     4
  0
DIMSTYLE
  2
AM_ISO
 70
     0
  3

  4
"
  5

  6

  7

 40
1.0
 41
2.5
 42
1.0
 43
10.0
 44
1.0
 45
0.0
 46
0.0
 47
0.1
 48
0.1
140
3.5
141
0.0
142
0.0
143
0.0393701
144
1.0
145
0.0
146
0.71
147
1.5
 71
     0
 72
     0
 73
     0
 74
     0
 75
     0
 76
     0
 77
     1
 78
     8
170
     0
171
     2
172
     1
173
     0
174
     0
175
     0
176
   256
177
   256
178
     2
  0
DIMSTYLE
  2
AM_ISO$3
 70
     0
  3

  4
"
  5

  6

  7

 40
1.0
 41
2.5
 42
1.0
 43
10.0
 44
1.0
 45
0.0
 46
0.0
 47
0.1
 48
0.1
140
3.5
141
0.0
142
0.0
143
0.0393701
144
1.0
145
0.0
146
0.71
147
1.5
 71
     0
 72
     0
 73
     0
 74
     1
 75
     0
 76
     0
 77
     1
 78
     8
170
     0
171
     2
172
     0
173
     0
174
     0
175
     0
176
   256
177
   256
178
     2
  0
DIMSTYLE
  2
AM_ISO$4
 70
     0
  3

  4
"
  5

  6

  7

 40
1.0
 41
2.5
 42
1.0
 43
10.0
 44
1.0
 45
0.0
 46
0.0
 47
0.1
 48
0.1
140
3.5
141
0.0
142
0.0
143
0.0393701
144
1.0
145
0.0
146
0.71
147
1.5
 71
     0
 72
     0
 73
     0
 74
     1
 75
     0
 76
     0
 77
     1
 78
     8
170
     0
171
     2
172
     0
173
     0
174
     0
175
     0
176
   256
177
   256
178
     2
  0
DIMSTYLE
  2
AM_ISO$6
 70
     0
  3

  4
"
  5

  6

  7

 40
1.0
 41
2.5
 42
1.0
 43
10.0
 44
1.0
 45
0.0
 46
0.0
 47
0.1
 48
0.1
140
3.5
141
0.0
142
0.0
143
0.0393701
144
1.0
145
0.0
146
0.71
147
1.5
 71
     0
 72
     0
 73
     0
 74
     0
 75
     0
 76
     0
 77
     0
 78
     8
170
     0
171
     2
172
     1
173
     0
174
     0
175
     0
176
   256
177
   256
178
     2
  0
DIMSTYLE
  2
AM_ISO$7
 70
     0
  3

  4
"
  5

  6

  7

 40
1.0
 41
2.5
 42
1.0
 43
10.0
 44
1.0
 45
0.0
 46
0.0
 47
0.1
 48
0.1
140
5.0
141
0.0
142
0.0
143
0.0393701
144
1.0
145
0.0
146
0.71
147
1.5
 71
     0
 72
     0
 73
     0
 74
     0
 75
     0
 76
     0
 77
     1
 78
     8
170
     0
171
     2
172
     1
173
     0
174
     0
175
     0
176
   256
177
   256
178
     2
  0
DIMSTYLE
  2
AM_ISO$SF
 70
     0
  3

  4
"
  5

  6

  7

 40
1.0
 41
2.5
 42
1.0
 43
10.0
 44
1.0
 45
0.0
 46
0.0
 47
0.1
 48
0.1
140
3.5
141
0.0
142
0.0
143
0.0393701
144
1.0
145
0.0
146
0.71
147
1.5
 71
     0
 72
     0
 73
     0
 74
     0
 75
     1
 76
     1
 77
     1
 78
     8
170
     0
171
     2
172
     1
173
     0
174
     0
175
     0
176
   256
177
   256
178
     2
  0
DIMSTYLE
  2
AM_ISO$SH
 70
     0
  3

  4
"
  5

  6

  7

 40
1.0
 41
2.5
 42
1.0
 43
10.0
 44
1.0
 45
0.0
 46
0.0
 47
0.1
 48
0.1
140
3.5
141
0.0
142
0.0
143
0.0393701
144
2.0
145
0.0
146
0.71
147
1.5
 71
     0
 72
     0
 73
     0
 74
     0
 75
     1
 76
     1
 77
     1
 78
     8
170
     0
171
     2
172
     1
173
     1
174
     0
175
     0
176
   256
177
   256
178
     2
  0
DIMSTYLE
  2
GEN-ANSI
 70
     0
  3

  4
"
  5

  6

  7

 40
1.0
 41
2.0
 42
0.5
 43
10.0
 44
0.5
 45
0.0
 46
0.0
 47
0.1
 48
0.1
140
2.5
141
0.0
142
0.0
143
0.0393701
144
1.0
145
0.0
146
0.71
147
1.5
 71
     0
 72
     0
 73
     1
 74
     1
 75
     0
 76
     0
 77
     0
 78
     8
170
     0
171
     2
172
     0
173
     0
174
     0
175
     0
176
   256
177
   256
178
     4
  0
DIMSTYLE
  2
GEN-ANSI$3
 70
     0
  3

  4
"
  5

  6

  7

 40
1.0
 41
2.0
 42
0.5
 43
10.0
 44
0.5
 45
0.0
 46
0.0
 47
0.1
 48
0.1
140
2.5
141
0.0
142
0.0
143
0.0393701
144
1.0
145
0.0
146
0.71
147
1.5
 71
     0
 72
     0
 73
     1
 74
     1
 75
     0
 76
     0
 77
     0
 78
     8
170
     0
171
     2
172
     0
173
     0
174
     0
175
     0
176
   256
177
   256
178
     4
  0
DIMSTYLE
  2
GEN-ANSI$4
 70
     0
  3

  4
"
  5

  6

  7

 40
1.0
 41
2.0
 42
0.5
 43
10.0
 44
0.5
 45
0.0
 46
0.0
 47
0.1
 48
0.1
140
2.5
141
0.0
142
0.0
143
0.0393701
144
1.0
145
0.0
146
0.71
147
1.5
 71
     0
 72
     0
 73
     1
 74
     1
 75
     0
 76
     0
 77
     0
 78
     8
170
     0
171
     2
172
     0
173
     0
174
     0
175
     0
176
   256
177
   256
178
     4
  0
DIMSTYLE
  2
GEN-ANSI$6
 70
     0
  3

  4
"
  5

  6

  7

 40
1.0
 41
2.0
 42
0.5
 43
10.0
 44
0.5
 45
0.0
 46
0.0
 47
0.1
 48
0.1
140
2.5
141
0.0
142
0.0
143
0.0393701
144
1.0
145
0.0
146
0.71
147
1.5
 71
     0
 72
     0
 73
     1
 74
     1
 75
     0
 76
     0
 77
     0
 78
     8
170
     0
171
     2
172
     0
173
     0
174
     0
175
     0
176
   256
177
   256
178
     4
  0
DIMSTYLE
  2
GEN-ANSI-POS
 70
     0
  3

  4
"
  5

  6

  7

 40
1.0
 41
2.5
 42
0.5
 43
10.0
 44
0.5
 45
0.0
 46
0.0
 47
0.1
 48
0.1
140
5.0
141
0.0
142
0.0
143
0.0393701
144
1.0
145
0.0
146
0.71
147
1.5
 71
     0
 72
     0
 73
     0
 74
     0
 75
     0
 76
     0
 77
     0
 78
     8
170
     0
171
     2
172
     0
173
     0
174
     0
175
     0
176
   256
177
   256
178
     4
  0
DIMSTYLE
  2
GEN-ANSI-AXE-F
 70
     0
  3

  4
"
  5

  6

  7

 40
1.0
 41
2.0
 42
0.5
 43
10.0
 44
0.5
 45
0.0
 46
0.0
 47
0.1
 48
0.1
140
2.5
141
0.0
142
0.0
143
0.0393701
144
1.0
145
0.0
146
0.71
147
1.5
 71
     0
 72
     0
 73
     1
 74
     1
 75
     1
 76
     1
 77
     0
 78
     8
170
     0
171
     2
172
     0
173
     1
174
     0
175
     0
176
   256
177
   256
178
     4
  0
DIMSTYLE
  2
GEN-ANSI-AXE-H
 70
     0
  3

  4
"
  5

  6

  7

 40
1.0
 41
2.0
 42
0.5
 43
10.0
 44
0.5
 45
0.0
 46
0.0
 47
0.1
 48
0.1
140
2.5
141
0.0
142
0.0
143
0.0393701
144
2.0
145
0.0
146
0.71
147
1.5
 71
     0
 72
     0
 73
     0
 74
     0
 75
     1
 76
     1
 77
     0
 78
     8
170
     0
171
     2
172
     1
173
     1
174
     0
175
     0
176
   256
177
   256
178
     4
  0
DIMSTYLE
  2
AM_ANSI
 70
     0
  3

  4
mm
  5

  6

  7

 40
1.0
 41
0.12
 42
0.05
 43
0.5
 44
0.1
 45
0.0
 46
0.0
 47
0.1
 48
0.1
140
0.12
141
0.0
142
0.0
143
25.399999999999999
144
1.0
145
0.0
146
0.71
147
0.06
 71
     0
 72
     0
 73
     1
 74
     1
 75
     0
 76
     0
 77
     0
 78
     7
170
     0
171
     2
172
     0
173
     0
174
     0
175
     0
176
   256
177
   256
178
     2
  0
DIMSTYLE
  2
AM_ANSI$3
 70
     0
  3

  4
mm
  5

  6

  7

 40
1.0
 41
0.12
 42
0.05
 43
0.5
 44
0.1
 45
0.0
 46
0.0
 47
0.1
 48
0.1
140
0.12
141
0.0
142
0.0
143
25.399999999999999
144
1.0
145
0.0
146
0.71
147
0.06
 71
     0
 72
     0
 73
     1
 74
     1
 75
     0
 76
     0
 77
     0
 78
     7
170
     0
171
     2
172
     0
173
     0
174
     0
175
     0
176
   256
177
   256
178
     2
  0
DIMSTYLE
  2
AM_ANSI$4
 70
     0
  3

  4
mm
  5

  6

  7

 40
1.0
 41
0.12
 42
0.05
 43
0.5
 44
0.1
 45
0.0
 46
0.0
 47
0.1
 48
0.1
140
0.12
141
0.0
142
0.0
143
25.399999999999999
144
1.0
145
0.0
146
0.71
147
0.06
 71
     0
 72
     0
 73
     1
 74
     1
 75
     0
 76
     0
 77
     0
 78
     7
170
     0
171
     2
172
     0
173
     0
174
     0
175
     0
176
   256
177
   256
178
     2
  0
DIMSTYLE
  2
AM_ANSI$7
 70
     0
  3

  4
mm
  5

  6

  7

 40
1.0
 41
0.12
 42
0.05
 43
0.5
 44
0.1
 45
0.0
 46
0.0
 47
0.1
 48
0.1
140
0.12
141
0.0
142
0.0
143
25.399999999999999
144
1.0
145
0.0
146
0.71
147
0.06
 71
     0
 72
     0
 73
     1
 74
     1
 75
     0
 76
     0
 77
     0
 78
     7
170
     0
171
     2
172
     0
173
     0
174
     0
175
     0
176
   256
177
   256
178
     2
  0
DIMSTYLE
  2
AM_ANSI$SF
 70
     0
  3

  4
mm
  5

  6

  7

 40
1.0
 41
0.12
 42
0.05
 43
0.5
 44
0.1
 45
0.0
 46
0.0
 47
0.1
 48
0.1
140
0.12
141
0.0
142
0.0
143
25.399999999999999
144
1.0
145
0.0
146
0.71
147
0.06
 71
     0
 72
     0
 73
     1
 74
     1
 75
     1
 76
     1
 77
     0
 78
     7
170
     0
171
     2
172
     0
173
     0
174
     0
175
     0
176
   256
177
   256
178
     2
  0
DIMSTYLE
  2
AM_ANSI$SH
 70
     0
  3

  4
mm
  5

  6
GENAXEH
  7

 40
1.0
 41
0.12
 42
0.05
 43
0.5
 44
0.1
 45
0.0
 46
0.0
 47
0.1
 48
0.1
140
0.12
141
0.0
142
0.0
143
25.399999999999999
144
1.0
145
0.0
146
0.71
147
0.06
 71
     0
 72
     0
 73
     1
 74
     1
 75
     1
 76
     1
 77
     0
 78
     7
170
     0
171
     2
172
     0
173
     1
174
     0
175
     0
176
   256
177
   256
178
     2
  0
ENDTAB
  0
ENDSEC
  0
SECTION
  2
BLOCKS
  0
BLOCK
  8
0
  2
$MODEL_SPACE
 70
     0
 10
0.0
 20
0.0
 30
0.0
  3
$MODEL_SPACE
  1

  0
ENDBLK
  5
9706
  8
0
  0
BLOCK
 67
     1
  8
0
  2
$PAPER_SPACE
 70
     0
 10
0.0
 20
0.0
 30
0.0
  3
$PAPER_SPACE
  1

  0
ENDBLK
  5
9702
 67
     1
  8
0
  0
BLOCK
  8
0
  2
GENAXEH
 70
     0
 10
0.0
 20
0.0
 30
0.0
  3
GENAXEH
  1

  0
LINE
  5
964E
  8
0
 10
-1.0
 20
0.0
 30
0.0
 11
1.0
 21
0.0
 31
0.0
  0
ENDBLK
  5
9650
  8
0
  0
BLOCK
  8
0
  2
_ACMFILLEDHALF
 70
     0
 10
0.0
 20
0.0
 30
0.0
  3
_ACMFILLEDHALF
  1

  0
TRACE
  5
9817
  8
AM_0
 62
     0
 10
-0.8
 20
0.0
 30
0.0
 11
-1.0
 21
0.166666666
 31
0.0
 12
0.0
 22
0.0
 32
0.0
 13
0.0
 23
0.0
 33
0.0
  0
LINE
  5
9818
  8
AM_0
 62
     0
 10
-1.0
 20
0.0
 30
0.0
 11
-0.8
 21
0.0
 31
0.0
  0
ENDBLK
  5
9816
  8
0
  0
ENDSEC
  0
SECTION
  2
ENTITIES
  0
POINT
  5
1B94
  8
0
 10
0.0
 20
0.0
 30
0.0
1001
GENIUS_GENODEF_13
1002
{
1000
HIER
1070
     1
1002
}
1002
{
1000
MANEDIT
1070
     0
1002
}
1002
{
1000
NOSEL
1070
     0
1002
}
1002
{
1000
BEHIND
1070
     0
1002
}
1002
{
1000
REACTOR
1002
}
1001
GENIUS_GENOBJ-N-SDF_13
1002
{
1000
OWNER
1000
GEN
1002
}
1001
GENIUS_GENOENT_13
1002
{
1000
MYREF
1005
1B94
1002
}
1002
{
1000
GRP
1005
0
1002
}
1001
GENIUS_GENOLIS_13
1002
{
1000
ENT
1005
89
1002
}
  0
LINE
  5
86C7
  8
ﾁｭｳｼﾝｾﾝ
 10
297.27263704080741
 20
189.28012815634881
 30
0.0
 11
540.71153704080734
 21
189.28012815634881
 31
0.0
  0
LINE
  5
86C8
  8
AM_0
 10
466.24013704080619
 20
210.28015815634791
 30
0.0
 11
536.24013704080733
 21
210.28015815634791
 31
0.0
  0
LINE
  5
86C9
  8
AM_0
 10
466.24013704080619
 20
168.2801281563479
 30
0.0
 11
536.24013704080733
 21
168.2801281563479
 31
0.0
  0
LINE
  5
86CA
  8
AM_0
 10
480.24013704080733
 20
213.2801281563479
 30
0.0
 11
536.24013704080733
 21
213.2801281563479
 31
0.0
  0
LINE
  5
86CC
  8
AM_0
 10
247.89168704080731
 20
156.0859431563494
 30
0.0
 11
255.9644870408062
 21
164.15878815634881
 31
0.0
  0
LINE
  5
86CD
  8
AM_0
 10
208.74008704080759
 20
66.780123156351692
 30
0.0
 11
208.74008704080759
 21
179.78015815634791
 31
0.0
  0
LINE
  5
86CE
  8
AM_0
 10
282.74013704080738
 20
77.280158156349657
 30
0.0
 11
282.74013704080738
 21
225.2801731563475
 31
0.0
  0
LINE
  5
86CF
  8
AM_0
 10
272.74013704080738
 20
80.16763815634863
 30
0.0
 11
272.74013704080738
 21
220.84604315634891
 31
0.0
  0
LINE
  5
86D0
  8
AM_0
 10
331.2401370408063
 20
56.05432315634971
 30
0.0
 11
331.2401370408063
 21
278.89482315634763
 31
0.0
  0
LINE
  5
86D1
  8
AM_0
 10
317.2401870408072
 20
39.832553156348688
 30
0.0
 11
317.2401870408072
 21
279.28012315634891
 31
0.0
  0
LINE
  5
86D2
  8
AM_0
 10
462.2401870408072
 20
189.28012815634881
 30
0.0
 11
462.2401870408072
 21
155.52277315634959
 31
0.0
  0
LINE
  5
86D3
  8
AM_0
 10
434.24013704080733
 20
92.877993156350598
 30
0.0
 11
434.24013704080733
 21
265.1255231563477
 31
0.0
  0
LINE
  5
86D4
  8
AM_0
 10
456.24013704080733
 20
189.28012815634881
 30
0.0
 11
456.24013704080733
 21
43.02612815634869
 31
0.0
  0
LINE
  5
86D5
  8
AM_0
 10
414.24013704080733
 20
223.45297315634789
 30
0.0
 11
414.24013704080733
 21
47.280153156347751
 31
0.0
  0
LINE
  5
86D6
  8
AM_0
 10
363.74013704080733
 20
163.7679481563479
 30
0.0
 11
363.74013704080733
 21
136.65579815634959
 31
0.0
  0
LINE
  5
86D7
  8
AM_0
 10
364.63678704080633
 20
171.76767315634791
 30
0.0
 11
376.77543704080739
 21
157.85428315634761
 31
0.0
  0
LINE
  5
86D8
  8
AM_0
 10
344.24013704080733
 20
72.82852815634962
 30
0.0
 11
344.24013704080733
 21
281.28012315634879
 31
0.0
  0
LINE
  5
86D9
  8
ﾁｭｳｼﾝｾﾝ
 10
312.52899264822429
 20
123.28012815634951
 30
0.0
 11
24.371037040807551
 21
123.28012815634951
 31
0.0
  0
LINE
  5
86DA
  8
AM_0
 10
272.74013704080738
 20
89.701483156349695
 30
0.0
 11
317.2401870408072
 21
89.701483156349695
 31
0.0
  0
LINE
  5
86DB
  8
AM_0
 10
272.74013704080738
 20
111.80545315634861
 30
0.0
 11
317.2401870408072
 21
111.80545315634861
 31
0.0
  0
LINE
  5
86DC
  8
AM_0
 10
290.47863704080731
 20
68.540533156348602
 30
0.0
 11
314.50158704080729
 21
66.438788156348664
 31
0.0
  0
LINE
  5
86DD
  8
AM_0
 10
274.24013704080738
 20
39.280123156348722
 30
0.0
 11
314.3188370408073
 21
39.280123156348722
 31
0.0
  0
LINE
  5
86DE
  8
AM_0
 10
270.24013704080738
 20
14.28012315634964
 30
0.0
 11
462.2401870408072
 21
14.28012315634964
 31
0.0
  0
LINE
  5
86DF
  8
ﾁｭｳｼﾝｾﾝ
 10
291.24013704080619
 20
44.280123156348722
 30
0.0
 11
291.24013704080619
 21
9.280123156349644
 31
0.0
  0
LINE
  5
86E0
  8
ｶｸﾚｾﾝ2
 10
281.74013704080738
 20
39.280123156348722
 30
0.0
 11
281.74013704080738
 21
14.28012315634964
 31
0.0
  0
LINE
  5
86E1
  8
ｶｸﾚｾﾝ2
 10
300.7401370408063
 20
39.280123156348722
 30
0.0
 11
300.7401370408063
 21
14.28012315634964
 31
0.0
  0
LINE
  5
86E2
  8
AM_0
 10
270.24013704080738
 20
35.28015315634957
 30
0.0
 11
270.24013704080738
 21
14.28012315634964
 31
0.0
  0
LINE
  5
86E3
  8
AM_0
 10
228.7400870408074
 20
101.7845831563486
 30
0.0
 11
228.7400870408074
 21
71.341313156349543
 31
0.0
  0
LINE
  5
86E4
  8
AM_0
 10
287.74013704080738
 20
71.529118156350705
 30
0.0
 11
287.74013704080738
 21
89.280123156351706
 31
0.0
  0
LINE
  5
86E5
  8
AM_0
 10
232.8796870408074
 20
82.657933156349586
 30
0.0
 11
270.02758704080742
 21
81.360693156347679
 31
0.0
  0
ARC
  5
86E6
  8
AM_0
 10
224.74018704080771
 20
71.341313156349543
 30
0.0
 40
4.000000049999997
 50
271.99999999999687
 51
0.0
  0
LINE
  5
86E7
  8
AM_0
 10
208.74008704080759
 20
77.280158156349657
 30
0.0
 11
228.7400870408074
 21
77.280158156349657
 31
0.0
  0
LINE
  5
86E8
  8
AM_0
 10
208.74018704080771
 20
66.780123156351692
 30
0.0
 11
224.8797370408077
 21
67.343723156349597
 31
0.0
  0
LINE
  5
86E9
  8
AM_0
 10
200.74003704080769
 20
67.28015315634957
 30
0.0
 11
208.74008704080759
 21
67.28015315634957
 31
0.0
  0
LINE
  5
86EA
  8
AM_0
 10
200.74003704080769
 20
77.280158156349657
 30
0.0
 11
208.74008704080759
 21
77.280158156349657
 31
0.0
  0
ARC
  5
86EB
  8
AM_0
 10
232.7400870408074
 20
78.660373156348669
 30
0.0
 40
4.000000049999997
 50
88.000000000002998
 51
180.00001000000091
  0
ARC
  5
86EC
  8
AM_0
 10
274.24013704080738
 20
35.28015315634957
 30
0.0
 40
4.000000049999997
 50
90.00000299999769
 51
180.00001000000091
  0
LINE
  5
86ED
  8
AM_0
 10
282.74003704080741
 20
77.780123156349617
 30
0.0
 11
284.8447870408063
 21
77.706638156349513
 31
0.0
  0
ARC
  5
86EE
  8
AM_0
 10
269.8879870408075
 20
77.363133156350614
 30
0.0
 40
4.000000049999997
 50
31.0723409999962
 51
88.000000000002998
  0
ARC
  5
86EF
  8
AM_0
 10
276.74013704080619
 20
81.49209815634751
 30
0.0
 40
4.000000049999997
 50
211.07234000000261
 51
268.0000000000029
  0
LINE
  5
86F0
  8
AM_0
 10
276.60053704080741
 20
77.494543156349664
 30
0.0
 11
282.74018704080629
 21
77.280123156349617
 31
0.0
  0
ARC
  5
86F1
  8
AM_0
 10
290.74013704080738
 20
71.529118156350705
 30
0.0
 40
3.0000000500000001
 50
179.99998999999889
 51
265.00000000000051
  0
ARC
  5
86F2
  8
AM_0
 10
284.74018704080629
 20
74.708468156350591
 30
0.0
 40
3.0000000500000001
 50
0.0
 51
88.000000000002998
  0
LINE
  5
86F3
  8
AM_0
 10
247.89158704080629
 20
156.08600315635061
 30
0.0
 11
272.74013704080738
 21
111.7131681563496
 31
0.0
  0
LINE
  5
86F4
  8
AM_0
 10
233.7400870408074
 20
106.78458315634769
 30
0.0
 11
272.74013704080738
 21
106.78458315634769
 31
0.0
  0
LINE
  5
86F5
  8
AM_0
 10
208.74008704080759
 20
90.474308156348798
 30
0.0
 11
228.7400870408074
 21
90.474308156348798
 31
0.0
  0
LINE
  5
86F6
  8
AM_0
 10
200.74003704080769
 20
91.340123156349605
 30
0.0
 11
208.74008704080759
 21
91.340123156349605
 31
0.0
  0
ARC
  5
86F7
  8
AM_0
 10
233.7400870408074
 20
101.7845831563486
 30
0.0
 40
5.0
 50
90.00000299999769
 51
180.00001000000091
  0
LINE
  5
86F8
  8
AM_0
 10
208.74008704080759
 20
156.0859731563487
 30
0.0
 11
247.89158704080629
 21
156.0859731563487
 31
0.0
  0
LINE
  5
86F9
  8
AM_0
 10
200.74003704080769
 20
155.2201281563494
 30
0.0
 11
208.74008704080759
 21
155.2201281563494
 31
0.0
  0
LINE
  5
86FA
  8
ﾁｭｳｼﾝｾﾝ
 10
441.24013704080733
 20
44.280123156348722
 30
0.0
 11
441.24013704080733
 21
9.280123156349644
 31
0.0
  0
LINE
  5
86FB
  8
ｶｸﾚｾﾝ2
 10
450.74013704080733
 20
39.280123156348722
 30
0.0
 11
450.74013704080733
 21
14.28012315634964
 31
0.0
  0
LINE
  5
86FC
  8
AM_0
 10
462.2401870408072
 20
35.28015315634957
 30
0.0
 11
462.2401870408072
 21
14.28012315634964
 31
0.0
  0
LINE
  5
86FD
  8
ｶｸﾚｾﾝ2
 10
431.74013704080733
 20
39.280123156348722
 30
0.0
 11
431.74013704080733
 21
14.28012315634964
 31
0.0
  0
ARC
  5
86FE
  8
AM_0
 10
422.24018704080629
 20
47.280153156347751
 30
0.0
 40
8.0
 50
180.00001000000091
 51
270.0
  0
LINE
  5
86FF
  8
AM_0
 10
426.24013704080733
 20
84.877993156350612
 30
0.0
 11
417.72338704080721
 21
84.877993156350612
 31
0.0
  0
LINE
  5
8700
  8
AM_0
 10
349.24013704080619
 20
125.0920481563507
 30
0.0
 11
349.24013704080619
 21
79.280123156349617
 31
0.0
  0
LINE
  5
8701
  8
AM_0
 10
348.1921870408064
 20
77.927983156350592
 30
0.0
 11
320.6422370408074
 21
42.37955315634872
 31
0.0
  0
ARC
  5
8702
  8
AM_0
 10
314.3188370408073
 20
47.280153156347751
 30
0.0
 40
8.0
 50
270.0
 51
322.224319999996
  0
ARC
  5
8703
  8
AM_0
 10
314.24013704080738
 20
63.450228156347741
 30
0.0
 40
3.0000000500000001
 50
0.0
 51
84.999996999998288
  0
ARC
  5
8704
  8
AM_0
 10
344.24013704080733
 20
80.990818156347586
 30
0.0
 40
5.0
 50
322.224319999996
 51
0.0
  0
LINE
  5
8705
  8
AM_0
 10
361.9977870408062
 20
133.3651781563517
 30
0.0
 11
375.23363704080629
 21
143.2751531563494
 31
0.0
  0
LINE
  5
8706
  8
AM_0
 10
331.2401370408063
 20
136.26834815634959
 30
0.0
 11
344.24013704080733
 21
136.26834815634959
 31
0.0
  0
LINE
  5
8707
  8
AM_0
 10
344.24013704080733
 20
134.66983315634951
 30
0.0
 11
356.24013704080733
 21
134.66983315634951
 31
0.0
  0
LINE
  5
8708
  8
AM_0
 10
349.24013704080619
 20
125.0920481563507
 30
0.0
 11
359.24013704080733
 21
125.0920481563507
 31
0.0
  0
ARC
  5
8709
  8
AM_0
 10
356.24013704080733
 20
131.66980315634959
 30
0.0
 40
3.0000000500000001
 50
0.0
 51
90.00000299999769
  0
LINE
  5
870A
  8
AM_0
 10
359.24013704080733
 20
131.66980315634959
 30
0.0
 11
359.24013704080733
 21
125.0920481563507
 31
0.0
  0
ARC
  5
870B
  8
AM_0
 10
369.24013704080733
 20
151.2801281563496
 30
0.0
 40
10.0
 50
306.82304000000403
 51
41.102821999992869
  0
ARC
  5
870C
  8
AM_0
 10
426.24013704080733
 20
92.877993156350598
 30
0.0
 40
8.0
 50
270.0
 51
0.0
  0
LINE
  5
870D
  8
AM_0
 10
422.24018704080629
 20
39.280123156348722
 30
0.0
 11
458.24013704080619
 21
39.280123156348722
 31
0.0
  0
ARC
  5
870E
  8
AM_0
 10
458.24013704080619
 20
35.28015315634957
 30
0.0
 40
4.000000049999997
 50
0.0
 51
90.00000299999769
  0
ARC
  5
870F
  8
AM_0
 10
460.24013704080733
 20
43.02612815634869
 30
0.0
 40
4.000000049999997
 50
179.99998999999889
 51
255.52248999999699
  0
ARC
  5
8710
  8
AM_0
 10
459.24013704080733
 20
155.52277315634959
 30
0.0
 40
3.0000000500000001
 50
314.99999999999068
 51
0.0
  0
ARC
  5
8711
  8
AM_0
 10
459.24013704080733
 20
147.03751315634869
 30
0.0
 40
3.0000000500000001
 50
134.99999999999071
 51
180.00001000000091
  0
LINE
  5
8712
  8
AM_0
 10
457.11883704080731
 20
149.15875815635161
 30
0.0
 11
461.36153704080732
 21
153.40140315634861
 31
0.0
  0
ARC
  5
8714
  8
AM_0
 10
328.24013704080738
 20
301.78012315634879
 30
0.0
 40
20.500000499999992
 50
304.613640000006
 51
235.38635000000741
  0
LINE
  5
8715
  8
AM_0
 10
272.74013704080738
 20
212.85877315634801
 30
0.0
 11
317.2401870408072
 21
212.85877315634801
 31
0.0
  0
LINE
  5
8716
  8
AM_0
 10
272.74013704080738
 20
190.7547981563489
 30
0.0
 11
317.2401870408072
 21
190.7547981563489
 31
0.0
  0
LINE
  5
8717
  8
AM_0
 10
282.74013704080738
 20
224.78012315634891
 30
0.0
 11
312.41463704080752
 21
225.81637315634759
 31
0.0
  0
ARC
  5
8718
  8
AM_0
 10
253.84313704080739
 20
166.28012815634881
 30
0.0
 40
3.0000000500000001
 50
314.99999999999068
 51
90.00000299999769
  0
LINE
  5
8719
  8
AM_0
 10
234.6354370408074
 20
214.38126315634881
 30
0.0
 11
267.4680870408074
 21
215.52777815634789
 31
0.0
  0
LINE
  5
871A
  8
AM_0
 10
235.24078704080731
 20
181.7807381563488
 30
0.0
 11
270.15693704080741
 21
216.6968731563488
 31
0.0
  0
LINE
  5
871B
  8
AM_0
 10
231.7400870408074
 20
211.3830631563479
 30
0.0
 11
231.7400870408074
 21
184.73682315634781
 31
0.0
  0
ARC
  5
871C
  8
AM_0
 10
226.78073704080731
 20
184.41257315634891
 30
0.0
 40
4.000000049999997
 50
271.99999999999687
 51
309.62979000000041
  0
LINE
  5
871D
  8
AM_0
 10
208.74008704080759
 20
169.2801281563479
 30
0.0
 11
253.84313704080739
 21
169.2801281563479
 31
0.0
  0
LINE
  5
871E
  8
AM_0
 10
226.9203370408074
 20
180.4150131563479
 30
0.0
 11
232.5519870408063
 21
180.61166815635011
 31
0.0
  0
LINE
  5
871F
  8
AM_0
 10
200.74003704080769
 20
169.2801281563479
 30
0.0
 11
208.74008704080759
 21
169.2801281563479
 31
0.0
  0
LINE
  5
8720
  8
AM_0
 10
208.74008704080759
 20
179.7801281563479
 30
0.0
 11
226.9203370408074
 21
180.4150131563479
 31
0.0
  0
LINE
  5
8721
  8
AM_0
 10
200.74003704080769
 20
179.2801281563479
 30
0.0
 11
208.74008704080759
 21
179.2801281563479
 31
0.0
  0
LINE
  5
8722
  8
AM_0
 10
234.1265870408063
 20
180.66666315634791
 30
0.0
 11
240.50298704080731
 21
169.2801581563493
 31
0.0
  0
ARC
  5
8723
  8
AM_0
 10
232.41233704080739
 20
184.60922815634791
 30
0.0
 40
4.000000049999997
 50
271.99999999999687
 51
314.99999999999068
  0
ARC
  5
8724
  8
AM_0
 10
228.7400870408074
 20
184.73682315634781
 30
0.0
 40
3.0000000500000001
 50
309.62979000000041
 51
0.0
  0
LINE
  5
8725
  8
AM_0
 10
230.65363704080741
 20
182.42618315635011
 30
0.0
 11
229.33208704080741
 21
181.33176315634759
 31
0.0
  0
ARC
  5
8726
  8
AM_0
 10
234.7401870408074
 20
211.3830631563479
 30
0.0
 40
3.0000000500000001
 50
91.999998000000758
 51
180.00001000000091
  0
ARC
  5
8727
  8
AM_0
 10
267.32848704080737
 20
219.52533815634879
 30
0.0
 40
4.000000049999997
 50
271.99999999999687
 51
314.99999999999068
  0
ARC
  5
8728
  8
AM_0
 10
268.74113704080742
 20
220.93805815634789
 30
0.0
 40
4.000000049999997
 50
314.99999999999068
 51
0.9319899800013384
  0
ARC
  5
8729
  8
AM_0
 10
276.74013704080619
 20
221.06818315634879
 30
0.0
 40
4.000000049999997
 50
91.999998000000758
 51
180.9319799999931
  0
LINE
  5
872A
  8
AM_0
 10
276.60053704080741
 20
225.06572315634759
 30
0.0
 11
282.74013704080738
 21
225.28012315634791
 31
0.0
  0
LINE
  5
872B
  8
AM_0
 10
270.15693704080741
 20
216.6968731563488
 30
0.0
 11
271.56963704080738
 21
218.10959315634759
 31
0.0
  0
CIRCLE
  5
872C
  8
AM_0
 10
328.24013704080738
 20
301.78012315634879
 30
0.0
 40
12.5
  0
ARC
  5
872D
  8
AM_0
 10
424.24013704080619
 20
223.45297315634789
 30
0.0
 40
10.0
 50
90.00000299999769
 51
180.00001000000091
  0
LINE
  5
872E
  8
AM_0
 10
361.17033704080728
 20
275.40267315634912
 30
0.0
 11
426.51928704080751
 21
273.1206231563479
 31
0.0
  0
LINE
  5
872F
  8
AM_0
 10
359.24013704080733
 20
169.2919081563478
 30
0.0
 11
359.24013704080733
 21
252.60442315634791
 31
0.0
  0
LINE
  5
8730
  8
AM_0
 10
331.2401370408063
 20
166.2919081563476
 30
0.0
 11
344.24013704080733
 21
166.2919081563476
 31
0.0
  0
LINE
  5
8731
  8
AM_0
 10
344.24013704080733
 20
166.2919081563476
 30
0.0
 11
356.24013704080733
 21
166.2919081563476
 31
0.0
  0
ARC
  5
8732
  8
AM_0
 10
356.24013704080733
 20
169.2919081563478
 30
0.0
 40
3.0000000500000001
 50
270.0
 51
0.0
  0
ARC
  5
8733
  8
AM_0
 10
362.37613704080741
 20
169.79541815634761
 30
0.0
 40
3.0000000500000001
 50
41.102821999992869
 51
90.00000299999769
  0
ARC
  5
8734
  8
AM_0
 10
312.2401870408064
 20
230.81337315634889
 30
0.0
 40
5.0
 50
271.99999999999687
 51
0.0
  0
LINE
  5
8735
  8
AM_0
 10
364.43918704080733
 20
273.45707315634888
 30
0.0
 11
374.26523704080739
 21
267.74597315634901
 31
0.0
  0
LINE
  5
8736
  8
AM_0
 10
360.60658704080743
 20
245.67392315634891
 30
0.0
 11
372.4078870408074
 21
249.61532315634881
 31
0.0
  0
LINE
  5
8737
  8
AM_0
 10
319.7192370408074
 20
268.3591731563489
 30
0.0
 11
328.76108704080752
 21
269.95347315634791
 31
0.0
  0
LINE
  5
8738
  8
AM_0
 10
363.74013704080733
 20
250.75577315634879
 30
0.0
 11
363.74013704080733
 21
271.92897315634792
 31
0.0
  0
LINE
  5
8739
  8
AM_0
 10
331.2401370408063
 20
255.60442315634791
 30
0.0
 11
344.24013704080733
 21
255.60442315634791
 31
0.0
  0
ARC
  5
873A
  8
AM_0
 10
320.24013704080738
 20
265.40472315634798
 30
0.0
 40
3.0000000500000001
 50
99.999999999997485
 51
180.00001000000091
  0
ARC
  5
873B
  8
AM_0
 10
363.25243704080629
 20
249.72042315634789
 30
0.0
 40
3.0000000500000001
 50
270.0
 51
288.46821999999997
  0
LINE
  5
873C
  8
AM_0
 10
344.24013704080733
 20
255.60442315634791
 30
0.0
 11
356.24013704080733
 21
255.60442315634791
 31
0.0
  0
ARC
  5
873D
  8
AM_0
 10
356.24013704080733
 20
252.60442315634791
 30
0.0
 40
3.0000000500000001
 50
0.0
 51
90.00000299999769
  0
ARC
  5
873E
  8
AM_0
 10
342.15703704080619
 20
281.61662315634788
 30
0.0
 40
4.000000049999997
 50
124.6136499999925
 51
187.8682499999893
  0
LINE
  5
873F
  8
AM_0
 10
333.1703370408074
 20
280.893573156348
 30
0.0
 11
344.24013704080733
 21
281.28012315634879
 31
0.0
  0
LINE
  5
8740
  8
AM_0
 10
331.2401370408063
 20
273.86342315634869
 30
0.0
 11
344.24013704080733
 21
273.86342315634869
 31
0.0
  0
LINE
  5
8741
  8
AM_0
 10
332.49608704080617
 20
272.52367315634791
 30
0.0
 11
359.24013704080733
 21
272.52367315634791
 31
0.0
  0
ARC
  5
8742
  8
AM_0
 10
335.56203704080639
 20
286.9114231563488
 30
0.0
 40
1.0
 50
14.999999999994451
 51
79.539281000003172
  0
ARC
  5
8743
  8
AM_0
 10
320.91828704080621
 20
286.9114231563488
 30
0.0
 40
1.0
 50
100.4607200000025
 51
164.99999000001131
  0
LINE
  5
8744
  8
AM_0
 10
317.91723704080721
 20
280.78017315634798
 30
0.0
 11
332.5728370408072
 21
280.78017315634798
 31
0.0
  0
ARC
  5
8745
  8
AM_0
 10
314.32313704080741
 20
281.61662315634788
 30
0.0
 40
4.000000049999997
 50
347.9293300000017
 51
55.386359000005207
  0
ARC
  5
8746
  8
AM_0
 10
319.24013704080738
 20
279.28012315634891
 30
0.0
 40
2.0000000500000001
 50
131.4096200000055
 51
180.00001000000091
  0
LINE
  5
8747
  8
AM_0
 10
318.24013704080738
 20
280.78012315634788
 30
0.0
 11
319.95233704080732
 21
287.17027315634789
 31
0.0
  0
ARC
  5
8748
  8
AM_0
 10
328.24013704080738
 20
272.90787315634748
 30
0.0
 40
3.0000000500000001
 50
279.99999999999739
 51
0.0
  0
ARC
  5
8749
  8
AM_0
 10
333.2401370408063
 20
278.89482315634763
 30
0.0
 40
2.0000000500000001
 50
91.999998000000758
 51
180.00001000000091
  0
LINE
  5
874A
  8
AM_0
 10
338.1629870408064
 20
281.0679731563477
 30
0.0
 11
336.52788704080621
 21
287.17022315634767
 31
0.0
  0
LINE
  5
874B
  8
AM_0
 10
320.73668704080751
 20
287.89477315634809
 30
0.0
 11
328.24013704080738
 21
289.28012315634788
 31
0.0
  0
LINE
  5
874C
  8
AM_0
 10
320.42298704080639
 20
287.78017315634793
 30
0.0
 11
336.05718704080641
 21
287.78017315634793
 31
0.0
  0
LINE
  5
874D
  8
AM_0
 10
328.24013704080738
 20
289.28017315634878
 30
0.0
 11
335.7435370408075
 21
287.89482315634763
 31
0.0
  0
LINE
  5
874E
  8
AM_0
 10
344.24013704080733
 20
281.28012315634879
 30
0.0
 11
357.30993704080743
 21
280.82372315634791
 31
0.0
  0
LINE
  5
874F
  8
AM_0
 10
344.24013704080733
 20
273.86342315634869
 30
0.0
 11
362.93158704080741
 21
273.86342315634869
 31
0.0
  0
LINE
  5
8750
  8
AM_0
 10
342.2401870408072
 20
281.2103231563479
 30
0.0
 11
342.2401870408072
 21
281.28017315634781
 31
0.0
  0
LINE
  5
8751
  8
AM_0
 10
342.2401870408072
 20
281.28017315634781
 30
0.0
 11
344.24013704080733
 21
281.28017315634781
 31
0.0
  0
ARC
  5
8752
  8
AM_0
 10
361.24013704080733
 20
277.4014731563488
 30
0.0
 40
2.0000000500000001
 50
179.99998999999889
 51
268.00000999999878
  0
ARC
  5
8753
  8
AM_0
 10
357.2401870408064
 20
278.82492315634789
 30
0.0
 40
2.0000000500000001
 50
0.0
 51
88.000000000002998
  0
ARC
  5
8754
  8
AM_0
 10
362.93158704080741
 20
270.86342315634789
 30
0.0
 40
3.0000000500000001
 50
59.833878000001903
 51
90.00000299999769
  0
LINE
  5
8755
  8
AM_0
 10
359.24013704080733
 20
273.86342315634869
 30
0.0
 11
359.24013704080733
 21
278.82492315634789
 31
0.0
  0
ARC
  5
8756
  8
AM_0
 10
369.24013704080733
 20
259.1003231563476
 30
0.0
 40
10.0
 50
288.46820999999721
 51
59.833878000001903
  0
LINE
  5
8757
  8
AM_0
 10
456.24013704080733
 20
189.28012815634881
 30
0.0
 11
456.24013704080733
 21
246.2801231563501
 31
0.0
  0
LINE
  5
8758
  8
AM_0
 10
457.11883704080731
 20
235.40147315634789
 30
0.0
 11
461.36153704080732
 21
231.15877315634751
 31
0.0
  0
LINE
  5
8759
  8
AM_0
 10
462.2401870408072
 20
189.28012815634881
 30
0.0
 11
462.2401870408072
 21
229.0375231563479
 31
0.0
  0
LINE
  5
875A
  8
AM_0
 10
466.24013704080619
 20
166.7801281563479
 30
0.0
 11
466.24013704080619
 21
211.7801281563479
 31
0.0
  0
LINE
  5
875B
  8
AM_0
 10
462.2401870408072
 20
166.7801281563479
 30
0.0
 11
466.24013704080619
 21
166.7801281563479
 31
0.0
  0
LINE
  5
875C
  8
AM_0
 10
462.2401870408072
 20
211.7801281563479
 30
0.0
 11
466.24013704080619
 21
211.7801281563479
 31
0.0
  0
ARC
  5
875D
  8
AM_0
 10
459.24013704080733
 20
229.0375231563479
 30
0.0
 40
3.0000000500000001
 50
0.0
 51
45.000001000008389
  0
LINE
  5
875E
  8
AM_0
 10
480.24013704080733
 20
213.2801281563479
 30
0.0
 11
480.24013704080733
 21
210.28015815634791
 31
0.0
  0
ARC
  5
875F
  8
AM_0
 10
426.24013704080733
 20
265.1255231563477
 30
0.0
 40
8.0
 50
0.0
 51
88.000000000002998
  0
LINE
  5
8760
  8
AM_0
 10
442.2401870408072
 20
249.28012315634879
 30
0.0
 11
453.24013704080733
 21
249.28012315634879
 31
0.0
  0
ARC
  5
8761
  8
AM_0
 10
442.2401870408072
 20
257.28012315634788
 30
0.0
 40
8.0
 50
180.00001000000091
 51
270.0
  0
LINE
  5
8762
  8
AM_0
 10
429.29838704080743
 20
233.4529731563488
 30
0.0
 11
424.24013704080619
 21
233.4529731563488
 31
0.0
  0
ARC
  5
8763
  8
AM_0
 10
459.24013704080733
 20
237.52272315634789
 30
0.0
 40
3.0000000500000001
 50
179.99998999999889
 51
225.00000000000909
  0
ARC
  5
8764
  8
AM_0
 10
453.24013704080733
 20
246.2801231563501
 30
0.0
 40
3.0000000500000001
 50
0.0
 51
90.00000299999769
  0
LINE
  5
8766
  8
AM_0
 10
536.24013704080733
 20
168.2801281563479
 30
0.0
 11
536.24013704080733
 21
213.2801281563479
 31
0.0
  0
ARC
  5
8769
  8
AM_0
 10
824.70295204080753
 20
161.2801281563496
 30
0.0
 40
88.0
 50
0.0
 51
186.52497999999079
  0
CIRCLE
  5
876A
  8
AM_0
 10
824.70295204080753
 20
189.28012815634881
 30
0.0
 40
41.000000499999992
  0
LINE
  5
876B
  8
AM_0
 10
918.70295204080719
 20
232.91497315634791
 30
0.0
 11
918.70295204080719
 21
113.6655031563475
 31
0.0
  0
LINE
  5
876C
  8
AM_0
 10
912.70295204080765
 20
161.2801281563496
 30
0.0
 11
912.70295204080765
 21
47.280153156347751
 31
0.0
  0
LINE
  5
876D
  8
AM_0
 10
948.24788704080765
 20
166.67172815634879
 30
0.0
 11
964.6646070408076
 21
34.898288156348599
 31
0.0
  0
LINE
  5
876E
  8
AM_0
 10
730.70294704080754
 20
232.91497315634791
 30
0.0
 11
730.70294704080754
 21
117.27026815634871
 31
0.0
  0
LINE
  5
876F
  8
AM_0
 10
701.15798704080726
 20
166.67172815634879
 30
0.0
 11
684.74128704080726
 21
34.898258156348682
 31
0.0
  0
LINE
  5
8770
  8
AM_0
 10
687.63188704080756
 20
158.35114315634959
 30
0.0
 11
700.97178704080761
 21
171.6910481563479
 31
0.0
  0
LINE
  5
8771
  8
AM_0
 10
961.77401204080752
 20
158.3512031563495
 30
0.0
 11
948.43413704080763
 21
171.691078156348
 31
0.0
  0
LINE
  5
8772
  8
ﾁｭｳｼﾝｾﾝ
 10
824.70295204080753
 20
326.84632409547743
 30
0.0
 11
824.70295204080753
 21
13.31054815634956
 31
0.0
  0
ARC
  5
8773
  8
AM_0
 10
757.70294704080754
 20
26.280123156349639
 30
0.0
 40
8.0
 50
90.00000299999769
 51
177.0055400000121
  0
LINE
  5
8774
  8
AM_0
 10
754.34848704080764
 20
29.01080815634964
 30
0.0
 11
895.05741204080755
 21
29.01080815634964
 31
0.0
  0
LINE
  5
8775
  8
AM_0
 10
743.70294704080754
 20
19.280123156348719
 30
0.0
 11
906.06873704080749
 21
19.280123156348719
 31
0.0
  0
ARC
  5
8776
  8
AM_0
 10
743.70294704080754
 20
15.280153156347749
 30
0.0
 40
4.000000049999997
 50
99.488295999996723
 51
180.00001000000091
  0
LINE
  5
8777
  8
ｶｸﾚｾﾝ2
 10
719.20297704080735
 20
39.280123156348722
 30
0.0
 11
719.20297704080735
 21
14.28012315634964
 31
0.0
  0
LINE
  5
8778
  8
AM_0
 10
736.00296704080733
 20
35.28015315634957
 30
0.0
 11
736.00296704080733
 21
14.28012315634964
 31
0.0
  0
LINE
  5
8779
  8
ｶｸﾚｾﾝ2
 10
700.20293704080746
 20
39.280123156348722
 30
0.0
 11
700.20293704080746
 21
14.28012315634964
 31
0.0
  0
LINE
  5
877A
  8
AM_0
 10
684.70293704080746
 20
34.280123156349639
 30
0.0
 11
684.70293704080746
 21
14.28012315634964
 31
0.0
  0
LINE
  5
877B
  8
ﾁｭｳｼﾝｾﾝ
 10
709.70294704080732
 20
44.280123156348722
 30
0.0
 11
709.70294704080754
 21
9.280123156349644
 31
0.0
  0
LINE
  5
877C
  8
AM_0
 10
684.70293704080746
 20
14.28012315634964
 30
0.0
 11
739.70294704080504
 21
14.28012315634964
 31
0.0
  0
LINE
  5
877D
  8
AM_0
 10
739.70294704080504
 20
15.280153156347749
 30
0.0
 11
739.70294704080504
 21
14.28012315634964
 31
0.0
  0
ARC
  5
877E
  8
AM_0
 10
824.70295204080753
 20
117.27026815634871
 30
0.0
 40
93.999994999999984
 50
179.99998999999889
 51
200.58195999999509
  0
LINE
  5
877F
  8
AM_0
 10
736.70297704080735
 20
151.2801281563496
 30
0.0
 11
736.70297704080735
 21
47.280153156347751
 31
0.0
  0
LINE
  5
8780
  8
AM_0
 10
689.70293704080746
 20
39.280123156348722
 30
0.0
 11
732.00296704080733
 21
39.280123156348722
 31
0.0
  0
ARC
  5
8781
  8
AM_0
 10
689.70293704080746
 20
34.280123156349639
 30
0.0
 40
5.0
 50
90.00000299999769
 51
180.00001000000091
  0
ARC
  5
8782
  8
AM_0
 10
754.34848704080764
 20
24.01080815634873
 30
0.0
 40
5.0
 50
90.00000299999769
 51
166.180780000006
  0
ARC
  5
8783
  8
AM_0
 10
741.72479704080752
 20
27.115968156350611
 30
0.0
 40
8.0
 50
279.4882999999972
 51
357.0055400000121
  0
ARC
  5
8784
  8
AM_0
 10
728.70294704080754
 20
47.280153156347751
 30
0.0
 40
8.0
 50
270.0
 51
0.0
  0
ARC
  5
8785
  8
AM_0
 10
732.00296704080733
 20
35.28015315634957
 30
0.0
 40
4.000000049999997
 50
0.0
 51
90.00000299999769
  0
LINE
  5
8786
  8
AM_0
 10
687.63198704080764
 20
144.20901815634869
 30
0.0
 11
695.44288704080759
 21
136.3980481563496
 31
0.0
  0
ARC
  5
8787
  8
AM_0
 10
690.81993704080764
 20
133.9499581563486
 30
0.0
 40
5.0
 50
7.3755080999940761
 51
45.000001000008389
  0
ARC
  5
8788
  8
AM_0
 10
691.90733704080753
 20
132.86255315634861
 30
0.0
 40
5.0
 50
352.89851999999883
 51
45.000001000008389
  0
ARC
  5
8789
  8
AM_0
 10
824.70295204080753
 20
151.2801281563496
 30
0.0
 40
130.0
 50
187.37550999999371
 51
189.62446000001191
  0
ARC
  5
878A
  8
AM_0
 10
694.70293704080746
 20
151.2801281563496
 30
0.0
 40
10.0
 50
134.99999999999071
 51
225.00000000000909
  0
ARC
  5
878B
  8
AM_0
 10
905.70295204080765
 20
15.280153156347749
 30
0.0
 40
4.000000049999997
 50
0.0
 51
80.511702000004064
  0
LINE
  5
878C
  8
AM_0
 10
964.70296704080749
 20
34.280123156349639
 30
0.0
 11
964.70296704080749
 21
14.28012315634964
 31
0.0
  0
LINE
  5
878D
  8
ｶｸﾚｾﾝ2
 10
930.2029520408073
 20
39.280123156348722
 30
0.0
 11
930.2029520408073
 21
14.28012315634964
 31
0.0
  0
LINE
  5
878E
  8
ｶｸﾚｾﾝ2
 10
949.20295204080765
 20
39.280123156348722
 30
0.0
 11
949.20295204080765
 21
14.28012315634964
 31
0.0
  0
LINE
  5
878F
  8
AM_0
 10
913.40296204080755
 20
35.28015315634957
 30
0.0
 11
913.40296204080755
 21
14.28012315634964
 31
0.0
  0
LINE
  5
8790
  8
ﾁｭｳｼﾝｾﾝ
 10
939.70295204080765
 20
44.280123156348722
 30
0.0
 11
939.70295204080765
 21
9.280123156349644
 31
0.0
  0
LINE
  5
8791
  8
AM_0
 10
909.7029520408073
 20
14.28012315634964
 30
0.0
 11
964.70296704080749
 21
14.28012315634964
 31
0.0
  0
LINE
  5
8792
  8
AM_0
 10
909.7029520408073
 20
15.280153156347749
 30
0.0
 11
909.7029520408073
 21
14.28012315634964
 31
0.0
  0
LINE
  5
8793
  8
AM_0
 10
757.70294704080754
 20
34.280123156349639
 30
0.0
 11
891.70295204080753
 21
34.280123156349639
 31
0.0
  0
ARC
  5
8794
  8
AM_0
 10
824.70295204080753
 20
117.27026815634871
 30
0.0
 40
93.999994999999984
 50
339.95002000001227
 51
20.049975999999852
  0
LINE
  5
8795
  8
AM_0
 10
917.41846684995335
 20
39.280123156348722
 30
0.0
 11
959.70296704080761
 21
39.280123156348722
 31
0.0
  0
ARC
  5
8796
  8
AM_0
 10
891.70295204080753
 20
26.280123156349639
 30
0.0
 40
8.0
 50
2.994464400006823
 51
90.00000299999769
  0
ARC
  5
8797
  8
AM_0
 10
895.05741204080755
 20
24.01080815634873
 30
0.0
 40
5.0
 50
13.819217000013911
 51
90.00000299999769
  0
ARC
  5
8798
  8
AM_0
 10
907.6811320408076
 20
27.115968156350611
 30
0.0
 40
8.0
 50
182.99445999998781
 51
260.51170000000269
  0
ARC
  5
8799
  8
AM_0
 10
920.70295204080765
 20
47.280153156347751
 30
0.0
 40
8.0
 50
180.00001000000091
 51
270.0
  0
ARC
  5
879A
  8
AM_0
 10
917.40296204080755
 20
35.28015315634957
 30
0.0
 40
4.000000049999997
 50
90.00000299999769
 51
180.00001000000091
  0
ARC
  5
879B
  8
AM_0
 10
917.7029520408073
 20
83.3291681563487
 30
0.0
 40
5.0
 50
159.95003000000631
 51
180.00001000000091
  0
ARC
  5
879C
  8
AM_0
 10
959.70296704080761
 20
34.280123156349639
 30
0.0
 40
5.0
 50
0.0
 51
90.00000299999769
  0
ARC
  5
879D
  8
AM_0
 10
917.7029520408073
 20
151.2114031563496
 30
0.0
 40
5.0
 50
179.99998999999889
 51
200.04996999999369
  0
LINE
  5
879E
  8
AM_0
 10
961.77401204080752
 20
144.20908315634961
 30
0.0
 11
953.96303704080765
 21
136.39810815634971
 31
0.0
  0
ARC
  5
879F
  8
AM_0
 10
958.58597704080762
 20
133.9499581563486
 30
0.0
 40
5.0
 50
134.99999999999071
 51
172.62449000000609
  0
ARC
  5
87A0
  8
AM_0
 10
957.49857704080739
 20
132.86255315634861
 30
0.0
 40
5.0
 50
134.99999999999071
 51
187.10149000000899
  0
ARC
  5
87A1
  8
AM_0
 10
824.70295204080753
 20
151.2801281563496
 30
0.0
 40
130.0
 50
350.3755499999919
 51
352.62449000000601
  0
ARC
  5
87A2
  8
AM_0
 10
954.70296704080749
 20
151.2801281563496
 30
0.0
 40
10.0
 50
314.99999999999068
 51
45.000001000008389
  0
ARC
  5
87A3
  8
AM_0
 10
824.70295204080753
 20
151.2801281563496
 30
0.0
 40
124.5
 50
7.1014838999877137
 51
172.89851999999871
  0
ARC
  5
87A4
  8
AM_0
 10
759.70294704080754
 20
263.86342315634789
 30
0.0
 40
10.0
 50
74.999998999997473
 51
164.99999000001131
  0
ARC
  5
87A5
  8
AM_0
 10
824.70295204080753
 20
151.2801281563496
 30
0.0
 40
130.0
 50
127.3755000000078
 51
172.62449000000609
  0
ARC
  5
87A6
  8
AM_0
 10
690.81993704080764
 20
168.6102981563493
 30
0.0
 40
5.0
 50
314.99999999999068
 51
352.62449000000601
  0
ARC
  5
87A7
  8
AM_0
 10
697.43623704080755
 20
175.2266281563488
 30
0.0
 40
5.0
 50
314.99999999999068
 51
349.34381999999709
  0
LINE
  5
87A8
  8
AM_0
 10
750.04373704080763
 20
266.45162315634877
 30
0.0
 11
745.16098704080764
 21
248.22897315634791
 31
0.0
  0
ARC
  5
87A9
  8
AM_0
 10
740.33130704080725
 20
249.52302315634779
 30
0.0
 40
5.0
 50
310.65618000000461
 51
345.00000000000551
  0
ARC
  5
87AA
  8
AM_0
 10
742.75308704080749
 20
258.56112315634789
 30
0.0
 40
5.0
 50
307.37550999999951
 51
345.00000000000551
  0
LINE
  5
87AB
  8
AM_0
 10
828.70295204080765
 20
318.280123156348
 30
0.0
 11
828.70295204080765
 21
284.78012315634982
 31
0.0
  0
LINE
  5
87AC
  8
AM_0
 10
820.70295204080765
 20
318.280123156348
 30
0.0
 11
820.70295204080765
 21
284.78012315634982
 31
0.0
  0
ARC
  5
87AD
  8
AM_0
 10
867.59806204080735
 20
273.46957315634882
 30
0.0
 40
5.0
 50
250.65617999999921
 51
285.00000000000068
  0
ARC
  5
87AE
  8
AM_0
 10
824.70295204080753
 20
151.2801281563496
 30
0.0
 40
130.0
 50
67.375506000002574
 51
112.6244900000018
  0
LINE
  5
87AF
  8
ﾁｭｳｼﾝｾﾝ
 10
755.53094984803431
 20
189.28012815634881
 30
0.0
 11
893.9051310111372
 21
189.28012815634881
 31
0.0
  0
ARC
  5
87B0
  8
AM_0
 10
824.70295204080753
 20
189.28012815634881
 30
0.0
 40
20.9999985
 50
106.6015499999988
 51
73.398452000004042
  0
CIRCLE
  5
87B1
  8
AM_5
 10
824.70295204080753
 20
189.28012815634881
 30
0.0
 40
5.0
  0
CIRCLE
  5
87B2
  8
AM_0
 10
824.70295204080753
 20
189.28012815634881
 30
0.0
 40
3.5000000500000001
  0
LINE
  5
87B3
  8
AM_0
 10
818.70295204080719
 20
205.2801581563489
 30
0.0
 11
830.70295204080753
 21
205.2801581563489
 31
0.0
  0
LINE
  5
87B4
  8
AM_0
 10
818.70295204080719
 20
213.2801281563479
 30
0.0
 11
830.70295204080753
 21
213.2801281563479
 31
0.0
  0
LINE
  5
87B5
  8
AM_0
 10
818.70295204080719
 20
213.2801281563479
 30
0.0
 11
818.70295204080719
 21
205.2801581563489
 31
0.0
  0
LINE
  5
87B6
  8
AM_0
 10
830.70295204080753
 20
213.2801281563479
 30
0.0
 11
830.70295204080753
 21
205.2801581563489
 31
0.0
  0
LINE
  5
87B7
  8
AM_0
 10
762.29120704080765
 20
273.5226731563489
 30
0.0
 11
780.51380204080624
 21
268.63992315634857
 31
0.0
  0
ARC
  5
87B8
  8
AM_0
 10
781.80786704080765
 20
273.46957315634882
 30
0.0
 40
5.0
 50
254.99999999999929
 51
289.34382000000079
  0
ARC
  5
87B9
  8
AM_0
 10
772.76981204080755
 20
275.89132315634799
 30
0.0
 40
5.0
 50
254.99999999999929
 51
292.62449000000191
  0
ARC
  5
87BA
  8
AM_0
 10
832.02481704080765
 20
286.91137315634791
 30
0.0
 40
1.0
 50
14.999999999994451
 51
79.539281000003172
  0
ARC
  5
87BB
  8
AM_0
 10
817.38111204080735
 20
286.91137315634791
 30
0.0
 40
1.0
 50
100.4607200000025
 51
164.99999000001131
  0
ARC
  5
87BC
  8
AM_0
 10
818.70295204080719
 20
284.78012315634982
 30
0.0
 40
2.0000000500000001
 50
270.0
 51
0.0
  0
LINE
  5
87BD
  8
AM_0
 10
814.73441204080734
 20
280.8973731563479
 30
0.0
 11
816.41523204080738
 21
287.17022315634767
 31
0.0
  0
ARC
  5
87BE
  8
AM_0
 10
830.70295204080753
 20
284.78012315634982
 30
0.0
 40
2.0000000500000001
 50
179.99998999999889
 51
270.0
  0
LINE
  5
87BF
  8
AM_0
 10
834.67154704080758
 20
280.8973731563479
 30
0.0
 11
832.99076204080734
 21
287.17022315634767
 31
0.0
  0
LINE
  5
87C0
  8
AM_0
 10
820.70298204080746
 20
288.54152315634792
 30
0.0
 11
817.19956204080768
 21
287.89467315634789
 31
0.0
  0
LINE
  5
87C1
  8
AM_0
 10
828.70295204080765
 20
288.541673156348
 30
0.0
 11
832.20636704080766
 21
287.89482315634763
 31
0.0
  0
ARC
  5
87C2
  8
AM_0
 10
824.70295204080753
 20
151.2801281563496
 30
0.0
 40
130.0
 50
7.3755072000038258
 51
52.62449399999246
  0
ARC
  5
87C3
  8
AM_0
 10
951.96967704080714
 20
175.2266281563488
 30
0.0
 40
5.0
 50
190.65618000000279
 51
225.00000000000909
  0
ARC
  5
87C4
  8
AM_0
 10
958.58597704080762
 20
168.6102981563493
 30
0.0
 40
5.0
 50
187.37550999999371
 51
225.00000000000909
  0
ARC
  5
87C5
  8
AM_0
 10
889.70295204080753
 20
263.86342315634789
 30
0.0
 40
10.0
 50
14.999999999994451
 51
105.0000000000007
  0
LINE
  5
87C6
  8
AM_0
 10
887.11478704080764
 20
273.5226731563489
 30
0.0
 11
868.89212704080751
 21
268.63992315634857
 31
0.0
  0
LINE
  5
87C7
  8
AM_0
 10
899.36222204080764
 20
266.45157315634788
 30
0.0
 11
904.24497204080751
 21
248.22897315634791
 31
0.0
  0
ARC
  5
87C8
  8
AM_0
 10
909.0745920408076
 20
249.52302315634779
 30
0.0
 40
5.0
 50
195.00000999998861
 51
229.3438199999953
  0
ARC
  5
87C9
  8
AM_0
 10
906.65284204080763
 20
258.56112315634789
 30
0.0
 40
5.0
 50
195.00000999998861
 51
232.62449999999211
  0
ARC
  5
87CA
  8
AM_0
 10
876.63608704080548
 20
275.89132315634799
 30
0.0
 40
5.0
 50
247.37550999999809
 51
285.00000000000068
  0
ARC
  5
87CB
  8
AM_0
 10
824.70295204080753
 20
318.280123156348
 30
0.0
 40
4.000000049999997
 50
359.999989999999
 51
179.99998999999889
  0
ARC
  5
87CE
  8
AM_0
 10
94.063887040807685
 20
138.29013915634951
 30
0.0
 40
1.335016049999999
 50
89.732355000002016
 51
270.26763000000221
  0
LINE
  5
87CF
  8
ﾁｭｳｼﾝｾﾝ
 10
149.74007704080771
 20
163.90514265634951
 30
0.0
 11
149.74007704080771
 21
82.655113656349485
 31
0.0
  0
LINE
  5
87D0
  8
AM_0
 10
190.5101070408077
 20
153.27512415635061
 30
0.0
 11
190.5101070408077
 21
93.275121156349542
 31
0.0
  0
LINE
  5
87D1
  8
AM_0
 10
92.740077040807705
 20
176.2751131563476
 30
0.0
 11
92.740077040807705
 21
73.835133156349684
 31
0.0
  0
LINE
  5
87D2
  8
AM_0
 10
200.74010704080769
 20
179.28012315634891
 30
0.0
 11
200.74010704080769
 21
67.28011215634865
 31
0.0
  0
LINE
  5
87D5
  8
AM_0
 10
193.9801415968204
 20
87.280128156348596
 30
0.0
 11
95.382581197730346
 21
87.280128156348596
 31
0.0
  0
LINE
  5
87D6
  8
AM_0
 10
149.74007704080771
 20
86.5551211563495
 30
0.0
 11
197.56010704080799
 21
86.5551211563495
 31
0.0
  0
LINE
  5
87D7
  8
AM_0
 10
95.940087040807825
 20
66.995106156349721
 30
0.0
 11
192.860097040808
 21
66.995106156349721
 31
0.0
  0
LINE
  5
87D8
  8
AM_0
 10
118.24007704080771
 20
85.0551211563495
 30
0.0
 11
200.74010704080769
 21
85.0551211563495
 31
0.0
  0
ARC
  5
87D9
  8
AM_0
 10
299.79127024805939
 20
124.9677020962706
 30
0.0
 40
204.69842337270771
 50
178.02572260412779
 51
178.71785518950381
  0
ARC
  5
87DA
  8
AM_0
 10
299.71401835989849
 20
121.58815823032469
 30
0.0
 40
204.6212004872653
 50
181.28349981583841
 51
181.97561674815401
  0
ARC
  5
87DB
  8
AM_0
 10
95.282337040807761
 20
88.275123156349551
 30
0.0
 40
1.0000319699999971
 50
89.552707000000495
 51
270.44730000000112
  0
ARC
  5
87DC
  8
AM_0
 10
95.282337040807761
 20
138.27512415634959
 30
0.0
 40
1.0000319699999971
 50
89.552707000000495
 51
270.44730000000112
  0
ARC
  5
87DD
  8
AM_0
 10
95.282337040807761
 20
128.2751221563496
 30
0.0
 40
1.0000319699999971
 50
89.552707000000495
 51
270.44730000000112
  0
ARC
  5
87DE
  8
AM_0
 10
95.282337040807761
 20
118.27512315634949
 30
0.0
 40
1.0000319699999971
 50
89.552707000000495
 51
270.44730000000112
  0
ARC
  5
87DF
  8
AM_0
 10
95.282337040807761
 20
108.2751211563486
 30
0.0
 40
1.0000319699999971
 50
89.552707000000495
 51
270.44730000000112
  0
ARC
  5
87E0
  8
AM_0
 10
95.282337040807761
 20
98.275107156348682
 30
0.0
 40
1.0000319699999971
 50
89.552707000000495
 51
270.44730000000112
  0
ARC
  5
87E1
  8
AM_0
 10
94.001877040807685
 20
128.2851031563475
 30
0.0
 40
1.270028039999999
 50
89.627211000000742
 51
270.37279000000228
  0
ARC
  5
87E2
  8
AM_0
 10
94.001877040807685
 20
118.27512315634949
 30
0.0
 40
1.270028039999999
 50
89.627211000000742
 51
270.37279000000228
  0
ARC
  5
87E3
  8
AM_0
 10
94.063887040807685
 20
108.2651131563495
 30
0.0
 40
1.3300160699999981
 50
89.73134399999789
 51
270.26864999999918
  0
ARC
  5
87E4
  8
AM_0
 10
94.194507040807707
 20
98.255133156348634
 30
0.0
 40
1.460012009999998
 50
89.778814000002811
 51
270.22118999999998
  0
ARC
  5
87E5
  8
AM_0
 10
96.032217040807836
 20
63.385596156347681
 30
0.0
 40
2.000475929999999
 50
187.7704600000076
 51
269.93969000000249
  0
ARC
  5
87E6
  8
AM_0
 10
95.944737040807667
 20
68.994114156350633
 30
0.0
 40
1.999007999999999
 50
190.63740999999681
 51
269.86655000000292
  0
ARC
  5
87E7
  8
AM_0
 10
95.996067040807702
 20
66.145299156349665
 30
0.0
 40
2.0001841200000001
 50
188.9209999999957
 51
269.8285299999992
  0
ARC
  5
87E8
  8
AM_0
 10
96.003627040807714
 20
64.302450156349551
 30
0.0
 40
1.997348129999998
 50
188.85146999999321
 51
270.18467999999763
  0
LINE
  5
87E9
  8
AM_0
 10
98.740077040807705
 20
139.27512315634959
 30
0.0
 11
95.100147040807784
 21
139.27512315634959
 31
0.0
  0
LINE
  5
87EA
  8
AM_0
 10
98.740077040807705
 20
137.2751221563496
 30
0.0
 11
95.100147040807784
 21
137.2751221563496
 31
0.0
  0
LINE
  5
87EB
  8
AM_0
 10
98.740077040807705
 20
129.27512415634959
 30
0.0
 11
95.100147040807784
 21
129.27512415634959
 31
0.0
  0
LINE
  5
87EC
  8
AM_0
 10
98.740077040807705
 20
127.27512315634949
 30
0.0
 11
95.100147040807784
 21
127.27512315634949
 31
0.0
  0
LINE
  5
87ED
  8
AM_0
 10
94.070097040807894
 20
136.95511515634871
 30
0.0
 11
98.740077040807705
 21
136.95511515634871
 31
0.0
  0
LINE
  5
87EE
  8
AM_0
 10
94.010097040807509
 20
129.55512315634761
 30
0.0
 11
98.740077040807705
 21
129.55512315634761
 31
0.0
  0
LINE
  5
87EF
  8
AM_0
 10
94.010097040807509
 20
127.0151131563486
 30
0.0
 11
98.740077040807705
 21
127.0151131563486
 31
0.0
  0
LINE
  5
87F0
  8
AM_0
 10
94.010097040807509
 20
119.54511315634861
 30
0.0
 11
98.740077040807705
 21
119.54511315634861
 31
0.0
  0
LINE
  5
87F1
  8
AM_0
 10
98.740077040807705
 20
119.2751221563507
 30
0.0
 11
95.100147040807784
 21
119.2751221563507
 31
0.0
  0
LINE
  5
87F2
  8
AM_0
 10
98.740077040807705
 20
117.27512415634961
 30
0.0
 11
95.100147040807784
 21
117.27512415634961
 31
0.0
  0
LINE
  5
87F3
  8
AM_0
 10
94.010097040807509
 20
117.00513315634861
 30
0.0
 11
98.740077040807705
 21
117.00513315634861
 31
0.0
  0
LINE
  5
87F4
  8
AM_0
 10
94.070097040807894
 20
109.5951301563495
 30
0.0
 11
98.740077040807705
 21
109.5951301563495
 31
0.0
  0
LINE
  5
87F5
  8
AM_0
 10
98.740077040807705
 20
109.27512315634949
 30
0.0
 11
95.100147040807784
 21
109.27512315634949
 31
0.0
  0
LINE
  5
87F6
  8
AM_0
 10
98.740077040807705
 20
107.27510715634951
 30
0.0
 11
95.100147040807784
 21
107.27510715634951
 31
0.0
  0
LINE
  5
87F7
  8
AM_0
 10
94.070097040807894
 20
106.9351261563497
 30
0.0
 11
98.740077040807705
 21
106.9351261563497
 31
0.0
  0
LINE
  5
87F8
  8
AM_0
 10
98.740077040807705
 20
99.275121156347709
 30
0.0
 11
95.100147040807784
 21
99.275121156347709
 31
0.0
  0
LINE
  5
87F9
  8
AM_0
 10
94.200117040807754
 20
99.715125156348705
 30
0.0
 11
98.740077040807705
 21
99.715125156348705
 31
0.0
  0
LINE
  5
87FA
  8
AM_0
 10
98.740077040807705
 20
97.275123156348627
 30
0.0
 11
95.100147040807784
 21
97.275123156348627
 31
0.0
  0
LINE
  5
87FB
  8
AM_0
 10
94.200117040807754
 20
96.795111156349563
 30
0.0
 11
98.740077040807705
 21
96.795111156349563
 31
0.0
  0
LINE
  5
87FC
  8
AM_0
 10
94.410087040807838
 20
86.5551211563495
 30
0.0
 11
149.74007704080771
 21
86.5551211563495
 31
0.0
  0
LINE
  5
87FD
  8
AM_0
 10
94.410087040807838
 20
89.915136156351537
 30
0.0
 11
98.846981069221684
 21
89.915136156351537
 31
0.0
  0
LINE
  5
87FE
  8
AM_0
 10
99.077446201912593
 20
89.275107156348639
 30
0.0
 11
95.100147040807784
 21
89.275107156348639
 31
0.0
  0
LINE
  5
87FF
  8
AM_0
 10
98.100087040807679
 20
86.625129156348748
 30
0.0
 11
92.740077040807705
 21
75.185124156349701
 31
0.0
  0
LINE
  5
8800
  8
AM_0
 10
92.740077040807705
 20
75.185109156350791
 30
0.0
 11
93.980067040807725
 21
68.625111156349703
 31
0.0
  0
LINE
  5
8801
  8
AM_0
 10
92.740077040807705
 20
72.495138156347579
 30
0.0
 11
94.050087040808194
 21
63.115134156349527
 31
0.0
  0
LINE
  5
8802
  8
AM_0
 10
84.74009704080774
 20
70.28011215634956
 30
0.0
 11
92.740077040807705
 21
70.28011215634956
 31
0.0
  0
LINE
  5
8803
  8
AM_0
 10
84.74009704080774
 20
70.275120156349644
 30
0.0
 11
92.740077040807705
 21
70.275120156349644
 31
0.0
  0
LINE
  5
8804
  8
AM_0
 10
92.740077040807705
 20
73.83511815634958
 30
0.0
 11
94.020057040807728
 21
65.835120156347557
 31
0.0
  0
LINE
  5
8805
  8
AM_0
 10
92.740077040807705
 20
72.495108156350625
 30
0.0
 11
94.030137040808313
 21
63.995121156349583
 31
0.0
  0
LINE
  5
8806
  8
AM_0
 10
85.430097040807709
 20
80.085120156348694
 30
0.0
 11
91.660137040807726
 21
80.085120156348694
 31
0.0
  0
ARC
  5
8807
  8
AM_0
 10
94.410087040807838
 20
88.235112156349714
 30
0.0
 40
1.679999999999999
 50
90.00000299999769
 51
270.0
  0
ARC
  5
8808
  8
AM_0
 10
296.70380168218537
 20
124.9879687218726
 30
0.0
 40
201.61085738285439
 50
179.42527489174191
 51
180.13294661221761
  0
ARC
  5
8809
  8
AM_0
 10
299.7337209603196
 20
124.9873514999896
 30
0.0
 40
204.64076721509861
 50
180.130805390495
 51
180.47940135319399
  0
ARC
  5
880A
  8
AM_0
 10
297.98705501117252
 20
121.5623794193595
 30
0.0
 40
202.89403267033549
 50
180.21919094446361
 51
180.57069649462861
  0
ARC
  5
880B
  8
AM_0
 10
299.02369457297732
 20
121.57062275188051
 30
0.0
 40
203.93069622692141
 50
179.87077327206001
 51
180.22039274125001
  0
ARC
  5
880C
  8
AM_0
 10
298.64570008240838
 20
121.57339236987551
 30
0.0
 40
203.55269646012371
 50
179.52099544220221
 51
179.87131288695369
  0
ARC
  5
880D
  8
AM_0
 10
300.05916884559042
 20
121.5749206654145
 30
0.0
 40
204.96200297080929
 50
186.94488316606041
 51
187.59240971813529
  0
LINE
  5
880E
  8
AM_0
 10
95.990097040807754
 20
64.145115156349675
 30
0.0
 11
129.74009704080771
 21
64.145115156349675
 31
0.0
  0
LINE
  5
880F
  8
AM_0
 10
96.010107040807725
 20
62.30511915634861
 30
0.0
 11
129.74009704080771
 21
62.30511915634861
 31
0.0
  0
LINE
  5
8810
  8
AM_0
 10
96.030117040807696
 20
61.385121156349662
 30
0.0
 11
129.74009704080771
 21
61.385121156349662
 31
0.0
  0
LINE
  5
8811
  8
AM_0
 10
118.24007704080771
 20
85.0551211563495
 30
0.0
 11
98.06729704080773
 21
86.5551211563495
 31
0.0
  0
ARC
  5
8812
  8
AM_0
 10
300.5414042083375
 20
121.6452371262525
 30
0.0
 40
205.44930125633391
 50
187.59407870998231
 51
188.8860675939209
  0
ARC
  5
8813
  8
AM_0
 10
129.7367970408076
 20
64.30840215634862
 30
0.0
 40
2.003279969999999
 50
270.09378999999711
 51
359.90621000000289
  0
LINE
  5
8814
  8
AM_0
 10
131.74007704080771
 20
63.385122156348643
 30
0.0
 11
131.74007704080771
 21
66.995106156349721
 31
0.0
  0
ARC
  5
8815
  8
AM_0
 10
129.7320870408079
 20
63.393132156348663
 30
0.0
 40
2.0080361999999989
 50
270.22878999999938
 51
359.77121000000051
  0
ARC
  5
8816
  8
AM_0
 10
129.7328970408077
 20
66.152304156347554
 30
0.0
 40
2.007180029999998
 50
270.20461999999759
 51
359.79537999999559
  0
ARC
  5
8818
  8
AM_0
 10
299.64643491313228
 20
121.58351468794049
 30
0.0
 40
204.55326957220879
 50
185.46031399634921
 51
186.13700085447221
  0
ARC
  5
8819
  8
AM_0
 10
300.29980380689449
 20
121.6427197363316
 30
0.0
 40
205.2093074617344
 50
184.78473638767409
 51
185.45941055423961
  0
ARC
  5
881A
  8
AM_0
 10
299.72944007220138
 20
121.59279628571851
 30
0.0
 40
204.63676715666841
 50
184.10764570184199
 51
184.78412767204631
  0
ARC
  5
881B
  8
AM_0
 10
299.47079672432238
 20
121.5810546632035
 30
0.0
 40
204.37787853975311
 50
181.97597713469739
 51
183.3618692197046
  0
ARC
  5
881C
  8
AM_0
 10
299.79961995004732
 20
124.9650511825395
 30
0.0
 40
204.70684984457009
 50
176.64084313943471
 51
177.3330192692051
  0
ARC
  5
881D
  8
AM_0
 10
301.11648562302838
 20
124.9108761733186
 30
0.0
 40
206.0248100930055
 50
177.3350100486474
 51
178.02262526942451
  0
LINE
  5
881E
  8
AM_0
 10
197.56010704080799
 20
89.915136156351537
 30
0.0
 11
187.74007704080759
 21
89.915136156351537
 31
0.0
  0
LINE
  5
881F
  8
AM_0
 10
199.24010704080769
 20
85.0551211563495
 30
0.0
 11
194.79008704080769
 21
68.475117156348688
 31
0.0
  0
ARC
  5
8820
  8
AM_0
 10
192.85721704080771
 20
68.997258156349531
 30
0.0
 40
2.0021281800000001
 50
270.0815199999999
 51
344.88329999999792
  0
LINE
  5
8821
  8
AM_0
 10
194.08010704080769
 20
89.275107156348639
 30
0.0
 11
187.74007704080759
 21
89.275107156348639
 31
0.0
  0
LINE
  5
8822
  8
AM_0
 10
187.74007704080759
 20
93.197416072022648
 30
0.0
 11
190.5101070408077
 21
93.275106156351512
 31
0.0
  0
ARC
  5
8823
  8
AM_0
 10
194.08010704080769
 20
88.275123156349551
 30
0.0
 40
1.000004069999999
 50
270.0
 51
90.00000299999769
  0
LINE
  5
8824
  8
AM_0
 10
195.28007704080761
 20
70.275120156349644
 30
0.0
 11
200.74010704080769
 21
70.275120156349644
 31
0.0
  0
ARC
  5
8825
  8
AM_0
 10
197.56010704080799
 20
88.235112156349714
 30
0.0
 40
1.680008099999998
 50
270.0
 51
90.00000299999769
  0
ARC
  5
8826
  8
AM_0
 10
197.56010704080799
 20
88.235112156349714
 30
0.0
 40
1.675004159999999
 50
270.0
 51
90.00000299999769
  0
LINE
  5
8829
  8
AM_0
 10
95.290143946660805
 20
159.2751266529705
 30
0.0
 11
194.08010698844751
 21
159.27512922634759
 31
0.0
  0
LINE
  5
882A
  8
AM_0
 10
94.410087040807838
 20
160.0050931563496
 30
0.0
 11
197.56010704080799
 21
160.0050931563496
 31
0.0
  0
LINE
  5
882B
  8
AM_0
 10
95.940087040807825
 20
179.56512315634791
 30
0.0
 11
192.860097040808
 21
179.56512315634791
 31
0.0
  0
LINE
  5
882C
  8
AM_0
 10
118.24007704080771
 20
161.50509315634869
 30
0.0
 11
200.74010704080769
 21
161.50509315634869
 31
0.0
  0
ARC
  5
882D
  8
AM_0
 10
95.282337040807761
 20
158.2751251563476
 30
0.0
 40
1.0000319699999971
 50
89.552707000000495
 51
270.44730000000112
  0
ARC
  5
882E
  8
AM_0
 10
95.282337040807761
 20
148.27512315634959
 30
0.0
 40
1.0000319699999971
 50
89.552707000000495
 51
270.44730000000112
  0
ARC
  5
882F
  8
AM_0
 10
94.194447040807745
 20
148.30512315634871
 30
0.0
 40
1.460012009999998
 50
89.777016999998949
 51
270.22298999999867
  0
ARC
  5
8830
  8
AM_0
 10
95.942967040807744
 20
177.5682031563488
 30
0.0
 40
1.996904069999998
 50
90.083473999999597
 51
169.41255999999501
  0
ARC
  5
8831
  8
AM_0
 10
95.98850704080769
 20
180.4119931563489
 30
0.0
 40
1.9931281199999991
 50
89.953373000000497
 51
170.96118000000021
  0
ARC
  5
8832
  8
AM_0
 10
96.002847040807765
 20
182.2605331563488
 30
0.0
 40
1.994588069999998
 50
89.790753000002425
 51
171.507089999995
  0
ARC
  5
8833
  8
AM_0
 10
96.024747040807725
 20
183.17163315634789
 30
0.0
 40
1.9934921999999999
 50
89.846091000001351
 51
172.1147400000026
  0
LINE
  5
8834
  8
AM_0
 10
99.075603161839695
 20
157.27512315634959
 30
0.0
 11
95.100147040807784
 21
157.27512315634959
 31
0.0
  0
LINE
  5
8835
  8
AM_0
 10
98.740077040807705
 20
149.27512515634751
 30
0.0
 11
95.100147040807784
 21
149.27512515634751
 31
0.0
  0
LINE
  5
8836
  8
AM_0
 10
98.740077040807705
 20
147.27512415634871
 30
0.0
 11
95.100147040807784
 21
147.27512415634871
 31
0.0
  0
LINE
  5
8837
  8
AM_0
 10
94.410087040807838
 20
156.6451201563506
 30
0.0
 11
98.848749644759565
 21
156.6451201563506
 31
0.0
  0
LINE
  5
8838
  8
AM_0
 10
94.200117040807754
 20
149.7651151563486
 30
0.0
 11
98.740077040807705
 21
149.7651151563486
 31
0.0
  0
LINE
  5
8839
  8
AM_0
 10
94.200117040807754
 20
146.84510115634961
 30
0.0
 11
98.740077040807705
 21
146.84510115634961
 31
0.0
  0
LINE
  5
883A
  8
AM_0
 10
94.070097040807894
 20
139.6251301563496
 30
0.0
 11
98.740077040807705
 21
139.6251301563496
 31
0.0
  0
LINE
  5
883B
  8
AM_0
 10
98.100087040807679
 20
159.92511315634869
 30
0.0
 11
92.740077040807705
 21
171.37509315634881
 31
0.0
  0
LINE
  5
883C
  8
AM_0
 10
92.740077040807705
 20
174.0651031563479
 30
0.0
 11
94.050087040808194
 21
183.4451131563479
 31
0.0
  0
ARC
  5
883D
  8
AM_0
 10
94.410087040807838
 20
158.3251111563487
 30
0.0
 40
1.679999999999999
 50
90.00000299999769
 51
270.0
  0
LINE
  5
883E
  8
AM_0
 10
92.740077040807705
 20
171.37512315634791
 30
0.0
 11
93.980067040807725
 21
177.93513315634891
 31
0.0
  0
LINE
  5
883F
  8
AM_0
 10
85.430097040807709
 20
166.46511315634791
 30
0.0
 11
91.660137040807726
 21
166.46511315634791
 31
0.0
  0
LINE
  5
8840
  8
AM_0
 10
84.74009704080774
 20
176.28012315634791
 30
0.0
 11
92.740077040807705
 21
176.28012315634791
 31
0.0
  0
LINE
  5
8841
  8
AM_0
 10
84.74009704080774
 20
176.2751131563476
 30
0.0
 11
92.740077040807705
 21
176.2751131563476
 31
0.0
  0
LINE
  5
8842
  8
AM_0
 10
92.740077040807705
 20
172.7151331563486
 30
0.0
 11
94.020057040807728
 21
180.72510315634881
 31
0.0
  0
LINE
  5
8843
  8
AM_0
 10
92.740077040807705
 20
174.06513315634999
 30
0.0
 11
94.030137040808313
 21
182.55513315634781
 31
0.0
  0
ARC
  5
8844
  8
AM_0
 10
129.73856704080771
 20
182.25357315634781
 30
0.0
 40
2.0015440500000001
 50
0.0442139990073985
 51
89.955783999999085
  0
LINE
  5
8845
  8
AM_0
 10
131.74007704080771
 20
183.16512315634751
 30
0.0
 11
131.74007704080771
 21
179.56512315634791
 31
0.0
  0
LINE
  5
8846
  8
AM_0
 10
95.990097040807754
 20
182.40510315634791
 30
0.0
 11
129.74009704080771
 21
182.40510315634791
 31
0.0
  0
LINE
  5
8847
  8
AM_0
 10
118.24007704080771
 20
161.50509315634869
 30
0.0
 11
98.062647040807747
 21
160.00512315634961
 31
0.0
  0
ARC
  5
8848
  8
AM_0
 10
299.52108654862241
 20
125.02419797615261
 30
0.0
 40
204.4231110527293
 50
172.39935376233609
 51
173.04804061342651
  0
ARC
  5
8849
  8
AM_0
 10
300.17736868642942
 20
124.9255249821705
 30
0.0
 40
205.086602105558
 50
173.86479656848519
 51
175.2153393800678
  0
ARC
  5
884A
  8
AM_0
 10
299.57160502632041
 20
124.98305356846861
 30
0.0
 40
204.47815098782999
 50
175.2172449765846
 51
175.8945207385139
  0
ARC
  5
884B
  8
AM_0
 10
299.85192342926052
 20
124.97490836378159
 30
0.0
 40
204.75756069728581
 50
171.10266677355949
 51
172.3979273485281
  0
ARC
  5
884C
  8
AM_0
 10
129.73967704080749
 20
180.40470315634761
 30
0.0
 40
2.0004079799999981
 50
0.0116490000072091
 51
89.98834999999788
  0
LINE
  5
884D
  8
AM_0
 10
96.010107040807725
 20
184.25511315634759
 30
0.0
 11
129.74009704080771
 21
184.25511315634759
 31
0.0
  0
LINE
  5
884E
  8
AM_0
 10
96.030117040807696
 20
185.16513315634879
 30
0.0
 11
129.74009704080771
 21
185.16513315634879
 31
0.0
  0
ARC
  5
884F
  8
AM_0
 10
129.7388070408077
 20
183.16383315634999
 30
0.0
 40
2.0012880000000002
 50
0.0368719990021973
 51
89.963125999997985
  0
LINE
  5
8850
  8
AM_0
 10
197.56010704080799
 20
156.6451201563506
 30
0.0
 11
187.74007704080759
 21
156.6451201563506
 31
0.0
  0
LINE
  5
8851
  8
AM_0
 10
198.94010704080759
 20
162.6151231563488
 30
0.0
 11
194.7901470408076
 21
178.0751131563479
 31
0.0
  0
LINE
  5
8852
  8
AM_0
 10
187.74007704080759
 20
153.36282524067869
 30
0.0
 11
190.5101070408077
 21
153.28513515635069
 31
0.0
  0
ARC
  5
8853
  8
AM_0
 10
194.08010704080769
 20
158.2751251563476
 30
0.0
 40
1.000004069999999
 50
270.0
 51
90.00000299999769
  0
ARC
  5
8854
  8
AM_0
 10
192.8572770408077
 20
177.56652315634881
 30
0.0
 40
1.99860411
 50
14.742716000005739
 51
89.919516000001124
  0
ARC
  5
8855
  8
AM_0
 10
197.56010704080799
 20
158.3251111563487
 30
0.0
 40
1.680008099999998
 50
270.0
 51
90.00000299999769
  0
ARC
  5
8856
  8
AM_0
 10
197.56010704080799
 20
158.3251111563487
 30
0.0
 40
1.675004159999999
 50
270.0
 51
90.00000299999769
  0
ARC
  5
8857
  8
AM_0
 10
200.39327704080759
 20
163.00287315634881
 30
0.0
 40
1.502776079999999
 50
194.7564299999988
 51
269.8775900000029
  0
LINE
  5
8858
  8
AM_0
 10
195.28007704080761
 20
176.2751131563476
 30
0.0
 11
200.74010704080769
 21
176.2751131563476
 31
0.0
  0
LINE
  5
8859
  8
AM_0
 10
183.24007704080799
 20
145.7801281563487
 30
0.0
 11
183.24007704080759
 21
100.78012815634951
 31
0.0
  0
LINE
  5
885A
  8
AM_0
 10
181.1400770408076
 20
146.3303806880426
 30
0.0
 11
181.1400770408076
 21
100.22987562465551
 31
0.0
  0
LINE
  5
885B
  8
AM_0
 10
98.240077040807705
 20
105.28012815634951
 30
0.0
 11
98.240077040807705
 21
95.280118156347712
 31
0.0
  0
LINE
  5
885C
  8
AM_0
 10
98.740077040807705
 20
90.780122156348625
 30
0.0
 11
98.740077040807705
 21
155.78011815634761
 31
0.0
  0
LINE
  5
885D
  8
AM_0
 10
170.29032157250219
 20
89.380120156349648
 30
0.0
 11
103.1600570408077
 21
89.380120156349648
 31
0.0
  0
LINE
  5
885E
  8
AM_0
 10
103.1600570408077
 20
89.380120156349648
 30
0.0
 11
103.1600570408077
 21
87.280129156349616
 31
0.0
  0
ARC
  5
885F
  8
AM_0
 10
102.23269704080759
 20
90.772775156349567
 30
0.0
 40
3.492651899999998
 50
179.8793300000022
 51
270.12067999999482
  0
ARC
  5
8860
  8
AM_0
 10
98.732757040807897
 20
95.272778156351706
 30
0.0
 40
0.4927000100000001
 50
179.14455999999711
 51
270.8554400000026
  0
ARC
  5
8861
  8
AM_0
 10
185.24007704080759
 20
100.78012815634951
 30
0.0
 40
2.0
 50
180.0
 51
270.0
  0
LINE
  5
8862
  8
AM_0
 10
180.73002653446861
 20
99.239926130992686
 30
0.0
 11
171.28027106616341
 21
89.790170662687629
 31
0.0
  0
LINE
  5
8863
  8
AM_0
 10
171.28027906616299
 20
89.790178662688504
 30
0.0
 11
180.73002653446909
 21
99.239926130993581
 31
0.0
  0
ARC
  5
8864
  8
AM_0
 10
170.29032157250219
 20
90.780120156348644
 30
0.0
 40
1.399999999999999
 50
270.0
 51
315.00000000000921
1001
GENIUS_GENODEF_13
1002
{
1000
HIER
1070
     0
1002
}
1002
{
1000
MANEDIT
1070
     0
1002
}
1002
{
1000
NOSEL
1070
     0
1002
}
1002
{
1000
BEHIND
1070
     0
1002
}
1002
{
1000
OTHER
1070
     0
1002
}
1002
{
1000
REACTOR
1002
}
1001
GENIUS_GENOBJ-N-FIL_13
1002
{
1000
OWNER
1000
GEN
1002
}
  0
ARC
  5
8865
  8
AM_0
 10
179.74007704080759
 20
100.22987562465551
 30
0.0
 40
1.4000000000006301
 50
314.99999999997232
 51
0.0
  0
ARC
  5
8866
  8
AM_0
 10
185.74007704080771
 20
89.280128156349505
 30
0.0
 40
2.0
 50
270.0
 51
0.0
  0
ARC
  5
8867
  8
AM_0
 10
185.74007704080771
 20
96.780128156348596
 30
0.0
 40
2.0
 50
0.0
 51
90.0
  0
LINE
  5
8868
  8
AM_0
 10
185.74007704080771
 20
98.780128156348596
 30
0.0
 11
185.24007704080759
 21
98.780128156348596
 31
0.0
  0
LINE
  5
8869
  8
AM_0
 10
187.74007704080759
 20
89.280128156349505
 30
0.0
 11
187.74007704080759
 21
96.780128156348596
 31
0.0
  0
LINE
  5
886A
  8
AM_0
 10
103.1600570408077
 20
157.1801081563506
 30
0.0
 11
170.297812860683
 21
157.1801081563506
 31
0.0
  0
ARC
  5
886B
  8
AM_0
 10
98.740627040808008
 20
105.2795781563495
 30
0.0
 40
0.5005480100000002
 50
90.062622000000005
 51
179.9373699999839
  0
ARC
  5
886C
  8
AM_0
 10
98.740627040808008
 20
151.27957815634761
 30
0.0
 40
0.5005480100000002
 50
90.062622000000005
 51
179.9373699999839
  0
ARC
  5
886D
  8
AM_0
 10
98.73256704080768
 20
141.27261815635069
 30
0.0
 40
0.49254802
 50
179.1265600000018
 51
270.87345000000141
  0
LINE
  5
886E
  8
AM_0
 10
98.240077040807705
 20
151.28011815634761
 30
0.0
 11
98.240077040807705
 21
141.2801281563496
 31
0.0
  0
LINE
  5
886F
  8
AM_0
 10
103.1600570408077
 20
157.1801081563506
 30
0.0
 11
103.1600570408077
 21
159.27510815634849
 31
0.0
  0
ARC
  5
8870
  8
AM_0
 10
102.2405670408077
 20
155.7796281563495
 30
0.0
 40
3.5005001999999981
 50
90.008164999996055
 51
179.99183999999781
  0
LINE
  5
8871
  8
AM_0
 10
185.2400770408079
 20
128.78012815634861
 30
0.0
 11
183.24007704080799
 21
128.78012815634861
 31
0.0
  0
LINE
  5
8872
  8
AM_0
 10
183.24007704080799
 20
117.7801281563486
 30
0.0
 11
185.2400770408079
 21
117.7801281563486
 31
0.0
  0
LINE
  5
8873
  8
AM_0
 10
185.2400770408081
 20
117.7801281563486
 30
0.0
 11
185.2400770408079
 21
128.78012815634861
 31
0.0
  0
ARC
  5
8874
  8
AM_0
 10
185.24007704080759
 20
145.7801281563487
 30
0.0
 40
2.0
 50
90.0
 51
180.0
  0
CIRCLE
  5
8875
  8
AM_0
 10
182.24007704080771
 20
154.2801281563496
 30
0.0
 40
3.4999999999999631
  0
LINE
  5
8876
  8
AM_0
 10
171.2802790661639
 20
156.7700776500136
 30
0.0
 11
180.73002653446861
 21
147.32033018170549
 31
0.0
  0
LINE
  5
8877
  8
AM_0
 10
179.1400770408076
 20
148.9102796753636
 30
0.0
 11
180.73002653446861
 21
147.32033018170461
 31
0.0
  0
ARC
  5
8878
  8
AM_0
 10
179.74007704080759
 20
146.3303806880426
 30
0.0
 40
1.400000000000118
 50
0.0
 51
45.000000000027619
  0
ARC
  5
8879
  8
AM_0
 10
170.29032957250161
 20
155.7801281563496
 30
0.0
 40
1.40000000000077
 50
44.999999999972353
 51
89.999999999954383
  0
LINE
  5
887A
  8
AM_0
 10
187.74007704080759
 20
149.7801281563487
 30
0.0
 11
187.74007704080759
 21
157.2801281563496
 31
0.0
  0
LINE
  5
887B
  8
AM_0
 10
187.74007704080759
 20
149.7801281563487
 30
0.0
 11
187.74007704080759
 21
157.2801281563496
 31
0.0
  0
ARC
  5
887C
  8
AM_0
 10
185.74007704080771
 20
149.7801281563487
 30
0.0
 40
2.0
 50
270.0
 51
0.0
  0
LINE
  5
887D
  8
AM_0
 10
185.24007704080759
 20
147.7801281563487
 30
0.0
 11
185.74007704080771
 21
147.7801281563487
 31
0.0
  0
ARC
  5
887E
  8
AM_0
 10
185.74007704080771
 20
157.2801281563496
 30
0.0
 40
2.0
 50
0.0
 51
90.0
  0
LINE
  5
887F
  8
AM_0
 10
179.60150535960071
 20
154.2801281563496
 30
0.0
 11
184.87864872201399
 21
154.2801281563496
 31
0.0
  0
LINE
  5
8880
  8
AM_0
 10
182.24007704080711
 20
156.91869983755541
 30
0.0
 11
182.24007704080711
 21
151.64155647514349
 31
0.0
  0
CIRCLE
  5
8881
  8
AM_0
 10
182.24007704080771
 20
92.280128156348596
 30
0.0
 40
3.4999999999999631
  0
LINE
  5
8882
  8
AM_0
 10
179.60150535960071
 20
92.280128156349505
 30
0.0
 11
184.87864872201399
 21
92.280128156349505
 31
0.0
  0
LINE
  5
8883
  8
AM_0
 10
182.24007704080711
 20
94.918699837556673
 30
0.0
 11
182.24007704080711
 21
89.641556475141655
 31
0.0
  0
LINE
  5
8884
  8
AM_0
 10
194.08010704080769
 20
157.28514915634941
 30
0.0
 11
187.74007704080759
 21
157.28514915634941
 31
0.0
  0
LINE
  5
88BE
  8
AM_0
 10
34.74008704080768
 20
91.610112156350624
 30
0.0
 11
34.74008704080768
 21
157.8100981563486
 31
0.0
  0
LINE
  5
88BF
  8
AM_0
 10
37.240077040807698
 20
99.300117156349643
 30
0.0
 11
37.240077040807698
 21
180.2801431563478
 31
0.0
  0
LINE
  5
88C0
  8
AM_0
 10
84.74009704080774
 20
180.2801431563478
 30
0.0
 11
84.74009704080774
 21
66.280125156349641
 31
0.0
  0
ARC
  5
88C1
  8
AM_0
 10
28.450467040808231
 20
73.979070156349735
 30
0.0
 40
0.30119199
 50
5.9148297999953741
 51
88.175987000000418
  0
ARC
  5
88C2
  8
AM_0
 10
28.451937040807699
 20
73.977774156349582
 30
0.0
 40
0.8023920299999998
 50
5.890834999993567
 51
89.417558000000042
  0
LINE
  5
88C3
  8
AM_0
 10
28.240077040807702
 20
74.780112156348665
 30
0.0
 11
28.240077040807702
 21
74.280126156348615
 31
0.0
  0
LINE
  5
88C4
  8
AM_0
 10
28.240077040807702
 20
74.780112156348665
 30
0.0
 11
28.46012704080772
 21
74.780112156348665
 31
0.0
  0
LINE
  5
88C5
  8
AM_0
 10
43.820097040807681
 20
119.5601251563496
 30
0.0
 11
29.360097040807538
 21
75.050115156349605
 31
0.0
  0
LINE
  5
88C6
  8
AM_0
 10
48.580047040807692
 20
118.02011715635049
 30
0.0
 11
34.120107040807731
 21
73.510122156348643
 31
0.0
  0
LINE
  5
88C7
  8
AM_0
 10
37.240077040807698
 20
79.390113156348662
 30
0.0
 11
84.74009704080774
 21
79.390113156348662
 31
0.0
  0
LINE
  5
88C8
  8
AM_0
 10
36.740097040807768
 20
66.280125156349641
 30
0.0
 11
84.74009704080774
 21
66.280125156349641
 31
0.0
  0
ARC
  5
88C9
  8
AM_0
 10
31.74008704080768
 20
74.280126156348615
 30
0.0
 40
2.5014601500000002
 50
162.0720800000052
 51
342.07206999999772
  0
LINE
  5
88CA
  8
AM_0
 10
34.74008704080768
 20
75.43011915634861
 30
0.0
 11
34.74008704080768
 21
68.280126156348615
 31
0.0
  0
ARC
  5
88CB
  8
AM_0
 10
31.739037040807709
 20
74.278584156348643
 30
0.0
 40
3.001016099999998
 50
185.13260000000409
 51
0.0291460010064174
  0
ARC
  5
88CC
  8
AM_0
 10
36.737817040808288
 20
68.277807156349581
 30
0.0
 40
1.9976960999999991
 50
179.9338299999965
 51
270.06616999999687
  0
ARC
  5
88CD
  8
AM_0
 10
34.788807040807569
 20
85.780035156349626
 30
0.0
 40
4.0507442999999981
 50
99.071790999998854
 51
224.9123400000025
  0
LINE
  5
88CE
  8
AM_0
 10
37.240077040807698
 20
83.120109156349599
 30
0.0
 11
37.240077040807698
 21
66.280125156349641
 31
0.0
  0
LINE
  5
88CF
  8
AM_0
 10
79.74008704080768
 20
79.390113156348662
 30
0.0
 11
79.74008704080768
 21
66.280125156349641
 31
0.0
  0
ARC
  5
88D0
  8
AM_0
 10
67.739607040808195
 20
123.2799151563506
 30
0.0
 40
8.000195699999999
 50
89.996300999997729
 51
161.78902999999599
  0
ARC
  5
88D1
  8
AM_0
 10
67.737657040807676
 20
123.2776861563495
 30
0.0
 40
7.9975721999999978
 50
198.1973499999981
 51
270.0173099999991
  0
LINE
  5
88D2
  8
AM_0
 10
52.390047040807971
 20
125.7800971563497
 30
0.0
 11
62.240097040807989
 21
125.7800971563497
 31
0.0
  0
LINE
  5
88D3
  8
AM_0
 10
52.390047040807971
 20
120.78012915634871
 30
0.0
 11
62.240097040807989
 21
120.78012915634871
 31
0.0
  0
ARC
  5
88D4
  8
AM_0
 10
52.387857040807717
 20
116.7830281563506
 30
0.0
 40
8.9970875999999986
 50
89.985774999998554
 51
162.0211999999965
  0
ARC
  5
88D5
  8
AM_0
 10
52.383327040807679
 20
116.77973115634759
 30
0.0
 40
4.0003919999999971
 50
89.903054999997906
 51
161.93678999999389
  0
LINE
  5
88D6
  8
ﾁｭｳｼﾝｾﾝ
 10
67.740087040808021
 20
113.57013015634941
 30
0.0
 11
67.740087040808021
 21
132.9901261563495
 31
0.0
  0
LINE
  5
88D7
  8
AM_0
 10
67.740087040808021
 20
115.28009715635061
 30
0.0
 11
84.74009704080774
 21
115.28009715635061
 31
0.0
  0
LINE
  5
88D8
  8
AM_0
 10
67.740087040808021
 20
131.2801291563496
 30
0.0
 11
84.74009704080774
 21
131.2801291563496
 31
0.0
  0
ARC
  5
88D9
  8
AM_0
 10
67.740087040808021
 20
123.2781151563497
 30
0.0
 40
4.998440399999998
 50
23.610999000008359
 51
156.3889999999995
  0
ARC
  5
88DA
  8
AM_0
 10
67.740087040808021
 20
123.2781151563497
 30
0.0
 40
4.9968401999999967
 50
203.56897999999919
 51
336.43102000000079
  0
LINE
  5
88DB
  8
AM_0
 10
62.240097040807989
 20
125.28012915634871
 30
0.0
 11
73.24007704080816
 21
125.28012915634871
 31
0.0
  0
LINE
  5
88DC
  8
AM_0
 10
62.240097040807989
 20
121.28009715635061
 30
0.0
 11
73.24007704080816
 21
121.28009715635061
 31
0.0
  0
LINE
  5
88DD
  8
AM_0
 10
62.240097040807989
 20
120.78012915634871
 30
0.0
 11
62.240097040807989
 21
125.7800971563497
 31
0.0
  0
LINE
  5
88DE
  8
AM_0
 10
75.740097040807981
 20
120.78012915634871
 30
0.0
 11
75.740097040807981
 21
125.7800971563497
 31
0.0
  0
LINE
  5
88DF
  8
AM_0
 10
73.24007704080816
 20
120.78012915634871
 30
0.0
 11
73.24007704080816
 21
125.7800971563497
 31
0.0
  0
LINE
  5
88E0
  8
AM_0
 10
73.24007704080816
 20
125.7800971563497
 30
0.0
 11
75.740097040807981
 21
125.7800971563497
 31
0.0
  0
LINE
  5
88E1
  8
AM_0
 10
73.24007704080816
 20
120.78012915634871
 30
0.0
 11
75.740097040807981
 21
120.78012915634871
 31
0.0
  0
LINE
  5
88E2
  8
AM_0
 10
37.240077040807698
 20
167.1701131563488
 30
0.0
 11
84.74009704080774
 21
167.1701131563488
 31
0.0
  0
LINE
  5
88E3
  8
AM_0
 10
37.240077040807698
 20
156.92011215634869
 30
0.0
 11
79.74008704080768
 21
156.92011215634869
 31
0.0
  0
LINE
  5
88E4
  8
AM_0
 10
36.740097040807768
 20
180.2801431563478
 30
0.0
 11
84.74009704080774
 21
180.2801431563478
 31
0.0
  0
LINE
  5
88E5
  8
AM_0
 10
35.94008704080818
 20
157.5701371563494
 30
0.0
 11
35.94008704080818
 21
166.7701231563488
 31
0.0
  0
LINE
  5
88E6
  8
AM_0
 10
32.640117040807688
 20
160.6701031563486
 30
0.0
 11
32.640117040807688
 21
163.6701031563488
 31
0.0
  0
LINE
  5
88E7
  8
AM_0
 10
35.94008704080818
 20
157.5701371563494
 30
0.0
 11
37.240077040807698
 21
157.5701371563494
 31
0.0
  0
ARC
  5
88E8
  8
AM_0
 10
35.63576704080787
 20
160.67028315634951
 30
0.0
 40
2.9956880400000001
 50
180.00364000000391
 51
275.83037000000252
  0
LINE
  5
88E9
  8
AM_0
 10
34.74008704080768
 20
166.54011315634921
 30
0.0
 11
34.74008704080768
 21
178.28010315634879
 31
0.0
  0
LINE
  5
88EA
  8
AM_0
 10
35.94008704080818
 20
166.7701231563488
 30
0.0
 11
37.240077040807698
 21
166.7701231563488
 31
0.0
  0
ARC
  5
88EB
  8
AM_0
 10
35.64176704080807
 20
163.6733131563488
 30
0.0
 40
3.0016479
 50
84.295613000003087
 51
180.06134999999779
  0
ARC
  5
88EC
  8
AM_0
 10
36.739587040807692
 20
178.28061315634881
 30
0.0
 40
1.9994960399999999
 50
89.985542999997904
 51
180.01446000000641
  0
LINE
  5
88ED
  8
AM_0
 10
79.74008704080768
 20
131.2801291563496
 30
0.0
 11
79.74008704080768
 21
180.2801431563478
 31
0.0
  0
LINE
  5
88EF
  8
ﾁｭｳｼﾝｾﾝ
 10
702.28163277544695
 20
123.28012815634951
 30
0.0
 11
947.124271306168
 21
123.28012815634951
 31
0.0
  0
LINE
  5
8BD1
  8
ﾁｭｳｼﾝｾﾝ
 10
23.751237040807379
 20
565.37757005667163
 30
0.0
 11
547.75410704080718
 21
565.37757005667163
 31
0.0
  0
LINE
  5
8BD2
  8
AM_0
 10
208.74003704080741
 20
533.43763005667165
 30
0.0
 11
244.83244704080749
 21
533.43763005667165
 31
0.0
  0
LINE
  5
8BD3
  8
AM_0
 10
208.74003704080741
 20
597.31751005667195
 30
0.0
 11
244.83244704080749
 21
597.31751005667195
 31
0.0
  0
LINE
  5
8BD4
  8
AM_0
 10
261.17137704080761
 20
507.0465800566717
 30
0.0
 11
208.7400970408072
 21
508.87751005667189
 31
0.0
  0
LINE
  5
8BD5
  8
AM_0
 10
208.7400970408072
 20
621.87757005667163
 30
0.0
 11
261.1714370408074
 21
623.7085100566718
 31
0.0
  0
LINE
  5
8BD6
  8
AM_0
 10
208.74003704080741
 20
519.37757005667163
 30
0.0
 11
250.08281704080741
 21
519.37757005667163
 31
0.0
  0
LINE
  5
8BD7
  8
AM_0
 10
208.74003704080741
 20
611.37757005667163
 30
0.0
 11
250.08281704080741
 21
611.37757005667163
 31
0.0
  0
LINE
  5
8BE5
  8
AM_0
 10
208.74003704080741
 20
508.8775700566718
 30
0.0
 11
208.74003704080741
 21
621.87757005667163
 31
0.0
  0
POLYLINE
  5
8DB5
  8
AM_0
 66
     1
 10
0.0
 20
0.0
 30
0.0
  0
VERTEX
  5
8DB6
  8
AM_0
 10
235.7096570408076
 20
552.37785005667172
 30
0.0
  0
VERTEX
  5
8DB7
  8
AM_0
 10
243.13690704080739
 20
533.43845005667185
 30
0.0
 42
-1.0
  0
SEQEND
  5
8DB8
  8
AM_0
  0
ARC
  5
8DB9
  8
AM_0
 10
266.04277704080761
 20
549.37757005667163
 30
0.0
 40
3.0
 50
0.0
 51
90.00000299999769
  0
LINE
  5
8DBA
  8
AM_0
 10
272.74003704080741
 20
496.08949005667182
 30
0.0
 11
272.74003704080741
 21
634.66554005667194
 31
0.0
  0
LINE
  5
8DBC
  8
AM_0
 10
282.74003704080741
 20
491.87751005667172
 30
0.0
 11
282.74003704080741
 21
638.87757005667163
 31
0.0
  0
LINE
  5
8DBD
  8
AM_0
 10
359.24016704080742
 20
515.81300005667185
 30
0.0
 11
359.24016704080742
 21
614.94209005667165
 31
0.0
  0
LINE
  5
8DBE
  8
AM_0
 10
434.24016704080731
 20
474.3775700566718
 30
0.0
 11
434.24016704080731
 21
656.37757005667163
 31
0.0
  0
LINE
  5
8DBF
  8
AM_0
 10
462.24016704080731
 20
605.13490005667165
 30
0.0
 11
462.24016704080731
 21
531.62019005667207
 31
0.0
  0
LINE
  5
8DC0
  8
AM_0
 10
344.24016704080742
 20
425.63954005667171
 30
0.0
 11
344.24016704080742
 21
561.37751005667167
 31
0.0
  0
LINE
  5
8DC1
  8
AM_0
 10
456.24016704080731
 20
651.25813005667192
 30
0.0
 11
456.24016704080731
 21
479.49696005667181
 31
0.0
  0
LINE
  5
8DC2
  8
AM_0
 10
536.24013704080733
 20
544.37757005667163
 30
0.0
 11
536.24013704080733
 21
586.37757005667163
 31
0.0
  0
LINE
  5
8DC3
  8
AM_0
 10
466.24016704080719
 20
542.87757005667163
 30
0.0
 11
466.24016704080719
 21
587.87757005667163
 31
0.0
  0
LINE
  5
8DC4
  8
AM_0
 10
331.24003704080718
 20
429.16773005667193
 30
0.0
 11
331.24003704080718
 21
555.8381400566717
 31
0.0
  0
LINE
  5
8DC5
  8
AM_0
 10
317.24016704080742
 20
451.26954005667187
 30
0.0
 11
317.24016704080742
 21
561.37751005667167
 31
0.0
  0
POLYLINE
  5
8DC6
  8
AM_0
 66
     1
 10
0.0
 20
0.0
 30
0.0
  0
VERTEX
  5
8DC7
  8
AM_0
 10
364.1698570408077
 20
485.6460200566716
 30
0.0
 42
0.11075717
  0
VERTEX
  5
8DC8
  8
AM_0
 10
377.05079704080742
 20
495.55380005667172
 30
0.0
 42
0.20375769
  0
VERTEX
  5
8DC9
  8
AM_0
 10
379.30852704080718
 20
503.21927005667192
 30
0.0
  0
VERTEX
  5
8DCA
  8
AM_0
 10
364.53872704080737
 20
522.13442005667173
 30
0.0
 42
-1.0
  0
SEQEND
  5
8DCB
  8
AM_0
  0
LINE
  5
8DCC
  8
AM_0
 10
361.17039704080759
 20
442.81806005667192
 30
0.0
 11
385.77336704080773
 21
443.67726005667191
 31
0.0
  0
LINE
  5
8DCD
  8
AM_0
 10
372.05656704080741
 20
429.21412005667179
 30
0.0
 11
381.42375704080752
 21
439.09089005667192
 31
0.0
  0
LINE
  5
8DCE
  8
AM_0
 10
349.2400970408072
 20
425.37751005667172
 30
0.0
 11
458.37968704080743
 21
429.18879005667168
 31
0.0
  0
CIRCLE
  5
8DCF
  8
AM_0
 10
291.24016704080742
 20
450.3775700566718
 30
0.0
 40
9.5
  0
LINE
  5
8DD0
  8
AM_0
 10
282.74009704080709
 20
491.87751005667172
 30
0.0
 11
312.41466704080761
 21
490.8412600566719
 31
0.0
  0
LINE
  5
8DD1
  8
AM_0
 10
282.74016704080742
 20
525.90284005667195
 30
0.0
 11
317.24016704080742
 21
525.90284005667195
 31
0.0
  0
LINE
  5
8DD2
  8
AM_0
 10
282.74016704080742
 20
503.79890005667158
 30
0.0
 11
317.24016704080742
 21
503.79890005667158
 31
0.0
  0
LINE
  5
8DD4
  8
AM_0
 10
274.03074704080763
 20
429.31910005667191
 30
0.0
 11
349.2400970408072
 21
425.3775700566718
 31
0.0
  0
LINE
  5
8DD5
  8
AM_0
 10
273.89152704080749
 20
473.78541005667182
 30
0.0
 11
317.24016704080742
 21
477.57789005667172
 31
0.0
  0
LINE
  5
8DD7
  8
AM_0
 10
270.24016704080742
 20
433.31361005667168
 30
0.0
 11
270.24016704080742
 21
469.8006100566717
 31
0.0
  0
ARC
  5
8DD8
  8
AM_0
 10
274.24016704080742
 20
433.31361005667168
 30
0.0
 40
4.0
 50
180.00001000000091
 51
266.9999900000002
  0
ARC
  5
8DD9
  8
AM_0
 10
274.24016704080742
 20
469.8006100566717
 30
0.0
 40
4.0
 50
95.00000199999856
 51
180.00001000000091
  0
POLYLINE
  5
8DDA
  8
AM_0
 66
     1
 10
0.0
 20
0.0
 30
0.0
  0
VERTEX
  5
8DDB
  8
AM_0
 10
251.85983704080741
 20
519.95948005667185
 30
0.0
 42
0.011693535
  0
VERTEX
  5
8DDC
  8
AM_0
 10
255.42272704080759
 20
515.46312005667176
 30
0.0
 42
0.011216789
  0
VERTEX
  5
8DDD
  8
AM_0
 10
259.18759704080742
 20
511.13435005667191
 30
0.0
 42
0.011000239
  0
VERTEX
  5
8DDE
  8
AM_0
 10
263.13969704080739
 20
506.97791005667182
 30
0.0
  0
SEQEND
  5
8DDF
  8
AM_0
  0
ARC
  5
8DE0
  8
AM_0
 10
244.83244704080749
 20
530.43763005667211
 30
0.0
 40
3.0
 50
30.468076999999091
 51
90.00000299999769
  0
POLYLINE
  5
8DE1
  8
AM_0
 66
     1
 10
0.0
 20
0.0
 30
0.0
  0
VERTEX
  5
8DE2
  8
AM_0
 10
247.4181170408074
 20
531.95882005667193
 30
0.0
 42
0.0058779451
  0
VERTEX
  5
8DE3
  8
AM_0
 10
248.6277370408076
 20
529.95724005667194
 30
0.0
 42
0.0056588807
  0
VERTEX
  5
8DE4
  8
AM_0
 10
249.88321704080741
 20
527.98409005667179
 30
0.0
 42
0.0054619285
  0
VERTEX
  5
8DE5
  8
AM_0
 10
251.1822470408074
 20
526.03934005667168
 30
0.0
 42
0.0052861386
  0
VERTEX
  5
8DE6
  8
AM_0
 10
252.5227770408076
 20
524.12294005667195
 30
0.0
  0
SEQEND
  5
8DE7
  8
AM_0
  0
ARC
  5
8DE8
  8
AM_0
 10
250.08281704080741
 20
522.37757005667163
 30
0.0
 40
3.0
 50
269.999989999999
 51
35.575751000001212
  0
LINE
  5
8DE9
  8
AM_0
 10
276.60045704080761
 20
492.09199005667159
 30
0.0
 11
282.74009704080709
 21
491.8775700566718
 31
0.0
  0
LINE
  5
8DEA
  8
AM_0
 10
272.74003704080741
 20
503.79890005667158
 30
0.0
 11
282.74003704080741
 21
503.79890005667158
 31
0.0
  0
LINE
  5
8DEB
  8
AM_0
 10
271.31309704080741
 20
498.80451005667169
 30
0.0
 11
264.53245704080763
 21
505.58515005667181
 31
0.0
  0
ARC
  5
8DEC
  8
AM_0
 10
267.77751704080742
 20
495.2689900566719
 30
0.0
 40
5.0
 50
5.2307202000000732
 51
44.999998000001611
  0
ARC
  5
8DED
  8
AM_0
 10
276.74003704080741
 20
496.08949005667182
 30
0.0
 40
4.0
 50
180.00001000000091
 51
267.99999999999631
  0
ARC
  5
8DEE
  8
AM_0
 10
260.99687704080759
 20
502.04969005667192
 30
0.0
 40
5.0
 50
44.999998000001611
 51
87.999999999996248
  0
LINE
  5
8DEF
  8
AM_0
 10
272.74003704080741
 20
525.90284005667195
 30
0.0
 11
282.74003704080741
 21
525.90284005667195
 31
0.0
  0
LINE
  5
8DF0
  8
AM_0
 10
359.24016704080742
 20
438.70240005667182
 30
0.0
 11
359.24016704080742
 21
485.81178005667169
 31
0.0
  0
LINE
  5
8DF1
  8
AM_0
 10
333.1703370408074
 20
436.6338000566717
 30
0.0
 11
344.24016704080742
 21
436.24720005667172
 31
0.0
  0
ARC
  5
8DF2
  8
AM_0
 10
320.24016704080742
 20
451.25294005667189
 30
0.0
 40
3.0
 50
179.99998999999889
 51
260.00000000000131
  0
ARC
  5
8DF3
  8
AM_0
 10
323.24016704080742
 20
439.66761005667178
 30
0.0
 40
5.0
 50
180.00001000000091
 51
277.13983000000007
  0
ARC
  5
8DF4
  8
AM_0
 10
333.24016704080742
 20
438.63258005667183
 30
0.0
 40
2.0
 50
179.99998999999889
 51
268.00000999999861
  0
LINE
  5
8DF5
  8
AM_0
 10
331.24009704080748
 20
435.63056005667192
 30
0.0
 11
323.86155704080738
 21
434.70631005667173
 31
0.0
  0
LINE
  5
8DF6
  8
AM_0
 10
318.24016704080742
 20
427.98231005667179
 30
0.0
 11
318.24016704080742
 21
435.8310600566719
 31
0.0
  0
ARC
  5
8DF7
  8
AM_0
 10
334.24003704080729
 20
429.16773005667193
 30
0.0
 40
3.0
 50
180.00001000000091
 51
266.9999900000002
  0
LINE
  5
8DF8
  8
AM_0
 10
319.71916704080752
 20
448.29853005667189
 30
0.0
 11
328.76109704080739
 21
446.70417005667161
 31
0.0
  0
ARC
  5
8DF9
  8
AM_0
 10
328.24016704080742
 20
443.74983005667178
 30
0.0
 40
3.0
 50
0.0
 51
79.999998000001099
  0
LINE
  5
8DFA
  8
AM_0
 10
344.24009704080743
 20
436.24720005667172
 30
0.0
 11
357.30998704080741
 21
436.70362005667158
 31
0.0
  0
ARC
  5
8DFB
  8
AM_0
 10
357.24016704080742
 20
438.70240005667182
 30
0.0
 40
2.0
 50
272.00000000000369
 51
0.0
  0
LINE
  5
8DFC
  8
AM_0
 10
363.74016704080742
 20
429.14039005667172
 30
0.0
 11
363.74016704080742
 21
441.1727400566719
 31
0.0
  0
ARC
  5
8DFD
  8
AM_0
 10
364.80082704080729
 20
436.09553005667192
 30
0.0
 40
10.0
 50
272.00000000000369
 51
316.51703999999847
  0
ARC
  5
8DFE
  8
AM_0
 10
361.24016704080742
 20
440.81935005667191
 30
0.0
 40
2.0
 50
91.999998000000545
 51
180.00001000000091
  0
ARC
  5
8DFF
  8
AM_0
 10
363.26823704080732
 20
487.43128005667199
 30
0.0
 40
2.0
 50
270.0
 51
296.80019999999712
  0
LINE
  5
8E00
  8
AM_0
 10
331.24003704080718
 20
513.81300005667185
 30
0.0
 11
357.24016704080742
 21
513.81300005667185
 31
0.0
  0
LINE
  5
8E01
  8
AM_0
 10
331.24003704080718
 20
487.81178005667192
 30
0.0
 11
357.24016704080742
 21
487.81178005667192
 31
0.0
  0
ARC
  5
8E02
  8
AM_0
 10
312.24016704080742
 20
485.84431005667187
 30
0.0
 40
5.0
 50
0.0
 51
87.999999999996248
  0
LINE
  5
8E03
  8
AM_0
 10
363.74016704080742
 20
487.81178005667192
 30
0.0
 11
363.74016704080742
 21
513.81300005667185
 31
0.0
  0
ARC
  5
8E04
  8
AM_0
 10
357.24016704080742
 20
485.81178005667169
 30
0.0
 40
2.0
 50
0.0
 51
90.00000299999769
  0
ARC
  5
8E05
  8
AM_0
 10
357.24016704080742
 20
515.81300005667185
 30
0.0
 40
2.0
 50
270.0
 51
0.0
  0
ARC
  5
8E06
  8
AM_0
 10
362.78972704080741
 20
519.69697005667194
 30
0.0
 40
3.0
 50
54.348324000004709
 51
90.00000299999769
  0
ARC
  5
8E07
  8
AM_0
 10
459.24016704080731
 20
479.49696005667181
 30
0.0
 40
3.0
 50
180.00001000000091
 51
261.78677999999701
  0
LINE
  5
8E09
  8
AM_0
 10
457.11894704080731
 20
525.25624005667191
 30
0.0
 11
461.36155704080733
 21
529.49885005667193
 31
0.0
  0
ARC
  5
8E0A
  8
AM_0
 10
424.24016704080742
 20
456.3775700566718
 30
0.0
 40
10.0
 50
90.00000299999769
 51
180.00001000000091
  0
ARC
  5
8E0B
  8
AM_0
 10
419.24016704080731
 20
432.82508005667188
 30
0.0
 40
5.0
 50
180.00001000000091
 51
271.99999000000139
  0
LINE
  5
8E0C
  8
AM_0
 10
414.24016704080731
 20
456.3775700566718
 30
0.0
 11
414.24016704080731
 21
450.8337500566717
 31
0.0
  0
LINE
  5
8E0D
  8
AM_0
 10
388.33049704080742
 20
442.20344005667158
 30
0.0
 11
406.51933704080722
 21
442.83863005667178
 31
0.0
  0
ARC
  5
8E0E
  8
AM_0
 10
388.67949704080729
 20
432.20948005667191
 30
0.0
 40
10.0
 50
91.999998000000545
 51
136.5170399999985
  0
LINE
  5
8E0F
  8
AM_0
 10
414.24016704080731
 20
432.82508005667188
 30
0.0
 11
414.24016704080731
 21
450.8337500566717
 31
0.0
  0
ARC
  5
8E10
  8
AM_0
 10
406.24016704080731
 20
450.8337500566717
 30
0.0
 40
8.0
 50
272.00000000000369
 51
0.0
  0
CIRCLE
  5
8E11
  8
AM_0
 10
441.24016704080719
 20
450.3775700566718
 30
0.0
 40
9.5
  0
ARC
  5
8E13
  8
AM_0
 10
441.84428704080761
 20
470.84071005667192
 30
0.0
 40
8.0
 50
91.999998000000545
 51
167.22924999999881
  0
ARC
  5
8E14
  8
AM_0
 10
426.24016704080731
 20
474.3775700566718
 30
0.0
 40
8.0
 50
270.0
 51
0.0
  0
LINE
  5
8E15
  8
AM_0
 10
424.24016704080742
 20
466.3775700566718
 30
0.0
 11
426.24016704080731
 21
466.3775700566718
 31
0.0
  0
LINE
  5
8E16
  8
AM_0
 10
441.56517704080761
 20
478.83589005667187
 30
0.0
 11
451.41459704080728
 21
479.17982005667187
 31
0.0
  0
ARC
  5
8E17
  8
AM_0
 10
451.24016704080731
 20
484.1767700566719
 30
0.0
 40
5.0
 50
272.00000000000369
 51
0.0
  0
ARC
  5
8E18
  8
AM_0
 10
459.24016704080731
 20
523.13490005667165
 30
0.0
 40
3.0
 50
135.0
 51
180.00001000000091
  0
ARC
  5
8E19
  8
AM_0
 10
459.24016704080731
 20
523.13490005667165
 30
0.0
 40
3.0
 50
135.0
 51
180.00001000000091
  0
LINE
  5
8E1A
  8
AM_0
 10
462.24016704080731
 20
433.18635005667181
 30
0.0
 11
462.24016704080731
 21
472.56874005667191
 31
0.0
  0
ARC
  5
8E1B
  8
AM_0
 10
458.24016704080731
 20
433.18635005667181
 30
0.0
 40
4.0
 50
272.00000000000369
 51
0.0
  0
ARC
  5
8E1C
  8
AM_0
 10
458.24016704080731
 20
472.56874005667191
 30
0.0
 40
4.0
 50
0.0
 51
81.786789000000198
  0
LINE
  5
8E1D
  8
AM_0
 10
466.24016704080719
 20
544.37757005667163
 30
0.0
 11
536.24013704080733
 21
544.37757005667163
 31
0.0
  0
ARC
  5
8E1E
  8
AM_0
 10
459.24016704080731
 20
531.62019005667207
 30
0.0
 40
3.0
 50
315.0
 51
0.0
  0
ARC
  5
8E1F
  8
AM_0
 10
459.24016704080731
 20
531.62019005667207
 30
0.0
 40
3.0
 50
315.0
 51
0.0
  0
LINE
  5
8E20
  8
AM_0
 10
462.24016704080731
 20
542.87757005667163
 30
0.0
 11
466.24016704080719
 21
542.87757005667163
 31
0.0
  0
POLYLINE
  5
8E21
  8
AM_0
 66
     1
 10
0.0
 20
0.0
 30
0.0
  0
VERTEX
  5
8E22
  8
AM_0
 10
364.1698570408077
 20
645.10900005667168
 30
0.0
 42
-0.11075703
  0
VERTEX
  5
8E23
  8
AM_0
 10
377.05082704080718
 20
635.20129005667195
 30
0.0
 42
-0.20375918
  0
VERTEX
  5
8E24
  8
AM_0
 10
379.30852704080718
 20
627.53581005667195
 30
0.0
  0
VERTEX
  5
8E25
  8
AM_0
 10
364.53872704080737
 20
608.62067005667177
 30
0.0
 42
-1.0
  0
SEQEND
  5
8E26
  8
AM_0
  0
LINE
  5
8E27
  8
AM_0
 10
361.17033704080751
 20
687.93702005667205
 30
0.0
 11
385.77342704080729
 21
687.07783005667193
 31
0.0
  0
LINE
  5
8E28
  8
AM_0
 10
372.05662704080783
 20
701.5409000566716
 30
0.0
 11
381.42369704080772
 21
691.66419005667206
 31
0.0
  0
LINE
  5
8E29
  8
AM_0
 10
349.24016704080742
 20
705.37751005667189
 30
0.0
 11
458.37974704080727
 21
701.56629005667185
 31
0.0
  0
CIRCLE
  5
8E2A
  8
AM_0
 10
291.24016704080742
 20
680.37757005667163
 30
0.0
 40
9.5
  0
ARC
  5
8E2B
  8
AM_0
 10
320.24016704080742
 20
679.50208005667184
 30
0.0
 40
3.0
 50
99.999999999998593
 51
180.00001000000091
  0
LINE
  5
8E2C
  8
AM_0
 10
331.24003704080718
 20
574.91694005667193
 30
0.0
 11
331.24003704080718
 21
701.58729005667192
 31
0.0
  0
LINE
  5
8E2D
  8
AM_0
 10
344.24016704080742
 20
569.37751005667155
 30
0.0
 11
344.24016704080742
 21
705.11549005667155
 31
0.0
  0
LINE
  5
8E2E
  8
AM_0
 10
359.24016704080742
 20
692.05268005667165
 30
0.0
 11
359.24016704080742
 21
644.94331005667175
 31
0.0
  0
LINE
  5
8E30
  8
AM_0
 10
270.24016704080742
 20
697.44148005667205
 30
0.0
 11
270.24016704080742
 21
660.95448005667163
 31
0.0
  0
LINE
  5
8E31
  8
AM_0
 10
273.89146704080741
 20
656.9696800566719
 30
0.0
 11
317.24009704080709
 21
653.1771300566719
 31
0.0
  0
LINE
  5
8E32
  8
AM_0
 10
282.74016704080742
 20
638.87757005667163
 30
0.0
 11
312.41459704080739
 21
639.91383005667194
 31
0.0
  0
LINE
  5
8E33
  8
AM_0
 10
282.74016704080742
 20
604.85218005667195
 30
0.0
 11
317.24016704080742
 21
604.85218005667195
 31
0.0
  0
LINE
  5
8E34
  8
AM_0
 10
282.74016704080742
 20
626.95619005667163
 30
0.0
 11
317.24016704080742
 21
626.95619005667163
 31
0.0
  0
POLYLINE
  5
8E35
  8
AM_0
 66
     1
 10
0.0
 20
0.0
 30
0.0
  0
VERTEX
  5
8E36
  8
AM_0
 10
251.85983704080741
 20
610.79566005667175
 30
0.0
 42
-0.011693535
  0
VERTEX
  5
8E37
  8
AM_0
 10
255.42272704080759
 20
615.29203005667193
 30
0.0
 42
-0.011216789
  0
VERTEX
  5
8E38
  8
AM_0
 10
259.18759704080742
 20
619.62079005667192
 30
0.0
 42
-0.011000239
  0
VERTEX
  5
8E39
  8
AM_0
 10
263.13969704080739
 20
623.77723005667167
 30
0.0
  0
SEQEND
  5
8E3A
  8
AM_0
  0
LINE
  5
8E3B
  8
AM_0
 10
234.74003704080729
 20
552.37757005667163
 30
0.0
 11
266.04277704080761
 21
552.37757005667163
 31
0.0
  0
LINE
  5
8E3C
  8
AM_0
 10
234.74003704080729
 20
578.37757005667163
 30
0.0
 11
266.04277704080761
 21
578.37757005667163
 31
0.0
  0
POLYLINE
  5
8E3D
  8
AM_0
 66
     1
 10
0.0
 20
0.0
 30
0.0
  0
VERTEX
  5
8E3E
  8
AM_0
 10
235.7096570408076
 20
578.37730005667186
 30
0.0
  0
VERTEX
  5
8E3F
  8
AM_0
 10
243.13690704080739
 20
597.31670005667161
 30
0.0
 42
-1.0
  0
SEQEND
  5
8E40
  8
AM_0
  0
LINE
  5
8E41
  8
AM_0
 10
231.74003704080741
 20
555.37757005667163
 30
0.0
 11
231.74003704080741
 21
575.37757005667163
 31
0.0
  0
ARC
  5
8E42
  8
AM_0
 10
234.74003704080729
 20
555.37757005667163
 30
0.0
 40
3.0
 50
180.00001000000091
 51
270.0
  0
ARC
  5
8E43
  8
AM_0
 10
234.74003704080729
 20
575.37757005667163
 30
0.0
 40
3.0
 50
90.00000299999769
 51
180.00001000000091
  0
POLYLINE
  5
8E44
  8
AM_0
 66
     1
 10
0.0
 20
0.0
 30
0.0
  0
VERTEX
  5
8E45
  8
AM_0
 10
247.4181170408074
 20
598.7963300566721
 30
0.0
 42
-0.0058779451
  0
VERTEX
  5
8E46
  8
AM_0
 10
248.6277370408076
 20
600.79791005667175
 30
0.0
 42
-0.0056588807
  0
VERTEX
  5
8E47
  8
AM_0
 10
249.88321704080741
 20
602.77106005667179
 30
0.0
 42
-0.0054619285
  0
VERTEX
  5
8E48
  8
AM_0
 10
251.1822470408074
 20
604.71581005667178
 30
0.0
 42
-0.0052861386
  0
VERTEX
  5
8E49
  8
AM_0
 10
252.5227770408076
 20
606.63221005667185
 30
0.0
  0
SEQEND
  5
8E4A
  8
AM_0
  0
ARC
  5
8E4B
  8
AM_0
 10
244.83244704080749
 20
600.31751005667195
 30
0.0
 40
3.0
 50
269.999989999999
 51
329.53192000000132
  0
ARC
  5
8E4C
  8
AM_0
 10
250.08281704080741
 20
608.37757005667163
 30
0.0
 40
3.0
 50
324.42424000000028
 51
90.00000299999769
  0
LINE
  5
8E4D
  8
AM_0
 10
269.04277704080761
 20
554.6090800566717
 30
0.0
 11
269.04277704080761
 21
576.6096300566719
 31
0.0
  0
ARC
  5
8E4E
  8
AM_0
 10
266.04277704080761
 20
581.37757005667163
 30
0.0
 40
3.0
 50
269.999989999999
 51
0.0000006832429909
  0
LINE
  5
8E4F
  8
AM_0
 10
272.74003704080741
 20
604.85218005667195
 30
0.0
 11
282.74003704080741
 21
604.85218005667195
 31
0.0
  0
LINE
  5
8E50
  8
AM_0
 10
276.6005170408074
 20
638.66310005667151
 30
0.0
 11
282.74009704080709
 21
638.87751005667189
 31
0.0
  0
LINE
  5
8E51
  8
AM_0
 10
272.74003704080741
 20
626.95619005667163
 30
0.0
 11
282.74003704080741
 21
626.95619005667163
 31
0.0
  0
LINE
  5
8E52
  8
AM_0
 10
264.53245704080763
 20
625.16993005667211
 30
0.0
 11
271.31309704080741
 21
631.95057005667161
 31
0.0
  0
ARC
  5
8E53
  8
AM_0
 10
260.99687704080759
 20
628.70545005667191
 30
0.0
 40
5.0
 50
272.00000000000369
 51
315.0
  0
ARC
  5
8E54
  8
AM_0
 10
267.77751704080742
 20
635.48609005667163
 30
0.0
 40
5.0
 50
315.0
 51
354.76905999999741
  0
ARC
  5
8E55
  8
AM_0
 10
276.74003704080741
 20
634.66554005667194
 30
0.0
 40
4.0
 50
91.999998000000545
 51
180.00001000000091
  0
ARC
  5
8E56
  8
AM_0
 10
274.24016704080742
 20
660.95448005667163
 30
0.0
 40
4.0
 50
180.00001000000091
 51
265.00001000000032
  0
ARC
  5
8E57
  8
AM_0
 10
357.24016704080742
 20
614.94209005667165
 30
0.0
 40
2.0
 50
0.0
 51
90.00000299999769
  0
LINE
  5
8E58
  8
AM_0
 10
317.24016704080742
 20
569.37751005667155
 30
0.0
 11
317.24016704080742
 21
679.51869005667163
 31
0.0
  0
ARC
  5
8E59
  8
AM_0
 10
328.24016704080742
 20
565.37757005667163
 30
0.0
 40
10.0
 50
203.5782699999985
 51
336.4217200000013
  0
ARC
  5
8E5A
  8
AM_0
 10
328.24016704080742
 20
565.37757005667163
 30
0.0
 40
10.0
 50
23.57803699999776
 51
156.42196000000081
  0
LINE
  5
8E5B
  8
AM_0
 10
311.74016704080742
 20
569.37751005667155
 30
0.0
 11
344.74016704080742
 21
569.37751005667155
 31
0.0
  0
LINE
  5
8E5C
  8
AM_0
 10
311.74016704080742
 20
561.37751005667167
 30
0.0
 11
344.74016704080742
 21
561.37751005667167
 31
0.0
  0
ARC
  5
8E5D
  8
AM_0
 10
311.74016704080742
 20
565.37751005667155
 30
0.0
 40
3.9999962
 50
90.00000299999769
 51
270.0
  0
ARC
  5
8E5E
  8
AM_0
 10
344.74016704080742
 20
565.37751005667155
 30
0.0
 40
3.9999962
 50
270.0
 51
90.00000299999769
  0
ARC
  5
8E5F
  8
AM_0
 10
362.78972704080741
 20
611.0581200566719
 30
0.0
 40
3.0
 50
270.0
 51
305.65166999999718
  0
LINE
  5
8E60
  8
AM_0
 10
331.24003704080718
 20
642.94331005667175
 30
0.0
 11
357.24016704080742
 21
642.94331005667175
 31
0.0
  0
LINE
  5
8E61
  8
AM_0
 10
331.24003704080718
 20
616.94209005667165
 30
0.0
 11
357.24016704080742
 21
616.94209005667165
 31
0.0
  0
ARC
  5
8E62
  8
AM_0
 10
312.24016704080742
 20
644.91078005667191
 30
0.0
 40
5.0
 50
272.00000000000369
 51
0.0
  0
LINE
  5
8E63
  8
AM_0
 10
363.74016704080742
 20
642.94331005667175
 30
0.0
 11
363.74016704080742
 21
616.94209005667165
 31
0.0
  0
ARC
  5
8E64
  8
AM_0
 10
357.24016704080742
 20
644.94331005667175
 30
0.0
 40
2.0
 50
270.0
 51
0.0
  0
ARC
  5
8E65
  8
AM_0
 10
363.26823704080732
 20
643.32374005667191
 30
0.0
 40
2.0
 50
63.199809000002318
 51
90.00000299999769
  0
LINE
  5
8E67
  8
AM_0
 10
274.03074704080763
 20
701.43598005667207
 30
0.0
 11
349.2400970408072
 21
705.37757005667163
 31
0.0
  0
ARC
  5
8E68
  8
AM_0
 10
274.24016704080742
 20
697.44148005667205
 30
0.0
 40
4.0
 50
92.999999000001679
 51
180.00001000000091
  0
LINE
  5
8E69
  8
AM_0
 10
333.17039704080742
 20
694.12135005667176
 30
0.0
 11
344.24016704080742
 21
694.5079400566716
 31
0.0
  0
ARC
  5
8E6A
  8
AM_0
 10
323.24016704080742
 20
691.08753005667211
 30
0.0
 40
5.0
 50
82.860167000000104
 51
180.00001000000091
  0
LINE
  5
8E6B
  8
AM_0
 10
318.24016704080742
 20
702.77278005667165
 30
0.0
 11
318.24016704080742
 21
694.92402005667191
 31
0.0
  0
LINE
  5
8E6C
  8
AM_0
 10
331.24009704080748
 20
695.1245200566716
 30
0.0
 11
323.86155704080738
 21
696.04878005667206
 31
0.0
  0
LINE
  5
8E6D
  8
AM_0
 10
319.7192270408076
 20
682.45655005667163
 30
0.0
 11
328.76109704080739
 21
684.05091005667191
 31
0.0
  0
ARC
  5
8E6E
  8
AM_0
 10
328.24016704080742
 20
687.00526005667189
 30
0.0
 40
3.0
 50
280.00001000000128
 51
0.0
  0
ARC
  5
8E6F
  8
AM_0
 10
333.24016704080742
 20
692.1225100566719
 30
0.0
 40
2.0
 50
91.999998000000545
 51
180.00001000000091
  0
ARC
  5
8E70
  8
AM_0
 10
334.24003704080729
 20
701.58729005667192
 30
0.0
 40
3.0
 50
92.999999000001679
 51
180.00001000000091
  0
LINE
  5
8E71
  8
AM_0
 10
344.24009704080743
 20
694.50788005667175
 30
0.0
 11
357.30998704080741
 21
694.05146005667154
 31
0.0
  0
LINE
  5
8E72
  8
AM_0
 10
363.74016704080742
 20
689.65742005667175
 30
0.0
 11
363.74016704080742
 21
701.61085005667167
 31
0.0
  0
ARC
  5
8E73
  8
AM_0
 10
361.24016704080742
 20
689.93574005667165
 30
0.0
 40
2.0
 50
180.00001000000091
 51
267.99999999999631
  0
ARC
  5
8E74
  8
AM_0
 10
357.24016704080742
 20
692.05268005667165
 30
0.0
 40
2.0
 50
0.0
 51
87.999999999996248
  0
ARC
  5
8E75
  8
AM_0
 10
364.80082704080729
 20
694.65956005667203
 30
0.0
 40
10.0
 50
43.482964999999631
 51
87.999999999996248
  0
CIRCLE
  5
8E76
  8
AM_0
 10
441.24016704080719
 20
680.37757005667163
 30
0.0
 40
9.5
  0
LINE
  5
8E77
  8
AM_0
 10
414.24016704080731
 20
674.37757005667163
 30
0.0
 11
414.24016704080731
 21
679.92140005667193
 31
0.0
  0
LINE
  5
8E79
  8
AM_0
 10
462.24016704080731
 20
697.56874005667191
 30
0.0
 11
462.24016704080731
 21
658.18635005667181
 31
0.0
  0
ARC
  5
8E7A
  8
AM_0
 10
459.24016704080731
 20
651.25813005667192
 30
0.0
 40
3.0
 50
98.213209000002095
 51
180.00001000000091
  0
LINE
  5
8E7B
  8
AM_0
 10
457.11888704080729
 20
611.49885005667193
 30
0.0
 11
461.36155704080733
 21
607.25617005667175
 31
0.0
  0
ARC
  5
8E7C
  8
AM_0
 10
459.24016704080731
 20
613.62019005667185
 30
0.0
 40
3.0
 50
180.00001000000091
 51
225.0
  0
ARC
  5
8E7D
  8
AM_0
 10
459.24016704080731
 20
613.62019005667185
 30
0.0
 40
3.0
 50
179.99998999999889
 51
225.0
  0
ARC
  5
8E7E
  8
AM_0
 10
424.24016704080742
 20
674.37757005667163
 30
0.0
 40
10.0
 50
180.00001000000091
 51
270.0
  0
ARC
  5
8E7F
  8
AM_0
 10
451.24016704080731
 20
646.57832005667194
 30
0.0
 40
5.0
 50
0.0
 51
87.999999999996248
  0
ARC
  5
8E80
  8
AM_0
 10
441.84428704080761
 20
659.91438005667192
 30
0.0
 40
8.0
 50
192.7707500000011
 51
267.99999999999631
  0
ARC
  5
8E81
  8
AM_0
 10
426.24016704080731
 20
656.37757005667163
 30
0.0
 40
8.0
 50
0.0
 51
90.00000299999769
  0
LINE
  5
8E82
  8
AM_0
 10
424.24016704080742
 20
664.37757005667163
 30
0.0
 11
426.24016704080731
 21
664.37757005667163
 31
0.0
  0
LINE
  5
8E83
  8
AM_0
 10
441.56517704080761
 20
651.91926005667165
 30
0.0
 11
451.4146670408075
 21
651.57533005667165
 31
0.0
  0
LINE
  5
8E84
  8
AM_0
 10
480.24016704080731
 20
571.37751005667189
 30
0.0
 11
536.24013704080733
 21
571.37751005667189
 31
0.0
  0
LINE
  5
8E85
  8
AM_0
 10
480.24016704080731
 20
559.37751005667189
 30
0.0
 11
536.24013704080733
 21
559.37751005667189
 31
0.0
  0
LINE
  5
8E86
  8
AM_0
 10
466.24016704080719
 20
586.37757005667163
 30
0.0
 11
536.24013704080733
 21
586.37757005667163
 31
0.0
  0
ARC
  5
8E87
  8
AM_0
 10
480.24016704080731
 20
565.37751005667155
 30
0.0
 40
6.0000037999999991
 50
90.00000299999769
 51
270.0
  0
LINE
  5
8E88
  8
AM_0
 10
480.24016704080731
 20
571.37751005667189
 30
0.0
 11
480.24016704080731
 21
559.37751005667189
 31
0.0
  0
LINE
  5
8E89
  8
AM_0
 10
462.24016704080731
 20
587.87757005667163
 30
0.0
 11
466.24016704080719
 21
587.87757005667163
 31
0.0
  0
ARC
  5
8E8A
  8
AM_0
 10
459.24016704080731
 20
605.13490005667165
 30
0.0
 40
3.0
 50
0.0
 51
44.999998000001611
  0
ARC
  5
8E8B
  8
AM_0
 10
459.24016704080731
 20
605.13490005667165
 30
0.0
 40
3.0
 50
0.0
 51
45.000001000003799
  0
ARC
  5
8E8C
  8
AM_0
 10
458.24016704080731
 20
658.18635005667181
 30
0.0
 40
4.0
 50
278.2132199999964
 51
0.0
  0
ARC
  5
8E8E
  8
AM_0
 10
419.24016704080731
 20
697.93006005667155
 30
0.0
 40
5.0
 50
87.999999999996248
 51
180.00001000000091
  0
LINE
  5
8E8F
  8
AM_0
 10
388.33049704080742
 20
688.55165005667175
 30
0.0
 11
406.51933704080722
 21
687.91645005667192
 31
0.0
  0
ARC
  5
8E90
  8
AM_0
 10
388.67949704080729
 20
698.54554005667205
 30
0.0
 40
10.0
 50
223.48296000000141
 51
267.99999999999631
  0
LINE
  5
8E91
  8
AM_0
 10
414.24016704080731
 20
697.93006005667155
 30
0.0
 11
414.24016704080731
 21
679.92140005667193
 31
0.0
  0
ARC
  5
8E92
  8
AM_0
 10
406.24016704080731
 20
679.92140005667193
 30
0.0
 40
8.0
 50
0.0
 51
87.999999999996248
  0
ARC
  5
8E93
  8
AM_0
 10
458.24016704080731
 20
697.56874005667191
 30
0.0
 40
4.0
 50
0.0
 51
87.999999999996248
  0
POLYLINE
  5
905E
  8
AM_0
 66
     1
 10
0.0
 20
0.0
 30
0.0
  0
VERTEX
  5
905F
  8
AM_0
 10
95.618277040807499
 20
581.71814005667193
 30
0.0
 42
-0.0007337051
  0
VERTEX
  5
9060
  8
AM_0
 10
95.662417040807469
 20
582.32056005667175
 30
0.0
 42
-0.00075211323
  0
VERTEX
  5
9061
  8
AM_0
 10
95.708357040807442
 20
582.92295005667165
 30
0.0
 42
-0.0007297491
  0
VERTEX
  5
9062
  8
AM_0
 10
95.756087040807444
 20
583.52515005667192
 30
0.0
 42
-0.00073593041
  0
VERTEX
  5
9063
  8
AM_0
 10
95.805567040807475
 20
584.12714005667192
 30
0.0
 42
-0.00074742739
  0
VERTEX
  5
9064
  8
AM_0
 10
95.856837040807477
 20
584.72901005667165
 30
0.0
 42
-0.00073217363
  0
VERTEX
  5
9065
  8
AM_0
 10
95.909897040807465
 20
585.33081005667157
 30
0.0
 42
-0.00073754168
  0
VERTEX
  5
9066
  8
AM_0
 10
95.964717040807386
 20
585.93235005667145
 30
0.0
 42
-0.00073075073
  0
VERTEX
  5
9067
  8
AM_0
 10
96.021297040807454
 20
586.53371005667157
 30
0.0
 42
-0.00074550816
  0
VERTEX
  5
9068
  8
AM_0
 10
96.079637040807398
 20
587.13477005667175
 30
0.0
 42
-0.00074288416
  0
VERTEX
  5
9069
  8
AM_0
 10
96.139787040807434
 20
587.73579005667193
 30
0.0
 42
-0.00072504001
  0
VERTEX
  5
906A
  8
AM_0
 10
96.201697040807446
 20
588.33654005667165
 30
0.0
 42
-0.00074640667
  0
VERTEX
  5
906B
  8
AM_0
 10
96.265367040807433
 20
588.93714005667186
 30
0.0
  0
SEQEND
  5
906C
  8
AM_0
  0
LINE
  5
906D
  8
AM_0
 10
34.23860694080745
 20
600.11603115237904
 30
0.0
 11
34.23860694080745
 21
530.63910896096445
 31
0.0
  0
LINE
  5
906E
  8
AM_0
 10
34.740037040807493
 20
530.84851005667156
 30
0.0
 11
34.740037040807493
 21
599.90662005667195
 31
0.0
  0
LINE
  5
906F
  8
AM_0
 10
79.740037040807479
 20
528.19251005667184
 30
0.0
 11
79.740037040807479
 21
602.56360005667148
 31
0.0
  0
LINE
  5
9070
  8
AM_0
 10
84.740037040807479
 20
624.12757005667163
 30
0.0
 11
84.740037040807479
 21
506.6275700566718
 31
0.0
  0
LINE
  5
9071
  8
AM_0
 10
37.240037040807493
 20
512.59558005667179
 30
0.0
 11
37.240037040807493
 21
618.12757005667163
 31
0.0
  0
LINE
  5
9072
  8
AM_0
 10
29.23860694080744
 20
621.37757005667163
 30
0.0
 11
29.23860694080744
 21
509.3775700566718
 31
0.0
  0
LINE
  5
9073
  8
AM_0
 10
200.74003704080741
 20
621.37757005667163
 30
0.0
 11
200.74003704080741
 21
509.3775700566718
 31
0.0
  0
LINE
  5
9074
  8
AM_0
 10
92.740037040807465
 20
618.37757005667186
 30
0.0
 11
92.740037040807465
 21
512.37757005667163
 31
0.0
  0
LINE
  5
9075
  8
AM_0
 10
59.740037040807493
 20
506.6275700566718
 30
0.0
 11
84.740037040807479
 21
506.6275700566718
 31
0.0
  0
LINE
  5
9076
  8
AM_0
 10
36.740037040807501
 20
512.62757005667163
 30
0.0
 11
84.740037040807479
 21
512.62757005667163
 31
0.0
  0
LINE
  5
9077
  8
AM_0
 10
37.240037040807493
 20
531.73658005667176
 30
0.0
 11
79.740037040807479
 21
531.73658005667176
 31
0.0
  0
LINE
  5
9078
  8
AM_0
 10
38.238606940807443
 20
500.3775700566718
 30
0.0
 11
75.740037040807479
 21
500.3775700566718
 31
0.0
  0
LINE
  5
9079
  8
AM_0
 10
39.238606940807443
 20
505.3775700566718
 30
0.0
 11
62.740037040807493
 21
505.3775700566718
 31
0.0
  0
LINE
  5
907A
  8
AM_0
 10
37.240037040807493
 20
521.48658005667176
 30
0.0
 11
79.740037040807479
 21
521.48658005667176
 31
0.0
  0
LINE
  5
907B
  8
AM_0
 10
34.740037040807493
 20
522.12464005667186
 30
0.0
 11
34.740037040807493
 21
514.62757005667163
 31
0.0
  0
LINE
  5
907C
  8
AM_0
 10
34.23860694080745
 20
522.33405115237895
 30
0.0
 11
34.23860694080745
 21
510.37757005667191
 31
0.0
  0
ARC
  5
907D
  8
AM_0
 10
36.740037040807501
 20
514.62757005667163
 30
0.0
 40
2.0
 50
179.99997999999781
 51
269.99995000000138
  0
ARC
  5
907E
  8
AM_0
 10
39.238606940807443
 20
510.37757005667191
 30
0.0
 40
5.0
 50
179.99997999999781
 51
269.99995000000138
  0
ARC
  5
907F
  8
AM_0
 10
38.238606940807443
 20
509.3775700566718
 30
0.0
 40
9.0
 50
179.99997999999781
 51
269.99995000000138
  0
ARC
  5
9080
  8
AM_0
 10
35.640067040807388
 20
527.98658005667176
 30
0.0
 40
3.0
 50
89.999988999997569
 51
179.99997999999781
  0
ARC
  5
9081
  8
AM_0
 10
35.640067040807388
 20
524.98658005667176
 30
0.0
 40
3.0
 50
179.99997999999781
 51
269.99995000000138
  0
LINE
  5
9082
  8
AM_0
 10
32.640067040807388
 20
527.98658005667176
 30
0.0
 11
32.640067040807388
 21
524.98658005667176
 31
0.0
  0
LINE
  5
9083
  8
AM_0
 10
35.9400470408074
 20
531.08655005667185
 30
0.0
 11
35.9400470408074
 21
521.8866000566718
 31
0.0
  0
LINE
  5
9084
  8
AM_0
 10
35.640067040807388
 20
521.98658005667176
 30
0.0
 11
35.9400470408074
 21
521.98658005667176
 31
0.0
  0
LINE
  5
9085
  8
AM_0
 10
35.9400470408074
 20
521.8866000566718
 30
0.0
 11
37.240037040807493
 21
521.8866000566718
 31
0.0
  0
LINE
  5
9086
  8
AM_0
 10
35.640067040807388
 20
530.98658005667176
 30
0.0
 11
35.9400470408074
 21
530.98658005667176
 31
0.0
  0
LINE
  5
9087
  8
AM_0
 10
35.9400470408074
 20
531.08655005667185
 30
0.0
 11
37.240037040807493
 21
531.08655005667185
 31
0.0
  0
LINE
  5
9088
  8
AM_0
 10
79.740037040807479
 20
521.48658005667176
 30
0.0
 11
79.740037040807479
 21
512.62757005667163
 31
0.0
  0
LINE
  5
9089
  8
AM_0
 10
62.740037040807493
 20
506.6275700566718
 30
0.0
 11
62.740037040807493
 21
500.3775700566718
 31
0.0
  0
LINE
  5
908A
  8
AM_0
 10
59.740037040807493
 20
506.6275700566718
 30
0.0
 11
59.740037040807493
 21
512.62757005667163
 31
0.0
  0
LINE
  5
908B
  8
AM_0
 10
75.740037040807479
 20
505.3775700566718
 30
0.0
 11
75.740037040807479
 21
500.3775700566718
 31
0.0
  0
LINE
  5
908C
  8
AM_0
 10
72.740037040807465
 20
506.6275700566718
 30
0.0
 11
72.740037040807465
 21
500.3775700566718
 31
0.0
  0
LINE
  5
908D
  8
AM_0
 10
72.740037040807465
 20
505.3775700566718
 30
0.0
 11
75.740037040807479
 21
505.3775700566718
 31
0.0
  0
LINE
  5
908E
  8
AM_0
 10
34.740037040807493
 20
570.37757005667163
 30
0.0
 11
34.23860694080745
 21
570.37757005667163
 31
0.0
  0
LINE
  5
908F
  8
AM_0
 10
34.740037040807493
 20
560.37757005667186
 30
0.0
 11
34.23860694080745
 21
560.37757005667186
 31
0.0
  0
LINE
  5
9090
  8
AM_0
 10
28.240067040807471
 20
560.37757005667186
 30
0.0
 11
28.240067040807471
 21
570.37757005667163
 31
0.0
  0
LINE
  5
9091
  8
AM_0
 10
29.23860694080744
 20
560.37757005667186
 30
0.0
 11
28.240067040807471
 21
560.37757005667186
 31
0.0
  0
LINE
  5
9092
  8
AM_0
 10
29.23860694080744
 20
570.37757005667163
 30
0.0
 11
28.240067040807471
 21
570.37757005667163
 31
0.0
  0
LINE
  5
9093
  8
AM_0
 10
187.51732573823341
 20
478.8775700566718
 30
0.0
 11
187.51732573823341
 21
494.8775700566718
 31
0.0
  0
LINE
  5
9094
  8
AM_0
 10
172.51732573823341
 20
478.76269653964363
 30
0.0
 11
172.51732573823341
 21
495.8775700566718
 31
0.0
  0
LINE
  5
9095
  8
AM_0
 10
124.64219947238639
 20
495.8775700566718
 30
0.0
 11
124.64219947238639
 21
478.8775700566718
 31
0.0
  0
LINE
  5
9096
  8
AM_0
 10
106.0421994723863
 20
495.8775700566718
 30
0.0
 11
106.0421994723863
 21
478.8775700566718
 31
0.0
  0
LINE
  5
9097
  8
AM_0
 10
100.2421994723864
 20
494.8775700566718
 30
0.0
 11
100.2421994723864
 21
471.87757005667203
 31
0.0
  0
LINE
  5
9098
  8
AM_0
 10
144.1388454269073
 20
473.92756883260279
 30
0.0
 11
146.3421994723854
 21
474.30297646813682
 31
0.0
  0
LINE
  5
9099
  8
AM_0
 10
179.4678946092273
 20
474.8775700566718
 30
0.0
 11
103.1678946092274
 21
461.8775700566718
 31
0.0
  0
LINE
  5
909A
  8
AM_0
 10
178.6421994723874
 20
461.8775700566718
 30
0.0
 11
103.1678946092274
 21
461.8775700566718
 31
0.0
  0
LINE
  5
909B
  8
AM_0
 10
102.8421994723864
 20
465.8775700566718
 30
0.0
 11
179.14219947238641
 21
478.8775700566718
 31
0.0
  0
LINE
  5
909C
  8
AM_0
 10
102.8421994723864
 20
465.8775700566718
 30
0.0
 11
179.14219947238641
 21
478.8775700566718
 31
0.0
  0
LINE
  5
909D
  8
ﾁｭｳｼﾝｾﾝ
 10
102.3421994723864
 20
478.8775700566718
 30
0.0
 11
128.3421994723864
 21
478.8775700566718
 31
0.0
  0
LINE
  5
909E
  8
AM_0
 10
102.7607756881753
 20
466.8775700566718
 30
0.0
 11
134.7388454269074
 21
472.32599609341582
 31
0.0
  0
ARC
  5
909F
  8
AM_0
 10
115.3421994723864
 20
478.8775700566718
 30
0.0
 40
9.3000000000000007
 50
180.0
 51
0.0
  0
CIRCLE
  5
90A0
  8
AM_0
 10
115.3421994723864
 20
478.8775700566718
 30
0.0
 40
6.299999999999998
  0
LINE
  5
90A1
  8
AM_0
 10
99.942199472386363
 20
469.07321273738779
 30
0.0
 11
99.942199472386363
 21
471.67757005667278
 31
0.0
  0
LINE
  5
90A2
  8
AM_0
 10
100.2421994723864
 20
471.87757005667203
 30
0.0
 11
100.24219947238539
 21
466.8775700566718
 31
0.0
  0
ARC
  5
90A3
  8
AM_0
 10
98.542199472387409
 20
470.57757005667281
 30
0.0
 40
0.3
 50
90.0
 51
180.0
  0
ARC
  5
90A4
  8
AM_0
 10
100.2421994723864
 20
463.37757005667203
 30
0.0
 40
1.5
 50
180.0
 51
270.0
  0
ARC
  5
90A5
  8
AM_0
 10
99.742199472387441
 20
463.37757005667288
 30
0.0
 40
1.5
 50
180.00000000000659
 51
269.99999999999341
  0
LINE
  5
90A6
  8
AM_0
 10
98.242199472387426
 20
470.57757005667281
 30
0.0
 11
98.242199472387426
 21
463.37757005667203
 31
0.0
  0
ARC
  5
90A7
  8
AM_0
 10
99.042199472386386
 20
465.57757005667293
 30
0.0
 40
0.3
 50
90.0
 51
180.0
  0
LINE
  5
90A8
  8
AM_0
 10
100.2421994723864
 20
461.8775700566718
 30
0.0
 11
103.1678946092274
 21
461.8775700566718
 31
0.0
  0
LINE
  5
90A9
  8
AM_0
 10
99.742199472387441
 20
461.8775700566718
 30
0.0
 11
100.0406853685444
 21
461.87757005667299
 31
0.0
  0
LINE
  5
90AA
  8
AM_0
 10
98.742199472386432
 20
465.57757005667293
 30
0.0
 11
98.742199472386432
 21
463.37757005667203
 31
0.0
  0
LINE
  5
90AB
  8
AM_0
 10
102.7607756881753
 20
466.8775700566718
 30
0.0
 11
99.042199472386386
 21
466.8775700566718
 31
0.0
  0
LINE
  5
90AC
  8
AM_0
 10
99.042199472386386
 20
465.8775700566718
 30
0.0
 11
102.8421994723864
 21
465.8775700566718
 31
0.0
  0
LINE
  5
90AD
  8
AM_0
 10
98.742199472386432
 20
465.8775700566718
 30
0.0
 11
102.8421994723864
 21
465.8775700566718
 31
0.0
  0
LINE
  5
90AE
  8
AM_0
 10
99.942199472386363
 20
467.87321273738758
 30
0.0
 11
99.942199472386363
 21
469.07321273738779
 31
0.0
  0
LINE
  5
90AF
  8
AM_0
 10
99.942199472386363
 20
467.87321273738758
 30
0.0
 11
99.742199472386446
 21
467.87321273738758
 31
0.0
  0
ARC
  5
90B0
  8
AM_0
 10
99.442199472386363
 20
470.57757005667281
 30
0.0
 40
0.3
 50
0.0
 51
90.0
  0
LINE
  5
90B1
  8
AM_0
 10
99.742199472386446
 20
469.07321273738779
 30
0.0
 11
99.942199472386363
 21
469.07321273738779
 31
0.0
  0
LINE
  5
90B2
  8
AM_0
 10
99.042199472386386
 20
470.8775700566718
 30
0.0
 11
98.542199472387409
 21
470.8775700566718
 31
0.0
  0
LINE
  5
90B3
  8
AM_0
 10
99.442199472386363
 20
470.8775700566718
 30
0.0
 11
99.042199472386386
 21
470.8775700566718
 31
0.0
  0
ARC
  5
90B4
  8
AM_0
 10
99.042199472386386
 20
466.57757005667281
 30
0.0
 40
0.3
 50
90.0
 51
180.0
  0
LINE
  5
90B5
  8
AM_0
 10
98.742199472386432
 20
466.57757005667281
 30
0.0
 11
98.742199472386432
 21
465.8775700566718
 31
0.0
  0
LINE
  5
90B6
  8
AM_0
 10
99.742199472386446
 20
466.8775700566718
 30
0.0
 11
99.742199472386446
 21
470.57757005667281
 31
0.0
  0
LINE
  5
90B7
  8
AM_0
 10
99.942199472386363
 20
466.8775700566718
 30
0.0
 11
99.942199472386363
 21
467.87321273738758
 31
0.0
  0
LINE
  5
90B8
  8
AM_0
 10
99.942199472386363
 20
471.67757005667278
 30
0.0
 11
100.14219947238639
 21
471.87757005667203
 31
0.0
  0
LINE
  5
90B9
  8
AM_0
 10
100.14219947238639
 20
471.87757005667203
 30
0.0
 11
100.2421994723864
 21
471.87757005667203
 31
0.0
  0
LINE
  5
90BA
  8
ﾁｭｳｼﾝｾﾝ
 10
115.3421994723864
 20
465.8775700566718
 30
0.0
 11
115.3421994723864
 21
491.8775700566718
 31
0.0
  0
CIRCLE
  5
90BB
  8
AM_0
 10
129.8421994723864
 20
478.8775700566718
 30
0.0
 40
0.75
  0
LINE
  5
90BC
  8
AM_0
 10
134.7388454269074
 20
488.16619387747392
 30
0.0
 11
134.7388454269074
 21
472.32599609341582
 31
0.0
  0
LINE
  5
90BD
  8
AM_0
 10
142.63884542690741
 20
490.8775700566718
 30
0.0
 11
142.63884542690741
 21
473.67199871464788
 31
0.0
  0
LINE
  5
90BE
  8
AM_0
 10
140.43884542690731
 20
473.29716254164668
 30
0.0
 11
140.43884542690731
 21
490.8775700566718
 31
0.0
  0
LINE
  5
90BF
  8
AM_0
 10
138.93884542690731
 20
490.8775700566718
 30
0.0
 11
138.9388454269083
 21
473.04159242369087
 31
0.0
  0
LINE
  5
90C0
  8
AM_0
 10
136.7388454269074
 20
472.66675625068967
 30
0.0
 11
136.7388454269074
 21
490.87757005667299
 31
0.0
  0
LINE
  5
90C1
  8
AM_0
 10
144.1388454269073
 20
473.92756883260279
 30
0.0
 11
144.1388454269073
 21
490.8775700566718
 31
0.0
  0
LINE
  5
90C2
  8
AM_0
 10
136.7388454269074
 20
472.66675625068967
 30
0.0
 11
138.9388454269083
 21
473.04159242369087
 31
0.0
  0
LINE
  5
90C3
  8
AM_0
 10
140.43884542690731
 20
473.29716254164668
 30
0.0
 11
142.63884542690741
 21
473.67199871464788
 31
0.0
  0
LINE
  5
90C4
  8
AM_0
 10
136.7388454269074
 20
486.8775700566718
 30
0.0
 11
134.7388454269074
 21
486.8775700566718
 31
0.0
  0
LINE
  5
90C5
  8
AM_0
 10
136.7388454269074
 20
490.87757005667299
 30
0.0
 11
135.43884542690731
 21
490.8775700566718
 31
0.0
  0
LINE
  5
90C6
  8
AM_0
 10
135.43884542690731
 20
488.8335459340779
 30
0.0
 11
134.7388454269074
 21
488.16619387747392
 31
0.0
  0
LINE
  5
90C7
  8
AM_0
 10
135.43884542690731
 20
490.8775700566718
 30
0.0
 11
135.43884542690731
 21
488.8335459340779
 31
0.0
  0
LINE
  5
90C8
  8
AM_0
 10
140.43884542690731
 20
486.8775700566718
 30
0.0
 11
138.93884542690731
 21
486.8775700566718
 31
0.0
  0
LINE
  5
90C9
  8
AM_0
 10
144.1388454269073
 20
486.8775700566718
 30
0.0
 11
142.63884542690741
 21
486.8775700566718
 31
0.0
  0
LINE
  5
90CA
  8
AM_0
 10
140.43884542690731
 20
490.8775700566718
 30
0.0
 11
138.93884542690731
 21
490.8775700566718
 31
0.0
  0
LINE
  5
90CB
  8
AM_0
 10
144.1388454269073
 20
490.8775700566718
 30
0.0
 11
142.63884542690741
 21
490.8775700566718
 31
0.0
  0
LINE
  5
90CC
  8
AM_0
 10
170.8723509914044
 20
461.8775700566718
 30
0.0
 11
170.8723509914044
 21
473.41306065913989
 31
0.0
  0
LINE
  5
90CD
  8
AM_0
 10
162.65561565429431
 20
490.8775700566718
 30
0.0
 11
161.15561565429431
 21
490.8775700566718
 31
0.0
  0
LINE
  5
90CE
  8
AM_0
 10
162.65561565429431
 20
486.8775700566718
 30
0.0
 11
161.15561565429431
 21
486.8775700566718
 31
0.0
  0
LINE
  5
90CF
  8
AM_0
 10
158.95226160881739
 20
476.45147984655881
 30
0.0
 11
158.95226160881739
 21
490.8775700566718
 31
0.0
  0
LINE
  5
90D0
  8
AM_0
 10
157.45226160881739
 20
490.8775700566718
 30
0.0
 11
157.45226160881739
 21
476.19590972860283
 31
0.0
  0
LINE
  5
90D1
  8
AM_0
 10
155.2489075633404
 20
475.82050209306971
 30
0.0
 11
155.2489075633404
 21
490.8775700566718
 31
0.0
  0
LINE
  5
90D2
  8
AM_0
 10
153.7489075633404
 20
490.8775700566718
 30
0.0
 11
153.7489075633404
 21
475.56493197511492
 31
0.0
  0
LINE
  5
90D3
  8
AM_0
 10
161.15561565429431
 20
490.8775700566718
 30
0.0
 11
161.15561565429431
 21
476.82688748209159
 31
0.0
  0
LINE
  5
90D4
  8
AM_0
 10
148.3421994723883
 20
474.64373662541078
 30
0.0
 11
148.3421994723883
 21
488.16619387747392
 31
0.0
  0
LINE
  5
90D5
  8
AM_0
 10
146.3421994723854
 20
490.8775700566718
 30
0.0
 11
146.3421994723854
 21
474.30297646813682
 31
0.0
  0
LINE
  5
90D6
  8
AM_0
 10
151.5455535178624
 20
475.18952433958083
 30
0.0
 11
151.5455535178624
 21
490.8775700566718
 31
0.0
  0
LINE
  5
90D7
  8
AM_0
 10
150.0455535178624
 20
490.8775700566718
 30
0.0
 11
150.0455535178624
 21
474.93395422162598
 31
0.0
  0
LINE
  5
90D8
  8
AM_0
 10
148.3421994723883
 20
474.64373662541078
 30
0.0
 11
150.0455535178624
 21
474.93395422162598
 31
0.0
  0
LINE
  5
90D9
  8
AM_0
 10
151.5455535178624
 20
475.18952433958083
 30
0.0
 11
153.7489075633404
 21
475.56493197511492
 31
0.0
  0
LINE
  5
90DA
  8
AM_0
 10
155.2489075633404
 20
475.82050209306971
 30
0.0
 11
157.45226160881739
 21
476.19590972860283
 31
0.0
  0
LINE
  5
90DB
  8
AM_0
 10
158.95226160881739
 20
476.45147984655881
 30
0.0
 11
161.15561565429431
 21
476.82688748209159
 31
0.0
  0
LINE
  5
90DC
  8
AM_0
 10
155.2489075633404
 20
490.8775700566718
 30
0.0
 11
153.7489075633404
 21
490.8775700566718
 31
0.0
  0
LINE
  5
90DD
  8
AM_0
 10
155.2489075633404
 20
486.8775700566718
 30
0.0
 11
153.7489075633404
 21
486.8775700566718
 31
0.0
  0
LINE
  5
90DE
  8
AM_0
 10
151.5455535178624
 20
486.8775700566718
 30
0.0
 11
150.0455535178624
 21
486.8775700566718
 31
0.0
  0
LINE
  5
90DF
  8
AM_0
 10
148.3421994723883
 20
486.8775700566718
 30
0.0
 11
146.3421994723854
 21
486.8775700566718
 31
0.0
  0
LINE
  5
90E0
  8
AM_0
 10
151.5455535178624
 20
490.8775700566718
 30
0.0
 11
150.0455535178624
 21
490.8775700566718
 31
0.0
  0
LINE
  5
90E1
  8
AM_0
 10
147.6421994723853
 20
490.8775700566718
 30
0.0
 11
146.3421994723854
 21
490.8775700566718
 31
0.0
  0
LINE
  5
90E2
  8
AM_0
 10
148.3421994723883
 20
488.16619387747392
 30
0.0
 11
147.6421994723853
 21
488.8335459340779
 31
0.0
  0
LINE
  5
90E3
  8
AM_0
 10
147.6421994723853
 20
488.8335459340779
 30
0.0
 11
147.6421994723853
 21
490.8775700566718
 31
0.0
  0
LINE
  5
90E4
  8
AM_0
 10
158.95226160881739
 20
486.8775700566718
 30
0.0
 11
157.45226160881739
 21
486.8775700566718
 31
0.0
  0
LINE
  5
90E5
  8
AM_0
 10
158.95226160881739
 20
490.8775700566718
 30
0.0
 11
157.45226160881739
 21
490.8775700566718
 31
0.0
  0
LINE
  5
90E6
  8
AM_0
 10
162.65561565429431
 20
477.08245760004758
 30
0.0
 11
162.65561565429431
 21
490.8775700566718
 31
0.0
  0
LINE
  5
90E7
  8
AM_0
 10
162.65561565429431
 20
477.08245760004758
 30
0.0
 11
172.51732573823341
 21
478.76269653964363
 31
0.0
  0
CIRCLE
  5
90E8
  8
AM_0
 10
164.3421994723864
 20
478.8775700566718
 30
0.0
 40
0.75
  0
LINE
  5
90E9
  8
AM_0
 10
171.7421994723874
 20
473.56336482937479
 30
0.0
 11
171.7421994723874
 21
477.61675747475857
 31
0.0
  0
LINE
  5
90EA
  8
AM_0
 10
181.1421994723874
 20
474.3775700566718
 30
0.0
 11
181.1421994723874
 21
464.37757005667191
 31
0.0
  0
ARC
  5
90EB
  8
AM_0
 10
178.6421994723874
 20
464.37757005667191
 30
0.0
 40
2.5
 50
270.0
 51
0.0
  0
LINE
  5
90EC
  8
AM_0
 10
187.51732573823341
 20
478.8775700566718
 30
0.0
 11
179.14219947238641
 21
478.8775700566718
 31
0.0
  0
LINE
  5
90ED
  8
AM_0
 10
181.6421994723874
 20
474.8775700566718
 30
0.0
 11
187.01732573823341
 21
474.8775700566718
 31
0.0
  0
LINE
  5
90EE
  8
AM_0
 10
181.6421994723874
 20
474.8775700566718
 30
0.0
 11
179.4678946092273
 21
474.8775700566718
 31
0.0
  0
ARC
  5
90EF
  8
AM_0
 10
181.6421994723874
 20
474.3775700566718
 30
0.0
 40
0.5
 50
90.0
 51
180.0
  0
LINE
  5
90F0
  8
AM_0
 10
187.51732573823341
 20
478.8775700566718
 30
0.0
 11
187.51732573823341
 21
475.3775700566718
 31
0.0
  0
ARC
  5
90F1
  8
AM_0
 10
187.01732573823341
 20
475.3775700566718
 30
0.0
 40
0.5
 50
270.0
 51
0.0
  0
LINE
  5
90F2
  8
AM_0
 10
149.74003704080741
 20
529.37757005667163
 30
0.0
 11
95.100027040807518
 21
529.37757005667163
 31
0.0
  0
LINE
  5
90F3
  8
AM_0
 10
149.74003704080741
 20
531.37757005667163
 30
0.0
 11
95.100027040807518
 21
531.37757005667163
 31
0.0
  0
LINE
  5
90F4
  8
AM_0
 10
94.420027040807469
 20
528.65760005667175
 30
0.0
 11
149.74003704080741
 21
528.65760005667175
 31
0.0
  0
LINE
  5
90F5
  8
AM_0
 10
94.200057040807479
 20
541.81751005667184
 30
0.0
 11
197.7742770408075
 21
541.81751005667184
 31
0.0
  0
LINE
  5
90F6
  8
AM_0
 10
194.07286704080741
 20
541.37757005667152
 30
0.0
 11
95.100027040807518
 21
541.37757005667152
 31
0.0
  0
LINE
  5
90F7
  8
AM_0
 10
94.420027040807469
 20
532.00757005667185
 30
0.0
 11
161.7600570408074
 21
532.00757005667185
 31
0.0
  0
LINE
  5
90F8
  8
AM_0
 10
94.200057040807479
 20
538.88758005667182
 30
0.0
 11
161.74003704080741
 21
538.88758005667182
 31
0.0
  0
LINE
  5
90F9
  8
AM_0
 10
161.74003704080741
 20
539.37757005667186
 30
0.0
 11
95.100027040807518
 21
539.37757005667186
 31
0.0
  0
LINE
  5
90FA
  8
AM_0
 10
168.64219947238641
 20
495.8775700566718
 30
0.0
 11
130.8421994723864
 21
495.8775700566718
 31
0.0
  0
LINE
  5
90FB
  8
AM_0
 10
183.24003704080741
 20
498.3775700566718
 30
0.0
 11
116.24003704080739
 21
498.3775700566718
 31
0.0
  0
LINE
  5
90FC
  8
AM_0
 10
95.950057040807465
 20
509.09754005667168
 30
0.0
 11
192.87004704080741
 21
509.09754005667168
 31
0.0
  0
POLYLINE
  5
90FD
  8
AM_0
 66
     1
 10
0.0
 20
0.0
 30
0.0
  0
VERTEX
  5
90FE
  8
AM_0
 10
96.600937040807494
 20
538.89453005667156
 30
0.0
 42
0.00068900015
  0
VERTEX
  5
90FF
  8
AM_0
 10
96.671817040807383
 20
538.31978005667156
 30
0.0
 42
0.00070644648
  0
VERTEX
  5
9100
  8
AM_0
 10
96.744317040807474
 20
537.74510005667184
 30
0.0
 42
0.00069245587
  0
VERTEX
  5
9101
  8
AM_0
 10
96.818407040807443
 20
537.1707800566719
 30
0.0
 42
0.00069587802
  0
VERTEX
  5
9102
  8
AM_0
 10
96.894087040807463
 20
536.59664005667184
 30
0.0
 42
0.00068980012
  0
VERTEX
  5
9103
  8
AM_0
 10
96.971387040807414
 20
536.02264005667189
 30
0.0
 42
0.00072079193
  0
VERTEX
  5
9104
  8
AM_0
 10
97.050277040807515
 20
535.44886005667195
 30
0.0
 42
0.00071003147
  0
VERTEX
  5
9105
  8
AM_0
 10
97.130817040807443
 20
534.87538005667182
 30
0.0
 42
0.00072658712
  0
VERTEX
  5
9106
  8
AM_0
 10
97.212977040807473
 20
534.30229005667184
 30
0.0
 42
0.00069571059
  0
VERTEX
  5
9107
  8
AM_0
 10
97.296797040807434
 20
533.72925005667184
 30
0.0
 42
0.0007126617
  0
VERTEX
  5
9108
  8
AM_0
 10
97.382227040807535
 20
533.15649005667183
 30
0.0
 42
0.00071614574
  0
VERTEX
  5
9109
  8
AM_0
 10
97.469257040807435
 20
532.5841400566718
 30
0.0
 42
0.00072290803
  0
VERTEX
  5
910A
  8
AM_0
 10
97.557967040807441
 20
532.01184005667187
 30
0.0
  0
SEQEND
  5
910B
  8
AM_0
  0
LINE
  5
910C
  8
AM_0
 10
95.646287040807479
 20
506.24756005667189
 30
0.0
 11
118.07268723947421
 21
506.24756005667189
 31
0.0
  0
LINE
  5
910D
  8
AM_0
 10
106.0421994723863
 20
495.8775700566718
 30
0.0
 11
123.64219947238639
 21
495.8775700566718
 31
0.0
  0
LINE
  5
910E
  8
AM_0
 10
92.740037040807465
 20
515.93750005667175
 30
0.0
 11
94.020007040807414
 21
507.93756005667183
 31
0.0
  0
LINE
  5
910F
  8
AM_0
 10
92.740037040807465
 20
517.28751005667175
 30
0.0
 11
93.980027040807514
 21
510.7275100566718
 31
0.0
  0
LINE
  5
9110
  8
AM_0
 10
84.740037040807479
 20
512.37757005667163
 30
0.0
 11
92.740037040807465
 21
512.37757005667163
 31
0.0
  0
ARC
  5
9111
  8
AM_0
 10
95.944877040807455
 20
511.09681005667193
 30
0.0
 40
1.9992490000000001
 50
190.643100000001
 51
270.14743000000129
  0
LINE
  5
9112
  8
AM_0
 10
92.740037040807465
 20
514.59757005667188
 30
0.0
 11
93.665517040807458
 21
507.97095005667182
 31
0.0
  0
LINE
  5
9113
  8
AM_0
 10
92.740037040807465
 20
514.59751005667181
 30
0.0
 11
93.749257040807521
 21
507.94748005667168
 31
0.0
  0
ARC
  5
9114
  8
AM_0
 10
95.646287040807479
 20
508.24756005667172
 30
0.0
 40
2.0
 50
187.9504400000034
 51
269.999989999999
  0
ARC
  5
9115
  8
AM_0
 10
95.72666704080747
 20
508.24756005667172
 30
0.0
 40
2.0
 50
188.62962000000411
 51
269.999989999999
  0
ARC
  5
9116
  8
AM_0
 10
95.996207040807477
 20
508.24793005667181
 30
0.0
 40
2.000420099999999
 50
188.9268200000015
 51
269.82270999999599
  0
LINE
  5
9117
  8
AM_0
 10
101.2421994723864
 20
495.8775700566718
 30
0.0
 11
106.0421994723863
 21
495.8775700566718
 31
0.0
  0
ARC
  5
9118
  8
AM_0
 10
101.2421994723864
 20
494.8775700566718
 30
0.0
 40
1.0
 50
90.0
 51
180.0
  0
LINE
  5
9119
  8
AM_0
 10
98.100027040807504
 20
528.72757005667165
 30
0.0
 11
92.740037040807465
 21
517.28757005667194
 31
0.0
  0
LINE
  5
911A
  8
AM_0
 10
85.440047040807372
 20
522.18763005667188
 30
0.0
 11
91.670027040807497
 21
522.18763005667188
 31
0.0
  0
ARC
  5
911B
  8
AM_0
 10
95.284657040807474
 20
530.37757005667163
 30
0.0
 40
1.000013899999999
 50
89.691659999999231
 51
270.30834000000078
  0
ARC
  5
911C
  8
AM_0
 10
94.413197040807432
 20
530.33252005667168
 30
0.0
 40
1.675014
 50
89.766498999996756
 51
270.2335099999994
  0
LINE
  5
911D
  8
AM_0
 10
130.8421994723864
 20
495.8775700566718
 30
0.0
 11
124.64219947238639
 21
495.8775700566718
 31
0.0
  0
LINE
  5
911E
  8
AM_0
 10
119.7399770408075
 20
498.37754005667182
 30
0.0
 11
119.4593128534685
 21
509.09754005667162
 31
0.0
  0
LINE
  5
911F
  8
AM_0
 10
116.24003704080739
 20
495.8775700566718
 30
0.0
 11
116.24003704080739
 21
498.3775700566718
 31
0.0
  0
LINE
  5
9120
  8
AM_0
 10
123.64219947238639
 20
495.8775700566718
 30
0.0
 11
124.64219947238639
 21
495.8775700566718
 31
0.0
  0
ARC
  5
9121
  8
AM_0
 10
118.07268723947421
 20
504.74756005667189
 30
0.0
 40
1.5
 50
1.499738863867264
 51
90.0
1001
GENIUS_GENODEF_13
1002
{
1000
HIER
1070
     0
1002
}
1002
{
1000
MANEDIT
1070
     0
1002
}
1002
{
1000
NOSEL
1070
     0
1002
}
1002
{
1000
BEHIND
1070
     0
1002
}
1002
{
1000
REACTOR
1002
}
1001
GENIUS_GENOBJ-N-FIL_13
1002
{
1000
OWNER
1000
GEN
1002
}
  0
LINE
  5
9122
  8
AM_0
 10
94.07005704080747
 20
579.05762005667145
 30
0.0
 11
130.39872704080739
 21
579.05762005667145
 31
0.0
  0
LINE
  5
9123
  8
AM_0
 10
129.1787570408074
 20
579.37757005667163
 30
0.0
 11
95.100027040807518
 21
579.37757005667163
 31
0.0
  0
LINE
  5
9124
  8
AM_0
 10
94.07005704080747
 20
581.71753005667165
 30
0.0
 11
130.39872704080739
 21
581.71753005667165
 31
0.0
  0
LINE
  5
9125
  8
AM_0
 10
129.1787570408074
 20
581.37757005667163
 30
0.0
 11
95.100027040807518
 21
581.37757005667163
 31
0.0
  0
LINE
  5
9126
  8
AM_0
 10
94.010057040807425
 20
569.11756005667189
 30
0.0
 11
130.4587270408075
 21
569.11756005667189
 31
0.0
  0
LINE
  5
9127
  8
AM_0
 10
94.010057040807425
 20
571.64759005667179
 30
0.0
 11
130.4587270408075
 21
571.64759005667179
 31
0.0
  0
LINE
  5
9128
  8
AM_0
 10
129.1787570408074
 20
569.37757005667163
 30
0.0
 11
95.100027040807518
 21
569.37757005667163
 31
0.0
  0
LINE
  5
9129
  8
AM_0
 10
129.1787570408074
 20
571.37757005667163
 30
0.0
 11
95.100027040807518
 21
571.37757005667163
 31
0.0
  0
LINE
  5
912A
  8
AM_0
 10
129.1787570408074
 20
549.37757005667163
 30
0.0
 11
95.100027040807518
 21
549.37757005667163
 31
0.0
  0
LINE
  5
912B
  8
AM_0
 10
129.1787570408074
 20
551.37757005667163
 30
0.0
 11
95.100027040807518
 21
551.37757005667163
 31
0.0
  0
LINE
  5
912C
  8
AM_0
 10
94.07005704080747
 20
551.69751005667194
 30
0.0
 11
130.39872704080739
 21
551.69751005667194
 31
0.0
  0
LINE
  5
912D
  8
AM_0
 10
94.07005704080747
 20
549.03760005667175
 30
0.0
 11
130.4113070408074
 21
549.03760005667175
 31
0.0
  0
LINE
  5
912E
  8
AM_0
 10
94.010057040807425
 20
559.10755005667193
 30
0.0
 11
130.4587270408075
 21
559.10755005667193
 31
0.0
  0
LINE
  5
912F
  8
AM_0
 10
129.1787570408074
 20
559.37757005667163
 30
0.0
 11
95.100027040807518
 21
559.37757005667163
 31
0.0
  0
LINE
  5
9130
  8
AM_0
 10
129.1787570408074
 20
561.37757005667163
 30
0.0
 11
95.100027040807518
 21
561.37757005667163
 31
0.0
  0
LINE
  5
9131
  8
AM_0
 10
94.010057040807425
 20
561.64759005667179
 30
0.0
 11
130.4587270408075
 21
561.64759005667179
 31
0.0
  0
ARC
  5
9132
  8
AM_0
 10
94.004197040807455
 20
560.37757005667186
 30
0.0
 40
1.2700129999999981
 50
89.736617000001615
 51
270.26336999999899
  0
ARC
  5
9133
  8
AM_0
 10
95.284657040807474
 20
560.37757005667186
 30
0.0
 40
1.000013899999999
 50
89.691659999999231
 51
270.30834000000078
  0
POLYLINE
  5
9134
  8
AM_0
 66
     1
 10
0.0
 20
0.0
 30
0.0
  0
VERTEX
  5
9135
  8
AM_0
 10
95.618277040807499
 20
549.03699005667181
 30
0.0
 42
0.00073721992
  0
VERTEX
  5
9136
  8
AM_0
 10
95.662427040807444
 20
548.43458005667185
 30
0.0
 42
0.00074398496
  0
VERTEX
  5
9137
  8
AM_0
 10
95.708357040807442
 20
547.83231005667187
 30
0.0
 42
0.00073322625
  0
VERTEX
  5
9138
  8
AM_0
 10
95.756087040807444
 20
547.22998005667182
 30
0.0
 42
0.00073594289
  0
VERTEX
  5
9139
  8
AM_0
 10
95.805567040807475
 20
546.62799005667182
 30
0.0
 42
0.00074742568
  0
VERTEX
  5
913A
  8
AM_0
 10
95.856837040807477
 20
546.02613005667183
 30
0.0
 42
0.00073216749
  0
VERTEX
  5
913B
  8
AM_0
 10
95.909897040807465
 20
545.42432005667183
 30
0.0
 42
0.00074184065
  0
VERTEX
  5
913C
  8
AM_0
 10
95.964717040807386
 20
544.82279005667192
 30
0.0
 42
0.00072077528
  0
VERTEX
  5
913D
  8
AM_0
 10
96.021297040807454
 20
544.22156005667193
 30
0.0
 42
0.00074978179
  0
VERTEX
  5
913E
  8
AM_0
 10
96.079637040807398
 20
543.62036005667176
 30
0.0
 42
0.00074288888
  0
VERTEX
  5
913F
  8
AM_0
 10
96.139787040807434
 20
543.01934005667181
 30
0.0
 42
0.00072503679
  0
VERTEX
  5
9140
  8
AM_0
 10
96.201697040807446
 20
542.41860005667183
 30
0.0
 42
0.00074640584
  0
VERTEX
  5
9141
  8
AM_0
 10
96.265367040807433
 20
541.81800005667185
 30
0.0
  0
SEQEND
  5
9142
  8
AM_0
  0
ARC
  5
9143
  8
AM_0
 10
95.284657040807474
 20
540.37757005667163
 30
0.0
 40
1.000013899999999
 50
89.691659999999231
 51
270.30834000000078
  0
ARC
  5
9144
  8
AM_0
 10
94.200057040807479
 20
540.35254005667184
 30
0.0
 40
1.465004
 50
90.00000299999769
 51
270.0
  0
POLYLINE
  5
9145
  8
AM_0
 66
     1
 10
0.0
 20
0.0
 30
0.0
  0
VERTEX
  5
9146
  8
AM_0
 10
95.144087040807477
 20
559.10718005667184
 30
0.0
 42
0.00076695235
  0
VERTEX
  5
9147
  8
AM_0
 10
95.1588870408074
 20
558.48942005667186
 30
0.0
 42
0.00073263043
  0
VERTEX
  5
9148
  8
AM_0
 10
95.175527040807438
 20
557.87182005667182
 30
0.0
 42
0.00076525988
  0
VERTEX
  5
9149
  8
AM_0
 10
95.194017040807381
 20
557.25415005667185
 30
0.0
 42
0.00075144488
  0
VERTEX
  5
914A
  8
AM_0
 10
95.214387040807424
 20
556.63655005667181
 30
0.0
 42
0.00076035096
  0
VERTEX
  5
914B
  8
AM_0
 10
95.236627040807477
 20
556.01912005667191
 30
0.0
 42
0.00075543154
  0
VERTEX
  5
914C
  8
AM_0
 10
95.260727040807438
 20
555.40174005667166
 30
0.0
 42
0.0007577325
  0
VERTEX
  5
914D
  8
AM_0
 10
95.286707040807414
 20
554.78434005667168
 30
0.0
 42
0.00076034585
  0
VERTEX
  5
914E
  8
AM_0
 10
95.3145570408075
 20
554.16695005667179
 30
0.0
 42
0.00074823143
  0
VERTEX
  5
914F
  8
AM_0
 10
95.344287040807473
 20
553.54956005667191
 30
0.0
 42
0.00074896605
  0
VERTEX
  5
9150
  8
AM_0
 10
95.375847040807344
 20
552.93243005667182
 30
0.0
 42
0.00076039763
  0
VERTEX
  5
9151
  8
AM_0
 10
95.409267040807464
 20
552.31540005667193
 30
0.0
 42
0.00075616127
  0
VERTEX
  5
9152
  8
AM_0
 10
95.44456704080747
 20
551.69837005667182
 30
0.0
  0
SEQEND
  5
9153
  8
AM_0
  0
ARC
  5
9154
  8
AM_0
 10
95.284657040807474
 20
550.37757005667163
 30
0.0
 40
1.000013899999999
 50
89.691659999999231
 51
270.30834000000078
  0
ARC
  5
9155
  8
AM_0
 10
94.07005704080747
 20
550.36756005667189
 30
0.0
 40
1.3300049999999981
 50
90.00000299999769
 51
270.0
  0
ARC
  5
9156
  8
AM_0
 10
95.284657040807474
 20
570.37757005667163
 30
0.0
 40
1.000013899999999
 50
89.691659999999231
 51
270.30834000000078
  0
ARC
  5
9157
  8
AM_0
 10
94.004197040807455
 20
570.38257005667185
 30
0.0
 40
1.2650129999999991
 50
89.735579000001778
 51
270.26441000000239
  0
POLYLINE
  5
9158
  8
AM_0
 66
     1
 10
0.0
 20
0.0
 30
0.0
  0
VERTEX
  5
9159
  8
AM_0
 10
95.100027040807518
 20
565.37757005667163
 30
0.0
 42
-0.00039106649
  0
VERTEX
  5
915A
  8
AM_0
 10
95.097667040807437
 20
565.68870005667191
 30
0.0
 42
-0.00035488198
  0
VERTEX
  5
915B
  8
AM_0
 10
95.095777040807448
 20
565.99981005667155
 30
0.0
 42
-0.00039706113
  0
VERTEX
  5
915C
  8
AM_0
 10
95.094347040807435
 20
566.31092005667188
 30
0.0
 42
-0.00038765718
  0
VERTEX
  5
915D
  8
AM_0
 10
95.093417040807395
 20
566.6220600566719
 30
0.0
 42
-0.00040613432
  0
VERTEX
  5
915E
  8
AM_0
 10
95.092967040807395
 20
566.93316005667157
 30
0.0
 42
-0.00035573434
  0
VERTEX
  5
915F
  8
AM_0
 10
95.093007040807521
 20
567.24427005667167
 30
0.0
 42
-0.00038545884
  0
VERTEX
  5
9160
  8
AM_0
 10
95.093497040807421
 20
567.55540005667194
 30
0.0
 42
-0.00035501205
  0
VERTEX
  5
9161
  8
AM_0
 10
95.094457040807455
 20
567.86651005667193
 30
0.0
 42
-0.00040120779
  0
VERTEX
  5
9162
  8
AM_0
 10
95.095877040807409
 20
568.17774005667195
 30
0.0
 42
-0.00038317817
  0
VERTEX
  5
9163
  8
AM_0
 10
95.097787040807489
 20
568.48887005667189
 30
0.0
 42
-0.00035656084
  0
VERTEX
  5
9164
  8
AM_0
 10
95.100167040807406
 20
568.80011005667188
 30
0.0
 42
-0.00040143615
  0
VERTEX
  5
9165
  8
AM_0
 10
95.103017040807472
 20
569.11121005667178
 30
0.0
  0
SEQEND
  5
9166
  8
AM_0
  0
POLYLINE
  5
9167
  8
AM_0
 66
     1
 10
0.0
 20
0.0
 30
0.0
  0
VERTEX
  5
9168
  8
AM_0
 10
95.100027040807518
 20
565.37757005667163
 30
0.0
 42
0.00039106589
  0
VERTEX
  5
9169
  8
AM_0
 10
95.097667040807437
 20
565.06643005667195
 30
0.0
 42
0.00035488584
  0
VERTEX
  5
916A
  8
AM_0
 10
95.095777040807448
 20
564.75532005667185
 30
0.0
 42
0.00039705232
  0
VERTEX
  5
916B
  8
AM_0
 10
95.094347040807435
 20
564.44422005667195
 30
0.0
 42
0.0003876649
  0
VERTEX
  5
916C
  8
AM_0
 10
95.093417040807395
 20
564.13308005667193
 30
0.0
 42
0.00040613779
  0
VERTEX
  5
916D
  8
AM_0
 10
95.092967040807395
 20
563.82197005667194
 30
0.0
 42
0.00035571855
  0
VERTEX
  5
916E
  8
AM_0
 10
95.093007040807521
 20
563.51087005667193
 30
0.0
 42
0.00038547358
  0
VERTEX
  5
916F
  8
AM_0
 10
95.093497040807421
 20
563.1997300566718
 30
0.0
 42
0.000355015
  0
VERTEX
  5
9170
  8
AM_0
 10
95.094457040807455
 20
562.88863005667167
 30
0.0
 42
0.00040118616
  0
VERTEX
  5
9171
  8
AM_0
 10
95.095877040807409
 20
562.57740005667176
 30
0.0
 42
0.00038319867
  0
VERTEX
  5
9172
  8
AM_0
 10
95.097787040807489
 20
562.26626005667185
 30
0.0
 42
0.00035656356
  0
VERTEX
  5
9173
  8
AM_0
 10
95.100167040807406
 20
561.95503005667183
 30
0.0
 42
0.00040140992
  0
VERTEX
  5
9174
  8
AM_0
 10
95.103017040807472
 20
561.64392005667185
 30
0.0
  0
SEQEND
  5
9175
  8
AM_0
  0
POLYLINE
  5
9176
  8
AM_0
 66
     1
 10
0.0
 20
0.0
 30
0.0
  0
VERTEX
  5
9177
  8
AM_0
 10
95.144087040807477
 20
571.64795005667179
 30
0.0
 42
-0.00076691992
  0
VERTEX
  5
9178
  8
AM_0
 10
95.1588870408074
 20
572.26572005667185
 30
0.0
 42
-0.00073262792
  0
VERTEX
  5
9179
  8
AM_0
 10
95.175527040807438
 20
572.88331005667192
 30
0.0
 42
-0.00076529537
  0
VERTEX
  5
917A
  8
AM_0
 10
95.194017040807381
 20
573.50098005667155
 30
0.0
 42
-0.00075141097
  0
VERTEX
  5
917B
  8
AM_0
 10
95.214387040807424
 20
574.11858005667193
 30
0.0
 42
-0.00075841687
  0
VERTEX
  5
917C
  8
AM_0
 10
95.236617040807474
 20
574.73601005667194
 30
0.0
 42
-0.00075711788
  0
VERTEX
  5
917D
  8
AM_0
 10
95.260727040807438
 20
575.35352005667187
 30
0.0
 42
-0.00075976003
  0
VERTEX
  5
917E
  8
AM_0
 10
95.286717040807403
 20
575.97091005667176
 30
0.0
 42
-0.00075797311
  0
VERTEX
  5
917F
  8
AM_0
 10
95.3145570408075
 20
576.58819005667192
 30
0.0
 42
-0.0007482613
  0
VERTEX
  5
9180
  8
AM_0
 10
95.344287040807473
 20
577.20557005667195
 30
0.0
 42
-0.00074893561
  0
VERTEX
  5
9181
  8
AM_0
 10
95.375847040807344
 20
577.82270005667192
 30
0.0
 42
-0.00076039839
  0
VERTEX
  5
9182
  8
AM_0
 10
95.409267040807464
 20
578.43973005667192
 30
0.0
 42
-0.00075618786
  0
VERTEX
  5
9183
  8
AM_0
 10
95.44456704080747
 20
579.05677005667167
 30
0.0
  0
SEQEND
  5
9184
  8
AM_0
  0
ARC
  5
9185
  8
AM_0
 10
95.284657040807474
 20
580.37757005667163
 30
0.0
 40
1.000013899999999
 50
89.691659999999231
 51
270.30834000000078
  0
ARC
  5
9186
  8
AM_0
 10
94.07005704080747
 20
580.38758005667194
 30
0.0
 40
1.3300049999999981
 50
90.00000299999769
 51
270.0
  0
ARC
  5
9187
  8
AM_0
 10
130.46696704080739
 20
560.37757005667186
 30
0.0
 40
1.2700266
 50
269.62931999999989
 51
90.370670000004722
  0
ARC
  5
9188
  8
AM_0
 10
129.1787570408074
 20
560.37757005667186
 30
0.0
 40
1.0000056999999991
 50
269.999989999999
 51
90.00000299999769
  0
ARC
  5
9189
  8
AM_0
 10
130.40501704080739
 20
550.36756005667189
 30
0.0
 40
1.3300148000000001
 50
269.72941999999853
 51
90.270567000000995
  0
ARC
  5
918A
  8
AM_0
 10
129.1787570408074
 20
550.37757005667163
 30
0.0
 40
1.0000056999999991
 50
269.999989999999
 51
90.00000299999769
  0
ARC
  5
918B
  8
AM_0
 10
130.40501704080739
 20
580.39258005667193
 30
0.0
 40
1.3350147999999991
 50
269.73042999999973
 51
90.269556000001344
  0
ARC
  5
918C
  8
AM_0
 10
130.46696704080739
 20
570.38758005667194
 30
0.0
 40
1.2700266
 50
269.62931999999989
 51
90.370670000004722
  0
ARC
  5
918D
  8
AM_0
 10
129.1787570408074
 20
570.37757005667163
 30
0.0
 40
1.0000056999999991
 50
269.999989999999
 51
90.00000299999769
  0
ARC
  5
918E
  8
AM_0
 10
129.1787570408074
 20
580.37757005667163
 30
0.0
 40
1.0000056999999991
 50
269.999989999999
 51
90.00000299999769
  0
CIRCLE
  5
918F
  8
AM_0
 10
173.24003704080741
 20
536.87757005667163
 30
0.0
 40
1.0
  0
LINE
  5
9190
  8
AM_0
 10
178.24003704080741
 20
537.87757005667163
 30
0.0
 11
178.24003704080741
 21
532.87757005667163
 31
0.0
  0
LINE
  5
9191
  8
AM_0
 10
178.72001704080739
 20
537.87757005667163
 30
0.0
 11
178.72001704080739
 21
533.01758005667182
 31
0.0
  0
CIRCLE
  5
9192
  8
AM_0
 10
168.24003704080741
 20
536.87757005667163
 30
0.0
 40
1.1000000000000001
  0
CIRCLE
  5
9193
  8
AM_0
 10
168.24003704080741
 20
536.87757005667163
 30
0.0
 40
1.149999999999999
  0
LINE
  5
9194
  8
AM_0
 10
162.7600570408074
 20
537.87757005667163
 30
0.0
 11
162.7600570408074
 21
533.01758005667182
 31
0.0
  0
LINE
  5
9195
  8
AM_0
 10
163.24003704080741
 20
537.87757005667163
 30
0.0
 11
163.24003704080741
 21
532.87757005667163
 31
0.0
  0
ARC
  5
9196
  8
AM_0
 10
179.74003704080741
 20
532.87757005667163
 30
0.0
 40
1.5
 50
179.99998999999889
 51
270.0
  0
LINE
  5
9197
  8
AM_0
 10
149.74003704080741
 20
528.65760005667175
 30
0.0
 11
197.5600470408074
 21
528.65760005667175
 31
0.0
  0
LINE
  5
9198
  8
AM_0
 10
194.08006704080739
 20
529.37757005667163
 30
0.0
 11
149.74003704080741
 21
529.37757005667163
 31
0.0
  0
LINE
  5
9199
  8
AM_0
 10
194.08006704080739
 20
531.37757005667163
 30
0.0
 11
149.74003704080741
 21
531.37757005667163
 31
0.0
  0
LINE
  5
919A
  8
AM_0
 10
186.51732573823341
 20
495.8775700566718
 30
0.0
 11
175.8421994723864
 21
495.8775700566718
 31
0.0
  0
LINE
  5
919B
  8
AM_0
 10
175.8421994723864
 20
495.8775700566718
 30
0.0
 11
168.64219947238641
 21
495.8775700566718
 31
0.0
  0
ARC
  5
919C
  8
AM_0
 10
161.74003704080741
 20
532.87757005667163
 30
0.0
 40
1.5
 50
269.999989999999
 51
0.0000006832495047
  0
ARC
  5
919D
  8
AM_0
 10
161.7600570408074
 20
533.01758005667182
 30
0.0
 40
1.0
 50
269.999989999999
 51
0.0000006832495047
  0
LINE
  5
919E
  8
AM_0
 10
198.9457270408075
 20
526.05863005667186
 30
0.0
 11
194.79997704080739
 21
510.5775200566718
 31
0.0
  0
ARC
  5
919F
  8
AM_0
 10
192.7562170408074
 20
504.3775700566718
 30
0.0
 40
1.5
 50
269.999989999999
 51
326.99999999999801
  0
ARC
  5
91A0
  8
AM_0
 10
192.86521704080741
 20
511.10230005667182
 30
0.0
 40
2.0047290000000002
 50
270.13832000000423
 51
344.82650000000177
  0
LINE
  5
91A1
  8
AM_0
 10
199.74003704080741
 20
512.37754005667182
 30
0.0
 11
194.01423704080739
 21
503.56058005667182
 31
0.0
  0
LINE
  5
91A2
  8
AM_0
 10
179.74003704080741
 20
498.37751005667178
 30
0.0
 11
180.02077616387061
 21
509.09754005667168
 31
0.0
  0
LINE
  5
91A3
  8
AM_0
 10
181.31911772659251
 20
502.8775700566718
 30
0.0
 11
192.7562170408074
 21
502.8775700566718
 31
0.0
  0
LINE
  5
91A4
  8
AM_0
 10
183.24003704080741
 20
495.8775700566718
 30
0.0
 11
183.24003704080741
 21
498.3775700566718
 31
0.0
  0
ARC
  5
91A5
  8
AM_0
 10
181.31911772659251
 20
501.3775700566718
 30
0.0
 40
1.5
 50
90.0
 51
178.4998650936468
1001
GENIUS_GENODEF_13
1002
{
1000
HIER
1070
     0
1002
}
1002
{
1000
MANEDIT
1070
     0
1002
}
1002
{
1000
NOSEL
1070
     0
1002
}
1002
{
1000
BEHIND
1070
     0
1002
}
1002
{
1000
REACTOR
1002
}
1001
GENIUS_GENOBJ-N-FIL_13
1002
{
1000
OWNER
1000
GEN
1002
}
  0
ARC
  5
91A6
  8
AM_0
 10
186.51732573823341
 20
494.8775700566718
 30
0.0
 40
1.0
 50
0.0
 51
90.0
  0
LINE
  5
91A7
  8
AM_0
 10
200.74003704080741
 20
509.3775700566718
 30
0.0
 11
208.74003704080741
 21
509.3775700566718
 31
0.0
  0
LINE
  5
91A8
  8
AM_0
 10
195.2820870408074
 20
512.37757005667163
 30
0.0
 11
200.74003704080741
 21
512.37757005667163
 31
0.0
  0
ARC
  5
91A9
  8
AM_0
 10
194.08006704080739
 20
530.37757005667163
 30
0.0
 40
1.0
 50
269.999989999999
 51
90.00000299999769
  0
LINE
  5
91AA
  8
AM_0
 10
197.5600470408074
 20
532.00757005667185
 30
0.0
 11
179.72001704080739
 21
532.00757005667185
 31
0.0
  0
ARC
  5
91AB
  8
AM_0
 10
179.72001704080739
 20
533.01758005667182
 30
0.0
 40
1.0
 50
179.99998999999889
 51
270.0
  0
ARC
  5
91AC
  8
AM_0
 10
200.39323704080741
 20
525.6547900566718
 30
0.0
 40
1.502775999999999
 50
90.122413000001615
 51
165.2435700000006
  0
LINE
  5
91AD
  8
AM_0
 10
200.74003704080741
 20
519.37757005667163
 30
0.0
 11
208.74003704080741
 21
519.37757005667163
 31
0.0
  0
LINE
  5
91AE
  8
AM_0
 10
200.74003704080741
 20
533.43763005667165
 30
0.0
 11
208.74003704080741
 21
533.43763005667165
 31
0.0
  0
ARC
  5
91AF
  8
AM_0
 10
197.5600470408074
 20
530.33252005667168
 30
0.0
 40
1.6750020000000001
 50
269.999989999999
 51
90.00000299999769
  0
ARC
  5
91B0
  8
AM_0
 10
179.74003704080741
 20
537.87757005667163
 30
0.0
 40
1.5
 50
90.00000299999769
 51
180.00001000000091
  0
ARC
  5
91B1
  8
AM_0
 10
161.74003704080741
 20
537.87757005667163
 30
0.0
 40
1.02
 50
0.0
 51
90.00000299999769
  0
ARC
  5
91B2
  8
AM_0
 10
161.74003704080741
 20
537.87757005667163
 30
0.0
 40
1.5
 50
0.0
 51
90.00000299999769
  0
ARC
  5
91B3
  8
AM_0
 10
194.0800070408074
 20
540.37757005667163
 30
0.0
 40
1.0000255999999981
 50
269.58947000000319
 51
90.410530999997775
  0
LINE
  5
91B4
  8
AM_0
 10
179.74003704080741
 20
538.89759005667179
 30
0.0
 11
197.7742770408075
 21
538.89759005667179
 31
0.0
  0
LINE
  5
91B5
  8
AM_0
 10
194.07286704080741
 20
539.37757005667186
 30
0.0
 11
179.74003704080741
 21
539.37757005667186
 31
0.0
  0
ARC
  5
91B6
  8
AM_0
 10
179.74003704080741
 20
537.87757005667163
 30
0.0
 40
1.02
 50
90.00000299999769
 51
180.00001000000091
  0
ARC
  5
91B7
  8
AM_0
 10
197.78001704080739
 20
540.34754005667185
 30
0.0
 40
1.460011199999999
 50
269.77524999999662
 51
90.224749999996845
  0
LINE
  5
91B8
  8
AM_0
 10
59.740037040807493
 20
624.12757005667163
 30
0.0
 11
84.740037040807479
 21
624.12757005667163
 31
0.0
  0
LINE
  5
91B9
  8
AM_0
 10
36.740037040807501
 20
618.12757005667163
 30
0.0
 11
84.740037040807479
 21
618.12757005667163
 31
0.0
  0
LINE
  5
91BA
  8
AM_0
 10
75.740037040807479
 20
625.37757005667163
 30
0.0
 11
75.740037040807479
 21
630.37757005667163
 31
0.0
  0
LINE
  5
91BB
  8
AM_0
 10
72.740037040807465
 20
624.12757005667163
 30
0.0
 11
72.740037040807465
 21
630.37757005667163
 31
0.0
  0
LINE
  5
91BC
  8
AM_0
 10
62.740037040807493
 20
624.12757005667163
 30
0.0
 11
62.740037040807493
 21
630.37757005667163
 31
0.0
  0
ARC
  5
91BD
  8
AM_0
 10
38.238606940807443
 20
621.37757005667163
 30
0.0
 40
9.0
 50
89.999988999997569
 51
179.99997999999781
  0
LINE
  5
91BE
  8
AM_0
 10
39.238606940807443
 20
625.37757005667163
 30
0.0
 11
62.740037040807493
 21
625.37757005667163
 31
0.0
  0
LINE
  5
91BF
  8
AM_0
 10
37.240037040807493
 20
599.01856005667162
 30
0.0
 11
79.740037040807479
 21
599.01856005667162
 31
0.0
  0
LINE
  5
91C0
  8
AM_0
 10
37.240037040807493
 20
609.26856005667162
 30
0.0
 11
79.740037040807479
 21
609.26856005667162
 31
0.0
  0
LINE
  5
91C1
  8
AM_0
 10
32.640067040807388
 20
602.76856005667162
 30
0.0
 11
32.640067040807388
 21
605.76856005667162
 31
0.0
  0
LINE
  5
91C2
  8
AM_0
 10
35.9400470408074
 20
599.66859005667175
 30
0.0
 11
35.9400470408074
 21
608.86854005667146
 31
0.0
  0
ARC
  5
91C3
  8
AM_0
 10
35.640067040807388
 20
602.76856005667162
 30
0.0
 40
3.0
 50
180.00002000000191
 51
270.00001100000242
  0
LINE
  5
91C4
  8
AM_0
 10
35.640067040807388
 20
599.76856005667162
 30
0.0
 11
35.9400470408074
 21
599.76856005667162
 31
0.0
  0
LINE
  5
91C5
  8
AM_0
 10
35.9400470408074
 20
599.66859005667175
 30
0.0
 11
37.240037040807493
 21
599.66859005667175
 31
0.0
  0
ARC
  5
91C6
  8
AM_0
 10
36.740037040807501
 20
616.12757005667163
 30
0.0
 40
2.0
 50
90.000049999998538
 51
180.00002000000191
  0
ARC
  5
91C7
  8
AM_0
 10
39.238606940807443
 20
620.37757005667163
 30
0.0
 40
5.0
 50
89.999988999997569
 51
180.0
  0
ARC
  5
91C8
  8
AM_0
 10
35.640067040807388
 20
605.76856005667162
 30
0.0
 40
3.0
 50
90.000049999998538
 51
180.00002000000191
  0
LINE
  5
91C9
  8
AM_0
 10
34.23860694080745
 20
608.42108896096431
 30
0.0
 11
34.23860694080745
 21
620.37757005667163
 31
0.0
  0
LINE
  5
91CA
  8
AM_0
 10
34.740037040807493
 20
608.63050005667162
 30
0.0
 11
34.740037040807493
 21
616.12757005667163
 31
0.0
  0
LINE
  5
91CB
  8
AM_0
 10
35.640067040807388
 20
608.7685600566715
 30
0.0
 11
35.9400470408074
 21
608.7685600566715
 31
0.0
  0
LINE
  5
91CC
  8
AM_0
 10
35.9400470408074
 20
608.86854005667146
 30
0.0
 11
37.240037040807493
 21
608.86854005667146
 31
0.0
  0
LINE
  5
91CD
  8
AM_0
 10
59.740037040807493
 20
624.12757005667163
 30
0.0
 11
59.740037040807493
 21
618.12757005667163
 31
0.0
  0
LINE
  5
91CE
  8
AM_0
 10
79.740037040807479
 20
609.26856005667162
 30
0.0
 11
79.740037040807479
 21
618.12757005667163
 31
0.0
  0
LINE
  5
91CF
  8
AM_0
 10
72.740037040807465
 20
625.37757005667163
 30
0.0
 11
75.740037040807479
 21
625.37757005667163
 31
0.0
  0
LINE
  5
91D0
  8
AM_0
 10
38.238606940807443
 20
630.37757005667163
 30
0.0
 11
75.740037040807479
 21
630.37757005667163
 31
0.0
  0
LINE
  5
91D1
  8
AM_0
 10
96.030017040807394
 20
627.2675800566717
 30
0.0
 11
192.8701070408074
 21
627.2675800566717
 31
0.0
  0
LINE
  5
91D2
  8
AM_0
 10
96.010057040807425
 20
626.35755005667193
 30
0.0
 11
192.87004704080741
 21
626.35755005667193
 31
0.0
  0
LINE
  5
91D3
  8
AM_0
 10
95.990037040807479
 20
624.50757005667163
 30
0.0
 11
192.87004704080741
 21
624.50757005667163
 31
0.0
  0
LINE
  5
91D4
  8
AM_0
 10
95.950057040807465
 20
621.65760005667175
 30
0.0
 11
192.87004704080741
 21
621.65760005667175
 31
0.0
  0
LINE
  5
91D5
  8
AM_0
 10
94.200057040807479
 20
588.93763005667165
 30
0.0
 11
197.7742770408075
 21
588.93763005667165
 31
0.0
  0
LINE
  5
91D6
  8
AM_0
 10
194.07286704080741
 20
589.37757005667186
 30
0.0
 11
95.100027040807518
 21
589.37757005667186
 31
0.0
  0
LINE
  5
91D7
  8
AM_0
 10
161.74003704080741
 20
591.37757005667152
 30
0.0
 11
95.100027040807518
 21
591.37757005667152
 31
0.0
  0
LINE
  5
91D8
  8
AM_0
 10
94.200057040807479
 20
591.86756005667189
 30
0.0
 11
161.74003704080741
 21
591.86756005667189
 31
0.0
  0
LINE
  5
91D9
  8
AM_0
 10
94.420027040807469
 20
602.09754005667185
 30
0.0
 11
197.5600470408074
 21
602.09754005667185
 31
0.0
  0
LINE
  5
91DA
  8
AM_0
 10
194.08006704080739
 20
599.37757005667163
 30
0.0
 11
95.100027040807518
 21
599.37757005667163
 31
0.0
  0
LINE
  5
91DB
  8
AM_0
 10
194.08006704080739
 20
601.37757005667163
 30
0.0
 11
95.100027040807518
 21
601.37757005667163
 31
0.0
  0
LINE
  5
91DC
  8
AM_0
 10
94.420027040807469
 20
598.74756005667177
 30
0.0
 11
161.7600570408074
 21
598.74756005667177
 31
0.0
  0
ARC
  5
91DD
  8
AM_0
 10
96.004627040807463
 20
624.3608400566718
 30
0.0
 40
1.9967330000000001
 50
89.843966999998912
 51
171.45387999999721
  0
ARC
  5
91DE
  8
AM_0
 10
96.02653704080744
 20
625.27198005667151
 30
0.0
 40
1.995633
 50
89.899708000002292
 51
172.06112999999959
  0
LINE
  5
91DF
  8
AM_0
 10
98.100027040807504
 20
602.02756005667175
 30
0.0
 11
92.740037040807465
 21
613.47754005667196
 31
0.0
  0
POLYLINE
  5
91E0
  8
AM_0
 66
     1
 10
0.0
 20
0.0
 30
0.0
  0
VERTEX
  5
91E1
  8
AM_0
 10
96.600937040807494
 20
591.86060005667196
 30
0.0
 42
-0.00068898288
  0
VERTEX
  5
91E2
  8
AM_0
 10
96.671817040807383
 20
592.43535005667195
 30
0.0
 42
-0.00070644354
  0
VERTEX
  5
91E3
  8
AM_0
 10
96.744317040807474
 20
593.01004005667176
 30
0.0
 42
-0.00069248071
  0
VERTEX
  5
91E4
  8
AM_0
 10
96.818407040807443
 20
593.58435005667195
 30
0.0
 42
-0.00069585665
  0
VERTEX
  5
91E5
  8
AM_0
 10
96.894087040807463
 20
594.15849005667167
 30
0.0
 42
-0.00068980191
  0
VERTEX
  5
91E6
  8
AM_0
 10
96.971387040807414
 20
594.73249005667185
 30
0.0
 42
-0.00072080104
  0
VERTEX
  5
91E7
  8
AM_0
 10
97.050277040807515
 20
595.30628005667165
 30
0.0
 42
-0.00071002307
  0
VERTEX
  5
91E8
  8
AM_0
 10
97.130817040807443
 20
595.87975005667192
 30
0.0
 42
-0.00072659056
  0
VERTEX
  5
91E9
  8
AM_0
 10
97.212977040807473
 20
596.45285005667188
 30
0.0
 42
-0.00069570481
  0
VERTEX
  5
91EA
  8
AM_0
 10
97.296797040807434
 20
597.02588005667178
 30
0.0
 42
-0.00071266935
  0
VERTEX
  5
91EB
  8
AM_0
 10
97.382227040807535
 20
597.59865005667189
 30
0.0
 42
-0.00071614426
  0
VERTEX
  5
91EC
  8
AM_0
 10
97.469257040807435
 20
598.17099005667194
 30
0.0
 42
-0.00072288975
  0
VERTEX
  5
91ED
  8
AM_0
 10
97.557967040807441
 20
598.74329005667187
 30
0.0
  0
SEQEND
  5
91EE
  8
AM_0
  0
ARC
  5
91EF
  8
AM_0
 10
95.284657040807474
 20
590.37757005667163
 30
0.0
 40
1.000013899999999
 50
89.691659999999231
 51
270.30834000000078
  0
ARC
  5
91F0
  8
AM_0
 10
94.200057040807479
 20
590.40259005667167
 30
0.0
 40
1.465004
 50
90.00000299999769
 51
270.0
  0
ARC
  5
91F1
  8
AM_0
 10
94.412647040807443
 20
600.42261005667194
 30
0.0
 40
1.6750160000000001
 50
89.746145000004447
 51
270.25387000000092
  0
ARC
  5
91F2
  8
AM_0
 10
95.284657040807474
 20
600.37757005667163
 30
0.0
 40
1.000013899999999
 50
89.691659999999231
 51
270.30834000000078
  0
LINE
  5
91F3
  8
AM_0
 10
92.740037040807465
 20
613.47760005667192
 30
0.0
 11
93.980027040807514
 21
620.03757005667194
 31
0.0
  0
LINE
  5
91F4
  8
AM_0
 10
92.740037040807465
 20
614.81760005667195
 30
0.0
 11
94.020007040807414
 21
622.82755005667161
 31
0.0
  0
LINE
  5
91F5
  8
AM_0
 10
85.440047040807372
 20
608.56751005667195
 30
0.0
 11
91.670027040807497
 21
608.56751005667195
 31
0.0
  0
LINE
  5
91F6
  8
AM_0
 10
84.740037040807479
 20
618.37757005667186
 30
0.0
 11
92.740037040807465
 21
618.37757005667186
 31
0.0
  0
ARC
  5
91F7
  8
AM_0
 10
95.938767040807477
 20
619.66346005667162
 30
0.0
 40
1.994108999999999
 50
89.675548000002749
 51
169.18776999999869
  0
LINE
  5
91F8
  8
AM_0
 10
92.740037040807465
 20
616.1675800566718
 30
0.0
 11
94.050037040807453
 21
625.54761005667194
 31
0.0
  0
LINE
  5
91F9
  8
AM_0
 10
92.740037040807465
 20
616.1675800566718
 30
0.0
 11
94.030017040807394
 21
624.65754005667191
 31
0.0
  0
ARC
  5
91FA
  8
AM_0
 10
95.990287040807402
 20
622.51233005667177
 30
0.0
 40
1.995282999999999
 50
90.006203999996856
 51
170.90835000000069
  0
ARC
  5
91FB
  8
AM_0
 10
192.86521704080741
 20
624.35279005667189
 30
0.0
 40
2.0047290000000002
 50
15.173495999996319
 51
89.861678000000197
  0
ARC
  5
91FC
  8
AM_0
 10
192.86521704080741
 20
625.2628200566719
 30
0.0
 40
2.0047290000000002
 50
15.173495999996319
 51
89.861678000000197
  0
ARC
  5
91FD
  8
AM_0
 10
179.74003704080741
 20
597.87757005667186
 30
0.0
 40
1.5
 50
90.00000299999769
 51
180.00001000000091
  0
ARC
  5
91FE
  8
AM_0
 10
179.74003704080741
 20
592.87757005667163
 30
0.0
 40
1.5
 50
179.99998999999889
 51
270.0
  0
ARC
  5
91FF
  8
AM_0
 10
161.74003704080741
 20
597.87757005667186
 30
0.0
 40
1.5
 50
0.0
 51
90.00000299999769
  0
ARC
  5
9200
  8
AM_0
 10
161.7600570408074
 20
597.73755005667192
 30
0.0
 40
1.0
 50
0.0
 51
90.00000299999769
  0
ARC
  5
9201
  8
AM_0
 10
161.74003704080741
 20
592.87757005667163
 30
0.0
 40
1.02
 50
269.999989999999
 51
0.0000006832429909
  0
ARC
  5
9202
  8
AM_0
 10
161.74003704080741
 20
592.87757005667163
 30
0.0
 40
1.5
 50
269.999989999999
 51
0.0000006832495047
  0
CIRCLE
  5
9203
  8
AM_0
 10
173.24003704080741
 20
593.87757005667163
 30
0.0
 40
1.0
  0
LINE
  5
9204
  8
AM_0
 10
162.7600570408074
 20
592.87757005667163
 30
0.0
 11
162.7600570408074
 21
597.73755005667192
 31
0.0
  0
LINE
  5
9205
  8
AM_0
 10
163.24003704080741
 20
592.87757005667163
 30
0.0
 11
163.24003704080741
 21
597.87757005667186
 31
0.0
  0
CIRCLE
  5
9206
  8
AM_0
 10
168.24003704080741
 20
593.87757005667163
 30
0.0
 40
1.149999999999999
  0
CIRCLE
  5
9207
  8
AM_0
 10
168.24003704080741
 20
593.87757005667163
 30
0.0
 40
1.1000000000000001
  0
ARC
  5
9208
  8
AM_0
 10
200.39323704080741
 20
605.10035005667191
 30
0.0
 40
1.502775999999999
 50
194.7564299999992
 51
269.8775799999986
  0
ARC
  5
9209
  8
AM_0
 10
194.0800070408074
 20
590.37757005667163
 30
0.0
 40
1.0000255999999981
 50
269.58947000000319
 51
90.410530999997775
  0
ARC
  5
920A
  8
AM_0
 10
194.08006704080739
 20
600.37757005667163
 30
0.0
 40
1.0
 50
269.999989999999
 51
90.00000299999769
  0
LINE
  5
920B
  8
AM_0
 10
179.74003704080741
 20
591.86756005667189
 30
0.0
 11
197.78569704080741
 21
591.86756005667189
 31
0.0
  0
LINE
  5
920C
  8
AM_0
 10
194.08720704080741
 20
591.37757005667152
 30
0.0
 11
179.74003704080741
 21
591.37757005667152
 31
0.0
  0
LINE
  5
920D
  8
AM_0
 10
179.72001704080739
 20
598.73755005667158
 30
0.0
 11
197.5600470408074
 21
598.73755005667158
 31
0.0
  0
LINE
  5
920E
  8
AM_0
 10
178.24003704080741
 20
592.87757005667163
 30
0.0
 11
178.24003704080741
 21
597.87757005667186
 31
0.0
  0
LINE
  5
920F
  8
AM_0
 10
178.72001704080739
 20
592.87757005667163
 30
0.0
 11
178.72001704080739
 21
597.73755005667192
 31
0.0
  0
ARC
  5
9210
  8
AM_0
 10
179.74003704080741
 20
592.87757005667163
 30
0.0
 40
1.02
 50
179.99998999999889
 51
270.0
  0
ARC
  5
9211
  8
AM_0
 10
179.72001704080739
 20
597.73755005667192
 30
0.0
 40
1.0
 50
90.00000299999769
 51
180.00001000000091
  0
ARC
  5
9212
  8
AM_0
 10
197.78001704080739
 20
590.40760005667175
 30
0.0
 40
1.460011199999999
 50
269.77524999999662
 51
90.224749999996845
  0
LINE
  5
9213
  8
AM_0
 10
200.74003704080741
 20
597.31751005667195
 30
0.0
 11
208.74003704080741
 21
597.31751005667195
 31
0.0
  0
ARC
  5
9214
  8
AM_0
 10
197.5600470408074
 20
600.42261005667194
 30
0.0
 40
1.6750020000000001
 50
269.999989999999
 51
90.00000299999769
  0
ARC
  5
9215
  8
AM_0
 10
192.86521704080741
 20
622.50281005667148
 30
0.0
 40
2.0047290000000002
 50
15.173495999996319
 51
89.861678000000197
  0
ARC
  5
9216
  8
AM_0
 10
192.8701070408074
 20
619.65931005667176
 30
0.0
 40
1.9982919999999991
 50
15.032547999996
 51
90.002632000001341
  0
LINE
  5
9217
  8
AM_0
 10
198.9457870408074
 20
610.30640005667181
 30
0.0
 11
194.80006704080739
 21
625.78751005667175
 31
0.0
  0
LINE
  5
9218
  8
AM_0
 10
198.94575704080739
 20
609.39640005667195
 30
0.0
 11
194.80003704080741
 21
624.87751005667155
 31
0.0
  0
LINE
  5
9219
  8
AM_0
 10
198.94575704080739
 20
607.54642005667176
 30
0.0
 11
194.80003704080741
 21
623.02756005667175
 31
0.0
  0
LINE
  5
921A
  8
AM_0
 10
198.9400470408074
 20
604.71750005667161
 30
0.0
 11
194.80003704080741
 21
620.17752005667194
 31
0.0
  0
LINE
  5
921B
  8
AM_0
 10
200.74003704080741
 20
611.37757005667163
 30
0.0
 11
208.74003704080741
 21
611.37757005667163
 31
0.0
  0
ARC
  5
921C
  8
AM_0
 10
200.39323704080741
 20
610.71033005667175
 30
0.0
 40
1.502775999999999
 50
194.7564299999992
 51
269.8775799999986
  0
ARC
  5
921D
  8
AM_0
 10
200.39323704080741
 20
607.9503200566719
 30
0.0
 40
1.502775999999999
 50
194.7564299999992
 51
269.8775799999986
  0
ARC
  5
921E
  8
AM_0
 10
200.39323704080741
 20
609.80030005667163
 30
0.0
 40
1.502775999999999
 50
194.7564299999992
 51
269.8775799999986
  0
LINE
  5
921F
  8
AM_0
 10
200.74003704080741
 20
621.37757005667163
 30
0.0
 11
208.74003704080741
 21
621.37757005667163
 31
0.0
  0
LINE
  5
9220
  8
AM_0
 10
195.28001704080739
 20
618.37757005667186
 30
0.0
 11
200.74003704080741
 21
618.37757005667186
 31
0.0
  0
LINE
  5
9222
  8
ﾁｭｳｼﾝｾﾝ
 10
426.24016704080731
 20
680.37757005667163
 30
0.0
 11
456.24016704080731
 21
680.37757005667163
 31
0.0
  0
LINE
  5
9224
  8
ﾁｭｳｼﾝｾﾝ
 10
441.24016704080719
 20
695.37757005667163
 30
0.0
 11
441.24016704080719
 21
665.37757005667163
 31
0.0
  0
LINE
  5
9232
  8
ﾁｭｳｼﾝｾﾝ
 10
291.24016704080742
 20
695.37757005667163
 30
0.0
 11
291.24016704080742
 21
665.37757005667163
 31
0.0
  0
LINE
  5
9233
  8
ﾁｭｳｼﾝｾﾝ
 10
276.24016704080742
 20
680.37757005667163
 30
0.0
 11
306.24016704080742
 21
680.37757005667163
 31
0.0
  0
LINE
  5
923A
  8
ﾁｭｳｼﾝｾﾝ
 10
441.24016704080719
 20
465.3775700566718
 30
0.0
 11
441.24016704080719
 21
435.37757005667191
 31
0.0
  0
LINE
  5
923B
  8
ﾁｭｳｼﾝｾﾝ
 10
426.24016704080731
 20
450.3775700566718
 30
0.0
 11
456.24016704080731
 21
450.3775700566718
 31
0.0
  0
LINE
  5
9242
  8
ﾁｭｳｼﾝｾﾝ
 10
291.24016704080742
 20
465.3775700566718
 30
0.0
 11
291.24016704080742
 21
435.37757005667191
 31
0.0
  0
LINE
  5
9243
  8
ﾁｭｳｼﾝｾﾝ
 10
276.24016704080742
 20
450.3775700566718
 30
0.0
 11
306.24016704080742
 21
450.3775700566718
 31
0.0
  0
TEXT
  5
983D
  8
0
  6
CONTINUOUS
 62
     0
 10
678.93923749982389
 20
518.42299696331634
 30
0.0
 40
15.0
  1
VX02-800B~VX02-K20B
  0
VIEWPORT
  5
89
 67
     1
  8
0
 10
210.0
 20
148.5
 30
0.0
 40
420.0
 41
297.0
 68
    -1
 69
     1
1001
ACAD
1000
MVIEW
1002
{
1070
    16
1010
0.0
1020
0.0
1030
0.0
1010
0.0
1020
0.0
1030
1.0
1040
0.0
1040
297.0
1040
221.70154043645701
1040
148.5
1040
50.0
1040
0.0
1040
0.0
1070
     0
1070
   100
1070
     1
1070
     1
1070
     0
1070
     0
1070
     0
1070
     0
1040
0.0
1040
0.0
1040
0.0
1040
10.0
1040
10.0
1040
10.0
1040
10.0
1070
     0
1002
{
1002
}
1002
}
1001
GENIUS_GENOREF_13
1005
1B94
1001
GENIUS_GENSCREG_15
1000
PF
1040
1.0
1000
DF
1040
1.0
1000
MIN
1011
0.0
1021
0.0
1031
0.0
1021
0.0
1031
0.0
1000
MAX
1011
420.0
1021
0.0
1031
0.0
1021
297.0
1031
0.0
1000
FLAGS
1070
     4
  0
ENDSEC
  0
EOF
