  0
SECTION
  2
HEADER
  9
$ACADVER
  1
AC1009
  9
$INSBASE
 10
0.0
 20
0.0
 30
0.0
  9
$EXTMIN
 10
13.91895646905936
 20
16.870593818041922
 30
-0.0015258207003583
  9
$EXTMAX
 10
625.14561983097065
 20
398.3674868828748
 30
0.0000000349246037
  9
$LIMMIN
 10
0.0
 20
0.0
  9
$LIMMAX
 10
408.0
 20
284.0
  9
$ORTHOMODE
 70
     0
  9
$REGENMODE
 70
     1
  9
$FILLMODE
 70
     1
  9
$QTEXTMODE
 70
     0
  9
$MIRRTEXT
 70
     1
  9
$DRAGMODE
 70
     2
  9
$LTSCALE
 40
1.0
  9
$OSMODE
 70
   551
  9
$ATTMODE
 70
     1
  9
$TEXTSIZE
 40
2.5
  9
$TRACEWID
 40
1.0
  9
$TEXTSTYLE
  7
STANDARD
  9
$CLAYER
  8
AM_0
  9
$CELTYPE
  6
BYLAYER
  9
$CECOLOR
 62
   256
  9
$DIMSCALE
 40
1.0
  9
$DIMASZ
 40
2.5
  9
$DIMEXO
 40
1.0
  9
$DIMDLI
 40
7.0
  9
$DIMRND
 40
0.0
  9
$DIMDLE
 40
0.0
  9
$DIMEXE
 40
1.0
  9
$DIMTP
 40
0.1
  9
$DIMTM
 40
0.1000000001
  9
$DIMTXT
 40
2.5
  9
$DIMCEN
 40
0.0
  9
$DIMTSZ
 40
0.0
  9
$DIMTOL
 70
     0
  9
$DIMLIM
 70
     0
  9
$DIMTIH
 70
     0
  9
$DIMTOH
 70
     0
  9
$DIMSE1
 70
     0
  9
$DIMSE2
 70
     0
  9
$DIMTAD
 70
     3
  9
$DIMZIN
 70
     8
  9
$DIMBLK
  1

  9
$DIMASO
 70
     1
  9
$DIMSHO
 70
     1
  9
$DIMPOST
  1

  9
$DIMAPOST
  1
"
  9
$DIMALT
 70
     0
  9
$DIMALTD
 70
     2
  9
$DIMALTF
 40
0.0393701
  9
$DIMLFAC
 40
1.0
  9
$DIMTOFL
 70
     1
  9
$DIMTVP
 40
0.0
  9
$DIMTIX
 70
     0
  9
$DIMSOXD
 70
     0
  9
$DIMSAH
 70
     0
  9
$DIMBLK1
  1

  9
$DIMBLK2
  1

  9
$DIMSTYLE
  2
AM_JIS
  9
$DIMCLRD
 70
   256
  9
$DIMCLRE
 70
   256
  9
$DIMCLRT
 70
     4
  9
$DIMTFAC
 40
0.71
  9
$DIMGAP
 40
1.0
  9
$LUNITS
 70
     2
  9
$LUPREC
 70
     2
  9
$SKETCHINC
 40
1.0
  9
$FILLETRAD
 40
2.5
  9
$AUNITS
 70
     0
  9
$AUPREC
 70
     3
  9
$MENU
  1
.
  9
$ELEVATION
 40
0.0
  9
$PELEVATION
 40
0.0
  9
$THICKNESS
 40
0.0
  9
$LIMCHECK
 70
     0
  9
$BLIPMODE
 70
     0
  9
$CHAMFERA
 40
2.5
  9
$CHAMFERB
 40
2.5
  9
$SKPOLY
 70
     0
  9
$TDCREATE
 40
2453061.6902891672
  9
$TDUPDATE
 40
2458540.701862257
  9
$TDINDWG
 40
0.1271519676
  9
$TDUSRTIMER
 40
0.1271517593
  9
$USRTIMER
 70
     1
  9
$ANGBASE
 50
0.0
  9
$ANGDIR
 70
     0
  9
$PDMODE
 70
     0
  9
$PDSIZE
 40
0.0
  9
$PLINEWID
 40
0.0
  9
$COORDS
 70
     1
  9
$SPLFRAME
 70
     0
  9
$SPLINETYPE
 70
     6
  9
$SPLINESEGS
 70
     8
  9
$ATTDIA
 70
     1
  9
$ATTREQ
 70
     1
  9
$HANDLING
 70
     1
  9
$HANDSEED
  5
AB68
  9
$SURFTAB1
 70
     6
  9
$SURFTAB2
 70
     6
  9
$SURFTYPE
 70
     6
  9
$SURFU
 70
     6
  9
$SURFV
 70
     6
  9
$UCSNAME
  2

  9
$UCSORG
 10
0.0
 20
0.0
 30
0.0
  9
$UCSXDIR
 10
1.0
 20
0.0
 30
0.0
  9
$UCSYDIR
 10
0.0
 20
1.0
 30
0.0
  9
$PUCSNAME
  2

  9
$PUCSORG
 10
0.0
 20
0.0
 30
0.0
  9
$PUCSXDIR
 10
1.0
 20
0.0
 30
0.0
  9
$PUCSYDIR
 10
0.0
 20
1.0
 30
0.0
  9
$USERI1
 70
     0
  9
$USERI2
 70
     0
  9
$USERI3
 70
     0
  9
$USERI4
 70
     0
  9
$USERI5
 70
     0
  9
$USERR1
 40
0.0
  9
$USERR2
 40
0.0
  9
$USERR3
 40
0.0
  9
$USERR4
 40
0.0
  9
$USERR5
 40
0.0
  9
$WORLDVIEW
 70
     1
  9
$SHADEDGE
 70
     3
  9
$SHADEDIF
 70
    70
  9
$TILEMODE
 70
     1
  9
$MAXACTVP
 70
    48
  9
$PLIMCHECK
 70
     0
  9
$PEXTMIN
 10
1.0000000000000000E+020
 20
1.0000000000000000E+020
 30
1.0000000000000000E+020
  9
$PEXTMAX
 10
-1.0000000000000000E+020
 20
-1.0000000000000000E+020
 30
-1.0000000000000000E+020
  9
$PLIMMIN
 10
0.0
 20
0.0
  9
$PLIMMAX
 10
420.0
 20
297.0
  9
$UNITMODE
 70
     0
  9
$VISRETAIN
 70
     1
  9
$PLINEGEN
 70
     0
  9
$PSLTSCALE
 70
     1
  0
ENDSEC
  0
SECTION
  2
TABLES
  0
TABLE
  2
VPORT
 70
     1
  0
VPORT
  2
*ACTIVE
 70
     0
 10
0.0
 20
0.0
 11
1.0
 21
1.0
 12
319.53228815001489
 22
207.61904035045839
 13
0.0
 23
0.0
 14
1.0
 24
1.0
 15
10.0
 25
10.0
 16
0.0
 26
0.0
 36
1.0
 17
0.0
 27
0.0
 37
0.0
 40
384.11586487077
 41
1.7571592210767459
 42
50.0
 43
0.0
 44
0.0
 50
0.0
 51
0.0
 71
     0
 72
   100
 73
     1
 74
     1
 75
     0
 76
     0
 77
     0
 78
     0
  0
ENDTAB
  0
TABLE
  2
LTYPE
 70
    26
  0
LTYPE
  2
CONTINUOUS
 70
     0
  3
Solid line
 72
    65
 73
     0
 40
0.0
  0
LTYPE
  2
PHANTOM2
 70
     0
  3
Phantom (.5x) ___ _ _ ___ _ _ ___ _ _ ___ _ _
 72
    65
 73
     6
 40
31.75
 49
15.875
 49
-3.174999999999998
 49
3.174999999999998
 49
-3.174999999999998
 49
3.174999999999998
 49
-3.174999999999998
  0
LTYPE
  2
CENTER
 70
     0
  3
Center ____ _ ____ _ ____ _ ____ _ ____ _ ____
 72
    65
 73
     4
 40
50.799999999999997
 49
31.75
 49
-6.3499999999999979
 49
6.3499999999999979
 49
-6.3499999999999979
  0
LTYPE
  2
ACANSTGBM
 70
     0
  3
__ . . __ . .
 72
    65
 73
     6
 40
9.0
 49
4.0
 49
-1.0
 49
1.0
 49
-1.0
 49
1.0
 49
-1.0
  0
LTYPE
  2
ACANSTGLM
 70
     0
  3
_ _ _ _ _
 72
    65
 73
     2
 40
3.0
 49
2.0
 49
-1.0
  0
LTYPE
  2
GEN7
 70
     0
  3
____ . ____ . ____ . ____ . ____ . ____ . ____
 72
    65
 73
     4
 40
14.25
 49
9.75
 49
-1.5
 49
1.5
 49
-1.5
  0
LTYPE
  2
GEN3B
 70
     0
  3
 - - - - -
 72
    65
 73
     2
 40
1.0
 49
0.5
 49
-0.5
  0
LTYPE
  2
AM_ISO02W050
 70
     0
  3
__ __ __ __ __ __ __ __ __ __ __ __ __ __ __
 72
    65
 73
     2
 40
7.5
 49
6.0
 49
-1.5
  0
LTYPE
  2
AM_ISO08W050
 70
     0
  3
____ . ____ . ____ . ____ . ____ . ____ . ____
 72
    65
 73
     4
 40
18.0
 49
12.0
 49
-1.5
 49
3.0
 49
-1.5
  0
LTYPE
  2
AM_ISO09W050
 70
     0
  3
_____ . . _____ . . _____ . . ____ .. ____
 72
    65
 73
     6
 40
22.5
 49
12.0
 49
-1.5
 49
3.0
 49
-1.5
 49
3.0
 49
-1.5
  0
LTYPE
  2
AMCONSTR
 70
     0
  3
_______________________
 72
    65
 73
     2
 40
9999.0
 49
9999.0
 49
0.0
  0
LTYPE
  2
AM_ISO02W050X2
 70
     0
  3
 _ _ _ _ _ _ _ _ _ _ _ _
 72
    65
 73
     2
 40
3.75
 49
3.0
 49
-0.75
  0
LTYPE
  2
AM_ISO08W050X2
 70
     0
  3
__ . __ . __ . __ . __ . __
 72
    65
 73
     4
 40
9.0
 49
6.0
 49
-0.75
 49
1.5
 49
-0.75
  0
LTYPE
  2
AMZIGZAG
 70
     0
  3
/\/-/\/-/\/-/\/-/\/-/\/
 72
    65
 73
     2
 40
11.000099999999991
 49
0.0001
 49
-11.0
  0
LTYPE
  2
ACJISTGB
 70
     0
  3
__ . . __ . .
 72
    65
 73
     6
 40
9.0
 49
4.0
 49
-1.0
 49
1.0
 49
-1.0
 49
1.0
 49
-1.0
  0
LTYPE
  2
ACJISTGL
 70
     0
  3
_ _ _ _ _
 72
    65
 73
     2
 40
3.0
 49
2.0
 49
-1.0
  0
LTYPE
  2
ACISOWELD
 70
     0
  3
_ _ _ _ _
 72
    65
 73
     2
 40
2.0
 49
2.0
 49
-1.0
  0
LTYPE
  2
ACISOTGB
 70
     0
  3
__ . . __ . .
 72
    65
 73
     6
 40
9.0
 49
4.0
 49
-1.0
 49
1.0
 49
-1.0
 49
1.0
 49
-1.0
  0
LTYPE
  2
ACISOTGL
 70
     0
  3
_ _ _ _ _
 72
    65
 73
     2
 40
3.0
 49
2.0
 49
-1.0
  0
LTYPE
  2
HIDDEN
 70
     0
  3
Hidden __ __ __ __ __ __ __ __ __ __ __ __ __ _
 72
    65
 73
     2
 40
0.375
 49
0.25
 49
-0.125
  0
LTYPE
  2
CENTER2
 70
     0
  3
Center (.5x) ___ _ ___ _ ___ _ ___ _ ___ _ ___
 72
    65
 73
     4
 40
1.125
 49
0.75
 49
-0.125
 49
0.125
 49
-0.125
  0
LTYPE
  2
HIDDEN2
 70
     0
  3
Hidden (.5x) _ _ _ _ _ _ _ _ _ _ _ _ _ _ _ _ _
 72
    65
 73
     2
 40
0.1875
 49
0.125
 49
-0.0625
  0
LTYPE
  2
AMZIGZAG2
 70
     0
  3
/\/-/\/-/\/-/\/-/\/-/\/
 72
    65
 73
     2
 40
0.4401
 49
0.0001
 49
-0.4400000000000001
  0
LTYPE
  2
ACANSTGB
 70
     0
  3
__ . . __ . .
 72
    65
 73
     6
 40
0.35433070866
 49
0.15748031496
 49
-0.03937007874
 49
0.03937007874
 49
-0.03937007874
 49
0.03937007874
 49
-0.03937007874
  0
LTYPE
  2
ACANSTGL
 70
     0
  3
_ _ _ _ _
 72
    65
 73
     2
 40
0.11811023622
 49
0.07874015748
 49
-0.03937007874
  0
ENDTAB
  0
TABLE
  2
LAYER
 70
     7
  0
LAYER
  2
0
 70
     0
 62
     7
  6
CONTINUOUS
  0
LAYER
  2
AM_0
 70
     0
 62
     7
  6
CONTINUOUS
  0
LAYER
  2
DEFPOINTS
 70
     0
 62
     7
  6
CONTINUOUS
  0
LAYER
  2
ｶｸﾚｾﾝ2
 70
     0
 62
     3
  6
GEN3B
  0
LAYER
  2
ﾁｭｳｼﾝｾﾝ
 70
     0
 62
     1
  6
GEN7
  0
LAYER
  2
AM_0N
 70
     0
 62
     7
  6
CONTINUOUS
  0
LAYER
  2
AM_5
 70
     0
 62
     2
  6
CONTINUOUS
  0
ENDTAB
  0
TABLE
  2
STYLE
 70
    10
  0
STYLE
  2
STANDARD
 70
     0
 40
0.0
 41
0.8299999999999999
 50
0.0
 71
     0
 42
2.5
  3
txt.shx
  4
bigfont.shx
  0
STYLE
  2
ANNOTATIVE
 70
     0
 40
0.0
 41
1.0
 50
0.0
 71
     0
 42
0.2
  3
txt
  4

  0
STYLE
  2
ACANSTS
 70
     0
 40
1.0
 41
1.0
 50
0.0
 71
     0
 42
2.5
  3
romans.shx
  4
bigfont.shx
  0
STYLE
  2
ACANSGDT
 70
     0
 40
0.0
 41
1.0
 50
0.0
 71
     0
 42
2.5
  3
amgdt.shx
  4

  0
STYLE
  2

 70
     1
 40
0.0
 41
1.0
 50
0.0
 71
     0
 42
2.5
  3
ltypeshp.shx
  4

  0
STYLE
  2
ACJISTS
 70
     0
 40
1.0
 41
0.8299999999999999
 50
0.0
 71
     0
 42
2.5
  3
txt.shx
  4
bigfont.shx
  0
STYLE
  2
ACJISGDT
 70
     0
 40
0.0
 41
1.0
 50
0.0
 71
     0
 42
2.5
  3
amgdt.shx
  4

  0
STYLE
  2
ACISOTS
 70
     0
 40
1.0
 41
1.0
 50
0.0
 71
     0
 42
2.5
  3
isocp.shx
  4
extfont.shx
  0
STYLE
  2
ACISOGDT
 70
     0
 40
0.0
 41
1.0
 50
0.0
 71
     0
 42
2.5
  3
amgdt.shx
  4

  0
STYLE
  2

 70
     1
 40
0.0
 41
1.0
 50
0.0
 71
     0
 42
2.5
  3
genltshp.shx
  4

  0
ENDTAB
  0
TABLE
  2
VIEW
 70
    12
  0
VIEW
  2
GEN1
 70
     0
 40
95.824742268041234
 10
71.5
 20
137.08762886597941
 41
143.0
 11
0.0
 21
0.0
 31
1.0
 12
0.0
 22
0.0
 32
0.0
 42
50.0
 43
0.0
 44
0.0
 50
0.0
 71
     0
  0
VIEW
  2
GEN2
 70
     0
 40
95.824742268041234
 10
214.5
 20
137.08762886597941
 41
143.0
 11
0.0
 21
0.0
 31
1.0
 12
0.0
 22
0.0
 32
0.0
 42
50.0
 43
0.0
 44
0.0
 50
0.0
 71
     0
  0
VIEW
  2
GEN3
 70
     0
 40
95.824742268041234
 10
71.5
 20
47.912371134020603
 41
143.0
 11
0.0
 21
0.0
 31
1.0
 12
0.0
 22
0.0
 32
0.0
 42
50.0
 43
0.0
 44
0.0
 50
0.0
 71
     0
  0
VIEW
  2
GEN4
 70
     0
 40
95.824742268041234
 10
214.5
 20
47.912371134020603
 41
143.0
 11
0.0
 21
0.0
 31
1.0
 12
0.0
 22
0.0
 32
0.0
 42
50.0
 43
0.0
 44
0.0
 50
0.0
 71
     0
  0
VIEW
  2
GEN5
 70
     0
 40
95.824742268041234
 10
143.0
 20
92.500000000000057
 41
143.0
 11
0.0
 21
0.0
 31
1.0
 12
0.0
 22
0.0
 32
0.0
 42
50.0
 43
0.0
 44
0.0
 50
0.0
 71
     0
  0
VIEW
  2
GEN6
 70
     0
 40
191.64756804123709
 10
143.0
 20
92.5
 41
285.99713999999989
 11
0.0
 21
0.0
 31
1.0
 12
0.0
 22
0.0
 32
0.0
 42
50.0
 43
0.0
 44
0.0
 50
0.0
 71
     0
  0
VIEW
  2
AM_VIEW1
 70
     0
 40
142.0
 10
119.7777777777777
 20
213.0
 41
239.55555555555549
 11
0.0
 21
0.0
 31
1.0
 12
0.0
 22
0.0
 32
0.0
 42
50.0
 43
0.0
 44
0.0
 50
0.0
 71
     0
  0
VIEW
  2
AM_VIEW2
 70
     0
 40
142.0
 10
288.22222222222211
 20
213.0
 41
239.55555555555549
 11
0.0
 21
0.0
 31
1.0
 12
0.0
 22
0.0
 32
0.0
 42
50.0
 43
0.0
 44
0.0
 50
0.0
 71
     0
  0
VIEW
  2
AM_VIEW3
 70
     0
 40
142.0
 10
119.7777777777777
 20
71.0
 41
239.55555555555549
 11
0.0
 21
0.0
 31
1.0
 12
0.0
 22
0.0
 32
0.0
 42
50.0
 43
0.0
 44
0.0
 50
0.0
 71
     0
  0
VIEW
  2
AM_VIEW4
 70
     0
 40
142.0
 10
288.22222222222211
 20
71.0
 41
239.55555555555549
 11
0.0
 21
0.0
 31
1.0
 12
0.0
 22
0.0
 32
0.0
 42
50.0
 43
0.0
 44
0.0
 50
0.0
 71
     0
  0
VIEW
  2
AM_VIEW5
 70
     0
 40
142.0
 10
204.0
 20
142.0
 41
239.55555555555549
 11
0.0
 21
0.0
 31
1.0
 12
0.0
 22
0.0
 32
0.0
 42
50.0
 43
0.0
 44
0.0
 50
0.0
 71
     0
  0
VIEW
  2
AM_VIEW6
 70
     0
 40
283.99716000000001
 10
204.0
 20
142.0
 41
479.10631999999993
 11
0.0
 21
0.0
 31
1.0
 12
0.0
 22
0.0
 32
0.0
 42
50.0
 43
0.0
 44
0.0
 50
0.0
 71
     0
  0
ENDTAB
  0
TABLE
  2
UCS
 70
     0
  0
ENDTAB
  0
TABLE
  2
APPID
 70
   106
  0
APPID
  2
ACAD
 70
     0
  0
APPID
  2
ACADANNOTATIVE
 70
     0
  0
APPID
  2
MCAD_NO_VIS
 70
     0
  0
APPID
  2
ACAD_TEMP_GRAPHIC
 70
     0
  0
APPID
  2
AD_DRAW
 70
     0
  0
APPID
  2
DESIGNERASSEMBLIES
 70
     0
  0
APPID
  2
ASURF_PCURVE_APPNAME
 70
     0
  0
APPID
  2
GENIUS_GE3SECT_13
 70
     0
  0
APPID
  2
GENIUS_GENCFG_13
 70
     0
  0
APPID
  2
GENIUS_GE3CFG0_13
 70
     0
  0
APPID
  2
GENIUS_GENCFG0_13
 70
     0
  0
APPID
  2
GENIUS_GENCFG1_13
 70
     0
  0
APPID
  2
GENIUS_GENCFG2_13
 70
     0
  0
APPID
  2
GENIUS_GENCFG3_13
 70
     0
  0
APPID
  2
GENIUS_GENCFG4_13
 70
     0
  0
APPID
  2
GENIUS_GEVCFG0_13
 70
     0
  0
APPID
  2
GENIUS_GENOENT_13
 70
     0
  0
APPID
  2
GENIUS_GENREC_14
 70
     0
  0
APPID
  2
GENIUS_GENODEF_13
 70
     0
  0
APPID
  2
GENIUS_GENOBJ-N-REC_13
 70
     0
  0
APPID
  2
GENIUS_GENHINW_13
 70
     0
  0
APPID
  2
GENIUS_FIRSTVISTXT_14
 70
     0
  0
APPID
  2
GENIUS_GENOBJ-N-LEADER_13
 70
     0
  0
APPID
  2
GENIUS_GENOREF_13
 70
     0
  0
APPID
  2
GENIUS_GENOLIS_13
 70
     0
  0
APPID
  2
GEV_VCCNULL_SWITCH_OFF
 70
     0
  0
APPID
  2
GENIUS_GENDTOL_13
 70
     0
  0
APPID
  2
GENIUS_GEFCFG0_13
 70
     0
  0
APPID
  2
GENIUS_GENOBJ-N-TIT_13
 70
     0
  0
APPID
  2
GENIUS_GENTITLE_13
 70
     0
  0
APPID
  2
GENIUS_GENZVEED_13
 70
     0
  0
APPID
  2
GENIUS_GENOBJ-N-SDF_13
 70
     0
  0
APPID
  2
GENIUS_GENSCREG_13
 70
     0
  0
APPID
  2
GENIUS_DUMCFG0_13
 70
     0
  0
APPID
  2
GEVID936201362
 70
     0
  0
APPID
  2
GEVDC
 70
     0
  0
APPID
  2
GEVCON
 70
     0
  0
APPID
  2
VCC
 70
     0
  0
APPID
  2
GEVPT
 70
     0
  0
APPID
  2
GEVIT
 70
     0
  0
APPID
  2
GENBH
 70
     0
  0
APPID
  2
GEVMK
 70
     0
  0
APPID
  2
GENIUS_GENBH_13
 70
     0
  0
APPID
  2
GENIUS_GENOBJ-NBEHI-BHF_13
 70
     0
  0
APPID
  2
GENIUS_GENOBJ-NBEHI-BHB_13
 70
     0
  0
APPID
  2
GENIUS_GENOBJ-F-DESC_13
 70
     0
  0
APPID
  2
GENIUS_GEFDESC_14
 70
     0
  0
APPID
  2
GENIUS_GENOBJ-F-PART_13
 70
     0
  0
APPID
  2
GENIUS_GEFSTDP_13
 70
     0
  0
APPID
  2
GENIUS_GEFPARTINS_13
 70
     0
  0
APPID
  2
GENIUS_GENTRA_14
 70
     0
  0
APPID
  2
GENIUS_GENINF13_13
 70
     0
  0
APPID
  2
GENIUS_GENOBJ-N-INFOPT_13
 70
     0
  0
APPID
  2
GENIUS_GENOBJ-N-RSSYM_13
 70
     0
  0
APPID
  2
GENIUS_GENSYMENT_13
 70
     0
  0
APPID
  2
GENIUS_GENSCSYM_13
 70
     0
  0
APPID
  2
GENIUS_GEFINFNAM_13
 70
     0
  0
APPID
  2
GENIUS_GENSCREG_15
 70
     0
  0
APPID
  2
GENIUS_GENOBJ-N-CEN_13
 70
     0
  0
APPID
  2
GENIUS_GENOBJ-N-CRS_13
 70
     0
  0
APPID
  2
GENIUS_GENOBJ-N-CRC_13
 70
     0
  0
APPID
  2
GENIUS_GENCRC_14
 70
     0
  0
APPID
  2
GEVID942827039
 70
     0
  0
APPID
  2
GEVID942827040
 70
     0
  0
APPID
  2
GEVID942827041
 70
     0
  0
APPID
  2
GENIUS_GENOBJ-F-SCPASSM_13
 70
     0
  0
APPID
  2
GENIUS_GENDIMSH_14
 70
     0
  0
APPID
  2
GENIUS_GENFIL_13
 70
     0
  0
APPID
  2
GENIUS_GENOBJ-N-CHA_13
 70
     0
  0
APPID
  2
GENIUS_GENOBJ-N-FIL_13
 70
     0
  0
APPID
  2
GEVID942827042
 70
     0
  0
APPID
  2
GEVID946020473
 70
     0
  0
APPID
  2
GEVID946020474
 70
     0
  0
APPID
  2
GEVID946020475
 70
     0
  0
APPID
  2
GENIUS_GENOBJ-N-HTC_13
 70
     0
  0
APPID
  2
GENIUS_GENHATCH_13
 70
     0
  0
APPID
  2
GEVID948854295
 70
     0
  0
APPID
  2
GEVID939402019
 70
     0
  0
APPID
  2
GEVID952919491
 70
     0
  0
APPID
  2
GEVID952919492
 70
     0
  0
APPID
  2
GENIUS_GEFWELD_13
 70
     0
  0
APPID
  2
GENIUS_GENOBJ-F-WELS_13
 70
     0
  0
APPID
  2
GEVID952919493
 70
     0
  0
APPID
  2
GENIUS_GENOBJ-N-RSBK_13
 70
     0
  0
APPID
  2
GENIUS_GENOBJ-N-LIB_13
 70
     0
  0
APPID
  2
GENIUS_GENSCALE_13
 70
     0
  0
APPID
  2
GEVID986376691
 70
     0
  0
APPID
  2
ACATTRIBSERVICES
 70
     0
  0
APPID
  2
ACADM_DIM_EDIT
 70
     0
  0
APPID
  2
AMDT_DM_ADJ
 70
     0
  0
APPID
  2
GEVID1057795304
 70
     0
  0
APPID
  2
GENIUS_GEFSH_13
 70
     0
  0
APPID
  2
GENIUS_GENOBJ-F-SHS_13
 70
     0
  0
APPID
  2
GENIUS_GENOBJ-N-ADDLEAD_13
 70
     0
  0
APPID
  2
GENIUS_GENMAINADDLEADER_14
 70
     0
  0
APPID
  2
GENIUS_GENADDLEADER_14
 70
     0
  0
APPID
  2
GENIUS_GENDREL_13
 70
     0
  0
APPID
  2
GEVID1121934822
 70
     0
  0
APPID
  2
GEVID1121934823
 70
     0
  0
APPID
  2
GEVID1121934824
 70
     0
  0
APPID
  2
ACAD_DSTYLE_DIMJAG
 70
     0
  0
APPID
  2
ACAD_DSTYLE_DIMBREAK
 70
     0
  0
APPID
  2
ACAD_NAV_VCDISPLAY
 70
     0
  0
APPID
  2
ACADANNOPO
 70
     0
  0
APPID
  2
ACAD_EXEMPT_FROM_CAD_STANDARDS
 70
     0
  0
APPID
  2
ACAD_MLEADERVER
 70
     0
  0
ENDTAB
  0
TABLE
  2
DIMSTYLE
 70
    29
  0
DIMSTYLE
  2
STANDARD
 70
     0
  3

  4

  5

  6

  7

 40
1.0
 41
0.18
 42
0.0625
 43
0.38
 44
0.18
 45
0.0
 46
0.0
 47
0.0
 48
0.0
140
0.18
141
0.09
142
0.0
143
25.399999999999999
144
1.0
145
0.0
146
1.0
147
0.09
 71
     0
 72
     0
 73
     1
 74
     1
 75
     0
 76
     0
 77
     0
 78
     0
170
     0
171
     2
172
     0
173
     0
174
     0
175
     0
176
     0
177
     0
178
     0
  0
DIMSTYLE
  2
ANNOTATIVE
 70
     0
  3

  4

  5

  6

  7

 40
1.0
 41
0.18
 42
0.0625
 43
0.38
 44
0.18
 45
0.0
 46
0.0
 47
0.0
 48
0.0
140
0.18
141
0.09
142
0.0
143
25.399999999999999
144
1.0
145
0.0
146
1.0
147
0.09
 71
     0
 72
     0
 73
     1
 74
     1
 75
     0
 76
     0
 77
     0
 78
     0
170
     0
171
     2
172
     0
173
     0
174
     0
175
     0
176
     0
177
     0
178
     0
  0
DIMSTYLE
  2
AM_JIS
 70
     0
  3

  4
"
  5

  6

  7

 40
1.0
 41
2.0
 42
1.0
 43
8.0
 44
1.0
 45
0.0
 46
0.0
 47
0.1
 48
0.1
140
2.5
141
0.0
142
0.0
143
0.0393701
144
1.0
145
0.0
146
0.71
147
1.5
 71
     0
 72
     0
 73
     0
 74
     0
 75
     0
 76
     0
 77
     3
 78
     8
170
     0
171
     2
172
     1
173
     0
174
     0
175
     0
176
   256
177
   256
178
     4
  0
DIMSTYLE
  2
AM_JIS$3
 70
     0
  3

  4
"
  5

  6

  7

 40
1.0
 41
2.0
 42
1.0
 43
10.0
 44
1.0
 45
0.0
 46
0.0
 47
0.1
 48
0.1
140
2.5
141
0.0
142
0.0
143
0.0393701
144
1.0
145
0.0
146
0.71
147
1.5
 71
     0
 72
     0
 73
     0
 74
     1
 75
     0
 76
     0
 77
     3
 78
     8
170
     0
171
     2
172
     0
173
     0
174
     0
175
     0
176
   256
177
   256
178
     4
  0
DIMSTYLE
  2
AM_JIS$4
 70
     0
  3

  4
"
  5

  6

  7

 40
1.0
 41
2.0
 42
1.0
 43
10.0
 44
1.0
 45
0.0
 46
0.0
 47
0.1
 48
0.1
140
2.5
141
0.0
142
0.0
143
0.0393701
144
1.0
145
0.0
146
0.71
147
1.5
 71
     0
 72
     0
 73
     0
 74
     0
 75
     0
 76
     0
 77
     3
 78
     8
170
     0
171
     2
172
     0
173
     0
174
     0
175
     0
176
   256
177
   256
178
     4
  0
DIMSTYLE
  2
AM_JIS$6
 70
     0
  3

  4
"
  5

  6

  7

 40
1.0
 41
2.0
 42
1.0
 43
10.0
 44
1.0
 45
0.0
 46
0.0
 47
0.1
 48
0.1
140
2.5
141
0.0
142
0.0
143
0.0393701
144
1.0
145
0.0
146
0.71
147
1.5
 71
     0
 72
     0
 73
     0
 74
     0
 75
     0
 76
     0
 77
     0
 78
     8
170
     0
171
     2
172
     1
173
     0
174
     0
175
     0
176
   256
177
   256
178
     4
  0
DIMSTYLE
  2
AM_JIS$7
 70
     0
  3

  4
"
  5

  6

  7

 40
1.0
 41
2.0
 42
1.0
 43
10.0
 44
1.0
 45
0.0
 46
0.0
 47
0.1
 48
0.1
140
2.5
141
0.0
142
0.0
143
0.0393701
144
1.0
145
0.0
146
0.71
147
1.5
 71
     0
 72
     0
 73
     0
 74
     0
 75
     0
 76
     0
 77
     3
 78
     8
170
     0
171
     2
172
     1
173
     0
174
     0
175
     0
176
   256
177
   256
178
     4
  0
DIMSTYLE
  2
AM_JIS$SF
 70
     0
  3

  4
"
  5

  6

  7

 40
1.0
 41
2.0
 42
1.0
 43
10.0
 44
1.0
 45
0.0
 46
0.0
 47
0.1
 48
0.1
140
2.5
141
0.0
142
0.0
143
0.0393701
144
1.0
145
0.0
146
0.71
147
1.5
 71
     0
 72
     0
 73
     0
 74
     0
 75
     1
 76
     1
 77
     3
 78
     8
170
     0
171
     2
172
     1
173
     0
174
     0
175
     0
176
   256
177
   256
178
     4
  0
DIMSTYLE
  2
AM_JIS$SH
 70
     0
  3

  4
"
  5

  6

  7

 40
1.0
 41
2.0
 42
1.0
 43
10.0
 44
1.0
 45
0.0
 46
0.0
 47
0.1
 48
0.1
140
2.5
141
0.0
142
0.0
143
0.0393701
144
2.0
145
0.0
146
0.71
147
1.5
 71
     0
 72
     0
 73
     0
 74
     0
 75
     1
 76
     1
 77
     3
 78
     8
170
     0
171
     2
172
     1
173
     1
174
     0
175
     0
176
   256
177
   256
178
     4
  0
DIMSTYLE
  2
AM_ISO
 70
     0
  3

  4
"
  5

  6

  7

 40
1.0
 41
2.5
 42
1.0
 43
10.0
 44
1.0
 45
0.0
 46
0.0
 47
0.1
 48
0.1
140
3.5
141
0.0
142
0.0
143
0.0393701
144
1.0
145
0.0
146
0.71
147
1.5
 71
     0
 72
     0
 73
     0
 74
     0
 75
     0
 76
     0
 77
     1
 78
     8
170
     0
171
     2
172
     1
173
     0
174
     0
175
     0
176
   256
177
   256
178
     2
  0
DIMSTYLE
  2
AM_ISO$3
 70
     0
  3

  4
"
  5

  6

  7

 40
1.0
 41
2.5
 42
1.0
 43
10.0
 44
1.0
 45
0.0
 46
0.0
 47
0.1
 48
0.1
140
3.5
141
0.0
142
0.0
143
0.0393701
144
1.0
145
0.0
146
0.71
147
1.5
 71
     0
 72
     0
 73
     0
 74
     1
 75
     0
 76
     0
 77
     1
 78
     8
170
     0
171
     2
172
     0
173
     0
174
     0
175
     0
176
   256
177
   256
178
     2
  0
DIMSTYLE
  2
AM_ISO$4
 70
     0
  3

  4
"
  5

  6

  7

 40
1.0
 41
2.5
 42
1.0
 43
10.0
 44
1.0
 45
0.0
 46
0.0
 47
0.1
 48
0.1
140
3.5
141
0.0
142
0.0
143
0.0393701
144
1.0
145
0.0
146
0.71
147
1.5
 71
     0
 72
     0
 73
     0
 74
     1
 75
     0
 76
     0
 77
     1
 78
     8
170
     0
171
     2
172
     0
173
     0
174
     0
175
     0
176
   256
177
   256
178
     2
  0
DIMSTYLE
  2
AM_ISO$6
 70
     0
  3

  4
"
  5

  6

  7

 40
1.0
 41
2.5
 42
1.0
 43
10.0
 44
1.0
 45
0.0
 46
0.0
 47
0.1
 48
0.1
140
3.5
141
0.0
142
0.0
143
0.0393701
144
1.0
145
0.0
146
0.71
147
1.5
 71
     0
 72
     0
 73
     0
 74
     0
 75
     0
 76
     0
 77
     0
 78
     8
170
     0
171
     2
172
     1
173
     0
174
     0
175
     0
176
   256
177
   256
178
     2
  0
DIMSTYLE
  2
AM_ISO$7
 70
     0
  3

  4
"
  5

  6

  7

 40
1.0
 41
2.5
 42
1.0
 43
10.0
 44
1.0
 45
0.0
 46
0.0
 47
0.1
 48
0.1
140
5.0
141
0.0
142
0.0
143
0.0393701
144
1.0
145
0.0
146
0.71
147
1.5
 71
     0
 72
     0
 73
     0
 74
     0
 75
     0
 76
     0
 77
     1
 78
     8
170
     0
171
     2
172
     1
173
     0
174
     0
175
     0
176
   256
177
   256
178
     2
  0
DIMSTYLE
  2
AM_ISO$SF
 70
     0
  3

  4
"
  5

  6

  7

 40
1.0
 41
2.5
 42
1.0
 43
10.0
 44
1.0
 45
0.0
 46
0.0
 47
0.1
 48
0.1
140
3.5
141
0.0
142
0.0
143
0.0393701
144
1.0
145
0.0
146
0.71
147
1.5
 71
     0
 72
     0
 73
     0
 74
     0
 75
     1
 76
     1
 77
     1
 78
     8
170
     0
171
     2
172
     1
173
     0
174
     0
175
     0
176
   256
177
   256
178
     2
  0
DIMSTYLE
  2
AM_ISO$SH
 70
     0
  3

  4
"
  5

  6

  7

 40
1.0
 41
2.5
 42
1.0
 43
10.0
 44
1.0
 45
0.0
 46
0.0
 47
0.1
 48
0.1
140
3.5
141
0.0
142
0.0
143
0.0393701
144
2.0
145
0.0
146
0.71
147
1.5
 71
     0
 72
     0
 73
     0
 74
     0
 75
     1
 76
     1
 77
     1
 78
     8
170
     0
171
     2
172
     1
173
     1
174
     0
175
     0
176
   256
177
   256
178
     2
  0
DIMSTYLE
  2
GEN-ANSI
 70
     0
  3

  4
"
  5

  6

  7

 40
1.0
 41
2.0
 42
0.5
 43
10.0
 44
0.5
 45
0.0
 46
0.0
 47
0.1
 48
0.1
140
2.5
141
0.0
142
0.0
143
0.0393701
144
1.0
145
0.0
146
0.71
147
1.5
 71
     0
 72
     0
 73
     1
 74
     1
 75
     0
 76
     0
 77
     0
 78
     8
170
     0
171
     2
172
     0
173
     0
174
     0
175
     0
176
   256
177
   256
178
     4
  0
DIMSTYLE
  2
GEN-ANSI$3
 70
     0
  3

  4
"
  5

  6

  7

 40
1.0
 41
2.0
 42
0.5
 43
10.0
 44
0.5
 45
0.0
 46
0.0
 47
0.1
 48
0.1
140
2.5
141
0.0
142
0.0
143
0.0393701
144
1.0
145
0.0
146
0.71
147
1.5
 71
     0
 72
     0
 73
     1
 74
     1
 75
     0
 76
     0
 77
     0
 78
     8
170
     0
171
     2
172
     0
173
     0
174
     0
175
     0
176
   256
177
   256
178
     4
  0
DIMSTYLE
  2
GEN-ANSI$4
 70
     0
  3

  4
"
  5

  6

  7

 40
1.0
 41
2.0
 42
0.5
 43
10.0
 44
0.5
 45
0.0
 46
0.0
 47
0.1
 48
0.1
140
2.5
141
0.0
142
0.0
143
0.0393701
144
1.0
145
0.0
146
0.71
147
1.5
 71
     0
 72
     0
 73
     1
 74
     1
 75
     0
 76
     0
 77
     0
 78
     8
170
     0
171
     2
172
     0
173
     0
174
     0
175
     0
176
   256
177
   256
178
     4
  0
DIMSTYLE
  2
GEN-ANSI$6
 70
     0
  3

  4
"
  5

  6

  7

 40
1.0
 41
2.0
 42
0.5
 43
10.0
 44
0.5
 45
0.0
 46
0.0
 47
0.1
 48
0.1
140
2.5
141
0.0
142
0.0
143
0.0393701
144
1.0
145
0.0
146
0.71
147
1.5
 71
     0
 72
     0
 73
     1
 74
     1
 75
     0
 76
     0
 77
     0
 78
     8
170
     0
171
     2
172
     0
173
     0
174
     0
175
     0
176
   256
177
   256
178
     4
  0
DIMSTYLE
  2
GEN-ANSI-POS
 70
     0
  3

  4
"
  5

  6

  7

 40
1.0
 41
2.5
 42
0.5
 43
10.0
 44
0.5
 45
0.0
 46
0.0
 47
0.1
 48
0.1
140
5.0
141
0.0
142
0.0
143
0.0393701
144
1.0
145
0.0
146
0.71
147
1.5
 71
     0
 72
     0
 73
     0
 74
     0
 75
     0
 76
     0
 77
     0
 78
     8
170
     0
171
     2
172
     0
173
     0
174
     0
175
     0
176
   256
177
   256
178
     4
  0
DIMSTYLE
  2
GEN-ANSI-AXE-F
 70
     0
  3

  4
"
  5

  6

  7

 40
1.0
 41
2.0
 42
0.5
 43
10.0
 44
0.5
 45
0.0
 46
0.0
 47
0.1
 48
0.1
140
2.5
141
0.0
142
0.0
143
0.0393701
144
1.0
145
0.0
146
0.71
147
1.5
 71
     0
 72
     0
 73
     1
 74
     1
 75
     1
 76
     1
 77
     0
 78
     8
170
     0
171
     2
172
     0
173
     1
174
     0
175
     0
176
   256
177
   256
178
     4
  0
DIMSTYLE
  2
GEN-ANSI-AXE-H
 70
     0
  3

  4
"
  5

  6

  7

 40
1.0
 41
2.0
 42
0.5
 43
10.0
 44
0.5
 45
0.0
 46
0.0
 47
0.1
 48
0.1
140
2.5
141
0.0
142
0.0
143
0.0393701
144
2.0
145
0.0
146
0.71
147
1.5
 71
     0
 72
     0
 73
     0
 74
     0
 75
     1
 76
     1
 77
     0
 78
     8
170
     0
171
     2
172
     1
173
     1
174
     0
175
     0
176
   256
177
   256
178
     4
  0
DIMSTYLE
  2
AM_ANSI
 70
     0
  3

  4
mm
  5

  6

  7

 40
1.0
 41
0.12
 42
0.05
 43
0.5
 44
0.1
 45
0.0
 46
0.0
 47
0.1
 48
0.1
140
0.12
141
0.0
142
0.0
143
25.399999999999999
144
1.0
145
0.0
146
0.71
147
0.06
 71
     0
 72
     0
 73
     1
 74
     1
 75
     0
 76
     0
 77
     0
 78
     7
170
     0
171
     2
172
     0
173
     0
174
     0
175
     0
176
   256
177
   256
178
     2
  0
DIMSTYLE
  2
AM_ANSI$3
 70
     0
  3

  4
mm
  5

  6

  7

 40
1.0
 41
0.12
 42
0.05
 43
0.5
 44
0.1
 45
0.0
 46
0.0
 47
0.1
 48
0.1
140
0.12
141
0.0
142
0.0
143
25.399999999999999
144
1.0
145
0.0
146
0.71
147
0.06
 71
     0
 72
     0
 73
     1
 74
     1
 75
     0
 76
     0
 77
     0
 78
     7
170
     0
171
     2
172
     0
173
     0
174
     0
175
     0
176
   256
177
   256
178
     2
  0
DIMSTYLE
  2
AM_ANSI$4
 70
     0
  3

  4
mm
  5

  6

  7

 40
1.0
 41
0.12
 42
0.05
 43
0.5
 44
0.1
 45
0.0
 46
0.0
 47
0.1
 48
0.1
140
0.12
141
0.0
142
0.0
143
25.399999999999999
144
1.0
145
0.0
146
0.71
147
0.06
 71
     0
 72
     0
 73
     1
 74
     1
 75
     0
 76
     0
 77
     0
 78
     7
170
     0
171
     2
172
     0
173
     0
174
     0
175
     0
176
   256
177
   256
178
     2
  0
DIMSTYLE
  2
AM_ANSI$7
 70
     0
  3

  4
mm
  5

  6

  7

 40
1.0
 41
0.12
 42
0.05
 43
0.5
 44
0.1
 45
0.0
 46
0.0
 47
0.1
 48
0.1
140
0.12
141
0.0
142
0.0
143
25.399999999999999
144
1.0
145
0.0
146
0.71
147
0.06
 71
     0
 72
     0
 73
     1
 74
     1
 75
     0
 76
     0
 77
     0
 78
     7
170
     0
171
     2
172
     0
173
     0
174
     0
175
     0
176
   256
177
   256
178
     2
  0
DIMSTYLE
  2
AM_ANSI$SF
 70
     0
  3

  4
mm
  5

  6

  7

 40
1.0
 41
0.12
 42
0.05
 43
0.5
 44
0.1
 45
0.0
 46
0.0
 47
0.1
 48
0.1
140
0.12
141
0.0
142
0.0
143
25.399999999999999
144
1.0
145
0.0
146
0.71
147
0.06
 71
     0
 72
     0
 73
     1
 74
     1
 75
     1
 76
     1
 77
     0
 78
     7
170
     0
171
     2
172
     0
173
     0
174
     0
175
     0
176
   256
177
   256
178
     2
  0
DIMSTYLE
  2
AM_ANSI$SH
 70
     0
  3

  4
mm
  5

  6
GENAXEH
  7

 40
1.0
 41
0.12
 42
0.05
 43
0.5
 44
0.1
 45
0.0
 46
0.0
 47
0.1
 48
0.1
140
0.12
141
0.0
142
0.0
143
25.399999999999999
144
1.0
145
0.0
146
0.71
147
0.06
 71
     0
 72
     0
 73
     1
 74
     1
 75
     1
 76
     1
 77
     0
 78
     7
170
     0
171
     2
172
     0
173
     1
174
     0
175
     0
176
   256
177
   256
178
     2
  0
ENDTAB
  0
ENDSEC
  0
SECTION
  2
BLOCKS
  0
BLOCK
  8
0
  2
$MODEL_SPACE
 70
     0
 10
0.0
 20
0.0
 30
0.0
  3
$MODEL_SPACE
  1

  0
ENDBLK
  5
A9D2
  8
0
  0
BLOCK
 67
     1
  8
0
  2
$PAPER_SPACE
 70
     0
 10
0.0
 20
0.0
 30
0.0
  3
$PAPER_SPACE
  1

  0
ENDBLK
  5
A9CE
 67
     1
  8
0
  0
BLOCK
  8
0
  2
GENAXEH
 70
     0
 10
0.0
 20
0.0
 30
0.0
  3
GENAXEH
  1

  0
LINE
  5
A91B
  8
0
 10
-1.0
 20
0.0
 30
0.0
 11
1.0
 21
0.0
 31
0.0
  0
ENDBLK
  5
A91D
  8
0
  0
BLOCK
  8
0
  2
_ACMFILLEDHALF
 70
     0
 10
0.0
 20
0.0
 30
0.0
  3
_ACMFILLEDHALF
  1

  0
TRACE
  5
AAE1
  8
AM_0
 62
     0
 10
-0.8
 20
0.0
 30
0.0
 11
-1.0
 21
0.166666666
 31
0.0
 12
0.0
 22
0.0
 32
0.0
 13
0.0
 23
0.0
 33
0.0
  0
LINE
  5
AAE2
  8
AM_0
 62
     0
 10
-1.0
 20
0.0
 30
0.0
 11
-0.8
 21
0.0
 31
0.0
  0
ENDBLK
  5
AAE0
  8
0
  0
ENDSEC
  0
SECTION
  2
ENTITIES
  0
POINT
  5
1B94
  8
0
 10
0.0
 20
0.0
 30
0.0
1001
GENIUS_GENODEF_13
1002
{
1000
HIER
1070
     1
1002
}
1002
{
1000
MANEDIT
1070
     0
1002
}
1002
{
1000
NOSEL
1070
     0
1002
}
1002
{
1000
BEHIND
1070
     0
1002
}
1002
{
1000
REACTOR
1002
}
1001
GENIUS_GENOBJ-N-SDF_13
1002
{
1000
OWNER
1000
GEN
1002
}
1001
GENIUS_GENOENT_13
1002
{
1000
MYREF
1005
1B94
1002
}
1002
{
1000
GRP
1005
0
1002
}
1001
GENIUS_GENOLIS_13
1002
{
1000
ENT
1005
89
1002
}
  0
ARC
  5
8C94
  8
AM_0
 10
323.22355537471708
 20
140.1820005727437
 30
0.0
 40
5.0000000999999967
 50
180.00001000000091
 51
270.0
  0
LINE
  5
8C95
  8
AM_0
 10
310.22350537471692
 20
20.18198557274377
 30
0.0
 11
330.2235153747169
 21
20.18198557274377
 31
0.0
  0
LINE
  5
8C96
  8
AM_0
 10
328.7235153747169
 20
30.181984572743652
 30
0.0
 11
310.22350537471692
 21
30.181984572743652
 31
0.0
  0
LINE
  5
8C97
  8
ﾁｭｳｼﾝｾﾝ
 10
252.5270177363866
 20
105.18198757274379
 30
0.0
 11
365.38124192160552
 21
105.18198757274379
 31
0.0
  0
LINE
  5
8C99
  8
AM_0
 10
224.72350537471689
 20
150.6820005727437
 30
0.0
 11
224.72350537471689
 21
25.681984572743659
 31
0.0
  0
LINE
  5
8C9A
  8
AM_0
 10
27.72355537471708
 20
56.50201057274387
 30
0.0
 11
27.72355537471708
 21
122.7119865727438
 31
0.0
  0
LINE
  5
8C9B
  8
AM_0
 10
30.22351537471695
 20
31.182001572743768
 30
0.0
 11
30.22351537471695
 21
48.013655755315483
 31
0.0
  0
LINE
  5
8C9C
  8
AM_0
 10
77.723505374716993
 20
145.61197057274359
 30
0.0
 11
77.723505374716993
 21
88.181986572743696
 31
0.0
  0
LINE
  5
8C9D
  8
AM_0
 10
214.49353537471711
 20
118.1819895727437
 30
0.0
 11
214.49353537471711
 21
58.182001572743793
 31
0.0
  0
LINE
  5
8C9E
  8
ﾁｭｳｼﾝｾﾝ
 10
173.72350537471681
 20
128.80698607274371
 30
0.0
 11
173.72350537471681
 21
47.556987072743652
 31
0.0
  0
LINE
  5
8C9F
  8
AM_0
 10
295.00924537471701
 20
112.52131357274349
 30
0.0
 11
283.22353537471707
 21
30.181969572743569
 31
0.0
  0
LINE
  5
8CA0
  8
AM_0
 10
283.22350537471692
 20
116.81284657274379
 30
0.0
 11
283.22350537471692
 21
30.181984572743652
 31
0.0
  0
LINE
  5
8CA1
  8
AM_0
 10
232.7235153747169
 20
151.68199057274359
 30
0.0
 11
232.7235153747169
 21
24.68194057274377
 31
0.0
  0
LINE
  5
8CA2
  8
AM_0
 10
237.7235253747169
 20
50.18569357274378
 30
0.0
 11
237.7235253747169
 21
126.17830057274379
 31
0.0
  0
LINE
  5
8CA3
  8
AM_0
 10
305.22355537471708
 20
35.18198557274377
 30
0.0
 11
305.22355537471708
 21
113.0994075727437
 31
0.0
  0
LINE
  5
8CA4
  8
AM_0
 10
318.2235153747169
 20
142.05430057274361
 30
0.0
 11
318.2235153747169
 21
56.94942757274378
 31
0.0
  0
LINE
  5
8CA5
  8
AM_0
 10
270.2235153747169
 20
148.18198057274361
 30
0.0
 11
270.2235153747169
 21
38.182000572743782
 31
0.0
  0
ARC
  5
8CA6
  8
AM_0
 10
60.724245374716929
 20
88.180096572743778
 30
0.0
 40
8.0019083999999978
 50
90.005172999990876
 51
161.78015999999761
  0
ARC
  5
8CA7
  8
AM_0
 10
60.71848537471692
 20
88.176007572743686
 30
0.0
 40
7.9940046000000002
 50
198.17883999999771
 51
270.03581999999773
  0
LINE
  5
8CA8
  8
AM_0
 10
30.22351537471695
 20
44.292001572743793
 30
0.0
 11
77.723505374716993
 21
44.292001572743793
 31
0.0
  0
LINE
  5
8CA9
  8
AM_0
 10
45.363525374717021
 20
90.681988572743805
 30
0.0
 11
55.223505374716979
 21
90.681988572743805
 31
0.0
  0
LINE
  5
8CAA
  8
AM_0
 10
45.363525374717021
 20
85.681987572743779
 30
0.0
 11
55.223505374716979
 21
85.681987572743779
 31
0.0
  0
LINE
  5
8CAB
  8
AM_0
 10
29.723505374716972
 20
31.182001572743768
 30
0.0
 11
77.723505374716993
 21
31.182001572743768
 31
0.0
  0
LINE
  5
8CAC
  8
ﾁｭｳｼﾝｾﾝ
 10
23.44147245264093
 20
88.181986572743696
 30
0.0
 11
262.8344685877309
 21
88.181986572743696
 31
0.0
  0
LINE
  5
8CAD
  8
AM_0
 10
36.80350537471714
 20
84.461986572743697
 30
0.0
 11
22.343505374717079
 21
39.951991572743793
 31
0.0
  0
LINE
  5
8CAE
  8
AM_0
 10
41.563515374717092
 20
82.911997572743729
 30
0.0
 11
27.103515374717048
 21
38.411995572743869
 31
0.0
  0
ARC
  5
8CAF
  8
AM_0
 10
24.72355537471708
 20
39.181987572743871
 30
0.0
 40
2.5014680099999991
 50
162.072079999999
 51
342.07206999999983
  0
ARC
  5
8CB0
  8
AM_0
 10
24.722655374717078
 20
39.176569572743738
 30
0.0
 40
3.0008441999999982
 50
185.05818999999951
 51
0.1035440000013782
  0
LINE
  5
8CB1
  8
AM_0
 10
27.72355537471708
 20
40.3219995727436
 30
0.0
 11
27.72355537471708
 21
33.181984572743652
 31
0.0
  0
ARC
  5
8CB2
  8
AM_0
 10
29.718255374717039
 20
33.17670757274368
 30
0.0
 40
1.994720039999998
 50
179.84812999999991
 51
270.15187999999722
  0
LINE
  5
8CB3
  8
AM_0
 10
30.22351537471695
 20
48.0219975727437
 30
0.0
 11
30.22351537471695
 21
44.292001572743793
 31
0.0
  0
ARC
  5
8CB4
  8
AM_0
 10
21.431145374717062
 20
38.877664572743697
 30
0.0
 40
0.304344
 50
6.4777590999992869
 51
89.547817000002453
  0
ARC
  5
8CB5
  8
AM_0
 10
21.431925374716918
 20
38.8769175727437
 30
0.0
 40
0.8050760400000001
 50
5.3506319000004003
 51
89.888465999998445
  0
LINE
  5
8CB6
  8
AM_0
 10
21.22351537471695
 20
39.682000572743782
 30
0.0
 11
21.22351537471695
 21
39.181987572743871
 31
0.0
  0
LINE
  5
8CB7
  8
AM_0
 10
21.22351537471695
 20
39.682000572743782
 30
0.0
 11
21.43351537471699
 21
39.682000572743782
 31
0.0
  0
ARC
  5
8CB8
  8
AM_0
 10
27.771585374716999
 20
50.682109572743798
 30
0.0
 40
4.0504481999999991
 50
99.063520000001105
 51
224.9205999999968
  0
ARC
  5
8CB9
  8
AM_0
 10
45.365955374717032
 20
81.678478572743785
 30
0.0
 40
9.0035201999999952
 50
90.015528000004579
 51
161.99145000000081
  0
ARC
  5
8CBA
  8
AM_0
 10
45.370095374717032
 20
81.681469572743481
 30
0.0
 40
4.0005161999999981
 50
90.094088000008185
 51
162.08606999999509
  0
LINE
  5
8CBB
  8
AM_0
 10
122.72350537471689
 20
41.832010572743798
 30
0.0
 11
224.72350537471689
 21
41.832010572743798
 31
0.0
  0
LINE
  5
8CBC
  8
AM_0
 10
218.0735553747169
 20
52.182001572743772
 30
0.0
 11
83.273565374716995
 21
52.182001572743772
 31
0.0
  0
LINE
  5
8CBD
  8
AM_0
 10
100.7235153747169
 20
26.32198657274381
 30
0.0
 11
217.53349537471689
 21
26.32198657274381
 31
0.0
  0
LINE
  5
8CBE
  8
AM_0
 10
173.72350537471681
 20
51.462001572743702
 30
0.0
 11
221.54350537471689
 21
51.462001572743702
 31
0.0
  0
LINE
  5
8CBF
  8
AM_0
 10
122.72350537471689
 20
41.831995572743757
 30
0.0
 11
87.72349537471699
 21
43.861993572743863
 31
0.0
  0
LINE
  5
8CC0
  8
AM_0
 10
81.993525374716896
 20
81.911968572743817
 30
0.0
 11
122.72350537471689
 21
81.911968572743817
 31
0.0
  0
LINE
  5
8CC1
  8
AM_0
 10
122.22350537471689
 20
62.182000572743782
 30
0.0
 11
83.273565374716995
 21
62.182000572743782
 31
0.0
  0
LINE
  5
8CC2
  8
AM_0
 10
82.18351537471699
 20
64.622005572743845
 30
0.0
 11
122.22350537471689
 21
64.622005572743845
 31
0.0
  0
LINE
  5
8CC3
  8
AM_0
 10
122.22350537471689
 20
64.182001572743772
 30
0.0
 11
83.273565374716995
 21
64.182001572743772
 31
0.0
  0
LINE
  5
8CC4
  8
AM_0
 10
82.053525374717097
 20
71.841991572743609
 30
0.0
 11
122.72350537471689
 21
71.841991572743609
 31
0.0
  0
LINE
  5
8CC5
  8
AM_0
 10
122.72350537471689
 20
72.181987572743793
 30
0.0
 11
83.283495374716935
 21
72.181987572743793
 31
0.0
  0
LINE
  5
8CC6
  8
AM_0
 10
82.053525374717097
 20
74.502010572743686
 30
0.0
 11
122.72350537471689
 21
74.502010572743686
 31
0.0
  0
LINE
  5
8CC7
  8
AM_0
 10
122.72350537471689
 20
84.181987572743864
 30
0.0
 11
83.283495374716935
 21
84.181987572743864
 31
0.0
  0
LINE
  5
8CC8
  8
AM_0
 10
122.72350537471689
 20
82.181986572743796
 30
0.0
 11
83.283495374716935
 21
82.181986572743796
 31
0.0
  0
LINE
  5
8CC9
  8
AM_0
 10
81.993525374716896
 20
84.45200557274363
 30
0.0
 11
122.72350537471689
 21
84.45200557274363
 31
0.0
  0
LINE
  5
8CCA
  8
AM_0
 10
81.993525374716896
 20
91.921978572743797
 30
0.0
 11
122.72350537471689
 21
91.921978572743797
 31
0.0
  0
LINE
  5
8CCB
  8
AM_0
 10
81.993525374716896
 20
94.451977572743715
 30
0.0
 11
122.72350537471689
 21
94.451977572743715
 31
0.0
  0
LINE
  5
8CCC
  8
AM_0
 10
122.72350537471689
 20
54.181987572743893
 30
0.0
 11
83.713545374717086
 21
54.181987572743893
 31
0.0
  0
LINE
  5
8CCD
  8
AM_0
 10
82.18351537471699
 20
61.701991572743779
 30
0.0
 11
122.22350537471689
 21
61.701991572743779
 31
0.0
  0
LINE
  5
8CCE
  8
AM_0
 10
100.7235153747169
 20
24.29198557274367
 30
0.0
 11
153.72355537471699
 21
24.29198557274367
 31
0.0
  0
LINE
  5
8CCF
  8
AM_0
 10
100.7235153747169
 20
22.941994572743681
 30
0.0
 11
153.72355537471699
 21
22.941994572743681
 31
0.0
  0
LINE
  5
8CD0
  8
AM_0
 10
100.7235153747169
 20
22.271998572743762
 30
0.0
 11
153.72355537471699
 21
22.271998572743762
 31
0.0
  0
LINE
  5
8CD1
  8
AM_0
 10
122.72350537471689
 20
92.181988572743762
 30
0.0
 11
83.283495374716935
 21
92.181988572743762
 31
0.0
  0
LINE
  5
8CD2
  8
AM_0
 10
122.72350537471689
 20
94.181986572743725
 30
0.0
 11
83.283495374716935
 21
94.181986572743725
 31
0.0
  0
LINE
  5
8CD3
  8
AM_0
 10
122.72350537471689
 20
74.18200357274381
 30
0.0
 11
83.283495374716935
 21
74.18200357274381
 31
0.0
  0
LINE
  5
8CD4
  8
AM_0
 10
82.403505374717014
 20
51.462001572743702
 30
0.0
 11
173.72350537471681
 21
51.462001572743702
 31
0.0
  0
LINE
  5
8CD5
  8
AM_0
 10
82.403505374717014
 20
54.811990572743873
 30
0.0
 11
122.72350537471689
 21
54.811990572743873
 31
0.0
  0
LINE
  5
8CD6
  8
AM_0
 10
77.723505374716993
 20
30.751993572743679
 30
0.0
 11
77.723505374716993
 21
88.181986572743696
 31
0.0
  0
LINE
  5
8CD7
  8
AM_0
 10
77.723505374716993
 20
45.491983572743763
 30
0.0
 11
87.723555374717094
 21
45.491983572743763
 31
0.0
  0
LINE
  5
8CD8
  8
AM_0
 10
83.863515374717068
 20
26.5119885727437
 30
0.0
 11
97.223505374716964
 21
26.5119885727437
 31
0.0
  0
LINE
  5
8CD9
  8
AM_0
 10
77.723505374716993
 20
39.83199457274349
 30
0.0
 11
87.723555374717094
 21
39.83199457274349
 31
0.0
  0
LINE
  5
8CDA
  8
AM_0
 10
83.953545374717123
 20
35.201989572743791
 30
0.0
 11
97.223505374716964
 21
35.201989572743791
 31
0.0
  0
LINE
  5
8CDB
  8
AM_0
 10
83.833485374716943
 20
24.881998572743669
 30
0.0
 11
97.333485374716929
 21
24.881998572743669
 31
0.0
  0
LINE
  5
8CDC
  8
AM_0
 10
83.893545374716936
 20
29.922007572743791
 30
0.0
 11
97.223505374716964
 21
29.922007572743791
 31
0.0
  0
ARC
  5
8CDD
  8
AM_0
 10
79.513665374716993
 20
35.649193572743741
 30
0.0
 40
1.50278811
 50
12.01334199999963
 51
90.004668000003363
  0
ARC
  5
8CDE
  8
AM_0
 10
83.950545374716953
 20
37.201609572743791
 30
0.0
 40
1.9996281299999981
 50
190.36075999999841
 51
270.08532999999341
  0
ARC
  5
8CDF
  8
AM_0
 10
83.835915374716919
 20
26.88631657274362
 30
0.0
 40
2.004324029999998
 50
194.2780500000006
 51
269.93108999999242
  0
LINE
  5
8CE0
  8
AM_0
 10
77.723565374717069
 20
30.751993572743679
 30
0.0
 11
80.543505374716887
 21
30.68198557274377
 31
0.0
  0
ARC
  5
8CE1
  8
AM_0
 10
79.55851537471699
 20
29.560234572743688
 30
0.0
 40
1.5017800800000001
 50
14.332836000000739
 51
90.189382999992631
  0
ARC
  5
8CE2
  8
AM_0
 10
79.537845374717122
 20
31.585672572743931
 30
0.0
 40
1.4963320799999991
 50
13.382438000001009
 51
90.164589999994277
  0
ARC
  5
8CE3
  8
AM_0
 10
83.861445374717064
 20
28.513939572743588
 30
0.0
 40
2.0019479399999991
 50
193.3411399999984
 51
270.05947999999449
  0
ARC
  5
8CE4
  8
AM_0
 10
83.895435374716925
 20
31.9176885727436
 30
0.0
 40
1.995695999999995
 50
192.0225299999999
 51
269.94478000000271
  0
LINE
  5
8CE5
  8
AM_0
 10
81.943545374717147
 20
31.50197857274366
 30
0.0
 11
80.983515374716944
 21
35.961985572743799
 31
0.0
  0
LINE
  5
8CE6
  8
AM_0
 10
79.533495374716935
 20
33.081994572743497
 30
0.0
 11
81.593565374716945
 21
33.081994572743497
 31
0.0
  0
LINE
  5
8CE7
  8
AM_0
 10
79.553535374717043
 20
31.061989572743698
 30
0.0
 11
81.203535374716907
 21
31.061989572743698
 31
0.0
  0
LINE
  5
8CE8
  8
AM_0
 10
81.913515374716994
 20
28.051981572743681
 30
0.0
 11
80.993535374717126
 21
31.93198657274371
 31
0.0
  0
LINE
  5
8CE9
  8
AM_0
 10
81.893475374717127
 20
26.39199157274367
 30
0.0
 11
81.013485374716979
 21
29.93198557274377
 31
0.0
  0
LINE
  5
8CEA
  8
AM_0
 10
72.72355537471708
 20
44.292001572743793
 30
0.0
 11
72.72355537471708
 21
31.182001572743768
 31
0.0
  0
LINE
  5
8CEB
  8
AM_0
 10
79.513485374716993
 20
37.15198657274378
 30
0.0
 11
81.933525374716936
 21
37.15198657274378
 31
0.0
  0
LINE
  5
8CEC
  8
AM_0
 10
81.443535374716902
 20
39.831979572743812
 30
0.0
 11
81.983505374716955
 21
36.84197557274382
 31
0.0
  0
LINE
  5
8CED
  8
AM_0
 10
77.723505374716993
 20
53.88199957274378
 30
0.0
 11
80.89354537471695
 21
53.88199957274378
 31
0.0
  0
ARC
  5
8CEE
  8
AM_0
 10
82.403505374717014
 20
53.137003572743808
 30
0.0
 40
1.67500812
 50
90.00000299999769
 51
270.0
  0
ARC
  5
8CEF
  8
AM_0
 10
83.273565374716995
 20
53.182000572743782
 30
0.0
 40
1.000004069999999
 50
90.00000299999769
 51
270.0
  0
ARC
  5
8CF0
  8
AM_0
 10
97.224975374717118
 20
25.013422572743821
 30
0.0
 40
1.498559999999999
 50
359.94488000000052
 51
90.055115000003084
  0
ARC
  5
8CF1
  8
AM_0
 10
100.72606537471709
 20
26.294503572743679
 30
0.0
 40
2.00251584
 50
180.0718999999998
 51
269.9281000000002
  0
ARC
  5
8CF2
  8
AM_0
 10
97.342215374716929
 20
23.381707572743601
 30
0.0
 40
1.500312029999999
 50
14.683033999999299
 51
90.331662999994393
  0
ARC
  5
8CF3
  8
AM_0
 10
100.724655374717
 20
24.26841157274367
 30
0.0
 40
1.9964280599999991
 50
194.6946299999959
 51
269.96760999999151
  0
ARC
  5
8CF4
  8
AM_0
 10
100.7233353747169
 20
24.941812572743679
 30
0.0
 40
1.9998241199999991
 50
179.99493999999871
 51
270.00505999999473
  0
ARC
  5
8CF5
  8
AM_0
 10
97.221975374716948
 20
28.420495572743668
 30
0.0
 40
1.5015081599999991
 50
0.0575469979998106
 51
89.94245100000316
  0
ARC
  5
8CF6
  8
AM_0
 10
97.223145374716964
 20
33.70162357274392
 30
0.0
 40
1.500360179999999
 50
0.0138160000014509
 51
89.986184999999963
  0
ARC
  5
8CF7
  8
AM_0
 10
100.72516537471699
 20
28.323634572743678
 30
0.0
 40
2.0016401400000001
 50
180.04696000000129
 51
269.95304000000829
  0
LINE
  5
8CF8
  8
AM_0
 10
98.723505374716993
 20
26.292001572743679
 30
0.0
 11
98.723505374716993
 21
33.701989572743919
 31
0.0
  0
ARC
  5
8CF9
  8
AM_0
 10
86.893725374716965
 20
46.589104572743778
 30
0.0
 40
5.0021840999999991
 50
5.4245260000009159
 51
80.45142500000162
  0
LINE
  5
8CFA
  8
AM_0
 10
87.723555374717094
 20
39.83199457274349
 30
0.0
 11
87.723555374717094
 21
53.88199957274378
 31
0.0
  0
ARC
  5
8CFB
  8
AM_0
 10
87.353745374716937
 20
50.528512572743693
 30
0.0
 40
6.007896599999996
 50
273.52844999999832
 51
314.61726999999649
  0
ARC
  5
8CFC
  8
AM_0
 10
90.870045374716923
 20
46.973077572743861
 30
0.0
 40
1.007376
 50
314.29032000000012
 51
5.0634049000005561
  0
ARC
  5
8CFD
  8
AM_0
 10
99.72355537471708
 20
53.182000572743782
 30
0.0
 40
1.000004069999999
 50
90.00000299999769
 51
270.0
  0
LINE
  5
8CFE
  8
ﾁｭｳｼﾝｾﾝ
 10
60.723555374717073
 20
75.374455840425185
 30
0.0
 11
60.723555374717073
 21
100.98951730506219
 31
0.0
  0
ARC
  5
8CFF
  8
AM_0
 10
83.273565374716995
 20
63.181987572743779
 30
0.0
 40
1.000004069999999
 50
90.00000299999769
 51
270.0
  0
ARC
  5
8D00
  8
AM_0
 10
82.18351537471699
 20
63.161983572743779
 30
0.0
 40
1.4600000699999991
 50
90.00000299999769
 51
270.0
  0
ARC
  5
8D01
  8
AM_0
 10
83.274825374716983
 20
73.182001572743729
 30
0.0
 40
1.00003602
 50
89.500715999993631
 51
270.49928999999503
  0
ARC
  5
8D02
  8
AM_0
 10
82.053525374717097
 20
73.17199357274373
 30
0.0
 40
1.33000008
 50
90.00000299999769
 51
270.0
  0
LINE
  5
8D03
  8
AM_0
 10
60.723555374717073
 20
80.181988572743791
 30
0.0
 11
77.723505374716993
 21
80.181988572743791
 31
0.0
  0
LINE
  5
8D04
  8
AM_0
 10
60.723555374717073
 20
96.181987572743793
 30
0.0
 11
77.723505374716993
 21
96.181987572743793
 31
0.0
  0
ARC
  5
8D05
  8
AM_0
 10
60.723555374717073
 20
88.175974572743584
 30
0.0
 40
5.0000519999999984
 50
23.653230000000121
 51
156.34676999999979
  0
ARC
  5
8D06
  8
AM_0
 10
60.723555374717073
 20
88.175974572743584
 30
0.0
 40
4.9952319000000003
 50
203.52670000000651
 51
336.4732900000007
  0
LINE
  5
8D07
  8
AM_0
 10
55.223505374716979
 20
90.181987572743793
 30
0.0
 11
66.223515374716953
 21
90.181987572743793
 31
0.0
  0
LINE
  5
8D08
  8
AM_0
 10
55.223505374716979
 20
86.181988572743791
 30
0.0
 11
66.223515374716953
 21
86.181988572743791
 31
0.0
  0
LINE
  5
8D09
  8
AM_0
 10
55.223505374716979
 20
85.681987572743779
 30
0.0
 11
55.223505374716979
 21
90.681988572743805
 31
0.0
  0
LINE
  5
8D0A
  8
AM_0
 10
68.723505374716979
 20
85.681987572743779
 30
0.0
 11
68.723505374716979
 21
90.681988572743805
 31
0.0
  0
LINE
  5
8D0B
  8
AM_0
 10
66.223515374716953
 20
85.681987572743779
 30
0.0
 11
66.223515374716953
 21
90.681988572743805
 31
0.0
  0
LINE
  5
8D0C
  8
AM_0
 10
66.223515374716953
 20
90.681988572743805
 30
0.0
 11
68.723505374716979
 21
90.681988572743805
 31
0.0
  0
LINE
  5
8D0D
  8
AM_0
 10
66.223515374716953
 20
85.681987572743779
 30
0.0
 11
68.723505374716979
 21
85.681987572743779
 31
0.0
  0
ARC
  5
8D0E
  8
AM_0
 10
81.993525374716896
 20
83.181988572743805
 30
0.0
 40
1.270004069999999
 50
90.00000299999769
 51
270.0
  0
ARC
  5
8D0F
  8
AM_0
 10
83.274825374716983
 20
83.181988572743805
 30
0.0
 40
1.00003602
 50
89.500715999993631
 51
270.49928999999503
  0
ARC
  5
8D10
  8
AM_0
 10
83.274825374716983
 20
93.181987572743779
 30
0.0
 40
1.00003602
 50
89.500715999993631
 51
270.49928999999503
  0
ARC
  5
8D11
  8
AM_0
 10
81.993525374716896
 20
93.186991572743779
 30
0.0
 40
1.265004089999999
 50
90.00000299999769
 51
270.0
  0
ARC
  5
8D12
  8
AM_0
 10
99.72355537471708
 20
63.181987572743779
 30
0.0
 40
1.000004069999999
 50
90.00000299999769
 51
270.0
  0
ARC
  5
8D13
  8
AM_0
 10
99.72355537471708
 20
73.182001572743729
 30
0.0
 40
1.000004069999999
 50
90.00000299999769
 51
270.0
  0
ARC
  5
8D14
  8
AM_0
 10
99.72355537471708
 20
83.181988572743805
 30
0.0
 40
1.000004069999999
 50
90.00000299999769
 51
270.0
  0
ARC
  5
8D15
  8
AM_0
 10
99.72355537471708
 20
93.181987572743779
 30
0.0
 40
1.000004069999999
 50
90.00000299999769
 51
270.0
  0
ARC
  5
8D16
  8
AM_0
 10
153.72265537471699
 20
24.27288157274381
 30
0.0
 40
2.000876009999998
 50
270.02510999999589
 51
359.97489000000081
  0
ARC
  5
8D17
  8
AM_0
 10
153.7211853747169
 20
24.944329572743921
 30
0.0
 40
2.002332029999998
 50
270.06674000000118
 51
359.93325999999882
  0
ARC
  5
8D18
  8
AM_0
 10
153.71851537471699
 20
26.297020572743971
 30
0.0
 40
2.00502402
 50
270.14341000000132
 51
359.85658999999862
  0
LINE
  5
8D19
  8
AM_0
 10
155.72350537471681
 20
24.271981572743918
 30
0.0
 11
155.72350537471681
 21
26.32198657274381
 31
0.0
  0
LINE
  5
8D1A
  8
AM_0
 10
266.55577537471709
 20
30.181984572743652
 30
0.0
 11
248.72350537471689
 21
30.181984572743652
 31
0.0
  0
LINE
  5
8D1B
  8
AM_0
 10
247.22350537471689
 20
20.18198557274377
 30
0.0
 11
267.2235153747169
 21
20.18198557274377
 31
0.0
  0
ARC
  5
8D1C
  8
AM_0
 10
221.54350537471689
 20
53.137003572743808
 30
0.0
 40
1.6749999899999961
 50
270.0
 51
90.00000299999769
  0
ARC
  5
8D1D
  8
AM_0
 10
219.57286537471691
 20
29.68851757274382
 30
0.0
 40
2.0065319999999991
 50
270.01926999999682
 51
347.72686999999991
  0
LINE
  5
8D1E
  8
AM_0
 10
219.4335153747158
 20
27.682000572743679
 30
0.0
 11
224.72350537471689
 21
27.682000572743679
 31
0.0
  0
LINE
  5
8D1F
  8
AM_0
 10
219.46348537471701
 20
27.801979572743679
 30
0.0
 11
222.923505374717
 21
40.721980572743803
 31
0.0
  0
LINE
  5
8D20
  8
AM_0
 10
221.54350537471689
 20
54.811990572743873
 30
0.0
 11
211.72350537471681
 21
54.811990572743873
 31
0.0
  0
ARC
  5
8D21
  8
AM_0
 10
217.52893537471701
 20
28.326394572743592
 30
0.0
 40
2.004416039999998
 50
270.13147999999228
 51
344.8333399999994
  0
LINE
  5
8D22
  8
AM_0
 10
218.0735553747169
 20
54.181987572743893
 30
0.0
 11
211.72350537471681
 21
54.181987572743893
 31
0.0
  0
LINE
  5
8D23
  8
AM_0
 10
211.72350537471681
 20
58.103247986174821
 30
0.0
 11
214.49353537471711
 21
58.181971572743791
 31
0.0
  0
ARC
  5
8D24
  8
AM_0
 10
218.06536537471689
 20
53.182000572743782
 30
0.0
 40
1.0000319699999971
 50
270.46929999999782
 51
89.530700000002156
  0
ARC
  5
8D25
  8
AM_0
 10
225.72301537471699
 20
37.14145957274377
 30
0.0
 40
0.99947604
 50
179.97008999999869
 51
270.02992000000683
  0
ARC
  5
8D26
  8
AM_0
 10
224.430585374717
 20
35.652673572743829
 30
0.0
 40
1.499328059999999
 50
89.888150999993556
 51
168.09384000000131
  0
ARC
  5
8D27
  8
AM_0
 10
238.7235153747169
 20
38.682001572743772
 30
0.0
 40
2.00000007
 50
270.0
 51
0.0
  0
LINE
  5
8D28
  8
AM_0
 10
237.7235253747169
 20
25.78708957274381
 30
0.0
 11
237.7235253747169
 21
36.682000572743782
 31
0.0
  0
ARC
  5
8D29
  8
AM_0
 10
236.72350537471689
 20
25.78708957274381
 30
0.0
 40
1.0000000199999961
 50
271.50000000000267
 51
0.0
  0
LINE
  5
8D2A
  8
AM_0
 10
225.72355537471699
 20
24.682000572743679
 30
0.0
 11
232.7235153747169
 21
24.682000572743679
 31
0.0
  0
ARC
  5
8D2B
  8
AM_0
 10
225.723765374717
 20
25.682167572743701
 30
0.0
 40
1.0001800499999971
 50
180.0103099999989
 51
269.98967999999968
  0
LINE
  5
8D2C
  8
AM_0
 10
232.7235153747169
 20
24.682000572743679
 30
0.0
 11
236.74972537471689
 21
24.78743857274366
 31
0.0
  0
LINE
  5
8D2D
  8
AM_0
 10
225.72355537471699
 20
36.142006572743689
 30
0.0
 11
232.7235153747169
 21
36.142006572743689
 31
0.0
  0
LINE
  5
8D2E
  8
AM_0
 10
221.5335153747171
 20
29.261986572743972
 30
0.0
 11
222.9735153747169
 21
35.961985572743799
 31
0.0
  0
LINE
  5
8D2F
  8
ｶｸﾚｾﾝ2
 10
252.2235153747169
 20
20.18198557274377
 30
0.0
 11
252.2235153747169
 21
30.181984572743652
 31
0.0
  0
LINE
  5
8D30
  8
AM_0
 10
247.22350537471689
 20
20.18198557274377
 30
0.0
 11
247.22350537471689
 21
28.681984572743652
 31
0.0
  0
LINE
  5
8D31
  8
AM_0
 10
242.67118537471691
 20
27.46050457274379
 30
0.0
 11
247.2235353747171
 21
27.579721572743662
 31
0.0
  0
ARC
  5
8D32
  8
AM_0
 10
238.7235153747169
 20
26.356774572743682
 30
0.0
 40
1.0000000199999961
 50
91.500001000001546
 51
180.00001000000091
  0
LINE
  5
8D33
  8
AM_0
 10
238.69735537471701
 20
27.356455572743471
 30
0.0
 11
242.67118537471691
 21
27.46050457274379
 31
0.0
  0
ARC
  5
8D34
  8
AM_0
 10
248.72350537471689
 20
28.681984572743652
 30
0.0
 40
1.500000029999998
 50
90.00000299999769
 51
180.00001000000091
  0
LINE
  5
8D35
  8
AM_0
 10
232.7235153747169
 20
50.18569357274378
 30
0.0
 11
238.7235153747169
 21
50.18569357274378
 31
0.0
  0
LINE
  5
8D36
  8
AM_0
 10
232.7235153747169
 20
36.682000572743782
 30
0.0
 11
238.7235153747169
 21
36.682000572743782
 31
0.0
  0
ARC
  5
8D37
  8
AM_0
 10
224.368905374717
 20
40.336009572743862
 30
0.0
 40
1.49599605
 50
89.821706999993253
 51
165.0476599999993
  0
LINE
  5
8D38
  8
AM_0
 10
224.43352537471691
 20
37.15198657274378
 30
0.0
 11
222.02356537471701
 21
37.15198657274378
 31
0.0
  0
LINE
  5
8D39
  8
AM_0
 10
224.72350537471689
 20
51.032008572743841
 30
0.0
 11
232.7235153747169
 21
51.032008572743841
 31
0.0
  0
LINE
  5
8D3A
  8
AM_0
 10
240.7235253747169
 20
38.682001572743772
 30
0.0
 11
240.7235253747169
 21
48.185695572743768
 31
0.0
  0
ARC
  5
8D3B
  8
AM_0
 10
238.7235153747169
 20
48.185695572743768
 30
0.0
 40
2.00000007
 50
0.0
 51
90.00000299999769
  0
LINE
  5
8D3C
  8
AM_0
 10
273.20296537471688
 20
64.007320572743794
 30
0.0
 11
269.53522537471707
 21
32.831446572743801
 31
0.0
  0
LINE
  5
8D3D
  8
AM_0
 10
268.22350537471692
 20
21.181984572743652
 30
0.0
 11
309.22351537471491
 21
21.181984572743652
 31
0.0
  0
LINE
  5
8D3E
  8
ｶｸﾚｾﾝ2
 10
262.22350537471692
 20
20.18198557274377
 30
0.0
 11
262.22350537471692
 21
30.181984572743652
 31
0.0
  0
LINE
  5
8D3F
  8
ﾁｭｳｼﾝｾﾝ
 10
257.22346537471702
 20
17.181985572743759
 30
0.0
 11
257.22346537471702
 21
33.181984572743652
 31
0.0
  0
ARC
  5
8D40
  8
AM_0
 10
268.22350537471692
 20
20.18198557274377
 30
0.0
 40
1.0000000199999961
 50
90.00000299999769
 51
180.00001000000091
  0
LINE
  5
8D41
  8
AM_0
 10
267.2235153747169
 20
20.18198557274377
 30
0.0
 11
267.2235153747169
 21
20.18198557274377
 31
0.0
  0
ARC
  5
8D42
  8
AM_0
 10
266.55577537471709
 20
33.181984572743652
 30
0.0
 40
3.0
 50
270.0
 51
353.29016000000121
  0
LINE
  5
8D43
  8
ｶｸﾚｾﾝ2
 10
315.2235153747169
 20
20.18198557274377
 30
0.0
 11
315.2235153747169
 21
30.181984572743652
 31
0.0
  0
LINE
  5
8D44
  8
ﾁｭｳｼﾝｾﾝ
 10
320.22346537471708
 20
17.181985572743759
 30
0.0
 11
320.22346537471708
 21
33.181984572743652
 31
0.0
  0
ARC
  5
8D45
  8
AM_0
 10
309.22351537471491
 20
20.18198557274377
 30
0.0
 40
1.0000000199999961
 50
0.0
 51
90.00000299999769
  0
LINE
  5
8D46
  8
AM_0
 10
310.22350537471692
 20
20.18198557274377
 30
0.0
 11
310.22350537471692
 21
20.18198557274377
 31
0.0
  0
ARC
  5
8D47
  8
AM_0
 10
310.22350537471692
 20
35.18198557274377
 30
0.0
 40
5.0000000999999967
 50
180.00001000000091
 51
270.0
  0
LINE
  5
8D48
  8
AM_0
 10
313.22350537471692
 20
51.94941157274377
 30
0.0
 11
305.22355537471708
 21
51.94941157274377
 31
0.0
  0
ARC
  5
8D49
  8
AM_0
 10
313.22350537471692
 20
56.94942757274378
 30
0.0
 40
5.0000000999999967
 50
270.0
 51
0.0
  0
LINE
  5
8D4A
  8
AM_0
 10
273.2235153747169
 20
92.932810572743591
 30
0.0
 11
273.2235153747169
 21
64.35784357274359
 31
0.0
  0
ARC
  5
8D4B
  8
AM_0
 10
270.2235153747169
 20
64.35784357274359
 30
0.0
 40
3.0
 50
353.29016000000121
 51
0.0
  0
LINE
  5
8D4C
  8
AM_0
 10
30.22351537471695
 20
132.07198057274371
 30
0.0
 11
77.723505374716993
 21
132.07198057274371
 31
0.0
  0
LINE
  5
8D4D
  8
AM_0
 10
30.22351537471695
 20
121.8220035727435
 30
0.0
 11
72.72355537471708
 21
121.8220035727435
 31
0.0
  0
LINE
  5
8D4E
  8
AM_0
 10
29.723505374716972
 20
145.18198057274381
 30
0.0
 11
77.723505374716993
 21
145.18198057274381
 31
0.0
  0
ARC
  5
8D4F
  8
AM_0
 10
29.724045374716979
 20
143.18143057274341
 30
0.0
 40
2.000536019999998
 50
90.015328999998147
 51
179.98467999999841
  0
ARC
  5
8D50
  8
AM_0
 10
28.621275374717008
 20
125.5645005727435
 30
0.0
 40
2.9977641899999981
 50
179.8564500000015
 51
275.78659000000317
  0
LINE
  5
8D51
  8
AM_0
 10
28.92352537471697
 20
122.4719985727437
 30
0.0
 11
28.92352537471697
 21
131.67199057274371
 31
0.0
  0
LINE
  5
8D52
  8
AM_0
 10
28.92352537471697
 20
122.4719985727437
 30
0.0
 11
30.22351537471695
 21
122.4719985727437
 31
0.0
  0
LINE
  5
8D53
  8
AM_0
 10
27.72355537471708
 20
131.4319905727437
 30
0.0
 11
27.72355537471708
 21
143.1820005727437
 31
0.0
  0
ARC
  5
8D54
  8
AM_0
 10
28.621335374717091
 20
128.5694805727434
 30
0.0
 40
2.99777994
 50
84.213882999997935
 51
179.95210999999989
  0
LINE
  5
8D55
  8
AM_0
 10
25.623525374717008
 20
125.57200057274341
 30
0.0
 11
25.623525374717008
 21
128.57200057274341
 31
0.0
  0
LINE
  5
8D56
  8
AM_0
 10
28.92352537471697
 20
131.67199057274371
 30
0.0
 11
30.22351537471695
 21
131.67199057274371
 31
0.0
  0
LINE
  5
8D57
  8
AM_0
 10
122.72350537471689
 20
134.53198057274369
 30
0.0
 11
224.72350537471689
 21
134.53198057274369
 31
0.0
  0
LINE
  5
8D58
  8
AM_0
 10
91.403505374717042
 20
124.9019805727435
 30
0.0
 11
221.54350537471689
 21
124.9019805727435
 31
0.0
  0
LINE
  5
8D59
  8
AM_0
 10
218.0735553747169
 20
124.1819805727438
 30
0.0
 11
92.273565374717009
 21
124.1819805727438
 31
0.0
  0
LINE
  5
8D5A
  8
AM_0
 10
100.7235153747169
 20
150.04201057274341
 30
0.0
 11
217.53349537471689
 21
150.04201057274341
 31
0.0
  0
LINE
  5
8D5B
  8
AM_0
 10
122.723565374717
 20
134.53198057274369
 30
0.0
 11
87.72349537471699
 21
132.5020005727437
 31
0.0
  0
LINE
  5
8D5C
  8
AM_0
 10
82.053525374717097
 20
101.8619805727437
 30
0.0
 11
122.72350537471689
 21
101.8619805727437
 31
0.0
  0
LINE
  5
8D5D
  8
AM_0
 10
82.053525374717097
 20
104.52198457274351
 30
0.0
 11
122.72350537471689
 21
104.52198457274351
 31
0.0
  0
LINE
  5
8D5E
  8
AM_0
 10
91.183515374717004
 20
111.7419855727438
 30
0.0
 11
122.22350537471689
 21
111.7419855727438
 31
0.0
  0
LINE
  5
8D5F
  8
AM_0
 10
91.183515374717004
 20
114.6720105727438
 30
0.0
 11
122.22350537471689
 21
114.6720105727438
 31
0.0
  0
LINE
  5
8D60
  8
AM_0
 10
91.403505374717042
 20
121.5520155727437
 30
0.0
 11
122.7235053747179
 21
121.5520155727437
 31
0.0
  0
LINE
  5
8D61
  8
AM_0
 10
122.72350537471689
 20
102.18198757274369
 30
0.0
 11
83.283495374716935
 21
102.18198757274369
 31
0.0
  0
LINE
  5
8D62
  8
AM_0
 10
122.72350537471689
 20
104.18198857274371
 30
0.0
 11
83.283495374716935
 21
104.18198857274371
 31
0.0
  0
LINE
  5
8D63
  8
AM_0
 10
122.22350537471689
 20
112.1819895727437
 30
0.0
 11
92.273565374717009
 21
112.1819895727437
 31
0.0
  0
LINE
  5
8D64
  8
AM_0
 10
122.22350537471689
 20
114.18198757274379
 30
0.0
 11
92.273565374717009
 21
114.18198757274379
 31
0.0
  0
LINE
  5
8D65
  8
AM_0
 10
122.7235053747179
 20
122.18198857274371
 30
0.0
 11
92.273565374717009
 21
122.18198857274371
 31
0.0
  0
LINE
  5
8D66
  8
AM_0
 10
100.7235153747169
 20
152.0719905727436
 30
0.0
 11
153.72355537471699
 21
152.0719905727436
 31
0.0
  0
LINE
  5
8D67
  8
AM_0
 10
100.7235153747169
 20
153.42199057274371
 30
0.0
 11
153.72355537471699
 21
153.42199057274371
 31
0.0
  0
LINE
  5
8D68
  8
AM_0
 10
100.7235153747169
 20
154.10200057274361
 30
0.0
 11
153.72355537471699
 21
154.10200057274361
 31
0.0
  0
ARC
  5
8D69
  8
AM_0
 10
83.89519537471709
 20
144.45658057274369
 30
0.0
 40
1.9953880799999959
 50
90.048066999991249
 51
167.98461999999969
  0
LINE
  5
8D6A
  8
AM_0
 10
98.723505374716993
 20
150.0719805727436
 30
0.0
 11
98.723505374716993
 21
142.66201057274381
 31
0.0
  0
LINE
  5
8D6B
  8
AM_0
 10
81.913575374717084
 20
148.31200057274361
 30
0.0
 11
80.993535374717126
 21
144.43198057274381
 31
0.0
  0
LINE
  5
8D6C
  8
AM_0
 10
83.953545374717123
 20
141.16201057274381
 30
0.0
 11
97.223505374716964
 21
141.16201057274381
 31
0.0
  0
LINE
  5
8D6D
  8
AM_0
 10
77.723505374716993
 20
136.53199057274381
 30
0.0
 11
87.723555374717094
 21
136.53199057274381
 31
0.0
  0
LINE
  5
8D6E
  8
AM_0
 10
77.723505374716993
 20
130.87198057274381
 30
0.0
 11
87.723555374717094
 21
130.87198057274381
 31
0.0
  0
LINE
  5
8D6F
  8
AM_0
 10
77.723505374716993
 20
122.4919875727437
 30
0.0
 11
87.723555374717094
 21
122.4919875727437
 31
0.0
  0
ARC
  5
8D70
  8
AM_0
 10
82.053525374717097
 20
103.1919975727437
 30
0.0
 40
1.33000008
 50
90.00000299999769
 51
270.0
  0
ARC
  5
8D71
  8
AM_0
 10
83.274825374716983
 20
103.1819865727438
 30
0.0
 40
1.00003602
 50
89.500715999993631
 51
270.49928999999503
  0
LINE
  5
8D72
  8
AM_0
 10
72.72355537471708
 20
96.181987572743793
 30
0.0
 11
72.72355537471708
 21
145.18198057274381
 31
0.0
  0
ARC
  5
8D73
  8
AM_0
 10
79.532715374717085
 20
144.78481057274371
 30
0.0
 40
1.502808149999999
 50
270.03078999999502
 51
346.42218000000179
  0
ARC
  5
8D74
  8
AM_0
 10
79.514775374716933
 20
140.72611057274381
 30
0.0
 40
1.504140059999999
 50
269.95424999999199
 51
347.55525000000119
  0
ARC
  5
8D75
  8
AM_0
 10
83.945355374717096
 20
139.1686005727438
 30
0.0
 40
1.993432109999999
 50
89.765883999992738
 51
169.78803000000019
  0
LINE
  5
8D76
  8
AM_0
 10
79.533495374716935
 20
143.28199057274369
 30
0.0
 11
81.593565374716945
 21
143.28199057274369
 31
0.0
  0
LINE
  5
8D77
  8
AM_0
 10
81.943485374717071
 20
144.87199057274341
 30
0.0
 11
80.983455374717096
 21
140.4019905727437
 31
0.0
  0
LINE
  5
8D78
  8
AM_0
 10
79.513485374716993
 20
139.2220005727437
 30
0.0
 11
81.933525374716936
 21
139.2220005727437
 31
0.0
  0
LINE
  5
8D79
  8
AM_0
 10
81.443475374717067
 20
136.53199057274381
 30
0.0
 11
81.983505374716955
 21
139.5220305727434
 31
0.0
  0
ARC
  5
8D7A
  8
AM_0
 10
92.273565374717009
 20
123.1819905727437
 30
0.0
 40
1.000004069999999
 50
90.00000299999769
 51
270.0
  0
ARC
  5
8D7B
  8
AM_0
 10
91.403505374717042
 20
123.22696057274359
 30
0.0
 40
1.67500812
 50
90.00000299999769
 51
270.0
  0
ARC
  5
8D7C
  8
AM_0
 10
99.72355537471708
 20
123.1819905727437
 30
0.0
 40
1.000004069999999
 50
90.00000299999769
 51
270.0
  0
LINE
  5
8D7D
  8
AM_0
 10
87.723555374717094
 20
136.53199057274381
 30
0.0
 11
87.723555374717094
 21
122.4919875727437
 31
0.0
  0
ARC
  5
8D7E
  8
AM_0
 10
92.273565374717009
 20
113.18198857274371
 30
0.0
 40
1.000004069999999
 50
90.00000299999769
 51
270.0
  0
ARC
  5
8D7F
  8
AM_0
 10
91.183515374717004
 20
113.2069815727437
 30
0.0
 40
1.46500008
 50
90.00000299999769
 51
270.0
  0
ARC
  5
8D80
  8
AM_0
 10
99.72355537471708
 20
113.18198857274371
 30
0.0
 40
1.000004069999999
 50
90.00000299999769
 51
270.0
  0
ARC
  5
8D81
  8
AM_0
 10
99.72355537471708
 20
103.1819865727438
 30
0.0
 40
1.000004069999999
 50
90.00000299999769
 51
270.0
  0
ARC
  5
8D82
  8
AM_0
 10
90.873465374716929
 20
129.3921405727437
 30
0.0
 40
1.004135999999999
 50
354.8488399999992
 51
45.797436000004112
  0
ARC
  5
8D83
  8
AM_0
 10
87.344715374716984
 20
125.85004057274379
 30
0.0
 40
6.0039084000000011
 50
45.223692999997049
 51
86.382714000002196
  0
ARC
  5
8D84
  8
AM_0
 10
86.888475374717004
 20
129.7797705727435
 30
0.0
 40
5.0078918999999971
 50
279.59871999999461
 51
354.52532000000048
  0
ARC
  5
8D85
  8
AM_0
 10
97.217895374717045
 20
142.66765057274381
 30
0.0
 40
1.5056760899999959
 50
270.2155199999923
 51
359.78447000000108
  0
LINE
  5
8D86
  8
AM_0
 10
83.833485374716943
 20
151.48198057274371
 30
0.0
 11
97.333485374716929
 21
151.48198057274371
 31
0.0
  0
LINE
  5
8D87
  8
AM_0
 10
83.863515374717068
 20
149.85196057274371
 30
0.0
 11
97.223505374716964
 21
149.85196057274371
 31
0.0
  0
LINE
  5
8D88
  8
AM_0
 10
83.893545374716936
 20
146.4519705727437
 30
0.0
 11
97.223505374716964
 21
146.4519705727437
 31
0.0
  0
LINE
  5
8D89
  8
AM_0
 10
77.723505374716993
 20
145.61197057274359
 30
0.0
 11
80.543505374716887
 21
145.68196057274389
 31
0.0
  0
ARC
  5
8D8A
  8
AM_0
 10
83.830875374716925
 20
149.48419057274359
 30
0.0
 40
1.9977801299999991
 50
89.923080999997794
 51
165.86777000000001
  0
ARC
  5
8D8B
  8
AM_0
 10
79.551825374717055
 20
146.8090905727436
 30
0.0
 40
1.5070961099999991
 50
270.0648200000017
 51
345.90218000000061
  0
ARC
  5
8D8C
  8
AM_0
 10
83.856375374717118
 20
147.85651057274359
 30
0.0
 40
1.995484169999999
 50
89.79345799999912
 51
166.8059200000024
  0
LINE
  5
8D8D
  8
AM_0
 10
81.89353537471699
 20
149.97199057274349
 30
0.0
 11
81.013545374717054
 21
146.44201057274361
 31
0.0
  0
LINE
  5
8D8E
  8
AM_0
 10
79.553535374717043
 20
145.3019805727437
 30
0.0
 11
81.203535374716907
 21
145.3019805727437
 31
0.0
  0
ARC
  5
8D8F
  8
AM_0
 10
97.337145374717011
 20
152.9888805727438
 30
0.0
 40
1.506888089999999
 50
269.86222999999939
 51
345.12307000000237
  0
ARC
  5
8D90
  8
AM_0
 10
97.219665374717124
 20
151.35583057274351
 30
0.0
 40
1.5038481299999991
 50
270.14640000000293
 51
359.85360000000009
  0
ARC
  5
8D91
  8
AM_0
 10
97.221735374717127
 20
147.9538005727436
 30
0.0
 40
1.501796039999995
 50
270.06854999999888
 51
359.93145000000101
  0
ARC
  5
8D92
  8
AM_0
 10
100.726005374717
 20
152.10715057274371
 30
0.0
 40
1.99484415
 50
90.071657999991345
 51
165.63719999999981
  0
ARC
  5
8D93
  8
AM_0
 10
100.71808537471701
 20
151.42741057274361
 30
0.0
 40
1.99457616
 50
89.844008000000017
 51
180.15598999999941
  0
ARC
  5
8D94
  8
AM_0
 10
100.720755374717
 20
150.0747705727436
 30
0.0
 40
1.9972080599999991
 50
89.919857000000462
 51
180.08013999999881
  0
ARC
  5
8D95
  8
AM_0
 10
100.7199153747169
 20
148.04560057274389
 30
0.0
 40
1.996384079999995
 50
89.896162999993464
 51
180.10383999999931
  0
ARC
  5
8D96
  8
AM_0
 10
153.7228953747169
 20
152.10136057274369
 30
0.0
 40
2.0006240100000001
 50
0.0178240009987547
 51
89.98217599999785
  0
ARC
  5
8D97
  8
AM_0
 10
153.726435374717
 20
151.4249205727437
 30
0.0
 40
1.997088119999999
 50
359.91637999999853
 51
90.083625000000751
  0
ARC
  5
8D98
  8
AM_0
 10
153.72382537471699
 20
150.07228057274381
 30
0.0
 40
1.999720049999999
 50
359.9919399999992
 51
90.008061999993785
  0
LINE
  5
8D99
  8
AM_0
 10
155.72350537471681
 20
152.10196057274351
 30
0.0
 11
155.72350537471681
 21
150.04201057274341
 31
0.0
  0
LINE
  5
8D9A
  8
AM_0
 10
238.69732537471569
 20
149.0075505727437
 30
0.0
 11
270.2235153747169
 21
148.18201057274359
 31
0.0
  0
LINE
  5
8D9B
  8
AM_0
 10
242.17585537471689
 20
130.7888505727438
 30
0.0
 11
281.22352537471693
 21
130.7888505727438
 31
0.0
  0
LINE
  5
8D9C
  8
AM_0
 10
219.46348537471701
 20
148.56202057274371
 30
0.0
 11
222.923505374717
 21
135.6420405727437
 31
0.0
  0
LINE
  5
8D9D
  8
AM_0
 10
221.5335153747171
 20
147.10201057274361
 30
0.0
 11
222.9735153747169
 21
140.4019905727437
 31
0.0
  0
LINE
  5
8D9E
  8
AM_0
 10
237.7235253747169
 20
139.6819905727437
 30
0.0
 11
237.7235253747169
 21
150.57688057274359
 31
0.0
  0
ARC
  5
8D9F
  8
AM_0
 10
221.54350537471689
 20
123.22696057274359
 30
0.0
 40
1.6749999899999961
 50
270.0
 51
90.00000299999769
  0
LINE
  5
8DA0
  8
AM_0
 10
221.54350537471689
 20
121.5520155727437
 30
0.0
 11
211.72350537471681
 21
121.5520155727437
 31
0.0
  0
ARC
  5
8DA1
  8
AM_0
 10
218.06536537471689
 20
123.1819905727437
 30
0.0
 40
1.0000319699999971
 50
270.46929999999782
 51
89.530700000002156
  0
LINE
  5
8DA2
  8
AM_0
 10
211.72350537471681
 20
122.0820135727437
 30
0.0
 11
218.0735553747169
 21
122.0820135727437
 31
0.0
  0
LINE
  5
8DA3
  8
AM_0
 10
211.72350537471681
 20
118.2607131593124
 30
0.0
 11
214.49353537471711
 21
118.1819895727437
 31
0.0
  0
LINE
  5
8DA4
  8
AM_0
 10
232.7235153747169
 20
126.17830057274379
 30
0.0
 11
238.7235153747169
 21
126.17830057274379
 31
0.0
  0
LINE
  5
8DA5
  8
AM_0
 10
232.7235153747169
 20
139.6819905727437
 30
0.0
 11
238.7235153747169
 21
139.6819905727437
 31
0.0
  0
LINE
  5
8DA6
  8
AM_0
 10
224.72350537471689
 20
125.3319705727437
 30
0.0
 11
232.7235153747169
 21
125.3319705727437
 31
0.0
  0
LINE
  5
8DA7
  8
AM_0
 10
225.72355537471699
 20
140.22199057274381
 30
0.0
 11
232.7235153747169
 21
140.22199057274381
 31
0.0
  0
ARC
  5
8DA8
  8
AM_0
 10
224.37376537471701
 20
136.03438057274369
 30
0.0
 40
1.50239199
 50
195.14000999999971
 51
269.99063999999328
  0
ARC
  5
8DA9
  8
AM_0
 10
225.71788537471701
 20
139.2276105727438
 30
0.0
 40
0.99440004
 50
89.676491000006521
 51
180.32351000000091
  0
ARC
  5
8DAA
  8
AM_0
 10
224.4293853747169
 20
140.7224505727437
 30
0.0
 40
1.500476039999995
 50
192.3322299999987
 51
270.15827999999971
  0
LINE
  5
8DAB
  8
AM_0
 10
224.43352537471691
 20
139.2220005727437
 30
0.0
 11
222.02356537471701
 21
139.2220005727437
 31
0.0
  0
LINE
  5
8DAC
  8
AM_0
 10
240.7235253747169
 20
128.1783105727437
 30
0.0
 11
240.7235253747169
 21
137.68198057274381
 31
0.0
  0
ARC
  5
8DAD
  8
AM_0
 10
238.7235153747169
 20
128.1783105727437
 30
0.0
 40
2.00000007
 50
270.0
 51
0.0
  0
ARC
  5
8DAE
  8
AM_0
 10
238.7235153747169
 20
137.68198057274381
 30
0.0
 40
2.00000007
 50
0.0
 51
90.00000299999769
  0
ARC
  5
8DAF
  8
AM_0
 10
219.57799537471689
 20
146.68180057274381
 30
0.0
 40
2.0001800699999981
 50
12.126352000000409
 51
90.127514999991448
  0
LINE
  5
8DB0
  8
AM_0
 10
219.4335153747158
 20
148.68199057274359
 30
0.0
 11
224.72350537471689
 21
148.68199057274359
 31
0.0
  0
ARC
  5
8DB1
  8
AM_0
 10
217.534005374717
 20
148.04419057274359
 30
0.0
 40
1.997795999999999
 50
15.02159699999903
 51
90.013580999990594
  0
ARC
  5
8DB2
  8
AM_0
 10
236.72350537471689
 20
150.57688057274359
 30
0.0
 40
1.0000000199999961
 50
0.0
 51
88.499997000000747
  0
LINE
  5
8DB3
  8
AM_0
 10
225.72355537471699
 20
151.68199057274359
 30
0.0
 11
232.7235153747169
 21
151.68199057274359
 31
0.0
  0
ARC
  5
8DB4
  8
AM_0
 10
225.718635374717
 20
150.6869205727435
 30
0.0
 40
0.9950640599999999
 50
89.714938000006995
 51
180.28506000000129
  0
LINE
  5
8DB5
  8
AM_0
 10
232.7235153747169
 20
151.68199057274359
 30
0.0
 11
236.7496653747171
 21
151.57657057274361
 31
0.0
  0
ARC
  5
8DB6
  8
AM_0
 10
238.7235153747169
 20
150.0072105727437
 30
0.0
 40
1.0000000199999961
 50
179.99998999999889
 51
268.50000999999872
  0
ARC
  5
8DB7
  8
AM_0
 10
313.22350537471692
 20
142.05430057274361
 30
0.0
 40
5.0000000999999967
 50
0.0
 51
88.499997000000747
  0
LINE
  5
8DB8
  8
AM_0
 10
294.93316537471691
 20
132.6019005727434
 30
0.0
 11
283.22350537471692
 21
147.8416005727436
 31
0.0
  0
LINE
  5
8DB9
  8
AM_0
 10
283.22350537471692
 20
147.73684057274349
 30
0.0
 11
283.22350537471692
 21
132.30745057274379
 31
0.0
  0
LINE
  5
8DBA
  8
AM_0
 10
286.22350537471681
 20
131.70337057274369
 30
0.0
 11
313.22350537471692
 21
131.70337057274369
 31
0.0
  0
LINE
  5
8DBB
  8
AM_0
 10
283.22350537471692
 20
116.81284657274379
 30
0.0
 11
306.87532537471708
 21
116.81284657274379
 31
0.0
  0
ARC
  5
8DBC
  8
AM_0
 10
285.2235153747169
 20
122.64719857274341
 30
0.0
 40
1.0000000199999961
 50
0.0
 51
90.00000299999769
  0
LINE
  5
8DBD
  8
AM_0
 10
281.22352537471693
 20
136.40398057274371
 30
0.0
 11
281.22352537471693
 21
117.02021557274379
 31
0.0
  0
LINE
  5
8DBE
  8
AM_0
 10
286.22350537471681
 20
121.76044957274379
 30
0.0
 11
286.22350537471681
 21
131.30749057274369
 31
0.0
  0
LINE
  5
8DBF
  8
AM_0
 10
282.2235153747169
 20
132.80746057274351
 30
0.0
 11
282.2235153747169
 21
120.2604495727437
 31
0.0
  0
ARC
  5
8DC0
  8
AM_0
 10
282.2235153747169
 20
115.0202145727436
 30
0.0
 40
1.0000000199999961
 50
0.0
 51
90.00000299999769
  0
ARC
  5
8DC1
  8
AM_0
 10
282.2235153747169
 20
117.02021557274379
 30
0.0
 40
1.0000000199999961
 50
179.99998999999889
 51
270.0
  0
ARC
  5
8DC2
  8
AM_0
 10
285.2235153747169
 20
121.76044957274379
 30
0.0
 40
1.0000000199999961
 50
270.0
 51
0.0
  0
LINE
  5
8DC3
  8
AM_0
 10
281.22352537471693
 20
120.2604495727437
 30
0.0
 11
282.2235153747169
 21
120.2604495727437
 31
0.0
  0
LINE
  5
8DC4
  8
AM_0
 10
282.2235153747169
 20
120.76045057274359
 30
0.0
 11
285.2235153747169
 21
120.76045057274359
 31
0.0
  0
ARC
  5
8DC5
  8
AM_0
 10
285.2235153747169
 20
131.30749057274369
 30
0.0
 40
1.0000000199999961
 50
0.0
 51
90.00000299999769
  0
ARC
  5
8DC6
  8
AM_0
 10
285.2235153747169
 20
128.4207105727437
 30
0.0
 40
1.0000000199999961
 50
0.0
 51
90.00000299999769
  0
ARC
  5
8DC7
  8
AM_0
 10
285.2235153747169
 20
124.6471905727434
 30
0.0
 40
1.0000000199999961
 50
270.0
 51
0.0
  0
ARC
  5
8DC8
  8
AM_0
 10
285.2235153747169
 20
130.42069057274381
 30
0.0
 40
1.0000000199999961
 50
270.0
 51
0.0
  0
LINE
  5
8DC9
  8
AM_0
 10
281.22352537471693
 20
132.80746057274351
 30
0.0
 11
282.2235153747169
 21
132.80746057274351
 31
0.0
  0
LINE
  5
8DCA
  8
AM_0
 10
282.2235153747169
 20
129.4207005727435
 30
0.0
 11
285.2235153747169
 21
129.4207005727435
 31
0.0
  0
LINE
  5
8DCB
  8
AM_0
 10
282.2235153747169
 20
123.6472005727438
 30
0.0
 11
285.2235153747169
 21
123.6472005727438
 31
0.0
  0
LINE
  5
8DCC
  8
AM_0
 10
282.2235153747169
 20
132.30745057274379
 30
0.0
 11
285.2235153747169
 21
132.30745057274379
 31
0.0
  0
ARC
  5
8DCD
  8
AM_0
 10
282.2235153747169
 20
138.4039605727435
 30
0.0
 40
1.0000000199999961
 50
270.0
 51
0.0
  0
ARC
  5
8DCE
  8
AM_0
 10
282.2235153747169
 20
136.40398057274371
 30
0.0
 40
1.0000000199999961
 50
90.00000299999769
 51
180.00001000000091
  0
ARC
  5
8DCF
  8
AM_0
 10
299.958795374717
 20
111.8128485727438
 30
0.0
 40
5.0000000999999967
 50
90.00000299999769
 51
171.85423999999969
  0
LINE
  5
8DD0
  8
AM_0
 10
318.2235153747169
 20
118.0994085727437
 30
0.0
 11
310.22350537471692
 21
118.0994085727437
 31
0.0
  0
ARC
  5
8DD1
  8
AM_0
 10
310.22350537471692
 20
113.0994075727437
 30
0.0
 40
5.0000000999999967
 50
90.00000299999769
 51
180.00001000000091
  0
ARC
  5
8DD2
  8
AM_0
 10
313.22350537471692
 20
126.7034205727437
 30
0.0
 40
5.0000000999999967
 50
0.0
 51
90.00000299999769
  0
LINE
  5
8DD3
  8
AM_0
 10
270.2235153747169
 20
148.18198057274361
 30
0.0
 11
313.35436537471679
 21
147.05257057274349
 31
0.0
  0
LINE
  5
8DD4
  8
AM_0
 10
330.2235153747169
 20
124.20784057274381
 30
0.0
 11
330.2235153747169
 21
86.156140572743695
 31
0.0
  0
LINE
  5
8DD5
  8
AM_0
 10
328.22350537471578
 20
133.18198057274381
 30
0.0
 11
328.22350537471578
 21
33.372400572743679
 31
0.0
  0
LINE
  5
8DD6
  8
AM_0
 10
360.2235153747169
 20
95.681986572743796
 30
0.0
 11
360.2235153747169
 21
117.1819895727437
 31
0.0
  0
LINE
  5
8DD7
  8
AM_0
 10
332.22346537471708
 20
95.181988572743791
 30
0.0
 11
332.22346537471708
 21
105.18198757274379
 31
0.0
  0
LINE
  5
8DD8
  8
ｶｸﾚｾﾝ2
 10
325.22350537471692
 20
20.18198557274377
 30
0.0
 11
325.22350537471692
 21
30.181984572743652
 31
0.0
  0
LINE
  5
8DD9
  8
AM_0
 10
330.2235153747169
 20
20.18198557274377
 30
0.0
 11
330.2235153747169
 21
28.681984572743652
 31
0.0
  0
ARC
  5
8DDA
  8
AM_0
 10
333.2235153747169
 20
33.372400572743679
 30
0.0
 40
5.0000000999999967
 50
179.99998999999889
 51
226.1869299999949
  0
ARC
  5
8DDB
  8
AM_0
 10
328.7235153747169
 20
28.681984572743652
 30
0.0
 40
1.500000029999998
 50
0.0
 51
90.00000299999769
  0
LINE
  5
8DDC
  8
AM_0
 10
332.22346537471708
 20
95.681986572743796
 30
0.0
 11
360.2235153747169
 21
95.681986572743796
 31
0.0
  0
ARC
  5
8DDD
  8
AM_0
 10
329.22355537471708
 20
84.155467572743774
 30
0.0
 40
1.0000000199999961
 50
91.500001000001546
 51
180.00001000000091
  0
ARC
  5
8DDE
  8
AM_0
 10
329.22355537471708
 20
86.156140572743695
 30
0.0
 40
1.0000000199999961
 50
271.50000000000267
 51
0.0
  0
LINE
  5
8DDF
  8
AM_0
 10
329.19736537471692
 20
85.155100572743606
 30
0.0
 11
329.24968537471688
 21
85.156474572743861
 31
0.0
  0
LINE
  5
8DE0
  8
AM_0
 10
330.2235153747169
 20
95.181988572743791
 30
0.0
 11
332.22346537471708
 21
95.181988572743791
 31
0.0
  0
LINE
  5
8DE1
  8
AM_0
 10
332.22346537471708
 20
114.68198857274371
 30
0.0
 11
360.2235153747169
 21
114.68198857274371
 31
0.0
  0
LINE
  5
8DE2
  8
AM_0
 10
338.223495374717
 20
117.1819895727437
 30
0.0
 11
360.2235153747169
 21
117.1819895727437
 31
0.0
  0
LINE
  5
8DE3
  8
AM_0
 10
332.22346537471708
 20
115.1819895727437
 30
0.0
 11
332.22346537471708
 21
105.18198757274379
 31
0.0
  0
LINE
  5
8DE4
  8
AM_0
 10
330.2235153747169
 20
115.1819895727437
 30
0.0
 11
332.22346537471708
 21
115.1819895727437
 31
0.0
  0
LINE
  5
8DE5
  8
AM_0
 10
338.223495374717
 20
114.68198857274371
 30
0.0
 11
338.223495374717
 21
117.1819895727437
 31
0.0
  0
ARC
  5
8DE6
  8
AM_0
 10
326.22355537471708
 20
133.18198057274381
 30
0.0
 40
2.00000007
 50
0.0
 51
90.00000299999769
  0
ARC
  5
8DE7
  8
AM_0
 10
329.22355537471708
 20
126.2085105727438
 30
0.0
 40
1.0000000199999961
 50
179.99998999999889
 51
268.50000999999872
  0
ARC
  5
8DE8
  8
AM_0
 10
329.22355537471708
 20
124.20784057274381
 30
0.0
 40
1.0000000199999961
 50
0.0
 51
88.499997000000747
  0
LINE
  5
8DE9
  8
AM_0
 10
329.19733537471711
 20
125.2088505727437
 30
0.0
 11
329.24965537471712
 21
125.2075005727436
 31
0.0
  0
LINE
  5
8DEA
  8
AM_0
 10
323.22355537471708
 20
135.1819905727437
 30
0.0
 11
326.22355537471708
 21
135.1819905727437
 31
0.0
  0
ARC
  5
8DEB
  8
AM_0
 10
547.7697363747169
 20
105.18198757274379
 30
0.0
 40
20.000000700000001
 50
90.00000299999769
 51
270.0
  0
ARC
  5
8DEC
  8
AM_0
 10
547.7697363747169
 20
88.181986572743696
 30
0.0
 40
60.000002999999992
 50
153.33084999999639
 51
170.94546000000031
  0
ARC
  5
8DED
  8
AM_0
 10
547.7697363747169
 20
92.681986572743796
 30
0.0
 40
42.500000999999997
 50
0.0
 51
180.00001000000091
  0
ARC
  5
8DEE
  8
AM_0
 10
547.7697363747169
 20
105.18198757274379
 30
0.0
 40
20.000000700000001
 50
270.0
 51
90.00000299999769
  0
ARC
  5
8DEF
  8
AM_0
 10
547.7697363747169
 20
88.181986572743696
 30
0.0
 40
60.000002999999992
 50
9.0545419000007392
 51
26.6691569999936
  0
ARC
  5
8DF0
  8
AM_0
 10
547.7697363747169
 20
105.18198757274379
 30
0.0
 40
9.5000003999999993
 50
108.4084799999999
 51
71.591512000000776
  0
LINE
  5
8DF1
  8
AM_0
 10
617.76972337471716
 20
30.181984572743652
 30
0.0
 11
607.64498137471719
 21
120.4121835727438
 31
0.0
  0
LINE
  5
8DF2
  8
AM_0
 10
477.76974937471698
 20
30.181969572743569
 30
0.0
 11
487.89447637471687
 21
120.4121835727438
 31
0.0
  0
LINE
  5
8DF3
  8
AM_0
 10
495.76971937471677
 20
112.4173995727438
 30
0.0
 11
495.76971937471677
 21
70.182001572743502
 31
0.0
  0
LINE
  5
8DF4
  8
AM_0
 10
599.76973837471701
 20
112.4173995727438
 30
0.0
 11
599.76973837471701
 21
70.182001572743502
 31
0.0
  0
LINE
  5
8DF5
  8
ﾁｭｳｼﾝｾﾝ
 10
547.7697363747169
 20
16.91448457274377
 30
0.0
 11
547.7697363747169
 21
153.63233856882741
 31
0.0
  0
ARC
  5
8DF6
  8
AM_0
 10
586.76972137471705
 20
21.68198557274377
 30
0.0
 40
1.0000000199999961
 50
0.0
 51
90.00000299999769
  0
ARC
  5
8DF7
  8
AM_0
 10
586.76972137471705
 20
20.18198557274377
 30
0.0
 40
1.0000000199999961
 50
0.0
 51
90.00000299999769
  0
CIRCLE
  5
8DF9
  8
AM_0
 10
523.66066537471693
 20
29.977594572743769
 30
0.0
 40
4.9999998000000003
  0
LINE
  5
8DFA
  8
AM_0
 10
508.7697363747169
 20
21.181984572743652
 30
0.0
 11
547.7697363747169
 21
21.181984572743652
 31
0.0
  0
LINE
  5
8DFB
  8
AM_0
 10
577.76972137471705
 20
39.681985572743763
 30
0.0
 11
517.7697363747169
 21
39.681985572743763
 31
0.0
  0
LINE
  5
8DFC
  8
AM_0
 10
518.66066437471693
 20
27.09082957274358
 30
0.0
 11
523.66066537471693
 21
24.204079572743691
 31
0.0
  0
LINE
  5
8DFD
  8
AM_0
 10
523.66066537471693
 20
35.75109157274381
 30
0.0
 11
518.66067937471712
 21
32.864344572743683
 31
0.0
  0
ARC
  5
8DFE
  8
AM_0
 10
527.7697353747169
 20
70.182001572743502
 30
0.0
 40
32.000000999999997
 50
179.99998999999889
 51
225.32174000000799
  0
LINE
  5
8DFF
  8
AM_0
 10
505.26973537471702
 20
92.681986572743796
 30
0.0
 11
505.26973537471702
 21
33.181984572743652
 31
0.0
  0
LINE
  5
8E00
  8
AM_0
 10
477.76971937471689
 20
30.181969572743569
 30
0.0
 11
488.51739937471712
 21
97.624492572743605
 31
0.0
  0
LINE
  5
8E01
  8
AM_0
 10
477.76971937471689
 20
20.18198557274377
 30
0.0
 11
507.76971937471689
 21
20.18198557274377
 31
0.0
  0
LINE
  5
8E02
  8
AM_0
 10
479.26971937471677
 20
30.181984572743652
 30
0.0
 11
490.26973537471702
 21
30.181984572743652
 31
0.0
  0
LINE
  5
8E03
  8
ｶｸﾚｾﾝ2
 10
485.26971937471677
 20
30.181984572743652
 30
0.0
 11
485.26971937471677
 21
20.18198557274377
 31
0.0
  0
LINE
  5
8E04
  8
AM_0
 10
477.76971937471689
 20
30.181984572743652
 30
0.0
 11
477.76971937471689
 21
20.18198557274377
 31
0.0
  0
ARC
  5
8E05
  8
AM_0
 10
479.26971937471677
 20
28.681984572743652
 30
0.0
 40
1.500000029999998
 50
90.00000299999769
 51
180.00001000000091
  0
LINE
  5
8E06
  8
AM_0
 10
480.89655037471692
 20
58.04775457274377
 30
0.0
 11
473.25986037471768
 21
58.247315415475889
 31
0.0
  0
ARC
  5
8E07
  8
AM_0
 10
517.7697363747169
 20
34.681984572743652
 30
0.0
 40
5.0000000999999967
 50
90.00000299999769
 51
180.00001000000091
  0
ARC
  5
8E08
  8
AM_0
 10
502.26973537471702
 20
33.181984572743652
 30
0.0
 40
3.0
 50
270.0
 51
0.0
  0
LINE
  5
8E09
  8
AM_0
 10
490.26973537471702
 20
30.181984572743652
 30
0.0
 11
505.76973337471702
 21
30.181984572743652
 31
0.0
  0
LINE
  5
8E0A
  8
ｶｸﾚｾﾝ2
 10
495.26973337471702
 20
30.181984572743652
 30
0.0
 11
495.26973337471702
 21
20.18198557274377
 31
0.0
  0
LINE
  5
8E0B
  8
ﾁｭｳｼﾝｾﾝ
 10
490.269720374717
 20
33.181984572743652
 30
0.0
 11
490.269720374717
 21
17.181985572743759
 31
0.0
  0
LINE
  5
8E0C
  8
AM_0
 10
512.76973537471713
 20
34.681984572743652
 30
0.0
 11
512.76973537471713
 21
25.681984572743659
 31
0.0
  0
LINE
  5
8E0D
  8
AM_0
 10
507.76971937471689
 20
28.182001572743768
 30
0.0
 11
507.76971937471689
 21
20.18198557274377
 31
0.0
  0
ARC
  5
8E0E
  8
AM_0
 10
509.76973537471702
 20
25.681984572743659
 30
0.0
 40
3.0
 50
270.0
 51
0.0
  0
ARC
  5
8E0F
  8
AM_0
 10
508.7697363747169
 20
21.68198557274377
 30
0.0
 40
1.0000000199999961
 50
90.00000299999769
 51
180.00001000000091
  0
ARC
  5
8E10
  8
AM_0
 10
508.7697363747169
 20
20.18198557274377
 30
0.0
 40
1.0000000199999961
 50
90.00000299999769
 51
180.00001000000091
  0
LINE
  5
8E11
  8
AM_0
 10
508.7697363747169
 20
22.681984572743652
 30
0.0
 11
509.76973537471702
 21
22.681984572743652
 31
0.0
  0
ARC
  5
8E12
  8
AM_0
 10
505.76973337471702
 20
28.182001572743768
 30
0.0
 40
2.00000007
 50
0.0
 51
90.00000299999769
  0
LINE
  5
8E13
  8
AM_0
 10
518.66067937471712
 20
32.864344572743683
 30
0.0
 11
518.66067937471712
 21
27.09082957274358
 31
0.0
  0
ARC
  5
8E14
  8
AM_0
 10
547.7697363747169
 20
88.181986572743696
 30
0.0
 40
60.000002999999992
 50
171.1247899999986
 51
172.4492599999999
  0
ARC
  5
8E15
  8
AM_0
 10
556.7558343747171
 20
36.681985572743777
 30
0.0
 40
3.0
 50
90.00000299999769
 51
183.1847400000002
  0
LINE
  5
8E16
  8
AM_0
 10
586.76972137471705
 20
21.181984572743652
 30
0.0
 11
547.7697363747169
 21
21.181984572743652
 31
0.0
  0
ARC
  5
8E17
  8
AM_0
 10
547.7697363747169
 20
36.181984572743701
 30
0.0
 40
6.0000002999999991
 50
176.81527000000071
 51
3.1847360000018021
  0
ARC
  5
8E18
  8
AM_0
 10
538.78362037471675
 20
36.681985572743777
 30
0.0
 40
3.0
 50
356.81525999999968
 51
90.00000299999769
  0
LINE
  5
8E1A
  8
AM_0
 10
523.66066537471693
 20
24.20409457274377
 30
0.0
 11
528.66066637471693
 21
27.090844572743659
 31
0.0
  0
LINE
  5
8E1B
  8
AM_0
 10
528.66065137471696
 20
32.8643295727436
 30
0.0
 11
523.66066537471693
 21
35.75107657274377
 31
0.0
  0
LINE
  5
8E1C
  8
AM_0
 10
528.66066637471693
 20
27.09082957274358
 30
0.0
 11
528.66066637471693
 21
32.864344572743683
 31
0.0
  0
ARC
  5
8E1E
  8
AM_0
 10
577.76972137471705
 20
34.681984572743652
 30
0.0
 40
5.0000000999999967
 50
0.0
 51
90.00000299999769
  0
CIRCLE
  5
8E20
  8
AM_0
 10
571.87879237471702
 20
29.977594572743769
 30
0.0
 40
4.9999998000000003
  0
LINE
  5
8E21
  8
AM_0
 10
571.87877737471706
 20
35.751109572743808
 30
0.0
 11
566.87877637471695
 21
32.864359572743922
 31
0.0
  0
LINE
  5
8E22
  8
AM_0
 10
566.87877637471695
 20
27.090814572743788
 30
0.0
 11
571.87877737471706
 21
24.204064572743668
 31
0.0
  0
LINE
  5
8E23
  8
AM_0
 10
566.87877637471695
 20
32.864344572743683
 30
0.0
 11
566.87877637471695
 21
27.09082957274358
 31
0.0
  0
LINE
  5
8E24
  8
AM_0
 10
582.76972237471705
 20
34.681984572743652
 30
0.0
 11
582.76972237471705
 21
25.681984572743659
 31
0.0
  0
LINE
  5
8E25
  8
AM_0
 10
571.87877737471706
 20
24.20409457274377
 30
0.0
 11
576.87877537471593
 21
27.090844572743659
 31
0.0
  0
ARC
  5
8E26
  8
AM_0
 10
585.76972237471705
 20
25.681984572743659
 30
0.0
 40
3.0
 50
179.99998999999889
 51
270.0
  0
LINE
  5
8E27
  8
AM_0
 10
586.76972137471705
 20
22.681984572743652
 30
0.0
 11
585.76972237471705
 21
22.681984572743652
 31
0.0
  0
LINE
  5
8E28
  8
AM_0
 10
576.87877537471593
 20
32.8643295727436
 30
0.0
 11
571.87877737471706
 21
35.75107657274377
 31
0.0
  0
LINE
  5
8E29
  8
AM_0
 10
576.87877537471593
 20
27.09082957274358
 30
0.0
 11
576.87877537471593
 21
32.864344572743683
 31
0.0
  0
ARC
  5
8E2A
  8
AM_0
 10
567.76972237471705
 20
70.182001572743502
 30
0.0
 40
32.000000999999997
 50
314.67825999999189
 51
0.0
  0
LINE
  5
8E2B
  8
AM_0
 10
617.76972337471716
 20
30.181954572743791
 30
0.0
 11
607.02205837471661
 21
97.624432572743771
 31
0.0
  0
LINE
  5
8E2C
  8
AM_0
 10
590.26972237471705
 20
92.681986572743796
 30
0.0
 11
590.26972237471705
 21
33.181984572743652
 31
0.0
  0
LINE
  5
8E2D
  8
AM_0
 10
617.76972937471601
 20
20.18198557274377
 30
0.0
 11
587.76973837471701
 21
20.18198557274377
 31
0.0
  0
LINE
  5
8E2E
  8
AM_0
 10
605.26972237471659
 20
30.181984572743652
 30
0.0
 11
589.76972137471705
 21
30.181984572743652
 31
0.0
  0
LINE
  5
8E2F
  8
ｶｸﾚｾﾝ2
 10
600.26972137471705
 20
30.181984572743652
 30
0.0
 11
600.26972137471705
 21
20.18198557274377
 31
0.0
  0
LINE
  5
8E30
  8
AM_0
 10
587.76973837471701
 20
20.18198557274377
 30
0.0
 11
587.76973837471701
 21
28.182001572743768
 31
0.0
  0
ARC
  5
8E31
  8
AM_0
 10
593.26972237471705
 20
33.181984572743652
 30
0.0
 40
3.0
 50
179.99998999999889
 51
270.0
  0
ARC
  5
8E32
  8
AM_0
 10
589.76972137471705
 20
28.182001572743768
 30
0.0
 40
2.00000007
 50
90.00000299999769
 51
180.00001000000091
  0
LINE
  5
8E33
  8
ｶｸﾚｾﾝ2
 10
610.26973837471724
 20
30.181984572743652
 30
0.0
 11
610.26973837471724
 21
20.18198557274377
 31
0.0
  0
LINE
  5
8E34
  8
ﾁｭｳｼﾝｾﾝ
 10
605.26972237471648
 20
33.181984572743652
 30
0.0
 11
605.26972237471659
 21
17.181985572743759
 31
0.0
  0
LINE
  5
8E35
  8
AM_0
 10
617.76972937471601
 20
30.181984572743652
 30
0.0
 11
617.76972937471601
 21
20.18198557274377
 31
0.0
  0
LINE
  5
8E36
  8
AM_0
 10
616.26972937471601
 20
30.181984572743652
 30
0.0
 11
605.26972237471659
 21
30.181984572743652
 31
0.0
  0
ARC
  5
8E37
  8
AM_0
 10
616.26972937471601
 20
28.681984572743652
 30
0.0
 40
1.500000029999998
 50
0.0
 51
90.00000299999769
  0
LINE
  5
8E38
  8
AM_0
 10
610.7004933747171
 20
93.181987572743779
 30
0.0
 11
612.88930537471686
 21
93.181987572743779
 31
0.0
  0
ARC
  5
8E39
  8
AM_0
 10
547.7697363747169
 20
43.182001572743772
 30
0.0
 40
105.00000299999979
 50
61.92751500000066
 51
118.0724799999965
  0
ARC
  5
8E3A
  8
AM_0
 10
547.7697363747169
 20
88.181986572743696
 30
0.0
 40
60.000002999999992
 50
48.330844999997282
 51
131.66914999999591
  0
ARC
  5
8E3B
  8
AM_0
 10
599.33769937471675
 20
127.7514705727437
 30
0.0
 40
11.000000399999999
 50
149.8422100000013
 51
285.16365000000701
  0
LINE
  5
8E3C
  8
AM_0
 10
517.7697363747169
 20
143.80504057274371
 30
0.0
 11
517.7697363747169
 21
151.0989705727437
 31
0.0
  0
ARC
  5
8E3D
  8
AM_0
 10
492.016545374717
 20
112.3085745727434
 30
0.0
 40
5.0000000999999967
 50
74.836354000003226
 51
173.59761999999901
  0
ARC
  5
8E3E
  8
AM_0
 10
507.76971937471689
 20
118.1819895727437
 30
0.0
 40
20.000000700000001
 50
118.0724799999965
 51
173.59761999999901
  0
LINE
  5
8E3F
  8
AM_0
 10
487.67915737471691
 20
118.4934495727437
 30
0.0
 11
473.25986037471688
 21
118.1166627334177
 31
0.0
  0
ARC
  5
8E40
  8
AM_0
 10
496.2017553747171
 20
127.7514705727437
 30
0.0
 40
11.000000399999999
 50
254.83636000000601
 51
30.157795000003929
  0
CIRCLE
  5
8E42
  8
AM_0
 10
497.78845837471692
 20
126.53395057274361
 30
0.0
 40
4.9999998000000003
  0
LINE
  5
8E44
  8
AM_0
 10
497.78845837471692
 20
120.7604805727437
 30
0.0
 11
502.78845637471687
 21
123.64723057274379
 31
0.0
  0
LINE
  5
8E45
  8
AM_0
 10
492.78848737471702
 20
123.6472005727438
 30
0.0
 11
497.788473374717
 21
120.76045057274359
 31
0.0
  0
ARC
  5
8E46
  8
AM_0
 10
500.76973537471702
 20
112.4173995727438
 30
0.0
 40
5.0000000999999967
 50
106.58860999999661
 51
180.00001000000091
  0
ARC
  5
8E47
  8
AM_0
 10
496.83377437471682
 20
113.7657285727438
 30
0.0
 40
3.0
 50
92.587449000000916
 51
153.33084999999639
  0
LINE
  5
8E48
  8
AM_0
 10
497.788473374717
 20
132.30748057274371
 30
0.0
 11
492.788472374717
 21
129.42073057274371
 31
0.0
  0
LINE
  5
8E49
  8
AM_0
 10
488.67873037471702
 20
133.18195057274369
 30
0.0
 11
494.5409433747169
 21
133.18195057274369
 31
0.0
  0
LINE
  5
8E4A
  8
AM_0
 10
492.788472374717
 20
129.4207005727435
 30
0.0
 11
492.788472374717
 21
123.6472005727438
 31
0.0
  0
LINE
  5
8E4B
  8
AM_0
 10
502.78847137471689
 20
123.6472005727438
 30
0.0
 11
502.78847137471689
 21
129.4207005727435
 31
0.0
  0
LINE
  5
8E4C
  8
AM_0
 10
502.78847137471689
 20
129.4207005727435
 30
0.0
 11
497.78848837471702
 21
132.30745057274379
 31
0.0
  0
ARC
  5
8E4D
  8
AM_0
 10
510.03609337471681
 20
135.7896105727437
 30
0.0
 40
5.0000000999999967
 50
112.16879999999691
 51
210.1577899999985
  0
ARC
  5
8E4E
  8
AM_0
 10
509.87451637471702
 20
130.76074057274371
 30
0.0
 40
3.0
 50
131.66914999999591
 51
192.41255000000001
  0
LINE
  5
8E4F
  8
AM_0
 10
577.76972137471705
 20
143.80504057274371
 30
0.0
 11
577.76972137471705
 21
151.0989705727437
 31
0.0
  0
LINE
  5
8E50
  8
ﾁｭｳｼﾝｾﾝ
 10
511.8456595948636
 20
105.18198757274379
 30
0.0
 11
583.69381315457042
 21
105.18198757274379
 31
0.0
  0
LINE
  5
8E51
  8
AM_0
 10
544.7697363747169
 20
117.18198757274379
 30
0.0
 11
544.7697363747169
 21
111.18198757274379
 31
0.0
  0
LINE
  5
8E52
  8
AM_0
 10
550.76972137471694
 20
111.18198757274379
 30
0.0
 11
550.76972137471694
 21
117.18198757274379
 31
0.0
  0
CIRCLE
  5
8E53
  8
AM_5
 10
547.7697363747169
 20
105.18198757274379
 30
0.0
 40
3.0
  0
CIRCLE
  5
8E54
  8
AM_0
 10
547.7697363747169
 20
105.18198757274379
 30
0.0
 40
2.4999998400000001
  0
LINE
  5
8E55
  8
AM_0
 10
544.7697363747169
 20
111.18198757274379
 30
0.0
 11
550.76972137471694
 21
111.18198757274379
 31
0.0
  0
LINE
  5
8E56
  8
AM_0
 10
550.76972137471694
 20
117.18198757274379
 30
0.0
 11
544.7697363747169
 21
117.18198757274379
 31
0.0
  0
LINE
  5
8E57
  8
AM_0
 10
527.7697353747169
 20
146.25964057274351
 30
0.0
 11
527.7697353747169
 21
152.8189905727437
 31
0.0
  0
LINE
  5
8E58
  8
AM_0
 10
537.76975237471675
 20
147.7046805727438
 30
0.0
 11
537.76975237471675
 21
154.1819505727436
 31
0.0
  0
LINE
  5
8E59
  8
AM_0
 10
557.76973537471713
 20
147.7046805727438
 30
0.0
 11
557.76973537471713
 21
154.1819505727436
 31
0.0
  0
LINE
  5
8E5A
  8
AM_0
 10
567.76973737471712
 20
146.25964057274351
 30
0.0
 11
567.76973737471712
 21
152.8189905727437
 31
0.0
  0
ARC
  5
8E5D
  8
AM_0
 10
587.76973837471701
 20
118.1819895727437
 30
0.0
 40
20.000000700000001
 50
6.4023797999986547
 51
61.92751500000066
  0
CIRCLE
  5
8E5E
  8
AM_0
 10
597.75096937471699
 20
126.53395057274361
 30
0.0
 40
4.9999998000000003
  0
LINE
  5
8E5F
  8
AM_0
 10
592.7509683747171
 20
123.6472005727438
 30
0.0
 11
597.75096937471699
 21
120.76045057274359
 31
0.0
  0
LINE
  5
8E60
  8
AM_0
 10
597.75098437471706
 20
120.7604805727437
 30
0.0
 11
602.75098537471695
 21
123.64723057274379
 31
0.0
  0
ARC
  5
8E61
  8
AM_0
 10
603.52291237471695
 20
112.3085745727434
 30
0.0
 40
5.0000000999999967
 50
6.4023797999986547
 51
105.163639999994
  0
ARC
  5
8E62
  8
AM_0
 10
594.76972237471705
 20
112.4173995727438
 30
0.0
 40
5.0000000999999967
 50
0.0
 51
73.411385000001331
  0
ARC
  5
8E63
  8
AM_0
 10
598.70568037471696
 20
113.7657285727438
 30
0.0
 40
3.0
 50
26.6691569999936
 51
87.412549000002571
  0
LINE
  5
8E64
  8
AM_0
 10
609.57839137471672
 20
103.1819865727438
 30
0.0
 11
612.88930537471686
 21
103.1819865727438
 31
0.0
  0
LINE
  5
8E65
  8
AM_0
 10
611.2697373747169
 20
123.1819605727438
 30
0.0
 11
607.13465137471712
 21
123.1819605727438
 31
0.0
  0
LINE
  5
8E66
  8
AM_0
 10
608.4563073747172
 20
113.18198857274371
 30
0.0
 11
611.67173137471696
 21
113.18198857274371
 31
0.0
  0
LINE
  5
8E67
  8
AM_0
 10
606.86074237471712
 20
133.18195057274369
 30
0.0
 11
600.99851137471705
 21
133.18195057274369
 31
0.0
  0
ARC
  5
8E68
  8
AM_0
 10
585.50336437471685
 20
135.7896105727437
 30
0.0
 40
5.0000000999999967
 50
329.84220000000278
 51
67.831203000004066
  0
LINE
  5
8E69
  8
AM_0
 10
597.75098437471706
 20
132.30748057274371
 30
0.0
 11
592.75098337471695
 21
129.42073057274371
 31
0.0
  0
ARC
  5
8E6A
  8
AM_0
 10
585.66494137471705
 20
130.76074057274371
 30
0.0
 40
3.0
 50
347.58744999999982
 51
48.330844999997282
  0
LINE
  5
8E6B
  8
AM_0
 10
592.75098337471695
 20
129.4207005727435
 30
0.0
 11
592.75098337471695
 21
123.6472005727438
 31
0.0
  0
LINE
  5
8E6C
  8
AM_0
 10
602.75097037471585
 20
129.42073057274371
 30
0.0
 11
597.75096937471699
 21
132.30748057274371
 31
0.0
  0
LINE
  5
8E6D
  8
AM_0
 10
602.75098537471695
 20
123.6472005727438
 30
0.0
 11
602.75098537471695
 21
129.4207005727435
 31
0.0
  0
LINE
  5
8E74
  8
AM_0
 10
207.2235053747178
 20
110.6819865727437
 30
0.0
 11
207.22350537471681
 21
65.681986572743796
 31
0.0
  0
LINE
  5
8E75
  8
AM_0
 10
205.12350537471701
 20
111.2322391044377
 30
0.0
 11
205.12350537471701
 21
65.131734041049853
 31
0.0
  0
LINE
  5
8E76
  8
AM_0
 10
122.22350537471689
 20
70.181986572743796
 30
0.0
 11
122.22350537471689
 21
60.181976572743778
 31
0.0
  0
LINE
  5
8E77
  8
AM_0
 10
122.72350537471689
 20
55.681980572743903
 30
0.0
 11
122.72350537471689
 21
120.68197657274339
 31
0.0
  0
LINE
  5
8E78
  8
AM_0
 10
194.27374990641181
 20
54.281978572743583
 30
0.0
 11
127.1434853747171
 21
54.281978572743583
 31
0.0
  0
LINE
  5
8E79
  8
AM_0
 10
127.1434853747171
 20
54.281978572743583
 30
0.0
 11
127.1434853747171
 21
52.181987572743701
 31
0.0
  0
ARC
  5
8E7A
  8
AM_0
 10
126.2161253747169
 20
55.674633572743787
 30
0.0
 40
3.492651899999998
 50
179.8793300000022
 51
270.12067999999482
  0
ARC
  5
8E7B
  8
AM_0
 10
122.716185374717
 20
60.1746365727438
 30
0.0
 40
0.4927000100000001
 50
179.14455999999711
 51
270.85544000000272
  0
ARC
  5
8E7C
  8
AM_0
 10
209.22350537471689
 20
65.681986572743796
 30
0.0
 40
2.0
 50
180.0
 51
270.0
  0
LINE
  5
8E7D
  8
AM_0
 10
204.71345486837791
 20
64.141784547387886
 30
0.0
 11
195.2636994000728
 21
54.692029079082488
 31
0.0
  0
LINE
  5
8E7E
  8
AM_0
 10
195.26370740007189
 20
54.692037079082297
 30
0.0
 11
204.71345486837879
 21
64.141784547388312
 31
0.0
  0
ARC
  5
8E7F
  8
AM_0
 10
194.27374990641181
 20
55.68197857274378
 30
0.0
 40
1.399999999999999
 50
270.0
 51
315.00000000000921
1001
GENIUS_GENODEF_13
1002
{
1000
HIER
1070
     0
1002
}
1002
{
1000
MANEDIT
1070
     0
1002
}
1002
{
1000
NOSEL
1070
     0
1002
}
1002
{
1000
BEHIND
1070
     0
1002
}
1002
{
1000
OTHER
1070
     0
1002
}
1002
{
1000
REACTOR
1002
}
1001
GENIUS_GENOBJ-N-FIL_13
1002
{
1000
OWNER
1000
GEN
1002
}
  0
ARC
  5
8E80
  8
AM_0
 10
203.72350537471689
 20
65.131734041049853
 30
0.0
 40
1.4000000000006301
 50
314.99999999997232
 51
0.0
  0
ARC
  5
8E81
  8
AM_0
 10
209.72350537471689
 20
54.18198657274381
 30
0.0
 40
2.0
 50
270.0
 51
0.0
  0
ARC
  5
8E82
  8
AM_0
 10
209.72350537471689
 20
61.681986572743803
 30
0.0
 40
2.0
 50
0.0
 51
90.0
  0
LINE
  5
8E83
  8
AM_0
 10
209.72350537471689
 20
63.681986572743803
 30
0.0
 11
209.22350537471689
 21
63.681986572743803
 31
0.0
  0
LINE
  5
8E84
  8
AM_0
 10
211.72350537471681
 20
54.18198657274381
 30
0.0
 11
211.72350537471681
 21
61.681986572743803
 31
0.0
  0
LINE
  5
8E85
  8
AM_0
 10
127.1434853747171
 20
122.0819665727437
 30
0.0
 11
194.2812411945919
 21
122.0819665727437
 31
0.0
  0
ARC
  5
8E86
  8
AM_0
 10
122.7240553747169
 20
70.181436572743479
 30
0.0
 40
0.5005480100000002
 50
90.062622000000005
 51
179.93736999999041
  0
ARC
  5
8E87
  8
AM_0
 10
122.7240553747169
 20
116.18143657274339
 30
0.0
 40
0.5005480100000002
 50
90.062622000000005
 51
179.93736999999041
  0
ARC
  5
8E88
  8
AM_0
 10
122.715995374717
 20
106.1744765727437
 30
0.0
 40
0.49254802
 50
179.1265600000018
 51
270.87345000000158
  0
LINE
  5
8E89
  8
AM_0
 10
122.22350537471689
 20
116.18197657274339
 30
0.0
 11
122.22350537471689
 21
106.1819865727438
 31
0.0
  0
LINE
  5
8E8A
  8
AM_0
 10
127.1434853747171
 20
122.0819665727437
 30
0.0
 11
127.1434853747171
 21
124.1769665727435
 31
0.0
  0
ARC
  5
8E8B
  8
AM_0
 10
126.22399537471711
 20
120.68148657274369
 30
0.0
 40
3.5005001999999981
 50
90.008164999989489
 51
179.99183999999781
  0
LINE
  5
8E8C
  8
AM_0
 10
209.22350537471689
 20
93.681986572743796
 30
0.0
 11
207.22350537471681
 21
93.681986572743796
 31
0.0
  0
LINE
  5
8E8D
  8
AM_0
 10
207.22350537471681
 20
82.681986572743796
 30
0.0
 11
209.2235053747178
 21
82.681986572743796
 31
0.0
  0
LINE
  5
8E8E
  8
AM_0
 10
209.2235053747178
 20
82.681986572743796
 30
0.0
 11
209.22350537471689
 21
93.681986572743796
 31
0.0
  0
ARC
  5
8E8F
  8
AM_0
 10
209.22350537471689
 20
110.6819865727437
 30
0.0
 40
2.0
 50
90.0
 51
180.0
  0
CIRCLE
  5
8E90
  8
AM_0
 10
206.22350537471689
 20
119.1819865727434
 30
0.0
 40
3.4999999999999631
  0
LINE
  5
8E91
  8
AM_0
 10
195.2637074000728
 20
121.6719360664048
 30
0.0
 11
204.71345486837791
 21
112.2221885980999
 31
0.0
  0
LINE
  5
8E92
  8
AM_0
 10
203.12350537471701
 20
113.81213809175991
 30
0.0
 11
204.71345486837791
 21
112.22218859809961
 31
0.0
  0
ARC
  5
8E93
  8
AM_0
 10
203.72350537471689
 20
111.2322391044377
 30
0.0
 40
1.400000000000118
 50
0.0
 51
45.000000000027619
  0
ARC
  5
8E94
  8
AM_0
 10
194.27375790640889
 20
120.6819865727438
 30
0.0
 40
1.40000000000077
 50
44.999999999972353
 51
89.999999999947889
  0
LINE
  5
8E95
  8
AM_0
 10
211.72350537471681
 20
114.6819865727437
 30
0.0
 11
211.72350537471681
 21
122.1819865727437
 31
0.0
  0
LINE
  5
8E96
  8
AM_0
 10
211.72350537471681
 20
114.6819865727437
 30
0.0
 11
211.72350537471681
 21
122.1819865727437
 31
0.0
  0
ARC
  5
8E97
  8
AM_0
 10
209.72350537471689
 20
114.6819865727437
 30
0.0
 40
2.0
 50
270.0
 51
0.0
  0
LINE
  5
8E98
  8
AM_0
 10
209.22350537471689
 20
112.6819865727437
 30
0.0
 11
209.72350537471689
 21
112.6819865727437
 31
0.0
  0
ARC
  5
8E99
  8
AM_0
 10
209.72350537471689
 20
122.1819865727437
 30
0.0
 40
2.0
 50
0.0
 51
90.0
  0
LINE
  5
8E9A
  8
AM_0
 10
203.58493369350879
 20
119.18198657274451
 30
0.0
 11
208.86207705592389
 21
119.18198657274441
 31
0.0
  0
LINE
  5
8E9B
  8
AM_0
 10
206.22350537471689
 20
121.8205582539501
 30
0.0
 11
206.22350537471689
 21
116.5434148915368
 31
0.0
  0
CIRCLE
  5
8E9C
  8
AM_0
 10
206.22350537471689
 20
57.181986572743469
 30
0.0
 40
3.4999999999999631
  0
LINE
  5
8E9D
  8
AM_0
 10
203.58493369350879
 20
57.18198657274479
 30
0.0
 11
208.86207705592389
 21
57.181986572744741
 31
0.0
  0
LINE
  5
8E9E
  8
AM_0
 10
206.22350537471689
 20
59.82055825395036
 30
0.0
 11
206.22350537471689
 21
54.54341489153677
 31
0.0
  0
LINE
  5
8E9F
  8
AM_0
 10
30.22351537471695
 20
64.20781492681931
 30
0.0
 11
30.22351537471695
 21
145.18198057274381
 31
0.0
  0
LINE
  5
8EA0
  8
AM_0
 10
464.04307393448869
 20
82.681986572743483
 30
0.0
 11
449.75986037471682
 21
82.681986572743483
 31
0.0
  0
LINE
  5
8EA1
  8
AM_0
 10
449.75986037471682
 20
93.681986572743796
 30
0.0
 11
464.04307393448869
 21
93.681986572743796
 31
0.0
  0
LINE
  5
8EA2
  8
AM_0
 10
469.75986037471768
 20
124.1819865727421
 30
0.0
 11
437.25986037471682
 21
124.1819865727421
 31
0.0
  0
LINE
  5
8EA3
  8
AM_0
 10
437.25986037471682
 20
52.181986572742183
 30
0.0
 11
469.75986037471768
 21
52.181986572742183
 31
0.0
  0
LINE
  5
8EA4
  8
AM_0
 10
449.75986037471682
 20
52.181986572742183
 30
0.0
 11
449.75986037471682
 21
124.1819865727421
 31
0.0
  0
LINE
  5
8EA5
  8
AM_0
 10
449.75986037471682
 20
113.2619865727433
 30
0.0
 11
448.29486037471679
 21
122.0819865727441
 31
0.0
  0
ARC
  5
8EA6
  8
AM_0
 10
439.25986037471688
 20
119.5819865727441
 30
0.0
 40
2.5
 50
90.0
 51
180.0
  0
ARC
  5
8EA7
  8
AM_0
 10
437.25986037471682
 20
123.6819865727438
 30
0.0
 40
0.5
 50
90.0
 51
180.0
  0
LINE
  5
8EA8
  8
AM_0
 10
448.29486037471679
 20
122.0819865727441
 30
0.0
 11
439.25986037471688
 21
122.0819865727441
 31
0.0
  0
POLYLINE
  5
8EA9
  8
AM_0
 66
     1
 10
0.0
 20
0.0
 30
0.0
 70
     8
  0
VERTEX
  5
8EAA
  8
AM_0
 10
439.25981330964322
 20
111.81240137578661
 30
0.0
 70
    32
  0
VERTEX
  5
8EAB
  8
AM_0
 10
439.25581330964297
 20
111.81240137578661
 30
0.0
 70
    32
  0
VERTEX
  5
8EAC
  8
AM_0
 10
439.25181330964313
 20
111.81240137578661
 30
0.0
 70
    32
  0
VERTEX
  5
8EAD
  8
AM_0
 10
439.24681330964302
 20
111.81240137578661
 30
0.0
 70
    32
  0
VERTEX
  5
8EAE
  8
AM_0
 10
439.24281330964311
 20
111.81240137578661
 30
0.0
 70
    32
  0
VERTEX
  5
8EAF
  8
AM_0
 10
439.23881330964309
 20
111.81240137578661
 30
0.0
 70
    32
  0
VERTEX
  5
8EB0
  8
AM_0
 10
439.2338133096431
 20
111.81240137578661
 30
0.0
 70
    32
  0
VERTEX
  5
8EB1
  8
AM_0
 10
439.22981330964308
 20
111.8114013757867
 30
0.0
 70
    32
  0
VERTEX
  5
8EB2
  8
AM_0
 10
439.22581330964312
 20
111.8114013757867
 30
0.0
 70
    32
  0
VERTEX
  5
8EB3
  8
AM_0
 10
439.22181330964332
 20
111.8114013757867
 30
0.0
 70
    32
  0
VERTEX
  5
8EB4
  8
AM_0
 10
439.2168133096431
 20
111.8114013757867
 30
0.0
 70
    32
  0
VERTEX
  5
8EB5
  8
AM_0
 10
439.21281330964331
 20
111.8114013757867
 30
0.0
 70
    32
  0
VERTEX
  5
8EB6
  8
AM_0
 10
439.20881330964301
 20
111.8114013757867
 30
0.0
 70
    32
  0
VERTEX
  5
8EB7
  8
AM_0
 10
439.2048133096431
 20
111.8114013757867
 30
0.0
 70
    32
  0
VERTEX
  5
8EB8
  8
AM_0
 10
439.19981330964288
 20
111.8114013757867
 30
0.0
 70
    32
  0
VERTEX
  5
8EB9
  8
AM_0
 10
439.1958133096432
 20
111.8114013757867
 30
0.0
 70
    32
  0
VERTEX
  5
8EBA
  8
AM_0
 10
439.19181330964312
 20
111.8114013757867
 30
0.0
 70
    32
  0
VERTEX
  5
8EBB
  8
AM_0
 10
439.18681330964318
 20
111.8114013757867
 30
0.0
 70
    32
  0
VERTEX
  5
8EBC
  8
AM_0
 10
439.18281330964311
 20
111.8114013757867
 30
0.0
 70
    32
  0
VERTEX
  5
8EBD
  8
AM_0
 10
439.17881330964298
 20
111.8114013757867
 30
0.0
 70
    32
  0
VERTEX
  5
8EBE
  8
AM_0
 10
439.17481330964318
 20
111.8114013757867
 30
0.0
 70
    32
  0
VERTEX
  5
8EBF
  8
AM_0
 10
439.16981330964302
 20
111.8114013757867
 30
0.0
 70
    32
  0
VERTEX
  5
8EC0
  8
AM_0
 10
439.16581330964323
 20
111.8114013757867
 30
0.0
 70
    32
  0
VERTEX
  5
8EC1
  8
AM_0
 10
439.16181330964309
 20
111.8114013757867
 30
0.0
 70
    32
  0
VERTEX
  5
8EC2
  8
AM_0
 10
439.15781330964302
 20
111.8114013757867
 30
0.0
 70
    32
  0
VERTEX
  5
8EC3
  8
AM_0
 10
439.15281330964302
 20
111.8104013757867
 30
0.0
 70
    32
  0
VERTEX
  5
8EC4
  8
AM_0
 10
439.14881330964312
 20
111.8104013757867
 30
0.0
 70
    32
  0
VERTEX
  5
8EC5
  8
AM_0
 10
439.14481330964333
 20
111.8104013757867
 30
0.0
 70
    32
  0
VERTEX
  5
8EC6
  8
AM_0
 10
439.14081330964302
 20
111.8104013757867
 30
0.0
 70
    32
  0
VERTEX
  5
8EC7
  8
AM_0
 10
439.13581330964308
 20
111.8104013757867
 30
0.0
 70
    32
  0
VERTEX
  5
8EC8
  8
AM_0
 10
439.13181330964312
 20
111.8104013757867
 30
0.0
 70
    32
  0
VERTEX
  5
8EC9
  8
AM_0
 10
439.1278133096431
 20
111.8104013757867
 30
0.0
 70
    32
  0
VERTEX
  5
8ECA
  8
AM_0
 10
439.12281330964311
 20
111.8104013757867
 30
0.0
 70
    32
  0
VERTEX
  5
8ECB
  8
AM_0
 10
439.1188133096432
 20
111.8104013757867
 30
0.0
 70
    32
  0
VERTEX
  5
8ECC
  8
AM_0
 10
439.11481330964313
 20
111.8104013757867
 30
0.0
 70
    32
  0
VERTEX
  5
8ECD
  8
AM_0
 10
439.11081330964299
 20
111.80940137578661
 30
0.0
 70
    32
  0
VERTEX
  5
8ECE
  8
AM_0
 10
439.10581330964311
 20
111.80940137578661
 30
0.0
 70
    32
  0
VERTEX
  5
8ECF
  8
AM_0
 10
439.10181330964298
 20
111.80940137578661
 30
0.0
 70
    32
  0
VERTEX
  5
8ED0
  8
AM_0
 10
439.09781330964319
 20
111.80940137578661
 30
0.0
 70
    32
  0
VERTEX
  5
8ED1
  8
AM_0
 10
439.093813309643
 20
111.80940137578661
 30
0.0
 70
    32
  0
VERTEX
  5
8ED2
  8
AM_0
 10
439.08881330964317
 20
111.80940137578661
 30
0.0
 70
    32
  0
VERTEX
  5
8ED3
  8
AM_0
 10
439.08481330964293
 20
111.80940137578661
 30
0.0
 70
    32
  0
VERTEX
  5
8ED4
  8
AM_0
 10
439.08081330964319
 20
111.8084013757867
 30
0.0
 70
    32
  0
VERTEX
  5
8ED5
  8
AM_0
 10
439.076813309643
 20
111.8084013757867
 30
0.0
 70
    32
  0
VERTEX
  5
8ED6
  8
AM_0
 10
439.07181330964318
 20
111.8084013757867
 30
0.0
 70
    32
  0
VERTEX
  5
8ED7
  8
AM_0
 10
439.0678133096431
 20
111.8084013757867
 30
0.0
 70
    32
  0
VERTEX
  5
8ED8
  8
AM_0
 10
439.06381330964302
 20
111.8084013757867
 30
0.0
 70
    32
  0
VERTEX
  5
8ED9
  8
AM_0
 10
439.05881330964309
 20
111.8084013757867
 30
0.0
 70
    32
  0
VERTEX
  5
8EDA
  8
AM_0
 10
439.05481330964312
 20
111.8084013757867
 30
0.0
 70
    32
  0
VERTEX
  5
8EDB
  8
AM_0
 10
439.0508133096431
 20
111.8074013757864
 30
0.0
 70
    32
  0
VERTEX
  5
8EDC
  8
AM_0
 10
439.04681330964382
 20
111.8074013757864
 30
0.0
 70
    32
  0
VERTEX
  5
8EDD
  8
AM_0
 10
439.04181330964309
 20
111.8074013757864
 30
0.0
 70
    32
  0
VERTEX
  5
8EDE
  8
AM_0
 10
439.03781330964301
 20
111.8074013757864
 30
0.0
 70
    32
  0
VERTEX
  5
8EDF
  8
AM_0
 10
439.03381330964311
 20
111.8074013757864
 30
0.0
 70
    32
  0
VERTEX
  5
8EE0
  8
AM_0
 10
439.02981330964332
 20
111.80640137578671
 30
0.0
 70
    32
  0
VERTEX
  5
8EE1
  8
AM_0
 10
439.02481330964309
 20
111.80640137578671
 30
0.0
 70
    32
  0
VERTEX
  5
8EE2
  8
AM_0
 10
439.02081330964307
 20
111.80640137578671
 30
0.0
 70
    32
  0
VERTEX
  5
8EE3
  8
AM_0
 10
439.01681330964288
 20
111.80640137578671
 30
0.0
 70
    32
  0
VERTEX
  5
8EE4
  8
AM_0
 10
439.01281330964309
 20
111.80640137578671
 30
0.0
 70
    32
  0
VERTEX
  5
8EE5
  8
AM_0
 10
439.00781330964293
 20
111.80640137578671
 30
0.0
 70
    32
  0
VERTEX
  5
8EE6
  8
AM_0
 10
439.00381330964319
 20
111.8054013757869
 30
0.0
 70
    32
  0
VERTEX
  5
8EE7
  8
AM_0
 10
438.99981330964312
 20
111.8054013757869
 30
0.0
 70
    32
  0
VERTEX
  5
8EE8
  8
AM_0
 10
438.99581330964298
 20
111.8054013757869
 30
0.0
 70
    32
  0
VERTEX
  5
8EE9
  8
AM_0
 10
438.9908133096431
 20
111.8054013757869
 30
0.0
 70
    32
  0
VERTEX
  5
8EEA
  8
AM_0
 10
438.98681330964303
 20
111.8044013757867
 30
0.0
 70
    32
  0
VERTEX
  5
8EEB
  8
AM_0
 10
438.98281330964318
 20
111.8044013757867
 30
0.0
 70
    32
  0
VERTEX
  5
8EEC
  8
AM_0
 10
438.97781330964312
 20
111.8044013757867
 30
0.0
 70
    32
  0
VERTEX
  5
8EED
  8
AM_0
 10
438.97381330964322
 20
111.8044013757867
 30
0.0
 70
    32
  0
VERTEX
  5
8EEE
  8
AM_0
 10
438.96981330964292
 20
111.8044013757867
 30
0.0
 70
    32
  0
VERTEX
  5
8EEF
  8
AM_0
 10
438.96581330964312
 20
111.80340137578671
 30
0.0
 70
    32
  0
VERTEX
  5
8EF0
  8
AM_0
 10
438.96081330964302
 20
111.80340137578671
 30
0.0
 70
    32
  0
VERTEX
  5
8EF1
  8
AM_0
 10
438.95681330964311
 20
111.80340137578671
 30
0.0
 70
    32
  0
VERTEX
  5
8EF2
  8
AM_0
 10
438.95281330964309
 20
111.80340137578671
 30
0.0
 70
    32
  0
VERTEX
  5
8EF3
  8
AM_0
 10
438.94881330964301
 20
111.8024013757867
 30
0.0
 70
    32
  0
VERTEX
  5
8EF4
  8
AM_0
 10
438.94381330964308
 20
111.8024013757867
 30
0.0
 70
    32
  0
VERTEX
  5
8EF5
  8
AM_0
 10
438.93981330964311
 20
111.8024013757867
 30
0.0
 70
    32
  0
VERTEX
  5
8EF6
  8
AM_0
 10
438.93581330964309
 20
111.8014013757867
 30
0.0
 70
    32
  0
VERTEX
  5
8EF7
  8
AM_0
 10
438.93181330964308
 20
111.8014013757867
 30
0.0
 70
    32
  0
VERTEX
  5
8EF8
  8
AM_0
 10
438.92681330964319
 20
111.8014013757867
 30
0.0
 70
    32
  0
VERTEX
  5
8EF9
  8
AM_0
 10
438.922813309643
 20
111.8014013757867
 30
0.0
 70
    32
  0
VERTEX
  5
8EFA
  8
AM_0
 10
438.9188133096431
 20
111.80040137578661
 30
0.0
 70
    32
  0
VERTEX
  5
8EFB
  8
AM_0
 10
438.91481330964331
 20
111.80040137578661
 30
0.0
 70
    32
  0
VERTEX
  5
8EFC
  8
AM_0
 10
438.90981330964308
 20
111.80040137578661
 30
0.0
 70
    32
  0
VERTEX
  5
8EFD
  8
AM_0
 10
438.90581330964318
 20
111.80040137578661
 30
0.0
 70
    32
  0
VERTEX
  5
8EFE
  8
AM_0
 10
438.90181330964288
 20
111.7994013757867
 30
0.0
 70
    32
  0
VERTEX
  5
8EFF
  8
AM_0
 10
438.8978133096432
 20
111.7994013757867
 30
0.0
 70
    32
  0
VERTEX
  5
8F00
  8
AM_0
 10
438.8928133096428
 20
111.7994013757867
 30
0.0
 70
    32
  0
VERTEX
  5
8F01
  8
AM_0
 10
438.88881330964318
 20
111.7984013757864
 30
0.0
 70
    32
  0
VERTEX
  5
8F02
  8
AM_0
 10
438.88481330964311
 20
111.7984013757864
 30
0.0
 70
    32
  0
VERTEX
  5
8F03
  8
AM_0
 10
438.87981330964323
 20
111.7984013757864
 30
0.0
 70
    32
  0
VERTEX
  5
8F04
  8
AM_0
 10
438.87581330964309
 20
111.79740137578671
 30
0.0
 70
    32
  0
VERTEX
  5
8F05
  8
AM_0
 10
438.87181330964302
 20
111.79740137578671
 30
0.0
 70
    32
  0
VERTEX
  5
8F06
  8
AM_0
 10
438.86781330964322
 20
111.79740137578671
 30
0.0
 70
    32
  0
VERTEX
  5
8F07
  8
AM_0
 10
438.86281330964312
 20
111.7964013757871
 30
0.0
 70
    32
  0
VERTEX
  5
8F08
  8
AM_0
 10
438.85881330964321
 20
111.7964013757871
 30
0.0
 70
    32
  0
VERTEX
  5
8F09
  8
AM_0
 10
438.85481330964302
 20
111.7964013757871
 30
0.0
 70
    32
  0
VERTEX
  5
8F0A
  8
AM_0
 10
438.85081330964312
 20
111.7954013757866
 30
0.0
 70
    32
  0
VERTEX
  5
8F0B
  8
AM_0
 10
438.84581330964312
 20
111.7954013757866
 30
0.0
 70
    32
  0
VERTEX
  5
8F0C
  8
AM_0
 10
438.8418133096431
 20
111.7954013757866
 30
0.0
 70
    32
  0
VERTEX
  5
8F0D
  8
AM_0
 10
438.83781330964308
 20
111.79440137578661
 30
0.0
 70
    32
  0
VERTEX
  5
8F0E
  8
AM_0
 10
438.83381330964312
 20
111.79440137578661
 30
0.0
 70
    32
  0
VERTEX
  5
8F0F
  8
AM_0
 10
438.82881330964312
 20
111.79440137578661
 30
0.0
 70
    32
  0
VERTEX
  5
8F10
  8
AM_0
 10
438.8248133096431
 20
111.7934013757867
 30
0.0
 70
    32
  0
VERTEX
  5
8F11
  8
AM_0
 10
438.8208133096432
 20
111.7934013757867
 30
0.0
 70
    32
  0
VERTEX
  5
8F12
  8
AM_0
 10
438.81681330964312
 20
111.7924013757867
 30
0.0
 70
    32
  0
VERTEX
  5
8F13
  8
AM_0
 10
438.81181330964318
 20
111.7924013757867
 30
0.0
 70
    32
  0
VERTEX
  5
8F14
  8
AM_0
 10
438.80781330964311
 20
111.7924013757867
 30
0.0
 70
    32
  0
VERTEX
  5
8F15
  8
AM_0
 10
438.80381330964298
 20
111.79140137578671
 30
0.0
 70
    32
  0
VERTEX
  5
8F16
  8
AM_0
 10
438.79981330964318
 20
111.79140137578671
 30
0.0
 70
    32
  0
VERTEX
  5
8F17
  8
AM_0
 10
438.79481330964302
 20
111.7904013757867
 30
0.0
 70
    32
  0
VERTEX
  5
8F18
  8
AM_0
 10
438.79081330964323
 20
111.7904013757867
 30
0.0
 70
    32
  0
VERTEX
  5
8F19
  8
AM_0
 10
438.78681330964292
 20
111.7904013757867
 30
0.0
 70
    32
  0
VERTEX
  5
8F1A
  8
AM_0
 10
438.78281330964319
 20
111.7894013757864
 30
0.0
 70
    32
  0
VERTEX
  5
8F1B
  8
AM_0
 10
438.77781330964302
 20
111.7894013757864
 30
0.0
 70
    32
  0
VERTEX
  5
8F1C
  8
AM_0
 10
438.77381330964317
 20
111.78840137578661
 30
0.0
 70
    32
  0
VERTEX
  5
8F1D
  8
AM_0
 10
438.7698133096431
 20
111.78840137578661
 30
0.0
 70
    32
  0
VERTEX
  5
8F1E
  8
AM_0
 10
438.76581330964302
 20
111.7874013757868
 30
0.0
 70
    32
  0
VERTEX
  5
8F1F
  8
AM_0
 10
438.76081330964308
 20
111.7874013757868
 30
0.0
 70
    32
  0
VERTEX
  5
8F20
  8
AM_0
 10
438.75681330964312
 20
111.7874013757868
 30
0.0
 70
    32
  0
VERTEX
  5
8F21
  8
AM_0
 10
438.7528133096431
 20
111.7864013757867
 30
0.0
 70
    32
  0
VERTEX
  5
8F22
  8
AM_0
 10
438.74881330964308
 20
111.7864013757867
 30
0.0
 70
    32
  0
VERTEX
  5
8F23
  8
AM_0
 10
438.7438133096432
 20
111.78540137578671
 30
0.0
 70
    32
  0
VERTEX
  5
8F24
  8
AM_0
 10
438.73981330964313
 20
111.78540137578671
 30
0.0
 70
    32
  0
VERTEX
  5
8F25
  8
AM_0
 10
438.73581330964311
 20
111.7844013757867
 30
0.0
 70
    32
  0
VERTEX
  5
8F26
  8
AM_0
 10
438.73181330964331
 20
111.7844013757867
 30
0.0
 70
    32
  0
VERTEX
  5
8F27
  8
AM_0
 10
438.72781330964301
 20
111.7834013757867
 30
0.0
 70
    32
  0
VERTEX
  5
8F28
  8
AM_0
 10
438.72281330964319
 20
111.7834013757867
 30
0.0
 70
    32
  0
VERTEX
  5
8F29
  8
AM_0
 10
438.71881330964288
 20
111.78240137578661
 30
0.0
 70
    32
  0
VERTEX
  5
8F2A
  8
AM_0
 10
438.71481330964309
 20
111.78240137578661
 30
0.0
 70
    32
  0
VERTEX
  5
8F2B
  8
AM_0
 10
438.71081330964307
 20
111.7814013757867
 30
0.0
 70
    32
  0
VERTEX
  5
8F2C
  8
AM_0
 10
438.70581330964319
 20
111.7814013757867
 30
0.0
 70
    32
  0
VERTEX
  5
8F2D
  8
AM_0
 10
438.70181330964311
 20
111.7804013757864
 30
0.0
 70
    32
  0
VERTEX
  5
8F2E
  8
AM_0
 10
438.69781330964298
 20
111.7804013757864
 30
0.0
 70
    32
  0
VERTEX
  5
8F2F
  8
AM_0
 10
438.69381330964319
 20
111.7794013757867
 30
0.0
 70
    32
  0
VERTEX
  5
8F30
  8
AM_0
 10
438.68881330964302
 20
111.7794013757867
 30
0.0
 70
    32
  0
VERTEX
  5
8F31
  8
AM_0
 10
438.68481330964318
 20
111.7784013757868
 30
0.0
 70
    32
  0
VERTEX
  5
8F32
  8
AM_0
 10
438.6808133096431
 20
111.7784013757868
 30
0.0
 70
    32
  0
VERTEX
  5
8F33
  8
AM_0
 10
438.67681330964302
 20
111.7774013757866
 30
0.0
 70
    32
  0
VERTEX
  5
8F34
  8
AM_0
 10
438.67181330964371
 20
111.7774013757866
 30
0.0
 70
    32
  0
VERTEX
  5
8F35
  8
AM_0
 10
438.66781330964312
 20
111.77640137578641
 30
0.0
 70
    32
  0
VERTEX
  5
8F36
  8
AM_0
 10
438.66381330964327
 20
111.77640137578641
 30
0.0
 70
    32
  0
VERTEX
  5
8F37
  8
AM_0
 10
438.65981330964303
 20
111.7754013757867
 30
0.0
 70
    32
  0
VERTEX
  5
8F38
  8
AM_0
 10
438.65481330964309
 20
111.7754013757867
 30
0.0
 70
    32
  0
VERTEX
  5
8F39
  8
AM_0
 10
438.65081330964301
 20
111.77440137578689
 30
0.0
 70
    32
  0
VERTEX
  5
8F3A
  8
AM_0
 10
438.64681330964311
 20
111.77440137578689
 30
0.0
 70
    32
  0
VERTEX
  5
8F3B
  8
AM_0
 10
438.64281330964309
 20
111.7734013757867
 30
0.0
 70
    32
  0
VERTEX
  5
8F3C
  8
AM_0
 10
438.63881330964301
 20
111.7734013757867
 30
0.0
 70
    32
  0
VERTEX
  5
8F3D
  8
AM_0
 10
438.6338133096437
 20
111.7724013757869
 30
0.0
 70
    32
  0
VERTEX
  5
8F3E
  8
AM_0
 10
438.629813309643
 20
111.7714013757864
 30
0.0
 70
    32
  0
VERTEX
  5
8F3F
  8
AM_0
 10
438.62581330964309
 20
111.7714013757864
 30
0.0
 70
    32
  0
VERTEX
  5
8F40
  8
AM_0
 10
438.62181330964307
 20
111.77040137578661
 30
0.0
 70
    32
  0
VERTEX
  5
8F41
  8
AM_0
 10
438.61681330964319
 20
111.77040137578661
 30
0.0
 70
    32
  0
VERTEX
  5
8F42
  8
AM_0
 10
438.61281330964312
 20
111.7694013757868
 30
0.0
 70
    32
  0
VERTEX
  5
8F43
  8
AM_0
 10
438.6088133096431
 20
111.7694013757868
 30
0.0
 70
    32
  0
VERTEX
  5
8F44
  8
AM_0
 10
438.60481330964302
 20
111.76840137578679
 30
0.0
 70
    32
  0
VERTEX
  5
8F45
  8
AM_0
 10
438.5998133096432
 20
111.76740137578641
 30
0.0
 70
    32
  0
VERTEX
  5
8F46
  8
AM_0
 10
438.59581330964312
 20
111.76740137578641
 30
0.0
 70
    32
  0
VERTEX
  5
8F47
  8
AM_0
 10
438.59181330964299
 20
111.7664013757869
 30
0.0
 70
    32
  0
VERTEX
  5
8F48
  8
AM_0
 10
438.5878133096432
 20
111.7664013757869
 30
0.0
 70
    32
  0
VERTEX
  5
8F49
  8
AM_0
 10
438.58381330964312
 20
111.7654013757866
 30
0.0
 70
    32
  0
VERTEX
  5
8F4A
  8
AM_0
 10
438.57881330964318
 20
111.7644013757867
 30
0.0
 70
    32
  0
VERTEX
  5
8F4B
  8
AM_0
 10
438.5748133096431
 20
111.7644013757867
 30
0.0
 70
    32
  0
VERTEX
  5
8F4C
  8
AM_0
 10
438.57081330964297
 20
111.7634013757867
 30
0.0
 70
    32
  0
VERTEX
  5
8F4D
  8
AM_0
 10
438.56681330964312
 20
111.7634013757867
 30
0.0
 70
    32
  0
VERTEX
  5
8F4E
  8
AM_0
 10
438.56181330964301
 20
111.7624013757863
 30
0.0
 70
    32
  0
VERTEX
  5
8F4F
  8
AM_0
 10
438.55781330964322
 20
111.7614013757867
 30
0.0
 70
    32
  0
VERTEX
  5
8F50
  8
AM_0
 10
438.55381330964309
 20
111.7614013757867
 30
0.0
 70
    32
  0
VERTEX
  5
8F51
  8
AM_0
 10
438.54981330964313
 20
111.7604013757869
 30
0.0
 70
    32
  0
VERTEX
  5
8F52
  8
AM_0
 10
438.54581330964311
 20
111.75940137578669
 30
0.0
 70
    32
  0
VERTEX
  5
8F53
  8
AM_0
 10
438.54081330964311
 20
111.75940137578669
 30
0.0
 70
    32
  0
VERTEX
  5
8F54
  8
AM_0
 10
438.53681330964309
 20
111.75840137578641
 30
0.0
 70
    32
  0
VERTEX
  5
8F55
  8
AM_0
 10
438.53281330964307
 20
111.75840137578641
 30
0.0
 70
    32
  0
VERTEX
  5
8F56
  8
AM_0
 10
438.52881330964289
 20
111.7574013757867
 30
0.0
 70
    32
  0
VERTEX
  5
8F57
  8
AM_0
 10
438.523813309643
 20
111.75640137578669
 30
0.0
 70
    32
  0
VERTEX
  5
8F58
  8
AM_0
 10
438.5198133096431
 20
111.75640137578669
 30
0.0
 70
    32
  0
VERTEX
  5
8F59
  8
AM_0
 10
438.51581330964308
 20
111.7554013757867
 30
0.0
 70
    32
  0
VERTEX
  5
8F5A
  8
AM_0
 10
438.51181330964312
 20
111.7544013757867
 30
0.0
 70
    32
  0
VERTEX
  5
8F5B
  8
AM_0
 10
438.50781330964293
 20
111.7544013757867
 30
0.0
 70
    32
  0
VERTEX
  5
8F5C
  8
AM_0
 10
438.5028133096431
 20
111.7534013757864
 30
0.0
 70
    32
  0
VERTEX
  5
8F5D
  8
AM_0
 10
438.49881330964303
 20
111.7524013757867
 30
0.0
 70
    32
  0
VERTEX
  5
8F5E
  8
AM_0
 10
438.49481330964318
 20
111.7524013757867
 30
0.0
 70
    32
  0
VERTEX
  5
8F5F
  8
AM_0
 10
438.4908133096431
 20
111.7514013757868
 30
0.0
 70
    32
  0
VERTEX
  5
8F60
  8
AM_0
 10
438.48581330964322
 20
111.75040137578679
 30
0.0
 70
    32
  0
VERTEX
  5
8F61
  8
AM_0
 10
438.48181330964309
 20
111.75040137578679
 30
0.0
 70
    32
  0
VERTEX
  5
8F62
  8
AM_0
 10
438.47781330964312
 20
111.74940137578641
 30
0.0
 70
    32
  0
VERTEX
  5
8F63
  8
AM_0
 10
438.47381330964322
 20
111.7484013757866
 30
0.0
 70
    32
  0
VERTEX
  5
8F64
  8
AM_0
 10
438.46981330964292
 20
111.74740137578659
 30
0.0
 70
    32
  0
VERTEX
  5
8F65
  8
AM_0
 10
438.46481330964309
 20
111.74740137578659
 30
0.0
 70
    32
  0
VERTEX
  5
8F66
  8
AM_0
 10
438.46081330964302
 20
111.7464013757867
 30
0.0
 70
    32
  0
VERTEX
  5
8F67
  8
AM_0
 10
438.45681330964311
 20
111.7454013757867
 30
0.0
 70
    32
  0
VERTEX
  5
8F68
  8
AM_0
 10
438.45281330964309
 20
111.7454013757867
 30
0.0
 70
    32
  0
VERTEX
  5
8F69
  8
AM_0
 10
438.44881330964301
 20
111.7444013757864
 30
0.0
 70
    32
  0
VERTEX
  5
8F6A
  8
AM_0
 10
438.44381330964308
 20
111.7434013757867
 30
0.0
 70
    32
  0
VERTEX
  5
8F6B
  8
AM_0
 10
438.43981330964311
 20
111.7424013757869
 30
0.0
 70
    32
  0
VERTEX
  5
8F6C
  8
AM_0
 10
438.43581330964309
 20
111.7424013757869
 30
0.0
 70
    32
  0
VERTEX
  5
8F6D
  8
AM_0
 10
438.43181330964308
 20
111.74140137578659
 30
0.0
 70
    32
  0
VERTEX
  5
8F6E
  8
AM_0
 10
438.427813309643
 20
111.7404013757864
 30
0.0
 70
    32
  0
VERTEX
  5
8F6F
  8
AM_0
 10
438.42281330964312
 20
111.7394013757867
 30
0.0
 70
    32
  0
VERTEX
  5
8F70
  8
AM_0
 10
438.41881330964299
 20
111.7394013757867
 30
0.0
 70
    32
  0
VERTEX
  5
8F71
  8
AM_0
 10
438.41481330964319
 20
111.73840137578669
 30
0.0
 70
    32
  0
VERTEX
  5
8F72
  8
AM_0
 10
438.41081330964312
 20
111.7374013757867
 30
0.0
 70
    32
  0
VERTEX
  5
8F73
  8
AM_0
 10
438.4068133096431
 20
111.7364013757867
 30
0.0
 70
    32
  0
VERTEX
  5
8F74
  8
AM_0
 10
438.40181330964288
 20
111.7364013757867
 30
0.0
 70
    32
  0
VERTEX
  5
8F75
  8
AM_0
 10
438.3978133096432
 20
111.73540137578669
 30
0.0
 70
    32
  0
VERTEX
  5
8F76
  8
AM_0
 10
438.39381330964312
 20
111.7344013757867
 30
0.0
 70
    32
  0
VERTEX
  5
8F77
  8
AM_0
 10
438.3898133096431
 20
111.7334013757868
 30
0.0
 70
    32
  0
VERTEX
  5
8F78
  8
AM_0
 10
438.38581330964308
 20
111.7334013757868
 30
0.0
 70
    32
  0
VERTEX
  5
8F79
  8
AM_0
 10
438.38081330964297
 20
111.73240137578669
 30
0.0
 70
    32
  0
VERTEX
  5
8F7A
  8
AM_0
 10
438.37681330964313
 20
111.73140137578631
 30
0.0
 70
    32
  0
VERTEX
  5
8F7B
  8
AM_0
 10
438.37281330964311
 20
111.7304013757867
 30
0.0
 70
    32
  0
VERTEX
  5
8F7C
  8
AM_0
 10
438.36881330964309
 20
111.72940137578659
 30
0.0
 70
    32
  0
VERTEX
  5
8F7D
  8
AM_0
 10
438.36481330964313
 20
111.72940137578659
 30
0.0
 70
    32
  0
VERTEX
  5
8F7E
  8
AM_0
 10
438.35981330964302
 20
111.7284013757867
 30
0.0
 70
    32
  0
VERTEX
  5
8F7F
  8
AM_0
 10
438.35581330964322
 20
111.7274013757867
 30
0.0
 70
    32
  0
VERTEX
  5
8F80
  8
AM_0
 10
438.35181330964309
 20
111.72640137578691
 30
0.0
 70
    32
  0
VERTEX
  5
8F81
  8
AM_0
 10
438.34781330964307
 20
111.7254013757867
 30
0.0
 70
    32
  0
VERTEX
  5
8F82
  8
AM_0
 10
438.34381330964311
 20
111.7254013757867
 30
0.0
 70
    32
  0
VERTEX
  5
8F83
  8
AM_0
 10
438.33881330964311
 20
111.7244013757867
 30
0.0
 70
    32
  0
VERTEX
  5
8F84
  8
AM_0
 10
438.3348133096431
 20
111.72340137578659
 30
0.0
 70
    32
  0
VERTEX
  5
8F85
  8
AM_0
 10
438.33081330964319
 20
111.7224013757864
 30
0.0
 70
    32
  0
VERTEX
  5
8F86
  8
AM_0
 10
438.326813309643
 20
111.7214013757867
 30
0.0
 70
    32
  0
VERTEX
  5
8F87
  8
AM_0
 10
438.32281330964298
 20
111.72040137578681
 30
0.0
 70
    32
  0
VERTEX
  5
8F88
  8
AM_0
 10
438.31881330964319
 20
111.72040137578681
 30
0.0
 70
    32
  0
VERTEX
  5
8F89
  8
AM_0
 10
438.31381330964302
 20
111.7194013757867
 30
0.0
 70
    32
  0
VERTEX
  5
8F8A
  8
AM_0
 10
438.30981330964318
 20
111.7184013757869
 30
0.0
 70
    32
  0
VERTEX
  5
8F8B
  8
AM_0
 10
438.30581330964287
 20
111.71740137578659
 30
0.0
 70
    32
  0
VERTEX
  5
8F8C
  8
AM_0
 10
438.30181330964319
 20
111.7164013757867
 30
0.0
 70
    32
  0
VERTEX
  5
8F8D
  8
AM_0
 10
438.297813309643
 20
111.7154013757867
 30
0.0
 70
    32
  0
VERTEX
  5
8F8E
  8
AM_0
 10
438.29281330964318
 20
111.71440137578669
 30
0.0
 70
    32
  0
VERTEX
  5
8F8F
  8
AM_0
 10
438.2888133096431
 20
111.71440137578669
 30
0.0
 70
    32
  0
VERTEX
  5
8F90
  8
AM_0
 10
438.28481330964303
 20
111.7134013757864
 30
0.0
 70
    32
  0
VERTEX
  5
8F91
  8
AM_0
 10
438.28081330964312
 20
111.7124013757867
 30
0.0
 70
    32
  0
VERTEX
  5
8F92
  8
AM_0
 10
438.2768133096431
 20
111.71140137578671
 30
0.0
 70
    32
  0
VERTEX
  5
8F93
  8
AM_0
 10
438.27281330964303
 20
111.7104013757867
 30
0.0
 70
    32
  0
VERTEX
  5
8F94
  8
AM_0
 10
438.26781330964309
 20
111.7094013757867
 30
0.0
 70
    32
  0
VERTEX
  5
8F95
  8
AM_0
 10
438.26381330964301
 20
111.70840137578671
 30
0.0
 70
    32
  0
VERTEX
  5
8F96
  8
AM_0
 10
438.25981330964328
 20
111.7074013757866
 30
0.0
 70
    32
  0
VERTEX
  5
8F97
  8
AM_0
 10
438.25581330964309
 20
111.7064013757867
 30
0.0
 70
    32
  0
VERTEX
  5
8F98
  8
AM_0
 10
438.25181330964313
 20
111.7064013757867
 30
0.0
 70
    32
  0
VERTEX
  5
8F99
  8
AM_0
 10
438.24781330964311
 20
111.70540137578691
 30
0.0
 70
    32
  0
VERTEX
  5
8F9A
  8
AM_0
 10
438.24281330964311
 20
111.7044013757864
 30
0.0
 70
    32
  0
VERTEX
  5
8F9B
  8
AM_0
 10
438.23881330964309
 20
111.7034013757867
 30
0.0
 70
    32
  0
VERTEX
  5
8F9C
  8
AM_0
 10
438.23481330964319
 20
111.70240137578671
 30
0.0
 70
    32
  0
VERTEX
  5
8F9D
  8
AM_0
 10
438.23081330964311
 20
111.7014013757869
 30
0.0
 70
    32
  0
VERTEX
  5
8F9E
  8
AM_0
 10
438.22681330964298
 20
111.7004013757866
 30
0.0
 70
    32
  0
VERTEX
  5
8F9F
  8
AM_0
 10
438.22281330964319
 20
111.69940137578661
 30
0.0
 70
    32
  0
VERTEX
  5
8FA0
  8
AM_0
 10
438.21781330964302
 20
111.6984013757864
 30
0.0
 70
    32
  0
VERTEX
  5
8FA1
  8
AM_0
 10
438.21381330964311
 20
111.6974013757867
 30
0.0
 70
    32
  0
VERTEX
  5
8FA2
  8
AM_0
 10
438.20981330964293
 20
111.69640137578691
 30
0.0
 70
    32
  0
VERTEX
  5
8FA3
  8
AM_0
 10
438.20581330964319
 20
111.6954013757863
 30
0.0
 70
    32
  0
VERTEX
  5
8FA4
  8
AM_0
 10
438.201813309643
 20
111.6944013757867
 30
0.0
 70
    32
  0
VERTEX
  5
8FA5
  8
AM_0
 10
438.19781330964298
 20
111.69340137578661
 30
0.0
 70
    32
  0
VERTEX
  5
8FA6
  8
AM_0
 10
438.1928133096431
 20
111.6924013757867
 30
0.0
 70
    32
  0
VERTEX
  5
8FA7
  8
AM_0
 10
438.18881330964302
 20
111.6914013757867
 30
0.0
 70
    32
  0
VERTEX
  5
8FA8
  8
AM_0
 10
438.18481330964318
 20
111.69040137578671
 30
0.0
 70
    32
  0
VERTEX
  5
8FA9
  8
AM_0
 10
438.1808133096431
 20
111.6894013757864
 30
0.0
 70
    32
  0
VERTEX
  5
8FAA
  8
AM_0
 10
438.17681330964302
 20
111.6884013757867
 30
0.0
 70
    32
  0
VERTEX
  5
8FAB
  8
AM_0
 10
438.17281330964289
 20
111.68740137578691
 30
0.0
 70
    32
  0
VERTEX
  5
8FAC
  8
AM_0
 10
438.1688133096431
 20
111.6864013757864
 30
0.0
 70
    32
  0
VERTEX
  5
8FAD
  8
AM_0
 10
438.16381330964327
 20
111.6854013757867
 30
0.0
 70
    32
  0
VERTEX
  5
8FAE
  8
AM_0
 10
438.15981330964308
 20
111.68440137578671
 30
0.0
 70
    32
  0
VERTEX
  5
8FAF
  8
AM_0
 10
438.15581330964312
 20
111.6834013757867
 30
0.0
 70
    32
  0
VERTEX
  5
8FB0
  8
AM_0
 10
438.1518133096431
 20
111.6824013757866
 30
0.0
 70
    32
  0
VERTEX
  5
8FB1
  8
AM_0
 10
438.1478133096432
 20
111.68140137578671
 30
0.0
 70
    32
  0
VERTEX
  5
8FB2
  8
AM_0
 10
438.14381330964301
 20
111.6804013757866
 30
0.0
 70
    32
  0
VERTEX
  5
8FB3
  8
AM_0
 10
438.13881330964313
 20
111.6794013757867
 30
0.0
 70
    32
  0
VERTEX
  5
8FB4
  8
AM_0
 10
438.13481330964311
 20
111.6784013757869
 30
0.0
 70
    32
  0
VERTEX
  5
8FB5
  8
AM_0
 10
438.13081330964309
 20
111.6774013757867
 30
0.0
 70
    32
  0
VERTEX
  5
8FB6
  8
AM_0
 10
438.12681330964318
 20
111.6764013757866
 30
0.0
 70
    32
  0
VERTEX
  5
8FB7
  8
AM_0
 10
438.12281330964288
 20
111.67540137578661
 30
0.0
 70
    32
  0
VERTEX
  5
8FB8
  8
AM_0
 10
438.1188133096432
 20
111.6744013757867
 30
0.0
 70
    32
  0
VERTEX
  5
8FB9
  8
AM_0
 10
438.11481330964313
 20
111.6734013757867
 30
0.0
 70
    32
  0
VERTEX
  5
8FBA
  8
AM_0
 10
438.11081330964299
 20
111.67240137578681
 30
0.0
 70
    32
  0
VERTEX
  5
8FBB
  8
AM_0
 10
438.10581330964311
 20
111.6714013757864
 30
0.0
 70
    32
  0
VERTEX
  5
8FBC
  8
AM_0
 10
438.10181330964298
 20
111.6704013757867
 30
0.0
 70
    32
  0
VERTEX
  5
8FBD
  8
AM_0
 10
438.09781330964319
 20
111.6694013757869
 30
0.0
 70
    32
  0
VERTEX
  5
8FBE
  8
AM_0
 10
438.09381330964311
 20
111.6674013757867
 30
0.0
 70
    32
  0
VERTEX
  5
8FBF
  8
AM_0
 10
438.08981330964298
 20
111.66640137578671
 30
0.0
 70
    32
  0
VERTEX
  5
8FC0
  8
AM_0
 10
438.08581330964302
 20
111.6654013757867
 30
0.0
 70
    32
  0
VERTEX
  5
8FC1
  8
AM_0
 10
438.08181330964322
 20
111.6644013757867
 30
0.0
 70
    32
  0
VERTEX
  5
8FC2
  8
AM_0
 10
438.07781330964309
 20
111.66340137578671
 30
0.0
 70
    32
  0
VERTEX
  5
8FC3
  8
AM_0
 10
438.07281330964321
 20
111.6624013757864
 30
0.0
 70
    32
  0
VERTEX
  5
8FC4
  8
AM_0
 10
438.06881330964308
 20
111.6614013757867
 30
0.0
 70
    32
  0
VERTEX
  5
8FC5
  8
AM_0
 10
438.06481330964311
 20
111.6604013757869
 30
0.0
 70
    32
  0
VERTEX
  5
8FC6
  8
AM_0
 10
438.06081330964309
 20
111.6594013757867
 30
0.0
 70
    32
  0
VERTEX
  5
8FC7
  8
AM_0
 10
438.05681330964308
 20
111.6574013757867
 30
0.0
 70
    32
  0
VERTEX
  5
8FC8
  8
AM_0
 10
438.05281330964311
 20
111.6564013757867
 30
0.0
 70
    32
  0
VERTEX
  5
8FC9
  8
AM_0
 10
438.04881330964332
 20
111.6554013757867
 30
0.0
 70
    32
  0
VERTEX
  5
8FCA
  8
AM_0
 10
438.04481330964308
 20
111.6544013757867
 30
0.0
 70
    32
  0
VERTEX
  5
8FCB
  8
AM_0
 10
438.03981330964319
 20
111.6534013757864
 30
0.0
 70
    32
  0
VERTEX
  5
8FCC
  8
AM_0
 10
438.035813309643
 20
111.6524013757866
 30
0.0
 70
    32
  0
VERTEX
  5
8FCD
  8
AM_0
 10
438.0318133096431
 20
111.6514013757868
 30
0.0
 70
    32
  0
VERTEX
  5
8FCE
  8
AM_0
 10
438.02781330964308
 20
111.6494013757867
 30
0.0
 70
    32
  0
VERTEX
  5
8FCF
  8
AM_0
 10
438.02381330964312
 20
111.6484013757867
 30
0.0
 70
    32
  0
VERTEX
  5
8FD0
  8
AM_0
 10
438.0198133096431
 20
111.6474013757867
 30
0.0
 70
    32
  0
VERTEX
  5
8FD1
  8
AM_0
 10
438.01581330964302
 20
111.6464013757866
 30
0.0
 70
    32
  0
VERTEX
  5
8FD2
  8
AM_0
 10
438.01181330964317
 20
111.64540137578661
 30
0.0
 70
    32
  0
VERTEX
  5
8FD3
  8
AM_0
 10
438.00781330964293
 20
111.6444013757867
 30
0.0
 70
    32
  0
VERTEX
  5
8FD4
  8
AM_0
 10
438.00381330964319
 20
111.6424013757869
 30
0.0
 70
    32
  0
VERTEX
  5
8FD5
  8
AM_0
 10
437.99881330964303
 20
111.6414013757867
 30
0.0
 70
    32
  0
VERTEX
  5
8FD6
  8
AM_0
 10
437.99481330964318
 20
111.64040137578669
 30
0.0
 70
    32
  0
VERTEX
  5
8FD7
  8
AM_0
 10
437.99081330964322
 20
111.6394013757867
 30
0.0
 70
    32
  0
VERTEX
  5
8FD8
  8
AM_0
 10
437.98681330964303
 20
111.6384013757867
 30
0.0
 70
    32
  0
VERTEX
  5
8FD9
  8
AM_0
 10
437.98281330964312
 20
111.6364013757866
 30
0.0
 70
    32
  0
VERTEX
  5
8FDA
  8
AM_0
 10
437.9788133096431
 20
111.6354013757863
 30
0.0
 70
    32
  0
VERTEX
  5
8FDB
  8
AM_0
 10
437.97481330964303
 20
111.63440137578669
 30
0.0
 70
    32
  0
VERTEX
  5
8FDC
  8
AM_0
 10
437.97081330964312
 20
111.6334013757869
 30
0.0
 70
    32
  0
VERTEX
  5
8FDD
  8
AM_0
 10
437.9668133096431
 20
111.6314013757864
 30
0.0
 70
    32
  0
VERTEX
  5
8FDE
  8
AM_0
 10
437.96281330964308
 20
111.6304013757869
 30
0.0
 70
    32
  0
VERTEX
  5
8FDF
  8
AM_0
 10
437.95881330964312
 20
111.6294013757867
 30
0.0
 70
    32
  0
VERTEX
  5
8FE0
  8
AM_0
 10
437.95381330964312
 20
111.62840137578659
 30
0.0
 70
    32
  0
VERTEX
  5
8FE1
  8
AM_0
 10
437.9498133096431
 20
111.6264013757864
 30
0.0
 70
    32
  0
VERTEX
  5
8FE2
  8
AM_0
 10
437.9458133096432
 20
111.62540137578679
 30
0.0
 70
    32
  0
VERTEX
  5
8FE3
  8
AM_0
 10
437.94181330964312
 20
111.6244013757869
 30
0.0
 70
    32
  0
VERTEX
  5
8FE4
  8
AM_0
 10
437.93781330964299
 20
111.6234013757867
 30
0.0
 70
    32
  0
VERTEX
  5
8FE5
  8
AM_0
 10
437.9338133096432
 20
111.6214013757867
 30
0.0
 70
    32
  0
VERTEX
  5
8FE6
  8
AM_0
 10
437.92981330964312
 20
111.6204013757867
 30
0.0
 70
    32
  0
VERTEX
  5
8FE7
  8
AM_0
 10
437.9258133096431
 20
111.61940137578659
 30
0.0
 70
    32
  0
VERTEX
  5
8FE8
  8
AM_0
 10
437.92181330964303
 20
111.6184013757867
 30
0.0
 70
    32
  0
VERTEX
  5
8FE9
  8
AM_0
 10
437.91781330964318
 20
111.61640137578669
 30
0.0
 70
    32
  0
VERTEX
  5
8FEA
  8
AM_0
 10
437.9138133096431
 20
111.6154013757868
 30
0.0
 70
    32
  0
VERTEX
  5
8FEB
  8
AM_0
 10
437.90981330964303
 20
111.6144013757867
 30
0.0
 70
    32
  0
VERTEX
  5
8FEC
  8
AM_0
 10
437.90581330964318
 20
111.6124013757866
 30
0.0
 70
    32
  0
VERTEX
  5
8FED
  8
AM_0
 10
437.90081330964301
 20
111.6114013757867
 30
0.0
 70
    32
  0
VERTEX
  5
8FEE
  8
AM_0
 10
437.89681330964322
 20
111.61040137578669
 30
0.0
 70
    32
  0
VERTEX
  5
8FEF
  8
AM_0
 10
437.89281330964292
 20
111.6084013757864
 30
0.0
 70
    32
  0
VERTEX
  5
8FF0
  8
AM_0
 10
437.88881330964301
 20
111.60740137578669
 30
0.0
 70
    32
  0
VERTEX
  5
8FF1
  8
AM_0
 10
437.88481330964328
 20
111.6064013757869
 30
0.0
 70
    32
  0
VERTEX
  5
8FF2
  8
AM_0
 10
437.88081330964309
 20
111.60440137578659
 30
0.0
 70
    32
  0
VERTEX
  5
8FF3
  8
AM_0
 10
437.87681330964313
 20
111.6034013757867
 30
0.0
 70
    32
  0
VERTEX
  5
8FF4
  8
AM_0
 10
437.87281330964311
 20
111.6024013757867
 30
0.0
 70
    32
  0
VERTEX
  5
8FF5
  8
AM_0
 10
437.8688133096432
 20
111.6004013757867
 30
0.0
 70
    32
  0
VERTEX
  5
8FF6
  8
AM_0
 10
437.86481330964313
 20
111.5994013757863
 30
0.0
 70
    32
  0
VERTEX
  5
8FF7
  8
AM_0
 10
437.86081330964311
 20
111.59840137578659
 30
0.0
 70
    32
  0
VERTEX
  5
8FF8
  8
AM_0
 10
437.85681330964331
 20
111.5964013757867
 30
0.0
 70
    32
  0
VERTEX
  5
8FF9
  8
AM_0
 10
437.85281330964301
 20
111.59540137578639
 30
0.0
 70
    32
  0
VERTEX
  5
8FFA
  8
AM_0
 10
437.84881330964311
 20
111.5944013757867
 30
0.0
 70
    32
  0
VERTEX
  5
8FFB
  8
AM_0
 10
437.84481330964309
 20
111.59240137578659
 30
0.0
 70
    32
  0
VERTEX
  5
8FFC
  8
AM_0
 10
437.84081330964312
 20
111.5914013757867
 30
0.0
 70
    32
  0
VERTEX
  5
8FFD
  8
AM_0
 10
437.83681330964311
 20
111.58940137578669
 30
0.0
 70
    32
  0
VERTEX
  5
8FFE
  8
AM_0
 10
437.83281330964297
 20
111.5884013757867
 30
0.0
 70
    32
  0
VERTEX
  5
8FFF
  8
AM_0
 10
437.82881330964318
 20
111.5874013757867
 30
0.0
 70
    32
  0
VERTEX
  5
9000
  8
AM_0
 10
437.82481330964288
 20
111.5854013757867
 30
0.0
 70
    32
  0
VERTEX
  5
9001
  8
AM_0
 10
437.8208133096432
 20
111.5844013757867
 30
0.0
 70
    32
  0
VERTEX
  5
9002
  8
AM_0
 10
437.81681330964312
 20
111.5824013757867
 30
0.0
 70
    32
  0
VERTEX
  5
9003
  8
AM_0
 10
437.8128133096431
 20
111.5814013757867
 30
0.0
 70
    32
  0
VERTEX
  5
9004
  8
AM_0
 10
437.8088133096432
 20
111.58040137578659
 30
0.0
 70
    32
  0
VERTEX
  5
9005
  8
AM_0
 10
437.80481330964312
 20
111.5784013757867
 30
0.0
 70
    32
  0
VERTEX
  5
9006
  8
AM_0
 10
437.8008133096431
 20
111.57740137578639
 30
0.0
 70
    32
  0
VERTEX
  5
9007
  8
AM_0
 10
437.79581330964311
 20
111.5754013757867
 30
0.0
 70
    32
  0
VERTEX
  5
9008
  8
AM_0
 10
437.79181330964298
 20
111.57440137578671
 30
0.0
 70
    32
  0
VERTEX
  5
9009
  8
AM_0
 10
437.78781330964301
 20
111.5724013757867
 30
0.0
 70
    32
  0
VERTEX
  5
900A
  8
AM_0
 10
437.78381330964311
 20
111.57140137578671
 30
0.0
 70
    32
  0
VERTEX
  5
900B
  8
AM_0
 10
437.77981330964309
 20
111.5694013757867
 30
0.0
 70
    32
  0
VERTEX
  5
900C
  8
AM_0
 10
437.77581330964301
 20
111.56840137578639
 30
0.0
 70
    32
  0
VERTEX
  5
900D
  8
AM_0
 10
437.77181330964311
 20
111.5664013757867
 30
0.0
 70
    32
  0
VERTEX
  5
900E
  8
AM_0
 10
437.76781330964309
 20
111.56540137578661
 30
0.0
 70
    32
  0
VERTEX
  5
900F
  8
AM_0
 10
437.76381330964301
 20
111.5634013757867
 30
0.0
 70
    32
  0
VERTEX
  5
9010
  8
AM_0
 10
437.75981330964328
 20
111.56240137578671
 30
0.0
 70
    32
  0
VERTEX
  5
9011
  8
AM_0
 10
437.75581330964309
 20
111.5604013757867
 30
0.0
 70
    32
  0
VERTEX
  5
9012
  8
AM_0
 10
437.75181330964313
 20
111.55940137578629
 30
0.0
 70
    32
  0
VERTEX
  5
9013
  8
AM_0
 10
437.74781330964288
 20
111.5574013757866
 30
0.0
 70
    32
  0
VERTEX
  5
9014
  8
AM_0
 10
437.7438133096432
 20
111.55640137578661
 30
0.0
 70
    32
  0
VERTEX
  5
9015
  8
AM_0
 10
437.73981330964313
 20
111.5544013757867
 30
0.0
 70
    32
  0
VERTEX
  5
9016
  8
AM_0
 10
437.73581330964299
 20
111.55340137578671
 30
0.0
 70
    32
  0
VERTEX
  5
9017
  8
AM_0
 10
437.73281330964312
 20
111.5514013757869
 30
0.0
 70
    32
  0
VERTEX
  5
9018
  8
AM_0
 10
437.72881330964287
 20
111.55040137578639
 30
0.0
 70
    32
  0
VERTEX
  5
9019
  8
AM_0
 10
437.7248133096432
 20
111.5484013757867
 30
0.0
 70
    32
  0
VERTEX
  5
901A
  8
AM_0
 10
437.72081330964312
 20
111.5474013757869
 30
0.0
 70
    32
  0
VERTEX
  5
901B
  8
AM_0
 10
437.71681330964299
 20
111.5454013757867
 30
0.0
 70
    32
  0
VERTEX
  5
901C
  8
AM_0
 10
437.7128133096432
 20
111.54440137578661
 30
0.0
 70
    32
  0
VERTEX
  5
901D
  8
AM_0
 10
437.70881330964312
 20
111.54240137578689
 30
0.0
 70
    32
  0
VERTEX
  5
901E
  8
AM_0
 10
437.7048133096431
 20
111.5404013757867
 30
0.0
 70
    32
  0
VERTEX
  5
901F
  8
AM_0
 10
437.70081330964302
 20
111.5394013757867
 30
0.0
 70
    32
  0
VERTEX
  5
9020
  8
AM_0
 10
437.69681330964318
 20
111.5374013757867
 30
0.0
 70
    32
  0
VERTEX
  5
9021
  8
AM_0
 10
437.69281330964321
 20
111.5364013757867
 30
0.0
 70
    32
  0
VERTEX
  5
9022
  8
AM_0
 10
437.68881330964302
 20
111.5344013757867
 30
0.0
 70
    32
  0
VERTEX
  5
9023
  8
AM_0
 10
437.68481330964312
 20
111.53240137578641
 30
0.0
 70
    32
  0
VERTEX
  5
9024
  8
AM_0
 10
437.6808133096431
 20
111.5314013757867
 30
0.0
 70
    32
  0
VERTEX
  5
9025
  8
AM_0
 10
437.67681330964302
 20
111.5294013757867
 30
0.0
 70
    32
  0
VERTEX
  5
9026
  8
AM_0
 10
437.67281330964289
 20
111.5284013757867
 30
0.0
 70
    32
  0
VERTEX
  5
9027
  8
AM_0
 10
437.6688133096431
 20
111.52640137578641
 30
0.0
 70
    32
  0
VERTEX
  5
9028
  8
AM_0
 10
437.66481330964308
 20
111.52440137578679
 30
0.0
 70
    32
  0
VERTEX
  5
9029
  8
AM_0
 10
437.66081330964312
 20
111.52340137578641
 30
0.0
 70
    32
  0
VERTEX
  5
902A
  8
AM_0
 10
437.6568133096431
 20
111.5214013757866
 30
0.0
 70
    32
  0
VERTEX
  5
902B
  8
AM_0
 10
437.65281330964308
 20
111.5194013757867
 30
0.0
 70
    32
  0
VERTEX
  5
902C
  8
AM_0
 10
437.648813309643
 20
111.51840137578669
 30
0.0
 70
    32
  0
VERTEX
  5
902D
  8
AM_0
 10
437.6448133096431
 20
111.5164013757867
 30
0.0
 70
    32
  0
VERTEX
  5
902E
  8
AM_0
 10
437.641813309643
 20
111.5144013757867
 30
0.0
 70
    32
  0
VERTEX
  5
902F
  8
AM_0
 10
437.63781330964309
 20
111.5134013757867
 30
0.0
 70
    32
  0
VERTEX
  5
9030
  8
AM_0
 10
437.63381330964307
 20
111.5114013757867
 30
0.0
 70
    32
  0
VERTEX
  5
9031
  8
AM_0
 10
437.62981330964311
 20
111.5094013757866
 30
0.0
 70
    32
  0
VERTEX
  5
9032
  8
AM_0
 10
437.62581330964309
 20
111.50840137578641
 30
0.0
 70
    32
  0
VERTEX
  5
9033
  8
AM_0
 10
437.62181330964302
 20
111.50640137578689
 30
0.0
 70
    32
  0
VERTEX
  5
9034
  8
AM_0
 10
437.61781330964311
 20
111.5044013757866
 30
0.0
 70
    32
  0
VERTEX
  5
9035
  8
AM_0
 10
437.61381330964292
 20
111.50340137578659
 30
0.0
 70
    32
  0
VERTEX
  5
9036
  8
AM_0
 10
437.60981330964319
 20
111.5014013757867
 30
0.0
 70
    32
  0
VERTEX
  5
9037
  8
AM_0
 10
437.60581330964322
 20
111.49940137578641
 30
0.0
 70
    32
  0
VERTEX
  5
9038
  8
AM_0
 10
437.60181330964298
 20
111.49740137578679
 30
0.0
 70
    32
  0
VERTEX
  5
9039
  8
AM_0
 10
437.59781330964307
 20
111.4964013757867
 30
0.0
 70
    32
  0
VERTEX
  5
903A
  8
AM_0
 10
437.59481330964292
 20
111.49440137578669
 30
0.0
 70
    32
  0
VERTEX
  5
903B
  8
AM_0
 10
437.59081330964312
 20
111.4924013757867
 30
0.0
 70
    32
  0
VERTEX
  5
903C
  8
AM_0
 10
437.58681330964328
 20
111.4904013757864
 30
0.0
 70
    32
  0
VERTEX
  5
903D
  8
AM_0
 10
437.58281330964309
 20
111.4894013757867
 30
0.0
 70
    32
  0
VERTEX
  5
903E
  8
AM_0
 10
437.57881330964312
 20
111.4874013757867
 30
0.0
 70
    32
  0
VERTEX
  5
903F
  8
AM_0
 10
437.5748133096431
 20
111.48540137578669
 30
0.0
 70
    32
  0
VERTEX
  5
9040
  8
AM_0
 10
437.5708133096432
 20
111.4834013757867
 30
0.0
 70
    32
  0
VERTEX
  5
9041
  8
AM_0
 10
437.56681330964312
 20
111.48240137578669
 30
0.0
 70
    32
  0
VERTEX
  5
9042
  8
AM_0
 10
437.5628133096431
 20
111.4804013757867
 30
0.0
 70
    32
  0
VERTEX
  5
9043
  8
AM_0
 10
437.55981330964312
 20
111.4784013757867
 30
0.0
 70
    32
  0
VERTEX
  5
9044
  8
AM_0
 10
437.5558133096431
 20
111.47640137578681
 30
0.0
 70
    32
  0
VERTEX
  5
9045
  8
AM_0
 10
437.55181330964319
 20
111.4744013757867
 30
0.0
 70
    32
  0
VERTEX
  5
9046
  8
AM_0
 10
437.547813309643
 20
111.47340137578659
 30
0.0
 70
    32
  0
VERTEX
  5
9047
  8
AM_0
 10
437.54381330964299
 20
111.4714013757867
 30
0.0
 70
    32
  0
VERTEX
  5
9048
  8
AM_0
 10
437.53981330964319
 20
111.4694013757867
 30
0.0
 70
    32
  0
VERTEX
  5
9049
  8
AM_0
 10
437.53581330964312
 20
111.46740137578669
 30
0.0
 70
    32
  0
VERTEX
  5
904A
  8
AM_0
 10
437.53281330964319
 20
111.4654013757867
 30
0.0
 70
    32
  0
VERTEX
  5
904B
  8
AM_0
 10
437.52881330964311
 20
111.46440137578669
 30
0.0
 70
    32
  0
VERTEX
  5
904C
  8
AM_0
 10
437.52481330964298
 20
111.4624013757866
 30
0.0
 70
    32
  0
VERTEX
  5
904D
  8
AM_0
 10
437.52081330964319
 20
111.4604013757867
 30
0.0
 70
    32
  0
VERTEX
  5
904E
  8
AM_0
 10
437.51681330964311
 20
111.45840137578671
 30
0.0
 70
    32
  0
VERTEX
  5
904F
  8
AM_0
 10
437.51281330964298
 20
111.4564013757867
 30
0.0
 70
    32
  0
VERTEX
  5
9050
  8
AM_0
 10
437.50881330964302
 20
111.4544013757864
 30
0.0
 70
    32
  0
VERTEX
  5
9051
  8
AM_0
 10
437.50581330964297
 20
111.45240137578691
 30
0.0
 70
    32
  0
VERTEX
  5
9052
  8
AM_0
 10
437.50181330964313
 20
111.4504013757864
 30
0.0
 70
    32
  0
VERTEX
  5
9053
  8
AM_0
 10
437.49781330964311
 20
111.44940137578661
 30
0.0
 70
    32
  0
VERTEX
  5
9054
  8
AM_0
 10
437.49381330964297
 20
111.4474013757867
 30
0.0
 70
    32
  0
VERTEX
  5
9055
  8
AM_0
 10
437.48981330964313
 20
111.4454013757864
 30
0.0
 70
    32
  0
VERTEX
  5
9056
  8
AM_0
 10
437.48681330964303
 20
111.44340137578691
 30
0.0
 70
    32
  0
VERTEX
  5
9057
  8
AM_0
 10
437.48281330964312
 20
111.4414013757864
 30
0.0
 70
    32
  0
VERTEX
  5
9058
  8
AM_0
 10
437.4788133096431
 20
111.4394013757867
 30
0.0
 70
    32
  0
VERTEX
  5
9059
  8
AM_0
 10
437.47481330964308
 20
111.43740137578671
 30
0.0
 70
    32
  0
VERTEX
  5
905A
  8
AM_0
 10
437.47081330964369
 20
111.4354013757867
 30
0.0
 70
    32
  0
VERTEX
  5
905B
  8
AM_0
 10
437.46781330964308
 20
111.4334013757867
 30
0.0
 70
    32
  0
VERTEX
  5
905C
  8
AM_0
 10
437.46381330964311
 20
111.43140137578661
 30
0.0
 70
    32
  0
VERTEX
  5
905D
  8
AM_0
 10
437.4598133096431
 20
111.4294013757867
 30
0.0
 70
    32
  0
VERTEX
  5
905E
  8
AM_0
 10
437.45581330964319
 20
111.4274013757869
 30
0.0
 70
    32
  0
VERTEX
  5
905F
  8
AM_0
 10
437.451813309643
 20
111.42540137578671
 30
0.0
 70
    32
  0
VERTEX
  5
9060
  8
AM_0
 10
437.44881330964313
 20
111.4234013757867
 30
0.0
 70
    32
  0
VERTEX
  5
9061
  8
AM_0
 10
437.44481330964311
 20
111.4214013757867
 30
0.0
 70
    32
  0
VERTEX
  5
9062
  8
AM_0
 10
437.44081330964292
 20
111.41940137578671
 30
0.0
 70
    32
  0
VERTEX
  5
9063
  8
AM_0
 10
437.43681330964318
 20
111.4174013757867
 30
0.0
 70
    32
  0
VERTEX
  5
9064
  8
AM_0
 10
437.43281330964311
 20
111.4154013757866
 30
0.0
 70
    32
  0
VERTEX
  5
9065
  8
AM_0
 10
437.42981330964312
 20
111.41340137578671
 30
0.0
 70
    32
  0
VERTEX
  5
9066
  8
AM_0
 10
437.42581330964299
 20
111.4114013757867
 30
0.0
 70
    32
  0
VERTEX
  5
9067
  8
AM_0
 10
437.42181330964303
 20
111.4094013757867
 30
0.0
 70
    32
  0
VERTEX
  5
9068
  8
AM_0
 10
437.41781330964318
 20
111.4074013757867
 30
0.0
 70
    32
  0
VERTEX
  5
9069
  8
AM_0
 10
437.41481330964319
 20
111.4054013757864
 30
0.0
 70
    32
  0
VERTEX
  5
906A
  8
AM_0
 10
437.41081330964312
 20
111.4034013757867
 30
0.0
 70
    32
  0
VERTEX
  5
906B
  8
AM_0
 10
437.4068133096431
 20
111.40140137578661
 30
0.0
 70
    32
  0
VERTEX
  5
906C
  8
AM_0
 10
437.40281330964302
 20
111.3994013757864
 30
0.0
 70
    32
  0
VERTEX
  5
906D
  8
AM_0
 10
437.39981330964309
 20
111.3974013757872
 30
0.0
 70
    32
  0
VERTEX
  5
906E
  8
AM_0
 10
437.39581330964307
 20
111.39540137578661
 30
0.0
 70
    32
  0
VERTEX
  5
906F
  8
AM_0
 10
437.39181330964311
 20
111.39340137578669
 30
0.0
 70
    32
  0
VERTEX
  5
9070
  8
AM_0
 10
437.38881330964301
 20
111.3914013757867
 30
0.0
 70
    32
  0
VERTEX
  5
9071
  8
AM_0
 10
437.38481330964328
 20
111.3884013757869
 30
0.0
 70
    32
  0
VERTEX
  5
9072
  8
AM_0
 10
437.38081330964309
 20
111.3864013757867
 30
0.0
 70
    32
  0
VERTEX
  5
9073
  8
AM_0
 10
437.37681330964313
 20
111.38440137578669
 30
0.0
 70
    32
  0
VERTEX
  5
9074
  8
AM_0
 10
437.37381330964308
 20
111.3824013757867
 30
0.0
 70
    32
  0
VERTEX
  5
9075
  8
AM_0
 10
437.36981330964312
 20
111.3804013757869
 30
0.0
 70
    32
  0
VERTEX
  5
9076
  8
AM_0
 10
437.36581330964327
 20
111.3784013757864
 30
0.0
 70
    32
  0
VERTEX
  5
9077
  8
AM_0
 10
437.36281330964289
 20
111.3764013757867
 30
0.0
 70
    32
  0
VERTEX
  5
9078
  8
AM_0
 10
437.3588133096431
 20
111.3744013757868
 30
0.0
 70
    32
  0
VERTEX
  5
9079
  8
AM_0
 10
437.35481330964308
 20
111.3714013757867
 30
0.0
 70
    32
  0
VERTEX
  5
907A
  8
AM_0
 10
437.35181330964309
 20
111.3694013757862
 30
0.0
 70
    32
  0
VERTEX
  5
907B
  8
AM_0
 10
437.34781330964319
 20
111.3674013757867
 30
0.0
 70
    32
  0
VERTEX
  5
907C
  8
AM_0
 10
437.343813309643
 20
111.3654013757867
 30
0.0
 70
    32
  0
VERTEX
  5
907D
  8
AM_0
 10
437.34081330964318
 20
111.3634013757864
 30
0.0
 70
    32
  0
VERTEX
  5
907E
  8
AM_0
 10
437.33681330964311
 20
111.36040137578669
 30
0.0
 70
    32
  0
VERTEX
  5
907F
  8
AM_0
 10
437.33281330964297
 20
111.3584013757867
 30
0.0
 70
    32
  0
VERTEX
  5
9080
  8
AM_0
 10
437.3298133096431
 20
111.3564013757867
 30
0.0
 70
    32
  0
VERTEX
  5
9081
  8
AM_0
 10
437.32581330964302
 20
111.3544013757864
 30
0.0
 70
    32
  0
VERTEX
  5
9082
  8
AM_0
 10
437.32181330964318
 20
111.3524013757869
 30
0.0
 70
    32
  0
VERTEX
  5
9083
  8
AM_0
 10
437.31881330964319
 20
111.3494013757867
 30
0.0
 70
    32
  0
VERTEX
  5
9084
  8
AM_0
 10
437.31481330964311
 20
111.3474013757867
 30
0.0
 70
    32
  0
VERTEX
  5
9085
  8
AM_0
 10
437.31081330964298
 20
111.34540137578639
 30
0.0
 70
    32
  0
VERTEX
  5
9086
  8
AM_0
 10
437.30781330964322
 20
111.3434013757869
 30
0.0
 70
    32
  0
VERTEX
  5
9087
  8
AM_0
 10
437.30381330964298
 20
111.3404013757867
 30
0.0
 70
    32
  0
VERTEX
  5
9088
  8
AM_0
 10
437.30081330964322
 20
111.3384013757866
 30
0.0
 70
    32
  0
VERTEX
  5
9089
  8
AM_0
 10
437.29681330964303
 20
111.33640137578639
 30
0.0
 70
    32
  0
VERTEX
  5
908A
  8
AM_0
 10
437.29281330964312
 20
111.3344013757869
 30
0.0
 70
    32
  0
VERTEX
  5
908B
  8
AM_0
 10
437.28981330964308
 20
111.3314013757867
 30
0.0
 70
    32
  0
VERTEX
  5
908C
  8
AM_0
 10
437.28581330964312
 20
111.3294013757867
 30
0.0
 70
    32
  0
VERTEX
  5
908D
  8
AM_0
 10
437.28281330964302
 20
111.32740137578639
 30
0.0
 70
    32
  0
VERTEX
  5
908E
  8
AM_0
 10
437.27881330964289
 20
111.32440137578671
 30
0.0
 70
    32
  0
VERTEX
  5
908F
  8
AM_0
 10
437.27481330964309
 20
111.3224013757867
 30
0.0
 70
    32
  0
VERTEX
  5
9090
  8
AM_0
 10
437.27181330964311
 20
111.3204013757867
 30
0.0
 70
    32
  0
VERTEX
  5
9091
  8
AM_0
 10
437.26781330964309
 20
111.3174013757867
 30
0.0
 70
    32
  0
VERTEX
  5
9092
  8
AM_0
 10
437.2648133096431
 20
111.31540137578671
 30
0.0
 70
    32
  0
VERTEX
  5
9093
  8
AM_0
 10
437.26081330964331
 20
111.3134013757867
 30
0.0
 70
    32
  0
VERTEX
  5
9094
  8
AM_0
 10
437.2578133096431
 20
111.3104013757867
 30
0.0
 70
    32
  0
VERTEX
  5
9095
  8
AM_0
 10
437.25381330964319
 20
111.3084013757867
 30
0.0
 70
    32
  0
VERTEX
  5
9096
  8
AM_0
 10
437.25081330964309
 20
111.3054013757864
 30
0.0
 70
    32
  0
VERTEX
  5
9097
  8
AM_0
 10
437.24681330964307
 20
111.30340137578681
 30
0.0
 70
    32
  0
VERTEX
  5
9098
  8
AM_0
 10
437.24281330964311
 20
111.3014013757867
 30
0.0
 70
    32
  0
VERTEX
  5
9099
  8
AM_0
 10
437.23981330964313
 20
111.2984013757869
 30
0.0
 70
    32
  0
VERTEX
  5
909A
  8
AM_0
 10
437.23581330964299
 20
111.2964013757864
 30
0.0
 70
    32
  0
VERTEX
  5
909B
  8
AM_0
 10
437.23281330964318
 20
111.2934013757867
 30
0.0
 70
    32
  0
VERTEX
  5
909C
  8
AM_0
 10
437.22881330964287
 20
111.29140137578641
 30
0.0
 70
    32
  0
VERTEX
  5
909D
  8
AM_0
 10
437.22581330964317
 20
111.28840137578661
 30
0.0
 70
    32
  0
VERTEX
  5
909E
  8
AM_0
 10
437.2218133096431
 20
111.2864013757867
 30
0.0
 70
    32
  0
VERTEX
  5
909F
  8
AM_0
 10
437.21881330964311
 20
111.2844013757869
 30
0.0
 70
    32
  0
VERTEX
  5
90A0
  8
AM_0
 10
437.21481330964298
 20
111.2814013757867
 30
0.0
 70
    32
  0
VERTEX
  5
90A1
  8
AM_0
 10
437.21181330964322
 20
111.2794013757868
 30
0.0
 70
    32
  0
VERTEX
  5
90A2
  8
AM_0
 10
437.20781330964297
 20
111.2764013757867
 30
0.0
 70
    32
  0
VERTEX
  5
90A3
  8
AM_0
 10
437.20481330964321
 20
111.2744013757867
 30
0.0
 70
    32
  0
VERTEX
  5
90A4
  8
AM_0
 10
437.201813309643
 20
111.27140137578689
 30
0.0
 70
    32
  0
VERTEX
  5
90A5
  8
AM_0
 10
437.19781330964321
 20
111.2694013757867
 30
0.0
 70
    32
  0
VERTEX
  5
90A6
  8
AM_0
 10
437.19481330964311
 20
111.2664013757866
 30
0.0
 70
    32
  0
VERTEX
  5
90A7
  8
AM_0
 10
437.19081330964309
 20
111.2644013757867
 30
0.0
 70
    32
  0
VERTEX
  5
90A8
  8
AM_0
 10
437.1878133096431
 20
111.2614013757867
 30
0.0
 70
    32
  0
VERTEX
  5
90A9
  8
AM_0
 10
437.18381330964309
 20
111.2594013757866
 30
0.0
 70
    32
  0
VERTEX
  5
90AA
  8
AM_0
 10
437.1808133096431
 20
111.25640137578679
 30
0.0
 70
    32
  0
VERTEX
  5
90AB
  8
AM_0
 10
437.17781330964311
 20
111.25340137578659
 30
0.0
 70
    32
  0
VERTEX
  5
90AC
  8
AM_0
 10
437.17381330964332
 20
111.2514013757864
 30
0.0
 70
    32
  0
VERTEX
  5
90AD
  8
AM_0
 10
437.17081330964311
 20
111.2484013757867
 30
0.0
 70
    32
  0
VERTEX
  5
90AE
  8
AM_0
 10
437.16681330964309
 20
111.2464013757867
 30
0.0
 70
    32
  0
VERTEX
  5
90AF
  8
AM_0
 10
437.1638133096431
 20
111.2434013757866
 30
0.0
 70
    32
  0
VERTEX
  5
90B0
  8
AM_0
 10
437.160813309643
 20
111.2404013757867
 30
0.0
 70
    32
  0
VERTEX
  5
90B1
  8
AM_0
 10
437.1568133096431
 20
111.23840137578669
 30
0.0
 70
    32
  0
VERTEX
  5
90B2
  8
AM_0
 10
437.153813309643
 20
111.23540137578669
 30
0.0
 70
    32
  0
VERTEX
  5
90B3
  8
AM_0
 10
437.14981330964298
 20
111.2334013757864
 30
0.0
 70
    32
  0
VERTEX
  5
90B4
  8
AM_0
 10
437.14681330964311
 20
111.2304013757867
 30
0.0
 70
    32
  0
VERTEX
  5
90B5
  8
AM_0
 10
437.14381330964312
 20
111.2274013757864
 30
0.0
 70
    32
  0
VERTEX
  5
90B6
  8
AM_0
 10
437.13981330964299
 20
111.2254013757869
 30
0.0
 70
    32
  0
VERTEX
  5
90B7
  8
AM_0
 10
437.13681330964317
 20
111.2224013757867
 30
0.0
 70
    32
  0
VERTEX
  5
90B8
  8
AM_0
 10
437.13381330964302
 20
111.2194013757866
 30
0.0
 70
    32
  0
VERTEX
  5
90B9
  8
AM_0
 10
437.12981330964323
 20
111.21740137578669
 30
0.0
 70
    32
  0
VERTEX
  5
90BA
  8
AM_0
 10
437.12681330964318
 20
111.21440137578669
 30
0.0
 70
    32
  0
VERTEX
  5
90BB
  8
AM_0
 10
437.12381330964303
 20
111.21140137578659
 30
0.0
 70
    32
  0
VERTEX
  5
90BC
  8
AM_0
 10
437.12081330964298
 20
111.20840137578681
 30
0.0
 70
    32
  0
VERTEX
  5
90BD
  8
AM_0
 10
437.11681330964308
 20
111.2064013757867
 30
0.0
 70
    32
  0
VERTEX
  5
90BE
  8
AM_0
 10
437.11381330964377
 20
111.2034013757867
 30
0.0
 70
    32
  0
VERTEX
  5
90BF
  8
AM_0
 10
437.11081330964322
 20
111.2004013757864
 30
0.0
 70
    32
  0
VERTEX
  5
90C0
  8
AM_0
 10
437.10681330964309
 20
111.1974013757867
 30
0.0
 70
    32
  0
VERTEX
  5
90C1
  8
AM_0
 10
437.1038133096431
 20
111.1954013757866
 30
0.0
 70
    32
  0
VERTEX
  5
90C2
  8
AM_0
 10
437.10081330964312
 20
111.1924013757867
 30
0.0
 70
    32
  0
VERTEX
  5
90C3
  8
AM_0
 10
437.09781330964307
 20
111.1894013757869
 30
0.0
 70
    32
  0
VERTEX
  5
90C4
  8
AM_0
 10
437.09381330964311
 20
111.1864013757867
 30
0.0
 70
    32
  0
VERTEX
  5
90C5
  8
AM_0
 10
437.09081330964312
 20
111.18440137578671
 30
0.0
 70
    32
  0
VERTEX
  5
90C6
  8
AM_0
 10
437.08781330964308
 20
111.18140137578671
 30
0.0
 70
    32
  0
VERTEX
  5
90C7
  8
AM_0
 10
437.0848133096431
 20
111.17840137578671
 30
0.0
 70
    32
  0
VERTEX
  5
90C8
  8
AM_0
 10
437.08181330964311
 20
111.17540137578661
 30
0.0
 70
    32
  0
VERTEX
  5
90C9
  8
AM_0
 10
437.07781330964332
 20
111.17240137578671
 30
0.0
 70
    32
  0
VERTEX
  5
90CA
  8
AM_0
 10
437.0748133096431
 20
111.16940137578641
 30
0.0
 70
    32
  0
VERTEX
  5
90CB
  8
AM_0
 10
437.07181330964301
 20
111.1674013757867
 30
0.0
 70
    32
  0
VERTEX
  5
90CC
  8
AM_0
 10
437.06881330964319
 20
111.1644013757864
 30
0.0
 70
    32
  0
VERTEX
  5
90CD
  8
AM_0
 10
437.06581330964309
 20
111.1614013757867
 30
0.0
 70
    32
  0
VERTEX
  5
90CE
  8
AM_0
 10
437.06281330964299
 20
111.1584013757867
 30
0.0
 70
    32
  0
VERTEX
  5
90CF
  8
AM_0
 10
437.05981330964312
 20
111.1554013757863
 30
0.0
 70
    32
  0
VERTEX
  5
90D0
  8
AM_0
 10
437.05581330964287
 20
111.1524013757867
 30
0.0
 70
    32
  0
VERTEX
  5
90D1
  8
AM_0
 10
437.052813309643
 20
111.14940137578689
 30
0.0
 70
    32
  0
VERTEX
  5
90D2
  8
AM_0
 10
437.04981330964318
 20
111.1464013757864
 30
0.0
 70
    32
  0
VERTEX
  5
90D3
  8
AM_0
 10
437.04681330964303
 20
111.14340137578669
 30
0.0
 70
    32
  0
VERTEX
  5
90D4
  8
AM_0
 10
437.04381330964299
 20
111.14040137578669
 30
0.0
 70
    32
  0
VERTEX
  5
90D5
  8
AM_0
 10
437.04081330964311
 20
111.1374013757864
 30
0.0
 70
    32
  0
VERTEX
  5
90D6
  8
AM_0
 10
437.03781330964301
 20
111.1344013757866
 30
0.0
 70
    32
  0
VERTEX
  5
90D7
  8
AM_0
 10
437.03481330964303
 20
111.1314013757866
 30
0.0
 70
    32
  0
VERTEX
  5
90D8
  8
AM_0
 10
437.03181330964298
 20
111.1284013757864
 30
0.0
 70
    32
  0
VERTEX
  5
90D9
  8
AM_0
 10
437.028813309643
 20
111.12540137578669
 30
0.0
 70
    32
  0
VERTEX
  5
90DA
  8
AM_0
 10
437.02581330964301
 20
111.12240137578669
 30
0.0
 70
    32
  0
VERTEX
  5
90DB
  8
AM_0
 10
437.02281330964303
 20
111.1194013757862
 30
0.0
 70
    32
  0
VERTEX
  5
90DC
  8
AM_0
 10
437.0198133096431
 20
111.11640137578659
 30
0.0
 70
    32
  0
VERTEX
  5
90DD
  8
AM_0
 10
437.01681330964311
 20
111.11340137578679
 30
0.0
 70
    32
  0
VERTEX
  5
90DE
  8
AM_0
 10
437.01381330964301
 20
111.11040137578659
 30
0.0
 70
    32
  0
VERTEX
  5
90DF
  8
AM_0
 10
437.01081330964308
 20
111.10740137578659
 30
0.0
 70
    32
  0
VERTEX
  5
90E0
  8
AM_0
 10
437.0078133096431
 20
111.10440137578659
 30
0.0
 70
    32
  0
VERTEX
  5
90E1
  8
AM_0
 10
437.00481330964311
 20
111.10140137578691
 30
0.0
 70
    32
  0
VERTEX
  5
90E2
  8
AM_0
 10
437.00181330964313
 20
111.09840137578669
 30
0.0
 70
    32
  0
VERTEX
  5
90E3
  8
AM_0
 10
436.99881330964303
 20
111.09540137578669
 30
0.0
 70
    32
  0
VERTEX
  5
90E4
  8
AM_0
 10
436.9958133096431
 20
111.09240137578669
 30
0.0
 70
    32
  0
VERTEX
  5
90E5
  8
AM_0
 10
436.99281330964311
 20
111.08940137578669
 30
0.0
 70
    32
  0
VERTEX
  5
90E6
  8
AM_0
 10
436.98981330964313
 20
111.08640137578671
 30
0.0
 70
    32
  0
VERTEX
  5
90E7
  8
AM_0
 10
436.98681330964308
 20
111.0824013757864
 30
0.0
 70
    32
  0
VERTEX
  5
90E8
  8
AM_0
 10
436.9838133096431
 20
111.0794013757864
 30
0.0
 70
    32
  0
VERTEX
  5
90E9
  8
AM_0
 10
436.98081330964322
 20
111.0764013757869
 30
0.0
 70
    32
  0
VERTEX
  5
90EA
  8
AM_0
 10
436.9788133096431
 20
111.0734013757864
 30
0.0
 70
    32
  0
VERTEX
  5
90EB
  8
AM_0
 10
436.97581330964312
 20
111.0704013757863
 30
0.0
 70
    32
  0
VERTEX
  5
90EC
  8
AM_0
 10
436.97281330964307
 20
111.0674013757867
 30
0.0
 70
    32
  0
VERTEX
  5
90ED
  8
AM_0
 10
436.96981330964309
 20
111.0634013757867
 30
0.0
 70
    32
  0
VERTEX
  5
90EE
  8
AM_0
 10
436.9668133096431
 20
111.0604013757867
 30
0.0
 70
    32
  0
VERTEX
  5
90EF
  8
AM_0
 10
436.96381330964311
 20
111.0574013757867
 30
0.0
 70
    32
  0
VERTEX
  5
90F0
  8
AM_0
 10
436.96181330964311
 20
111.0544013757867
 30
0.0
 70
    32
  0
VERTEX
  5
90F1
  8
AM_0
 10
436.95881330964312
 20
111.05040137578671
 30
0.0
 70
    32
  0
VERTEX
  5
90F2
  8
AM_0
 10
436.95581330964319
 20
111.04740137578671
 30
0.0
 70
    32
  0
VERTEX
  5
90F3
  8
AM_0
 10
436.95281330964309
 20
111.0444013757869
 30
0.0
 70
    32
  0
VERTEX
  5
90F4
  8
AM_0
 10
436.95081330964302
 20
111.04140137578671
 30
0.0
 70
    32
  0
VERTEX
  5
90F5
  8
AM_0
 10
436.94781330964298
 20
111.0374013757864
 30
0.0
 70
    32
  0
VERTEX
  5
90F6
  8
AM_0
 10
436.94481330964311
 20
111.0344013757869
 30
0.0
 70
    32
  0
VERTEX
  5
90F7
  8
AM_0
 10
436.9428133096431
 20
111.0314013757867
 30
0.0
 70
    32
  0
VERTEX
  5
90F8
  8
AM_0
 10
436.93981330964311
 20
111.0274013757867
 30
0.0
 70
    32
  0
VERTEX
  5
90F9
  8
AM_0
 10
436.93681330964318
 20
111.0244013757867
 30
0.0
 70
    32
  0
VERTEX
  5
90FA
  8
AM_0
 10
436.93481330964318
 20
111.0214013757866
 30
0.0
 70
    32
  0
VERTEX
  5
90FB
  8
AM_0
 10
436.93181330964302
 20
111.0174013757869
 30
0.0
 70
    32
  0
VERTEX
  5
90FC
  8
AM_0
 10
436.92881330964298
 20
111.0144013757867
 30
0.0
 70
    32
  0
VERTEX
  5
90FD
  8
AM_0
 10
436.92681330964319
 20
111.0114013757867
 30
0.0
 70
    32
  0
VERTEX
  5
90FE
  8
AM_0
 10
436.92381330964309
 20
111.0074013757867
 30
0.0
 70
    32
  0
VERTEX
  5
90FF
  8
AM_0
 10
436.92181330964303
 20
111.0044013757867
 30
0.0
 70
    32
  0
VERTEX
  5
9100
  8
AM_0
 10
436.9188133096431
 20
111.00040137578669
 30
0.0
 70
    32
  0
VERTEX
  5
9101
  8
AM_0
 10
436.91581330964323
 20
110.99740137578659
 30
0.0
 70
    32
  0
VERTEX
  5
9102
  8
AM_0
 10
436.91381330964322
 20
110.99440137578689
 30
0.0
 70
    32
  0
VERTEX
  5
9103
  8
AM_0
 10
436.91081330964312
 20
110.9904013757868
 30
0.0
 70
    32
  0
VERTEX
  5
9104
  8
AM_0
 10
436.90881330964322
 20
110.9874013757869
 30
0.0
 70
    32
  0
VERTEX
  5
9105
  8
AM_0
 10
436.90581330964312
 20
110.9834013757863
 30
0.0
 70
    32
  0
VERTEX
  5
9106
  8
AM_0
 10
436.903813309643
 20
110.9804013757867
 30
0.0
 70
    32
  0
VERTEX
  5
9107
  8
AM_0
 10
436.90081330964301
 20
110.97640137578669
 30
0.0
 70
    32
  0
VERTEX
  5
9108
  8
AM_0
 10
436.89881330964312
 20
110.97340137578669
 30
0.0
 70
    32
  0
VERTEX
  5
9109
  8
AM_0
 10
436.89681330964311
 20
110.9694013757867
 30
0.0
 70
    32
  0
VERTEX
  5
910A
  8
AM_0
 10
436.89381330964312
 20
110.9664013757867
 30
0.0
 70
    32
  0
VERTEX
  5
910B
  8
AM_0
 10
436.89181330964311
 20
110.9624013757867
 30
0.0
 70
    32
  0
VERTEX
  5
910C
  8
AM_0
 10
436.88881330964301
 20
110.9594013757867
 30
0.0
 70
    32
  0
VERTEX
  5
910D
  8
AM_0
 10
436.88681330964312
 20
110.95540137578659
 30
0.0
 70
    32
  0
VERTEX
  5
910E
  8
AM_0
 10
436.88481330964328
 20
110.9514013757867
 30
0.0
 70
    32
  0
VERTEX
  5
910F
  8
AM_0
 10
436.88181330964312
 20
110.9484013757867
 30
0.0
 70
    32
  0
VERTEX
  5
9110
  8
AM_0
 10
436.87981330964311
 20
110.9444013757866
 30
0.0
 70
    32
  0
VERTEX
  5
9111
  8
AM_0
 10
436.8778133096431
 20
110.9414013757867
 30
0.0
 70
    32
  0
VERTEX
  5
9112
  8
AM_0
 10
436.87481330964289
 20
110.93740137578661
 30
0.0
 70
    32
  0
VERTEX
  5
9113
  8
AM_0
 10
436.87281330964311
 20
110.9334013757867
 30
0.0
 70
    32
  0
VERTEX
  5
9114
  8
AM_0
 10
436.8708133096431
 20
110.9304013757867
 30
0.0
 70
    32
  0
VERTEX
  5
9115
  8
AM_0
 10
436.8688133096432
 20
110.9264013757869
 30
0.0
 70
    32
  0
VERTEX
  5
9116
  8
AM_0
 10
436.8658133096431
 20
110.9224013757869
 30
0.0
 70
    32
  0
VERTEX
  5
9117
  8
AM_0
 10
436.86381330964309
 20
110.91940137578641
 30
0.0
 70
    32
  0
VERTEX
  5
9118
  8
AM_0
 10
436.86181330964308
 20
110.9154013757867
 30
0.0
 70
    32
  0
VERTEX
  5
9119
  8
AM_0
 10
436.85981330964319
 20
110.9114013757867
 30
0.0
 70
    32
  0
VERTEX
  5
911A
  8
AM_0
 10
436.85781330964312
 20
110.90840137578689
 30
0.0
 70
    32
  0
VERTEX
  5
911B
  8
AM_0
 10
436.85581330964311
 20
110.9044013757867
 30
0.0
 70
    32
  0
VERTEX
  5
911C
  8
AM_0
 10
436.85381330964287
 20
110.9004013757867
 30
0.0
 70
    32
  0
VERTEX
  5
911D
  8
AM_0
 10
436.85081330964312
 20
110.8974013757866
 30
0.0
 70
    32
  0
VERTEX
  5
911E
  8
AM_0
 10
436.84881330964311
 20
110.89340137578679
 30
0.0
 70
    32
  0
VERTEX
  5
911F
  8
AM_0
 10
436.8468133096431
 20
110.8894013757867
 30
0.0
 70
    32
  0
VERTEX
  5
9120
  8
AM_0
 10
436.8448133096428
 20
110.8854013757867
 30
0.0
 70
    32
  0
VERTEX
  5
9121
  8
AM_0
 10
436.84281330964302
 20
110.8824013757867
 30
0.0
 70
    32
  0
VERTEX
  5
9122
  8
AM_0
 10
436.84081330964318
 20
110.87840137578669
 30
0.0
 70
    32
  0
VERTEX
  5
9123
  8
AM_0
 10
436.83881330964317
 20
110.87440137578641
 30
0.0
 70
    32
  0
VERTEX
  5
9124
  8
AM_0
 10
436.83681330964311
 20
110.8704013757867
 30
0.0
 70
    32
  0
VERTEX
  5
9125
  8
AM_0
 10
436.83481330964293
 20
110.86640137578659
 30
0.0
 70
    32
  0
VERTEX
  5
9126
  8
AM_0
 10
436.83381330964312
 20
110.86340137578691
 30
0.0
 70
    32
  0
VERTEX
  5
9127
  8
AM_0
 10
436.83181330964322
 20
110.8594013757867
 30
0.0
 70
    32
  0
VERTEX
  5
9128
  8
AM_0
 10
436.8298133096431
 20
110.8554013757867
 30
0.0
 70
    32
  0
VERTEX
  5
9129
  8
AM_0
 10
436.82781330964309
 20
110.85140137578691
 30
0.0
 70
    32
  0
VERTEX
  5
912A
  8
AM_0
 10
436.82581330964302
 20
110.8474013757865
 30
0.0
 70
    32
  0
VERTEX
  5
912B
  8
AM_0
 10
436.82381330964301
 20
110.8434013757864
 30
0.0
 70
    32
  0
VERTEX
  5
912C
  8
AM_0
 10
436.82281330964298
 20
110.83940137578669
 30
0.0
 70
    32
  0
VERTEX
  5
912D
  8
AM_0
 10
436.82081330964297
 20
110.83640137578681
 30
0.0
 70
    32
  0
VERTEX
  5
912E
  8
AM_0
 10
436.81881330964308
 20
110.8324013757867
 30
0.0
 70
    32
  0
VERTEX
  5
912F
  8
AM_0
 10
436.81681330964312
 20
110.8284013757867
 30
0.0
 70
    32
  0
VERTEX
  5
9130
  8
AM_0
 10
436.81581330964292
 20
110.82440137578661
 30
0.0
 70
    32
  0
VERTEX
  5
9131
  8
AM_0
 10
436.81381330964302
 20
110.8204013757863
 30
0.0
 70
    32
  0
VERTEX
  5
9132
  8
AM_0
 10
436.81181330964301
 20
110.8164013757864
 30
0.0
 70
    32
  0
VERTEX
  5
9133
  8
AM_0
 10
436.81081330964309
 20
110.81240137578671
 30
0.0
 70
    32
  0
VERTEX
  5
9134
  8
AM_0
 10
436.80881330964309
 20
110.8084013757867
 30
0.0
 70
    32
  0
VERTEX
  5
9135
  8
AM_0
 10
436.80681330964302
 20
110.8044013757867
 30
0.0
 70
    32
  0
VERTEX
  5
9136
  8
AM_0
 10
436.8058133096431
 20
110.80040137578671
 30
0.0
 70
    32
  0
VERTEX
  5
9137
  8
AM_0
 10
436.80381330964309
 20
110.7964013757867
 30
0.0
 70
    32
  0
VERTEX
  5
9138
  8
AM_0
 10
436.80281330964311
 20
110.7924013757867
 30
0.0
 70
    32
  0
VERTEX
  5
9139
  8
AM_0
 10
436.8008133096431
 20
110.78840137578671
 30
0.0
 70
    32
  0
VERTEX
  5
913A
  8
AM_0
 10
436.79981330964313
 20
110.7844013757867
 30
0.0
 70
    32
  0
VERTEX
  5
913B
  8
AM_0
 10
436.79781330964289
 20
110.7804013757863
 30
0.0
 70
    32
  0
VERTEX
  5
913C
  8
AM_0
 10
436.79681330964308
 20
110.7764013757867
 30
0.0
 70
    32
  0
VERTEX
  5
913D
  8
AM_0
 10
436.79581330964311
 20
110.7724013757869
 30
0.0
 70
    32
  0
VERTEX
  5
913E
  8
AM_0
 10
436.7938133096431
 20
110.76840137578679
 30
0.0
 70
    32
  0
VERTEX
  5
913F
  8
AM_0
 10
436.79281330964312
 20
110.7644013757867
 30
0.0
 70
    32
  0
VERTEX
  5
9140
  8
AM_0
 10
436.79181330964309
 20
110.7604013757867
 30
0.0
 70
    32
  0
VERTEX
  5
9141
  8
AM_0
 10
436.78981330964308
 20
110.7564013757864
 30
0.0
 70
    32
  0
VERTEX
  5
9142
  8
AM_0
 10
436.78881330964327
 20
110.7524013757867
 30
0.0
 70
    32
  0
VERTEX
  5
9143
  8
AM_0
 10
436.78781330964301
 20
110.7484013757867
 30
0.0
 70
    32
  0
VERTEX
  5
9144
  8
AM_0
 10
436.78681330964309
 20
110.7434013757867
 30
0.0
 70
    32
  0
VERTEX
  5
9145
  8
AM_0
 10
436.78581330964312
 20
110.7394013757867
 30
0.0
 70
    32
  0
VERTEX
  5
9146
  8
AM_0
 10
436.78381330964311
 20
110.73540137578669
 30
0.0
 70
    32
  0
VERTEX
  5
9147
  8
AM_0
 10
436.78281330964307
 20
110.7314013757866
 30
0.0
 70
    32
  0
VERTEX
  5
9148
  8
AM_0
 10
436.7818133096431
 20
110.7274013757869
 30
0.0
 70
    32
  0
VERTEX
  5
9149
  8
AM_0
 10
436.78081330964312
 20
110.72340137578659
 30
0.0
 70
    32
  0
VERTEX
  5
914A
  8
AM_0
 10
436.77981330964332
 20
110.7194013757867
 30
0.0
 70
    32
  0
VERTEX
  5
914B
  8
AM_0
 10
436.77881330964289
 20
110.7154013757867
 30
0.0
 70
    32
  0
VERTEX
  5
914C
  8
AM_0
 10
436.77781330964308
 20
110.7104013757867
 30
0.0
 70
    32
  0
VERTEX
  5
914D
  8
AM_0
 10
436.7768133096431
 20
110.7064013757867
 30
0.0
 70
    32
  0
VERTEX
  5
914E
  8
AM_0
 10
436.77581330964313
 20
110.70240137578639
 30
0.0
 70
    32
  0
VERTEX
  5
914F
  8
AM_0
 10
436.77481330964309
 20
110.6984013757864
 30
0.0
 70
    32
  0
VERTEX
  5
9150
  8
AM_0
 10
436.773813309643
 20
110.6944013757866
 30
0.0
 70
    32
  0
VERTEX
  5
9151
  8
AM_0
 10
436.7728133096432
 20
110.69040137578671
 30
0.0
 70
    32
  0
VERTEX
  5
9152
  8
AM_0
 10
436.7728133096432
 20
110.6854013757867
 30
0.0
 70
    32
  0
VERTEX
  5
9153
  8
AM_0
 10
436.77181330964311
 20
110.68140137578671
 30
0.0
 70
    32
  0
VERTEX
  5
9154
  8
AM_0
 10
436.77081330964319
 20
110.6774013757867
 30
0.0
 70
    32
  0
VERTEX
  5
9155
  8
AM_0
 10
436.7698133096431
 20
110.6734013757869
 30
0.0
 70
    32
  0
VERTEX
  5
9156
  8
AM_0
 10
436.76881330964312
 20
110.66940137578671
 30
0.0
 70
    32
  0
VERTEX
  5
9157
  8
AM_0
 10
436.76881330964312
 20
110.66440137578689
 30
0.0
 70
    32
  0
VERTEX
  5
9158
  8
AM_0
 10
436.76781330964309
 20
110.66040137578671
 30
0.0
 70
    32
  0
VERTEX
  5
9159
  8
AM_0
 10
436.76681330964288
 20
110.6564013757867
 30
0.0
 70
    32
  0
VERTEX
  5
915A
  8
AM_0
 10
436.76681330964288
 20
110.6524013757867
 30
0.0
 70
    32
  0
VERTEX
  5
915B
  8
AM_0
 10
436.76581330964308
 20
110.6474013757867
 30
0.0
 70
    32
  0
VERTEX
  5
915C
  8
AM_0
 10
436.76481330964299
 20
110.6434013757866
 30
0.0
 70
    32
  0
VERTEX
  5
915D
  8
AM_0
 10
436.76481330964299
 20
110.6394013757867
 30
0.0
 70
    32
  0
VERTEX
  5
915E
  8
AM_0
 10
436.76381330964318
 20
110.6354013757863
 30
0.0
 70
    32
  0
VERTEX
  5
915F
  8
AM_0
 10
436.76381330964318
 20
110.6304013757867
 30
0.0
 70
    32
  0
VERTEX
  5
9160
  8
AM_0
 10
436.76281330964309
 20
110.6264013757864
 30
0.0
 70
    32
  0
VERTEX
  5
9161
  8
AM_0
 10
436.76281330964309
 20
110.62240137578659
 30
0.0
 70
    32
  0
VERTEX
  5
9162
  8
AM_0
 10
436.76181330964312
 20
110.6184013757867
 30
0.0
 70
    32
  0
VERTEX
  5
9163
  8
AM_0
 10
436.76181330964312
 20
110.61340137578669
 30
0.0
 70
    32
  0
VERTEX
  5
9164
  8
AM_0
 10
436.76181330964312
 20
110.6094013757869
 30
0.0
 70
    32
  0
VERTEX
  5
9165
  8
AM_0
 10
436.7608133096432
 20
110.6054013757867
 30
0.0
 70
    32
  0
VERTEX
  5
9166
  8
AM_0
 10
436.7608133096432
 20
110.60140137578691
 30
0.0
 70
    32
  0
VERTEX
  5
9167
  8
AM_0
 10
436.7608133096432
 20
110.5964013757867
 30
0.0
 70
    32
  0
VERTEX
  5
9168
  8
AM_0
 10
436.7608133096432
 20
110.59240137578659
 30
0.0
 70
    32
  0
VERTEX
  5
9169
  8
AM_0
 10
436.75981330964311
 20
110.5884013757867
 30
0.0
 70
    32
  0
VERTEX
  5
916A
  8
AM_0
 10
436.75981330964311
 20
110.5844013757864
 30
0.0
 70
    32
  0
VERTEX
  5
916B
  8
AM_0
 10
436.75981330964311
 20
110.5794013757867
 30
0.0
 70
    32
  0
VERTEX
  5
916C
  8
AM_0
 10
436.75981330964311
 20
110.5754013757864
 30
0.0
 70
    32
  0
VERTEX
  5
916D
  8
AM_0
 10
436.75981330964311
 20
110.57140137578671
 30
0.0
 70
    32
  0
VERTEX
  5
916E
  8
AM_0
 10
436.75981330964311
 20
110.5664013757864
 30
0.0
 70
    32
  0
VERTEX
  5
916F
  8
AM_0
 10
436.75981330964311
 20
110.56240137578671
 30
0.0
 70
    32
  0
VERTEX
  5
9170
  8
AM_0
 10
436.75981330964311
 20
110.5584013757867
 30
0.0
 70
    32
  0
VERTEX
  5
9171
  8
AM_0
 10
436.75981330964311
 20
110.5544013757867
 30
0.0
 70
    32
  0
VERTEX
  5
9172
  8
AM_0
 10
436.75981330964311
 20
110.5494013757867
 30
0.0
 70
    32
  0
VERTEX
  5
9173
  8
AM_0
 10
436.7608133096432
 20
110.5454013757867
 30
0.0
 70
    32
  0
VERTEX
  5
9174
  8
AM_0
 10
436.7608133096432
 20
110.54140137578671
 30
0.0
 70
    32
  0
VERTEX
  5
9175
  8
AM_0
 10
436.7608133096432
 20
110.5374013757868
 30
0.0
 70
    32
  0
VERTEX
  5
9176
  8
AM_0
 10
436.7608133096432
 20
110.5324013757867
 30
0.0
 70
    32
  0
VERTEX
  5
9177
  8
AM_0
 10
436.76181330964312
 20
110.5284013757869
 30
0.0
 70
    32
  0
VERTEX
  5
9178
  8
AM_0
 10
436.76181330964312
 20
110.52440137578679
 30
0.0
 70
    32
  0
VERTEX
  5
9179
  8
AM_0
 10
436.76181330964312
 20
110.52040137578661
 30
0.0
 70
    32
  0
VERTEX
  5
917A
  8
AM_0
 10
436.76281330964309
 20
110.51540137578669
 30
0.0
 70
    32
  0
VERTEX
  5
917B
  8
AM_0
 10
436.76281330964309
 20
110.5114013757866
 30
0.0
 70
    32
  0
VERTEX
  5
917C
  8
AM_0
 10
436.76281330964309
 20
110.5074013757867
 30
0.0
 70
    32
  0
VERTEX
  5
917D
  8
AM_0
 10
436.76381330964318
 20
110.5034013757864
 30
0.0
 70
    32
  0
VERTEX
  5
917E
  8
AM_0
 10
436.76381330964318
 20
110.4984013757867
 30
0.0
 70
    32
  0
VERTEX
  5
917F
  8
AM_0
 10
436.76481330964299
 20
110.49440137578659
 30
0.0
 70
    32
  0
VERTEX
  5
9180
  8
AM_0
 10
436.76481330964299
 20
110.4904013757864
 30
0.0
 70
    32
  0
VERTEX
  5
9181
  8
AM_0
 10
436.76581330964308
 20
110.4864013757867
 30
0.0
 70
    32
  0
VERTEX
  5
9182
  8
AM_0
 10
436.76581330964308
 20
110.48140137578631
 30
0.0
 70
    32
  0
VERTEX
  5
9183
  8
AM_0
 10
436.76681330964288
 20
110.4774013757867
 30
0.0
 70
    32
  0
VERTEX
  5
9184
  8
AM_0
 10
436.76681330964288
 20
110.47340137578659
 30
0.0
 70
    32
  0
VERTEX
  5
9185
  8
AM_0
 10
436.76781330964309
 20
110.4694013757867
 30
0.0
 70
    32
  0
VERTEX
  5
9186
  8
AM_0
 10
436.76781330964309
 20
110.46440137578669
 30
0.0
 70
    32
  0
VERTEX
  5
9187
  8
AM_0
 10
436.76881330964312
 20
110.4604013757867
 30
0.0
 70
    32
  0
VERTEX
  5
9188
  8
AM_0
 10
436.76881330964312
 20
110.4564013757867
 30
0.0
 70
    32
  0
VERTEX
  5
9189
  8
AM_0
 10
436.7698133096431
 20
110.45240137578681
 30
0.0
 70
    32
  0
SEQEND
  5
918A
  8
AM_0
  0
LINE
  5
918B
  8
AM_0
 10
449.75986037471682
 20
111.8121380917608
 30
0.0
 11
439.2598603747129
 21
111.8121380917608
 31
0.0
  0
LINE
  5
918C
  8
AM_0
 10
449.75986037471682
 20
63.101986572743769
 30
0.0
 11
448.29486037471679
 21
54.281986572744422
 31
0.0
  0
POLYLINE
  5
918D
  8
AM_0
 66
     1
 10
0.0
 20
0.0
 30
0.0
 70
     8
  0
VERTEX
  5
918E
  8
AM_0
 10
436.7698133096431
 20
65.69180137578671
 30
0.0
 70
    32
  0
VERTEX
  5
918F
  8
AM_0
 10
436.77081330964319
 20
65.687601375786471
 30
0.0
 70
    32
  0
VERTEX
  5
9190
  8
AM_0
 10
436.77181330964311
 20
65.683301375786897
 30
0.0
 70
    32
  0
VERTEX
  5
9191
  8
AM_0
 10
436.7728133096432
 20
65.679101375786971
 30
0.0
 70
    32
  0
VERTEX
  5
9192
  8
AM_0
 10
436.773813309643
 20
65.674801375786785
 30
0.0
 70
    32
  0
VERTEX
  5
9193
  8
AM_0
 10
436.77481330964309
 20
65.670601375786703
 30
0.0
 70
    32
  0
VERTEX
  5
9194
  8
AM_0
 10
436.77581330964313
 20
65.666301375786702
 30
0.0
 70
    32
  0
VERTEX
  5
9195
  8
AM_0
 10
436.7768133096431
 20
65.66210137578696
 30
0.0
 70
    32
  0
VERTEX
  5
9196
  8
AM_0
 10
436.77781330964308
 20
65.657901375786679
 30
0.0
 70
    32
  0
VERTEX
  5
9197
  8
AM_0
 10
436.77881330964289
 20
65.653601375786891
 30
0.0
 70
    32
  0
VERTEX
  5
9198
  8
AM_0
 10
436.77981330964332
 20
65.649401375786795
 30
0.0
 70
    32
  0
VERTEX
  5
9199
  8
AM_0
 10
436.78081330964312
 20
65.645201375786712
 30
0.0
 70
    32
  0
VERTEX
  5
919A
  8
AM_0
 10
436.7818133096431
 20
65.640901375786711
 30
0.0
 70
    32
  0
VERTEX
  5
919B
  8
AM_0
 10
436.78281330964307
 20
65.636701375786714
 30
0.0
 70
    32
  0
VERTEX
  5
919C
  8
AM_0
 10
436.78381330964311
 20
65.632501375786717
 30
0.0
 70
    32
  0
VERTEX
  5
919D
  8
AM_0
 10
436.78481330964308
 20
65.628301375787203
 30
0.0
 70
    32
  0
VERTEX
  5
919E
  8
AM_0
 10
436.78581330964312
 20
65.624101375786779
 30
0.0
 70
    32
  0
VERTEX
  5
919F
  8
AM_0
 10
436.78781330964301
 20
65.619901375786782
 30
0.0
 70
    32
  0
VERTEX
  5
91A0
  8
AM_0
 10
436.78881330964327
 20
65.615701375787211
 30
0.0
 70
    32
  0
VERTEX
  5
91A1
  8
AM_0
 10
436.78981330964308
 20
65.61160137578679
 30
0.0
 70
    32
  0
VERTEX
  5
91A2
  8
AM_0
 10
436.79081330964311
 20
65.607401375786708
 30
0.0
 70
    32
  0
VERTEX
  5
91A3
  8
AM_0
 10
436.79181330964309
 20
65.603201375786767
 30
0.0
 70
    32
  0
VERTEX
  5
91A4
  8
AM_0
 10
436.7938133096431
 20
65.599101375786887
 30
0.0
 70
    32
  0
VERTEX
  5
91A5
  8
AM_0
 10
436.79481330964302
 20
65.594901375786691
 30
0.0
 70
    32
  0
VERTEX
  5
91A6
  8
AM_0
 10
436.79581330964311
 20
65.590801375786711
 30
0.0
 70
    32
  0
VERTEX
  5
91A7
  8
AM_0
 10
436.79781330964289
 20
65.586701375786703
 30
0.0
 70
    32
  0
VERTEX
  5
91A8
  8
AM_0
 10
436.79881330964309
 20
65.582601375786481
 30
0.0
 70
    32
  0
VERTEX
  5
91A9
  8
AM_0
 10
436.79981330964313
 20
65.578401375786882
 30
0.0
 70
    32
  0
VERTEX
  5
91AA
  8
AM_0
 10
436.80181330964302
 20
65.574401375786763
 30
0.0
 70
    32
  0
VERTEX
  5
91AB
  8
AM_0
 10
436.80281330964311
 20
65.570301375786784
 30
0.0
 70
    32
  0
VERTEX
  5
91AC
  8
AM_0
 10
436.80481330964312
 20
65.56620137578696
 30
0.0
 70
    32
  0
VERTEX
  5
91AD
  8
AM_0
 10
436.8058133096431
 20
65.56210137578671
 30
0.0
 70
    32
  0
VERTEX
  5
91AE
  8
AM_0
 10
436.80781330964322
 20
65.558101375786975
 30
0.0
 70
    32
  0
VERTEX
  5
91AF
  8
AM_0
 10
436.80881330964309
 20
65.554001375786683
 30
0.0
 70
    32
  0
VERTEX
  5
91B0
  8
AM_0
 10
436.81081330964309
 20
65.550001375786891
 30
0.0
 70
    32
  0
VERTEX
  5
91B1
  8
AM_0
 10
436.81281330964322
 20
65.546001375786773
 30
0.0
 70
    32
  0
VERTEX
  5
91B2
  8
AM_0
 10
436.81381330964302
 20
65.542001375786782
 30
0.0
 70
    32
  0
VERTEX
  5
91B3
  8
AM_0
 10
436.81581330964292
 20
65.538001375786791
 30
0.0
 70
    32
  0
VERTEX
  5
91B4
  8
AM_0
 10
436.8178133096431
 20
65.534001375786715
 30
0.0
 70
    32
  0
VERTEX
  5
91B5
  8
AM_0
 10
436.81981330964322
 20
65.530001375786469
 30
0.0
 70
    32
  0
VERTEX
  5
91B6
  8
AM_0
 10
436.82081330964297
 20
65.526101375786709
 30
0.0
 70
    32
  0
VERTEX
  5
91B7
  8
AM_0
 10
436.82281330964298
 20
65.522101375786974
 30
0.0
 70
    32
  0
VERTEX
  5
91B8
  8
AM_0
 10
436.8248133096431
 20
65.518201375786788
 30
0.0
 70
    32
  0
VERTEX
  5
91B9
  8
AM_0
 10
436.826813309643
 20
65.514201375786712
 30
0.0
 70
    32
  0
VERTEX
  5
91BA
  8
AM_0
 10
436.82881330964318
 20
65.51030137578671
 30
0.0
 70
    32
  0
VERTEX
  5
91BB
  8
AM_0
 10
436.83081330964319
 20
65.506401375786794
 30
0.0
 70
    32
  0
VERTEX
  5
91BC
  8
AM_0
 10
436.83281330964297
 20
65.502501375786693
 30
0.0
 70
    32
  0
VERTEX
  5
91BD
  8
AM_0
 10
436.83481330964293
 20
65.498601375786791
 30
0.0
 70
    32
  0
VERTEX
  5
91BE
  8
AM_0
 10
436.83681330964311
 20
65.494701375786775
 30
0.0
 70
    32
  0
VERTEX
  5
91BF
  8
AM_0
 10
436.83881330964317
 20
65.490801375786702
 30
0.0
 70
    32
  0
VERTEX
  5
91C0
  8
AM_0
 10
436.84081330964318
 20
65.487001375786775
 30
0.0
 70
    32
  0
VERTEX
  5
91C1
  8
AM_0
 10
436.84281330964302
 20
65.483101375786703
 30
0.0
 70
    32
  0
VERTEX
  5
91C2
  8
AM_0
 10
436.8448133096428
 20
65.479301375786974
 30
0.0
 70
    32
  0
VERTEX
  5
91C3
  8
AM_0
 10
436.8468133096431
 20
65.475501375786791
 30
0.0
 70
    32
  0
VERTEX
  5
91C4
  8
AM_0
 10
436.84881330964311
 20
65.471601375787202
 30
0.0
 70
    32
  0
VERTEX
  5
91C5
  8
AM_0
 10
436.85081330964312
 20
65.467801375786721
 30
0.0
 70
    32
  0
VERTEX
  5
91C6
  8
AM_0
 10
436.85281330964312
 20
65.46400137578668
 30
0.0
 70
    32
  0
VERTEX
  5
91C7
  8
AM_0
 10
436.85481330964308
 20
65.460301375786713
 30
0.0
 70
    32
  0
VERTEX
  5
91C8
  8
AM_0
 10
436.8568133096432
 20
65.456501375786786
 30
0.0
 70
    32
  0
VERTEX
  5
91C9
  8
AM_0
 10
436.85981330964319
 20
65.4527013757872
 30
0.0
 70
    32
  0
VERTEX
  5
91CA
  8
AM_0
 10
436.86181330964308
 20
65.449001375786708
 30
0.0
 70
    32
  0
VERTEX
  5
91CB
  8
AM_0
 10
436.86381330964309
 20
65.445201375786709
 30
0.0
 70
    32
  0
VERTEX
  5
91CC
  8
AM_0
 10
436.8658133096431
 20
65.441501375786885
 30
0.0
 70
    32
  0
VERTEX
  5
91CD
  8
AM_0
 10
436.8688133096432
 20
65.43780137578679
 30
0.0
 70
    32
  0
VERTEX
  5
91CE
  8
AM_0
 10
436.8708133096431
 20
65.434001375786465
 30
0.0
 70
    32
  0
VERTEX
  5
91CF
  8
AM_0
 10
436.87281330964311
 20
65.430301375786769
 30
0.0
 70
    32
  0
VERTEX
  5
91D0
  8
AM_0
 10
436.87481330964289
 20
65.426701375786791
 30
0.0
 70
    32
  0
VERTEX
  5
91D1
  8
AM_0
 10
436.8778133096431
 20
65.423001375786967
 30
0.0
 70
    32
  0
VERTEX
  5
91D2
  8
AM_0
 10
436.87981330964311
 20
65.419301375786716
 30
0.0
 70
    32
  0
VERTEX
  5
91D3
  8
AM_0
 10
436.88181330964312
 20
65.415701375786767
 30
0.0
 70
    32
  0
VERTEX
  5
91D4
  8
AM_0
 10
436.88481330964328
 20
65.412001375786787
 30
0.0
 70
    32
  0
VERTEX
  5
91D5
  8
AM_0
 10
436.88681330964312
 20
65.408401375786781
 30
0.0
 70
    32
  0
VERTEX
  5
91D6
  8
AM_0
 10
436.8898133096431
 20
65.404701375786715
 30
0.0
 70
    32
  0
VERTEX
  5
91D7
  8
AM_0
 10
436.89181330964311
 20
65.401101375786709
 30
0.0
 70
    32
  0
VERTEX
  5
91D8
  8
AM_0
 10
436.89381330964312
 20
65.397501375786703
 30
0.0
 70
    32
  0
VERTEX
  5
91D9
  8
AM_0
 10
436.89681330964311
 20
65.393901375786712
 30
0.0
 70
    32
  0
VERTEX
  5
91DA
  8
AM_0
 10
436.89881330964312
 20
65.390401375786709
 30
0.0
 70
    32
  0
VERTEX
  5
91DB
  8
AM_0
 10
436.9018133096431
 20
65.386801375786774
 30
0.0
 70
    32
  0
VERTEX
  5
91DC
  8
AM_0
 10
436.903813309643
 20
65.383201375786768
 30
0.0
 70
    32
  0
VERTEX
  5
91DD
  8
AM_0
 10
436.90681330964321
 20
65.379701375786794
 30
0.0
 70
    32
  0
VERTEX
  5
91DE
  8
AM_0
 10
436.90881330964322
 20
65.376201375786891
 30
0.0
 70
    32
  0
VERTEX
  5
91DF
  8
AM_0
 10
436.91181330964309
 20
65.372701375786789
 30
0.0
 70
    32
  0
VERTEX
  5
91E0
  8
AM_0
 10
436.91481330964308
 20
65.369101375786698
 30
0.0
 70
    32
  0
VERTEX
  5
91E1
  8
AM_0
 10
436.91681330964298
 20
65.365701375786784
 30
0.0
 70
    32
  0
VERTEX
  5
91E2
  8
AM_0
 10
436.91981330964302
 20
65.362201375786711
 30
0.0
 70
    32
  0
VERTEX
  5
91E3
  8
AM_0
 10
436.92181330964303
 20
65.358701375786779
 30
0.0
 70
    32
  0
VERTEX
  5
91E4
  8
AM_0
 10
436.92481330964318
 20
65.355201375786777
 30
0.0
 70
    32
  0
VERTEX
  5
91E5
  8
AM_0
 10
436.92781330964323
 20
65.351801375786692
 30
0.0
 70
    32
  0
VERTEX
  5
91E6
  8
AM_0
 10
436.92981330964312
 20
65.348301375786889
 30
0.0
 70
    32
  0
VERTEX
  5
91E7
  8
AM_0
 10
436.93281330964311
 20
65.344901375786691
 30
0.0
 70
    32
  0
VERTEX
  5
91E8
  8
AM_0
 10
436.93581330964309
 20
65.341501375786976
 30
0.0
 70
    32
  0
VERTEX
  5
91E9
  8
AM_0
 10
436.93781330964299
 20
65.338101375786692
 30
0.0
 70
    32
  0
VERTEX
  5
91EA
  8
AM_0
 10
436.94081330964281
 20
65.334701375786665
 30
0.0
 70
    32
  0
VERTEX
  5
91EB
  8
AM_0
 10
436.94381330964319
 20
65.33130137578668
 30
0.0
 70
    32
  0
VERTEX
  5
91EC
  8
AM_0
 10
436.94681330964318
 20
65.328001375786954
 30
0.0
 70
    32
  0
VERTEX
  5
91ED
  8
AM_0
 10
436.94881330964313
 20
65.324601375786699
 30
0.0
 70
    32
  0
VERTEX
  5
91EE
  8
AM_0
 10
436.95181330964311
 20
65.321301375786788
 30
0.0
 70
    32
  0
VERTEX
  5
91EF
  8
AM_0
 10
436.9548133096431
 20
65.317901375786789
 30
0.0
 70
    32
  0
VERTEX
  5
91F0
  8
AM_0
 10
436.95781330964309
 20
65.314601375786793
 30
0.0
 70
    32
  0
VERTEX
  5
91F1
  8
AM_0
 10
436.95981330964293
 20
65.311301375787195
 30
0.0
 70
    32
  0
VERTEX
  5
91F2
  8
AM_0
 10
436.96281330964331
 20
65.308001375786773
 30
0.0
 70
    32
  0
VERTEX
  5
91F3
  8
AM_0
 10
436.96581330964312
 20
65.304701375786777
 30
0.0
 70
    32
  0
VERTEX
  5
91F4
  8
AM_0
 10
436.96881330964288
 20
65.301401375787208
 30
0.0
 70
    32
  0
VERTEX
  5
91F5
  8
AM_0
 10
436.97181330964332
 20
65.2981013757867
 30
0.0
 70
    32
  0
VERTEX
  5
91F6
  8
AM_0
 10
436.9748133096432
 20
65.294901375786708
 30
0.0
 70
    32
  0
VERTEX
  5
91F7
  8
AM_0
 10
436.97781330964301
 20
65.291601375786769
 30
0.0
 70
    32
  0
VERTEX
  5
91F8
  8
AM_0
 10
436.98081330964322
 20
65.28840137578689
 30
0.0
 70
    32
  0
VERTEX
  5
91F9
  8
AM_0
 10
436.9838133096431
 20
65.285201375786968
 30
0.0
 70
    32
  0
VERTEX
  5
91FA
  8
AM_0
 10
436.98581330964311
 20
65.28200137578672
 30
0.0
 70
    32
  0
VERTEX
  5
91FB
  8
AM_0
 10
436.98881330964309
 20
65.278801375786713
 30
0.0
 70
    32
  0
VERTEX
  5
91FC
  8
AM_0
 10
436.99181330964308
 20
65.275601375786692
 30
0.0
 70
    32
  0
VERTEX
  5
91FD
  8
AM_0
 10
436.99481330964312
 20
65.272401375786615
 30
0.0
 70
    32
  0
VERTEX
  5
91FE
  8
AM_0
 10
436.99781330964311
 20
65.26920137578648
 30
0.0
 70
    32
  0
VERTEX
  5
91FF
  8
AM_0
 10
437.00081330964309
 20
65.266101375786704
 30
0.0
 70
    32
  0
VERTEX
  5
9200
  8
AM_0
 10
437.00381330964302
 20
65.262901375786683
 30
0.0
 70
    32
  0
VERTEX
  5
9201
  8
AM_0
 10
437.00681330964312
 20
65.259801375786793
 30
0.0
 70
    32
  0
VERTEX
  5
9202
  8
AM_0
 10
437.00981330964328
 20
65.256701375786776
 30
0.0
 70
    32
  0
VERTEX
  5
9203
  8
AM_0
 10
437.01281330964309
 20
65.253501375786783
 30
0.0
 70
    32
  0
VERTEX
  5
9204
  8
AM_0
 10
437.01581330964302
 20
65.250401375786794
 30
0.0
 70
    32
  0
VERTEX
  5
9205
  8
AM_0
 10
437.01881330964312
 20
65.247301375786776
 30
0.0
 70
    32
  0
VERTEX
  5
9206
  8
AM_0
 10
437.02181330964322
 20
65.244301375787174
 30
0.0
 70
    32
  0
VERTEX
  5
9207
  8
AM_0
 10
437.02581330964301
 20
65.241201375786773
 30
0.0
 70
    32
  0
VERTEX
  5
9208
  8
AM_0
 10
437.028813309643
 20
65.238101375786698
 30
0.0
 70
    32
  0
VERTEX
  5
9209
  8
AM_0
 10
437.03181330964298
 20
65.235101375786712
 30
0.0
 70
    32
  0
VERTEX
  5
920A
  8
AM_0
 10
437.03481330964303
 20
65.232001375786709
 30
0.0
 70
    32
  0
VERTEX
  5
920B
  8
AM_0
 10
437.03781330964301
 20
65.229001375786794
 30
0.0
 70
    32
  0
VERTEX
  5
920C
  8
AM_0
 10
437.04081330964311
 20
65.22600137578668
 30
0.0
 70
    32
  0
VERTEX
  5
920D
  8
AM_0
 10
437.04381330964299
 20
65.223001375786794
 30
0.0
 70
    32
  0
VERTEX
  5
920E
  8
AM_0
 10
437.04681330964303
 20
65.220001375786779
 30
0.0
 70
    32
  0
VERTEX
  5
920F
  8
AM_0
 10
437.0508133096431
 20
65.217001375786396
 30
0.0
 70
    32
  0
VERTEX
  5
9210
  8
AM_0
 10
437.05381330964298
 20
65.21400137578668
 30
0.0
 70
    32
  0
VERTEX
  5
9211
  8
AM_0
 10
437.05681330964308
 20
65.211001375786893
 30
0.0
 70
    32
  0
VERTEX
  5
9212
  8
AM_0
 10
437.05981330964312
 20
65.208101375786782
 30
0.0
 70
    32
  0
VERTEX
  5
9213
  8
AM_0
 10
437.06281330964299
 20
65.205101375786882
 30
0.0
 70
    32
  0
VERTEX
  5
9214
  8
AM_0
 10
437.06581330964309
 20
65.2022013757867
 30
0.0
 70
    32
  0
VERTEX
  5
9215
  8
AM_0
 10
437.06981330964311
 20
65.199201375786714
 30
0.0
 70
    32
  0
VERTEX
  5
9216
  8
AM_0
 10
437.0728133096431
 20
65.196301375786703
 30
0.0
 70
    32
  0
VERTEX
  5
9217
  8
AM_0
 10
437.07581330964308
 20
65.193401375786891
 30
0.0
 70
    32
  0
VERTEX
  5
9218
  8
AM_0
 10
437.07881330964312
 20
65.19050137578671
 30
0.0
 70
    32
  0
VERTEX
  5
9219
  8
AM_0
 10
437.08281330964309
 20
65.187601375786969
 30
0.0
 70
    32
  0
VERTEX
  5
921A
  8
AM_0
 10
437.08581330964302
 20
65.184701375786773
 30
0.0
 70
    32
  0
VERTEX
  5
921B
  8
AM_0
 10
437.08881330964311
 20
65.181901375786623
 30
0.0
 70
    32
  0
VERTEX
  5
921C
  8
AM_0
 10
437.0918133096431
 20
65.179001375786953
 30
0.0
 70
    32
  0
VERTEX
  5
921D
  8
AM_0
 10
437.09581330964357
 20
65.176201375786775
 30
0.0
 70
    32
  0
VERTEX
  5
921E
  8
AM_0
 10
437.09881330964311
 20
65.173301375786721
 30
0.0
 70
    32
  0
VERTEX
  5
921F
  8
AM_0
 10
437.10181330964309
 20
65.170501375786699
 30
0.0
 70
    32
  0
VERTEX
  5
9220
  8
AM_0
 10
437.10581330964322
 20
65.167701375786976
 30
0.0
 70
    32
  0
VERTEX
  5
9221
  8
AM_0
 10
437.1088133096431
 20
65.164901375786769
 30
0.0
 70
    32
  0
VERTEX
  5
9222
  8
AM_0
 10
437.11181330964303
 20
65.162101375786875
 30
0.0
 70
    32
  0
VERTEX
  5
9223
  8
AM_0
 10
437.1158133096431
 20
65.159301375786782
 30
0.0
 70
    32
  0
VERTEX
  5
9224
  8
AM_0
 10
437.11881330964297
 20
65.156501375786775
 30
0.0
 70
    32
  0
VERTEX
  5
9225
  8
AM_0
 10
437.12181330964302
 20
65.153701375787193
 30
0.0
 70
    32
  0
VERTEX
  5
9226
  8
AM_0
 10
437.12581330964309
 20
65.151001375787189
 30
0.0
 70
    32
  0
VERTEX
  5
9227
  8
AM_0
 10
437.12881330964319
 20
65.148201375786385
 30
0.0
 70
    32
  0
VERTEX
  5
9228
  8
AM_0
 10
437.13181330964312
 20
65.145501375786679
 30
0.0
 70
    32
  0
VERTEX
  5
9229
  8
AM_0
 10
437.1358133096432
 20
65.142701375786714
 30
0.0
 70
    32
  0
VERTEX
  5
922A
  8
AM_0
 10
437.13881330964318
 20
65.14000137578671
 30
0.0
 70
    32
  0
VERTEX
  5
922B
  8
AM_0
 10
437.1428133096428
 20
65.13730137578672
 30
0.0
 70
    32
  0
VERTEX
  5
922C
  8
AM_0
 10
437.14581330964319
 20
65.134601375786701
 30
0.0
 70
    32
  0
VERTEX
  5
922D
  8
AM_0
 10
437.14881330964312
 20
65.131901375786896
 30
0.0
 70
    32
  0
VERTEX
  5
922E
  8
AM_0
 10
437.15281330964308
 20
65.129201375786778
 30
0.0
 70
    32
  0
VERTEX
  5
922F
  8
AM_0
 10
437.15581330964312
 20
65.126501375786873
 30
0.0
 70
    32
  0
VERTEX
  5
9230
  8
AM_0
 10
437.15981330964308
 20
65.123901375786716
 30
0.0
 70
    32
  0
VERTEX
  5
9231
  8
AM_0
 10
437.16281330964313
 20
65.121201375786711
 30
0.0
 70
    32
  0
VERTEX
  5
9232
  8
AM_0
 10
437.16681330964309
 20
65.118501375786721
 30
0.0
 70
    32
  0
VERTEX
  5
9233
  8
AM_0
 10
437.16981330964308
 20
65.115901375786962
 30
0.0
 70
    32
  0
VERTEX
  5
9234
  8
AM_0
 10
437.17281330964289
 20
65.113301375786719
 30
0.0
 70
    32
  0
VERTEX
  5
9235
  8
AM_0
 10
437.17681330964308
 20
65.110701375786704
 30
0.0
 70
    32
  0
VERTEX
  5
9236
  8
AM_0
 10
437.17981330964312
 20
65.108001375786785
 30
0.0
 70
    32
  0
VERTEX
  5
9237
  8
AM_0
 10
437.18381330964309
 20
65.105401375786698
 30
0.0
 70
    32
  0
VERTEX
  5
9238
  8
AM_0
 10
437.18681330964301
 20
65.102801375786711
 30
0.0
 70
    32
  0
VERTEX
  5
9239
  8
AM_0
 10
437.19081330964309
 20
65.1003013757867
 30
0.0
 70
    32
  0
VERTEX
  5
923A
  8
AM_0
 10
437.19381330964308
 20
65.097701375786784
 30
0.0
 70
    32
  0
VERTEX
  5
923B
  8
AM_0
 10
437.19781330964321
 20
65.095101375786783
 30
0.0
 70
    32
  0
VERTEX
  5
923C
  8
AM_0
 10
437.20081330964302
 20
65.0926013757867
 30
0.0
 70
    32
  0
VERTEX
  5
923D
  8
AM_0
 10
437.20481330964321
 20
65.090001375786699
 30
0.0
 70
    32
  0
VERTEX
  5
923E
  8
AM_0
 10
437.20781330964297
 20
65.087501375786616
 30
0.0
 70
    32
  0
VERTEX
  5
923F
  8
AM_0
 10
437.21181330964322
 20
65.084901375786785
 30
0.0
 70
    32
  0
VERTEX
  5
9240
  8
AM_0
 10
437.21481330964298
 20
65.082401375786773
 30
0.0
 70
    32
  0
VERTEX
  5
9241
  8
AM_0
 10
437.21881330964311
 20
65.07990137578696
 30
0.0
 70
    32
  0
VERTEX
  5
9242
  8
AM_0
 10
437.22281330964319
 20
65.077401375786721
 30
0.0
 70
    32
  0
VERTEX
  5
9243
  8
AM_0
 10
437.22581330964317
 20
65.074901375786695
 30
0.0
 70
    32
  0
VERTEX
  5
9244
  8
AM_0
 10
437.22981330964302
 20
65.072401375786754
 30
0.0
 70
    32
  0
VERTEX
  5
9245
  8
AM_0
 10
437.23281330964318
 20
65.06990137578677
 30
0.0
 70
    32
  0
VERTEX
  5
9246
  8
AM_0
 10
437.23681330964303
 20
65.067501375786463
 30
0.0
 70
    32
  0
VERTEX
  5
9247
  8
AM_0
 10
437.23981330964313
 20
65.065001375786693
 30
0.0
 70
    32
  0
VERTEX
  5
9248
  8
AM_0
 10
437.2438133096432
 20
65.062601375786471
 30
0.0
 70
    32
  0
VERTEX
  5
9249
  8
AM_0
 10
437.24781330964288
 20
65.0601013757869
 30
0.0
 70
    32
  0
VERTEX
  5
924A
  8
AM_0
 10
437.25081330964309
 20
65.05770137578719
 30
0.0
 70
    32
  0
VERTEX
  5
924B
  8
AM_0
 10
437.254813309643
 20
65.055301375786769
 30
0.0
 70
    32
  0
VERTEX
  5
924C
  8
AM_0
 10
437.2578133096431
 20
65.052801375786771
 30
0.0
 70
    32
  0
VERTEX
  5
924D
  8
AM_0
 10
437.26181330964312
 20
65.050401375786691
 30
0.0
 70
    32
  0
VERTEX
  5
924E
  8
AM_0
 10
437.26581330964308
 20
65.048001375786896
 30
0.0
 70
    32
  0
VERTEX
  5
924F
  8
AM_0
 10
437.26881330964301
 20
65.045601375786703
 30
0.0
 70
    32
  0
VERTEX
  5
9250
  8
AM_0
 10
437.2728133096432
 20
65.043201375786708
 30
0.0
 70
    32
  0
VERTEX
  5
9251
  8
AM_0
 10
437.2768133096431
 20
65.040901375786703
 30
0.0
 70
    32
  0
VERTEX
  5
9252
  8
AM_0
 10
437.27981330964309
 20
65.038501375786893
 30
0.0
 70
    32
  0
VERTEX
  5
9253
  8
AM_0
 10
437.28381330964311
 20
65.036101375786785
 30
0.0
 70
    32
  0
VERTEX
  5
9254
  8
AM_0
 10
437.28781330964301
 20
65.033801375786794
 30
0.0
 70
    32
  0
VERTEX
  5
9255
  8
AM_0
 10
437.29081330964311
 20
65.031401375786714
 30
0.0
 70
    32
  0
VERTEX
  5
9256
  8
AM_0
 10
437.29481330964302
 20
65.029101375786709
 30
0.0
 70
    32
  0
VERTEX
  5
9257
  8
AM_0
 10
437.29881330964309
 20
65.02680137578696
 30
0.0
 70
    32
  0
VERTEX
  5
9258
  8
AM_0
 10
437.30181330964302
 20
65.024501375786969
 30
0.0
 70
    32
  0
VERTEX
  5
9259
  8
AM_0
 10
437.3058133096431
 20
65.022201375786778
 30
0.0
 70
    32
  0
VERTEX
  5
925A
  8
AM_0
 10
437.30981330964318
 20
65.019801375786685
 30
0.0
 70
    32
  0
VERTEX
  5
925B
  8
AM_0
 10
437.31281330964322
 20
65.017601375786768
 30
0.0
 70
    32
  0
VERTEX
  5
925C
  8
AM_0
 10
437.31681330964312
 20
65.015301375786692
 30
0.0
 70
    32
  0
VERTEX
  5
925D
  8
AM_0
 10
437.3208133096432
 20
65.013001375786786
 30
0.0
 70
    32
  0
VERTEX
  5
925E
  8
AM_0
 10
437.32381330964301
 20
65.010701375786795
 30
0.0
 70
    32
  0
VERTEX
  5
925F
  8
AM_0
 10
437.32781330964309
 20
65.008401375786775
 30
0.0
 70
    32
  0
VERTEX
  5
9260
  8
AM_0
 10
437.33181330964311
 20
65.006201375786773
 30
0.0
 70
    32
  0
VERTEX
  5
9261
  8
AM_0
 10
437.33581330964302
 20
65.003901375786754
 30
0.0
 70
    32
  0
VERTEX
  5
9262
  8
AM_0
 10
437.33881330964311
 20
65.00170137578678
 30
0.0
 70
    32
  0
VERTEX
  5
9263
  8
AM_0
 10
437.34281330964308
 20
64.999501375786721
 30
0.0
 70
    32
  0
VERTEX
  5
9264
  8
AM_0
 10
437.3468133096431
 20
64.997201375786773
 30
0.0
 70
    32
  0
VERTEX
  5
9265
  8
AM_0
 10
437.3498133096432
 20
64.9950013757867
 30
0.0
 70
    32
  0
VERTEX
  5
9266
  8
AM_0
 10
437.35381330964287
 20
64.992801375786769
 30
0.0
 70
    32
  0
VERTEX
  5
9267
  8
AM_0
 10
437.35781330964312
 20
64.990601375786468
 30
0.0
 70
    32
  0
VERTEX
  5
9268
  8
AM_0
 10
437.36181330964308
 20
64.988401375786708
 30
0.0
 70
    32
  0
VERTEX
  5
9269
  8
AM_0
 10
437.36481330964301
 20
64.986201375787203
 30
0.0
 70
    32
  0
VERTEX
  5
926A
  8
AM_0
 10
437.3688133096432
 20
64.984101375786793
 30
0.0
 70
    32
  0
VERTEX
  5
926B
  8
AM_0
 10
437.37281330964311
 20
64.981901375786776
 30
0.0
 70
    32
  0
VERTEX
  5
926C
  8
AM_0
 10
437.37681330964313
 20
64.979701375786703
 30
0.0
 70
    32
  0
VERTEX
  5
926D
  8
AM_0
 10
437.38081330964309
 20
64.977601375786691
 30
0.0
 70
    32
  0
VERTEX
  5
926E
  8
AM_0
 10
437.38381330964302
 20
64.975401375787214
 30
0.0
 70
    32
  0
VERTEX
  5
926F
  8
AM_0
 10
437.38781330964321
 20
64.973301375786775
 30
0.0
 70
    32
  0
VERTEX
  5
9270
  8
AM_0
 10
437.39181330964311
 20
64.971101375786787
 30
0.0
 70
    32
  0
VERTEX
  5
9271
  8
AM_0
 10
437.39581330964307
 20
64.969001375786718
 30
0.0
 70
    32
  0
VERTEX
  5
9272
  8
AM_0
 10
437.39881330964312
 20
64.966901375786961
 30
0.0
 70
    32
  0
VERTEX
  5
9273
  8
AM_0
 10
437.40281330964302
 20
64.964801375786465
 30
0.0
 70
    32
  0
VERTEX
  5
9274
  8
AM_0
 10
437.4068133096431
 20
64.962701375786708
 30
0.0
 70
    32
  0
VERTEX
  5
9275
  8
AM_0
 10
437.41081330964312
 20
64.960601375786894
 30
0.0
 70
    32
  0
VERTEX
  5
9276
  8
AM_0
 10
437.41481330964319
 20
64.958501375786483
 30
0.0
 70
    32
  0
VERTEX
  5
9277
  8
AM_0
 10
437.41881330964299
 20
64.956401375786712
 30
0.0
 70
    32
  0
VERTEX
  5
9278
  8
AM_0
 10
437.42181330964303
 20
64.954301375786883
 30
0.0
 70
    32
  0
VERTEX
  5
9279
  8
AM_0
 10
437.42581330964299
 20
64.952301375786789
 30
0.0
 70
    32
  0
VERTEX
  5
927A
  8
AM_0
 10
437.42981330964312
 20
64.950201375786975
 30
0.0
 70
    32
  0
VERTEX
  5
927B
  8
AM_0
 10
437.4338133096432
 20
64.94810137578672
 30
0.0
 70
    32
  0
VERTEX
  5
927C
  8
AM_0
 10
437.43781330964299
 20
64.946101375786711
 30
0.0
 70
    32
  0
VERTEX
  5
927D
  8
AM_0
 10
437.44081330964292
 20
64.944001375786712
 30
0.0
 70
    32
  0
VERTEX
  5
927E
  8
AM_0
 10
437.44481330964311
 20
64.942001375786788
 30
0.0
 70
    32
  0
VERTEX
  5
927F
  8
AM_0
 10
437.44881330964313
 20
64.940001375786693
 30
0.0
 70
    32
  0
VERTEX
  5
9280
  8
AM_0
 10
437.45281330964309
 20
64.938001375786769
 30
0.0
 70
    32
  0
VERTEX
  5
9281
  8
AM_0
 10
437.456813309643
 20
64.936001375786702
 30
0.0
 70
    32
  0
VERTEX
  5
9282
  8
AM_0
 10
437.46081330964307
 20
64.934001375786892
 30
0.0
 70
    32
  0
VERTEX
  5
9283
  8
AM_0
 10
437.46481330964309
 20
64.932001375786768
 30
0.0
 70
    32
  0
VERTEX
  5
9284
  8
AM_0
 10
437.46781330964308
 20
64.930001375786787
 30
0.0
 70
    32
  0
VERTEX
  5
9285
  8
AM_0
 10
437.47181330964332
 20
64.928001375786693
 30
0.0
 70
    32
  0
VERTEX
  5
9286
  8
AM_0
 10
437.47581330964312
 20
64.926001375786754
 30
0.0
 70
    32
  0
VERTEX
  5
9287
  8
AM_0
 10
437.47981330964302
 20
64.924001375786702
 30
0.0
 70
    32
  0
VERTEX
  5
9288
  8
AM_0
 10
437.4838133096431
 20
64.922101375786781
 30
0.0
 70
    32
  0
VERTEX
  5
9289
  8
AM_0
 10
437.48781330964312
 20
64.920101375786771
 30
0.0
 70
    32
  0
VERTEX
  5
928A
  8
AM_0
 10
437.49181330964308
 20
64.918201375786623
 30
0.0
 70
    32
  0
VERTEX
  5
928B
  8
AM_0
 10
437.49581330964321
 20
64.916201375786699
 30
0.0
 70
    32
  0
VERTEX
  5
928C
  8
AM_0
 10
437.499813309643
 20
64.914301375786692
 30
0.0
 70
    32
  0
VERTEX
  5
928D
  8
AM_0
 10
437.50281330964322
 20
64.912401375786885
 30
0.0
 70
    32
  0
VERTEX
  5
928E
  8
AM_0
 10
437.50681330964312
 20
64.91040137578679
 30
0.0
 70
    32
  0
VERTEX
  5
928F
  8
AM_0
 10
437.51081330964308
 20
64.908501375786784
 30
0.0
 70
    32
  0
VERTEX
  5
9290
  8
AM_0
 10
437.5148133096431
 20
64.906601375786778
 30
0.0
 70
    32
  0
VERTEX
  5
9291
  8
AM_0
 10
437.51881330964312
 20
64.904701375786715
 30
0.0
 70
    32
  0
VERTEX
  5
9292
  8
AM_0
 10
437.5228133096432
 20
64.902801375787192
 30
0.0
 70
    32
  0
VERTEX
  5
9293
  8
AM_0
 10
437.52681330964288
 20
64.900901375786475
 30
0.0
 70
    32
  0
VERTEX
  5
9294
  8
AM_0
 10
437.53081330964318
 20
64.899101375786387
 30
0.0
 70
    32
  0
VERTEX
  5
9295
  8
AM_0
 10
437.53481330964303
 20
64.897201375786679
 30
0.0
 70
    32
  0
VERTEX
  5
9296
  8
AM_0
 10
437.5388133096431
 20
64.895301375786886
 30
0.0
 70
    32
  0
VERTEX
  5
9297
  8
AM_0
 10
437.54281330964312
 20
64.893501375786883
 30
0.0
 70
    32
  0
VERTEX
  5
9298
  8
AM_0
 10
437.54581330964288
 20
64.891601375786792
 30
0.0
 70
    32
  0
VERTEX
  5
9299
  8
AM_0
 10
437.54981330964313
 20
64.889801375786774
 30
0.0
 70
    32
  0
VERTEX
  5
929A
  8
AM_0
 10
437.55381330964309
 20
64.887901375786782
 30
0.0
 70
    32
  0
VERTEX
  5
929B
  8
AM_0
 10
437.55781330964311
 20
64.88610137578668
 30
0.0
 70
    32
  0
VERTEX
  5
929C
  8
AM_0
 10
437.56181330964301
 20
64.884301375786777
 30
0.0
 70
    32
  0
VERTEX
  5
929D
  8
AM_0
 10
437.56581330964309
 20
64.88240137578677
 30
0.0
 70
    32
  0
VERTEX
  5
929E
  8
AM_0
 10
437.56981330964311
 20
64.880601375786767
 30
0.0
 70
    32
  0
VERTEX
  5
929F
  8
AM_0
 10
437.57381330964301
 20
64.878801375786679
 30
0.0
 70
    32
  0
VERTEX
  5
92A0
  8
AM_0
 10
437.57781330964309
 20
64.87700137578679
 30
0.0
 70
    32
  0
VERTEX
  5
92A1
  8
AM_0
 10
437.58181330964311
 20
64.875201375786787
 30
0.0
 70
    32
  0
VERTEX
  5
92A2
  8
AM_0
 10
437.58581330964302
 20
64.873401375786685
 30
0.0
 70
    32
  0
VERTEX
  5
92A3
  8
AM_0
 10
437.58981330964309
 20
64.871701375786785
 30
0.0
 70
    32
  0
VERTEX
  5
92A4
  8
AM_0
 10
437.59381330964311
 20
64.869901375786711
 30
0.0
 70
    32
  0
VERTEX
  5
92A5
  8
AM_0
 10
437.59781330964307
 20
64.868101375786779
 30
0.0
 70
    32
  0
VERTEX
  5
92A6
  8
AM_0
 10
437.60181330964298
 20
64.866301375786691
 30
0.0
 70
    32
  0
VERTEX
  5
92A7
  8
AM_0
 10
437.60581330964322
 20
64.864601375786776
 30
0.0
 70
    32
  0
VERTEX
  5
92A8
  8
AM_0
 10
437.60981330964319
 20
64.862801375786717
 30
0.0
 70
    32
  0
VERTEX
  5
92A9
  8
AM_0
 10
437.61381330964292
 20
64.861101375786774
 30
0.0
 70
    32
  0
VERTEX
  5
92AA
  8
AM_0
 10
437.61781330964311
 20
64.859401375786717
 30
0.0
 70
    32
  0
VERTEX
  5
92AB
  8
AM_0
 10
437.62181330964302
 20
64.857601375786714
 30
0.0
 70
    32
  0
VERTEX
  5
92AC
  8
AM_0
 10
437.62581330964309
 20
64.855901375786715
 30
0.0
 70
    32
  0
VERTEX
  5
92AD
  8
AM_0
 10
437.62981330964311
 20
64.854201375786772
 30
0.0
 70
    32
  0
VERTEX
  5
92AE
  8
AM_0
 10
437.63381330964307
 20
64.852501375786971
 30
0.0
 70
    32
  0
VERTEX
  5
92AF
  8
AM_0
 10
437.63781330964309
 20
64.850801375786773
 30
0.0
 70
    32
  0
VERTEX
  5
92B0
  8
AM_0
 10
437.641813309643
 20
64.849101375786773
 30
0.0
 70
    32
  0
VERTEX
  5
92B1
  8
AM_0
 10
437.64581330964319
 20
64.847401375786717
 30
0.0
 70
    32
  0
VERTEX
  5
92B2
  8
AM_0
 10
437.64981330964309
 20
64.845701375787201
 30
0.0
 70
    32
  0
VERTEX
  5
92B3
  8
AM_0
 10
437.65381330964289
 20
64.844001375786775
 30
0.0
 70
    32
  0
VERTEX
  5
92B4
  8
AM_0
 10
437.65781330964307
 20
64.842301375786775
 30
0.0
 70
    32
  0
VERTEX
  5
92B5
  8
AM_0
 10
437.66181330964309
 20
64.840601375786775
 30
0.0
 70
    32
  0
VERTEX
  5
92B6
  8
AM_0
 10
437.66581330964311
 20
64.83900137578668
 30
0.0
 70
    32
  0
VERTEX
  5
92B7
  8
AM_0
 10
437.66981330964302
 20
64.83730137578678
 30
0.0
 70
    32
  0
VERTEX
  5
92B8
  8
AM_0
 10
437.67381330964332
 20
64.835701375786385
 30
0.0
 70
    32
  0
VERTEX
  5
92B9
  8
AM_0
 10
437.67781330964311
 20
64.834001375786968
 30
0.0
 70
    32
  0
VERTEX
  5
92BA
  8
AM_0
 10
437.68181330964302
 20
64.832401375786787
 30
0.0
 70
    32
  0
VERTEX
  5
92BB
  8
AM_0
 10
437.68581330964321
 20
64.830701375786902
 30
0.0
 70
    32
  0
VERTEX
  5
92BC
  8
AM_0
 10
437.68981330964311
 20
64.829101375786891
 30
0.0
 70
    32
  0
VERTEX
  5
92BD
  8
AM_0
 10
437.69381330964308
 20
64.82750137578671
 30
0.0
 70
    32
  0
VERTEX
  5
92BE
  8
AM_0
 10
437.6978133096431
 20
64.825901375786955
 30
0.0
 70
    32
  0
VERTEX
  5
92BF
  8
AM_0
 10
437.701813309643
 20
64.824201375786771
 30
0.0
 70
    32
  0
VERTEX
  5
92C0
  8
AM_0
 10
437.70581330964319
 20
64.822601375786775
 30
0.0
 70
    32
  0
VERTEX
  5
92C1
  8
AM_0
 10
437.70981330964293
 20
64.821001375786892
 30
0.0
 70
    32
  0
VERTEX
  5
92C2
  8
AM_0
 10
437.71381330964317
 20
64.819401375786711
 30
0.0
 70
    32
  0
VERTEX
  5
92C3
  8
AM_0
 10
437.71781330964302
 20
64.817901375786789
 30
0.0
 70
    32
  0
VERTEX
  5
92C4
  8
AM_0
 10
437.7218133096431
 20
64.816301375786708
 30
0.0
 70
    32
  0
VERTEX
  5
92C5
  8
AM_0
 10
437.72581330964312
 20
64.814701375786882
 30
0.0
 70
    32
  0
VERTEX
  5
92C6
  8
AM_0
 10
437.72981330964302
 20
64.813101375786772
 30
0.0
 70
    32
  0
VERTEX
  5
92C7
  8
AM_0
 10
437.7338133096431
 20
64.811601375786779
 30
0.0
 70
    32
  0
VERTEX
  5
92C8
  8
AM_0
 10
437.737813309643
 20
64.810001375786783
 30
0.0
 70
    32
  0
VERTEX
  5
92C9
  8
AM_0
 10
437.74281330964311
 20
64.8084013757869
 30
0.0
 70
    32
  0
VERTEX
  5
92CA
  8
AM_0
 10
437.74681330964307
 20
64.806901375786708
 30
0.0
 70
    32
  0
VERTEX
  5
92CB
  8
AM_0
 10
437.75081330964332
 20
64.805401375786502
 30
0.0
 70
    32
  0
VERTEX
  5
92CC
  8
AM_0
 10
437.75481330964311
 20
64.803801375786691
 30
0.0
 70
    32
  0
VERTEX
  5
92CD
  8
AM_0
 10
437.75881330964307
 20
64.802301375786683
 30
0.0
 70
    32
  0
VERTEX
  5
92CE
  8
AM_0
 10
437.76281330964309
 20
64.80080137578679
 30
0.0
 70
    32
  0
VERTEX
  5
92CF
  8
AM_0
 10
437.76681330964311
 20
64.799201375786794
 30
0.0
 70
    32
  0
VERTEX
  5
92D0
  8
AM_0
 10
437.77081330964307
 20
64.797701375786716
 30
0.0
 70
    32
  0
VERTEX
  5
92D1
  8
AM_0
 10
437.77481330964309
 20
64.796201375786978
 30
0.0
 70
    32
  0
VERTEX
  5
92D2
  8
AM_0
 10
437.77881330964289
 20
64.794701375786786
 30
0.0
 70
    32
  0
VERTEX
  5
92D3
  8
AM_0
 10
437.78281330964302
 20
64.793201375786708
 30
0.0
 70
    32
  0
VERTEX
  5
92D4
  8
AM_0
 10
437.78681330964309
 20
64.791701375786971
 30
0.0
 70
    32
  0
VERTEX
  5
92D5
  8
AM_0
 10
437.79081330964323
 20
64.79020137578668
 30
0.0
 70
    32
  0
VERTEX
  5
92D6
  8
AM_0
 10
437.79481330964302
 20
64.788801375786889
 30
0.0
 70
    32
  0
VERTEX
  5
92D7
  8
AM_0
 10
437.79981330964318
 20
64.787301375786711
 30
0.0
 70
    32
  0
VERTEX
  5
92D8
  8
AM_0
 10
437.80381330964298
 20
64.785801375786718
 30
0.0
 70
    32
  0
VERTEX
  5
92D9
  8
AM_0
 10
437.80781330964322
 20
64.784301375786896
 30
0.0
 70
    32
  0
VERTEX
  5
92DA
  8
AM_0
 10
437.81181330964318
 20
64.782901375786722
 30
0.0
 70
    32
  0
VERTEX
  5
92DB
  8
AM_0
 10
437.81581330964281
 20
64.781401375786771
 30
0.0
 70
    32
  0
VERTEX
  5
92DC
  8
AM_0
 10
437.81981330964311
 20
64.780001375786966
 30
0.0
 70
    32
  0
VERTEX
  5
92DD
  8
AM_0
 10
437.82381330964301
 20
64.778501375786789
 30
0.0
 70
    32
  0
VERTEX
  5
92DE
  8
AM_0
 10
437.82781330964309
 20
64.777101375786771
 30
0.0
 70
    32
  0
VERTEX
  5
92DF
  8
AM_0
 10
437.831813309643
 20
64.775701375786781
 30
0.0
 70
    32
  0
VERTEX
  5
92E0
  8
AM_0
 10
437.83581330964307
 20
64.77430137578672
 30
0.0
 70
    32
  0
VERTEX
  5
92E1
  8
AM_0
 10
437.84081330964312
 20
64.772801375786969
 30
0.0
 70
    32
  0
VERTEX
  5
92E2
  8
AM_0
 10
437.84481330964309
 20
64.771401375786709
 30
0.0
 70
    32
  0
VERTEX
  5
92E3
  8
AM_0
 10
437.84881330964311
 20
64.77000137578689
 30
0.0
 70
    32
  0
VERTEX
  5
92E4
  8
AM_0
 10
437.85281330964301
 20
64.768601375786716
 30
0.0
 70
    32
  0
VERTEX
  5
92E5
  8
AM_0
 10
437.85681330964331
 20
64.767201375786783
 30
0.0
 70
    32
  0
VERTEX
  5
92E6
  8
AM_0
 10
437.86081330964311
 20
64.765801375786793
 30
0.0
 70
    32
  0
VERTEX
  5
92E7
  8
AM_0
 10
437.86481330964313
 20
64.764401375786719
 30
0.0
 70
    32
  0
VERTEX
  5
92E8
  8
AM_0
 10
437.8688133096432
 20
64.763001375786786
 30
0.0
 70
    32
  0
VERTEX
  5
92E9
  8
AM_0
 10
437.87281330964311
 20
64.761701375786714
 30
0.0
 70
    32
  0
VERTEX
  5
92EA
  8
AM_0
 10
437.8778133096431
 20
64.76030137578671
 30
0.0
 70
    32
  0
VERTEX
  5
92EB
  8
AM_0
 10
437.88181330964312
 20
64.758901375786891
 30
0.0
 70
    32
  0
VERTEX
  5
92EC
  8
AM_0
 10
437.88581330964308
 20
64.757601375786777
 30
0.0
 70
    32
  0
VERTEX
  5
92ED
  8
AM_0
 10
437.88981330964322
 20
64.756201375786787
 30
0.0
 70
    32
  0
VERTEX
  5
92EE
  8
AM_0
 10
437.89381330964312
 20
64.754901375786773
 30
0.0
 70
    32
  0
VERTEX
  5
92EF
  8
AM_0
 10
437.89781330964303
 20
64.753501375786783
 30
0.0
 70
    32
  0
VERTEX
  5
92F0
  8
AM_0
 10
437.9018133096431
 20
64.752201375786768
 30
0.0
 70
    32
  0
VERTEX
  5
92F1
  8
AM_0
 10
437.90681330964298
 20
64.750901375786782
 30
0.0
 70
    32
  0
VERTEX
  5
92F2
  8
AM_0
 10
437.91081330964312
 20
64.749501375786622
 30
0.0
 70
    32
  0
VERTEX
  5
92F3
  8
AM_0
 10
437.91481330964319
 20
64.748201375786778
 30
0.0
 70
    32
  0
VERTEX
  5
92F4
  8
AM_0
 10
437.91881330964299
 20
64.746901375786393
 30
0.0
 70
    32
  0
VERTEX
  5
92F5
  8
AM_0
 10
437.92281330964312
 20
64.745601375786464
 30
0.0
 70
    32
  0
VERTEX
  5
92F6
  8
AM_0
 10
437.92681330964319
 20
64.74430137578689
 30
0.0
 70
    32
  0
VERTEX
  5
92F7
  8
AM_0
 10
437.93081330964282
 20
64.74300137578669
 30
0.0
 70
    32
  0
VERTEX
  5
92F8
  8
AM_0
 10
437.93581330964309
 20
64.741701375786704
 30
0.0
 70
    32
  0
VERTEX
  5
92F9
  8
AM_0
 10
437.939813309643
 20
64.740401375786888
 30
0.0
 70
    32
  0
VERTEX
  5
92FA
  8
AM_0
 10
437.94381330964319
 20
64.739101375786788
 30
0.0
 70
    32
  0
VERTEX
  5
92FB
  8
AM_0
 10
437.9478133096431
 20
64.737801375786717
 30
0.0
 70
    32
  0
VERTEX
  5
92FC
  8
AM_0
 10
437.95181330964289
 20
64.736501375786702
 30
0.0
 70
    32
  0
VERTEX
  5
92FD
  8
AM_0
 10
437.95581330964308
 20
64.735301375786776
 30
0.0
 70
    32
  0
VERTEX
  5
92FE
  8
AM_0
 10
437.9598133096431
 20
64.734001375786704
 30
0.0
 70
    32
  0
VERTEX
  5
92FF
  8
AM_0
 10
437.96481330964309
 20
64.732701375786718
 30
0.0
 70
    32
  0
VERTEX
  5
9300
  8
AM_0
 10
437.96881330964311
 20
64.731501375786721
 30
0.0
 70
    32
  0
VERTEX
  5
9301
  8
AM_0
 10
437.97281330964307
 20
64.730201375786692
 30
0.0
 70
    32
  0
VERTEX
  5
9302
  8
AM_0
 10
437.97681330964309
 20
64.729001375786794
 30
0.0
 70
    32
  0
VERTEX
  5
9303
  8
AM_0
 10
437.98081330964322
 20
64.727701375786765
 30
0.0
 70
    32
  0
VERTEX
  5
9304
  8
AM_0
 10
437.98481330964302
 20
64.726501375786768
 30
0.0
 70
    32
  0
VERTEX
  5
9305
  8
AM_0
 10
437.98981330964313
 20
64.725301375786614
 30
0.0
 70
    32
  0
VERTEX
  5
9306
  8
AM_0
 10
437.99381330964297
 20
64.72400137578677
 30
0.0
 70
    32
  0
VERTEX
  5
9307
  8
AM_0
 10
437.99781330964311
 20
64.722801375786958
 30
0.0
 70
    32
  0
VERTEX
  5
9308
  8
AM_0
 10
438.00181330964318
 20
64.721601375786776
 30
0.0
 70
    32
  0
VERTEX
  5
9309
  8
AM_0
 10
438.00581330964297
 20
64.720401375786793
 30
0.0
 70
    32
  0
VERTEX
  5
930A
  8
AM_0
 10
438.00981330964311
 20
64.719201375786966
 30
0.0
 70
    32
  0
VERTEX
  5
930B
  8
AM_0
 10
438.01481330964299
 20
64.718001375786713
 30
0.0
 70
    32
  0
VERTEX
  5
930C
  8
AM_0
 10
438.01881330964312
 20
64.716801375786702
 30
0.0
 70
    32
  0
VERTEX
  5
930D
  8
AM_0
 10
438.0228133096432
 20
64.715601375786974
 30
0.0
 70
    32
  0
VERTEX
  5
930E
  8
AM_0
 10
438.02681330964288
 20
64.714401375786721
 30
0.0
 70
    32
  0
VERTEX
  5
930F
  8
AM_0
 10
438.03081330964312
 20
64.71320137578671
 30
0.0
 70
    32
  0
VERTEX
  5
9310
  8
AM_0
 10
438.035813309643
 20
64.712001375786969
 30
0.0
 70
    32
  0
VERTEX
  5
9311
  8
AM_0
 10
438.03981330964319
 20
64.710901375786719
 30
0.0
 70
    32
  0
VERTEX
  5
9312
  8
AM_0
 10
438.0438133096431
 20
64.709701375786665
 30
0.0
 70
    32
  0
VERTEX
  5
9313
  8
AM_0
 10
438.04781330964289
 20
64.70850137578671
 30
0.0
 70
    32
  0
VERTEX
  5
9314
  8
AM_0
 10
438.05181330964319
 20
64.707401375786787
 30
0.0
 70
    32
  0
VERTEX
  5
9315
  8
AM_0
 10
438.0558133096431
 20
64.70620137578689
 30
0.0
 70
    32
  0
VERTEX
  5
9316
  8
AM_0
 10
438.06081330964309
 20
64.705101375786711
 30
0.0
 70
    32
  0
VERTEX
  5
9317
  8
AM_0
 10
438.06481330964311
 20
64.703901375786955
 30
0.0
 70
    32
  0
VERTEX
  5
9318
  8
AM_0
 10
438.06881330964308
 20
64.702801375786692
 30
0.0
 70
    32
  0
VERTEX
  5
9319
  8
AM_0
 10
438.07281330964321
 20
64.701601375786709
 30
0.0
 70
    32
  0
VERTEX
  5
931A
  8
AM_0
 10
438.076813309643
 20
64.7005013757867
 30
0.0
 70
    32
  0
VERTEX
  5
931B
  8
AM_0
 10
438.08181330964322
 20
64.699401375786977
 30
0.0
 70
    32
  0
VERTEX
  5
931C
  8
AM_0
 10
438.08581330964302
 20
64.69830137578677
 30
0.0
 70
    32
  0
VERTEX
  5
931D
  8
AM_0
 10
438.08981330964298
 20
64.697101375786701
 30
0.0
 70
    32
  0
VERTEX
  5
931E
  8
AM_0
 10
438.09381330964311
 20
64.696001375786679
 30
0.0
 70
    32
  0
VERTEX
  5
931F
  8
AM_0
 10
438.09781330964319
 20
64.694901375786969
 30
0.0
 70
    32
  0
VERTEX
  5
9320
  8
AM_0
 10
438.10281330964312
 20
64.69380137578689
 30
0.0
 70
    32
  0
VERTEX
  5
9321
  8
AM_0
 10
438.1068133096432
 20
64.692701375786783
 30
0.0
 70
    32
  0
VERTEX
  5
9322
  8
AM_0
 10
438.11081330964299
 20
64.691601375786718
 30
0.0
 70
    32
  0
VERTEX
  5
9323
  8
AM_0
 10
438.11481330964313
 20
64.690501375786795
 30
0.0
 70
    32
  0
VERTEX
  5
9324
  8
AM_0
 10
438.11981330964318
 20
64.689501375786719
 30
0.0
 70
    32
  0
VERTEX
  5
9325
  8
AM_0
 10
438.12381330964303
 20
64.688401375786782
 30
0.0
 70
    32
  0
VERTEX
  5
9326
  8
AM_0
 10
438.1278133096431
 20
64.687301375786774
 30
0.0
 70
    32
  0
VERTEX
  5
9327
  8
AM_0
 10
438.13181330964312
 20
64.686201375786482
 30
0.0
 70
    32
  0
VERTEX
  5
9328
  8
AM_0
 10
438.13581330964331
 20
64.685201375786775
 30
0.0
 70
    32
  0
VERTEX
  5
9329
  8
AM_0
 10
438.14081330964308
 20
64.68410137578671
 30
0.0
 70
    32
  0
VERTEX
  5
932A
  8
AM_0
 10
438.14481330964333
 20
64.683101375786691
 30
0.0
 70
    32
  0
VERTEX
  5
932B
  8
AM_0
 10
438.14881330964312
 20
64.682001375786754
 30
0.0
 70
    32
  0
VERTEX
  5
932C
  8
AM_0
 10
438.15281330964308
 20
64.681001375786792
 30
0.0
 70
    32
  0
VERTEX
  5
932D
  8
AM_0
 10
438.1568133096431
 20
64.679901375786386
 30
0.0
 70
    32
  0
VERTEX
  5
932E
  8
AM_0
 10
438.16181330964309
 20
64.67890137578668
 30
0.0
 70
    32
  0
VERTEX
  5
932F
  8
AM_0
 10
438.16581330964311
 20
64.677901375786774
 30
0.0
 70
    32
  0
VERTEX
  5
9330
  8
AM_0
 10
438.16981330964302
 20
64.67680137578671
 30
0.0
 70
    32
  0
VERTEX
  5
9331
  8
AM_0
 10
438.17381330964321
 20
64.675801375786705
 30
0.0
 70
    32
  0
VERTEX
  5
9332
  8
AM_0
 10
438.17881330964309
 20
64.674801375786785
 30
0.0
 70
    32
  0
VERTEX
  5
9333
  8
AM_0
 10
438.18281330964322
 20
64.67380137578678
 30
0.0
 70
    32
  0
VERTEX
  5
9334
  8
AM_0
 10
438.18681330964301
 20
64.672801375786975
 30
0.0
 70
    32
  0
VERTEX
  5
9335
  8
AM_0
 10
438.19081330964292
 20
64.671801375786714
 30
0.0
 70
    32
  0
VERTEX
  5
9336
  8
AM_0
 10
438.19481330964322
 20
64.670801375786795
 30
0.0
 70
    32
  0
VERTEX
  5
9337
  8
AM_0
 10
438.1998133096431
 20
64.669801375786719
 30
0.0
 70
    32
  0
VERTEX
  5
9338
  8
AM_0
 10
438.20381330964318
 20
64.66880137578697
 30
0.0
 70
    32
  0
VERTEX
  5
9339
  8
AM_0
 10
438.20781330964297
 20
64.667801375786709
 30
0.0
 70
    32
  0
VERTEX
  5
933A
  8
AM_0
 10
438.21181330964311
 20
64.666901375786679
 30
0.0
 70
    32
  0
VERTEX
  5
933B
  8
AM_0
 10
438.21681330964299
 20
64.665901375786774
 30
0.0
 70
    32
  0
VERTEX
  5
933C
  8
AM_0
 10
438.22081330964312
 20
64.664901375786769
 30
0.0
 70
    32
  0
VERTEX
  5
933D
  8
AM_0
 10
438.2248133096432
 20
64.664001375786768
 30
0.0
 70
    32
  0
VERTEX
  5
933E
  8
AM_0
 10
438.22881330964287
 20
64.663001375786891
 30
0.0
 70
    32
  0
VERTEX
  5
933F
  8
AM_0
 10
438.2338133096431
 20
64.662001375786971
 30
0.0
 70
    32
  0
VERTEX
  5
9340
  8
AM_0
 10
438.23781330964289
 20
64.66110137578697
 30
0.0
 70
    32
  0
VERTEX
  5
9341
  8
AM_0
 10
438.24181330964319
 20
64.660101375786695
 30
0.0
 70
    32
  0
VERTEX
  5
9342
  8
AM_0
 10
438.2458133096431
 20
64.659201375786679
 30
0.0
 70
    32
  0
VERTEX
  5
9343
  8
AM_0
 10
438.25081330964332
 20
64.658301375786692
 30
0.0
 70
    32
  0
VERTEX
  5
9344
  8
AM_0
 10
438.25481330964311
 20
64.657301375786716
 30
0.0
 70
    32
  0
VERTEX
  5
9345
  8
AM_0
 10
438.25881330964381
 20
64.656401375786714
 30
0.0
 70
    32
  0
VERTEX
  5
9346
  8
AM_0
 10
438.26281330964309
 20
64.65550137578677
 30
0.0
 70
    32
  0
VERTEX
  5
9347
  8
AM_0
 10
438.26781330964309
 20
64.654601375786712
 30
0.0
 70
    32
  0
VERTEX
  5
9348
  8
AM_0
 10
438.27181330964311
 20
64.65370137578671
 30
0.0
 70
    32
  0
VERTEX
  5
9349
  8
AM_0
 10
438.27581330964301
 20
64.652801375786709
 30
0.0
 70
    32
  0
VERTEX
  5
934A
  8
AM_0
 10
438.27981330964309
 20
64.651901375786693
 30
0.0
 70
    32
  0
VERTEX
  5
934B
  8
AM_0
 10
438.28481330964303
 20
64.65100137578662
 30
0.0
 70
    32
  0
VERTEX
  5
934C
  8
AM_0
 10
438.2888133096431
 20
64.650101375786704
 30
0.0
 70
    32
  0
VERTEX
  5
934D
  8
AM_0
 10
438.29281330964318
 20
64.649201375786703
 30
0.0
 70
    32
  0
VERTEX
  5
934E
  8
AM_0
 10
438.2968133096436
 20
64.648301375786701
 30
0.0
 70
    32
  0
VERTEX
  5
934F
  8
AM_0
 10
438.30181330964319
 20
64.6474013757867
 30
0.0
 70
    32
  0
VERTEX
  5
9350
  8
AM_0
 10
438.30581330964287
 20
64.646501375786698
 30
0.0
 70
    32
  0
VERTEX
  5
9351
  8
AM_0
 10
438.30981330964318
 20
64.6457013757867
 30
0.0
 70
    32
  0
VERTEX
  5
9352
  8
AM_0
 10
438.31381330964302
 20
64.644801375786699
 30
0.0
 70
    32
  0
VERTEX
  5
9353
  8
AM_0
 10
438.31881330964319
 20
64.643901375786712
 30
0.0
 70
    32
  0
VERTEX
  5
9354
  8
AM_0
 10
438.32281330964298
 20
64.643101375786969
 30
0.0
 70
    32
  0
VERTEX
  5
9355
  8
AM_0
 10
438.326813309643
 20
64.642201375786954
 30
0.0
 70
    32
  0
VERTEX
  5
9356
  8
AM_0
 10
438.33081330964319
 20
64.6414013757867
 30
0.0
 70
    32
  0
VERTEX
  5
9357
  8
AM_0
 10
438.33581330964307
 20
64.640501375786698
 30
0.0
 70
    32
  0
VERTEX
  5
9358
  8
AM_0
 10
438.33981330964309
 20
64.639701375786785
 30
0.0
 70
    32
  0
VERTEX
  5
9359
  8
AM_0
 10
438.34381330964311
 20
64.638801375786784
 30
0.0
 70
    32
  0
VERTEX
  5
935A
  8
AM_0
 10
438.34781330964307
 20
64.6380013757867
 30
0.0
 70
    32
  0
VERTEX
  5
935B
  8
AM_0
 10
438.35281330964312
 20
64.637201375786788
 30
0.0
 70
    32
  0
VERTEX
  5
935C
  8
AM_0
 10
438.3568133096432
 20
64.63640137578696
 30
0.0
 70
    32
  0
VERTEX
  5
935D
  8
AM_0
 10
438.36081330964311
 20
64.635501375786959
 30
0.0
 70
    32
  0
VERTEX
  5
935E
  8
AM_0
 10
438.36581330964327
 20
64.634701375786719
 30
0.0
 70
    32
  0
VERTEX
  5
935F
  8
AM_0
 10
438.36981330964312
 20
64.633901375786792
 30
0.0
 70
    32
  0
VERTEX
  5
9360
  8
AM_0
 10
438.37381330964303
 20
64.633101375786893
 30
0.0
 70
    32
  0
VERTEX
  5
9361
  8
AM_0
 10
438.37781330964322
 20
64.632301375786966
 30
0.0
 70
    32
  0
VERTEX
  5
9362
  8
AM_0
 10
438.3828133096431
 20
64.631501375786769
 30
0.0
 70
    32
  0
VERTEX
  5
9363
  8
AM_0
 10
438.38681330964317
 20
64.630701375786714
 30
0.0
 70
    32
  0
VERTEX
  5
9364
  8
AM_0
 10
438.39081330964302
 20
64.629901375786773
 30
0.0
 70
    32
  0
VERTEX
  5
9365
  8
AM_0
 10
438.3948133096431
 20
64.629101375786774
 30
0.0
 70
    32
  0
VERTEX
  5
9366
  8
AM_0
 10
438.39981330964298
 20
64.62830137578689
 30
0.0
 70
    32
  0
VERTEX
  5
9367
  8
AM_0
 10
438.40381330964311
 20
64.627601375786782
 30
0.0
 70
    32
  0
VERTEX
  5
9368
  8
AM_0
 10
438.40781330964319
 20
64.626801375786783
 30
0.0
 70
    32
  0
VERTEX
  5
9369
  8
AM_0
 10
438.41281330964313
 20
64.62600137578697
 30
0.0
 70
    32
  0
VERTEX
  5
936A
  8
AM_0
 10
438.41681330964309
 20
64.625201375786702
 30
0.0
 70
    32
  0
VERTEX
  5
936B
  8
AM_0
 10
438.42081330964288
 20
64.624501375786792
 30
0.0
 70
    32
  0
VERTEX
  5
936C
  8
AM_0
 10
438.42481330964318
 20
64.623701375786709
 30
0.0
 70
    32
  0
VERTEX
  5
936D
  8
AM_0
 10
438.42981330964312
 20
64.623001375786714
 30
0.0
 70
    32
  0
VERTEX
  5
936E
  8
AM_0
 10
438.43381330964331
 20
64.622201375786773
 30
0.0
 70
    32
  0
VERTEX
  5
936F
  8
AM_0
 10
438.4378133096431
 20
64.621501375786977
 30
0.0
 70
    32
  0
VERTEX
  5
9370
  8
AM_0
 10
438.44281330964333
 20
64.620701375786695
 30
0.0
 70
    32
  0
VERTEX
  5
9371
  8
AM_0
 10
438.44681330964312
 20
64.620001375786785
 30
0.0
 70
    32
  0
VERTEX
  5
9372
  8
AM_0
 10
438.45081330964308
 20
64.61930137578679
 30
0.0
 70
    32
  0
VERTEX
  5
9373
  8
AM_0
 10
438.4548133096431
 20
64.618501375786721
 30
0.0
 70
    32
  0
VERTEX
  5
9374
  8
AM_0
 10
438.4598133096431
 20
64.617801375786769
 30
0.0
 70
    32
  0
VERTEX
  5
9375
  8
AM_0
 10
438.46381330964311
 20
64.617101375786774
 30
0.0
 70
    32
  0
VERTEX
  5
9376
  8
AM_0
 10
438.46781330964302
 20
64.61640137578668
 30
0.0
 70
    32
  0
VERTEX
  5
9377
  8
AM_0
 10
438.47281330964307
 20
64.61560137578671
 30
0.0
 70
    32
  0
VERTEX
  5
9378
  8
AM_0
 10
438.47681330964298
 20
64.614901375786701
 30
0.0
 70
    32
  0
VERTEX
  5
9379
  8
AM_0
 10
438.48081330964322
 20
64.61420137578672
 30
0.0
 70
    32
  0
VERTEX
  5
937A
  8
AM_0
 10
438.48481330964319
 20
64.613501375786754
 30
0.0
 70
    32
  0
VERTEX
  5
937B
  8
AM_0
 10
438.48981330964313
 20
64.612801375786717
 30
0.0
 70
    32
  0
VERTEX
  5
937C
  8
AM_0
 10
438.4938133096432
 20
64.612101375786779
 30
0.0
 70
    32
  0
VERTEX
  5
937D
  8
AM_0
 10
438.49781330964311
 20
64.611401375786784
 30
0.0
 70
    32
  0
VERTEX
  5
937E
  8
AM_0
 10
438.5028133096431
 20
64.610801375786792
 30
0.0
 70
    32
  0
VERTEX
  5
937F
  8
AM_0
 10
438.50681330964312
 20
64.610101375786712
 30
0.0
 70
    32
  0
VERTEX
  5
9380
  8
AM_0
 10
438.5108133096432
 20
64.609401375786774
 30
0.0
 70
    32
  0
VERTEX
  5
9381
  8
AM_0
 10
438.51481330964299
 20
64.608701375786779
 30
0.0
 70
    32
  0
VERTEX
  5
9382
  8
AM_0
 10
438.5198133096431
 20
64.608001375786898
 30
0.0
 70
    32
  0
VERTEX
  5
9383
  8
AM_0
 10
438.523813309643
 20
64.607401375786708
 30
0.0
 70
    32
  0
VERTEX
  5
9384
  8
AM_0
 10
438.52781330964308
 20
64.60670137578677
 30
0.0
 70
    32
  0
VERTEX
  5
9385
  8
AM_0
 10
438.53281330964307
 20
64.606101375786679
 30
0.0
 70
    32
  0
VERTEX
  5
9386
  8
AM_0
 10
438.53681330964309
 20
64.605401375786784
 30
0.0
 70
    32
  0
VERTEX
  5
9387
  8
AM_0
 10
438.54081330964311
 20
64.604701375786703
 30
0.0
 70
    32
  0
VERTEX
  5
9388
  8
AM_0
 10
438.54481330964308
 20
64.604101375786755
 30
0.0
 70
    32
  0
VERTEX
  5
9389
  8
AM_0
 10
438.54981330964313
 20
64.603501375786891
 30
0.0
 70
    32
  0
VERTEX
  5
938A
  8
AM_0
 10
438.55381330964309
 20
64.602801375786711
 30
0.0
 70
    32
  0
VERTEX
  5
938B
  8
AM_0
 10
438.55781330964322
 20
64.602201375786791
 30
0.0
 70
    32
  0
VERTEX
  5
938C
  8
AM_0
 10
438.5628133096431
 20
64.601501375786711
 30
0.0
 70
    32
  0
VERTEX
  5
938D
  8
AM_0
 10
438.56681330964312
 20
64.600901375786776
 30
0.0
 70
    32
  0
VERTEX
  5
938E
  8
AM_0
 10
438.57081330964297
 20
64.600301375786685
 30
0.0
 70
    32
  0
VERTEX
  5
938F
  8
AM_0
 10
438.57581330964302
 20
64.599701375786793
 30
0.0
 70
    32
  0
VERTEX
  5
9390
  8
AM_0
 10
438.5798133096431
 20
64.599101375786773
 30
0.0
 70
    32
  0
VERTEX
  5
9391
  8
AM_0
 10
438.58381330964312
 20
64.598401375786779
 30
0.0
 70
    32
  0
VERTEX
  5
9392
  8
AM_0
 10
438.58881330964317
 20
64.597801375786901
 30
0.0
 70
    32
  0
VERTEX
  5
9393
  8
AM_0
 10
438.59281330964302
 20
64.597201375786895
 30
0.0
 70
    32
  0
VERTEX
  5
9394
  8
AM_0
 10
438.5968133096431
 20
64.596601375786889
 30
0.0
 70
    32
  0
VERTEX
  5
9395
  8
AM_0
 10
438.60081330964317
 20
64.596001375786784
 30
0.0
 70
    32
  0
VERTEX
  5
9396
  8
AM_0
 10
438.60581330964311
 20
64.595401375786963
 30
0.0
 70
    32
  0
VERTEX
  5
9397
  8
AM_0
 10
438.60981330964319
 20
64.594801375786773
 30
0.0
 70
    32
  0
VERTEX
  5
9398
  8
AM_0
 10
438.61381330964292
 20
64.594201375786781
 30
0.0
 70
    32
  0
VERTEX
  5
9399
  8
AM_0
 10
438.6188133096432
 20
64.593701375786793
 30
0.0
 70
    32
  0
VERTEX
  5
939A
  8
AM_0
 10
438.62281330964288
 20
64.593101375786716
 30
0.0
 70
    32
  0
VERTEX
  5
939B
  8
AM_0
 10
438.62681330964313
 20
64.592501375786711
 30
0.0
 70
    32
  0
VERTEX
  5
939C
  8
AM_0
 10
438.63181330964301
 20
64.59190137578662
 30
0.0
 70
    32
  0
VERTEX
  5
939D
  8
AM_0
 10
438.6358133096432
 20
64.591401375786774
 30
0.0
 70
    32
  0
VERTEX
  5
939E
  8
AM_0
 10
438.6398133096431
 20
64.590801375786782
 30
0.0
 70
    32
  0
VERTEX
  5
939F
  8
AM_0
 10
438.64381330964312
 20
64.590201375786464
 30
0.0
 70
    32
  0
VERTEX
  5
93A0
  8
AM_0
 10
438.64881330964312
 20
64.589701375786774
 30
0.0
 70
    32
  0
VERTEX
  5
93A1
  8
AM_0
 10
438.65281330964302
 20
64.589101375786896
 30
0.0
 70
    32
  0
VERTEX
  5
93A2
  8
AM_0
 10
438.6568133096431
 20
64.588601375786709
 30
0.0
 70
    32
  0
VERTEX
  5
93A3
  8
AM_0
 10
438.66181330964309
 20
64.588001375786462
 30
0.0
 70
    32
  0
VERTEX
  5
93A4
  8
AM_0
 10
438.66581330964311
 20
64.587501375786388
 30
0.0
 70
    32
  0
VERTEX
  5
93A5
  8
AM_0
 10
438.66981330964302
 20
64.58700137578677
 30
0.0
 70
    32
  0
VERTEX
  5
93A6
  8
AM_0
 10
438.67481330964313
 20
64.586401375786892
 30
0.0
 70
    32
  0
VERTEX
  5
93A7
  8
AM_0
 10
438.67881330964298
 20
64.585901375786719
 30
0.0
 70
    32
  0
VERTEX
  5
93A8
  8
AM_0
 10
438.68281330964322
 20
64.585401375786773
 30
0.0
 70
    32
  0
VERTEX
  5
93A9
  8
AM_0
 10
438.6878133096431
 20
64.584801375786455
 30
0.0
 70
    32
  0
VERTEX
  5
93AA
  8
AM_0
 10
438.69181330964312
 20
64.584301375786708
 30
0.0
 70
    32
  0
VERTEX
  5
93AB
  8
AM_0
 10
438.6958133096432
 20
64.583801375786777
 30
0.0
 70
    32
  0
VERTEX
  5
93AC
  8
AM_0
 10
438.70081330964302
 20
64.583301375786789
 30
0.0
 70
    32
  0
VERTEX
  5
93AD
  8
AM_0
 10
438.7048133096431
 20
64.582801375786886
 30
0.0
 70
    32
  0
VERTEX
  5
93AE
  8
AM_0
 10
438.70881330964312
 20
64.582301375786699
 30
0.0
 70
    32
  0
VERTEX
  5
93AF
  8
AM_0
 10
438.71381330964311
 20
64.581801375786711
 30
0.0
 70
    32
  0
VERTEX
  5
93B0
  8
AM_0
 10
438.71781330964308
 20
64.581301375786765
 30
0.0
 70
    32
  0
VERTEX
  5
93B1
  8
AM_0
 10
438.7218133096431
 20
64.58080137578645
 30
0.0
 70
    32
  0
VERTEX
  5
93B2
  8
AM_0
 10
438.725813309643
 20
64.580301375786703
 30
0.0
 70
    32
  0
VERTEX
  5
93B3
  8
AM_0
 10
438.73081330964311
 20
64.579801375786701
 30
0.0
 70
    32
  0
VERTEX
  5
93B4
  8
AM_0
 10
438.73481330964307
 20
64.579401375786716
 30
0.0
 70
    32
  0
VERTEX
  5
93B5
  8
AM_0
 10
438.73881330964309
 20
64.5789013757867
 30
0.0
 70
    32
  0
VERTEX
  5
93B6
  8
AM_0
 10
438.7438133096432
 20
64.578401375786711
 30
0.0
 70
    32
  0
VERTEX
  5
93B7
  8
AM_0
 10
438.74781330964311
 20
64.578001375786684
 30
0.0
 70
    32
  0
VERTEX
  5
93B8
  8
AM_0
 10
438.75181330964313
 20
64.57750137578671
 30
0.0
 70
    32
  0
VERTEX
  5
93B9
  8
AM_0
 10
438.75681330964312
 20
64.577001375786779
 30
0.0
 70
    32
  0
VERTEX
  5
93BA
  8
AM_0
 10
438.76081330964308
 20
64.57660137578668
 30
0.0
 70
    32
  0
VERTEX
  5
93BB
  8
AM_0
 10
438.76481330964322
 20
64.576201375786781
 30
0.0
 70
    32
  0
VERTEX
  5
93BC
  8
AM_0
 10
438.7698133096431
 20
64.575701375786622
 30
0.0
 70
    32
  0
VERTEX
  5
93BD
  8
AM_0
 10
438.77381330964317
 20
64.57530137578668
 30
0.0
 70
    32
  0
VERTEX
  5
93BE
  8
AM_0
 10
438.77781330964302
 20
64.57480137578672
 30
0.0
 70
    32
  0
VERTEX
  5
93BF
  8
AM_0
 10
438.78281330964319
 20
64.574401375786692
 30
0.0
 70
    32
  0
VERTEX
  5
93C0
  8
AM_0
 10
438.78681330964292
 20
64.574001375786679
 30
0.0
 70
    32
  0
VERTEX
  5
93C1
  8
AM_0
 10
438.79081330964323
 20
64.573601375786779
 30
0.0
 70
    32
  0
VERTEX
  5
93C2
  8
AM_0
 10
438.79581330964311
 20
64.57310137578672
 30
0.0
 70
    32
  0
VERTEX
  5
93C3
  8
AM_0
 10
438.79981330964318
 20
64.572701375786778
 30
0.0
 70
    32
  0
VERTEX
  5
93C4
  8
AM_0
 10
438.80381330964298
 20
64.572301375786793
 30
0.0
 70
    32
  0
VERTEX
  5
93C5
  8
AM_0
 10
438.8088133096432
 20
64.571901375786695
 30
0.0
 70
    32
  0
VERTEX
  5
93C6
  8
AM_0
 10
438.81281330964299
 20
64.571501375786966
 30
0.0
 70
    32
  0
VERTEX
  5
93C7
  8
AM_0
 10
438.81681330964312
 20
64.571101375786895
 30
0.0
 70
    32
  0
VERTEX
  5
93C8
  8
AM_0
 10
438.82181330964301
 20
64.570701375786712
 30
0.0
 70
    32
  0
VERTEX
  5
93C9
  8
AM_0
 10
438.82581330964308
 20
64.570401375786702
 30
0.0
 70
    32
  0
VERTEX
  5
93CA
  8
AM_0
 10
438.8298133096431
 20
64.570001375786774
 30
0.0
 70
    32
  0
VERTEX
  5
93CB
  8
AM_0
 10
438.8348133096431
 20
64.569601375786789
 30
0.0
 70
    32
  0
VERTEX
  5
93CC
  8
AM_0
 10
438.83881330964311
 20
64.56920137578669
 30
0.0
 70
    32
  0
VERTEX
  5
93CD
  8
AM_0
 10
438.84281330964302
 20
64.568901375786893
 30
0.0
 70
    32
  0
VERTEX
  5
93CE
  8
AM_0
 10
438.84781330964307
 20
64.568501375786781
 30
0.0
 70
    32
  0
VERTEX
  5
93CF
  8
AM_0
 10
438.85181330964321
 20
64.568101375786711
 30
0.0
 70
    32
  0
VERTEX
  5
93D0
  8
AM_0
 10
438.85581330964322
 20
64.567801375786786
 30
0.0
 70
    32
  0
VERTEX
  5
93D1
  8
AM_0
 10
438.86081330964322
 20
64.567401375786773
 30
0.0
 70
    32
  0
VERTEX
  5
93D2
  8
AM_0
 10
438.86481330964313
 20
64.56710137578672
 30
0.0
 70
    32
  0
VERTEX
  5
93D3
  8
AM_0
 10
438.86881330964297
 20
64.56680137578671
 30
0.0
 70
    32
  0
VERTEX
  5
93D4
  8
AM_0
 10
438.87381330964303
 20
64.566401375786768
 30
0.0
 70
    32
  0
VERTEX
  5
93D5
  8
AM_0
 10
438.8778133096431
 20
64.566101375786971
 30
0.0
 70
    32
  0
VERTEX
  5
93D6
  8
AM_0
 10
438.88181330964312
 20
64.565801375786975
 30
0.0
 70
    32
  0
VERTEX
  5
93D7
  8
AM_0
 10
438.88681330964317
 20
64.565501375786795
 30
0.0
 70
    32
  0
VERTEX
  5
93D8
  8
AM_0
 10
438.89081330964302
 20
64.565101375786782
 30
0.0
 70
    32
  0
VERTEX
  5
93D9
  8
AM_0
 10
438.8948133096431
 20
64.564801375786885
 30
0.0
 70
    32
  0
VERTEX
  5
93DA
  8
AM_0
 10
438.89981330964298
 20
64.56450137578679
 30
0.0
 70
    32
  0
VERTEX
  5
93DB
  8
AM_0
 10
438.903813309643
 20
64.56420137578678
 30
0.0
 70
    32
  0
VERTEX
  5
93DC
  8
AM_0
 10
438.90781330964319
 20
64.563901375786969
 30
0.0
 70
    32
  0
VERTEX
  5
93DD
  8
AM_0
 10
438.91281330964313
 20
64.563601375786703
 30
0.0
 70
    32
  0
VERTEX
  5
93DE
  8
AM_0
 10
438.91681330964309
 20
64.563301375786779
 30
0.0
 70
    32
  0
VERTEX
  5
93DF
  8
AM_0
 10
438.92081330964288
 20
64.563001375786882
 30
0.0
 70
    32
  0
VERTEX
  5
93E0
  8
AM_0
 10
438.9258133096431
 20
64.562701375786702
 30
0.0
 70
    32
  0
VERTEX
  5
93E1
  8
AM_0
 10
438.92981330964301
 20
64.562501375786965
 30
0.0
 70
    32
  0
VERTEX
  5
93E2
  8
AM_0
 10
438.9338133096432
 20
64.562201375786714
 30
0.0
 70
    32
  0
VERTEX
  5
93E3
  8
AM_0
 10
438.93881330964308
 20
64.561901375786789
 30
0.0
 70
    32
  0
VERTEX
  5
93E4
  8
AM_0
 10
438.94281330964333
 20
64.561601375786978
 30
0.0
 70
    32
  0
VERTEX
  5
93E5
  8
AM_0
 10
438.94681330964312
 20
64.561401375786716
 30
0.0
 70
    32
  0
VERTEX
  5
93E6
  8
AM_0
 10
438.95181330964289
 20
64.56110137578662
 30
0.0
 70
    32
  0
VERTEX
  5
93E7
  8
AM_0
 10
438.95581330964302
 20
64.560901375786784
 30
0.0
 70
    32
  0
VERTEX
  5
93E8
  8
AM_0
 10
438.9598133096431
 20
64.560601375786774
 30
0.0
 70
    32
  0
VERTEX
  5
93E9
  8
AM_0
 10
438.96481330964298
 20
64.560401375786711
 30
0.0
 70
    32
  0
VERTEX
  5
93EA
  8
AM_0
 10
438.96881330964311
 20
64.560101375786701
 30
0.0
 70
    32
  0
VERTEX
  5
93EB
  8
AM_0
 10
438.97281330964319
 20
64.559901375786978
 30
0.0
 70
    32
  0
VERTEX
  5
93EC
  8
AM_0
 10
438.97781330964312
 20
64.559601375786713
 30
0.0
 70
    32
  0
VERTEX
  5
93ED
  8
AM_0
 10
438.9818133096432
 20
64.559401375786891
 30
0.0
 70
    32
  0
VERTEX
  5
93EE
  8
AM_0
 10
438.98581330964311
 20
64.559201375786699
 30
0.0
 70
    32
  0
VERTEX
  5
93EF
  8
AM_0
 10
438.9908133096431
 20
64.559001375786764
 30
0.0
 70
    32
  0
VERTEX
  5
93F0
  8
AM_0
 10
438.99481330964318
 20
64.558701375786711
 30
0.0
 70
    32
  0
VERTEX
  5
93F1
  8
AM_0
 10
438.99881330964303
 20
64.55850137578696
 30
0.0
 70
    32
  0
VERTEX
  5
93F2
  8
AM_0
 10
439.00381330964319
 20
64.558301375786684
 30
0.0
 70
    32
  0
VERTEX
  5
93F3
  8
AM_0
 10
439.00781330964293
 20
64.558101375786691
 30
0.0
 70
    32
  0
VERTEX
  5
93F4
  8
AM_0
 10
439.01181330964312
 20
64.55790137578677
 30
0.0
 70
    32
  0
VERTEX
  5
93F5
  8
AM_0
 10
439.01681330964288
 20
64.557701375786721
 30
0.0
 70
    32
  0
VERTEX
  5
93F6
  8
AM_0
 10
439.02081330964307
 20
64.557501375786785
 30
0.0
 70
    32
  0
VERTEX
  5
93F7
  8
AM_0
 10
439.02481330964309
 20
64.557301375786679
 30
0.0
 70
    32
  0
VERTEX
  5
93F8
  8
AM_0
 10
439.02981330964332
 20
64.557101375786971
 30
0.0
 70
    32
  0
VERTEX
  5
93F9
  8
AM_0
 10
439.03381330964311
 20
64.55690137578668
 30
0.0
 70
    32
  0
VERTEX
  5
93FA
  8
AM_0
 10
439.03781330964301
 20
64.556701375786957
 30
0.0
 70
    32
  0
VERTEX
  5
93FB
  8
AM_0
 10
439.04281330964312
 20
64.55650137578678
 30
0.0
 70
    32
  0
VERTEX
  5
93FC
  8
AM_0
 10
439.04681330964382
 20
64.556301375786774
 30
0.0
 70
    32
  0
VERTEX
  5
93FD
  8
AM_0
 10
439.0508133096431
 20
64.556201375786969
 30
0.0
 70
    32
  0
VERTEX
  5
93FE
  8
AM_0
 10
439.0558133096431
 20
64.556001375786622
 30
0.0
 70
    32
  0
VERTEX
  5
93FF
  8
AM_0
 10
439.05981330964312
 20
64.555801375786785
 30
0.0
 70
    32
  0
VERTEX
  5
9400
  8
AM_0
 10
439.06481330964311
 20
64.555701375786711
 30
0.0
 70
    32
  0
VERTEX
  5
9401
  8
AM_0
 10
439.06881330964308
 20
64.555501375786775
 30
0.0
 70
    32
  0
VERTEX
  5
9402
  8
AM_0
 10
439.07281330964298
 20
64.555301375786968
 30
0.0
 70
    32
  0
VERTEX
  5
9403
  8
AM_0
 10
439.07781330964309
 20
64.555201375786794
 30
0.0
 70
    32
  0
VERTEX
  5
9404
  8
AM_0
 10
439.08181330964311
 20
64.555001375786702
 30
0.0
 70
    32
  0
VERTEX
  5
9405
  8
AM_0
 10
439.08581330964302
 20
64.554901375786784
 30
0.0
 70
    32
  0
VERTEX
  5
9406
  8
AM_0
 10
439.09081330964318
 20
64.554701375786692
 30
0.0
 70
    32
  0
VERTEX
  5
9407
  8
AM_0
 10
439.0948133096428
 20
64.554601375786774
 30
0.0
 70
    32
  0
VERTEX
  5
9408
  8
AM_0
 10
439.09881330964311
 20
64.554501375786714
 30
0.0
 70
    32
  0
VERTEX
  5
9409
  8
AM_0
 10
439.10381330964282
 20
64.554301375786892
 30
0.0
 70
    32
  0
VERTEX
  5
940A
  8
AM_0
 10
439.10781330964312
 20
64.554201375786704
 30
0.0
 70
    32
  0
VERTEX
  5
940B
  8
AM_0
 10
439.11181330964308
 20
64.554101375786615
 30
0.0
 70
    32
  0
VERTEX
  5
940C
  8
AM_0
 10
439.11681330964319
 20
64.554001375786896
 30
0.0
 70
    32
  0
VERTEX
  5
940D
  8
AM_0
 10
439.1208133096431
 20
64.553901375786779
 30
0.0
 70
    32
  0
VERTEX
  5
940E
  8
AM_0
 10
439.12481330964289
 20
64.553801375786691
 30
0.0
 70
    32
  0
VERTEX
  5
940F
  8
AM_0
 10
439.12981330964311
 20
64.553601375786769
 30
0.0
 70
    32
  0
VERTEX
  5
9410
  8
AM_0
 10
439.13381330964302
 20
64.553501375786965
 30
0.0
 70
    32
  0
VERTEX
  5
9411
  8
AM_0
 10
439.13781330964309
 20
64.553401375786791
 30
0.0
 70
    32
  0
VERTEX
  5
9412
  8
AM_0
 10
439.14281330964309
 20
64.553301375786702
 30
0.0
 70
    32
  0
VERTEX
  5
9413
  8
AM_0
 10
439.14681330964311
 20
64.553301375786702
 30
0.0
 70
    32
  0
VERTEX
  5
9414
  8
AM_0
 10
439.15081330964301
 20
64.553201375786699
 30
0.0
 70
    32
  0
VERTEX
  5
9415
  8
AM_0
 10
439.15581330964312
 20
64.553101375786966
 30
0.0
 70
    32
  0
VERTEX
  5
9416
  8
AM_0
 10
439.15981330964303
 20
64.553001375786778
 30
0.0
 70
    32
  0
VERTEX
  5
9417
  8
AM_0
 10
439.16381330964322
 20
64.552901375786703
 30
0.0
 70
    32
  0
VERTEX
  5
9418
  8
AM_0
 10
439.1688133096431
 20
64.552901375786703
 30
0.0
 70
    32
  0
VERTEX
  5
9419
  8
AM_0
 10
439.172813309643
 20
64.552801375786771
 30
0.0
 70
    32
  0
VERTEX
  5
941A
  8
AM_0
 10
439.17681330964319
 20
64.552701375786881
 30
0.0
 70
    32
  0
VERTEX
  5
941B
  8
AM_0
 10
439.18181330964302
 20
64.552701375786881
 30
0.0
 70
    32
  0
VERTEX
  5
941C
  8
AM_0
 10
439.18581330964309
 20
64.552601375786963
 30
0.0
 70
    32
  0
VERTEX
  5
941D
  8
AM_0
 10
439.19081330964281
 20
64.55250137578679
 30
0.0
 70
    32
  0
VERTEX
  5
941E
  8
AM_0
 10
439.19481330964311
 20
64.55250137578679
 30
0.0
 70
    32
  0
VERTEX
  5
941F
  8
AM_0
 10
439.19881330964313
 20
64.552401375786701
 30
0.0
 70
    32
  0
VERTEX
  5
9420
  8
AM_0
 10
439.20381330964312
 20
64.552401375786701
 30
0.0
 70
    32
  0
VERTEX
  5
9421
  8
AM_0
 10
439.20781330964309
 20
64.552301375786712
 30
0.0
 70
    32
  0
VERTEX
  5
9422
  8
AM_0
 10
439.21181330964311
 20
64.552301375786712
 30
0.0
 70
    32
  0
VERTEX
  5
9423
  8
AM_0
 10
439.2168133096431
 20
64.552201375786979
 30
0.0
 70
    32
  0
VERTEX
  5
9424
  8
AM_0
 10
439.22081330964301
 20
64.552201375786979
 30
0.0
 70
    32
  0
VERTEX
  5
9425
  8
AM_0
 10
439.2248133096432
 20
64.552101375786691
 30
0.0
 70
    32
  0
VERTEX
  5
9426
  8
AM_0
 10
439.22981330964308
 20
64.552101375786691
 30
0.0
 70
    32
  0
VERTEX
  5
9427
  8
AM_0
 10
439.2338133096431
 20
64.552101375786691
 30
0.0
 70
    32
  0
VERTEX
  5
9428
  8
AM_0
 10
439.23781330964312
 20
64.552001375786773
 30
0.0
 70
    32
  0
VERTEX
  5
9429
  8
AM_0
 10
439.24281330964311
 20
64.552001375786773
 30
0.0
 70
    32
  0
VERTEX
  5
942A
  8
AM_0
 10
439.24681330964302
 20
64.551901375786713
 30
0.0
 70
    32
  0
VERTEX
  5
942B
  8
AM_0
 10
439.25081330964309
 20
64.551901375786713
 30
0.0
 70
    32
  0
VERTEX
  5
942C
  8
AM_0
 10
439.25581330964297
 20
64.551901375786713
 30
0.0
 70
    32
  0
VERTEX
  5
942D
  8
AM_0
 10
439.25981330964322
 20
64.551801375786795
 30
0.0
 70
    32
  0
SEQEND
  5
942E
  8
AM_0
  0
LINE
  5
942F
  8
AM_0
 10
449.75986037471682
 20
64.551835053727189
 30
0.0
 11
439.25986037471688
 21
64.551835053727189
 31
0.0
  0
ARC
  5
9430
  8
AM_0
 10
439.25986037471688
 20
56.781986572744422
 30
0.0
 40
2.5
 50
180.0
 51
270.0
  0
LINE
  5
9431
  8
AM_0
 10
436.75986037471682
 20
52.68198657274371
 30
0.0
 11
436.75986037471682
 21
123.6819865727438
 31
0.0
  0
ARC
  5
9432
  8
AM_0
 10
437.25986037471682
 20
52.68198657274371
 30
0.0
 40
0.5
 50
180.0
 51
270.0
  0
LINE
  5
9433
  8
AM_0
 10
439.25986037471688
 20
54.281986572744422
 30
0.0
 11
448.29486037471679
 21
54.281986572744422
 31
0.0
  0
ARC
  5
9434
  8
AM_0
 10
469.75986037471768
 20
113.6819865727421
 30
0.0
 40
1.0
 50
270.0
 51
0.0
  0
LINE
  5
9435
  8
AM_0
 10
473.25986037471768
 20
54.681925787302859
 30
0.0
 11
473.25986037471688
 21
121.68197657274339
 31
0.0
  0
LINE
  5
9436
  8
AM_0
 10
453.75986037471682
 20
112.6819865727421
 30
0.0
 11
453.75986037471682
 21
124.1819865727421
 31
0.0
  0
LINE
  5
9437
  8
AM_0
 10
453.75986037471682
 20
124.1819865727434
 30
0.0
 11
453.75986037471682
 21
93.681986572743497
 31
0.0
  0
ARC
  5
9438
  8
AM_0
 10
469.75986037471768
 20
123.18198657274191
 30
0.0
 40
0.9999999999998864
 50
0.0
 51
90.0
  0
LINE
  5
9439
  8
AM_0
 10
470.75986037471768
 20
121.6819257873029
 30
0.0
 11
473.25986037471688
 21
121.6819257873029
 31
0.0
  0
LINE
  5
943A
  8
AM_0
 10
453.75986037471682
 20
82.681986572743483
 30
0.0
 11
453.75986037471682
 21
52.181986572743881
 31
0.0
  0
LINE
  5
943B
  8
AM_0
 10
469.75986037471768
 20
112.6819865727421
 30
0.0
 11
453.75986037471682
 21
112.6819865727421
 31
0.0
  0
LINE
  5
943C
  8
AM_0
 10
464.04307393448869
 20
93.681986572743796
 30
0.0
 11
464.04307393448869
 21
82.681986572743483
 31
0.0
  0
LINE
  5
943D
  8
AM_0
 10
470.75986037471682
 20
53.181986572742169
 30
0.0
 11
470.75986037471682
 21
123.18198657274191
 31
0.0
  0
LINE
  5
943E
  8
AM_0
 10
453.75986037471682
 20
52.181986572742183
 30
0.0
 11
453.75986037471682
 21
63.681986572742197
 31
0.0
  0
LINE
  5
943F
  8
AM_0
 10
469.75986037471768
 20
63.681986572742197
 30
0.0
 11
453.75986037471682
 21
63.681986572742197
 31
0.0
  0
ARC
  5
9440
  8
AM_0
 10
469.75986037471768
 20
62.681986572742488
 30
0.0
 40
0.9999999999998864
 50
0.0
 51
90.0
  0
ARC
  5
9441
  8
AM_0
 10
469.75986037471768
 20
53.181986572742169
 30
0.0
 40
1.0
 50
270.0
 51
0.0
  0
LINE
  5
9442
  8
AM_0
 10
470.75986037471682
 20
54.681925787302859
 30
0.0
 11
473.00899711034862
 21
54.681925787302859
 31
0.0
  0
LINE
  5
9443
  8
AM_0
 10
484.26973537471702
 20
123.1819605727438
 30
0.0
 11
488.40482137471702
 21
123.1819605727438
 31
0.0
  0
LINE
  5
9489
  8
ﾁｭｳｼﾝｾﾝ
 10
486.06234173106623
 20
88.181986572743696
 30
0.0
 11
609.47713101836746
 21
88.181986572743696
 31
0.0
  0
LINE
  5
96E1
  8
ﾁｭｳｼﾝｾﾝ
 10
13.93900183185087
 20
328.36534942329081
 30
0.0
 11
365.58731537471692
 21
328.36534942329081
 31
0.0
  0
LINE
  5
96E4
  8
AM_0
 10
118.7235153747171
 20
282.01536942329068
 30
0.0
 11
224.7235153747169
 21
282.01536942329068
 31
0.0
  0
LINE
  5
96E5
  8
AM_0
 10
91.393495374717006
 20
295.00535942329083
 30
0.0
 11
185.743535374717
 21
295.00535942329083
 31
0.0
  0
LINE
  5
96E6
  8
AM_0
 10
173.7235153747169
 20
292.3653494232907
 30
0.0
 11
92.259165374716929
 21
292.3653494232907
 31
0.0
  0
LINE
  5
96E7
  8
AM_0
 10
91.393495374717006
 20
291.64537942329071
 30
0.0
 11
173.7235153747169
 21
291.64537942329071
 31
0.0
  0
LINE
  5
96E8
  8
AM_0
 10
100.7235153747171
 20
266.50535942329083
 30
0.0
 11
217.5335153747169
 21
266.50535942329083
 31
0.0
  0
LINE
  5
96E9
  8
AM_0
 10
118.7235153747171
 20
374.71531942329062
 30
0.0
 11
224.7235153747169
 21
374.71531942329062
 31
0.0
  0
LINE
  5
96EA
  8
AM_0
 10
153.1655953747169
 20
314.3653494232907
 30
0.0
 11
83.273505374717203
 21
314.3653494232907
 31
0.0
  0
LINE
  5
96EB
  8
AM_0
 10
100.7235153747171
 20
390.22532942329082
 30
0.0
 11
217.5335153747169
 21
390.22532942329082
 31
0.0
  0
LINE
  5
96EC
  8
AM_0
 10
100.7235153747171
 20
394.28538942329078
 30
0.0
 11
218.80719537471691
 21
394.28538942329078
 31
0.0
  0
LINE
  5
96ED
  8
AM_0
 10
100.7235153747171
 20
393.6153494232907
 30
0.0
 11
218.95117537471691
 21
393.6153494232907
 31
0.0
  0
LINE
  5
96EE
  8
AM_0
 10
100.7235153747171
 20
392.25535942329083
 30
0.0
 11
219.24347537471701
 21
392.25535942329083
 31
0.0
  0
LINE
  5
96EF
  8
AM_0
 10
218.06354537471691
 20
364.3653494232907
 30
0.0
 11
92.273505374717189
 21
364.3653494232907
 31
0.0
  0
LINE
  5
96F0
  8
AM_0
 10
218.0563453747169
 20
352.36534942329081
 30
0.0
 11
92.273505374717189
 21
352.36534942329081
 31
0.0
  0
LINE
  5
96F1
  8
AM_0
 10
153.16223537471689
 20
344.36534942329081
 30
0.0
 11
83.273505374717203
 21
344.36534942329081
 31
0.0
  0
LINE
  5
96F2
  8
AM_0
 10
153.16223537471689
 20
342.3653494232907
 30
0.0
 11
83.273505374717203
 21
342.3653494232907
 31
0.0
  0
LINE
  5
96F3
  8
AM_0
 10
153.1655953747169
 20
334.3653494232907
 30
0.0
 11
83.273505374717203
 21
334.3653494232907
 31
0.0
  0
LINE
  5
96F4
  8
AM_0
 10
153.1655953747169
 20
332.36534942329081
 30
0.0
 11
83.273505374717203
 21
332.36534942329081
 31
0.0
  0
LINE
  5
96F5
  8
AM_0
 10
91.18353537471701
 20
301.88536942329068
 30
0.0
 11
185.7235153747169
 21
301.88536942329068
 31
0.0
  0
LINE
  5
96F6
  8
AM_0
 10
185.7235153747169
 20
294.3653494232907
 30
0.0
 11
92.259165374716929
 21
294.3653494232907
 31
0.0
  0
LINE
  5
96F7
  8
AM_0
 10
91.393495374717006
 20
365.09532942329088
 30
0.0
 11
221.54352537471689
 21
365.09532942329088
 31
0.0
  0
LINE
  5
96F8
  8
AM_0
 10
91.393495374717006
 20
361.73533942329078
 30
0.0
 11
185.743535374717
 21
361.73533942329078
 31
0.0
  0
LINE
  5
96F9
  8
AM_0
 10
91.18353537471701
 20
354.85533942329079
 30
0.0
 11
185.7235153747169
 21
354.85533942329079
 31
0.0
  0
LINE
  5
96FA
  8
AM_0
 10
91.18353537471701
 20
351.93528942329078
 30
0.0
 11
221.75775537471699
 21
351.93528942329078
 31
0.0
  0
LINE
  5
96FB
  8
AM_0
 10
82.053535374717086
 20
344.71531942329079
 30
0.0
 11
154.3947853747168
 21
344.71531942329079
 31
0.0
  0
LINE
  5
96FC
  8
AM_0
 10
82.053535374717086
 20
342.04539942329058
 30
0.0
 11
154.38220537471719
 21
342.04539942329058
 31
0.0
  0
LINE
  5
96FD
  8
AM_0
 10
81.993535374716942
 20
334.64537942329082
 30
0.0
 11
154.45862537471709
 21
334.64537942329082
 31
0.0
  0
LINE
  5
96FE
  8
AM_0
 10
81.993535374716942
 20
332.1053394232909
 30
0.0
 11
154.45862537471709
 21
332.1053394232909
 31
0.0
  0
LINE
  5
96FF
  8
AM_0
 10
81.993535374716942
 20
324.63536942329068
 30
0.0
 11
154.45862537471709
 21
324.63536942329068
 31
0.0
  0
LINE
  5
9700
  8
AM_0
 10
153.1655953747169
 20
322.3653494232907
 30
0.0
 11
83.273505374717203
 21
322.3653494232907
 31
0.0
  0
LINE
  5
9701
  8
AM_0
 10
153.1655953747169
 20
324.36534942329081
 30
0.0
 11
83.273505374717203
 21
324.36534942329081
 31
0.0
  0
LINE
  5
9702
  8
AM_0
 10
82.053535374717086
 20
314.6852894232909
 30
0.0
 11
154.3947853747168
 21
314.6852894232909
 31
0.0
  0
LINE
  5
9703
  8
AM_0
 10
153.1655953747169
 20
312.3653494232907
 30
0.0
 11
83.273505374717203
 21
312.3653494232907
 31
0.0
  0
LINE
  5
9704
  8
AM_0
 10
82.053535374717086
 20
312.02537942329059
 30
0.0
 11
154.3947853747168
 21
312.02537942329059
 31
0.0
  0
LINE
  5
9705
  8
AM_0
 10
218.0563453747169
 20
304.3653494232907
 30
0.0
 11
92.259165374716929
 21
304.3653494232907
 31
0.0
  0
LINE
  5
9706
  8
AM_0
 10
91.18353537471701
 20
304.80528942329079
 30
0.0
 11
221.75775537471699
 21
304.80528942329079
 31
0.0
  0
LINE
  5
9707
  8
AM_0
 10
81.993535374716942
 20
322.09532942329082
 30
0.0
 11
154.45862537471709
 21
322.09532942329082
 31
0.0
  0
LINE
  5
9708
  8
AM_0
 10
185.7235153747169
 20
302.3653494232907
 30
0.0
 11
92.259165374716929
 21
302.3653494232907
 31
0.0
  0
LINE
  5
9709
  8
AM_0
 10
185.7235153747169
 20
362.3653494232907
 30
0.0
 11
92.273505374717189
 21
362.3653494232907
 31
0.0
  0
LINE
  5
970A
  8
AM_0
 10
185.7235153747169
 20
354.3653494232907
 30
0.0
 11
92.273505374717189
 21
354.3653494232907
 31
0.0
  0
LINE
  5
9712
  8
AM_0
 10
77.723515374717124
 20
269.61534942329058
 30
0.0
 11
77.723515374717124
 21
328.36534942329081
 31
0.0
  0
LINE
  5
9745
  8
AM_0
 10
91.421145374717
 20
270.10533942329079
 30
0.0
 11
97.223515374717124
 21
270.10533942329079
 31
0.0
  0
LINE
  5
9746
  8
AM_0
 10
91.483345374716947
 20
275.38536942329068
 30
0.0
 11
97.223515374717124
 21
275.38536942329068
 31
0.0
  0
LINE
  5
9747
  8
AM_0
 10
83.424135374717196
 20
266.69529942329069
 30
0.0
 11
97.466255374717164
 21
266.69529942329069
 31
0.0
  0
LINE
  5
9748
  8
AM_0
 10
118.7235753747172
 20
282.0154294232907
 30
0.0
 11
87.723575374716944
 21
284.0454294232909
 31
0.0
  0
ARC
  5
9749
  8
AM_0
 10
79.551215374716946
 20
269.74705942329069
 30
0.0
 40
1.4982997
 50
14.229740000001179
 51
89.910950000001179
  0
ARC
  5
974A
  8
AM_0
 10
91.620855374717223
 20
272.0923994232906
 30
0.0
 40
1.997119399999999
 50
192.05523999999849
 51
270.19862999999867
  0
LINE
  5
974B
  8
AM_0
 10
81.913515374716937
 20
268.23530942329069
 30
0.0
 11
80.993535374716942
 21
272.11537942329068
 31
0.0
  0
ARC
  5
9751
  8
AM_0
 10
83.860355374717017
 20
268.6959094232908
 30
0.0
 40
2.0005671999999981
 50
193.30958999999899
 51
269.80430999999942
  0
ARC
  5
9752
  8
AM_0
 10
83.424135374717196
 20
268.69529942329069
 30
0.0
 40
2.0
 50
194.15074999999919
 51
269.999989999999
  0
LINE
  5
9754
  8
AM_0
 10
81.484865374717089
 20
268.20637942329068
 30
0.0
 11
81.003545374717021
 21
270.1154094232906
 31
0.0
  0
ARC
  5
9755
  8
AM_0
 10
86.88635537471697
 20
286.77683942329071
 30
0.0
 40
4.9991421999999961
 50
5.3780268999992682
 51
80.360064999998514
  0
LINE
  5
9756
  8
AM_0
 10
87.72351537471701
 20
280.01536942329068
 30
0.0
 11
87.72351537471701
 21
294.0652994232907
 31
0.0
  0
LINE
  5
9757
  8
AM_0
 10
77.723515374717124
 20
280.01536942329068
 30
0.0
 11
87.72351537471701
 21
280.01536942329068
 31
0.0
  0
LINE
  5
9758
  8
AM_0
 10
77.723515374717124
 20
285.67539942329068
 30
0.0
 11
87.72351537471701
 21
285.67539942329068
 31
0.0
  0
LINE
  5
9759
  8
AM_0
 10
79.533515374716941
 20
273.26536942329068
 30
0.0
 11
89.326295374716949
 21
273.26536942329068
 31
0.0
  0
ARC
  5
975A
  8
AM_0
 10
79.536745374716986
 20
271.7676894232909
 30
0.0
 40
1.497715799999999
 50
13.424378999999229
 51
90.122645000001114
  0
LINE
  5
975B
  8
AM_0
 10
77.723515374717124
 20
270.93537942329078
 30
0.0
 11
80.543525374716793
 21
270.8753894232907
 31
0.0
  0
LINE
  5
975C
  8
AM_0
 10
79.553535374716986
 20
271.24534942329069
 30
0.0
 11
81.203495374716937
 21
271.24534942329069
 31
0.0
  0
LINE
  5
975E
  8
AM_0
 10
88.93274537471693
 20
281.37199942329079
 30
0.0
 11
89.71777537471695
 21
277.02531942329068
 31
0.0
  0
ARC
  5
975F
  8
AM_0
 10
87.240365374716987
 20
275.82298942329078
 30
0.0
 40
1.502416299999999
 50
12.391887000000411
 51
90.098616999999123
  0
LINE
  5
9760
  8
AM_0
 10
87.237795374716967
 20
277.32530942329078
 30
0.0
 11
89.657785374717108
 21
277.32530942329078
 31
0.0
  0
ARC
  5
9761
  8
AM_0
 10
91.68292537471693
 20
277.37058942329082
 30
0.0
 40
1.9952742999999991
 50
189.9647800000009
 51
269.85141999999968
  0
LINE
  5
9762
  8
AM_0
 10
89.667795374716917
 20
271.67539942329068
 30
0.0
 11
88.707835374716794
 21
276.14537942329059
 31
0.0
  0
ARC
  5
9763
  8
AM_0
 10
87.343205374717101
 20
290.71067942329069
 30
0.0
 40
6.0073843
 50
273.6297400000006
 51
314.76384999999948
  0
ARC
  5
9764
  8
AM_0
 10
87.456675374716781
 20
281.10533942329079
 30
0.0
 40
1.5
 50
10.237378999998541
 51
79.752109999998723
  0
ARC
  5
9765
  8
AM_0
 10
90.864325374717126
 20
287.15501942329081
 30
0.0
 40
1.0032491999999991
 50
314.9811899999998
 51
5.167643400001003
  0
LINE
  5
9766
  8
AM_0
 10
77.723515374717124
 20
294.0652994232907
 30
0.0
 11
87.72351537471701
 21
294.0652994232907
 31
0.0
  0
ARC
  5
9767
  8
AM_0
 10
91.393495374717006
 20
293.3152994232907
 30
0.0
 40
1.6800002000000001
 50
90.000003000000945
 51
270.0
  0
ARC
  5
9768
  8
AM_0
 10
92.266365374716926
 20
293.36534942329081
 30
0.0
 40
1.0000255999999981
 50
89.589474000000749
 51
270.41051999999962
  0
ARC
  5
9769
  8
AM_0
 10
92.266365374716926
 20
303.36534942329081
 30
0.0
 40
1.0000255999999981
 50
89.589474000000749
 51
270.41051999999962
  0
ARC
  5
976A
  8
AM_0
 10
91.177805374716996
 20
303.33531942329068
 30
0.0
 40
1.460011199999999
 50
89.775248000001255
 51
270.22474000000028
  0
LINE
  5
976B
  8
AM_0
 10
98.723515374717124
 20
266.47630942329079
 30
0.0
 11
98.723515374717124
 21
273.88536942329068
 31
0.0
  0
LINE
  5
976C
  8
AM_0
 10
100.7235153747171
 20
264.47532942329048
 30
0.0
 11
142.04993537471691
 21
264.47532942329048
 31
0.0
  0
ARC
  5
976D
  8
AM_0
 10
100.7235753747169
 20
268.50535942329083
 30
0.0
 40
2.0000371999999991
 50
180.0010599999992
 51
269.99892999999958
  0
ARC
  5
976E
  8
AM_0
 10
100.7244353747169
 20
266.47630942329079
 30
0.0
 40
2.0009109999999981
 50
180.00001000000091
 51
269.97390999999971
  0
ARC
  5
976F
  8
AM_0
 10
97.220405374717004
 20
268.60215942329069
 30
0.0
 40
1.503128599999999
 50
0.1191296499989492
 51
89.880869999998822
  0
ARC
  5
9770
  8
AM_0
 10
97.466255374717164
 20
265.19529942329081
 30
0.0
 40
1.5
 50
21.46170900000018
 51
90.000003000000945
  0
LINE
  5
9773
  8
AM_0
 10
143.78904887663731
 20
253.86534942329101
 30
0.0
 11
143.45801537471689
 21
266.50532942329068
 31
0.0
  0
ARC
  5
9775
  8
AM_0
 10
142.04993537471691
 20
262.97532942329048
 30
0.0
 40
1.5
 50
1.5000026999989771
 51
90.000003000000945
  0
ARC
  5
9776
  8
AM_0
 10
97.221565374716931
 20
273.88340942329069
 30
0.0
 40
1.501982699999999
 50
0.0755872020005832
 51
89.924413000001564
  0
ARC
  5
9777
  8
AM_0
 10
99.716315374717354
 20
293.36534942329081
 30
0.0
 40
1.0000259
 50
89.587534000000232
 51
270.4124599999987
  0
ARC
  5
9778
  8
AM_0
 10
99.716315374717354
 20
303.36534942329081
 30
0.0
 40
1.0000259
 50
89.587534000000232
 51
270.4124599999987
  0
ARC
  5
978E
  8
AM_0
 10
79.528695374716946
 20
384.97019942329081
 30
0.0
 40
1.5048382
 50
270.18264000000067
 51
346.75308000000121
  0
LINE
  5
978F
  8
AM_0
 10
89.667795374716917
 20
385.05534942329058
 30
0.0
 11
88.707835374716794
 21
380.5853794232907
 31
0.0
  0
LINE
  5
9790
  8
AM_0
 10
98.723515374717124
 20
390.25535942329083
 30
0.0
 11
98.723515374717124
 21
382.85533942329062
 31
0.0
  0
LINE
  5
9791
  8
AM_0
 10
77.723515374717124
 20
387.11534942329081
 30
0.0
 11
77.723515374717124
 21
328.36534942329081
 31
0.0
  0
LINE
  5
9792
  8
AM_0
 10
91.677805374717011
 20
381.35533942329079
 30
0.0
 11
97.223515374717124
 21
381.35533942329079
 31
0.0
  0
LINE
  5
9793
  8
AM_0
 10
118.7235753747172
 20
374.71531942329062
 30
0.0
 11
87.72351537471701
 21
372.68531942329082
 31
0.0
  0
ARC
  5
9795
  8
AM_0
 10
82.047245374716965
 20
313.3553394232909
 30
0.0
 40
1.3300148000000001
 50
89.729417999999541
 51
270.27058999999991
  0
ARC
  5
9796
  8
AM_0
 10
81.985295374716941
 20
323.36534942329081
 30
0.0
 40
1.2700266
 50
89.629320999999507
 51
270.3706899999986
  0
ARC
  5
9797
  8
AM_0
 10
83.273505374717203
 20
313.3653494232907
 30
0.0
 40
1.0000056999999991
 50
90.000003000000945
 51
270.0
  0
ARC
  5
9798
  8
AM_0
 10
83.273505374717203
 20
323.36534942329081
 30
0.0
 40
1.0000056999999991
 50
90.000003000000945
 51
270.0
  0
ARC
  5
9799
  8
AM_0
 10
81.985295374716941
 20
333.37535942329077
 30
0.0
 40
1.2700266
 50
89.629327999999504
 51
270.37065999999959
  0
ARC
  5
979A
  8
AM_0
 10
82.047245374716965
 20
343.38035942329083
 30
0.0
 40
1.3350147999999991
 50
89.730435000000341
 51
270.26956999999999
  0
ARC
  5
979B
  8
AM_0
 10
83.273505374717203
 20
333.3653494232907
 30
0.0
 40
1.0000056999999991
 50
90.000003000000945
 51
270.0
  0
ARC
  5
979C
  8
AM_0
 10
83.273505374717203
 20
343.3653494232907
 30
0.0
 40
1.0000056999999991
 50
90.000003000000945
 51
270.0
  0
ARC
  5
979D
  8
AM_0
 10
86.87909537471721
 20
369.95957942329079
 30
0.0
 40
5.0059714
 50
279.71098000000097
 51
354.67888000000141
  0
ARC
  5
979E
  8
AM_0
 10
91.393495374717006
 20
363.41538942329078
 30
0.0
 40
1.6800002000000001
 50
90.000003000000945
 51
270.0
  0
LINE
  5
979F
  8
AM_0
 10
87.72351537471701
 20
376.71531942329062
 30
0.0
 11
87.72351537471701
 21
362.67539942329068
 31
0.0
  0
LINE
  5
97A0
  8
AM_0
 10
77.723515374717124
 20
362.67539942329068
 30
0.0
 11
87.72351537471701
 21
362.67539942329068
 31
0.0
  0
ARC
  5
97A1
  8
AM_0
 10
91.177805374716996
 20
353.39537942329082
 30
0.0
 40
1.460011199999999
 50
89.775248000001255
 51
270.22474000000028
  0
ARC
  5
97A2
  8
AM_0
 10
92.266365374716926
 20
353.36534942329081
 30
0.0
 40
1.0000255999999981
 50
89.589474000000749
 51
270.41051999999962
  0
ARC
  5
97A3
  8
AM_0
 10
92.266365374716926
 20
363.3653494232907
 30
0.0
 40
1.0000255999999981
 50
89.589474000000749
 51
270.41051999999962
  0
LINE
  5
97A4
  8
AM_0
 10
77.723515374717124
 20
371.05528942329079
 30
0.0
 11
87.72351537471701
 21
371.05528942329079
 31
0.0
  0
LINE
  5
97A5
  8
AM_0
 10
77.723515374717124
 20
376.71531942329062
 30
0.0
 11
87.72351537471701
 21
376.71531942329062
 31
0.0
  0
LINE
  5
97A6
  8
AM_0
 10
79.533515374716941
 20
383.46531942329062
 30
0.0
 11
89.326295374716949
 21
383.46531942329062
 31
0.0
  0
ARC
  5
97A9
  8
AM_0
 10
87.456675374716781
 20
375.62535942329077
 30
0.0
 40
1.5
 50
280.24789000000118
 51
349.76261999999917
  0
ARC
  5
97AA
  8
AM_0
 10
87.344485374716925
 20
366.03282942329082
 30
0.0
 40
6.0044340999999992
 50
45.225577999998769
 51
86.380821999999185
  0
ARC
  5
97AB
  8
AM_0
 10
90.865425374716949
 20
369.58604942329077
 30
0.0
 40
1.002184699999999
 50
354.80385999999999
 51
45.047306999998277
  0
ARC
  5
97AC
  8
AM_0
 10
87.240365374716987
 20
380.90769942329058
 30
0.0
 40
1.502416299999999
 50
269.90137999999871
 51
347.60813000000093
  0
LINE
  5
97AD
  8
AM_0
 10
87.237795374716967
 20
379.4053794232907
 30
0.0
 11
89.657785374717108
 21
379.4053794232907
 31
0.0
  0
ARC
  5
97AE
  8
AM_0
 10
91.68292537471693
 20
379.36009942329082
 30
0.0
 40
1.9952742999999991
 50
90.148580000000095
 51
170.03521999999899
  0
LINE
  5
97AF
  8
AM_0
 10
88.932805374716992
 20
375.35871942329061
 30
0.0
 11
89.717845374717115
 21
379.70539942329083
 31
0.0
  0
ARC
  5
97B0
  8
AM_0
 10
99.716315374717354
 20
313.3653494232907
 30
0.0
 40
1.0000259
 50
89.587534000000232
 51
270.4124599999987
  0
ARC
  5
97B1
  8
AM_0
 10
99.716315374717354
 20
323.36534942329081
 30
0.0
 40
1.0000259
 50
89.587534000000232
 51
270.4124599999987
  0
ARC
  5
97B2
  8
AM_0
 10
99.716315374717354
 20
333.3653494232907
 30
0.0
 40
1.0000259
 50
89.587534000000232
 51
270.4124599999987
  0
ARC
  5
97B3
  8
AM_0
 10
99.716315374717354
 20
343.3653494232907
 30
0.0
 40
1.0000259
 50
89.587534000000232
 51
270.4124599999987
  0
ARC
  5
97B4
  8
AM_0
 10
99.716315374717354
 20
353.36534942329081
 30
0.0
 40
1.0000259
 50
89.587534000000232
 51
270.4124599999987
  0
ARC
  5
97B5
  8
AM_0
 10
99.716315374717354
 20
363.3653494232907
 30
0.0
 40
1.0000259
 50
89.587534000000232
 51
270.4124599999987
  0
ARC
  5
97B6
  8
AM_0
 10
97.219795374717094
 20
382.85911942329062
 30
0.0
 40
1.5037541000000001
 50
270.14287000000093
 51
359.85713999999848
  0
LINE
  5
97B7
  8
AM_0
 10
91.613955374717051
 20
386.63536942329063
 30
0.0
 11
97.223515374717124
 21
386.63536942329063
 31
0.0
  0
LINE
  5
97B8
  8
AM_0
 10
83.853525374716995
 20
390.03538942329078
 30
0.0
 11
97.223515374717124
 21
390.03538942329078
 31
0.0
  0
LINE
  5
97B9
  8
AM_0
 10
83.833505374717163
 20
391.66538942329078
 30
0.0
 11
97.333505374717404
 21
391.66538942329078
 31
0.0
  0
ARC
  5
97BF
  8
AM_0
 10
83.853765374716943
 20
388.04307942329069
 30
0.0
 40
1.9922863
 50
90.007721000000544
 51
166.87839000000031
  0
ARC
  5
97C0
  8
AM_0
 10
83.828375374716899
 20
389.67076942329049
 30
0.0
 40
1.994612099999999
 50
89.851991999999015
 51
165.9388600000002
  0
LINE
  5
97C1
  8
AM_0
 10
81.913515374716937
 20
388.4953494232908
 30
0.0
 11
80.993475374717207
 21
384.62535942329077
 31
0.0
  0
LINE
  5
97C2
  8
AM_0
 10
81.89349537471702
 20
390.1553794232907
 30
0.0
 11
81.003485374716945
 21
386.62535942329077
 31
0.0
  0
ARC
  5
97C4
  8
AM_0
 10
79.543095374717211
 20
386.99070942329081
 30
0.0
 40
1.505448699999999
 50
270.39686999999981
 51
345.95247000000001
  0
LINE
  5
97C5
  8
AM_0
 10
77.723515374717124
 20
385.79533942329061
 30
0.0
 11
80.543525374716793
 21
385.86534942329081
 31
0.0
  0
LINE
  5
97C6
  8
AM_0
 10
79.553535374716986
 20
385.48533942329061
 30
0.0
 11
81.203495374716937
 21
385.48533942329061
 31
0.0
  0
ARC
  5
97C7
  8
AM_0
 10
91.620855374717223
 20
384.63828942329081
 30
0.0
 40
1.997119399999999
 50
89.801366999998493
 51
167.94476000000131
  0
ARC
  5
97C8
  8
AM_0
 10
100.7199753747169
 20
391.6188894232908
 30
0.0
 40
1.996488899999999
 50
89.899147999998391
 51
180.10084999999879
  0
ARC
  5
97C9
  8
AM_0
 10
100.717295374717
 20
392.28880942329079
 30
0.0
 40
1.9964978999999961
 50
89.821482000000245
 51
165.6006099999997
  0
ARC
  5
97CA
  8
AM_0
 10
100.716805374717
 20
388.2320394232907
 30
0.0
 40
1.9933081999999991
 50
89.807323000000935
 51
180.19266999999849
  0
ARC
  5
97CB
  8
AM_0
 10
100.717655374717
 20
390.26121942329081
 30
0.0
 40
1.994130499999996
 50
89.831105999999224
 51
180.16889000000049
  0
ARC
  5
97CC
  8
AM_0
 10
97.218635374716925
 20
388.14024942329081
 30
0.0
 40
1.504891299999997
 50
270.1859300000005
 51
359.81406999999939
  0
ARC
  5
97CD
  8
AM_0
 10
97.216615374716824
 20
391.54222942329079
 30
0.0
 40
1.506942899999999
 50
270.2633699999991
 51
359.73663000000079
  0
ARC
  5
97CE
  8
AM_0
 10
97.328435374717117
 20
393.17051942329061
 30
0.0
 40
1.505230099999999
 50
270.19421
 51
345.17177999999848
  0
ARC
  5
97CF
  8
AM_0
 10
363.2235153747169
 20
328.36534942329081
 30
0.0
 40
80.0
 50
148.90067999999891
 51
211.09930000000051
  0
ARC
  5
97D0
  8
AM_0
 10
329.2235153747169
 20
309.33952942329068
 30
0.0
 40
1.0
 50
271.49999999999937
 51
0.0
  0
ARC
  5
97D1
  8
AM_0
 10
329.2235153747169
 20
307.3388594232909
 30
0.0
 40
1.0
 50
91.500001000001546
 51
180.00001000000091
  0
LINE
  5
97D2
  8
AM_0
 10
224.7235153747169
 20
265.86534942329081
 30
0.0
 11
224.7235153747169
 21
390.86534942329081
 31
0.0
  0
LINE
  5
97D5
  8
AM_0
 10
237.72357537471689
 20
290.31047942329059
 30
0.0
 11
237.72357537471689
 21
366.42021942329069
 31
0.0
  0
LINE
  5
97D6
  8
AM_0
 10
232.7235153747171
 20
264.86534942329058
 30
0.0
 11
232.7235153747171
 21
391.8653494232907
 31
0.0
  0
LINE
  5
97D7
  8
AM_0
 10
283.2235153747169
 20
285.63172942329078
 30
0.0
 11
283.2235153747169
 21
371.09901942329083
 31
0.0
  0
LINE
  5
97D8
  8
AM_0
 10
270.22351537471712
 20
268.3653494232907
 30
0.0
 11
270.22351537471712
 21
388.36537942329079
 31
0.0
  0
LINE
  5
97D9
  8
AM_0
 10
328.2235153747169
 20
367.6024694232907
 30
0.0
 11
328.2235153747169
 21
285.92344942329078
 31
0.0
  0
LINE
  5
97DA
  8
AM_0
 10
315.2235153747169
 20
279.54969942329069
 30
0.0
 11
315.2235153747169
 21
377.18101942329082
 31
0.0
  0
ARC
  5
97DB
  8
AM_0
 10
257.22351537471712
 20
270.8653494232907
 30
0.0
 40
5.0
 50
216.10296999999909
 51
326.8970199999992
  0
ARC
  5
97DC
  8
ｶｸﾚｾﾝ2
 10
257.22351537471712
 20
270.8653494232907
 30
0.0
 40
5.0
 50
326.89703000000088
 51
216.1029599999998
  0
LINE
  5
97DD
  8
AM_0
 10
237.72357537471689
 20
291.18534942329069
 30
0.0
 11
255.7235153747169
 21
291.18534942329069
 31
0.0
  0
LINE
  5
97DE
  8
AM_0
 10
255.7235153747169
 20
278.6283194232908
 30
0.0
 11
246.58511537471691
 21
277.01698942329091
 31
0.0
  0
LINE
  5
97DF
  8
AM_0
 10
237.72357537471689
 20
272.8390394232909
 30
0.0
 11
281.2235153747169
 21
272.8390394232909
 31
0.0
  0
LINE
  5
97E0
  8
AM_0
 10
237.72354537471691
 20
267.51432942329069
 30
0.0
 11
278.68472537471712
 21
268.58692942329083
 31
0.0
  0
LINE
  5
97E2
  8
AM_0
 10
270.22351537471712
 20
258.36537942329062
 30
0.0
 11
252.092655374717
 21
258.84013942329091
 31
0.0
  0
ARC
  5
97FA
  8
AM_0
 10
203.7235153747171
 20
300.8653494232907
 30
0.0
 40
1.5
 50
90.000003000000945
 51
180.00001000000091
  0
ARC
  5
97FB
  8
AM_0
 10
203.7235153747171
 20
295.8653494232907
 30
0.0
 40
1.5
 50
179.99998999999889
 51
270.0
  0
LINE
  5
97FC
  8
AM_0
 10
173.7235153747169
 20
291.64537942329071
 30
0.0
 11
221.54352537471689
 21
291.64537942329071
 31
0.0
  0
LINE
  5
97FD
  8
AM_0
 10
218.06354537471691
 20
292.3653494232907
 30
0.0
 11
173.7235153747169
 21
292.3653494232907
 31
0.0
  0
LINE
  5
9820
  8
AM_0
 10
187.2235153747169
 20
300.8653494232907
 30
0.0
 11
187.2235153747169
 21
295.8653494232907
 31
0.0
  0
LINE
  5
9821
  8
AM_0
 10
186.743535374717
 20
300.8653494232907
 30
0.0
 11
186.743535374717
 21
296.00535942329083
 31
0.0
  0
ARC
  5
9822
  8
AM_0
 10
185.7235153747169
 20
295.8653494232907
 30
0.0
 40
1.5
 50
269.999989999999
 51
0.0000006832462478
  0
ARC
  5
9823
  8
AM_0
 10
185.743535374717
 20
296.00535942329083
 30
0.0
 40
1.0
 50
269.999989999999
 51
0.0000006832462478
  0
ARC
  5
9824
  8
AM_0
 10
185.7235153747169
 20
300.8653494232907
 30
0.0
 40
1.5
 50
0.0
 51
90.000003000000945
  0
ARC
  5
9825
  8
AM_0
 10
185.7235153747169
 20
300.8653494232907
 30
0.0
 40
1.02
 50
0.0
 51
90.000003000000945
  0
CIRCLE
  5
9826
  8
AM_0
 10
192.2235153747169
 20
299.8653494232907
 30
0.0
 40
1.1000000000000001
  0
CIRCLE
  5
9827
  8
AM_0
 10
192.2235153747169
 20
299.8653494232907
 30
0.0
 40
1.149999999999999
  0
CIRCLE
  5
9828
  8
AM_0
 10
197.2235153747169
 20
299.8653494232907
 30
0.0
 40
1.0
  0
LINE
  5
9829
  8
AM_0
 10
202.2235153747169
 20
300.8653494232907
 30
0.0
 11
202.2235153747169
 21
295.8653494232907
 31
0.0
  0
LINE
  5
982A
  8
AM_0
 10
219.4635053747169
 20
267.99540942329082
 30
0.0
 11
222.92349537471699
 21
280.9053794232907
 31
0.0
  0
LINE
  5
982B
  8
AM_0
 10
237.72357537471689
 20
265.9704494232908
 30
0.0
 11
237.72357537471689
 21
276.86503942329068
 31
0.0
  0
LINE
  5
982C
  8
AM_0
 10
225.7235153747169
 20
264.86534942329058
 30
0.0
 11
232.7235153747171
 21
264.86534942329058
 31
0.0
  0
LINE
  5
984B
  8
AM_0
 10
205.23712537471701
 20
258.36534942329058
 30
0.0
 11
216.7396953747168
 21
258.36534942329058
 31
0.0
  0
LINE
  5
984C
  8
AM_0
 10
203.658077384851
 20
253.86534942329101
 30
0.0
 11
203.98908537471701
 21
266.50541942329068
 31
0.0
  0
ARC
  5
984D
  8
AM_0
 10
205.23712537471701
 20
256.86534942329058
 30
0.0
 40
1.5
 50
90.000003000000945
 51
178.50000000000051
  0
LINE
  5
9850
  8
AM_0
 10
223.7235153747169
 20
267.86540942329083
 30
0.0
 11
217.9977153747171
 21
259.0484794232907
 31
0.0
  0
ARC
  5
9851
  8
AM_0
 10
216.7396953747168
 20
259.86534942329081
 30
0.0
 40
1.5
 50
269.999989999999
 51
326.99999999999892
  0
LINE
  5
9852
  8
AM_0
 10
219.433535374717
 20
267.86534942329081
 30
0.0
 11
224.7235153747169
 21
267.86534942329081
 31
0.0
  0
ARC
  5
9853
  8
AM_0
 10
217.524785374717
 20
268.51158942329079
 30
0.0
 40
2.0062942999999991
 50
270.24932999999891
 51
345.08844000000079
  0
ARC
  5
9854
  8
AM_0
 10
225.7165553747169
 20
265.85838942329048
 30
0.0
 40
0.99304521
 50
179.5973099999994
 51
270.40267999999998
  0
LINE
  5
9855
  8
AM_0
 10
236.74973537471689
 20
264.97077942329082
 30
0.0
 11
232.72354537471699
 21
264.86534942329058
 31
0.0
  0
ARC
  5
9856
  8
AM_0
 10
236.72357537471689
 20
265.9704494232908
 30
0.0
 40
1.0
 50
271.49999999999937
 51
0.0
  0
ARC
  5
9857
  8
AM_0
 10
252.2235153747169
 20
263.83842942329068
 30
0.0
 40
5.0
 50
180.00001000000091
 51
268.5000000000004
  0
LINE
  5
9858
  8
AM_0
 10
247.2235153747169
 20
263.83842942329068
 30
0.0
 11
247.2235153747169
 21
267.76310942329081
 31
0.0
  0
LINE
  5
9859
  8
AM_0
 10
225.7235153747169
 20
276.32530942329078
 30
0.0
 11
232.7235153747171
 21
276.32530942329078
 31
0.0
  0
LINE
  5
985A
  8
AM_0
 10
224.7235153747169
 20
291.21531942329068
 30
0.0
 11
232.7235153747171
 21
291.21531942329068
 31
0.0
  0
ARC
  5
985B
  8
AM_0
 10
225.71588537471681
 20
277.31773942329079
 30
0.0
 40
0.99237448
 50
179.55802000000119
 51
270.4419699999998
  0
ARC
  5
985C
  8
AM_0
 10
224.36719537471691
 20
280.52159942329081
 30
0.0
 40
1.4937901
 50
89.756423999998475
 51
165.11292000000071
  0
LINE
  5
985D
  8
AM_0
 10
218.0563453747169
 20
302.3653494232907
 30
0.0
 11
203.7235153747171
 21
302.3653494232907
 31
0.0
  0
LINE
  5
985E
  8
AM_0
 10
218.06354537471691
 20
294.3653494232907
 30
0.0
 11
203.7235153747171
 21
294.3653494232907
 31
0.0
  0
LINE
  5
985F
  8
AM_0
 10
203.7235153747171
 20
301.88536942329068
 30
0.0
 11
221.75775537471699
 21
301.88536942329068
 31
0.0
  0
LINE
  5
9860
  8
AM_0
 10
203.70349537471691
 20
295.00535942329083
 30
0.0
 11
221.54352537471689
 21
295.00535942329083
 31
0.0
  0
LINE
  5
9861
  8
AM_0
 10
202.70349537471699
 20
300.8653494232907
 30
0.0
 11
202.70349537471699
 21
296.00535942329083
 31
0.0
  0
ARC
  5
9862
  8
AM_0
 10
203.70349537471691
 20
296.00535942329083
 30
0.0
 40
1.0
 50
179.99998999999889
 51
270.0
  0
ARC
  5
9863
  8
AM_0
 10
203.7235153747171
 20
300.8653494232907
 30
0.0
 40
1.02
 50
90.000003000000945
 51
180.00001000000091
  0
ARC
  5
9864
  8
AM_0
 10
221.54352537471689
 20
293.32530942329078
 30
0.0
 40
1.6800077
 50
269.999989999999
 51
90.000003000000945
  0
ARC
  5
9865
  8
AM_0
 10
218.06354537471691
 20
293.36534942329081
 30
0.0
 40
1.0000040999999991
 50
269.999989999999
 51
90.000003000000945
  0
ARC
  5
9866
  8
AM_0
 10
221.763495374717
 20
303.33531942329068
 30
0.0
 40
1.460011199999999
 50
269.77524999999991
 51
90.224750000000114
  0
ARC
  5
9867
  8
AM_0
 10
218.06348537471681
 20
303.36534942329081
 30
0.0
 40
1.0000255999999981
 50
269.58946999999989
 51
90.410531000001029
  0
LINE
  5
9868
  8
AM_0
 10
232.7235153747171
 20
276.86503942329068
 30
0.0
 11
244.84863537471699
 21
276.86503942329068
 31
0.0
  0
LINE
  5
9869
  8
AM_0
 10
245.7235153747169
 20
279.07704942329082
 30
0.0
 11
245.7235153747169
 21
288.99027942329081
 31
0.0
  0
ARC
  5
986A
  8
AM_0
 10
244.84863537471699
 20
286.86503942329068
 30
0.0
 40
10.0
 50
270.0
 51
280.00001000000128
  0
LINE
  5
986B
  8
AM_0
 10
232.7235153747171
 20
290.31047942329059
 30
0.0
 11
237.72357537471689
 21
290.31047942329059
 31
0.0
  0
ARC
  5
986C
  8
AM_0
 10
310.22351537471712
 20
271.49458942329079
 30
0.0
 40
5.0
 50
91.500001000001546
 51
180.00001000000091
  0
LINE
  5
986D
  8
AM_0
 10
315.2235153747169
 20
287.7594494232909
 30
0.0
 11
294.72165537471687
 21
287.04350942329069
 31
0.0
  0
LINE
  5
986E
  8
AM_0
 10
325.35443537471718
 20
259.80900942329077
 30
0.0
 11
270.22354537471699
 21
258.36534942329058
 31
0.0
  0
LINE
  5
986F
  8
AM_0
 10
281.2235153747169
 20
285.63172942329078
 30
0.0
 11
281.2235153747169
 21
268.98368942329068
 31
0.0
  0
LINE
  5
9870
  8
AM_0
 10
290.18655537471687
 20
273.82820942329079
 30
0.0
 11
283.422975374717
 21
269.9232394232908
 31
0.0
  0
LINE
  5
9872
  8
AM_0
 10
305.2235153747169
 20
262.36143942329068
 30
0.0
 11
305.2235153747169
 21
271.49458942329079
 31
0.0
  0
ARC
  5
9873
  8
AM_0
 10
278.42297537471688
 20
278.58348942329081
 30
0.0
 40
10.0
 50
271.49999999999937
 51
300.00001000000083
  0
ARC
  5
9874
  8
AM_0
 10
270.22351537471712
 20
261.36637942329082
 30
0.0
 40
1.0
 50
88.499997000000747
 51
180.00001000000091
  0
ARC
  5
9875
  8
AM_0
 10
270.22351537471712
 20
259.36570942329081
 30
0.0
 40
1.0
 50
180.00001000000091
 51
268.5000000000004
  0
LINE
  5
9876
  8
AM_0
 10
269.2235153747169
 20
259.36570942329081
 30
0.0
 11
269.2235153747169
 21
261.36637942329082
 31
0.0
  0
LINE
  5
9877
  8
AM_0
 10
273.2235153747169
 20
260.39225942329068
 30
0.0
 11
273.2235153747169
 21
266.39085942329069
 31
0.0
  0
ARC
  5
9878
  8
AM_0
 10
271.2235153747169
 20
260.39225942329068
 30
0.0
 40
2.0
 50
271.49999999999937
 51
0.0
  0
ARC
  5
9879
  8
AM_0
 10
272.2235153747169
 20
263.31471942329068
 30
0.0
 40
1.0
 50
268.5000000000004
 51
0.0000006832462478
  0
ARC
  5
987A
  8
AM_0
 10
271.2235153747169
 20
266.39085942329069
 30
0.0
 40
2.0
 50
0.0
 51
91.500001000001546
  0
LINE
  5
987B
  8
AM_0
 10
272.19736537471692
 20
262.31504942329059
 30
0.0
 11
270.24970537471688
 21
262.3660494232908
 31
0.0
  0
ARC
  5
987C
  8
AM_0
 10
308.2235153747169
 20
262.36143942329068
 30
0.0
 40
3.0
 50
180.00001000000091
 51
271.49999999999937
  0
LINE
  5
987D
  8
AM_0
 10
282.22351537471718
 20
275.49735942329079
 30
0.0
 11
285.2235153747169
 21
275.49735942329079
 31
0.0
  0
LINE
  5
987E
  8
AM_0
 10
282.22351537471718
 20
281.27085942329069
 30
0.0
 11
285.2235153747169
 21
281.27085942329069
 31
0.0
  0
LINE
  5
987F
  8
AM_0
 10
282.22351537471718
 20
272.61058942329078
 30
0.0
 11
285.2235153747169
 21
272.61058942329078
 31
0.0
  0
LINE
  5
9880
  8
AM_0
 10
282.22351537471718
 20
284.15763942329079
 30
0.0
 11
285.2235153747169
 21
284.15763942329079
 31
0.0
  0
LINE
  5
9881
  8
AM_0
 10
281.2235153747169
 20
285.63172942329078
 30
0.0
 11
283.2235153747169
 21
285.63172942329078
 31
0.0
  0
LINE
  5
9882
  8
AM_0
 10
255.7235153747169
 20
280.04557942329069
 30
0.0
 11
255.7235153747169
 21
290.0157994232909
 31
0.0
  0
LINE
  5
9883
  8
AM_0
 10
282.22351537471718
 20
284.65760942329069
 30
0.0
 11
282.22351537471718
 21
272.11061942329059
 31
0.0
  0
LINE
  5
9884
  8
AM_0
 10
281.2235153747169
 20
272.11061942329059
 30
0.0
 11
282.22351537471718
 21
272.11061942329059
 31
0.0
  0
LINE
  5
9885
  8
AM_0
 10
281.2235153747169
 20
284.65760942329069
 30
0.0
 11
282.22351537471718
 21
284.65760942329069
 31
0.0
  0
LINE
  5
9886
  8
AM_0
 10
307.21249537471692
 20
275.48628942329083
 30
0.0
 11
294.9248153747169
 21
275.16453942329082
 31
0.0
  0
LINE
  5
9887
  8
AM_0
 10
286.22351537471712
 20
273.61061942329047
 30
0.0
 11
286.22351537471712
 21
283.1576394232909
 31
0.0
  0
ARC
  5
9888
  8
AM_0
 10
285.2235153747169
 20
274.49735942329079
 30
0.0
 40
1.0
 50
0.0
 51
90.000003000000945
  0
ARC
  5
9889
  8
AM_0
 10
285.2235153747169
 20
273.61061942329047
 30
0.0
 40
1.0
 50
269.999989999999
 51
0.0000006832462478
  0
ARC
  5
988A
  8
AM_0
 10
285.2235153747169
 20
276.4973594232909
 30
0.0
 40
1.0
 50
269.999989999999
 51
0.0000006832462478
  0
ARC
  5
988B
  8
AM_0
 10
295.18652537471712
 20
265.1679594232906
 30
0.0
 40
10.0
 50
91.500001000001546
 51
120.0000000000005
  0
LINE
  5
988C
  8
AM_0
 10
294.72165537471687
 20
287.04350942329069
 30
0.0
 11
283.2235153747169
 21
285.63172942329078
 31
0.0
  0
ARC
  5
988D
  8
AM_0
 10
285.2235153747169
 20
283.1576394232909
 30
0.0
 40
1.0
 50
0.0
 51
90.000003000000945
  0
ARC
  5
988E
  8
AM_0
 10
285.2235153747169
 20
280.27085942329069
 30
0.0
 40
1.0
 50
0.0
 51
90.000003000000945
  0
ARC
  5
988F
  8
AM_0
 10
285.2235153747169
 20
282.27085942329069
 30
0.0
 40
1.0
 50
269.999989999999
 51
0.0000006832462478
  0
CIRCLE
  5
9890
  8
AM_0
 10
320.2235153747169
 20
270.8653494232907
 30
0.0
 40
5.0
  0
LINE
  5
9891
  8
AM_0
 10
330.2235153747169
 20
264.8072994232906
 30
0.0
 11
330.2235153747169
 21
281.92344942329078
 31
0.0
  0
ARC
  5
9893
  8
AM_0
 10
325.2235153747169
 20
264.8072994232906
 30
0.0
 40
5.0
 50
271.49999999999937
 51
0.0
  0
LINE
  5
9895
  8
AM_0
 10
320.0926553747168
 20
285.99287942329067
 30
0.0
 11
325.3020653747169
 21
286.12928942329069
 31
0.0
  0
ARC
  5
9896
  8
AM_0
 10
312.2235153747169
 20
279.54969942329069
 30
0.0
 40
3.0
 50
271.49999999999937
 51
0.0
  0
LINE
  5
9897
  8
AM_0
 10
310.09262537471687
 20
276.49284942329069
 30
0.0
 11
312.3020653747169
 21
276.55070942329081
 31
0.0
  0
ARC
  5
9898
  8
AM_0
 10
320.2235153747169
 20
280.99458942329079
 30
0.0
 40
5.0
 50
91.500001000001546
 51
180.00001000000091
  0
ARC
  5
9899
  8
AM_0
 10
325.2235153747169
 20
281.92344942329078
 30
0.0
 40
5.0
 50
0.0
 51
70.485339000000806
  0
ARC
  5
989A
  8
AM_0
 10
325.2235153747169
 20
289.1282494232907
 30
0.0
 40
3.0
 50
271.49999999999937
 51
0.0
  0
LINE
  5
989B
  8
AM_0
 10
329.19736537471692
 20
308.3384894232907
 30
0.0
 11
329.249705374717
 21
308.33985942329082
 31
0.0
  0
ARC
  5
989C
  8
AM_0
 10
257.22351537471712
 20
385.86537942329079
 30
0.0
 40
5.0
 50
33.103113000001329
 51
143.89688000000041
  0
ARC
  5
989D
  8
ｶｸﾚｾﾝ2
 10
257.22351537471712
 20
385.86537942329079
 30
0.0
 40
5.0
 50
143.89688000000041
 51
33.103123000000132
  0
LINE
  5
989E
  8
AM_0
 10
237.72357537471689
 20
365.54533942329078
 30
0.0
 11
255.7235153747169
 21
365.54533942329078
 31
0.0
  0
LINE
  5
989F
  8
AM_0
 10
255.7235153747169
 20
378.10237942329081
 30
0.0
 11
246.58511537471691
 21
379.71372942329077
 31
0.0
  0
LINE
  5
98A0
  8
AM_0
 10
237.72357537471689
 20
383.89170942329082
 30
0.0
 11
281.2235153747169
 21
383.89170942329082
 31
0.0
  0
LINE
  5
98A1
  8
AM_0
 10
237.72354537471691
 20
389.2164194232908
 30
0.0
 11
278.6847553747171
 21
388.1437894232908
 31
0.0
  0
LINE
  5
98A3
  8
AM_0
 10
270.22354537471699
 20
398.36534942329081
 30
0.0
 11
252.092655374717
 21
397.89057942329077
 31
0.0
  0
LINE
  5
98A4
  8
AM_0
 10
219.46353537471691
 20
388.74528942329061
 30
0.0
 11
222.92352537471689
 21
375.82533942329081
 31
0.0
  0
LINE
  5
98A5
  8
AM_0
 10
220.273715374717
 20
393.10053942329063
 30
0.0
 11
222.96356537471689
 21
380.58531942329063
 31
0.0
  0
LINE
  5
98A6
  8
AM_0
 10
237.72357537471689
 20
379.8653494232907
 30
0.0
 11
237.72357537471689
 21
390.76026942329082
 31
0.0
  0
ARC
  5
98A7
  8
AM_0
 10
203.7235153747171
 20
355.8653494232907
 30
0.0
 40
1.5
 50
179.99998999999889
 51
270.0
  0
ARC
  5
98A8
  8
AM_0
 10
203.7235153747171
 20
360.86534942329081
 30
0.0
 40
1.5
 50
90.000003000000945
 51
180.00001000000091
  0
ARC
  5
98AB
  8
AM_0
 10
154.388495374717
 20
313.3553394232909
 30
0.0
 40
1.3300148000000001
 50
269.72941999999853
 51
90.270567000000995
  0
ARC
  5
98AC
  8
AM_0
 10
153.16223537471689
 20
313.3653494232907
 30
0.0
 40
1.0000056999999991
 50
269.999989999999
 51
90.000003000000945
  0
ARC
  5
98AD
  8
AM_0
 10
154.45044537471691
 20
323.36534942329081
 30
0.0
 40
1.2700266
 50
269.62931999999989
 51
90.370670000001468
  0
ARC
  5
98AE
  8
AM_0
 10
153.16223537471689
 20
323.36534942329081
 30
0.0
 40
1.0000056999999991
 50
269.999989999999
 51
90.000003000000945
  0
ARC
  5
98AF
  8
AM_0
 10
154.45044537471691
 20
333.37535942329077
 30
0.0
 40
1.2700266
 50
269.62931999999989
 51
90.370670000001468
  0
ARC
  5
98B0
  8
AM_0
 10
153.16223537471689
 20
333.3653494232907
 30
0.0
 40
1.0000056999999991
 50
269.999989999999
 51
90.000003000000945
  0
ARC
  5
98B1
  8
AM_0
 10
154.388495374717
 20
343.38035942329083
 30
0.0
 40
1.3350147999999991
 50
269.73042999999973
 51
90.269556000001344
  0
ARC
  5
98B2
  8
AM_0
 10
153.16223537471689
 20
343.3653494232907
 30
0.0
 40
1.0000056999999991
 50
269.999989999999
 51
90.000003000000945
  0
ARC
  5
98B3
  8
AM_0
 10
185.7235153747169
 20
355.8653494232907
 30
0.0
 40
1.5
 50
269.999989999999
 51
0.0000006832462478
  0
ARC
  5
98B4
  8
AM_0
 10
185.7235153747169
 20
355.8653494232907
 30
0.0
 40
1.02
 50
269.999989999999
 51
0.0000006832429909
  0
ARC
  5
98B5
  8
AM_0
 10
185.7235153747169
 20
360.86534942329081
 30
0.0
 40
1.5
 50
0.0
 51
90.000003000000945
  0
ARC
  5
98B6
  8
AM_0
 10
185.743535374717
 20
360.72532942329082
 30
0.0
 40
1.0
 50
0.0
 51
90.000003000000945
  0
LINE
  5
98B7
  8
AM_0
 10
186.743535374717
 20
355.8653494232907
 30
0.0
 11
186.743535374717
 21
360.72532942329082
 31
0.0
  0
LINE
  5
98B8
  8
AM_0
 10
187.2235153747169
 20
355.8653494232907
 30
0.0
 11
187.2235153747169
 21
360.86534942329081
 31
0.0
  0
CIRCLE
  5
98B9
  8
AM_0
 10
192.2235153747169
 20
356.86534942329081
 30
0.0
 40
1.149999999999999
  0
CIRCLE
  5
98BA
  8
AM_0
 10
192.2235153747169
 20
356.86534942329081
 30
0.0
 40
1.1000000000000001
  0
CIRCLE
  5
98BB
  8
AM_0
 10
197.2235153747169
 20
356.86534942329081
 30
0.0
 40
1.0
  0
LINE
  5
98BC
  8
AM_0
 10
202.2235153747169
 20
355.8653494232907
 30
0.0
 11
202.2235153747169
 21
360.86534942329081
 31
0.0
  0
LINE
  5
98BD
  8
AM_0
 10
224.7235153747169
 20
365.51536942329062
 30
0.0
 11
232.7235153747171
 21
365.51536942329062
 31
0.0
  0
LINE
  5
98BE
  8
AM_0
 10
225.7235153747169
 20
380.4053794232907
 30
0.0
 11
232.7235153747171
 21
380.4053794232907
 31
0.0
  0
ARC
  5
98BF
  8
AM_0
 10
221.54352537471689
 20
363.41538942329078
 30
0.0
 40
1.6800077
 50
269.999989999999
 51
90.000003000000945
  0
LINE
  5
98C0
  8
AM_0
 10
218.06354537471691
 20
362.3653494232907
 30
0.0
 11
203.7235153747171
 21
362.3653494232907
 31
0.0
  0
LINE
  5
98C1
  8
AM_0
 10
218.0706853747171
 20
354.3653494232907
 30
0.0
 11
203.7235153747171
 21
354.3653494232907
 31
0.0
  0
LINE
  5
98C2
  8
AM_0
 10
203.70349537471691
 20
361.73533942329078
 30
0.0
 11
221.54352537471689
 21
361.73533942329078
 31
0.0
  0
LINE
  5
98C3
  8
AM_0
 10
203.7235153747171
 20
354.85533942329079
 30
0.0
 11
221.769235374717
 21
354.85533942329079
 31
0.0
  0
ARC
  5
98C4
  8
AM_0
 10
203.7235153747171
 20
355.8653494232907
 30
0.0
 40
1.02
 50
179.99998999999889
 51
270.0
  0
ARC
  5
98C5
  8
AM_0
 10
203.70349537471691
 20
360.72532942329082
 30
0.0
 40
1.0
 50
90.000003000000945
 51
180.00001000000091
  0
LINE
  5
98C6
  8
AM_0
 10
202.70349537471699
 20
355.8653494232907
 30
0.0
 11
202.70349537471699
 21
360.72532942329082
 31
0.0
  0
ARC
  5
98C7
  8
AM_0
 10
221.763495374717
 20
353.39537942329082
 30
0.0
 40
1.460011199999999
 50
269.77524999999991
 51
90.224750000000114
  0
ARC
  5
98C8
  8
AM_0
 10
218.06348537471681
 20
353.36534942329081
 30
0.0
 40
1.0000255999999981
 50
269.58946999999989
 51
90.410531000001029
  0
ARC
  5
98C9
  8
AM_0
 10
218.06354537471691
 20
363.3653494232907
 30
0.0
 40
1.0000040999999991
 50
269.999989999999
 51
90.000003000000945
  0
LINE
  5
98CA
  8
AM_0
 10
224.43353537471711
 20
379.4053794232907
 30
0.0
 11
222.01355537471699
 21
379.4053794232907
 31
0.0
  0
ARC
  5
98CB
  8
AM_0
 10
225.72260537471701
 20
379.40623942329057
 30
0.0
 40
0.9990923399999999
 50
89.947921999999295
 51
180.05208000000101
  0
ARC
  5
98CC
  8
AM_0
 10
224.37366537471689
 20
376.21763942329079
 30
0.0
 40
1.5022733999999991
 50
195.1365099999997
 51
269.99412000000041
  0
ARC
  5
98CD
  8
AM_0
 10
224.4292053747171
 20
380.9056294232908
 30
0.0
 40
1.500286
 50
192.3263099999985
 51
270.16416999999848
  0
LINE
  5
98CE
  8
AM_0
 10
232.7235153747171
 20
379.86564942329079
 30
0.0
 11
244.84863537471699
 21
379.86564942329079
 31
0.0
  0
LINE
  5
98CF
  8
AM_0
 10
232.7235153747171
 20
366.42021942329069
 30
0.0
 11
237.72357537471689
 21
366.42021942329069
 31
0.0
  0
LINE
  5
98D0
  8
AM_0
 10
245.7235153747169
 20
377.65367942329078
 30
0.0
 11
245.7235153747169
 21
367.7404394232907
 31
0.0
  0
ARC
  5
98D1
  8
AM_0
 10
244.84863537471699
 20
369.86564942329062
 30
0.0
 40
10.0
 50
79.999998000001099
 51
90.000003000000945
  0
LINE
  5
98D2
  8
AM_0
 10
225.7235153747169
 20
391.8653494232907
 30
0.0
 11
232.7235153747171
 21
391.8653494232907
 31
0.0
  0
ARC
  5
98D3
  8
AM_0
 10
218.95117537471691
 20
392.11534942329081
 30
0.0
 40
1.5
 50
12.12979199999852
 51
90.000003000000945
  0
ARC
  5
98D4
  8
AM_0
 10
218.80719537471691
 20
392.78538942329061
 30
0.0
 40
1.5
 50
12.12979199999852
 51
90.000003000000945
  0
LINE
  5
98D5
  8
AM_0
 10
221.18396537471699
 20
388.8653494232907
 30
0.0
 11
224.7235153747169
 21
388.8653494232907
 31
0.0
  0
ARC
  5
98D6
  8
AM_0
 10
217.53296537471701
 20
388.22618942329069
 30
0.0
 40
1.9991226
 50
15.05079100000003
 51
89.984388999999666
  0
ARC
  5
98D7
  8
AM_0
 10
219.24347537471701
 20
390.75535942329083
 30
0.0
 40
1.5
 50
12.12979199999852
 51
90.000003000000945
  0
ARC
  5
98D8
  8
AM_0
 10
225.7233353747171
 20
390.86558942329083
 30
0.0
 40
0.99980682
 50
89.98893100000069
 51
180.0110700000007
  0
LINE
  5
98D9
  8
AM_0
 10
236.74973537471689
 20
391.75993942329058
 30
0.0
 11
232.72354537471699
 21
391.8653494232907
 31
0.0
  0
ARC
  5
98DA
  8
AM_0
 10
236.72357537471689
 20
390.76026942329082
 30
0.0
 40
1.0
 50
0.0
 51
88.499997000000747
  0
ARC
  5
98DB
  8
AM_0
 10
252.2235153747169
 20
392.89231942329081
 30
0.0
 40
5.0
 50
91.500001000001546
 51
180.00001000000091
  0
LINE
  5
98DC
  8
AM_0
 10
247.2235153747169
 20
392.89231942329081
 30
0.0
 11
247.2235153747169
 21
388.96763942329079
 31
0.0
  0
ARC
  5
98DD
  8
AM_0
 10
285.2235153747169
 20
383.12013942329082
 30
0.0
 40
1.0
 50
0.0
 51
90.000003000000945
  0
CIRCLE
  5
98DE
  8
AM_0
 10
320.2235153747169
 20
385.86537942329079
 30
0.0
 40
5.0
  0
ARC
  5
98DF
  8
AM_0
 10
310.22351537471712
 20
385.23612942329078
 30
0.0
 40
5.0
 50
180.00001000000091
 51
268.5000000000004
  0
LINE
  5
98E0
  8
AM_0
 10
282.22351537471718
 20
372.0731094232907
 30
0.0
 11
282.22351537471718
 21
384.62013942329082
 31
0.0
  0
LINE
  5
98E1
  8
AM_0
 10
290.18655537471687
 20
382.90254942329062
 30
0.0
 11
283.42294537471679
 21
386.8075094232907
 31
0.0
  0
LINE
  5
98E2
  8
AM_0
 10
281.2235153747169
 20
371.09901942329083
 30
0.0
 11
281.2235153747169
 21
387.74705942329069
 31
0.0
  0
LINE
  5
98E3
  8
AM_0
 10
330.2235153747169
 20
391.92341942329062
 30
0.0
 11
330.2235153747169
 21
374.80729942329077
 31
0.0
  0
LINE
  5
98E5
  8
ﾁｭｳｼﾝｾﾝ
 10
320.2235153747169
 20
394.86537942329079
 30
0.0
 11
320.2235153747169
 21
376.86537942329079
 31
0.0
  0
LINE
  5
98E6
  8
AM_0
 10
315.2235153747169
 20
368.97126942329049
 30
0.0
 11
294.72162537471701
 21
369.68720942329082
 31
0.0
  0
LINE
  5
98E7
  8
AM_0
 10
282.22351537471718
 20
372.57310942329082
 30
0.0
 11
285.2235153747169
 21
372.57310942329082
 31
0.0
  0
LINE
  5
98E8
  8
AM_0
 10
282.22351537471718
 20
375.45985942329082
 30
0.0
 11
285.2235153747169
 21
375.45985942329082
 31
0.0
  0
LINE
  5
98E9
  8
AM_0
 10
282.22351537471718
 20
381.2333894232907
 30
0.0
 11
285.2235153747169
 21
381.2333894232907
 31
0.0
  0
LINE
  5
98EA
  8
AM_0
 10
281.2235153747169
 20
371.09901942329083
 30
0.0
 11
283.2235153747169
 21
371.09901942329083
 31
0.0
  0
LINE
  5
98EB
  8
AM_0
 10
255.7235153747169
 20
376.68513942329082
 30
0.0
 11
255.7235153747169
 21
366.7149194232905
 31
0.0
  0
LINE
  5
98EC
  8
AM_0
 10
281.2235153747169
 20
372.0731094232907
 30
0.0
 11
282.22351537471718
 21
372.0731094232907
 31
0.0
  0
LINE
  5
98ED
  8
AM_0
 10
307.21249537471692
 20
381.24443942329083
 30
0.0
 11
294.924775374717
 21
381.56617942329081
 31
0.0
  0
LINE
  5
98EE
  8
AM_0
 10
286.22351537471712
 20
383.12013942329082
 30
0.0
 11
286.22351537471712
 21
373.57310942329082
 31
0.0
  0
LINE
  5
98EF
  8
AM_0
 10
294.72165537471687
 20
369.68720942329082
 30
0.0
 11
283.2235153747169
 21
371.09901942329083
 31
0.0
  0
ARC
  5
98F0
  8
AM_0
 10
285.2235153747169
 20
373.57310942329082
 30
0.0
 40
1.0
 50
269.999989999999
 51
0.0000006832462478
  0
ARC
  5
98F1
  8
AM_0
 10
285.2235153747169
 20
374.4598894232908
 30
0.0
 40
1.0
 50
0.0
 51
90.000003000000945
  0
ARC
  5
98F2
  8
AM_0
 10
285.2235153747169
 20
380.23338942329082
 30
0.0
 40
1.0
 50
0.0
 51
90.000003000000945
  0
ARC
  5
98F3
  8
AM_0
 10
285.2235153747169
 20
376.45988942329058
 30
0.0
 40
1.0
 50
269.999989999999
 51
0.0000006832462478
  0
ARC
  5
98F4
  8
AM_0
 10
285.2235153747169
 20
382.2333894232907
 30
0.0
 40
1.0
 50
269.999989999999
 51
0.0000006832462478
  0
ARC
  5
98F5
  8
AM_0
 10
295.18652537471712
 20
391.56278942329061
 30
0.0
 40
10.0
 50
239.99999999999949
 51
268.5000000000004
  0
LINE
  5
98F6
  8
AM_0
 10
330.2235153747169
 20
347.39121942329081
 30
0.0
 11
330.2235153747169
 21
309.33952942329068
 31
0.0
  0
ARC
  5
98F7
  8
AM_0
 10
338.2235153747169
 20
328.36534942329081
 30
0.0
 40
3.0
 50
89.986013999999244
 51
270.01398999999992
  0
LINE
  5
98F8
  8
AM_0
 10
332.2235153747169
 20
337.8653794232909
 30
0.0
 11
360.2235153747169
 21
337.8653794232909
 31
0.0
  0
LINE
  5
98F9
  8
AM_0
 10
332.2235153747169
 20
318.86537942329068
 30
0.0
 11
360.2235153747169
 21
318.86537942329068
 31
0.0
  0
LINE
  5
98FA
  8
AM_0
 10
332.2235153747169
 20
318.36537942329068
 30
0.0
 11
332.2235153747169
 21
338.3653794232909
 31
0.0
  0
LINE
  5
98FB
  8
AM_0
 10
330.2235153747169
 20
318.36537942329068
 30
0.0
 11
332.2235153747169
 21
318.36537942329068
 31
0.0
  0
LINE
  5
98FC
  8
AM_0
 10
330.2235153747169
 20
338.3653794232909
 30
0.0
 11
332.2235153747169
 21
338.3653794232909
 31
0.0
  0
LINE
  5
98FD
  8
AM_0
 10
360.2235153747169
 20
318.86537942329068
 30
0.0
 11
360.2235153747169
 21
337.8653794232909
 31
0.0
  0
LINE
  5
98FE
  8
AM_0
 10
338.2235153747169
 20
325.36534942329058
 30
0.0
 11
338.2235153747169
 21
331.36534942329081
 31
0.0
  0
LINE
  5
98FF
  8
AM_0
 10
338.2235153747169
 20
325.36534942329058
 30
0.0
 11
360.2235153747169
 21
325.36534942329058
 31
0.0
  0
LINE
  5
9900
  8
AM_0
 10
338.2235153747169
 20
331.36534942329081
 30
0.0
 11
360.2235153747169
 21
331.36534942329081
 31
0.0
  0
ARC
  5
9901
  8
AM_0
 10
329.2235153747169
 20
347.39121942329081
 30
0.0
 40
1.0
 50
0.0
 51
88.499997000000747
  0
ARC
  5
9902
  8
AM_0
 10
329.2235153747169
 20
349.39189942329068
 30
0.0
 40
1.0
 50
179.99998999999889
 51
268.50000999999872
  0
LINE
  5
9903
  8
AM_0
 10
329.19736537471692
 20
348.39222942329081
 30
0.0
 11
329.249705374717
 21
348.39085942329069
 31
0.0
  0
LINE
  5
9904
  8
AM_0
 10
320.0926553747168
 20
370.7378694232907
 30
0.0
 11
325.3020653747169
 21
370.60145942329069
 31
0.0
  0
ARC
  5
9905
  8
AM_0
 10
320.2235153747169
 20
375.73612942329049
 30
0.0
 40
5.0
 50
180.00001000000091
 51
268.5000000000004
  0
ARC
  5
9906
  8
AM_0
 10
312.2235153747169
 20
377.18101942329082
 30
0.0
 40
3.0
 50
0.0
 51
88.499997000000747
  0
LINE
  5
9907
  8
AM_0
 10
310.0926553747168
 20
380.2378694232907
 30
0.0
 11
312.3020653747169
 21
380.1800094232907
 31
0.0
  0
ARC
  5
9908
  8
AM_0
 10
325.2235153747169
 20
374.80729942329077
 30
0.0
 40
5.0
 50
289.51466999999951
 51
0.0
  0
ARC
  5
9909
  8
AM_0
 10
325.2235153747169
 20
367.6024694232907
 30
0.0
 40
3.0
 50
0.0
 51
88.499997000000747
  0
LINE
  5
990A
  8
AM_0
 10
325.35440537471698
 20
396.92170942329079
 30
0.0
 11
270.22354537471699
 21
398.36537942329079
 31
0.0
  0
ARC
  5
990B
  8
AM_0
 10
278.42297537471688
 20
378.14723942329078
 30
0.0
 40
10.0
 50
60.000002000001302
 51
88.499997000000747
  0
LINE
  5
990C
  8
AM_0
 10
282.22351537471718
 20
384.12013942329082
 30
0.0
 11
285.2235153747169
 21
384.12013942329082
 31
0.0
  0
ARC
  5
990D
  8
AM_0
 10
270.22351537471712
 20
395.3643394232908
 30
0.0
 40
1.0
 50
180.00001000000091
 51
271.49999999999937
  0
ARC
  5
990E
  8
AM_0
 10
270.22351537471712
 20
397.36503942329063
 30
0.0
 40
1.0
 50
91.500001000001546
 51
180.00001000000091
  0
LINE
  5
990F
  8
AM_0
 10
273.2235153747169
 20
396.3384894232907
 30
0.0
 11
273.2235153747169
 21
390.33985942329082
 31
0.0
  0
ARC
  5
9910
  8
AM_0
 10
271.2235153747169
 20
390.33985942329082
 30
0.0
 40
2.0
 50
268.5000000000004
 51
0.0000006832462478
  0
LINE
  5
9911
  8
AM_0
 10
281.2235153747169
 20
384.62013942329082
 30
0.0
 11
282.22351537471718
 21
384.62013942329082
 31
0.0
  0
ARC
  5
9912
  8
AM_0
 10
272.2235153747169
 20
393.41603942329061
 30
0.0
 40
1.0
 50
0.0
 51
91.500001000001546
  0
ARC
  5
9913
  8
AM_0
 10
271.2235153747169
 20
396.3384894232907
 30
0.0
 40
2.0
 50
0.0
 51
88.499997000000747
  0
LINE
  5
9914
  8
AM_0
 10
269.2235153747169
 20
397.36503942329063
 30
0.0
 11
269.2235153747169
 21
395.3643394232908
 31
0.0
  0
LINE
  5
9915
  8
AM_0
 10
272.19736537471692
 20
394.41566942329081
 30
0.0
 11
270.24973537471692
 21
394.36466942329082
 31
0.0
  0
LINE
  5
9916
  8
AM_0
 10
305.2235153747169
 20
394.36927942329078
 30
0.0
 11
305.2235153747169
 21
385.23612942329078
 31
0.0
  0
ARC
  5
9917
  8
AM_0
 10
308.2235153747169
 20
394.36927942329078
 30
0.0
 40
3.0
 50
88.499997000000747
 51
180.00001000000091
  0
LINE
  5
9918
  8
ﾁｭｳｼﾝｾﾝ
 10
311.2235153747169
 20
385.86537942329079
 30
0.0
 11
329.2235153747169
 21
385.86537942329079
 31
0.0
  0
ARC
  5
9919
  8
AM_0
 10
325.2235153747169
 20
391.92341942329062
 30
0.0
 40
5.0
 50
0.0
 51
88.499997000000747
  0
LINE
  5
9949
  8
ﾁｭｳｼﾝｾﾝ
 10
257.22351537471712
 20
394.86537942329079
 30
0.0
 11
257.22351537471712
 21
376.86537942329079
 31
0.0
  0
LINE
  5
994A
  8
ﾁｭｳｼﾝｾﾝ
 10
248.22351537471721
 20
385.86537942329079
 30
0.0
 11
266.22351537471712
 21
385.86537942329079
 31
0.0
  0
LINE
  5
9951
  8
ﾁｭｳｼﾝｾﾝ
 10
257.22351537471712
 20
279.86534942329058
 30
0.0
 11
257.22351537471712
 21
261.8653494232907
 31
0.0
  0
LINE
  5
9952
  8
ﾁｭｳｼﾝｾﾝ
 10
248.22351537471721
 20
270.8653494232907
 30
0.0
 11
266.22351537471712
 21
270.8653494232907
 31
0.0
  0
LINE
  5
9959
  8
ﾁｭｳｼﾝｾﾝ
 10
320.2235153747169
 20
279.86534942329058
 30
0.0
 11
320.2235153747169
 21
261.8653494232907
 31
0.0
  0
LINE
  5
995A
  8
ﾁｭｳｼﾝｾﾝ
 10
311.2235153747169
 20
270.8653494232907
 30
0.0
 11
329.2235153747169
 21
270.8653494232907
 31
0.0
  0
LINE
  5
A2F8
  8
AM_0
 10
21.223545374717101
 20
323.36534942329081
 30
0.0
 11
21.223545374717101
 21
333.36534942329081
 31
0.0
  0
LINE
  5
A2F9
  8
AM_0
 10
22.22208527471707
 20
384.36534942329081
 30
0.0
 11
22.22208527471707
 21
272.36534942329081
 31
0.0
  0
LINE
  5
A2FA
  8
AM_0
 10
30.22351537471712
 20
275.5833594232908
 30
0.0
 11
30.22351537471712
 21
381.11534942329052
 31
0.0
  0
LINE
  5
A2FB
  8
AM_0
 10
72.723515374717124
 20
291.18028942329067
 30
0.0
 11
72.723515374717124
 21
365.55137942329071
 31
0.0
  0
LINE
  5
A2FC
  8
AM_0
 10
27.72351537471712
 20
293.83628942329068
 30
0.0
 11
27.72351537471712
 21
362.89439942329079
 31
0.0
  0
LINE
  5
A2FD
  8
AM_0
 10
27.22208527471707
 20
363.10381051899799
 30
0.0
 11
27.22208527471707
 21
293.62688832758329
 31
0.0
  0
ARC
  5
A2FE
  8
AM_0
 10
31.22208527471707
 20
272.36534942329081
 30
0.0
 40
9.0
 50
179.99997999999781
 51
269.99995000000138
  0
LINE
  5
A2FF
  8
AM_0
 10
22.22208527471707
 20
323.36534942329081
 30
0.0
 11
21.223545374717101
 21
323.36534942329081
 31
0.0
  0
LINE
  5
A300
  8
AM_0
 10
52.723515374717117
 20
269.61534942329081
 30
0.0
 11
52.723515374717117
 21
275.61534942329081
 31
0.0
  0
LINE
  5
A301
  8
AM_0
 10
27.22208527471707
 20
285.3218305189979
 30
0.0
 11
27.22208527471707
 21
273.36534942329081
 31
0.0
  0
LINE
  5
A302
  8
AM_0
 10
31.22208527471707
 20
263.36534942329081
 30
0.0
 11
68.723515374717124
 21
263.36534942329081
 31
0.0
  0
LINE
  5
A303
  8
AM_0
 10
52.723515374717117
 20
269.61534942329081
 30
0.0
 11
77.723515374717124
 21
269.61534942329081
 31
0.0
  0
LINE
  5
A304
  8
AM_0
 10
32.222085274717067
 20
268.3653494232907
 30
0.0
 11
55.723515374717117
 21
268.3653494232907
 31
0.0
  0
ARC
  5
A305
  8
AM_0
 10
32.222085274717067
 20
273.36534942329081
 30
0.0
 40
5.0
 50
179.99997999999781
 51
269.99995000000138
  0
LINE
  5
A306
  8
AM_0
 10
55.723515374717117
 20
269.61534942329081
 30
0.0
 11
55.723515374717117
 21
263.36534942329081
 31
0.0
  0
LINE
  5
A307
  8
AM_0
 10
65.723515374717124
 20
268.3653494232907
 30
0.0
 11
68.723515374717124
 21
268.3653494232907
 31
0.0
  0
LINE
  5
A308
  8
AM_0
 10
65.723515374717124
 20
269.61534942329081
 30
0.0
 11
65.723515374717124
 21
263.36534942329081
 31
0.0
  0
LINE
  5
A309
  8
AM_0
 10
68.723515374717124
 20
268.3653494232907
 30
0.0
 11
68.723515374717124
 21
263.36534942329081
 31
0.0
  0
LINE
  5
A30A
  8
AM_0
 10
30.22351537471712
 20
284.47435942329071
 30
0.0
 11
72.723515374717124
 21
284.47435942329071
 31
0.0
  0
LINE
  5
A30B
  8
AM_0
 10
30.22351537471712
 20
294.72435942329082
 30
0.0
 11
72.723515374717124
 21
294.72435942329082
 31
0.0
  0
LINE
  5
A30C
  8
AM_0
 10
29.72351537471712
 20
275.61534942329081
 30
0.0
 11
77.723515374717124
 21
275.61534942329081
 31
0.0
  0
LINE
  5
A30D
  8
AM_0
 10
28.92352537471703
 20
294.07432942329081
 30
0.0
 11
28.92352537471703
 21
284.87437942329069
 31
0.0
  0
LINE
  5
A30E
  8
AM_0
 10
25.623545374717018
 20
290.97435942329071
 30
0.0
 11
25.623545374717018
 21
287.97435942329082
 31
0.0
  0
LINE
  5
A30F
  8
AM_0
 10
28.92352537471703
 20
284.87437942329069
 30
0.0
 11
30.22351537471712
 21
284.87437942329069
 31
0.0
  0
LINE
  5
A310
  8
AM_0
 10
28.623545374717018
 20
284.97435942329048
 30
0.0
 11
28.92352537471703
 21
284.97435942329048
 31
0.0
  0
ARC
  5
A311
  8
AM_0
 10
28.623545374717018
 20
287.97435942329082
 30
0.0
 40
3.0
 50
179.99997999999781
 51
269.99995000000138
  0
ARC
  5
A312
  8
AM_0
 10
29.72351537471712
 20
277.61534942329081
 30
0.0
 40
2.0
 50
179.99997999999781
 51
269.99995000000138
  0
LINE
  5
A313
  8
AM_0
 10
27.72351537471712
 20
285.11241942329082
 30
0.0
 11
27.72351537471712
 21
277.61534942329081
 31
0.0
  0
LINE
  5
A314
  8
AM_0
 10
28.92352537471703
 20
294.07432942329081
 30
0.0
 11
30.22351537471712
 21
294.07432942329081
 31
0.0
  0
LINE
  5
A315
  8
AM_0
 10
28.623545374717018
 20
293.97435942329082
 30
0.0
 11
28.92352537471703
 21
293.97435942329082
 31
0.0
  0
ARC
  5
A316
  8
AM_0
 10
28.623545374717018
 20
290.97435942329071
 30
0.0
 40
3.0
 50
89.999988999997569
 51
179.99997999999781
  0
LINE
  5
A317
  8
AM_0
 10
27.72351537471712
 20
323.36534942329081
 30
0.0
 11
27.22208527471707
 21
323.36534942329081
 31
0.0
  0
LINE
  5
A318
  8
AM_0
 10
72.723515374717124
 20
284.47435942329071
 30
0.0
 11
72.723515374717124
 21
275.61534942329081
 31
0.0
  0
ARC
  5
A319
  8
AM_0
 10
31.22208527471707
 20
384.36534942329081
 30
0.0
 40
9.0
 50
89.999988999997569
 51
179.99997999999781
  0
LINE
  5
A31A
  8
AM_0
 10
22.22208527471707
 20
333.36534942329081
 30
0.0
 11
21.223545374717101
 21
333.36534942329081
 31
0.0
  0
ARC
  5
A31B
  8
AM_0
 10
32.222085274717067
 20
383.36534942329081
 30
0.0
 40
5.0
 50
89.999988999997569
 51
180.0
  0
LINE
  5
A31C
  8
AM_0
 10
55.723515374717117
 20
387.11534942329081
 30
0.0
 11
55.723515374717117
 21
393.36534942329081
 31
0.0
  0
LINE
  5
A31D
  8
AM_0
 10
65.723515374717124
 20
387.11534942329081
 30
0.0
 11
65.723515374717124
 21
393.36534942329081
 31
0.0
  0
LINE
  5
A31E
  8
AM_0
 10
30.22351537471712
 20
372.25633942329063
 30
0.0
 11
72.723515374717124
 21
372.25633942329063
 31
0.0
  0
LINE
  5
A31F
  8
AM_0
 10
30.22351537471712
 20
362.00633942329063
 30
0.0
 11
72.723515374717124
 21
362.00633942329063
 31
0.0
  0
LINE
  5
A320
  8
AM_0
 10
29.72351537471712
 20
381.11534942329052
 30
0.0
 11
77.723515374717124
 21
381.11534942329052
 31
0.0
  0
LINE
  5
A321
  8
AM_0
 10
52.723515374717117
 20
387.11534942329052
 30
0.0
 11
77.723515374717124
 21
387.11534942329052
 31
0.0
  0
LINE
  5
A322
  8
AM_0
 10
27.72351537471712
 20
333.36534942329081
 30
0.0
 11
27.22208527471707
 21
333.36534942329081
 31
0.0
  0
LINE
  5
A323
  8
AM_0
 10
27.72351537471712
 20
371.61827942329057
 30
0.0
 11
27.72351537471712
 21
379.11534942329052
 31
0.0
  0
LINE
  5
A324
  8
AM_0
 10
27.22208527471707
 20
371.40886832758332
 30
0.0
 11
27.22208527471707
 21
383.36534942329052
 31
0.0
  0
LINE
  5
A325
  8
AM_0
 10
28.92352537471703
 20
371.85631942329059
 30
0.0
 11
30.22351537471712
 21
371.85631942329059
 31
0.0
  0
LINE
  5
A326
  8
AM_0
 10
28.623545374717018
 20
371.75633942329063
 30
0.0
 11
28.92352537471703
 21
371.75633942329063
 31
0.0
  0
ARC
  5
A327
  8
AM_0
 10
28.623545374717018
 20
368.75633942329063
 30
0.0
 40
3.0
 50
90.000049999998538
 51
180.00002000000191
  0
LINE
  5
A328
  8
AM_0
 10
28.92352537471703
 20
362.6563694232907
 30
0.0
 11
30.22351537471712
 21
362.6563694232907
 31
0.0
  0
LINE
  5
A329
  8
AM_0
 10
28.623545374717018
 20
362.75633942329063
 30
0.0
 11
28.92352537471703
 21
362.75633942329063
 31
0.0
  0
ARC
  5
A32A
  8
AM_0
 10
28.623545374717018
 20
365.75633942329051
 30
0.0
 40
3.0
 50
180.00002000000191
 51
270.00001100000242
  0
LINE
  5
A32B
  8
AM_0
 10
28.92352537471703
 20
362.6563694232907
 30
0.0
 11
28.92352537471703
 21
371.85631942329059
 31
0.0
  0
LINE
  5
A32C
  8
AM_0
 10
25.623545374717018
 20
365.75633942329051
 30
0.0
 11
25.623545374717018
 21
368.75633942329063
 31
0.0
  0
ARC
  5
A32D
  8
AM_0
 10
29.72351537471712
 20
379.11534942329052
 30
0.0
 40
2.0
 50
90.000049999998538
 51
180.00002000000191
  0
LINE
  5
A32E
  8
AM_0
 10
52.723515374717117
 20
387.11534942329052
 30
0.0
 11
52.723515374717117
 21
381.11534942329052
 31
0.0
  0
LINE
  5
A32F
  8
AM_0
 10
72.723515374717124
 20
372.25633942329063
 30
0.0
 11
72.723515374717124
 21
381.11534942329052
 31
0.0
  0
LINE
  5
A330
  8
AM_0
 10
31.22208527471707
 20
393.36534942329081
 30
0.0
 11
68.723515374717124
 21
393.36534942329081
 31
0.0
  0
LINE
  5
A331
  8
AM_0
 10
32.222085274717067
 20
388.36534942329081
 30
0.0
 11
55.723515374717117
 21
388.36534942329081
 31
0.0
  0
LINE
  5
A332
  8
AM_0
 10
65.723515374717124
 20
388.36534942329081
 30
0.0
 11
68.723515374717124
 21
388.36534942329081
 31
0.0
  0
LINE
  5
A333
  8
AM_0
 10
68.723515374717124
 20
388.36534942329081
 30
0.0
 11
68.723515374717124
 21
393.36534942329081
 31
0.0
  0
ARC
  5
A466
  8
AM_0
 10
202.84838910887009
 20
219.86534942329089
 30
0.0
 40
2.5
 50
270.0
 51
0.0
  0
LINE
  5
A467
  8
AM_0
 10
211.7235153747165
 20
234.36534942329089
 30
0.0
 11
203.3483891088697
 21
234.3653494232905
 31
0.0
  0
LINE
  5
A468
  8
AM_0
 10
205.84838910887009
 20
230.36534942329061
 30
0.0
 11
203.67408424571099
 21
230.36534942329061
 31
0.0
  0
LINE
  5
A469
  8
AM_0
 10
130.2483891088695
 20
251.36534942329129
 30
0.0
 11
210.72351537471661
 21
251.36534942329081
 31
0.0
  0
LINE
  5
A46B
  8
AM_0
 10
126.9669653246587
 20
222.36534942329129
 30
0.0
 11
158.9450350633908
 21
227.81377546003441
 31
0.0
  0
CIRCLE
  5
A46C
  8
AM_0
 10
139.5483891088696
 20
234.36534942329121
 30
0.0
 40
6.2999999999996117
  0
ARC
  5
A46D
  8
AM_0
 10
139.5483891088696
 20
234.36534942329121
 30
0.0
 40
9.2999999999997094
 50
180.0
 51
0.0
  0
LINE
  5
A46E
  8
AM_0
 10
203.67408424571099
 20
230.36534942329061
 30
0.0
 11
127.37408424571041
 21
217.36534942329129
 31
0.0
  0
LINE
  5
A46F
  8
AM_0
 10
127.0483891088691
 20
221.36534942329141
 30
0.0
 11
203.3483891088697
 21
234.3653494232905
 31
0.0
  0
LINE
  5
A470
  8
AM_0
 10
127.0483891088691
 20
221.36534942329141
 30
0.0
 11
203.3483891088697
 21
234.3653494232905
 31
0.0
  0
LINE
  5
A471
  8
AM_0
 10
202.84838910887009
 20
217.36534942329089
 30
0.0
 11
127.37408424571041
 21
217.36534942329129
 31
0.0
  0
LINE
  5
A472
  8
AM_0
 10
122.94838910886919
 20
222.36534942329129
 30
0.0
 11
122.94838910886919
 21
218.86534942329129
 31
0.0
  0
LINE
  5
A473
  8
AM_0
 10
122.4483891088702
 20
226.36534942329129
 30
0.0
 11
122.4483891088704
 21
218.86534942329129
 31
0.0
  0
LINE
  5
A474
  8
AM_0
 10
124.4483891088697
 20
217.36534942329129
 30
0.0
 11
127.37408424571041
 21
217.36534942329129
 31
0.0
  0
LINE
  5
A475
  8
AM_0
 10
123.9483891088702
 20
217.36534942329129
 30
0.0
 11
124.24687500502711
 21
217.36534942329129
 31
0.0
  0
ARC
  5
A476
  8
AM_0
 10
123.9483891088702
 20
218.86534942329129
 30
0.0
 40
1.5000000000001099
 50
180.0
 51
269.99999999999511
  0
ARC
  5
A477
  8
AM_0
 10
124.4483891088697
 20
218.86534942329129
 30
0.0
 40
1.499999999999998
 50
180.0
 51
270.0
  0
LINE
  5
A478
  8
AM_0
 10
130.2483891088695
 20
251.36534942329129
 30
0.0
 11
130.24838910886919
 21
234.36534942329121
 31
0.0
  0
LINE
  5
A479
  8
AM_0
 10
124.44838910886919
 20
250.36534942329121
 30
0.0
 11
124.44838910886941
 21
222.36534942329129
 31
0.0
  0
LINE
  5
A47A
  8
AM_0
 10
123.2483891088699
 20
221.36534942329141
 30
0.0
 11
127.0483891088691
 21
221.36534942329141
 31
0.0
  0
LINE
  5
A47B
  8
AM_0
 10
126.9669653246587
 20
222.36534942329129
 30
0.0
 11
122.94838910886919
 21
222.36534942329129
 31
0.0
  0
LINE
  5
A47C
  8
AM_0
 10
122.94838910886919
 20
221.36534942329141
 30
0.0
 11
127.0483891088691
 21
221.36534942329141
 31
0.0
  0
LINE
  5
A47D
  8
AM_0
 10
123.2483891088699
 20
226.36534942329129
 30
0.0
 11
122.4483891088702
 21
226.36534942329129
 31
0.0
  0
LINE
  5
A47E
  8
AM_0
 10
124.44838910886941
 20
226.36534942329129
 30
0.0
 11
123.2483891088699
 21
226.36534942329129
 31
0.0
  0
LINE
  5
A47F
  8
AM_0
 10
125.44838910886909
 20
251.36534942329129
 30
0.0
 11
130.2483891088695
 21
251.36534942329129
 31
0.0
  0
ARC
  5
A480
  8
AM_0
 10
125.44838910886909
 20
250.36534942329121
 30
0.0
 40
1.0
 50
90.0
 51
180.0
  0
LINE
  5
A481
  8
AM_0
 10
195.07854062788701
 20
217.36534942329089
 30
0.0
 11
195.07854062788701
 21
228.90084002575901
 31
0.0
  0
LINE
  5
A482
  8
AM_0
 10
168.34503506339081
 20
229.4153481992216
 30
0.0
 11
170.54838910886821
 21
229.790755834755
 31
0.0
  0
LINE
  5
A483
  8
AM_0
 10
140.2235153747171
 20
253.86534942329109
 30
0.0
 11
140.2235153747171
 21
251.36534942329081
 31
0.0
  0
LINE
  5
A484
  8
AM_0
 10
148.8483891088693
 20
251.36534942329081
 30
0.0
 11
148.8483891088693
 21
234.36534942329089
 31
0.0
  0
LINE
  5
A486
  8
AM_0
 10
168.34503506339081
 20
229.4153481992216
 30
0.0
 11
168.34503506339081
 21
246.36534942329089
 31
0.0
  0
LINE
  5
A487
  8
AM_0
 10
166.8450350633909
 20
246.36534942329089
 30
0.0
 11
166.8450350633909
 21
229.15977808126621
 31
0.0
  0
LINE
  5
A488
  8
AM_0
 10
164.64503506339079
 20
228.7849419082653
 30
0.0
 11
164.64503506339079
 21
246.36534942329089
 31
0.0
  0
LINE
  5
A489
  8
AM_0
 10
163.14503506339091
 20
246.36534942329089
 30
0.0
 11
163.14503506339091
 21
228.52937179031011
 31
0.0
  0
LINE
  5
A48A
  8
AM_0
 10
158.9450350633908
 20
246.36534942329089
 30
0.0
 11
158.9450350633908
 21
227.81377546003441
 31
0.0
  0
LINE
  5
A48B
  8
AM_0
 10
160.945035063391
 20
228.1545356173084
 30
0.0
 11
160.945035063391
 21
246.36534942329141
 31
0.0
  0
LINE
  5
A48C
  8
AM_0
 10
160.945035063391
 20
228.1545356173084
 30
0.0
 11
163.14503506339091
 21
228.52937179031011
 31
0.0
  0
LINE
  5
A48D
  8
AM_0
 10
164.64503506339079
 20
228.7849419082653
 30
0.0
 11
166.8450350633909
 21
229.15977808126621
 31
0.0
  0
LINE
  5
A48E
  8
AM_0
 10
160.945035063391
 20
242.36534942329101
 30
0.0
 11
158.9450350633908
 21
242.36534942329101
 31
0.0
  0
LINE
  5
A48F
  8
AM_0
 10
160.945035063391
 20
246.36534942329141
 30
0.0
 11
158.9450350633908
 21
246.36534942329089
 31
0.0
  0
LINE
  5
A490
  8
AM_0
 10
168.34503506339081
 20
242.3653494232905
 30
0.0
 11
166.8450350633909
 21
242.3653494232905
 31
0.0
  0
LINE
  5
A491
  8
AM_0
 10
168.34503506339081
 20
246.36534942329089
 30
0.0
 11
166.8450350633909
 21
246.36534942329089
 31
0.0
  0
LINE
  5
A492
  8
AM_0
 10
164.64503506339079
 20
242.3653494232905
 30
0.0
 11
163.14503506339091
 21
242.36534942329101
 31
0.0
  0
LINE
  5
A493
  8
AM_0
 10
164.64503506339079
 20
246.36534942329089
 30
0.0
 11
163.14503506339091
 21
246.36534942329089
 31
0.0
  0
LINE
  5
A494
  8
AM_0
 10
186.86180529077771
 20
232.57023696666599
 30
0.0
 11
196.72351537471661
 21
234.25047590626261
 31
0.0
  0
LINE
  5
A495
  8
AM_0
 10
179.45509719982289
 20
231.3082814596882
 30
0.0
 11
179.45509719982289
 21
246.36534942329089
 31
0.0
  0
LINE
  5
A496
  8
AM_0
 10
177.9550971998232
 20
246.36534942329089
 30
0.0
 11
177.95509719982309
 21
231.0527113417327
 31
0.0
  0
LINE
  5
A497
  8
AM_0
 10
175.7517431543456
 20
230.67730370619921
 30
0.0
 11
175.75174315434569
 21
246.36534942329089
 31
0.0
  0
LINE
  5
A498
  8
AM_0
 10
174.25174315434569
 20
246.36534942329089
 30
0.0
 11
174.25174315434549
 21
230.42173358824411
 31
0.0
  0
LINE
  5
A499
  8
AM_0
 10
172.5483891088715
 20
230.13151599202939
 30
0.0
 11
172.54838910887179
 21
246.36534942329371
 31
0.0
  0
LINE
  5
A49A
  8
AM_0
 10
170.54838910886821
 20
246.36534942329089
 30
0.0
 11
170.54838910886821
 21
229.790755834755
 31
0.0
  0
LINE
  5
A49B
  8
AM_0
 10
186.86180529077771
 20
232.57023696666599
 30
0.0
 11
186.86180529077771
 21
246.36534942329089
 31
0.0
  0
LINE
  5
A49C
  8
AM_0
 10
185.3618052907776
 20
246.36534942329089
 30
0.0
 11
185.3618052907776
 21
232.3146668487106
 31
0.0
  0
LINE
  5
A49D
  8
AM_0
 10
183.15845124530011
 20
231.93925921317719
 30
0.0
 11
183.15845124530011
 21
246.36534942329089
 31
0.0
  0
LINE
  5
A49E
  8
AM_0
 10
181.65845124530011
 20
246.36534942329089
 30
0.0
 11
181.65845124530011
 21
231.68368909522189
 31
0.0
  0
LINE
  5
A49F
  8
AM_0
 10
172.5483891088715
 20
230.13151599202939
 30
0.0
 11
174.25174315434549
 21
230.42173358824411
 31
0.0
  0
LINE
  5
A4A0
  8
AM_0
 10
175.7517431543456
 20
230.67730370619921
 30
0.0
 11
177.95509719982309
 21
231.0527113417327
 31
0.0
  0
LINE
  5
A4A1
  8
AM_0
 10
179.45509719982289
 20
231.3082814596882
 30
0.0
 11
181.65845124530011
 21
231.68368909522189
 31
0.0
  0
LINE
  5
A4A2
  8
AM_0
 10
183.15845124530011
 20
231.93925921317719
 30
0.0
 11
185.3618052907776
 21
232.3146668487106
 31
0.0
  0
LINE
  5
A4A3
  8
AM_0
 10
179.45509719982289
 20
242.3653494232905
 30
0.0
 11
177.9550971998232
 21
242.3653494232905
 31
0.0
  0
LINE
  5
A4A4
  8
AM_0
 10
179.45509719982289
 20
246.36534942329089
 30
0.0
 11
177.9550971998232
 21
246.36534942329089
 31
0.0
  0
LINE
  5
A4A5
  8
AM_0
 10
175.751743154346
 20
242.3653494232905
 30
0.0
 11
174.25174315434569
 21
242.3653494232905
 31
0.0
  0
LINE
  5
A4A6
  8
AM_0
 10
175.75174315434569
 20
246.36534942329089
 30
0.0
 11
174.25174315434569
 21
246.36534942329089
 31
0.0
  0
LINE
  5
A4A7
  8
AM_0
 10
172.54838910887179
 20
242.3653494232905
 30
0.0
 11
170.54838910886821
 21
242.3653494232905
 31
0.0
  0
LINE
  5
A4A8
  8
AM_0
 10
172.54838910887179
 20
246.36534942329089
 30
0.0
 11
170.54838910886821
 21
246.36534942329089
 31
0.0
  0
LINE
  5
A4A9
  8
AM_0
 10
186.86180529077771
 20
242.3653494232905
 30
0.0
 11
185.3618052907776
 21
242.3653494232905
 31
0.0
  0
LINE
  5
A4AA
  8
AM_0
 10
186.86180529077771
 20
246.36534942329089
 30
0.0
 11
185.3618052907776
 21
246.36534942329089
 31
0.0
  0
LINE
  5
A4AB
  8
AM_0
 10
183.15845124530011
 20
242.3653494232905
 30
0.0
 11
181.65845124530011
 21
242.3653494232905
 31
0.0
  0
LINE
  5
A4AC
  8
AM_0
 10
183.15845124530011
 20
246.36534942329089
 30
0.0
 11
181.65845124530011
 21
246.36534942329089
 31
0.0
  0
LINE
  5
A4AD
  8
AM_0
 10
196.72351537471661
 20
234.25047590626261
 30
0.0
 11
196.72351537471661
 21
251.36534942329081
 31
0.0
  0
LINE
  5
A4AE
  8
AM_0
 10
195.9483891088704
 20
229.0511441959934
 30
0.0
 11
195.94838910887029
 21
233.1045368413771
 31
0.0
  0
LINE
  5
A4AF
  8
AM_0
 10
207.2235153747171
 20
253.86534942329109
 30
0.0
 11
207.2235153747171
 21
251.36534942329081
 31
0.0
  0
LINE
  5
A4B0
  8
AM_0
 10
211.7235153747165
 20
234.36534942329089
 30
0.0
 11
211.72351537471661
 21
250.36534942329061
 31
0.0
  0
ARC
  5
A4B1
  8
AM_0
 10
211.22351537471661
 20
230.8653494232907
 30
0.0
 40
0.5
 50
270.0
 51
0.0
  0
LINE
  5
A4B2
  8
AM_0
 10
205.84838910887009
 20
230.36534942329061
 30
0.0
 11
211.22351537471661
 21
230.36534942329061
 31
0.0
  0
LINE
  5
A4B3
  8
AM_0
 10
211.7235153747165
 20
234.36534942329089
 30
0.0
 11
211.7235153747165
 21
230.8653494232907
 31
0.0
  0
LINE
  5
A4B4
  8
AM_0
 10
205.34838910887021
 20
229.86534942329089
 30
0.0
 11
205.34838910887021
 21
219.86534942329089
 31
0.0
  0
ARC
  5
A4B5
  8
AM_0
 10
205.84838910887009
 20
229.86534942329089
 30
0.0
 40
0.5
 50
90.0
 51
180.0
  0
ARC
  5
A4B6
  8
AM_0
 10
210.72351537471661
 20
250.36534942329061
 30
0.0
 40
1.0
 50
0.0
 51
90.0
  0
LINE
  5
A4B7
  8
AM_0
 10
207.2235153747171
 20
253.86534942329109
 30
0.0
 11
140.2235153747171
 21
253.86534942329109
 31
0.0
  0
LINE
  5
A4DD
  8
ﾁｭｳｼﾝｾﾝ
 10
139.5483891088696
 20
245.36534942329121
 30
0.0
 11
139.5483891088696
 21
223.36534942329121
 31
0.0
  0
LINE
  5
A4DE
  8
ﾁｭｳｼﾝｾﾝ
 10
128.5483891088696
 20
234.36534942329121
 30
0.0
 11
150.5483891088696
 21
234.36534942329121
 31
0.0
  0
TEXT
  5
AB07
  8
0
  6
CONTINUOUS
 62
     0
 10
445.13205573645808
 20
290.59387955369539
 30
0.0
 40
10.0
  1
VX04-003B~VX04-010B
  0
VIEWPORT
  5
89
 67
     1
  8
0
 10
210.0
 20
148.5
 30
0.0
 40
420.0
 41
297.0
 68
    -1
 69
     1
1001
ACAD
1000
MVIEW
1002
{
1070
    16
1010
0.0
1020
0.0
1030
0.0
1010
0.0
1020
0.0
1030
1.0
1040
0.0
1040
297.0
1040
221.70154043645701
1040
148.5
1040
50.0
1040
0.0
1040
0.0
1070
     0
1070
   100
1070
     1
1070
     1
1070
     0
1070
     0
1070
     0
1070
     0
1040
0.0
1040
0.0
1040
0.0
1040
10.0
1040
10.0
1040
10.0
1040
10.0
1070
     0
1002
{
1002
}
1002
}
1001
GENIUS_GENOREF_13
1005
1B94
1001
GENIUS_GENSCREG_15
1000
PF
1040
1.0
1000
DF
1040
1.0
1000
MIN
1011
0.0
1021
0.0
1031
0.0
1021
0.0
1031
0.0
1000
MAX
1011
420.0
1021
0.0
1031
0.0
1021
297.0
1031
0.0
1000
FLAGS
1070
     4
  0
ENDSEC
  0
EOF
