  0
SECTION
  2
HEADER
  9
$ACADVER
  1
AC1009
  9
$INSBASE
 10
0.0
 20
0.0
 30
0.0
  9
$EXTMIN
 10
12.3924510067759
 20
7.25790632480357
 30
-0.0015258207003583
  9
$EXTMAX
 10
646.72485613870413
 20
413.4943445943199
 30
0.0000000349246037
  9
$LIMMIN
 10
0.0
 20
0.0
  9
$LIMMAX
 10
408.0
 20
284.0
  9
$ORTHOMODE
 70
     0
  9
$REGENMODE
 70
     1
  9
$FILLMODE
 70
     1
  9
$QTEXTMODE
 70
     0
  9
$MIRRTEXT
 70
     1
  9
$DRAGMODE
 70
     2
  9
$LTSCALE
 40
1.0
  9
$OSMODE
 70
   551
  9
$ATTMODE
 70
     1
  9
$TEXTSIZE
 40
2.5
  9
$TRACEWID
 40
1.0
  9
$TEXTSTYLE
  7
STANDARD
  9
$CLAYER
  8
AM_0
  9
$CELTYPE
  6
BYLAYER
  9
$CECOLOR
 62
   256
  9
$DIMSCALE
 40
1.0
  9
$DIMASZ
 40
2.5
  9
$DIMEXO
 40
1.0
  9
$DIMDLI
 40
7.0
  9
$DIMRND
 40
0.0
  9
$DIMDLE
 40
0.0
  9
$DIMEXE
 40
1.0
  9
$DIMTP
 40
0.1
  9
$DIMTM
 40
0.1000000001
  9
$DIMTXT
 40
2.5
  9
$DIMCEN
 40
0.0
  9
$DIMTSZ
 40
0.0
  9
$DIMTOL
 70
     0
  9
$DIMLIM
 70
     0
  9
$DIMTIH
 70
     0
  9
$DIMTOH
 70
     0
  9
$DIMSE1
 70
     0
  9
$DIMSE2
 70
     0
  9
$DIMTAD
 70
     3
  9
$DIMZIN
 70
     8
  9
$DIMBLK
  1

  9
$DIMASO
 70
     1
  9
$DIMSHO
 70
     1
  9
$DIMPOST
  1

  9
$DIMAPOST
  1
"
  9
$DIMALT
 70
     0
  9
$DIMALTD
 70
     2
  9
$DIMALTF
 40
0.0393701
  9
$DIMLFAC
 40
1.0
  9
$DIMTOFL
 70
     1
  9
$DIMTVP
 40
0.0
  9
$DIMTIX
 70
     0
  9
$DIMSOXD
 70
     0
  9
$DIMSAH
 70
     0
  9
$DIMBLK1
  1

  9
$DIMBLK2
  1

  9
$DIMSTYLE
  2
AM_JIS
  9
$DIMCLRD
 70
   256
  9
$DIMCLRE
 70
   256
  9
$DIMCLRT
 70
     4
  9
$DIMTFAC
 40
0.71
  9
$DIMGAP
 40
1.0
  9
$LUNITS
 70
     2
  9
$LUPREC
 70
     2
  9
$SKETCHINC
 40
1.0
  9
$FILLETRAD
 40
2.5
  9
$AUNITS
 70
     0
  9
$AUPREC
 70
     3
  9
$MENU
  1
.
  9
$ELEVATION
 40
0.0
  9
$PELEVATION
 40
0.0
  9
$THICKNESS
 40
0.0
  9
$LIMCHECK
 70
     0
  9
$BLIPMODE
 70
     0
  9
$CHAMFERA
 40
2.5
  9
$CHAMFERB
 40
2.5
  9
$SKPOLY
 70
     0
  9
$TDCREATE
 40
2453061.7322748378
  9
$TDUPDATE
 40
2458540.702861621
  9
$TDINDWG
 40
0.0835023727
  9
$TDUSRTIMER
 40
0.0835021875
  9
$USRTIMER
 70
     1
  9
$ANGBASE
 50
0.0
  9
$ANGDIR
 70
     0
  9
$PDMODE
 70
     0
  9
$PDSIZE
 40
0.0
  9
$PLINEWID
 40
0.0
  9
$COORDS
 70
     1
  9
$SPLFRAME
 70
     0
  9
$SPLINETYPE
 70
     6
  9
$SPLINESEGS
 70
     8
  9
$ATTDIA
 70
     1
  9
$ATTREQ
 70
     1
  9
$HANDLING
 70
     1
  9
$HANDSEED
  5
A317
  9
$SURFTAB1
 70
     6
  9
$SURFTAB2
 70
     6
  9
$SURFTYPE
 70
     6
  9
$SURFU
 70
     6
  9
$SURFV
 70
     6
  9
$UCSNAME
  2

  9
$UCSORG
 10
0.0
 20
0.0
 30
0.0
  9
$UCSXDIR
 10
1.0
 20
0.0
 30
0.0
  9
$UCSYDIR
 10
0.0
 20
1.0
 30
0.0
  9
$PUCSNAME
  2

  9
$PUCSORG
 10
0.0
 20
0.0
 30
0.0
  9
$PUCSXDIR
 10
1.0
 20
0.0
 30
0.0
  9
$PUCSYDIR
 10
0.0
 20
1.0
 30
0.0
  9
$USERI1
 70
     0
  9
$USERI2
 70
     0
  9
$USERI3
 70
     0
  9
$USERI4
 70
     0
  9
$USERI5
 70
     0
  9
$USERR1
 40
0.0
  9
$USERR2
 40
0.0
  9
$USERR3
 40
0.0
  9
$USERR4
 40
0.0
  9
$USERR5
 40
0.0
  9
$WORLDVIEW
 70
     1
  9
$SHADEDGE
 70
     3
  9
$SHADEDIF
 70
    70
  9
$TILEMODE
 70
     1
  9
$MAXACTVP
 70
    48
  9
$PLIMCHECK
 70
     0
  9
$PEXTMIN
 10
1.0000000000000000E+020
 20
1.0000000000000000E+020
 30
1.0000000000000000E+020
  9
$PEXTMAX
 10
-1.0000000000000000E+020
 20
-1.0000000000000000E+020
 30
-1.0000000000000000E+020
  9
$PLIMMIN
 10
0.0
 20
0.0
  9
$PLIMMAX
 10
420.0
 20
297.0
  9
$UNITMODE
 70
     0
  9
$VISRETAIN
 70
     1
  9
$PLINEGEN
 70
     0
  9
$PSLTSCALE
 70
     1
  0
ENDSEC
  0
SECTION
  2
TABLES
  0
TABLE
  2
VPORT
 70
     1
  0
VPORT
  2
*ACTIVE
 70
     0
 10
0.0
 20
0.0
 11
1.0
 21
1.0
 12
329.5586535727399
 22
210.37612545956171
 13
0.0
 23
0.0
 14
1.0
 24
1.0
 15
10.0
 25
10.0
 16
0.0
 26
0.0
 36
1.0
 17
0.0
 27
0.0
 37
0.0
 40
409.0252467702224
 41
1.7571592210767459
 42
50.0
 43
0.0
 44
0.0
 50
0.0
 51
0.0
 71
     0
 72
   100
 73
     1
 74
     1
 75
     0
 76
     0
 77
     0
 78
     0
  0
ENDTAB
  0
TABLE
  2
LTYPE
 70
    26
  0
LTYPE
  2
CONTINUOUS
 70
     0
  3
Solid line
 72
    65
 73
     0
 40
0.0
  0
LTYPE
  2
PHANTOM2
 70
     0
  3
Phantom (.5x) ___ _ _ ___ _ _ ___ _ _ ___ _ _
 72
    65
 73
     6
 40
31.75
 49
15.875
 49
-3.174999999999998
 49
3.174999999999998
 49
-3.174999999999998
 49
3.174999999999998
 49
-3.174999999999998
  0
LTYPE
  2
CENTER
 70
     0
  3
Center ____ _ ____ _ ____ _ ____ _ ____ _ ____
 72
    65
 73
     4
 40
50.799999999999997
 49
31.75
 49
-6.3499999999999979
 49
6.3499999999999979
 49
-6.3499999999999979
  0
LTYPE
  2
ACANSTGBM
 70
     0
  3
__ . . __ . .
 72
    65
 73
     6
 40
9.0
 49
4.0
 49
-1.0
 49
1.0
 49
-1.0
 49
1.0
 49
-1.0
  0
LTYPE
  2
ACANSTGLM
 70
     0
  3
_ _ _ _ _
 72
    65
 73
     2
 40
3.0
 49
2.0
 49
-1.0
  0
LTYPE
  2
GEN7
 70
     0
  3
____ . ____ . ____ . ____ . ____ . ____ . ____
 72
    65
 73
     4
 40
14.25
 49
9.75
 49
-1.5
 49
1.5
 49
-1.5
  0
LTYPE
  2
GEN3B
 70
     0
  3
 - - - - -
 72
    65
 73
     2
 40
1.0
 49
0.5
 49
-0.5
  0
LTYPE
  2
AM_ISO02W050
 70
     0
  3
__ __ __ __ __ __ __ __ __ __ __ __ __ __ __
 72
    65
 73
     2
 40
7.5
 49
6.0
 49
-1.5
  0
LTYPE
  2
AM_ISO08W050
 70
     0
  3
____ . ____ . ____ . ____ . ____ . ____ . ____
 72
    65
 73
     4
 40
18.0
 49
12.0
 49
-1.5
 49
3.0
 49
-1.5
  0
LTYPE
  2
AM_ISO09W050
 70
     0
  3
_____ . . _____ . . _____ . . ____ .. ____
 72
    65
 73
     6
 40
22.5
 49
12.0
 49
-1.5
 49
3.0
 49
-1.5
 49
3.0
 49
-1.5
  0
LTYPE
  2
AMCONSTR
 70
     0
  3
_______________________
 72
    65
 73
     2
 40
9999.0
 49
9999.0
 49
0.0
  0
LTYPE
  2
AM_ISO02W050X2
 70
     0
  3
 _ _ _ _ _ _ _ _ _ _ _ _
 72
    65
 73
     2
 40
3.75
 49
3.0
 49
-0.75
  0
LTYPE
  2
AM_ISO08W050X2
 70
     0
  3
__ . __ . __ . __ . __ . __
 72
    65
 73
     4
 40
9.0
 49
6.0
 49
-0.75
 49
1.5
 49
-0.75
  0
LTYPE
  2
AMZIGZAG
 70
     0
  3
/\/-/\/-/\/-/\/-/\/-/\/
 72
    65
 73
     2
 40
11.000099999999991
 49
0.0001
 49
-11.0
  0
LTYPE
  2
ACJISTGB
 70
     0
  3
__ . . __ . .
 72
    65
 73
     6
 40
9.0
 49
4.0
 49
-1.0
 49
1.0
 49
-1.0
 49
1.0
 49
-1.0
  0
LTYPE
  2
ACJISTGL
 70
     0
  3
_ _ _ _ _
 72
    65
 73
     2
 40
3.0
 49
2.0
 49
-1.0
  0
LTYPE
  2
ACISOWELD
 70
     0
  3
_ _ _ _ _
 72
    65
 73
     2
 40
2.0
 49
2.0
 49
-1.0
  0
LTYPE
  2
ACISOTGB
 70
     0
  3
__ . . __ . .
 72
    65
 73
     6
 40
9.0
 49
4.0
 49
-1.0
 49
1.0
 49
-1.0
 49
1.0
 49
-1.0
  0
LTYPE
  2
ACISOTGL
 70
     0
  3
_ _ _ _ _
 72
    65
 73
     2
 40
3.0
 49
2.0
 49
-1.0
  0
LTYPE
  2
HIDDEN
 70
     0
  3
Hidden __ __ __ __ __ __ __ __ __ __ __ __ __ _
 72
    65
 73
     2
 40
0.375
 49
0.25
 49
-0.125
  0
LTYPE
  2
CENTER2
 70
     0
  3
Center (.5x) ___ _ ___ _ ___ _ ___ _ ___ _ ___
 72
    65
 73
     4
 40
1.125
 49
0.75
 49
-0.125
 49
0.125
 49
-0.125
  0
LTYPE
  2
HIDDEN2
 70
     0
  3
Hidden (.5x) _ _ _ _ _ _ _ _ _ _ _ _ _ _ _ _ _
 72
    65
 73
     2
 40
0.1875
 49
0.125
 49
-0.0625
  0
LTYPE
  2
AMZIGZAG2
 70
     0
  3
/\/-/\/-/\/-/\/-/\/-/\/
 72
    65
 73
     2
 40
0.4401
 49
0.0001
 49
-0.4400000000000001
  0
LTYPE
  2
ACANSTGB
 70
     0
  3
__ . . __ . .
 72
    65
 73
     6
 40
0.35433070866
 49
0.15748031496
 49
-0.03937007874
 49
0.03937007874
 49
-0.03937007874
 49
0.03937007874
 49
-0.03937007874
  0
LTYPE
  2
ACANSTGL
 70
     0
  3
_ _ _ _ _
 72
    65
 73
     2
 40
0.11811023622
 49
0.07874015748
 49
-0.03937007874
  0
ENDTAB
  0
TABLE
  2
LAYER
 70
     7
  0
LAYER
  2
0
 70
     0
 62
     7
  6
CONTINUOUS
  0
LAYER
  2
AM_0
 70
     0
 62
     7
  6
CONTINUOUS
  0
LAYER
  2
DEFPOINTS
 70
     0
 62
     7
  6
CONTINUOUS
  0
LAYER
  2
ｶｸﾚｾﾝ2
 70
     0
 62
     3
  6
GEN3B
  0
LAYER
  2
ﾁｭｳｼﾝｾﾝ
 70
     0
 62
     1
  6
GEN7
  0
LAYER
  2
AM_0N
 70
     0
 62
     7
  6
CONTINUOUS
  0
LAYER
  2
AM_5
 70
     0
 62
     2
  6
CONTINUOUS
  0
ENDTAB
  0
TABLE
  2
STYLE
 70
    10
  0
STYLE
  2
STANDARD
 70
     0
 40
0.0
 41
0.8299999999999999
 50
0.0
 71
     0
 42
2.5
  3
txt.shx
  4
bigfont.shx
  0
STYLE
  2
ANNOTATIVE
 70
     0
 40
0.0
 41
1.0
 50
0.0
 71
     0
 42
0.2
  3
txt
  4

  0
STYLE
  2
ACANSTS
 70
     0
 40
1.0
 41
1.0
 50
0.0
 71
     0
 42
2.5
  3
romans.shx
  4
bigfont.shx
  0
STYLE
  2
ACANSGDT
 70
     0
 40
0.0
 41
1.0
 50
0.0
 71
     0
 42
2.5
  3
amgdt.shx
  4

  0
STYLE
  2

 70
     1
 40
0.0
 41
1.0
 50
0.0
 71
     0
 42
2.5
  3
ltypeshp.shx
  4

  0
STYLE
  2
ACJISTS
 70
     0
 40
1.0
 41
0.8299999999999999
 50
0.0
 71
     0
 42
2.5
  3
txt.shx
  4
bigfont.shx
  0
STYLE
  2
ACJISGDT
 70
     0
 40
0.0
 41
1.0
 50
0.0
 71
     0
 42
2.5
  3
amgdt.shx
  4

  0
STYLE
  2
ACISOTS
 70
     0
 40
1.0
 41
1.0
 50
0.0
 71
     0
 42
2.5
  3
isocp.shx
  4
extfont.shx
  0
STYLE
  2
ACISOGDT
 70
     0
 40
0.0
 41
1.0
 50
0.0
 71
     0
 42
2.5
  3
amgdt.shx
  4

  0
STYLE
  2

 70
     1
 40
0.0
 41
1.0
 50
0.0
 71
     0
 42
2.5
  3
genltshp.shx
  4

  0
ENDTAB
  0
TABLE
  2
VIEW
 70
    12
  0
VIEW
  2
GEN1
 70
     0
 40
95.824742268041234
 10
71.5
 20
137.08762886597941
 41
143.0
 11
0.0
 21
0.0
 31
1.0
 12
0.0
 22
0.0
 32
0.0
 42
50.0
 43
0.0
 44
0.0
 50
0.0
 71
     0
  0
VIEW
  2
GEN2
 70
     0
 40
95.824742268041234
 10
214.5
 20
137.08762886597941
 41
143.0
 11
0.0
 21
0.0
 31
1.0
 12
0.0
 22
0.0
 32
0.0
 42
50.0
 43
0.0
 44
0.0
 50
0.0
 71
     0
  0
VIEW
  2
GEN3
 70
     0
 40
95.824742268041234
 10
71.5
 20
47.912371134020603
 41
143.0
 11
0.0
 21
0.0
 31
1.0
 12
0.0
 22
0.0
 32
0.0
 42
50.0
 43
0.0
 44
0.0
 50
0.0
 71
     0
  0
VIEW
  2
GEN4
 70
     0
 40
95.824742268041234
 10
214.5
 20
47.912371134020603
 41
143.0
 11
0.0
 21
0.0
 31
1.0
 12
0.0
 22
0.0
 32
0.0
 42
50.0
 43
0.0
 44
0.0
 50
0.0
 71
     0
  0
VIEW
  2
GEN5
 70
     0
 40
95.824742268041234
 10
143.0
 20
92.500000000000057
 41
143.0
 11
0.0
 21
0.0
 31
1.0
 12
0.0
 22
0.0
 32
0.0
 42
50.0
 43
0.0
 44
0.0
 50
0.0
 71
     0
  0
VIEW
  2
GEN6
 70
     0
 40
191.64756804123709
 10
143.0
 20
92.5
 41
285.99713999999989
 11
0.0
 21
0.0
 31
1.0
 12
0.0
 22
0.0
 32
0.0
 42
50.0
 43
0.0
 44
0.0
 50
0.0
 71
     0
  0
VIEW
  2
AM_VIEW1
 70
     0
 40
142.0
 10
119.7777777777777
 20
213.0
 41
239.55555555555549
 11
0.0
 21
0.0
 31
1.0
 12
0.0
 22
0.0
 32
0.0
 42
50.0
 43
0.0
 44
0.0
 50
0.0
 71
     0
  0
VIEW
  2
AM_VIEW2
 70
     0
 40
142.0
 10
288.22222222222211
 20
213.0
 41
239.55555555555549
 11
0.0
 21
0.0
 31
1.0
 12
0.0
 22
0.0
 32
0.0
 42
50.0
 43
0.0
 44
0.0
 50
0.0
 71
     0
  0
VIEW
  2
AM_VIEW3
 70
     0
 40
142.0
 10
119.7777777777777
 20
71.0
 41
239.55555555555549
 11
0.0
 21
0.0
 31
1.0
 12
0.0
 22
0.0
 32
0.0
 42
50.0
 43
0.0
 44
0.0
 50
0.0
 71
     0
  0
VIEW
  2
AM_VIEW4
 70
     0
 40
142.0
 10
288.22222222222211
 20
71.0
 41
239.55555555555549
 11
0.0
 21
0.0
 31
1.0
 12
0.0
 22
0.0
 32
0.0
 42
50.0
 43
0.0
 44
0.0
 50
0.0
 71
     0
  0
VIEW
  2
AM_VIEW5
 70
     0
 40
142.0
 10
204.0
 20
142.0
 41
239.55555555555549
 11
0.0
 21
0.0
 31
1.0
 12
0.0
 22
0.0
 32
0.0
 42
50.0
 43
0.0
 44
0.0
 50
0.0
 71
     0
  0
VIEW
  2
AM_VIEW6
 70
     0
 40
283.99716000000001
 10
204.0
 20
142.0
 41
479.10631999999993
 11
0.0
 21
0.0
 31
1.0
 12
0.0
 22
0.0
 32
0.0
 42
50.0
 43
0.0
 44
0.0
 50
0.0
 71
     0
  0
ENDTAB
  0
TABLE
  2
UCS
 70
     0
  0
ENDTAB
  0
TABLE
  2
APPID
 70
   106
  0
APPID
  2
ACAD
 70
     0
  0
APPID
  2
ACADANNOTATIVE
 70
     0
  0
APPID
  2
MCAD_NO_VIS
 70
     0
  0
APPID
  2
ACAD_TEMP_GRAPHIC
 70
     0
  0
APPID
  2
AD_DRAW
 70
     0
  0
APPID
  2
DESIGNERASSEMBLIES
 70
     0
  0
APPID
  2
ASURF_PCURVE_APPNAME
 70
     0
  0
APPID
  2
GENIUS_GE3SECT_13
 70
     0
  0
APPID
  2
GENIUS_GENCFG_13
 70
     0
  0
APPID
  2
GENIUS_GE3CFG0_13
 70
     0
  0
APPID
  2
GENIUS_GENCFG0_13
 70
     0
  0
APPID
  2
GENIUS_GENCFG1_13
 70
     0
  0
APPID
  2
GENIUS_GENCFG2_13
 70
     0
  0
APPID
  2
GENIUS_GENCFG3_13
 70
     0
  0
APPID
  2
GENIUS_GENCFG4_13
 70
     0
  0
APPID
  2
GENIUS_GEVCFG0_13
 70
     0
  0
APPID
  2
GENIUS_GENOENT_13
 70
     0
  0
APPID
  2
GENIUS_GENREC_14
 70
     0
  0
APPID
  2
GENIUS_GENODEF_13
 70
     0
  0
APPID
  2
GENIUS_GENOBJ-N-REC_13
 70
     0
  0
APPID
  2
GENIUS_GENHINW_13
 70
     0
  0
APPID
  2
GENIUS_FIRSTVISTXT_14
 70
     0
  0
APPID
  2
GENIUS_GENOBJ-N-LEADER_13
 70
     0
  0
APPID
  2
GENIUS_GENOREF_13
 70
     0
  0
APPID
  2
GENIUS_GENOLIS_13
 70
     0
  0
APPID
  2
GEV_VCCNULL_SWITCH_OFF
 70
     0
  0
APPID
  2
GENIUS_GENDTOL_13
 70
     0
  0
APPID
  2
GENIUS_GEFCFG0_13
 70
     0
  0
APPID
  2
GENIUS_GENOBJ-N-TIT_13
 70
     0
  0
APPID
  2
GENIUS_GENTITLE_13
 70
     0
  0
APPID
  2
GENIUS_GENZVEED_13
 70
     0
  0
APPID
  2
GENIUS_GENOBJ-N-SDF_13
 70
     0
  0
APPID
  2
GENIUS_GENSCREG_13
 70
     0
  0
APPID
  2
GENIUS_DUMCFG0_13
 70
     0
  0
APPID
  2
GEVID936201362
 70
     0
  0
APPID
  2
GEVDC
 70
     0
  0
APPID
  2
GEVCON
 70
     0
  0
APPID
  2
VCC
 70
     0
  0
APPID
  2
GEVPT
 70
     0
  0
APPID
  2
GEVIT
 70
     0
  0
APPID
  2
GENBH
 70
     0
  0
APPID
  2
GEVMK
 70
     0
  0
APPID
  2
GENIUS_GENBH_13
 70
     0
  0
APPID
  2
GENIUS_GENOBJ-NBEHI-BHF_13
 70
     0
  0
APPID
  2
GENIUS_GENOBJ-NBEHI-BHB_13
 70
     0
  0
APPID
  2
GENIUS_GENOBJ-F-DESC_13
 70
     0
  0
APPID
  2
GENIUS_GEFDESC_14
 70
     0
  0
APPID
  2
GENIUS_GENOBJ-F-PART_13
 70
     0
  0
APPID
  2
GENIUS_GEFSTDP_13
 70
     0
  0
APPID
  2
GENIUS_GEFPARTINS_13
 70
     0
  0
APPID
  2
GENIUS_GENTRA_14
 70
     0
  0
APPID
  2
GENIUS_GENINF13_13
 70
     0
  0
APPID
  2
GENIUS_GENOBJ-N-INFOPT_13
 70
     0
  0
APPID
  2
GENIUS_GENOBJ-N-RSSYM_13
 70
     0
  0
APPID
  2
GENIUS_GENSYMENT_13
 70
     0
  0
APPID
  2
GENIUS_GENSCSYM_13
 70
     0
  0
APPID
  2
GENIUS_GEFINFNAM_13
 70
     0
  0
APPID
  2
GENIUS_GENSCREG_15
 70
     0
  0
APPID
  2
GENIUS_GENOBJ-N-CEN_13
 70
     0
  0
APPID
  2
GENIUS_GENOBJ-N-CRS_13
 70
     0
  0
APPID
  2
GENIUS_GENOBJ-N-CRC_13
 70
     0
  0
APPID
  2
GENIUS_GENCRC_14
 70
     0
  0
APPID
  2
GEVID942827039
 70
     0
  0
APPID
  2
GEVID942827040
 70
     0
  0
APPID
  2
GEVID942827041
 70
     0
  0
APPID
  2
GENIUS_GENOBJ-F-SCPASSM_13
 70
     0
  0
APPID
  2
GENIUS_GENDIMSH_14
 70
     0
  0
APPID
  2
GENIUS_GENFIL_13
 70
     0
  0
APPID
  2
GENIUS_GENOBJ-N-CHA_13
 70
     0
  0
APPID
  2
GENIUS_GENOBJ-N-FIL_13
 70
     0
  0
APPID
  2
GEVID942827042
 70
     0
  0
APPID
  2
GEVID946020473
 70
     0
  0
APPID
  2
GEVID946020474
 70
     0
  0
APPID
  2
GEVID946020475
 70
     0
  0
APPID
  2
GENIUS_GENOBJ-N-HTC_13
 70
     0
  0
APPID
  2
GENIUS_GENHATCH_13
 70
     0
  0
APPID
  2
GEVID948854295
 70
     0
  0
APPID
  2
GEVID939402019
 70
     0
  0
APPID
  2
GEVID952919491
 70
     0
  0
APPID
  2
GEVID952919492
 70
     0
  0
APPID
  2
GENIUS_GEFWELD_13
 70
     0
  0
APPID
  2
GENIUS_GENOBJ-F-WELS_13
 70
     0
  0
APPID
  2
GEVID952919493
 70
     0
  0
APPID
  2
GENIUS_GENOBJ-N-RSBK_13
 70
     0
  0
APPID
  2
GENIUS_GENOBJ-N-LIB_13
 70
     0
  0
APPID
  2
GENIUS_GENSCALE_13
 70
     0
  0
APPID
  2
GEVID986376691
 70
     0
  0
APPID
  2
ACATTRIBSERVICES
 70
     0
  0
APPID
  2
ACADM_DIM_EDIT
 70
     0
  0
APPID
  2
AMDT_DM_ADJ
 70
     0
  0
APPID
  2
GEVID1057795304
 70
     0
  0
APPID
  2
GENIUS_GEFSH_13
 70
     0
  0
APPID
  2
GENIUS_GENOBJ-F-SHS_13
 70
     0
  0
APPID
  2
GENIUS_GENOBJ-N-ADDLEAD_13
 70
     0
  0
APPID
  2
GENIUS_GENMAINADDLEADER_14
 70
     0
  0
APPID
  2
GENIUS_GENADDLEADER_14
 70
     0
  0
APPID
  2
GENIUS_GENDREL_13
 70
     0
  0
APPID
  2
GEVID1121934822
 70
     0
  0
APPID
  2
GEVID1121934823
 70
     0
  0
APPID
  2
GEVID1121934824
 70
     0
  0
APPID
  2
ACAD_DSTYLE_DIMJAG
 70
     0
  0
APPID
  2
ACAD_DSTYLE_DIMBREAK
 70
     0
  0
APPID
  2
ACAD_NAV_VCDISPLAY
 70
     0
  0
APPID
  2
ACADANNOPO
 70
     0
  0
APPID
  2
ACAD_EXEMPT_FROM_CAD_STANDARDS
 70
     0
  0
APPID
  2
ACAD_MLEADERVER
 70
     0
  0
ENDTAB
  0
TABLE
  2
DIMSTYLE
 70
    29
  0
DIMSTYLE
  2
STANDARD
 70
     0
  3

  4

  5

  6

  7

 40
1.0
 41
0.18
 42
0.0625
 43
0.38
 44
0.18
 45
0.0
 46
0.0
 47
0.0
 48
0.0
140
0.18
141
0.09
142
0.0
143
25.399999999999999
144
1.0
145
0.0
146
1.0
147
0.09
 71
     0
 72
     0
 73
     1
 74
     1
 75
     0
 76
     0
 77
     0
 78
     0
170
     0
171
     2
172
     0
173
     0
174
     0
175
     0
176
     0
177
     0
178
     0
  0
DIMSTYLE
  2
ANNOTATIVE
 70
     0
  3

  4

  5

  6

  7

 40
1.0
 41
0.18
 42
0.0625
 43
0.38
 44
0.18
 45
0.0
 46
0.0
 47
0.0
 48
0.0
140
0.18
141
0.09
142
0.0
143
25.399999999999999
144
1.0
145
0.0
146
1.0
147
0.09
 71
     0
 72
     0
 73
     1
 74
     1
 75
     0
 76
     0
 77
     0
 78
     0
170
     0
171
     2
172
     0
173
     0
174
     0
175
     0
176
     0
177
     0
178
     0
  0
DIMSTYLE
  2
AM_JIS
 70
     0
  3

  4
"
  5

  6

  7

 40
1.0
 41
2.0
 42
1.0
 43
8.0
 44
1.0
 45
0.0
 46
0.0
 47
0.1
 48
0.1
140
2.5
141
0.0
142
0.0
143
0.0393701
144
1.0
145
0.0
146
0.71
147
1.5
 71
     0
 72
     0
 73
     0
 74
     0
 75
     0
 76
     0
 77
     3
 78
     8
170
     0
171
     2
172
     1
173
     0
174
     0
175
     0
176
   256
177
   256
178
     4
  0
DIMSTYLE
  2
AM_JIS$3
 70
     0
  3

  4
"
  5

  6

  7

 40
1.0
 41
2.0
 42
1.0
 43
10.0
 44
1.0
 45
0.0
 46
0.0
 47
0.1
 48
0.1
140
2.5
141
0.0
142
0.0
143
0.0393701
144
1.0
145
0.0
146
0.71
147
1.5
 71
     0
 72
     0
 73
     0
 74
     1
 75
     0
 76
     0
 77
     3
 78
     8
170
     0
171
     2
172
     0
173
     0
174
     0
175
     0
176
   256
177
   256
178
     4
  0
DIMSTYLE
  2
AM_JIS$4
 70
     0
  3

  4
"
  5

  6

  7

 40
1.0
 41
2.0
 42
1.0
 43
10.0
 44
1.0
 45
0.0
 46
0.0
 47
0.1
 48
0.1
140
2.5
141
0.0
142
0.0
143
0.0393701
144
1.0
145
0.0
146
0.71
147
1.5
 71
     0
 72
     0
 73
     0
 74
     0
 75
     0
 76
     0
 77
     3
 78
     8
170
     0
171
     2
172
     0
173
     0
174
     0
175
     0
176
   256
177
   256
178
     4
  0
DIMSTYLE
  2
AM_JIS$6
 70
     0
  3

  4
"
  5

  6

  7

 40
1.0
 41
2.0
 42
1.0
 43
10.0
 44
1.0
 45
0.0
 46
0.0
 47
0.1
 48
0.1
140
2.5
141
0.0
142
0.0
143
0.0393701
144
1.0
145
0.0
146
0.71
147
1.5
 71
     0
 72
     0
 73
     0
 74
     0
 75
     0
 76
     0
 77
     0
 78
     8
170
     0
171
     2
172
     1
173
     0
174
     0
175
     0
176
   256
177
   256
178
     4
  0
DIMSTYLE
  2
AM_JIS$7
 70
     0
  3

  4
"
  5

  6

  7

 40
1.0
 41
2.0
 42
1.0
 43
10.0
 44
1.0
 45
0.0
 46
0.0
 47
0.1
 48
0.1
140
2.5
141
0.0
142
0.0
143
0.0393701
144
1.0
145
0.0
146
0.71
147
1.5
 71
     0
 72
     0
 73
     0
 74
     0
 75
     0
 76
     0
 77
     3
 78
     8
170
     0
171
     2
172
     1
173
     0
174
     0
175
     0
176
   256
177
   256
178
     4
  0
DIMSTYLE
  2
AM_JIS$SF
 70
     0
  3

  4
"
  5

  6

  7

 40
1.0
 41
2.0
 42
1.0
 43
10.0
 44
1.0
 45
0.0
 46
0.0
 47
0.1
 48
0.1
140
2.5
141
0.0
142
0.0
143
0.0393701
144
1.0
145
0.0
146
0.71
147
1.5
 71
     0
 72
     0
 73
     0
 74
     0
 75
     1
 76
     1
 77
     3
 78
     8
170
     0
171
     2
172
     1
173
     0
174
     0
175
     0
176
   256
177
   256
178
     4
  0
DIMSTYLE
  2
AM_JIS$SH
 70
     0
  3

  4
"
  5

  6

  7

 40
1.0
 41
2.0
 42
1.0
 43
10.0
 44
1.0
 45
0.0
 46
0.0
 47
0.1
 48
0.1
140
2.5
141
0.0
142
0.0
143
0.0393701
144
2.0
145
0.0
146
0.71
147
1.5
 71
     0
 72
     0
 73
     0
 74
     0
 75
     1
 76
     1
 77
     3
 78
     8
170
     0
171
     2
172
     1
173
     1
174
     0
175
     0
176
   256
177
   256
178
     4
  0
DIMSTYLE
  2
AM_ISO
 70
     0
  3

  4
"
  5

  6

  7

 40
1.0
 41
2.5
 42
1.0
 43
10.0
 44
1.0
 45
0.0
 46
0.0
 47
0.1
 48
0.1
140
3.5
141
0.0
142
0.0
143
0.0393701
144
1.0
145
0.0
146
0.71
147
1.5
 71
     0
 72
     0
 73
     0
 74
     0
 75
     0
 76
     0
 77
     1
 78
     8
170
     0
171
     2
172
     1
173
     0
174
     0
175
     0
176
   256
177
   256
178
     2
  0
DIMSTYLE
  2
AM_ISO$3
 70
     0
  3

  4
"
  5

  6

  7

 40
1.0
 41
2.5
 42
1.0
 43
10.0
 44
1.0
 45
0.0
 46
0.0
 47
0.1
 48
0.1
140
3.5
141
0.0
142
0.0
143
0.0393701
144
1.0
145
0.0
146
0.71
147
1.5
 71
     0
 72
     0
 73
     0
 74
     1
 75
     0
 76
     0
 77
     1
 78
     8
170
     0
171
     2
172
     0
173
     0
174
     0
175
     0
176
   256
177
   256
178
     2
  0
DIMSTYLE
  2
AM_ISO$4
 70
     0
  3

  4
"
  5

  6

  7

 40
1.0
 41
2.5
 42
1.0
 43
10.0
 44
1.0
 45
0.0
 46
0.0
 47
0.1
 48
0.1
140
3.5
141
0.0
142
0.0
143
0.0393701
144
1.0
145
0.0
146
0.71
147
1.5
 71
     0
 72
     0
 73
     0
 74
     1
 75
     0
 76
     0
 77
     1
 78
     8
170
     0
171
     2
172
     0
173
     0
174
     0
175
     0
176
   256
177
   256
178
     2
  0
DIMSTYLE
  2
AM_ISO$6
 70
     0
  3

  4
"
  5

  6

  7

 40
1.0
 41
2.5
 42
1.0
 43
10.0
 44
1.0
 45
0.0
 46
0.0
 47
0.1
 48
0.1
140
3.5
141
0.0
142
0.0
143
0.0393701
144
1.0
145
0.0
146
0.71
147
1.5
 71
     0
 72
     0
 73
     0
 74
     0
 75
     0
 76
     0
 77
     0
 78
     8
170
     0
171
     2
172
     1
173
     0
174
     0
175
     0
176
   256
177
   256
178
     2
  0
DIMSTYLE
  2
AM_ISO$7
 70
     0
  3

  4
"
  5

  6

  7

 40
1.0
 41
2.5
 42
1.0
 43
10.0
 44
1.0
 45
0.0
 46
0.0
 47
0.1
 48
0.1
140
5.0
141
0.0
142
0.0
143
0.0393701
144
1.0
145
0.0
146
0.71
147
1.5
 71
     0
 72
     0
 73
     0
 74
     0
 75
     0
 76
     0
 77
     1
 78
     8
170
     0
171
     2
172
     1
173
     0
174
     0
175
     0
176
   256
177
   256
178
     2
  0
DIMSTYLE
  2
AM_ISO$SF
 70
     0
  3

  4
"
  5

  6

  7

 40
1.0
 41
2.5
 42
1.0
 43
10.0
 44
1.0
 45
0.0
 46
0.0
 47
0.1
 48
0.1
140
3.5
141
0.0
142
0.0
143
0.0393701
144
1.0
145
0.0
146
0.71
147
1.5
 71
     0
 72
     0
 73
     0
 74
     0
 75
     1
 76
     1
 77
     1
 78
     8
170
     0
171
     2
172
     1
173
     0
174
     0
175
     0
176
   256
177
   256
178
     2
  0
DIMSTYLE
  2
AM_ISO$SH
 70
     0
  3

  4
"
  5

  6

  7

 40
1.0
 41
2.5
 42
1.0
 43
10.0
 44
1.0
 45
0.0
 46
0.0
 47
0.1
 48
0.1
140
3.5
141
0.0
142
0.0
143
0.0393701
144
2.0
145
0.0
146
0.71
147
1.5
 71
     0
 72
     0
 73
     0
 74
     0
 75
     1
 76
     1
 77
     1
 78
     8
170
     0
171
     2
172
     1
173
     1
174
     0
175
     0
176
   256
177
   256
178
     2
  0
DIMSTYLE
  2
GEN-ANSI
 70
     0
  3

  4
"
  5

  6

  7

 40
1.0
 41
2.0
 42
0.5
 43
10.0
 44
0.5
 45
0.0
 46
0.0
 47
0.1
 48
0.1
140
2.5
141
0.0
142
0.0
143
0.0393701
144
1.0
145
0.0
146
0.71
147
1.5
 71
     0
 72
     0
 73
     1
 74
     1
 75
     0
 76
     0
 77
     0
 78
     8
170
     0
171
     2
172
     0
173
     0
174
     0
175
     0
176
   256
177
   256
178
     4
  0
DIMSTYLE
  2
GEN-ANSI$3
 70
     0
  3

  4
"
  5

  6

  7

 40
1.0
 41
2.0
 42
0.5
 43
10.0
 44
0.5
 45
0.0
 46
0.0
 47
0.1
 48
0.1
140
2.5
141
0.0
142
0.0
143
0.0393701
144
1.0
145
0.0
146
0.71
147
1.5
 71
     0
 72
     0
 73
     1
 74
     1
 75
     0
 76
     0
 77
     0
 78
     8
170
     0
171
     2
172
     0
173
     0
174
     0
175
     0
176
   256
177
   256
178
     4
  0
DIMSTYLE
  2
GEN-ANSI$4
 70
     0
  3

  4
"
  5

  6

  7

 40
1.0
 41
2.0
 42
0.5
 43
10.0
 44
0.5
 45
0.0
 46
0.0
 47
0.1
 48
0.1
140
2.5
141
0.0
142
0.0
143
0.0393701
144
1.0
145
0.0
146
0.71
147
1.5
 71
     0
 72
     0
 73
     1
 74
     1
 75
     0
 76
     0
 77
     0
 78
     8
170
     0
171
     2
172
     0
173
     0
174
     0
175
     0
176
   256
177
   256
178
     4
  0
DIMSTYLE
  2
GEN-ANSI$6
 70
     0
  3

  4
"
  5

  6

  7

 40
1.0
 41
2.0
 42
0.5
 43
10.0
 44
0.5
 45
0.0
 46
0.0
 47
0.1
 48
0.1
140
2.5
141
0.0
142
0.0
143
0.0393701
144
1.0
145
0.0
146
0.71
147
1.5
 71
     0
 72
     0
 73
     1
 74
     1
 75
     0
 76
     0
 77
     0
 78
     8
170
     0
171
     2
172
     0
173
     0
174
     0
175
     0
176
   256
177
   256
178
     4
  0
DIMSTYLE
  2
GEN-ANSI-POS
 70
     0
  3

  4
"
  5

  6

  7

 40
1.0
 41
2.5
 42
0.5
 43
10.0
 44
0.5
 45
0.0
 46
0.0
 47
0.1
 48
0.1
140
5.0
141
0.0
142
0.0
143
0.0393701
144
1.0
145
0.0
146
0.71
147
1.5
 71
     0
 72
     0
 73
     0
 74
     0
 75
     0
 76
     0
 77
     0
 78
     8
170
     0
171
     2
172
     0
173
     0
174
     0
175
     0
176
   256
177
   256
178
     4
  0
DIMSTYLE
  2
GEN-ANSI-AXE-F
 70
     0
  3

  4
"
  5

  6

  7

 40
1.0
 41
2.0
 42
0.5
 43
10.0
 44
0.5
 45
0.0
 46
0.0
 47
0.1
 48
0.1
140
2.5
141
0.0
142
0.0
143
0.0393701
144
1.0
145
0.0
146
0.71
147
1.5
 71
     0
 72
     0
 73
     1
 74
     1
 75
     1
 76
     1
 77
     0
 78
     8
170
     0
171
     2
172
     0
173
     1
174
     0
175
     0
176
   256
177
   256
178
     4
  0
DIMSTYLE
  2
GEN-ANSI-AXE-H
 70
     0
  3

  4
"
  5

  6

  7

 40
1.0
 41
2.0
 42
0.5
 43
10.0
 44
0.5
 45
0.0
 46
0.0
 47
0.1
 48
0.1
140
2.5
141
0.0
142
0.0
143
0.0393701
144
2.0
145
0.0
146
0.71
147
1.5
 71
     0
 72
     0
 73
     0
 74
     0
 75
     1
 76
     1
 77
     0
 78
     8
170
     0
171
     2
172
     1
173
     1
174
     0
175
     0
176
   256
177
   256
178
     4
  0
DIMSTYLE
  2
AM_ANSI
 70
     0
  3

  4
mm
  5

  6

  7

 40
1.0
 41
0.12
 42
0.05
 43
0.5
 44
0.1
 45
0.0
 46
0.0
 47
0.1
 48
0.1
140
0.12
141
0.0
142
0.0
143
25.399999999999999
144
1.0
145
0.0
146
0.71
147
0.06
 71
     0
 72
     0
 73
     1
 74
     1
 75
     0
 76
     0
 77
     0
 78
     7
170
     0
171
     2
172
     0
173
     0
174
     0
175
     0
176
   256
177
   256
178
     2
  0
DIMSTYLE
  2
AM_ANSI$3
 70
     0
  3

  4
mm
  5

  6

  7

 40
1.0
 41
0.12
 42
0.05
 43
0.5
 44
0.1
 45
0.0
 46
0.0
 47
0.1
 48
0.1
140
0.12
141
0.0
142
0.0
143
25.399999999999999
144
1.0
145
0.0
146
0.71
147
0.06
 71
     0
 72
     0
 73
     1
 74
     1
 75
     0
 76
     0
 77
     0
 78
     7
170
     0
171
     2
172
     0
173
     0
174
     0
175
     0
176
   256
177
   256
178
     2
  0
DIMSTYLE
  2
AM_ANSI$4
 70
     0
  3

  4
mm
  5

  6

  7

 40
1.0
 41
0.12
 42
0.05
 43
0.5
 44
0.1
 45
0.0
 46
0.0
 47
0.1
 48
0.1
140
0.12
141
0.0
142
0.0
143
25.399999999999999
144
1.0
145
0.0
146
0.71
147
0.06
 71
     0
 72
     0
 73
     1
 74
     1
 75
     0
 76
     0
 77
     0
 78
     7
170
     0
171
     2
172
     0
173
     0
174
     0
175
     0
176
   256
177
   256
178
     2
  0
DIMSTYLE
  2
AM_ANSI$7
 70
     0
  3

  4
mm
  5

  6

  7

 40
1.0
 41
0.12
 42
0.05
 43
0.5
 44
0.1
 45
0.0
 46
0.0
 47
0.1
 48
0.1
140
0.12
141
0.0
142
0.0
143
25.399999999999999
144
1.0
145
0.0
146
0.71
147
0.06
 71
     0
 72
     0
 73
     1
 74
     1
 75
     0
 76
     0
 77
     0
 78
     7
170
     0
171
     2
172
     0
173
     0
174
     0
175
     0
176
   256
177
   256
178
     2
  0
DIMSTYLE
  2
AM_ANSI$SF
 70
     0
  3

  4
mm
  5

  6

  7

 40
1.0
 41
0.12
 42
0.05
 43
0.5
 44
0.1
 45
0.0
 46
0.0
 47
0.1
 48
0.1
140
0.12
141
0.0
142
0.0
143
25.399999999999999
144
1.0
145
0.0
146
0.71
147
0.06
 71
     0
 72
     0
 73
     1
 74
     1
 75
     1
 76
     1
 77
     0
 78
     7
170
     0
171
     2
172
     0
173
     0
174
     0
175
     0
176
   256
177
   256
178
     2
  0
DIMSTYLE
  2
AM_ANSI$SH
 70
     0
  3

  4
mm
  5

  6
GENAXEH
  7

 40
1.0
 41
0.12
 42
0.05
 43
0.5
 44
0.1
 45
0.0
 46
0.0
 47
0.1
 48
0.1
140
0.12
141
0.0
142
0.0
143
25.399999999999999
144
1.0
145
0.0
146
0.71
147
0.06
 71
     0
 72
     0
 73
     1
 74
     1
 75
     1
 76
     1
 77
     0
 78
     7
170
     0
171
     2
172
     0
173
     1
174
     0
175
     0
176
   256
177
   256
178
     2
  0
ENDTAB
  0
ENDSEC
  0
SECTION
  2
BLOCKS
  0
BLOCK
  8
0
  2
$MODEL_SPACE
 70
     0
 10
0.0
 20
0.0
 30
0.0
  3
$MODEL_SPACE
  1

  0
ENDBLK
  5
A181
  8
0
  0
BLOCK
 67
     1
  8
0
  2
$PAPER_SPACE
 70
     0
 10
0.0
 20
0.0
 30
0.0
  3
$PAPER_SPACE
  1

  0
ENDBLK
  5
A17D
 67
     1
  8
0
  0
BLOCK
  8
0
  2
GENAXEH
 70
     0
 10
0.0
 20
0.0
 30
0.0
  3
GENAXEH
  1

  0
LINE
  5
A0CA
  8
0
 10
-1.0
 20
0.0
 30
0.0
 11
1.0
 21
0.0
 31
0.0
  0
ENDBLK
  5
A0CC
  8
0
  0
BLOCK
  8
0
  2
_ACMFILLEDHALF
 70
     0
 10
0.0
 20
0.0
 30
0.0
  3
_ACMFILLEDHALF
  1

  0
TRACE
  5
A290
  8
AM_0
 62
     0
 10
-0.8
 20
0.0
 30
0.0
 11
-1.0
 21
0.166666666
 31
0.0
 12
0.0
 22
0.0
 32
0.0
 13
0.0
 23
0.0
 33
0.0
  0
LINE
  5
A291
  8
AM_0
 62
     0
 10
-1.0
 20
0.0
 30
0.0
 11
-0.8
 21
0.0
 31
0.0
  0
ENDBLK
  5
A28F
  8
0
  0
ENDSEC
  0
SECTION
  2
ENTITIES
  0
POINT
  5
1B94
  8
0
 10
0.0
 20
0.0
 30
0.0
1001
GENIUS_GENODEF_13
1002
{
1000
HIER
1070
     1
1002
}
1002
{
1000
MANEDIT
1070
     0
1002
}
1002
{
1000
NOSEL
1070
     0
1002
}
1002
{
1000
BEHIND
1070
     0
1002
}
1002
{
1000
REACTOR
1002
}
1001
GENIUS_GENOBJ-N-SDF_13
1002
{
1000
OWNER
1000
GEN
1002
}
1001
GENIUS_GENOENT_13
1002
{
1000
MYREF
1005
1B94
1002
}
1002
{
1000
GRP
1005
0
1002
}
1001
GENIUS_GENOLIS_13
1002
{
1000
ENT
1005
89
1002
}
  0
ARC
  5
8C6B
  8
AM_0
 10
308.8546869709748
 20
151.35438858666379
 30
0.0
 40
5.0000000999999967
 50
0.0
 51
88.499997000000647
  0
ARC
  5
8C6C
  8
AM_0
 10
309.8546469709749
 20
42.549113586664006
 30
0.0
 40
4.000000199999997
 50
270.0
 51
0.0
  0
LINE
  5
8C6D
  8
AM_0
 10
308.8546869709748
 20
124.2990985866637
 30
0.0
 11
313.85469697097483
 21
124.2990985866637
 31
0.0
  0
LINE
  5
8C6E
  8
AM_0
 10
278.8546869709748
 20
138.03576858666381
 30
0.0
 11
313.85469697097483
 21
138.03576858666381
 31
0.0
  0
LINE
  5
8C6F
  8
AM_0
 10
305.8546869709748
 20
23.50832658666377
 30
0.0
 11
327.8546469709749
 21
23.50832658666377
 31
0.0
  0
LINE
  5
8C70
  8
AM_0
 10
304.85469697097483
 20
11.50832658666388
 30
0.0
 11
329.8546869709748
 21
11.50832658666388
 31
0.0
  0
LINE
  5
8C71
  8
ﾁｭｳｼﾝｾﾝ
 10
377.02541325022912
 20
106.5082975866639
 30
0.0
 11
244.81770697097491
 21
106.5082975866639
 31
0.0
  0
LINE
  5
8C72
  8
AM_0
 10
227.8546869709748
 20
150.00828858666381
 30
0.0
 11
227.8546869709748
 21
23.008265586664042
 31
0.0
  0
LINE
  5
8C73
  8
AM_0
 10
257.8546869709748
 20
128.896328586664
 30
0.0
 11
257.8546869709748
 21
25.911263586663949
 31
0.0
  0
LINE
  5
8C74
  8
AM_0
 10
300.8546469709749
 20
116.29913058666391
 30
0.0
 11
300.8546469709749
 21
28.50830958666393
 31
0.0
  0
LINE
  5
8C75
  8
AM_0
 10
267.8546469709749
 20
93.72457458666392
 30
0.0
 11
267.8546469709749
 21
57.032786586664088
 31
0.0
  0
LINE
  5
8C76
  8
AM_0
 10
264.8546469709749
 20
157.50828858666381
 30
0.0
 11
264.8546469709749
 21
42.365459586664073
 31
0.0
  0
LINE
  5
8C77
  8
ﾁｭｳｼﾝｾﾝ
 10
20.617876675578831
 20
86.508326586663756
 30
0.0
 11
252.10759393221261
 21
86.508326586663756
 31
0.0
  0
LINE
  5
8C78
  8
AM_0
 10
227.8546869709748
 20
35.008310586664031
 30
0.0
 11
257.8546869709748
 21
35.008310586664031
 31
0.0
  0
LINE
  5
8C79
  8
AM_0
 10
227.8546869709748
 20
49.360391586663923
 30
0.0
 11
257.8546869709748
 21
49.360391586663923
 31
0.0
  0
LINE
  5
8C7A
  8
AM_0
 10
237.8546469709749
 20
23.50832658666377
 30
0.0
 11
256.80402697097492
 21
23.50832658666377
 31
0.0
  0
LINE
  5
8C7B
  8
AM_0
 10
235.8546669709749
 20
11.50832658666388
 30
0.0
 11
260.8546869709748
 21
11.50832658666388
 31
0.0
  0
ARC
  5
8C7C
  8
AM_0
 10
237.8546469709749
 20
21.508310586663811
 30
0.0
 40
2.00000007
 50
90.00000299999769
 51
180.00001000000091
  0
LINE
  5
8C7D
  8
ｶｸﾚｾﾝ2
 10
241.8546669709749
 20
23.50832658666377
 30
0.0
 11
241.8546669709749
 21
11.50832658666388
 31
0.0
  0
LINE
  5
8C7E
  8
AM_0
 10
227.854626970975
 20
23.008310586663931
 30
0.0
 11
236.31654697097491
 21
22.786736586663888
 31
0.0
  0
LINE
  5
8C7F
  8
AM_0
 10
220.8546669709749
 20
23.00832558666411
 30
0.0
 11
227.8546869709748
 21
23.00832558666411
 31
0.0
  0
LINE
  5
8C80
  8
AM_0
 10
235.8546669709749
 20
21.508310586663811
 30
0.0
 11
235.8546669709749
 21
11.50832658666388
 31
0.0
  0
LINE
  5
8C81
  8
AM_0
 10
220.8546669709749
 20
34.4683345866639
 30
0.0
 11
227.8546869709748
 21
34.4683345866639
 31
0.0
  0
LINE
  5
8C82
  8
AM_0
 10
219.85467697097479
 20
49.358333586664102
 30
0.0
 11
227.8546869709748
 21
49.358333586664102
 31
0.0
  0
LINE
  5
8C83
  8
AM_0
 10
261.69519697097479
 20
27.470789586663731
 30
0.0
 11
267.74586697097487
 21
55.995266586663881
 31
0.0
  0
LINE
  5
8C84
  8
AM_0
 10
261.8546469709749
 20
12.508310586663811
 30
0.0
 11
303.8546469709749
 21
12.508310586663811
 31
0.0
  0
ARC
  5
8C85
  8
AM_0
 10
256.80402697097492
 20
28.50830958666393
 30
0.0
 40
5.0000000999999967
 50
270.0
 51
348.02386999999999
  0
LINE
  5
8C86
  8
ｶｸﾚｾﾝ2
 10
253.8546669709749
 20
23.50832658666377
 30
0.0
 11
253.8546669709749
 21
11.50832658666388
 31
0.0
  0
LINE
  5
8C87
  8
ﾁｭｳｼﾝｾﾝ
 10
247.85466697097499
 20
26.50832658666377
 30
0.0
 11
247.85466697097499
 21
8.5083265866638822
 31
0.0
  0
ARC
  5
8C88
  8
AM_0
 10
261.8546469709749
 20
11.50832658666388
 30
0.0
 40
1.0000000199999961
 50
90.00000299999769
 51
180.00001000000091
  0
LINE
  5
8C89
  8
AM_0
 10
260.8546869709748
 20
11.50832658666388
 30
0.0
 11
260.8546869709748
 21
11.50832658666388
 31
0.0
  0
ARC
  5
8C8A
  8
AM_0
 10
250.85466697097479
 20
28.878305586664169
 30
0.0
 40
2.00000007
 50
0.0
 51
90.00000299999769
  0
LINE
  5
8C8B
  8
AM_0
 10
252.8546469709749
 20
30.878321586663901
 30
0.0
 11
257.33460697097479
 21
30.878321586663901
 31
0.0
  0
LINE
  5
8C8C
  8
AM_0
 10
252.8546469709749
 20
28.878305586664169
 30
0.0
 11
252.8546469709749
 21
23.50832658666377
 31
0.0
  0
ARC
  5
8C8D
  8
AM_0
 10
254.8546869709748
 20
21.91124958666375
 30
0.0
 40
2.00000007
 50
90.00000299999769
 51
127.01007000000379
  0
ARC
  5
8C8E
  8
AM_0
 10
255.8546469709749
 20
25.911263586663949
 30
0.0
 40
2.00000007
 50
270.0
 51
0.0
  0
LINE
  5
8C8F
  8
AM_0
 10
254.8546869709748
 20
23.911250586663868
 30
0.0
 11
255.8546469709749
 21
23.911250586663868
 31
0.0
  0
ARC
  5
8C90
  8
AM_0
 10
305.8546869709748
 20
28.50830958666393
 30
0.0
 40
5.0000000999999967
 50
180.00001000000091
 51
270.0
  0
ARC
  5
8C91
  8
AM_0
 10
303.8546469709749
 20
11.50832658666388
 30
0.0
 40
1.0000000199999961
 50
0.0
 51
90.00000299999769
  0
LINE
  5
8C92
  8
AM_0
 10
304.85469697097483
 20
11.50832658666388
 30
0.0
 11
304.85469697097483
 21
11.50832658666388
 31
0.0
  0
LINE
  5
8C93
  8
AM_0
 10
300.8546469709749
 20
38.549129586663852
 30
0.0
 11
309.8546469709749
 21
38.549129586663852
 31
0.0
  0
ARC
  5
8C94
  8
AM_0
 10
262.8546669709749
 20
57.032786586664088
 30
0.0
 40
5.0000000999999967
 50
348.02386999999999
 51
0.0
  0
LINE
  5
8C95
  8
AM_0
 10
227.8546869709748
 20
123.65625858666399
 30
0.0
 11
252.8546469709749
 21
123.65625858666399
 31
0.0
  0
LINE
  5
8C96
  8
AM_0
 10
227.8546869709748
 20
138.00828858666381
 30
0.0
 11
253.8546669709749
 21
138.00828858666381
 31
0.0
  0
LINE
  5
8C97
  8
AM_0
 10
227.8546869709748
 20
150.00828858666381
 30
0.0
 11
255.90702697097481
 21
150.74289858666381
 31
0.0
  0
LINE
  5
8C98
  8
AM_0
 10
219.85467697097479
 20
123.6583285866637
 30
0.0
 11
227.8546869709748
 21
123.6583285866637
 31
0.0
  0
LINE
  5
8C99
  8
AM_0
 10
220.8546669709749
 20
138.54831858666381
 30
0.0
 11
227.8546869709748
 21
138.54831858666381
 31
0.0
  0
LINE
  5
8C9A
  8
AM_0
 10
220.8546669709749
 20
150.00828858666381
 30
0.0
 11
227.8546869709748
 21
150.00828858666381
 31
0.0
  0
LINE
  5
8C9B
  8
AM_0
 10
252.8546469709749
 20
136.00833858666391
 30
0.0
 11
252.8546469709749
 21
121.3756375866642
 31
0.0
  0
LINE
  5
8C9C
  8
AM_0
 10
275.8546869709748
 20
143.0350885866639
 30
0.0
 11
275.8546869709748
 21
120.1330555866637
 31
0.0
  0
LINE
  5
8C9D
  8
AM_0
 10
276.8546469709749
 20
138.025808586664
 30
0.0
 11
276.8546469709749
 21
124.478798586664
 31
0.0
  0
LINE
  5
8C9E
  8
AM_0
 10
280.85463697097492
 20
126.47877858666401
 30
0.0
 11
280.85463697097492
 21
136.02582858666381
 31
0.0
  0
ARC
  5
8C9F
  8
AM_0
 10
276.8546469709749
 20
117.1330555866638
 30
0.0
 40
2.00000007
 50
0.0
 51
90.00000299999769
  0
LINE
  5
8CA0
  8
AM_0
 10
267.8546469709749
 20
93.72457458666392
 30
0.0
 11
278.8546869709748
 21
93.72457458666392
 31
0.0
  0
LINE
  5
8CA1
  8
AM_0
 10
276.8546469709749
 20
128.3655385866638
 30
0.0
 11
279.8546469709749
 21
128.3655385866638
 31
0.0
  0
LINE
  5
8CA2
  8
AM_0
 10
276.8546469709749
 20
125.4787885866638
 30
0.0
 11
279.8546469709749
 21
125.4787885866638
 31
0.0
  0
ARC
  5
8CA3
  8
AM_0
 10
250.85466697097479
 20
121.3756375866642
 30
0.0
 40
2.00000007
 50
270.0
 51
0.0
  0
LINE
  5
8CA4
  8
AM_0
 10
252.8546469709749
 20
119.37563958666389
 30
0.0
 11
257.2953369709748
 21
119.37563958666389
 31
0.0
  0
ARC
  5
8CA5
  8
AM_0
 10
254.8546869709748
 20
130.8963385866638
 30
0.0
 40
2.00000007
 50
179.99998999999889
 51
270.0
  0
LINE
  5
8CA6
  8
AM_0
 10
254.8546869709748
 20
128.896328586664
 30
0.0
 11
257.8546869709748
 21
128.896328586664
 31
0.0
  0
ARC
  5
8CA7
  8
AM_0
 10
276.8546469709749
 20
120.1330555866637
 30
0.0
 40
1.0000000199999961
 50
179.99998999999889
 51
270.0
  0
LINE
  5
8CA8
  8
AM_0
 10
275.8546869709748
 20
124.478798586664
 30
0.0
 11
276.8546469709749
 21
124.478798586664
 31
0.0
  0
LINE
  5
8CA9
  8
AM_0
 10
291.68424697097493
 20
119.8570225866639
 30
0.0
 11
278.854626970975
 21
93.724607586664206
 31
0.0
  0
LINE
  5
8CAA
  8
AM_0
 10
278.8546869709748
 20
119.8570225866639
 30
0.0
 11
278.8546869709748
 21
93.72457458666392
 31
0.0
  0
LINE
  5
8CAB
  8
AM_0
 10
278.8546869709748
 20
119.8570225866639
 30
0.0
 11
301.68939697097488
 21
119.8570225866639
 31
0.0
  0
ARC
  5
8CAC
  8
AM_0
 10
279.8546469709749
 20
126.47877858666401
 30
0.0
 40
1.0000000199999961
 50
270.0
 51
0.0
  0
ARC
  5
8CAD
  8
AM_0
 10
279.8546469709749
 20
127.36554858666381
 30
0.0
 40
1.0000000199999961
 50
0.0
 51
90.00000299999769
  0
ARC
  5
8CAE
  8
AM_0
 10
279.8546469709749
 20
129.36552858666391
 30
0.0
 40
1.0000000199999961
 50
270.0
 51
0.0
  0
ARC
  5
8CAF
  8
AM_0
 10
308.8546869709748
 20
116.29913058666391
 30
0.0
 40
8.0000000999999976
 50
90.00000299999769
 51
180.00001000000091
  0
ARC
  5
8CB0
  8
AM_0
 10
276.8546469709749
 20
146.03508858666399
 30
0.0
 40
2.00000007
 50
270.0
 51
0.0
  0
LINE
  5
8CB1
  8
AM_0
 10
264.8546469709749
 20
157.50828858666381
 30
0.0
 11
308.9855169709748
 21
156.35268858666379
 31
0.0
  0
LINE
  5
8CB2
  8
AM_0
 10
276.8546469709749
 20
134.13903858666379
 30
0.0
 11
279.8546469709749
 21
134.13903858666379
 31
0.0
  0
LINE
  5
8CB3
  8
AM_0
 10
276.8546469709749
 20
137.02581858666389
 30
0.0
 11
279.8546469709749
 21
137.02581858666389
 31
0.0
  0
LINE
  5
8CB4
  8
AM_0
 10
257.8546869709748
 20
155.50833858666411
 30
0.0
 11
257.8546869709748
 21
140.00829858666381
 31
0.0
  0
ARC
  5
8CB5
  8
AM_0
 10
254.8546869709748
 20
136.00833858666391
 30
0.0
 40
2.00000007
 50
90.00000299999769
 51
180.00001000000091
  0
ARC
  5
8CB6
  8
AM_0
 10
255.8546469709749
 20
140.00829858666381
 30
0.0
 40
2.00000007
 50
270.0
 51
0.0
  0
LINE
  5
8CB7
  8
AM_0
 10
254.8546869709748
 20
138.00828858666381
 30
0.0
 11
255.8546469709749
 21
138.00828858666381
 31
0.0
  0
ARC
  5
8CB8
  8
AM_0
 10
255.8546469709749
 20
152.74221858666411
 30
0.0
 40
2.00000007
 50
271.50000000000261
 51
0.0
  0
LINE
  5
8CB9
  8
AM_0
 10
275.8546869709748
 20
138.025808586664
 30
0.0
 11
276.8546469709749
 21
138.025808586664
 31
0.0
  0
ARC
  5
8CBA
  8
AM_0
 10
276.8546469709749
 20
143.0350885866639
 30
0.0
 40
1.0000000199999961
 50
90.00000299999769
 51
180.00001000000091
  0
LINE
  5
8CBB
  8
AM_0
 10
259.8546669709749
 20
157.50828858666381
 30
0.0
 11
264.8546469709749
 21
157.50828858666381
 31
0.0
  0
ARC
  5
8CBC
  8
AM_0
 10
259.8546669709749
 20
155.50833858666411
 30
0.0
 40
2.00000007
 50
90.00000299999769
 51
180.00001000000091
  0
LINE
  5
8CBD
  8
AM_0
 10
278.854626970975
 20
157.06320858666359
 30
0.0
 11
292.43658697097487
 21
138.03579858666379
 31
0.0
  0
LINE
  5
8CBE
  8
AM_0
 10
278.8546869709748
 20
157.06317858666421
 30
0.0
 11
278.8546869709748
 21
138.03576858666381
 31
0.0
  0
ARC
  5
8CBF
  8
AM_0
 10
279.8546469709749
 20
136.02582858666381
 30
0.0
 40
1.0000000199999961
 50
0.0
 51
90.00000299999769
  0
ARC
  5
8CC0
  8
AM_0
 10
279.8546469709749
 20
135.13902858666381
 30
0.0
 40
1.0000000199999961
 50
270.0
 51
0.0
  0
ARC
  5
8CC1
  8
AM_0
 10
279.8546469709749
 20
133.1390785866638
 30
0.0
 40
1.0000000199999961
 50
0.0
 51
90.00000299999769
  0
LINE
  5
8CC2
  8
AM_0
 10
313.85469697097483
 20
151.35438858666379
 30
0.0
 11
313.85469697097483
 21
42.549113586664006
 31
0.0
  0
LINE
  5
8CC3
  8
AM_0
 10
326.8546869709748
 20
136.75932858666411
 30
0.0
 11
326.8546869709748
 21
27.252878586663879
 31
0.0
  0
LINE
  5
8CC4
  8
AM_0
 10
329.8546869709748
 20
81.163022586663715
 30
0.0
 11
329.8546869709748
 21
131.8536085866638
 31
0.0
  0
ARC
  5
8CC5
  8
AM_0
 10
327.8546469709749
 20
21.508310586663811
 30
0.0
 40
2.00000007
 50
0.0
 51
90.00000299999769
  0
ARC
  5
8CC6
  8
AM_0
 10
331.85469697097483
 20
27.252878586663879
 30
0.0
 40
5.0000000999999967
 50
179.99998999999889
 51
235.15010999999501
  0
LINE
  5
8CC7
  8
ｶｸﾚｾﾝ2
 10
311.8546869709748
 20
23.50832658666377
 30
0.0
 11
311.8546869709748
 21
11.50832658666388
 31
0.0
  0
LINE
  5
8CC8
  8
ｶｸﾚｾﾝ2
 10
323.8546869709748
 20
23.50832658666377
 30
0.0
 11
323.8546869709748
 21
11.50832658666388
 31
0.0
  0
LINE
  5
8CC9
  8
ﾁｭｳｼﾝｾﾝ
 10
317.8546869709748
 20
26.50832658666377
 30
0.0
 11
317.8546869709748
 21
8.5083265866638822
 31
0.0
  0
LINE
  5
8CCA
  8
AM_0
 10
329.8546869709748
 20
21.508310586663811
 30
0.0
 11
329.8546869709748
 21
11.50832658666388
 31
0.0
  0
LINE
  5
8CCB
  8
AM_0
 10
327.8546469709749
 20
78.853604586663891
 30
0.0
 11
328.8546669709749
 21
79.430966586664113
 31
0.0
  0
ARC
  5
8CCC
  8
AM_0
 10
328.85469697097483
 20
77.12156358666391
 30
0.0
 40
2.00000007
 50
120.0000000000005
 51
180.00001000000091
  0
ARC
  5
8CCD
  8
AM_0
 10
327.8546469709749
 20
81.163022586663715
 30
0.0
 40
2.00000007
 50
300.00000000000051
 51
0.0
  0
LINE
  5
8CD7
  8
AM_0
 10
327.85467697097482
 20
134.16300858666381
 30
0.0
 11
328.85472697097492
 21
133.58565858666381
 31
0.0
  0
ARC
  5
8CD8
  8
AM_0
 10
318.8546469709749
 20
145.2273385866639
 30
0.0
 40
5.0000000999999967
 50
179.99998999999889
 51
265.0
  0
LINE
  5
8CD9
  8
AM_0
 10
318.41886697097488
 20
140.24637858666381
 30
0.0
 11
324.11613697097482
 21
139.74792858666399
 31
0.0
  0
ARC
  5
8CDA
  8
AM_0
 10
328.85469697097483
 20
135.895088586664
 30
0.0
 40
2.00000007
 50
179.99998999999889
 51
240.00001000000529
  0
ARC
  5
8CDB
  8
AM_0
 10
323.8546869709748
 20
136.75932858666411
 30
0.0
 40
3.0
 50
0.0
 51
84.999996999998885
  0
ARC
  5
8CDC
  8
AM_0
 10
327.8546469709749
 20
131.8536085866638
 30
0.0
 40
2.00000007
 50
0.0
 51
60.000002000001302
  0
ARC
  5
8CE0
  8
AM_0
 10
554.76672397097491
 20
106.5082975866639
 30
0.0
 40
26.500002599999998
 50
270.0
 51
90.00000299999769
  0
ARC
  5
8CE1
  8
AM_0
 10
554.76672397097491
 20
91.508297586664185
 30
0.0
 40
48.0
 50
0.0
 51
180.00001000000091
  0
ARC
  5
8CE2
  8
AM_0
 10
554.76672397097491
 20
106.5082975866639
 30
0.0
 40
26.500002599999998
 50
90.00000299999769
 51
270.0
  0
LINE
  5
8CE3
  8
AM_0
 10
602.76673897097487
 20
91.508297586664185
 30
0.0
 11
602.76673897097487
 21
28.50830958666393
 31
0.0
  0
LINE
  5
8CE4
  8
AM_0
 10
506.76672097097497
 20
91.508297586664185
 30
0.0
 11
506.76672097097497
 21
28.50830958666393
 31
0.0
  0
LINE
  5
8CE5
  8
AM_0
 10
501.76672297097502
 20
121.76086158666401
 30
0.0
 11
501.76672297097502
 21
60.508310586663931
 31
0.0
  0
LINE
  5
8CE6
  8
AM_0
 10
607.76672497097593
 20
121.76086158666401
 30
0.0
 11
607.76672497097593
 21
60.508310586663931
 31
0.0
  0
LINE
  5
8CE7
  8
AM_0
 10
476.76673597097482
 20
23.508311586663918
 30
0.0
 11
487.53516997097489
 21
126.1384885866639
 31
0.0
  0
LINE
  5
8CE8
  8
AM_0
 10
632.76672697097501
 20
23.508311586663918
 30
0.0
 11
621.99830797097491
 21
126.1384885866639
 31
0.0
  0
LINE
  5
8CE9
  8
ﾁｭｳｼﾝｾﾝ
 10
554.76672397097491
 20
161.3142353221449
 30
0.0
 11
554.76672397097491
 21
7.2740425866641081
 31
0.0
  0
CIRCLE
  5
8CEA
  8
AM_0
 10
582.89398297097478
 20
18.603173586663949
 30
0.0
 40
4.9999998000000003
  0
LINE
  5
8CEB
  8
AM_0
 10
520.76670697097484
 20
28.50830958666393
 30
0.0
 11
588.76674097097498
 21
28.50830958666393
 31
0.0
  0
LINE
  5
8CEC
  8
AM_0
 10
601.76672497097502
 20
12.50834058666373
 30
0.0
 11
507.76672297097502
 21
12.50834058666373
 31
0.0
  0
LINE
  5
8CED
  8
AM_0
 10
577.55998297097483
 20
16.393748586663701
 30
0.0
 11
582.14039797097348
 21
12.879068586663941
 31
0.0
  0
LINE
  5
8CEE
  8
AM_0
 10
578.31353797097495
 20
22.11786858666391
 30
0.0
 11
577.55995297097502
 21
16.393763586663908
 31
0.0
  0
LINE
  5
8CEF
  8
AM_0
 10
512.76672097097503
 20
14.50832658666377
 30
0.0
 11
508.76670697097472
 21
14.50832658666377
 31
0.0
  0
ARC
  5
8CF0
  8
AM_0
 10
535.76670697097484
 20
60.508310586663931
 30
0.0
 40
34.000001999999988
 50
179.99998999999889
 51
211.46697000000131
  0
ARC
  5
8CF1
  8
AM_0
 10
478.76670697097478
 20
21.508325586663879
 30
0.0
 40
2.00000007
 50
90.00000299999769
 51
180.00001000000091
  0
LINE
  5
8CF2
  8
AM_0
 10
476.76673597097482
 20
11.50832658666388
 30
0.0
 11
506.76672097097497
 21
11.50832658666388
 31
0.0
  0
LINE
  5
8CF3
  8
AM_0
 10
476.76673597097482
 20
11.50832658666388
 30
0.0
 11
476.76673597097482
 21
23.50832658666377
 31
0.0
  0
ARC
  5
8CF4
  8
AM_0
 10
504.76672297097502
 20
21.508325586663879
 30
0.0
 40
2.00000007
 50
0.0
 51
90.00000299999769
  0
ARC
  5
8CF5
  8
AM_0
 10
501.76672297097502
 20
28.50830958666393
 30
0.0
 40
5.0000000999999967
 50
270.0
 51
0.0
  0
LINE
  5
8CF6
  8
ｶｸﾚｾﾝ2
 10
483.76673797097482
 20
23.50832658666377
 30
0.0
 11
483.76673797097482
 21
11.50832658666388
 31
0.0
  0
LINE
  5
8CF7
  8
ｶｸﾚｾﾝ2
 10
495.76672297097502
 20
23.50832658666377
 30
0.0
 11
495.76672297097502
 21
11.50832658666388
 31
0.0
  0
LINE
  5
8CF8
  8
ﾁｭｳｼﾝｾﾝ
 10
489.76670497097251
 20
26.50832658666377
 30
0.0
 11
489.7667049709728
 21
8.5083265866638822
 31
0.0
  0
ARC
  5
8CF9
  8
AM_0
 10
508.76670697097472
 20
12.50834058666373
 30
0.0
 40
2.00000007
 50
90.00000299999769
 51
180.00001000000091
  0
ARC
  5
8CFA
  8
AM_0
 10
507.76672297097502
 20
11.50832658666388
 30
0.0
 40
1.0000000199999961
 50
90.00000299999769
 51
180.00001000000091
  0
LINE
  5
8CFB
  8
AM_0
 10
506.76672097097497
 20
11.50832658666388
 30
0.0
 11
506.76672097097497
 21
21.508325586663879
 31
0.0
  0
LINE
  5
8CFC
  8
AM_0
 10
504.76672297097502
 20
23.50832658666377
 30
0.0
 11
478.76670697097478
 21
23.50832658666377
 31
0.0
  0
CIRCLE
  5
8CFD
  8
AM_0
 10
526.63943497097489
 20
18.603173586663949
 30
0.0
 40
4.9999998000000003
  0
LINE
  5
8CFE
  8
AM_0
 10
515.76672097097503
 20
23.50832658666377
 30
0.0
 11
515.76672097097503
 21
17.50832658666377
 31
0.0
  0
LINE
  5
8CFF
  8
AM_0
 10
525.88587997097488
 20
24.32728158666373
 30
0.0
 11
521.30544997097468
 21
20.812601586664069
 31
0.0
  0
LINE
  5
8D00
  8
AM_0
 10
531.21989497097502
 20
22.11785358666372
 30
0.0
 11
525.88587997097488
 21
24.327266586664098
 31
0.0
  0
LINE
  5
8D01
  8
AM_0
 10
527.39304997097497
 20
12.879068586663941
 30
0.0
 11
531.97347997097495
 21
16.393763586663908
 31
0.0
  0
ARC
  5
8D02
  8
AM_0
 10
512.76672097097503
 20
17.50832658666377
 30
0.0
 40
3.0
 50
270.0
 51
0.0
  0
LINE
  5
8D03
  8
AM_0
 10
521.30540497097468
 20
20.812616586664031
 30
0.0
 11
522.05898997097484
 21
15.088511586663911
 31
0.0
  0
LINE
  5
8D04
  8
AM_0
 10
522.05904997097491
 20
15.08848158666386
 30
0.0
 11
527.39306497097482
 21
12.879068586663941
 31
0.0
  0
LINE
  5
8D05
  8
AM_0
 10
531.97344997097503
 20
16.393778586663871
 30
0.0
 11
531.21986197097476
 21
22.117883586663879
 31
0.0
  0
ARC
  5
8D06
  8
AM_0
 10
520.76670697097484
 20
23.50832658666377
 30
0.0
 40
5.0000000999999967
 50
90.00000299999769
 51
180.00001000000091
  0
ARC
  5
8D07
  8
AM_0
 10
573.76673797097567
 20
60.508310586663931
 30
0.0
 40
34.000001999999988
 50
328.53302000000292
 51
0.0
  0
LINE
  5
8D08
  8
AM_0
 10
604.76672497097593
 20
23.50832658666377
 30
0.0
 11
630.76674097097475
 21
23.50832658666377
 31
0.0
  0
LINE
  5
8D09
  8
AM_0
 10
632.76673297097454
 20
11.50832658666388
 30
0.0
 11
602.76673897097487
 21
11.50832658666388
 31
0.0
  0
ARC
  5
8D0A
  8
AM_0
 10
604.76672497097593
 20
21.508325586663879
 30
0.0
 40
2.00000007
 50
90.00000299999769
 51
180.00001000000091
  0
ARC
  5
8D0B
  8
AM_0
 10
607.76672497097593
 20
28.50830958666393
 30
0.0
 40
5.0000000999999967
 50
179.99998999999889
 51
270.0
  0
LINE
  5
8D0C
  8
AM_0
 10
593.76673897097498
 20
23.50832658666377
 30
0.0
 11
593.76673897097498
 21
17.50832658666377
 31
0.0
  0
LINE
  5
8D0D
  8
AM_0
 10
588.22801297097499
 20
20.812601586664069
 30
0.0
 11
583.64758297097478
 21
24.32728158666373
 31
0.0
  0
LINE
  5
8D0E
  8
AM_0
 10
583.64761297097493
 20
24.32728158666373
 30
0.0
 11
578.31358297097495
 21
22.11785358666372
 31
0.0
  0
ARC
  5
8D0F
  8
AM_0
 10
596.76673897097498
 20
17.50832658666377
 30
0.0
 40
3.0
 50
179.99998999999889
 51
270.0
  0
LINE
  5
8D10
  8
AM_0
 10
582.14041297097469
 20
12.879068586663941
 30
0.0
 11
587.47444297097491
 21
15.088496586664061
 31
0.0
  0
LINE
  5
8D11
  8
AM_0
 10
587.47439797097491
 20
15.088496586664061
 30
0.0
 11
588.22798297097575
 21
20.812601586664069
 31
0.0
  0
ARC
  5
8D12
  8
AM_0
 10
600.76674097097589
 20
12.50834058666373
 30
0.0
 40
2.00000007
 50
0.0
 51
90.00000299999769
  0
ARC
  5
8D13
  8
AM_0
 10
601.76672497097502
 20
11.50832658666388
 30
0.0
 40
1.0000000199999961
 50
0.0
 51
90.00000299999769
  0
LINE
  5
8D14
  8
AM_0
 10
602.76673897097487
 20
11.50832658666388
 30
0.0
 11
602.76673897097487
 21
21.508325586663879
 31
0.0
  0
LINE
  5
8D15
  8
AM_0
 10
600.76674097097589
 20
14.50832658666377
 30
0.0
 11
596.76673897097498
 21
14.50832658666377
 31
0.0
  0
ARC
  5
8D16
  8
AM_0
 10
588.76674097097498
 20
23.50832658666377
 30
0.0
 40
5.0000000999999967
 50
0.0
 51
90.00000299999769
  0
ARC
  5
8D17
  8
AM_0
 10
630.76674097097475
 20
21.508325586663879
 30
0.0
 40
2.00000007
 50
0.0
 51
90.00000299999769
  0
LINE
  5
8D18
  8
AM_0
 10
632.76673297097454
 20
11.50832658666388
 30
0.0
 11
632.76673297097454
 21
23.50832658666377
 31
0.0
  0
LINE
  5
8D19
  8
ｶｸﾚｾﾝ2
 10
625.76673397097511
 20
23.50832658666377
 30
0.0
 11
625.76673397097511
 21
11.50832658666388
 31
0.0
  0
LINE
  5
8D1A
  8
ｶｸﾚｾﾝ2
 10
613.7667249709757
 20
23.50832658666377
 30
0.0
 11
613.7667249709757
 21
11.50832658666388
 31
0.0
  0
LINE
  5
8D1B
  8
ﾁｭｳｼﾝｾﾝ
 10
619.76673397097522
 20
26.50832658666377
 30
0.0
 11
619.766733970975
 21
8.5083265866638822
 31
0.0
  0
ARC
  5
8D1C
  8
AM_0
 10
554.76672397097491
 20
47.50832658666377
 30
0.0
 40
110.000004
 50
58.263836000000381
 51
121.73617000000419
  0
ARC
  5
8D1D
  8
AM_0
 10
554.76672397097491
 20
86.508326586663756
 30
0.0
 40
71.000000999999983
 50
47.999358999996929
 51
132.00064999999441
  0
LINE
  5
8D1E
  8
ﾁｭｳｼﾝｾﾝ
 10
515.18303863471749
 20
106.5082975866639
 30
0.0
 11
594.35040930723233
 21
106.5082975866639
 31
0.0
  0
ARC
  5
8D1F
  8
AM_0
 10
507.42594697097587
 20
124.0514485866638
 30
0.0
 40
20.000000700000001
 50
121.73617000000419
 51
174.01019000000019
  0
ARC
  5
8D20
  8
AM_0
 10
492.48844597097479
 20
134.29605858666409
 30
0.0
 40
13.9999986
 50
266.80064000000527
 51
25.062969000000368
  0
CIRCLE
  5
8D21
  8
AM_0
 10
496.45524397097478
 20
131.25228858666381
 30
0.0
 40
4.9999998000000003
  0
LINE
  5
8D22
  8
AM_0
 10
491.121243970975
 20
133.46172858666381
 30
0.0
 11
491.87484397097512
 21
127.73763858666391
 31
0.0
  0
LINE
  5
8D23
  8
AM_0
 10
501.78928897097489
 20
129.0429085866638
 30
0.0
 11
501.03570397097502
 21
134.76699858666399
 31
0.0
  0
ARC
  5
8D24
  8
AM_0
 10
554.76672397097491
 20
86.508326586663756
 30
0.0
 40
71.000000999999983
 50
152.99941999999919
 51
174.01019000000019
  0
LINE
  5
8D25
  8
AM_0
 10
491.87484397097512
 20
127.737608586664
 30
0.0
 11
497.20886197097587
 21
125.52819858666371
 31
0.0
  0
ARC
  5
8D26
  8
AM_0
 10
491.42806897097478
 20
115.3256515866638
 30
0.0
 40
5.0000000999999967
 50
86.800639000002093
 51
174.01019000000019
  0
ARC
  5
8D27
  8
AM_0
 10
494.17858597097478
 20
117.3802765866641
 30
0.0
 40
3.0
 50
95.705737999992664
 51
152.99941999999919
  0
ARC
  5
8D28
  8
AM_0
 10
506.76672097097497
 20
121.76086158666401
 30
0.0
 40
5.0000000999999967
 50
138.71941000000459
 51
180.00001000000091
  0
LINE
  5
8D29
  8
AM_0
 10
497.20886197097587
 20
125.5282285866638
 30
0.0
 11
501.78930397097582
 21
129.0429085866638
 31
0.0
  0
LINE
  5
8D2A
  8
AM_0
 10
495.70168897097471
 20
136.9764385866639
 30
0.0
 11
491.12125897097468
 21
133.46175858666399
 31
0.0
  0
ARC
  5
8D2B
  8
AM_0
 10
509.69947597097558
 20
142.3447285866639
 30
0.0
 40
5.0000000999999967
 50
115.4175600000037
 51
205.06297000000339
  0
LINE
  5
8D2C
  8
AM_0
 10
501.03570397097502
 20
134.76696858666381
 30
0.0
 11
495.70168897097471
 21
136.97640858666381
 31
0.0
  0
ARC
  5
8D2D
  8
AM_0
 10
509.26525597097481
 20
137.04165858666391
 30
0.0
 40
3.0
 50
132.00064999999441
 51
189.2943400000016
  0
ARC
  5
8D35
  8
AM_0
 10
602.10751597097487
 20
124.0514485866638
 30
0.0
 40
20.000000700000001
 50
5.9898154999961353
 51
58.263836000000381
  0
ARC
  5
8D36
  8
AM_0
 10
617.04499897097503
 20
134.29605858666409
 30
0.0
 40
13.9999986
 50
154.9370400000038
 51
273.19937000000061
  0
CIRCLE
  5
8D37
  8
AM_0
 10
613.07820397097566
 20
131.2522285866639
 30
0.0
 40
4.9999998000000003
  0
LINE
  5
8D38
  8
AM_0
 10
618.41218597097475
 20
133.46172858666381
 30
0.0
 11
617.65858597097485
 21
127.73763858666391
 31
0.0
  0
LINE
  5
8D39
  8
AM_0
 10
608.4977589709747
 20
134.7669085866639
 30
0.0
 11
607.74417397097477
 21
129.0428185866638
 31
0.0
  0
LINE
  5
8D3A
  8
AM_0
 10
607.74420397097492
 20
129.0428185866638
 30
0.0
 11
612.32461597097472
 21
125.5281385866638
 31
0.0
  0
ARC
  5
8D3B
  8
AM_0
 10
602.76673897097487
 20
121.76086158666401
 30
0.0
 40
5.0000000999999967
 50
0.0
 51
41.28059100000511
  0
ARC
  5
8D3C
  8
AM_0
 10
554.76672397097491
 20
86.508326586663756
 30
0.0
 40
71.000000999999983
 50
5.9898141999989969
 51
27.000573000003559
  0
ARC
  5
8D3D
  8
AM_0
 10
618.105393970975
 20
115.3256515866638
 30
0.0
 40
5.0000000999999967
 50
5.9898154999961353
 51
93.199358999991077
  0
ARC
  5
8D3E
  8
AM_0
 10
615.35487397097506
 20
117.3802765866641
 30
0.0
 40
3.0
 50
27.000573000003559
 51
84.294261000009101
  0
LINE
  5
8D3F
  8
AM_0
 10
612.3246309709757
 20
125.5281385866638
 30
0.0
 11
617.65866397097466
 21
127.7375785866639
 31
0.0
  0
LINE
  5
8D40
  8
AM_0
 10
613.83181897097484
 20
136.9763785866638
 30
0.0
 11
608.49778897097485
 21
134.766938586664
 31
0.0
  0
ARC
  5
8D41
  8
AM_0
 10
599.83398697097471
 20
142.3447285866639
 30
0.0
 40
5.0000000999999967
 50
334.93702999999658
 51
64.582443999995391
  0
ARC
  5
8D42
  8
AM_0
 10
600.26818897097485
 20
137.04165858666391
 30
0.0
 40
3.0
 50
350.70567000000398
 51
47.999358999996929
  0
LINE
  5
8D43
  8
AM_0
 10
618.41223397097372
 20
133.4616685866639
 30
0.0
 11
613.83180397097567
 21
136.97634858666379
 31
0.0
  0
LINE
  5
8D45
  8
AM_0
 10
219.85467697097479
 20
149.00834058666391
 30
0.0
 11
219.85467697097479
 21
24.008324586663768
 31
0.0
  0
LINE
  5
8D46
  8
AM_0
 10
22.854726970974969
 20
54.828350586663859
 30
0.0
 11
22.854726970974969
 21
121.0383265866637
 31
0.0
  0
LINE
  5
8D47
  8
AM_0
 10
25.35468697097485
 20
29.508341586663729
 30
0.0
 11
25.35468697097485
 21
46.339995769235657
 31
0.0
  0
LINE
  5
8D48
  8
AM_0
 10
72.85467697097485
 20
143.93831058666379
 30
0.0
 11
72.85467697097485
 21
86.508326586663756
 31
0.0
  0
LINE
  5
8D49
  8
AM_0
 10
209.6247069709749
 20
116.50832958666381
 30
0.0
 11
209.6247069709749
 21
56.508341586663732
 31
0.0
  0
LINE
  5
8D4A
  8
ﾁｭｳｼﾝｾﾝ
 10
168.85467697097479
 20
127.1333260866638
 30
0.0
 11
168.85467697097479
 21
45.883327086663712
 31
0.0
  0
ARC
  5
8D4B
  8
AM_0
 10
55.855416970974822
 20
86.506436586663852
 30
0.0
 40
8.0019083999999978
 50
90.005172999990876
 51
161.78015999999459
  0
ARC
  5
8D4C
  8
AM_0
 10
55.84965697097482
 20
86.502347586663987
 30
0.0
 40
7.9940046000000002
 50
198.17883999999461
 51
270.03581999999773
  0
LINE
  5
8D4D
  8
AM_0
 10
25.35468697097485
 20
42.618341586664087
 30
0.0
 11
72.85467697097485
 21
42.618341586664087
 31
0.0
  0
LINE
  5
8D4E
  8
AM_0
 10
40.494696970974907
 20
89.008328586663879
 30
0.0
 11
50.354676970974857
 21
89.008328586663879
 31
0.0
  0
LINE
  5
8D4F
  8
AM_0
 10
40.494696970974907
 20
84.008327586663853
 30
0.0
 11
50.354676970974857
 21
84.008327586663853
 31
0.0
  0
LINE
  5
8D50
  8
AM_0
 10
24.854676970974879
 20
29.508341586663729
 30
0.0
 11
72.85467697097485
 21
29.508341586663729
 31
0.0
  0
LINE
  5
8D51
  8
AM_0
 10
31.934676970974799
 20
82.788326586663715
 30
0.0
 11
17.47467697097499
 21
38.278331586663732
 31
0.0
  0
LINE
  5
8D52
  8
AM_0
 10
36.694686970974992
 20
81.238337586663874
 30
0.0
 11
22.234686970974959
 21
36.738335586663872
 31
0.0
  0
ARC
  5
8D53
  8
AM_0
 10
19.854726970974969
 20
37.508327586663889
 30
0.0
 40
2.5014680099999991
 50
162.072079999999
 51
342.07206999999983
  0
ARC
  5
8D54
  8
AM_0
 10
19.853826970974971
 20
37.502909586663797
 30
0.0
 40
3.0008441999999982
 50
185.05818999999951
 51
0.1035440000013782
  0
LINE
  5
8D55
  8
AM_0
 10
22.854726970974969
 20
38.648339586663717
 30
0.0
 11
22.854726970974969
 21
31.508324586663768
 31
0.0
  0
ARC
  5
8D56
  8
AM_0
 10
24.849426970974928
 20
31.503047586663911
 30
0.0
 40
1.994720039999998
 50
179.84812999999991
 51
270.15187999999722
  0
LINE
  5
8D57
  8
AM_0
 10
25.35468697097485
 20
46.348337586663881
 30
0.0
 11
25.35468697097485
 21
42.618341586664087
 31
0.0
  0
ARC
  5
8D58
  8
AM_0
 10
16.562316970974958
 20
37.204004586664041
 30
0.0
 40
0.304344
 50
6.4777590999992869
 51
89.547817000002425
  0
ARC
  5
8D59
  8
AM_0
 10
16.563096970975721
 20
37.203257586663753
 30
0.0
 40
0.8050760400000001
 50
5.3506319000004003
 51
89.888465999998445
  0
LINE
  5
8D5A
  8
AM_0
 10
16.35468697097485
 20
38.008340586663728
 30
0.0
 11
16.35468697097485
 21
37.508327586663889
 31
0.0
  0
LINE
  5
8D5B
  8
AM_0
 10
16.35468697097485
 20
38.008340586663728
 30
0.0
 11
16.56468697097489
 21
38.008340586663728
 31
0.0
  0
ARC
  5
8D5C
  8
AM_0
 10
22.902756970974899
 20
49.008449586663801
 30
0.0
 40
4.0504481999999991
 50
99.063520000000551
 51
224.9205999999968
  0
ARC
  5
8D5D
  8
AM_0
 10
40.497126970974932
 20
80.004818586663745
 30
0.0
 40
9.0035201999999952
 50
90.015528000004579
 51
161.99145000000081
  0
ARC
  5
8D5E
  8
AM_0
 10
40.501266970974939
 20
80.007809586663797
 30
0.0
 40
4.0005161999999981
 50
90.094088000008185
 51
162.08606999999819
  0
LINE
  5
8D5F
  8
AM_0
 10
117.85467697097479
 20
40.158350586663794
 30
0.0
 11
219.85467697097479
 21
40.158350586663794
 31
0.0
  0
LINE
  5
8D60
  8
AM_0
 10
213.2047269709748
 20
50.508341586664081
 30
0.0
 11
78.404736970974909
 21
50.508341586664081
 31
0.0
  0
LINE
  5
8D61
  8
AM_0
 10
95.854686970974839
 20
24.64832658666376
 30
0.0
 11
212.66466697097479
 21
24.64832658666376
 31
0.0
  0
LINE
  5
8D62
  8
AM_0
 10
168.85467697097479
 20
49.788341586664153
 30
0.0
 11
216.67467697097479
 21
49.788341586664153
 31
0.0
  0
LINE
  5
8D63
  8
AM_0
 10
117.85467697097479
 20
40.158335586663711
 30
0.0
 11
82.854666970974904
 21
42.188333586664037
 31
0.0
  0
LINE
  5
8D64
  8
AM_0
 10
77.12469697097481
 20
80.23830858666372
 30
0.0
 11
117.85467697097479
 21
80.23830858666372
 31
0.0
  0
LINE
  5
8D65
  8
AM_0
 10
117.35467697097479
 20
60.508340586663962
 30
0.0
 11
78.404736970974909
 21
60.508340586663962
 31
0.0
  0
LINE
  5
8D66
  8
AM_0
 10
77.31468697097489
 20
62.948345586663763
 30
0.0
 11
117.35467697097479
 21
62.948345586663763
 31
0.0
  0
LINE
  5
8D67
  8
AM_0
 10
117.35467697097479
 20
62.508341586663718
 30
0.0
 11
78.404736970974909
 21
62.508341586663718
 31
0.0
  0
LINE
  5
8D68
  8
AM_0
 10
77.184696970974983
 20
70.168331586664067
 30
0.0
 11
117.85467697097479
 21
70.168331586664067
 31
0.0
  0
LINE
  5
8D69
  8
AM_0
 10
117.85467697097479
 20
70.508327586663881
 30
0.0
 11
78.414666970974849
 21
70.508327586663881
 31
0.0
  0
LINE
  5
8D6A
  8
AM_0
 10
77.184696970974983
 20
72.828350586663873
 30
0.0
 11
117.85467697097479
 21
72.828350586663873
 31
0.0
  0
LINE
  5
8D6B
  8
AM_0
 10
117.85467697097479
 20
82.508327586663896
 30
0.0
 11
78.414666970974849
 21
82.508327586663896
 31
0.0
  0
LINE
  5
8D6C
  8
AM_0
 10
117.85467697097479
 20
80.508326586663856
 30
0.0
 11
78.414666970974849
 21
80.508326586663856
 31
0.0
  0
LINE
  5
8D6D
  8
AM_0
 10
77.12469697097481
 20
82.778345586663804
 30
0.0
 11
117.85467697097479
 21
82.778345586663804
 31
0.0
  0
LINE
  5
8D6E
  8
AM_0
 10
77.12469697097481
 20
90.248318586663913
 30
0.0
 11
117.85467697097479
 21
90.248318586663913
 31
0.0
  0
LINE
  5
8D6F
  8
AM_0
 10
77.12469697097481
 20
92.778317586663874
 30
0.0
 11
117.85467697097479
 21
92.778317586663874
 31
0.0
  0
LINE
  5
8D70
  8
AM_0
 10
117.85467697097479
 20
52.508327586663761
 30
0.0
 11
78.844716970975014
 21
52.508327586663761
 31
0.0
  0
LINE
  5
8D71
  8
AM_0
 10
77.31468697097489
 20
60.028331586664073
 30
0.0
 11
117.35467697097479
 21
60.028331586664073
 31
0.0
  0
LINE
  5
8D72
  8
AM_0
 10
95.854686970974839
 20
22.618325586663779
 30
0.0
 11
148.85472697097489
 21
22.618325586663779
 31
0.0
  0
LINE
  5
8D73
  8
AM_0
 10
95.854686970974839
 20
21.268334586663961
 30
0.0
 11
148.85472697097489
 21
21.268334586663961
 31
0.0
  0
LINE
  5
8D74
  8
AM_0
 10
95.854686970974839
 20
20.598338586663761
 30
0.0
 11
148.85472697097489
 21
20.598338586663761
 31
0.0
  0
LINE
  5
8D75
  8
AM_0
 10
117.85467697097479
 20
90.508328586663765
 30
0.0
 11
78.414666970974849
 21
90.508328586663765
 31
0.0
  0
LINE
  5
8D76
  8
AM_0
 10
117.85467697097479
 20
92.508326586663884
 30
0.0
 11
78.414666970974849
 21
92.508326586663884
 31
0.0
  0
LINE
  5
8D77
  8
AM_0
 10
117.85467697097479
 20
72.508343586663699
 30
0.0
 11
78.414666970974849
 21
72.508343586663699
 31
0.0
  0
LINE
  5
8D78
  8
AM_0
 10
77.534676970974942
 20
49.788341586664153
 30
0.0
 11
168.85467697097479
 21
49.788341586664153
 31
0.0
  0
LINE
  5
8D79
  8
AM_0
 10
77.534676970974942
 20
53.138330586663862
 30
0.0
 11
117.85467697097479
 21
53.138330586663862
 31
0.0
  0
LINE
  5
8D7A
  8
AM_0
 10
72.85467697097485
 20
29.078333586663909
 30
0.0
 11
72.85467697097485
 21
86.508326586663756
 31
0.0
  0
LINE
  5
8D7B
  8
AM_0
 10
72.85467697097485
 20
43.818323586664057
 30
0.0
 11
82.854726970974994
 21
43.818323586664057
 31
0.0
  0
LINE
  5
8D7C
  8
AM_0
 10
78.994686970974939
 20
24.838328586663931
 30
0.0
 11
92.354676970974893
 21
24.838328586663931
 31
0.0
  0
LINE
  5
8D7D
  8
AM_0
 10
72.85467697097485
 20
38.15833458666372
 30
0.0
 11
82.854726970974994
 21
38.15833458666372
 31
0.0
  0
LINE
  5
8D7E
  8
AM_0
 10
79.084716970975023
 20
33.52832958666373
 30
0.0
 11
92.354676970974893
 21
33.52832958666373
 31
0.0
  0
LINE
  5
8D7F
  8
AM_0
 10
78.964656970974801
 20
23.208338586663888
 30
0.0
 11
92.464656970974787
 21
23.208338586663888
 31
0.0
  0
LINE
  5
8D80
  8
AM_0
 10
79.02471697097485
 20
28.24834758666395
 30
0.0
 11
92.354676970974893
 21
28.24834758666395
 31
0.0
  0
ARC
  5
8D81
  8
AM_0
 10
74.644836970974907
 20
33.975533586663907
 30
0.0
 40
1.50278811
 50
12.01334200000281
 51
90.004668000003363
  0
ARC
  5
8D82
  8
AM_0
 10
79.081716970974853
 20
35.527949586663787
 30
0.0
 40
1.9996281299999981
 50
190.36076000000159
 51
270.08532999999341
  0
ARC
  5
8D83
  8
AM_0
 10
78.967086970974833
 20
25.212656586663911
 30
0.0
 40
2.004324029999998
 50
194.2780500000006
 51
269.93108999999242
  0
LINE
  5
8D84
  8
AM_0
 10
72.85473697097494
 20
29.078333586663909
 30
0.0
 11
75.674676970974801
 21
29.008325586663769
 31
0.0
  0
ARC
  5
8D85
  8
AM_0
 10
74.68968697097489
 20
27.886574586663752
 30
0.0
 40
1.5017800800000001
 50
14.332836000000739
 51
90.189382999992631
  0
ARC
  5
8D86
  8
AM_0
 10
74.669016970975022
 20
29.91201258666376
 30
0.0
 40
1.4963320799999991
 50
13.382438000001009
 51
90.164589999994277
  0
ARC
  5
8D87
  8
AM_0
 10
78.99261697097495
 20
26.840279586663758
 30
0.0
 40
2.0019479399999991
 50
193.3411399999984
 51
270.05947999999449
  0
ARC
  5
8D88
  8
AM_0
 10
79.026606970974839
 20
30.244028586664051
 30
0.0
 40
1.995695999999995
 50
192.0225299999999
 51
269.94478000000271
  0
LINE
  5
8D89
  8
AM_0
 10
77.074716970974805
 20
29.82831858666372
 30
0.0
 11
76.114686970974844
 21
34.288325586663973
 31
0.0
  0
LINE
  5
8D8A
  8
AM_0
 10
74.664666970974849
 20
31.408334586663951
 30
0.0
 11
76.724736970974845
 21
31.408334586663951
 31
0.0
  0
LINE
  5
8D8B
  8
AM_0
 10
74.684706970974943
 20
29.388329586663868
 30
0.0
 11
76.334706970974807
 21
29.388329586663868
 31
0.0
  0
LINE
  5
8D8C
  8
AM_0
 10
77.044686970974908
 20
26.378321586663901
 30
0.0
 11
76.124706970975012
 21
30.25832658666377
 31
0.0
  0
LINE
  5
8D8D
  8
AM_0
 10
77.024646970975013
 20
24.71833158666379
 30
0.0
 11
76.144656970974907
 21
28.258325586663769
 31
0.0
  0
LINE
  5
8D8E
  8
AM_0
 10
67.85472697097498
 20
42.618341586664087
 30
0.0
 11
67.85472697097498
 21
29.508341586663729
 31
0.0
  0
LINE
  5
8D8F
  8
AM_0
 10
74.644656970974907
 20
35.478326586663897
 30
0.0
 11
77.06469697097485
 21
35.478326586663897
 31
0.0
  0
LINE
  5
8D90
  8
AM_0
 10
76.57470697097483
 20
38.158319586663758
 30
0.0
 11
77.11467697097487
 21
35.168315586663759
 31
0.0
  0
LINE
  5
8D91
  8
AM_0
 10
72.85467697097485
 20
52.20833958666389
 30
0.0
 11
76.02471697097485
 21
52.20833958666389
 31
0.0
  0
ARC
  5
8D92
  8
AM_0
 10
77.534676970974942
 20
51.463343586663768
 30
0.0
 40
1.67500812
 50
90.00000299999769
 51
270.0
  0
ARC
  5
8D93
  8
AM_0
 10
78.404736970974909
 20
51.508340586664083
 30
0.0
 40
1.000004069999999
 50
90.00000299999769
 51
270.0
  0
ARC
  5
8D94
  8
AM_0
 10
92.356146970972745
 20
23.33976258666393
 30
0.0
 40
1.498559999999999
 50
359.94488000000052
 51
90.055115000003084
  0
ARC
  5
8D95
  8
AM_0
 10
95.857236970975023
 20
24.620843586663788
 30
0.0
 40
2.00251584
 50
180.0718999999998
 51
269.9281000000002
  0
ARC
  5
8D96
  8
AM_0
 10
92.473386970974843
 20
21.708047586664058
 30
0.0
 40
1.500312029999999
 50
14.683033999999299
 51
90.331662999994379
  0
ARC
  5
8D97
  8
AM_0
 10
95.855826970974917
 20
22.594751586664071
 30
0.0
 40
1.9964280599999991
 50
194.69462999999899
 51
269.96760999999151
  0
ARC
  5
8D98
  8
AM_0
 10
95.854506970974825
 20
23.26815258666397
 30
0.0
 40
1.9998241199999991
 50
179.99493999999871
 51
270.00505999999473
  0
ARC
  5
8D99
  8
AM_0
 10
92.35314697097489
 20
26.746835586663892
 30
0.0
 40
1.5015081599999991
 50
0.0575469979998106
 51
89.942451000003146
  0
ARC
  5
8D9A
  8
AM_0
 10
92.354316970974864
 20
32.027963586663873
 30
0.0
 40
1.500360179999999
 50
0.0138160000014509
 51
89.986184999999963
  0
ARC
  5
8D9B
  8
AM_0
 10
95.856336970974994
 20
26.649974586663799
 30
0.0
 40
2.0016401400000001
 50
180.04695999999811
 51
269.95304000000829
  0
LINE
  5
8D9C
  8
AM_0
 10
93.854676970974865
 20
24.618341586663728
 30
0.0
 11
93.854676970974865
 21
32.028329586663972
 31
0.0
  0
ARC
  5
8D9D
  8
AM_0
 10
82.024896970974851
 20
44.915444586664073
 30
0.0
 40
5.0021840999999991
 50
5.4245260000041613
 51
80.451425000001095
  0
LINE
  5
8D9E
  8
AM_0
 10
82.854726970974994
 20
38.15833458666372
 30
0.0
 11
82.854726970974994
 21
52.20833958666389
 31
0.0
  0
ARC
  5
8D9F
  8
AM_0
 10
82.484916970974837
 20
48.85485258666381
 30
0.0
 40
6.007896599999996
 50
273.52844999999832
 51
314.61726999999422
  0
ARC
  5
8DA0
  8
AM_0
 10
86.001216970974809
 20
45.299417586663928
 30
0.0
 40
1.007376
 50
314.2903200000024
 51
5.0634048999973107
  0
ARC
  5
8DA1
  8
AM_0
 10
94.854726970974966
 20
51.508340586664083
 30
0.0
 40
1.000004069999999
 50
90.00000299999769
 51
270.0
  0
LINE
  5
8DA2
  8
ﾁｭｳｼﾝｾﾝ
 10
55.85472697097498
 20
75.396044062151304
 30
0.0
 11
55.85472697097498
 21
97.620609111176236
 31
0.0
  0
ARC
  5
8DA3
  8
AM_0
 10
78.404736970974909
 20
61.508327586663889
 30
0.0
 40
1.000004069999999
 50
90.00000299999769
 51
270.0
  0
ARC
  5
8DA4
  8
AM_0
 10
77.31468697097489
 20
61.488323586663782
 30
0.0
 40
1.4600000699999991
 50
90.00000299999769
 51
270.0
  0
ARC
  5
8DA5
  8
AM_0
 10
78.405996970974897
 20
71.508341586664045
 30
0.0
 40
1.00003602
 50
89.500715999993631
 51
270.49928999999509
  0
ARC
  5
8DA6
  8
AM_0
 10
77.184696970974983
 20
71.498333586663875
 30
0.0
 40
1.33000008
 50
90.00000299999769
 51
270.0
  0
LINE
  5
8DA7
  8
AM_0
 10
55.85472697097498
 20
78.508328586663765
 30
0.0
 11
72.85467697097485
 21
78.508328586663765
 31
0.0
  0
LINE
  5
8DA8
  8
AM_0
 10
55.85472697097498
 20
94.508327586663881
 30
0.0
 11
72.85467697097485
 21
94.508327586663881
 31
0.0
  0
ARC
  5
8DA9
  8
AM_0
 10
55.85472697097498
 20
86.502314586664042
 30
0.0
 40
5.0000519999999984
 50
23.653230000000121
 51
156.34676999999979
  0
ARC
  5
8DAA
  8
AM_0
 10
55.85472697097498
 20
86.502314586664042
 30
0.0
 40
4.9952319000000003
 50
203.52670000000651
 51
336.47328999999758
  0
LINE
  5
8DAB
  8
AM_0
 10
50.354676970974857
 20
88.508327586663881
 30
0.0
 11
61.354686970974853
 21
88.508327586663881
 31
0.0
  0
LINE
  5
8DAC
  8
AM_0
 10
50.354676970974857
 20
84.508328586663865
 30
0.0
 11
61.354686970974853
 21
84.508328586663865
 31
0.0
  0
LINE
  5
8DAD
  8
AM_0
 10
50.354676970974857
 20
84.008327586663853
 30
0.0
 11
50.354676970974857
 21
89.008328586663879
 31
0.0
  0
LINE
  5
8DAE
  8
AM_0
 10
63.854676970974893
 20
84.008327586663853
 30
0.0
 11
63.854676970974893
 21
89.008328586663879
 31
0.0
  0
LINE
  5
8DAF
  8
AM_0
 10
61.354686970974853
 20
84.008327586663853
 30
0.0
 11
61.354686970974853
 21
89.008328586663879
 31
0.0
  0
LINE
  5
8DB0
  8
AM_0
 10
61.354686970974853
 20
89.008328586663879
 30
0.0
 11
63.854676970974893
 21
89.008328586663879
 31
0.0
  0
LINE
  5
8DB1
  8
AM_0
 10
61.354686970974853
 20
84.008327586663853
 30
0.0
 11
63.854676970974893
 21
84.008327586663853
 31
0.0
  0
ARC
  5
8DB2
  8
AM_0
 10
77.12469697097481
 20
81.508328586663765
 30
0.0
 40
1.270004069999999
 50
90.00000299999769
 51
270.0
  0
ARC
  5
8DB3
  8
AM_0
 10
78.405996970974897
 20
81.508328586663765
 30
0.0
 40
1.00003602
 50
89.500715999993631
 51
270.49928999999509
  0
ARC
  5
8DB4
  8
AM_0
 10
78.405996970974897
 20
91.508327586663853
 30
0.0
 40
1.00003602
 50
89.500715999993631
 51
270.49928999999509
  0
ARC
  5
8DB5
  8
AM_0
 10
77.12469697097481
 20
91.513331586663767
 30
0.0
 40
1.265004089999999
 50
90.00000299999769
 51
270.0
  0
ARC
  5
8DB6
  8
AM_0
 10
94.854726970974966
 20
61.508327586663889
 30
0.0
 40
1.000004069999999
 50
90.00000299999769
 51
270.0
  0
ARC
  5
8DB7
  8
AM_0
 10
94.854726970974966
 20
71.508341586664045
 30
0.0
 40
1.000004069999999
 50
90.00000299999769
 51
270.0
  0
ARC
  5
8DB8
  8
AM_0
 10
94.854726970974966
 20
81.508328586663765
 30
0.0
 40
1.000004069999999
 50
90.00000299999769
 51
270.0
  0
ARC
  5
8DB9
  8
AM_0
 10
94.854726970974966
 20
91.508327586663853
 30
0.0
 40
1.000004069999999
 50
90.00000299999769
 51
270.0
  0
ARC
  5
8DBA
  8
AM_0
 10
148.85382697097489
 20
22.599221586663809
 30
0.0
 40
2.000876009999998
 50
270.02510999999589
 51
359.97488999999757
  0
ARC
  5
8DBB
  8
AM_0
 10
148.8523569709748
 20
23.27066958666375
 30
0.0
 40
2.002332029999998
 50
270.06674000000118
 51
359.93325999999882
  0
ARC
  5
8DBC
  8
AM_0
 10
148.84968697097489
 20
24.623360586663932
 30
0.0
 40
2.00502402
 50
270.14341000000132
 51
359.85658999999862
  0
LINE
  5
8DBD
  8
AM_0
 10
150.85467697097479
 20
22.598321586663928
 30
0.0
 11
150.85467697097479
 21
24.64832658666376
 31
0.0
  0
ARC
  5
8DBE
  8
AM_0
 10
216.67467697097479
 20
51.463343586663768
 30
0.0
 40
1.6749999899999961
 50
270.0
 51
90.00000299999769
  0
ARC
  5
8DBF
  8
AM_0
 10
214.70403697097481
 20
28.014857586663759
 30
0.0
 40
2.0065319999999991
 50
270.01926999999682
 51
347.7268700000032
  0
LINE
  5
8DC0
  8
AM_0
 10
214.5646869709748
 20
26.00834058666408
 30
0.0
 11
219.85467697097479
 21
26.00834058666408
 31
0.0
  0
LINE
  5
8DC1
  8
AM_0
 10
214.59465697097491
 20
26.128319586663789
 30
0.0
 11
218.0546769709749
 21
39.048320586664097
 31
0.0
  0
LINE
  5
8DC2
  8
AM_0
 10
216.67467697097479
 20
53.138330586663862
 30
0.0
 11
206.85467697097479
 21
53.138330586663862
 31
0.0
  0
ARC
  5
8DC3
  8
AM_0
 10
212.66010697097491
 20
26.652734586663762
 30
0.0
 40
2.004416039999998
 50
270.13147999999228
 51
344.8333399999994
  0
LINE
  5
8DC4
  8
AM_0
 10
213.2047269709748
 20
52.508327586663761
 30
0.0
 11
206.85467697097479
 21
52.508327586663761
 31
0.0
  0
LINE
  5
8DC5
  8
AM_0
 10
206.85467697097479
 20
56.429588000095123
 30
0.0
 11
209.6247069709749
 21
56.508311586663922
 31
0.0
  0
ARC
  5
8DC6
  8
AM_0
 10
213.19653697097479
 20
51.508340586664083
 30
0.0
 40
1.0000319699999971
 50
270.46929999999782
 51
89.530700000002156
  0
ARC
  5
8DC7
  8
AM_0
 10
220.85418697097489
 20
35.467799586663773
 30
0.0
 40
0.99947604
 50
179.97008999999551
 51
270.02992000000683
  0
ARC
  5
8DC8
  8
AM_0
 10
219.5617569709749
 20
33.979013586663768
 30
0.0
 40
1.499328059999999
 50
89.888150999993556
 51
168.09384000000131
  0
ARC
  5
8DC9
  8
AM_0
 10
220.85493697097499
 20
24.008507586663761
 30
0.0
 40
1.0001800499999971
 50
180.0103099999989
 51
269.98967999999968
  0
LINE
  5
8DCA
  8
AM_0
 10
216.664686970975
 20
27.588326586663921
 30
0.0
 11
218.1046869709748
 21
34.288325586663973
 31
0.0
  0
ARC
  5
8DCB
  8
AM_0
 10
219.5000769709749
 20
38.662349586663929
 30
0.0
 40
1.49599605
 50
89.821706999993253
 51
165.0476599999993
  0
LINE
  5
8DCC
  8
AM_0
 10
219.56469697097481
 20
35.478326586663897
 30
0.0
 11
217.1547369709748
 21
35.478326586663897
 31
0.0
  0
LINE
  5
8DCD
  8
AM_0
 10
25.35468697097485
 20
130.3983205866638
 30
0.0
 11
72.85467697097485
 21
130.3983205866638
 31
0.0
  0
LINE
  5
8DCE
  8
AM_0
 10
25.35468697097485
 20
120.1483435866639
 30
0.0
 11
67.85472697097498
 21
120.1483435866639
 31
0.0
  0
LINE
  5
8DCF
  8
AM_0
 10
24.854676970974879
 20
143.50832058666381
 30
0.0
 11
72.85467697097485
 21
143.50832058666381
 31
0.0
  0
ARC
  5
8DD0
  8
AM_0
 10
24.85521697097488
 20
141.50777058666381
 30
0.0
 40
2.000536019999998
 50
90.015328999998147
 51
179.98468000000159
  0
ARC
  5
8DD1
  8
AM_0
 10
23.752446970974908
 20
123.8908405866639
 30
0.0
 40
2.9977641899999981
 50
179.8564500000015
 51
275.78659000000278
  0
LINE
  5
8DD2
  8
AM_0
 10
24.05469697097487
 20
120.7983385866638
 30
0.0
 11
24.05469697097487
 21
129.9983305866638
 31
0.0
  0
LINE
  5
8DD3
  8
AM_0
 10
24.05469697097487
 20
120.7983385866638
 30
0.0
 11
25.35468697097485
 21
120.7983385866638
 31
0.0
  0
LINE
  5
8DD4
  8
AM_0
 10
22.854726970974969
 20
129.75833058666359
 30
0.0
 11
22.854726970974969
 21
141.5083405866641
 31
0.0
  0
ARC
  5
8DD5
  8
AM_0
 10
23.752506970974991
 20
126.8958205866637
 30
0.0
 40
2.99777994
 50
84.213882999997935
 51
179.95210999999989
  0
LINE
  5
8DD6
  8
AM_0
 10
20.754696970974919
 20
123.89834058666371
 30
0.0
 11
20.754696970974919
 21
126.89834058666371
 31
0.0
  0
LINE
  5
8DD7
  8
AM_0
 10
24.05469697097487
 20
129.9983305866638
 30
0.0
 11
25.35468697097485
 21
129.9983305866638
 31
0.0
  0
LINE
  5
8DD8
  8
AM_0
 10
117.85467697097479
 20
132.85832058666381
 30
0.0
 11
219.85467697097479
 21
132.85832058666381
 31
0.0
  0
LINE
  5
8DD9
  8
AM_0
 10
86.534676970974957
 20
123.2283205866638
 30
0.0
 11
216.67467697097479
 21
123.2283205866638
 31
0.0
  0
LINE
  5
8DDA
  8
AM_0
 10
213.2047269709748
 20
122.5083205866637
 30
0.0
 11
87.404736970974895
 21
122.5083205866637
 31
0.0
  0
LINE
  5
8DDB
  8
AM_0
 10
95.854686970974839
 20
148.36835058666381
 30
0.0
 11
212.66466697097479
 21
148.36835058666381
 31
0.0
  0
LINE
  5
8DDC
  8
AM_0
 10
117.8547369709749
 20
132.85832058666381
 30
0.0
 11
82.854666970974904
 21
130.8283405866639
 31
0.0
  0
LINE
  5
8DDD
  8
AM_0
 10
77.184696970974983
 20
100.18832058666401
 30
0.0
 11
117.85467697097479
 21
100.18832058666401
 31
0.0
  0
LINE
  5
8DDE
  8
AM_0
 10
77.184696970974983
 20
102.84832458666379
 30
0.0
 11
117.85467697097479
 21
102.84832458666379
 31
0.0
  0
LINE
  5
8DDF
  8
AM_0
 10
86.314686970974876
 20
110.0683255866637
 30
0.0
 11
117.35467697097479
 21
110.0683255866637
 31
0.0
  0
LINE
  5
8DE0
  8
AM_0
 10
86.314686970974876
 20
112.9983505866639
 30
0.0
 11
117.35467697097479
 21
112.9983505866639
 31
0.0
  0
LINE
  5
8DE1
  8
AM_0
 10
86.534676970974957
 20
119.878355586664
 30
0.0
 11
117.85467697097479
 21
119.878355586664
 31
0.0
  0
LINE
  5
8DE2
  8
AM_0
 10
117.85467697097479
 20
100.5083275866638
 30
0.0
 11
78.414666970974849
 21
100.5083275866638
 31
0.0
  0
LINE
  5
8DE3
  8
AM_0
 10
117.85467697097479
 20
102.50832858666379
 30
0.0
 11
78.414666970974849
 21
102.50832858666379
 31
0.0
  0
LINE
  5
8DE4
  8
AM_0
 10
117.35467697097479
 20
110.50832958666371
 30
0.0
 11
87.404736970974895
 21
110.50832958666371
 31
0.0
  0
LINE
  5
8DE5
  8
AM_0
 10
117.35467697097479
 20
112.5083275866638
 30
0.0
 11
87.404736970974895
 21
112.5083275866638
 31
0.0
  0
LINE
  5
8DE6
  8
AM_0
 10
117.85467697097479
 20
120.50832858666379
 30
0.0
 11
87.404736970974895
 21
120.50832858666379
 31
0.0
  0
LINE
  5
8DE7
  8
AM_0
 10
95.854686970974839
 20
150.39833058666389
 30
0.0
 11
148.85472697097489
 21
150.39833058666389
 31
0.0
  0
LINE
  5
8DE8
  8
AM_0
 10
95.854686970974839
 20
151.7483305866636
 30
0.0
 11
148.85472697097489
 21
151.7483305866636
 31
0.0
  0
LINE
  5
8DE9
  8
AM_0
 10
95.854686970974839
 20
152.42834058666401
 30
0.0
 11
148.85472697097489
 21
152.42834058666401
 31
0.0
  0
ARC
  5
8DEA
  8
AM_0
 10
79.026366970975019
 20
142.78292058666409
 30
0.0
 40
1.9953880799999959
 50
90.048066999991249
 51
167.98461999999969
  0
LINE
  5
8DEB
  8
AM_0
 10
93.854676970974865
 20
148.3983205866638
 30
0.0
 11
93.854676970974865
 21
140.98835058666381
 31
0.0
  0
LINE
  5
8DEC
  8
AM_0
 10
77.044746970974984
 20
146.6383405866639
 30
0.0
 11
76.124706970975012
 21
142.7583205866639
 31
0.0
  0
LINE
  5
8DED
  8
AM_0
 10
79.084716970975023
 20
139.4883505866639
 30
0.0
 11
92.354676970974893
 21
139.4883505866639
 31
0.0
  0
LINE
  5
8DEE
  8
AM_0
 10
72.85467697097485
 20
134.85833058666381
 30
0.0
 11
82.854726970974994
 21
134.85833058666381
 31
0.0
  0
LINE
  5
8DEF
  8
AM_0
 10
72.85467697097485
 20
129.19832058666381
 30
0.0
 11
82.854726970974994
 21
129.19832058666381
 31
0.0
  0
LINE
  5
8DF0
  8
AM_0
 10
72.85467697097485
 20
120.8183275866637
 30
0.0
 11
82.854726970974994
 21
120.8183275866637
 31
0.0
  0
ARC
  5
8DF1
  8
AM_0
 10
77.184696970974983
 20
101.518337586664
 30
0.0
 40
1.33000008
 50
90.00000299999769
 51
270.0
  0
ARC
  5
8DF2
  8
AM_0
 10
78.405996970974897
 20
101.5083265866638
 30
0.0
 40
1.00003602
 50
89.500715999993631
 51
270.49928999999509
  0
LINE
  5
8DF3
  8
AM_0
 10
67.85472697097498
 20
94.508327586663881
 30
0.0
 11
67.85472697097498
 21
143.50832058666381
 31
0.0
  0
ARC
  5
8DF4
  8
AM_0
 10
74.663886970974986
 20
143.1111505866638
 30
0.0
 40
1.502808149999999
 50
270.03078999999502
 51
346.42218000000503
  0
ARC
  5
8DF5
  8
AM_0
 10
74.645946970974805
 20
139.05245058666381
 30
0.0
 40
1.504140059999999
 50
269.95424999999199
 51
347.55525000000432
  0
ARC
  5
8DF6
  8
AM_0
 10
79.076526970975024
 20
137.49494058666389
 30
0.0
 40
1.993432109999999
 50
89.765883999992695
 51
169.78803000000019
  0
LINE
  5
8DF7
  8
AM_0
 10
74.664666970974849
 20
141.60833058666381
 30
0.0
 11
76.724736970974845
 21
141.60833058666381
 31
0.0
  0
LINE
  5
8DF8
  8
AM_0
 10
77.074656970974942
 20
143.19833058666379
 30
0.0
 11
76.114626970974996
 21
138.72833058666379
 31
0.0
  0
LINE
  5
8DF9
  8
AM_0
 10
74.644656970974907
 20
137.54834058666381
 30
0.0
 11
77.06469697097485
 21
137.54834058666381
 31
0.0
  0
LINE
  5
8DFA
  8
AM_0
 10
76.574646970974996
 20
134.85833058666381
 30
0.0
 11
77.11467697097487
 21
137.8483705866638
 31
0.0
  0
ARC
  5
8DFB
  8
AM_0
 10
87.404736970974895
 20
121.5083305866638
 30
0.0
 40
1.000004069999999
 50
90.00000299999769
 51
270.0
  0
ARC
  5
8DFC
  8
AM_0
 10
86.534676970974957
 20
121.55330058666389
 30
0.0
 40
1.67500812
 50
90.00000299999769
 51
270.0
  0
ARC
  5
8DFD
  8
AM_0
 10
94.854726970974966
 20
121.5083305866638
 30
0.0
 40
1.000004069999999
 50
90.00000299999769
 51
270.0
  0
LINE
  5
8DFE
  8
AM_0
 10
82.854726970974994
 20
134.85833058666381
 30
0.0
 11
82.854726970974994
 21
120.8183275866637
 31
0.0
  0
ARC
  5
8DFF
  8
AM_0
 10
87.404736970974895
 20
111.50832858666369
 30
0.0
 40
1.000004069999999
 50
90.00000299999769
 51
270.0
  0
ARC
  5
8E00
  8
AM_0
 10
86.314686970974876
 20
111.5333215866637
 30
0.0
 40
1.46500008
 50
90.00000299999769
 51
270.0
  0
ARC
  5
8E01
  8
AM_0
 10
94.854726970974966
 20
111.50832858666369
 30
0.0
 40
1.000004069999999
 50
90.00000299999769
 51
270.0
  0
ARC
  5
8E02
  8
AM_0
 10
94.854726970974966
 20
101.5083265866638
 30
0.0
 40
1.000004069999999
 50
90.00000299999769
 51
270.0
  0
ARC
  5
8E03
  8
AM_0
 10
86.004636970974843
 20
127.7184805866638
 30
0.0
 40
1.004135999999999
 50
354.8488400000025
 51
45.797436000001838
  0
ARC
  5
8E04
  8
AM_0
 10
82.475886970974869
 20
124.1763805866637
 30
0.0
 40
6.0039084000000011
 50
45.223692999997049
 51
86.382714000002196
  0
ARC
  5
8E05
  8
AM_0
 10
82.019646970974904
 20
128.10611058666379
 30
0.0
 40
5.0078918999999971
 50
279.5987199999941
 51
354.52532000000048
  0
ARC
  5
8E06
  8
AM_0
 10
92.349066970974945
 20
140.99399058666381
 30
0.0
 40
1.5056760899999959
 50
270.2155199999923
 51
359.78447000000108
  0
LINE
  5
8E07
  8
AM_0
 10
78.964656970974801
 20
149.80832058666391
 30
0.0
 11
92.464656970974787
 21
149.80832058666391
 31
0.0
  0
LINE
  5
8E08
  8
AM_0
 10
78.994686970974939
 20
148.17830058666371
 30
0.0
 11
92.354676970974893
 21
148.17830058666371
 31
0.0
  0
LINE
  5
8E09
  8
AM_0
 10
79.02471697097485
 20
144.77831058666391
 30
0.0
 11
92.354676970974893
 21
144.77831058666391
 31
0.0
  0
LINE
  5
8E0A
  8
AM_0
 10
72.85467697097485
 20
143.93831058666379
 30
0.0
 11
75.674676970974801
 21
144.00830058666381
 31
0.0
  0
ARC
  5
8E0B
  8
AM_0
 10
78.962046970974811
 20
147.81053058666379
 30
0.0
 40
1.9977801299999991
 50
89.923080999997794
 51
165.86776999999691
  0
ARC
  5
8E0C
  8
AM_0
 10
74.682996970974941
 20
145.1354305866638
 30
0.0
 40
1.5070961099999991
 50
270.0648200000017
 51
345.90218000000368
  0
ARC
  5
8E0D
  8
AM_0
 10
78.987546970975004
 20
146.18285058666359
 30
0.0
 40
1.995484169999999
 50
89.79345799999912
 51
166.8059200000024
  0
LINE
  5
8E0E
  8
AM_0
 10
77.024706970974862
 20
148.29833058666401
 30
0.0
 11
76.144716970974983
 21
144.76835058666379
 31
0.0
  0
LINE
  5
8E0F
  8
AM_0
 10
74.684706970974943
 20
143.6283205866637
 30
0.0
 11
76.334706970974807
 21
143.6283205866637
 31
0.0
  0
ARC
  5
8E10
  8
AM_0
 10
92.468316970974925
 20
151.3152205866638
 30
0.0
 40
1.506888089999999
 50
269.86222999999939
 51
345.12307000000237
  0
ARC
  5
8E11
  8
AM_0
 10
92.350836970975024
 20
149.682170586664
 30
0.0
 40
1.5038481299999991
 50
270.14640000000293
 51
359.85359999999702
  0
ARC
  5
8E12
  8
AM_0
 10
92.352906970974999
 20
146.28014058666409
 30
0.0
 40
1.501796039999995
 50
270.06854999999888
 51
359.93145000000101
  0
ARC
  5
8E13
  8
AM_0
 10
95.857176970974905
 20
150.43349058666411
 30
0.0
 40
1.99484415
 50
90.071657999991345
 51
165.63719999999981
  0
ARC
  5
8E14
  8
AM_0
 10
95.84925697097492
 20
149.75375058666401
 30
0.0
 40
1.99457616
 50
89.844008000000017
 51
180.15598999999611
  0
ARC
  5
8E15
  8
AM_0
 10
95.851926970975001
 20
148.4011105866638
 30
0.0
 40
1.9972080599999991
 50
89.919857000000462
 51
180.08013999999881
  0
ARC
  5
8E16
  8
AM_0
 10
95.851086970974848
 20
146.37194058666381
 30
0.0
 40
1.996384079999995
 50
89.896162999993464
 51
180.10383999999601
  0
ARC
  5
8E17
  8
AM_0
 10
148.8540669709748
 20
150.4277005866638
 30
0.0
 40
2.0006240100000001
 50
0.0178240009987547
 51
89.98217599999785
  0
ARC
  5
8E18
  8
AM_0
 10
148.8576069709749
 20
149.75126058666379
 30
0.0
 40
1.997088119999999
 50
359.91637999999853
 51
90.083625000000751
  0
ARC
  5
8E19
  8
AM_0
 10
148.8549969709749
 20
148.39862058666381
 30
0.0
 40
1.999720049999999
 50
359.99193999999602
 51
90.008061999993785
  0
LINE
  5
8E1A
  8
AM_0
 10
150.85467697097479
 20
150.4283005866636
 30
0.0
 11
150.85467697097479
 21
148.36835058666381
 31
0.0
  0
LINE
  5
8E1B
  8
AM_0
 10
214.59465697097491
 20
146.88836058666391
 30
0.0
 11
218.0546769709749
 21
133.96838058666381
 31
0.0
  0
LINE
  5
8E1C
  8
AM_0
 10
216.664686970975
 20
145.4283505866639
 30
0.0
 11
218.1046869709748
 21
138.72833058666379
 31
0.0
  0
ARC
  5
8E1D
  8
AM_0
 10
216.67467697097479
 20
121.55330058666389
 30
0.0
 40
1.6749999899999961
 50
270.0
 51
90.00000299999769
  0
LINE
  5
8E1E
  8
AM_0
 10
216.67467697097479
 20
119.878355586664
 30
0.0
 11
206.85467697097479
 21
119.878355586664
 31
0.0
  0
ARC
  5
8E1F
  8
AM_0
 10
213.19653697097479
 20
121.5083305866638
 30
0.0
 40
1.0000319699999971
 50
270.46929999999782
 51
89.530700000002156
  0
LINE
  5
8E20
  8
AM_0
 10
206.85467697097479
 20
120.40835358666369
 30
0.0
 11
213.2047269709748
 21
120.40835358666369
 31
0.0
  0
LINE
  5
8E21
  8
AM_0
 10
206.85467697097479
 20
116.5870531732327
 30
0.0
 11
209.6247069709749
 21
116.50832958666381
 31
0.0
  0
ARC
  5
8E22
  8
AM_0
 10
219.50493697097491
 20
134.3607205866638
 30
0.0
 40
1.50239199
 50
195.14000999999971
 51
269.99063999999328
  0
ARC
  5
8E23
  8
AM_0
 10
220.84905697097491
 20
137.5539505866638
 30
0.0
 40
0.99440004
 50
89.676491000006521
 51
180.32350999999781
  0
ARC
  5
8E24
  8
AM_0
 10
219.5605569709748
 20
139.0487905866639
 30
0.0
 40
1.500476039999995
 50
192.3322299999987
 51
270.15827999999971
  0
LINE
  5
8E25
  8
AM_0
 10
219.56469697097481
 20
137.54834058666381
 30
0.0
 11
217.1547369709748
 21
137.54834058666381
 31
0.0
  0
ARC
  5
8E26
  8
AM_0
 10
214.70916697097479
 20
145.00814058666381
 30
0.0
 40
2.0001800699999981
 50
12.126352000003591
 51
90.127514999991448
  0
LINE
  5
8E27
  8
AM_0
 10
214.5646869709748
 20
147.00833058666379
 30
0.0
 11
219.85467697097479
 21
147.00833058666379
 31
0.0
  0
ARC
  5
8E28
  8
AM_0
 10
212.6651769709749
 20
146.37053058666359
 30
0.0
 40
1.997795999999999
 50
15.021597000002179
 51
90.013580999990594
  0
ARC
  5
8E29
  8
AM_0
 10
220.8498069709749
 20
149.01326058666379
 30
0.0
 40
0.9950640599999999
 50
89.714938000006967
 51
180.285059999998
  0
LINE
  5
8E30
  8
AM_0
 10
202.35467697097479
 20
109.0083265866637
 30
0.0
 11
202.35467697097479
 21
64.00832658666377
 31
0.0
  0
LINE
  5
8E31
  8
AM_0
 10
200.25467697097491
 20
109.5585791183577
 30
0.0
 11
200.25467697097491
 21
63.458074054970332
 31
0.0
  0
LINE
  5
8E32
  8
AM_0
 10
117.35467697097479
 20
68.50832658666377
 30
0.0
 11
117.35467697097479
 21
58.508316586663902
 31
0.0
  0
LINE
  5
8E33
  8
AM_0
 10
117.85467697097479
 20
54.008320586664126
 30
0.0
 11
117.85467697097479
 21
119.0083165866636
 31
0.0
  0
LINE
  5
8E34
  8
AM_0
 10
189.40492150266971
 20
52.60831858666382
 30
0.0
 11
122.274656970975
 21
52.60831858666382
 31
0.0
  0
LINE
  5
8E35
  8
AM_0
 10
122.274656970975
 20
52.60831858666382
 30
0.0
 11
122.274656970975
 21
50.508327586663647
 31
0.0
  0
ARC
  5
8E36
  8
AM_0
 10
121.3472969709748
 20
54.00097358666379
 30
0.0
 40
3.492651899999998
 50
179.8793300000022
 51
270.12067999999482
  0
ARC
  5
8E37
  8
AM_0
 10
117.8473569709749
 20
58.500976586664031
 30
0.0
 40
0.4927000100000001
 50
179.14455999999711
 51
270.85544000000272
  0
ARC
  5
8E38
  8
AM_0
 10
204.35467697097371
 20
64.00832658666377
 30
0.0
 40
2.0
 50
180.0
 51
270.0
  0
LINE
  5
8E39
  8
AM_0
 10
199.84462646463589
 20
62.468124561307931
 30
0.0
 11
190.3948709963299
 21
53.018369093002647
 31
0.0
  0
LINE
  5
8E3A
  8
AM_0
 10
190.39487899632991
 20
53.0183770930023
 30
0.0
 11
199.8446264646368
 21
62.4681245613084
 31
0.0
  0
ARC
  5
8E3B
  8
AM_0
 10
189.40492150266971
 20
54.00831858666389
 30
0.0
 40
1.399999999999999
 50
270.0
 51
315.00000000000921
1001
GENIUS_GENODEF_13
1002
{
1000
HIER
1070
     0
1002
}
1002
{
1000
MANEDIT
1070
     0
1002
}
1002
{
1000
NOSEL
1070
     0
1002
}
1002
{
1000
BEHIND
1070
     0
1002
}
1002
{
1000
OTHER
1070
     0
1002
}
1002
{
1000
REACTOR
1002
}
1001
GENIUS_GENOBJ-N-FIL_13
1002
{
1000
OWNER
1000
GEN
1002
}
  0
ARC
  5
8E3C
  8
AM_0
 10
198.85467697097479
 20
63.458074054970332
 30
0.0
 40
1.4000000000006301
 50
314.99999999997232
 51
0.0
  0
ARC
  5
8E3D
  8
AM_0
 10
204.85467697097479
 20
52.50832658666377
 30
0.0
 40
2.0
 50
270.0
 51
0.0
  0
ARC
  5
8E3E
  8
AM_0
 10
204.85467697097479
 20
60.00832658666377
 30
0.0
 40
2.0
 50
0.0
 51
90.0
  0
LINE
  5
8E3F
  8
AM_0
 10
204.85467697097479
 20
62.00832658666377
 30
0.0
 11
204.35467697097371
 21
62.00832658666377
 31
0.0
  0
LINE
  5
8E40
  8
AM_0
 10
206.85467697097479
 20
52.50832658666377
 30
0.0
 11
206.85467697097479
 21
60.00832658666377
 31
0.0
  0
LINE
  5
8E41
  8
AM_0
 10
122.274656970975
 20
120.4083065866637
 30
0.0
 11
189.4124127908498
 21
120.4083065866637
 31
0.0
  0
ARC
  5
8E42
  8
AM_0
 10
117.8552269709748
 20
68.507776586663681
 30
0.0
 40
0.5005480100000002
 50
90.062622000000005
 51
179.93736999999041
  0
ARC
  5
8E43
  8
AM_0
 10
117.8552269709748
 20
114.5077765866636
 30
0.0
 40
0.5005480100000002
 50
90.062622000000005
 51
179.93736999999041
  0
ARC
  5
8E44
  8
AM_0
 10
117.8471669709749
 20
104.5008165866637
 30
0.0
 40
0.49254802
 50
179.1265600000018
 51
270.87345000000158
  0
LINE
  5
8E45
  8
AM_0
 10
117.35467697097479
 20
114.5083165866636
 30
0.0
 11
117.35467697097479
 21
104.5083265866637
 31
0.0
  0
LINE
  5
8E46
  8
AM_0
 10
122.274656970975
 20
120.4083065866637
 30
0.0
 11
122.274656970975
 21
122.5033065866638
 31
0.0
  0
ARC
  5
8E47
  8
AM_0
 10
121.35516697097501
 20
119.0078265866637
 30
0.0
 40
3.5005001999999981
 50
90.008164999989489
 51
179.99183999999781
  0
LINE
  5
8E48
  8
AM_0
 10
204.35467697097371
 20
92.008326586663756
 30
0.0
 11
202.35467697097479
 21
92.008326586663756
 31
0.0
  0
LINE
  5
8E49
  8
AM_0
 10
202.35467697097479
 20
81.008326586663756
 30
0.0
 11
204.35467697097371
 21
81.008326586663756
 31
0.0
  0
LINE
  5
8E4A
  8
AM_0
 10
204.3546769709757
 20
81.008326586663756
 30
0.0
 11
204.35467697097371
 21
92.008326586663756
 31
0.0
  0
ARC
  5
8E4B
  8
AM_0
 10
204.35467697097371
 20
109.0083265866637
 30
0.0
 40
2.0
 50
90.0
 51
180.0
  0
CIRCLE
  5
8E4C
  8
AM_0
 10
201.35467697097479
 20
117.5083265866635
 30
0.0
 40
3.4999999999999631
  0
LINE
  5
8E4D
  8
AM_0
 10
190.39487899632991
 20
119.9982760803247
 30
0.0
 11
199.84462646463589
 21
110.54852861201989
 31
0.0
  0
LINE
  5
8E4E
  8
AM_0
 10
198.25467697097491
 20
112.13847810567999
 30
0.0
 11
199.84462646463589
 21
110.54852861201969
 31
0.0
  0
ARC
  5
8E4F
  8
AM_0
 10
198.85467697097479
 20
109.5585791183577
 30
0.0
 40
1.400000000000118
 50
0.0
 51
45.000000000027619
  0
ARC
  5
8E50
  8
AM_0
 10
189.40492950266861
 20
119.0083265866637
 30
0.0
 40
1.40000000000077
 50
44.999999999972353
 51
89.999999999947889
  0
LINE
  5
8E51
  8
AM_0
 10
206.85467697097479
 20
113.0083265866637
 30
0.0
 11
206.85467697097479
 21
120.5083265866637
 31
0.0
  0
LINE
  5
8E52
  8
AM_0
 10
206.85467697097479
 20
113.0083265866637
 30
0.0
 11
206.85467697097479
 21
120.5083265866637
 31
0.0
  0
ARC
  5
8E53
  8
AM_0
 10
204.85467697097479
 20
113.0083265866637
 30
0.0
 40
2.0
 50
270.0
 51
0.0
  0
LINE
  5
8E54
  8
AM_0
 10
204.35467697097371
 20
111.0083265866637
 30
0.0
 11
204.85467697097479
 21
111.0083265866637
 31
0.0
  0
ARC
  5
8E55
  8
AM_0
 10
204.85467697097479
 20
120.5083265866637
 30
0.0
 40
2.0
 50
0.0
 51
90.0
  0
LINE
  5
8E56
  8
AM_0
 10
198.71610528976771
 20
117.50832658666469
 30
0.0
 11
203.9932486521806
 21
117.50832658666469
 31
0.0
  0
LINE
  5
8E57
  8
AM_0
 10
201.35467697097479
 20
120.1468982678702
 30
0.0
 11
201.35467697097479
 21
114.8697549054569
 31
0.0
  0
CIRCLE
  5
8E58
  8
AM_0
 10
201.35467697097479
 20
55.50832658666377
 30
0.0
 40
3.4999999999999631
  0
LINE
  5
8E59
  8
AM_0
 10
198.71610528976771
 20
55.5083265866649
 30
0.0
 11
203.9932486521806
 21
55.508326586664793
 31
0.0
  0
LINE
  5
8E5A
  8
AM_0
 10
201.35467697097479
 20
58.14689826787049
 30
0.0
 11
201.35467697097479
 21
52.869754905456929
 31
0.0
  0
LINE
  5
8E5C
  8
AM_0
 10
25.35468697097485
 20
62.534154940739427
 30
0.0
 11
25.35468697097485
 21
143.50832058666381
 31
0.0
  0
LINE
  5
8E8F
  8
AM_0
 10
471.0400615307467
 20
81.008326586663756
 30
0.0
 11
456.75684797097472
 21
81.008326586663756
 31
0.0
  0
LINE
  5
8E90
  8
AM_0
 10
456.75684797097472
 20
92.008326586663756
 30
0.0
 11
471.0400615307467
 21
92.008326586663756
 31
0.0
  0
LINE
  5
8E91
  8
AM_0
 10
476.75684797097568
 20
122.50832658666221
 30
0.0
 11
444.25684797097472
 21
122.50832658666221
 31
0.0
  0
LINE
  5
8E92
  8
AM_0
 10
444.25684797097472
 20
50.508326586662058
 30
0.0
 11
476.75684797097568
 21
50.508326586662058
 31
0.0
  0
LINE
  5
8E93
  8
AM_0
 10
456.75684797097472
 20
50.508326586662058
 30
0.0
 11
456.75684797097472
 21
122.50832658666221
 31
0.0
  0
LINE
  5
8E94
  8
AM_0
 10
456.75684797097472
 20
111.5883265866638
 30
0.0
 11
455.2918479709748
 21
120.408326586664
 31
0.0
  0
ARC
  5
8E95
  8
AM_0
 10
446.25684797097477
 20
117.9083265866643
 30
0.0
 40
2.5
 50
90.0
 51
180.0
  0
ARC
  5
8E96
  8
AM_0
 10
444.25684797097472
 20
122.0083265866637
 30
0.0
 40
0.5
 50
90.0
 51
180.0
  0
LINE
  5
8E97
  8
AM_0
 10
455.2918479709748
 20
120.408326586664
 30
0.0
 11
446.25684797097477
 21
120.408326586664
 31
0.0
  0
POLYLINE
  5
8E98
  8
AM_0
 66
     1
 10
0.0
 20
0.0
 30
0.0
 70
     8
  0
VERTEX
  5
8E99
  8
AM_0
 10
446.25680090590112
 20
110.13874138970679
 30
0.0
 70
    32
  0
VERTEX
  5
8E9A
  8
AM_0
 10
446.25280090590098
 20
110.13874138970679
 30
0.0
 70
    32
  0
VERTEX
  5
8E9B
  8
AM_0
 10
446.24880090590091
 20
110.13874138970679
 30
0.0
 70
    32
  0
VERTEX
  5
8E9C
  8
AM_0
 10
446.24380090590103
 20
110.13874138970679
 30
0.0
 70
    32
  0
VERTEX
  5
8E9D
  8
AM_0
 10
446.23980090590112
 20
110.13874138970679
 30
0.0
 70
    32
  0
VERTEX
  5
8E9E
  8
AM_0
 10
446.23580090590082
 20
110.13874138970679
 30
0.0
 70
    32
  0
VERTEX
  5
8E9F
  8
AM_0
 10
446.23080090590111
 20
110.13874138970679
 30
0.0
 70
    32
  0
VERTEX
  5
8EA0
  8
AM_0
 10
446.2268009059008
 20
110.1377413897066
 30
0.0
 70
    32
  0
VERTEX
  5
8EA1
  8
AM_0
 10
446.22280090590101
 20
110.1377413897066
 30
0.0
 70
    32
  0
VERTEX
  5
8EA2
  8
AM_0
 10
446.21880090590111
 20
110.1377413897066
 30
0.0
 70
    32
  0
VERTEX
  5
8EA3
  8
AM_0
 10
446.213800905901
 20
110.1377413897066
 30
0.0
 70
    32
  0
VERTEX
  5
8EA4
  8
AM_0
 10
446.20980090590098
 20
110.1377413897066
 30
0.0
 70
    32
  0
VERTEX
  5
8EA5
  8
AM_0
 10
446.2058009059009
 20
110.1377413897066
 30
0.0
 70
    32
  0
VERTEX
  5
8EA6
  8
AM_0
 10
446.201800905901
 20
110.1377413897066
 30
0.0
 70
    32
  0
VERTEX
  5
8EA7
  8
AM_0
 10
446.19680090590111
 20
110.1377413897066
 30
0.0
 70
    32
  0
VERTEX
  5
8EA8
  8
AM_0
 10
446.19280090590092
 20
110.1377413897066
 30
0.0
 70
    32
  0
VERTEX
  5
8EA9
  8
AM_0
 10
446.18880090590079
 20
110.1377413897066
 30
0.0
 70
    32
  0
VERTEX
  5
8EAA
  8
AM_0
 10
446.18380090590091
 20
110.1377413897066
 30
0.0
 70
    32
  0
VERTEX
  5
8EAB
  8
AM_0
 10
446.17980090590117
 20
110.1377413897066
 30
0.0
 70
    32
  0
VERTEX
  5
8EAC
  8
AM_0
 10
446.17580090590093
 20
110.1377413897066
 30
0.0
 70
    32
  0
VERTEX
  5
8EAD
  8
AM_0
 10
446.17180090590102
 20
110.1377413897066
 30
0.0
 70
    32
  0
VERTEX
  5
8EAE
  8
AM_0
 10
446.16680090590091
 20
110.1377413897066
 30
0.0
 70
    32
  0
VERTEX
  5
8EAF
  8
AM_0
 10
446.16280090590112
 20
110.1377413897066
 30
0.0
 70
    32
  0
VERTEX
  5
8EB0
  8
AM_0
 10
446.15880090590088
 20
110.1377413897066
 30
0.0
 70
    32
  0
VERTEX
  5
8EB1
  8
AM_0
 10
446.15480090590103
 20
110.1377413897066
 30
0.0
 70
    32
  0
VERTEX
  5
8EB2
  8
AM_0
 10
446.14980090590097
 20
110.1367413897069
 30
0.0
 70
    32
  0
VERTEX
  5
8EB3
  8
AM_0
 10
446.1458009059009
 20
110.1367413897069
 30
0.0
 70
    32
  0
VERTEX
  5
8EB4
  8
AM_0
 10
446.14180090590111
 20
110.1367413897069
 30
0.0
 70
    32
  0
VERTEX
  5
8EB5
  8
AM_0
 10
446.13780090590097
 20
110.1367413897069
 30
0.0
 70
    32
  0
VERTEX
  5
8EB6
  8
AM_0
 10
446.13280090590098
 20
110.1367413897069
 30
0.0
 70
    32
  0
VERTEX
  5
8EB7
  8
AM_0
 10
446.12880090590102
 20
110.1367413897069
 30
0.0
 70
    32
  0
VERTEX
  5
8EB8
  8
AM_0
 10
446.12480090590111
 20
110.1367413897069
 30
0.0
 70
    32
  0
VERTEX
  5
8EB9
  8
AM_0
 10
446.11980090590089
 20
110.1367413897069
 30
0.0
 70
    32
  0
VERTEX
  5
8EBA
  8
AM_0
 10
446.1158009059011
 20
110.1367413897069
 30
0.0
 70
    32
  0
VERTEX
  5
8EBB
  8
AM_0
 10
446.11180090590091
 20
110.1367413897069
 30
0.0
 70
    32
  0
VERTEX
  5
8EBC
  8
AM_0
 10
446.107800905901
 20
110.13574138970669
 30
0.0
 70
    32
  0
VERTEX
  5
8EBD
  8
AM_0
 10
446.10280090590112
 20
110.13574138970669
 30
0.0
 70
    32
  0
VERTEX
  5
8EBE
  8
AM_0
 10
446.09880090590087
 20
110.13574138970669
 30
0.0
 70
    32
  0
VERTEX
  5
8EBF
  8
AM_0
 10
446.09480090590102
 20
110.13574138970669
 30
0.0
 70
    32
  0
VERTEX
  5
8EC0
  8
AM_0
 10
446.09080090590089
 20
110.13574138970669
 30
0.0
 70
    32
  0
VERTEX
  5
8EC1
  8
AM_0
 10
446.08580090590112
 20
110.13574138970669
 30
0.0
 70
    32
  0
VERTEX
  5
8EC2
  8
AM_0
 10
446.08180090590088
 20
110.13574138970669
 30
0.0
 70
    32
  0
VERTEX
  5
8EC3
  8
AM_0
 10
446.07780090590092
 20
110.1347413897067
 30
0.0
 70
    32
  0
VERTEX
  5
8EC4
  8
AM_0
 10
446.07380090590078
 20
110.1347413897067
 30
0.0
 70
    32
  0
VERTEX
  5
8EC5
  8
AM_0
 10
446.0688009059009
 20
110.1347413897067
 30
0.0
 70
    32
  0
VERTEX
  5
8EC6
  8
AM_0
 10
446.06480090590122
 20
110.1347413897067
 30
0.0
 70
    32
  0
VERTEX
  5
8EC7
  8
AM_0
 10
446.06080090590098
 20
110.1347413897067
 30
0.0
 70
    32
  0
VERTEX
  5
8EC8
  8
AM_0
 10
446.05580090590121
 20
110.1347413897067
 30
0.0
 70
    32
  0
VERTEX
  5
8EC9
  8
AM_0
 10
446.0518009059009
 20
110.1347413897067
 30
0.0
 70
    32
  0
VERTEX
  5
8ECA
  8
AM_0
 10
446.04780090590111
 20
110.1337413897067
 30
0.0
 70
    32
  0
VERTEX
  5
8ECB
  8
AM_0
 10
446.04380090590161
 20
110.1337413897067
 30
0.0
 70
    32
  0
VERTEX
  5
8ECC
  8
AM_0
 10
446.0388009059011
 20
110.1337413897067
 30
0.0
 70
    32
  0
VERTEX
  5
8ECD
  8
AM_0
 10
446.03480090590102
 20
110.1337413897067
 30
0.0
 70
    32
  0
VERTEX
  5
8ECE
  8
AM_0
 10
446.03080090590089
 20
110.1337413897067
 30
0.0
 70
    32
  0
VERTEX
  5
8ECF
  8
AM_0
 10
446.0268009059011
 20
110.13274138970669
 30
0.0
 70
    32
  0
VERTEX
  5
8ED0
  8
AM_0
 10
446.02180090590088
 20
110.13274138970669
 30
0.0
 70
    32
  0
VERTEX
  5
8ED1
  8
AM_0
 10
446.01780090590103
 20
110.13274138970669
 30
0.0
 70
    32
  0
VERTEX
  5
8ED2
  8
AM_0
 10
446.01380090590089
 20
110.13274138970669
 30
0.0
 70
    32
  0
VERTEX
  5
8ED3
  8
AM_0
 10
446.00980090590082
 20
110.13274138970669
 30
0.0
 70
    32
  0
VERTEX
  5
8ED4
  8
AM_0
 10
446.00480090590088
 20
110.13274138970669
 30
0.0
 70
    32
  0
VERTEX
  5
8ED5
  8
AM_0
 10
446.00080090590092
 20
110.131741389707
 30
0.0
 70
    32
  0
VERTEX
  5
8ED6
  8
AM_0
 10
445.9968009059009
 20
110.131741389707
 30
0.0
 70
    32
  0
VERTEX
  5
8ED7
  8
AM_0
 10
445.99280090590088
 20
110.131741389707
 30
0.0
 70
    32
  0
VERTEX
  5
8ED8
  8
AM_0
 10
445.98780090590111
 20
110.131741389707
 30
0.0
 70
    32
  0
VERTEX
  5
8ED9
  8
AM_0
 10
445.98380090590092
 20
110.1307413897067
 30
0.0
 70
    32
  0
VERTEX
  5
8EDA
  8
AM_0
 10
445.97980090590102
 20
110.1307413897067
 30
0.0
 70
    32
  0
VERTEX
  5
8EDB
  8
AM_0
 10
445.97480090590091
 20
110.1307413897067
 30
0.0
 70
    32
  0
VERTEX
  5
8EDC
  8
AM_0
 10
445.97080090590111
 20
110.1307413897067
 30
0.0
 70
    32
  0
VERTEX
  5
8EDD
  8
AM_0
 10
445.96680090590098
 20
110.1307413897067
 30
0.0
 70
    32
  0
VERTEX
  5
8EDE
  8
AM_0
 10
445.96280090590091
 20
110.12974138970669
 30
0.0
 70
    32
  0
VERTEX
  5
8EDF
  8
AM_0
 10
445.95780090590102
 20
110.12974138970669
 30
0.0
 70
    32
  0
VERTEX
  5
8EE0
  8
AM_0
 10
445.95380090590089
 20
110.12974138970669
 30
0.0
 70
    32
  0
VERTEX
  5
8EE1
  8
AM_0
 10
445.9498009059011
 20
110.12974138970669
 30
0.0
 70
    32
  0
VERTEX
  5
8EE2
  8
AM_0
 10
445.94580090590102
 20
110.1287413897068
 30
0.0
 70
    32
  0
VERTEX
  5
8EE3
  8
AM_0
 10
445.94080090590103
 20
110.1287413897068
 30
0.0
 70
    32
  0
VERTEX
  5
8EE4
  8
AM_0
 10
445.9368009059009
 20
110.1287413897068
 30
0.0
 70
    32
  0
VERTEX
  5
8EE5
  8
AM_0
 10
445.9328009059011
 20
110.1277413897068
 30
0.0
 70
    32
  0
VERTEX
  5
8EE6
  8
AM_0
 10
445.9288009059008
 20
110.1277413897068
 30
0.0
 70
    32
  0
VERTEX
  5
8EE7
  8
AM_0
 10
445.92380090590098
 20
110.1277413897068
 30
0.0
 70
    32
  0
VERTEX
  5
8EE8
  8
AM_0
 10
445.9198009059009
 20
110.1277413897068
 30
0.0
 70
    32
  0
VERTEX
  5
8EE9
  8
AM_0
 10
445.91580090590088
 20
110.12674138970679
 30
0.0
 70
    32
  0
VERTEX
  5
8EEA
  8
AM_0
 10
445.91180090590098
 20
110.12674138970679
 30
0.0
 70
    32
  0
VERTEX
  5
8EEB
  8
AM_0
 10
445.90680090590092
 20
110.12674138970679
 30
0.0
 70
    32
  0
VERTEX
  5
8EEC
  8
AM_0
 10
445.90280090590102
 20
110.12674138970679
 30
0.0
 70
    32
  0
VERTEX
  5
8EED
  8
AM_0
 10
445.89880090590111
 20
110.1257413897067
 30
0.0
 70
    32
  0
VERTEX
  5
8EEE
  8
AM_0
 10
445.89480090590092
 20
110.1257413897067
 30
0.0
 70
    32
  0
VERTEX
  5
8EEF
  8
AM_0
 10
445.88980090590093
 20
110.1257413897067
 30
0.0
 70
    32
  0
VERTEX
  5
8EF0
  8
AM_0
 10
445.88580090590091
 20
110.1247413897067
 30
0.0
 70
    32
  0
VERTEX
  5
8EF1
  8
AM_0
 10
445.88180090590117
 20
110.1247413897067
 30
0.0
 70
    32
  0
VERTEX
  5
8EF2
  8
AM_0
 10
445.87680090590089
 20
110.1247413897067
 30
0.0
 70
    32
  0
VERTEX
  5
8EF3
  8
AM_0
 10
445.87280090590122
 20
110.12374138970669
 30
0.0
 70
    32
  0
VERTEX
  5
8EF4
  8
AM_0
 10
445.86880090590091
 20
110.12374138970669
 30
0.0
 70
    32
  0
VERTEX
  5
8EF5
  8
AM_0
 10
445.86480090590112
 20
110.12374138970669
 30
0.0
 70
    32
  0
VERTEX
  5
8EF6
  8
AM_0
 10
445.85980090590078
 20
110.1227413897069
 30
0.0
 70
    32
  0
VERTEX
  5
8EF7
  8
AM_0
 10
445.85580090590111
 20
110.1227413897069
 30
0.0
 70
    32
  0
VERTEX
  5
8EF8
  8
AM_0
 10
445.85180090590097
 20
110.1227413897069
 30
0.0
 70
    32
  0
VERTEX
  5
8EF9
  8
AM_0
 10
445.8478009059009
 20
110.1217413897066
 30
0.0
 70
    32
  0
VERTEX
  5
8EFA
  8
AM_0
 10
445.84280090590102
 20
110.1217413897066
 30
0.0
 70
    32
  0
VERTEX
  5
8EFB
  8
AM_0
 10
445.838800905901
 20
110.1217413897066
 30
0.0
 70
    32
  0
VERTEX
  5
8EFC
  8
AM_0
 10
445.83480090590098
 20
110.12074138970669
 30
0.0
 70
    32
  0
VERTEX
  5
8EFD
  8
AM_0
 10
445.8308009059009
 20
110.12074138970669
 30
0.0
 70
    32
  0
VERTEX
  5
8EFE
  8
AM_0
 10
445.82580090590102
 20
110.12074138970669
 30
0.0
 70
    32
  0
VERTEX
  5
8EFF
  8
AM_0
 10
445.821800905901
 20
110.1197413897068
 30
0.0
 70
    32
  0
VERTEX
  5
8F00
  8
AM_0
 10
445.81780090590092
 20
110.1197413897068
 30
0.0
 70
    32
  0
VERTEX
  5
8F01
  8
AM_0
 10
445.81380090590091
 20
110.1187413897068
 30
0.0
 70
    32
  0
VERTEX
  5
8F02
  8
AM_0
 10
445.80880090590091
 20
110.1187413897068
 30
0.0
 70
    32
  0
VERTEX
  5
8F03
  8
AM_0
 10
445.80480090590112
 20
110.1187413897068
 30
0.0
 70
    32
  0
VERTEX
  5
8F04
  8
AM_0
 10
445.80080090590093
 20
110.11774138970679
 30
0.0
 70
    32
  0
VERTEX
  5
8F05
  8
AM_0
 10
445.79680090590102
 20
110.11774138970679
 30
0.0
 70
    32
  0
VERTEX
  5
8F06
  8
AM_0
 10
445.79180090590091
 20
110.1167413897067
 30
0.0
 70
    32
  0
VERTEX
  5
8F07
  8
AM_0
 10
445.78780090590112
 20
110.1167413897067
 30
0.0
 70
    32
  0
VERTEX
  5
8F08
  8
AM_0
 10
445.78380090590088
 20
110.1167413897067
 30
0.0
 70
    32
  0
VERTEX
  5
8F09
  8
AM_0
 10
445.77980090590091
 20
110.1157413897067
 30
0.0
 70
    32
  0
VERTEX
  5
8F0A
  8
AM_0
 10
445.77480090590097
 20
110.1157413897067
 30
0.0
 70
    32
  0
VERTEX
  5
8F0B
  8
AM_0
 10
445.7708009059009
 20
110.11474138970669
 30
0.0
 70
    32
  0
VERTEX
  5
8F0C
  8
AM_0
 10
445.76680090590122
 20
110.11474138970669
 30
0.0
 70
    32
  0
VERTEX
  5
8F0D
  8
AM_0
 10
445.76280090590097
 20
110.1137413897068
 30
0.0
 70
    32
  0
VERTEX
  5
8F0E
  8
AM_0
 10
445.75780090590121
 20
110.1137413897068
 30
0.0
 70
    32
  0
VERTEX
  5
8F0F
  8
AM_0
 10
445.7538009059009
 20
110.1137413897068
 30
0.0
 70
    32
  0
VERTEX
  5
8F10
  8
AM_0
 10
445.74980090590111
 20
110.1127413897067
 30
0.0
 70
    32
  0
VERTEX
  5
8F11
  8
AM_0
 10
445.74580090590081
 20
110.1127413897067
 30
0.0
 70
    32
  0
VERTEX
  5
8F12
  8
AM_0
 10
445.7408009059011
 20
110.11174138970669
 30
0.0
 70
    32
  0
VERTEX
  5
8F13
  8
AM_0
 10
445.73680090590091
 20
110.11174138970669
 30
0.0
 70
    32
  0
VERTEX
  5
8F14
  8
AM_0
 10
445.732800905901
 20
110.1107413897067
 30
0.0
 70
    32
  0
VERTEX
  5
8F15
  8
AM_0
 10
445.7288009059011
 20
110.1107413897067
 30
0.0
 70
    32
  0
VERTEX
  5
8F16
  8
AM_0
 10
445.72480090590091
 20
110.1097413897068
 30
0.0
 70
    32
  0
VERTEX
  5
8F17
  8
AM_0
 10
445.71980090590102
 20
110.1097413897068
 30
0.0
 70
    32
  0
VERTEX
  5
8F18
  8
AM_0
 10
445.71580090590089
 20
110.10874138970669
 30
0.0
 70
    32
  0
VERTEX
  5
8F19
  8
AM_0
 10
445.71180090590087
 20
110.10874138970669
 30
0.0
 70
    32
  0
VERTEX
  5
8F1A
  8
AM_0
 10
445.7078009059008
 20
110.1077413897068
 30
0.0
 70
    32
  0
VERTEX
  5
8F1B
  8
AM_0
 10
445.70280090590092
 20
110.1077413897068
 30
0.0
 70
    32
  0
VERTEX
  5
8F1C
  8
AM_0
 10
445.6988009059009
 20
110.1067413897067
 30
0.0
 70
    32
  0
VERTEX
  5
8F1D
  8
AM_0
 10
445.6948009059011
 20
110.1067413897067
 30
0.0
 70
    32
  0
VERTEX
  5
8F1E
  8
AM_0
 10
445.69080090590103
 20
110.10574138970669
 30
0.0
 70
    32
  0
VERTEX
  5
8F1F
  8
AM_0
 10
445.68580090590092
 20
110.10574138970669
 30
0.0
 70
    32
  0
VERTEX
  5
8F20
  8
AM_0
 10
445.68180090590113
 20
110.1047413897068
 30
0.0
 70
    32
  0
VERTEX
  5
8F21
  8
AM_0
 10
445.67780090590088
 20
110.1047413897068
 30
0.0
 70
    32
  0
VERTEX
  5
8F22
  8
AM_0
 10
445.67380090590098
 20
110.1037413897069
 30
0.0
 70
    32
  0
VERTEX
  5
8F23
  8
AM_0
 10
445.66880090590161
 20
110.1037413897069
 30
0.0
 70
    32
  0
VERTEX
  5
8F24
  8
AM_0
 10
445.6648009059009
 20
110.10274138970679
 30
0.0
 70
    32
  0
VERTEX
  5
8F25
  8
AM_0
 10
445.66080090590111
 20
110.10274138970679
 30
0.0
 70
    32
  0
VERTEX
  5
8F26
  8
AM_0
 10
445.65680090590098
 20
110.1017413897067
 30
0.0
 70
    32
  0
VERTEX
  5
8F27
  8
AM_0
 10
445.6518009059011
 20
110.1017413897067
 30
0.0
 70
    32
  0
VERTEX
  5
8F28
  8
AM_0
 10
445.64780090590102
 20
110.1007413897068
 30
0.0
 70
    32
  0
VERTEX
  5
8F29
  8
AM_0
 10
445.64380090590112
 20
110.1007413897068
 30
0.0
 70
    32
  0
VERTEX
  5
8F2A
  8
AM_0
 10
445.63980090590081
 20
110.09974138970659
 30
0.0
 70
    32
  0
VERTEX
  5
8F2B
  8
AM_0
 10
445.63580090590102
 20
110.09974138970659
 30
0.0
 70
    32
  0
VERTEX
  5
8F2C
  8
AM_0
 10
445.63080090590159
 20
110.0987413897069
 30
0.0
 70
    32
  0
VERTEX
  5
8F2D
  8
AM_0
 10
445.62680090590089
 20
110.0977413897066
 30
0.0
 70
    32
  0
VERTEX
  5
8F2E
  8
AM_0
 10
445.62280090590099
 20
110.0977413897066
 30
0.0
 70
    32
  0
VERTEX
  5
8F2F
  8
AM_0
 10
445.61880090590091
 20
110.09674138970669
 30
0.0
 70
    32
  0
VERTEX
  5
8F30
  8
AM_0
 10
445.61380090590097
 20
110.09674138970669
 30
0.0
 70
    32
  0
VERTEX
  5
8F31
  8
AM_0
 10
445.6098009059009
 20
110.0957413897068
 30
0.0
 70
    32
  0
VERTEX
  5
8F32
  8
AM_0
 10
445.60580090590088
 20
110.0957413897068
 30
0.0
 70
    32
  0
VERTEX
  5
8F33
  8
AM_0
 10
445.6018009059008
 20
110.0947413897067
 30
0.0
 70
    32
  0
VERTEX
  5
8F34
  8
AM_0
 10
445.59680090590092
 20
110.09374138970681
 30
0.0
 70
    32
  0
VERTEX
  5
8F35
  8
AM_0
 10
445.59280090590079
 20
110.09374138970681
 30
0.0
 70
    32
  0
VERTEX
  5
8F36
  8
AM_0
 10
445.588800905901
 20
110.0927413897064
 30
0.0
 70
    32
  0
VERTEX
  5
8F37
  8
AM_0
 10
445.58480090590098
 20
110.0927413897064
 30
0.0
 70
    32
  0
VERTEX
  5
8F38
  8
AM_0
 10
445.5808009059009
 20
110.0917413897069
 30
0.0
 70
    32
  0
VERTEX
  5
8F39
  8
AM_0
 10
445.57580090590091
 20
110.09074138970701
 30
0.0
 70
    32
  0
VERTEX
  5
8F3A
  8
AM_0
 10
445.571800905901
 20
110.09074138970701
 30
0.0
 70
    32
  0
VERTEX
  5
8F3B
  8
AM_0
 10
445.56780090590098
 20
110.0897413897068
 30
0.0
 70
    32
  0
VERTEX
  5
8F3C
  8
AM_0
 10
445.56380090590091
 20
110.0897413897068
 30
0.0
 70
    32
  0
VERTEX
  5
8F3D
  8
AM_0
 10
445.55880090590102
 20
110.0887413897067
 30
0.0
 70
    32
  0
VERTEX
  5
8F3E
  8
AM_0
 10
445.55480090590112
 20
110.08774138970669
 30
0.0
 70
    32
  0
VERTEX
  5
8F3F
  8
AM_0
 10
445.55080090590093
 20
110.08774138970669
 30
0.0
 70
    32
  0
VERTEX
  5
8F40
  8
AM_0
 10
445.54680090590102
 20
110.086741389707
 30
0.0
 70
    32
  0
VERTEX
  5
8F41
  8
AM_0
 10
445.54280090590089
 20
110.0857413897067
 30
0.0
 70
    32
  0
VERTEX
  5
8F42
  8
AM_0
 10
445.53780090590101
 20
110.0857413897067
 30
0.0
 70
    32
  0
VERTEX
  5
8F43
  8
AM_0
 10
445.53380090590082
 20
110.08474138970671
 30
0.0
 70
    32
  0
VERTEX
  5
8F44
  8
AM_0
 10
445.52980090590103
 20
110.08474138970671
 30
0.0
 70
    32
  0
VERTEX
  5
8F45
  8
AM_0
 10
445.52580090590089
 20
110.0837413897065
 30
0.0
 70
    32
  0
VERTEX
  5
8F46
  8
AM_0
 10
445.52080090590113
 20
110.0827413897067
 30
0.0
 70
    32
  0
VERTEX
  5
8F47
  8
AM_0
 10
445.51680090590099
 20
110.0827413897067
 30
0.0
 70
    32
  0
VERTEX
  5
8F48
  8
AM_0
 10
445.51280090590092
 20
110.0817413897071
 30
0.0
 70
    32
  0
VERTEX
  5
8F49
  8
AM_0
 10
445.50880090590113
 20
110.0807413897068
 30
0.0
 70
    32
  0
VERTEX
  5
8F4A
  8
AM_0
 10
445.50480090590088
 20
110.0807413897068
 30
0.0
 70
    32
  0
VERTEX
  5
8F4B
  8
AM_0
 10
445.49980090590111
 20
110.0797413897067
 30
0.0
 70
    32
  0
VERTEX
  5
8F4C
  8
AM_0
 10
445.49580090590092
 20
110.07874138970681
 30
0.0
 70
    32
  0
VERTEX
  5
8F4D
  8
AM_0
 10
445.4918009059009
 20
110.07874138970681
 30
0.0
 70
    32
  0
VERTEX
  5
8F4E
  8
AM_0
 10
445.48780090590122
 20
110.0777413897069
 30
0.0
 70
    32
  0
VERTEX
  5
8F4F
  8
AM_0
 10
445.482800905901
 20
110.0767413897067
 30
0.0
 70
    32
  0
VERTEX
  5
8F50
  8
AM_0
 10
445.4788009059011
 20
110.0767413897067
 30
0.0
 70
    32
  0
VERTEX
  5
8F51
  8
AM_0
 10
445.47480090590091
 20
110.07574138970671
 30
0.0
 70
    32
  0
VERTEX
  5
8F52
  8
AM_0
 10
445.47080090590111
 20
110.0747413897067
 30
0.0
 70
    32
  0
VERTEX
  5
8F53
  8
AM_0
 10
445.46680090590098
 20
110.0737413897066
 30
0.0
 70
    32
  0
VERTEX
  5
8F54
  8
AM_0
 10
445.4618009059011
 20
110.0737413897066
 30
0.0
 70
    32
  0
VERTEX
  5
8F55
  8
AM_0
 10
445.45780090590102
 20
110.07274138970701
 30
0.0
 70
    32
  0
VERTEX
  5
8F56
  8
AM_0
 10
445.45380090590089
 20
110.0717413897068
 30
0.0
 70
    32
  0
VERTEX
  5
8F57
  8
AM_0
 10
445.4498009059011
 20
110.0717413897068
 30
0.0
 70
    32
  0
VERTEX
  5
8F58
  8
AM_0
 10
445.44580090590091
 20
110.0707413897067
 30
0.0
 70
    32
  0
VERTEX
  5
8F59
  8
AM_0
 10
445.44080090590103
 20
110.06974138970671
 30
0.0
 70
    32
  0
VERTEX
  5
8F5A
  8
AM_0
 10
445.4368009059009
 20
110.0687413897069
 30
0.0
 70
    32
  0
VERTEX
  5
8F5B
  8
AM_0
 10
445.43280090590088
 20
110.0687413897069
 30
0.0
 70
    32
  0
VERTEX
  5
8F5C
  8
AM_0
 10
445.4288009059008
 20
110.0677413897067
 30
0.0
 70
    32
  0
VERTEX
  5
8F5D
  8
AM_0
 10
445.42480090590112
 20
110.06674138970661
 30
0.0
 70
    32
  0
VERTEX
  5
8F5E
  8
AM_0
 10
445.4198009059009
 20
110.0657413897067
 30
0.0
 70
    32
  0
VERTEX
  5
8F5F
  8
AM_0
 10
445.41580090590088
 20
110.0657413897067
 30
0.0
 70
    32
  0
VERTEX
  5
8F60
  8
AM_0
 10
445.41180090590098
 20
110.0647413897067
 30
0.0
 70
    32
  0
VERTEX
  5
8F61
  8
AM_0
 10
445.4078009059009
 20
110.06374138970691
 30
0.0
 70
    32
  0
VERTEX
  5
8F62
  8
AM_0
 10
445.40380090590111
 20
110.062741389707
 30
0.0
 70
    32
  0
VERTEX
  5
8F63
  8
AM_0
 10
445.398800905901
 20
110.062741389707
 30
0.0
 70
    32
  0
VERTEX
  5
8F64
  8
AM_0
 10
445.39480090590098
 20
110.0617413897067
 30
0.0
 70
    32
  0
VERTEX
  5
8F65
  8
AM_0
 10
445.39080090590079
 20
110.06074138970671
 30
0.0
 70
    32
  0
VERTEX
  5
8F66
  8
AM_0
 10
445.386800905901
 20
110.0597413897067
 30
0.0
 70
    32
  0
VERTEX
  5
8F67
  8
AM_0
 10
445.38280090590098
 20
110.0597413897067
 30
0.0
 70
    32
  0
VERTEX
  5
8F68
  8
AM_0
 10
445.37780090590098
 20
110.0587413897069
 30
0.0
 70
    32
  0
VERTEX
  5
8F69
  8
AM_0
 10
445.37380090590091
 20
110.05774138970671
 30
0.0
 70
    32
  0
VERTEX
  5
8F6A
  8
AM_0
 10
445.36980090590077
 20
110.0567413897067
 30
0.0
 70
    32
  0
VERTEX
  5
8F6B
  8
AM_0
 10
445.3658009059011
 20
110.0557413897067
 30
0.0
 70
    32
  0
VERTEX
  5
8F6C
  8
AM_0
 10
445.36180090590102
 20
110.0557413897067
 30
0.0
 70
    32
  0
VERTEX
  5
8F6D
  8
AM_0
 10
445.35680090590103
 20
110.05474138970681
 30
0.0
 70
    32
  0
VERTEX
  5
8F6E
  8
AM_0
 10
445.35280090590112
 20
110.053741389707
 30
0.0
 70
    32
  0
VERTEX
  5
8F6F
  8
AM_0
 10
445.34880090590087
 20
110.0527413897067
 30
0.0
 70
    32
  0
VERTEX
  5
8F70
  8
AM_0
 10
445.34480090590102
 20
110.05174138970681
 30
0.0
 70
    32
  0
VERTEX
  5
8F71
  8
AM_0
 10
445.34080090590101
 20
110.05174138970681
 30
0.0
 70
    32
  0
VERTEX
  5
8F72
  8
AM_0
 10
445.33580090590112
 20
110.0507413897067
 30
0.0
 70
    32
  0
VERTEX
  5
8F73
  8
AM_0
 10
445.33180090590082
 20
110.0497413897068
 30
0.0
 70
    32
  0
VERTEX
  5
8F74
  8
AM_0
 10
445.32780090590097
 20
110.04874138970651
 30
0.0
 70
    32
  0
VERTEX
  5
8F75
  8
AM_0
 10
445.3238009059009
 20
110.0477413897067
 30
0.0
 70
    32
  0
VERTEX
  5
8F76
  8
AM_0
 10
445.31980090590088
 20
110.0467413897067
 30
0.0
 70
    32
  0
VERTEX
  5
8F77
  8
AM_0
 10
445.31580090590103
 20
110.0467413897067
 30
0.0
 70
    32
  0
VERTEX
  5
8F78
  8
AM_0
 10
445.31080090590092
 20
110.0457413897069
 30
0.0
 70
    32
  0
VERTEX
  5
8F79
  8
AM_0
 10
445.30680090590113
 20
110.0447413897069
 30
0.0
 70
    32
  0
VERTEX
  5
8F7A
  8
AM_0
 10
445.30280090590088
 20
110.0437413897067
 30
0.0
 70
    32
  0
VERTEX
  5
8F7B
  8
AM_0
 10
445.29880090590092
 20
110.04274138970671
 30
0.0
 70
    32
  0
VERTEX
  5
8F7C
  8
AM_0
 10
445.29480090590079
 20
110.0417413897068
 30
0.0
 70
    32
  0
VERTEX
  5
8F7D
  8
AM_0
 10
445.2898009059009
 20
110.0407413897068
 30
0.0
 70
    32
  0
VERTEX
  5
8F7E
  8
AM_0
 10
445.28580090590123
 20
110.0407413897068
 30
0.0
 70
    32
  0
VERTEX
  5
8F7F
  8
AM_0
 10
445.28180090590098
 20
110.03974138970671
 30
0.0
 70
    32
  0
VERTEX
  5
8F80
  8
AM_0
 10
445.2778009059009
 20
110.0387413897067
 30
0.0
 70
    32
  0
VERTEX
  5
8F81
  8
AM_0
 10
445.273800905901
 20
110.0377413897067
 30
0.0
 70
    32
  0
VERTEX
  5
8F82
  8
AM_0
 10
445.26980090590098
 20
110.0367413897068
 30
0.0
 70
    32
  0
VERTEX
  5
8F83
  8
AM_0
 10
445.26480090590093
 20
110.0357413897067
 30
0.0
 70
    32
  0
VERTEX
  5
8F84
  8
AM_0
 10
445.26080090590102
 20
110.0347413897067
 30
0.0
 70
    32
  0
VERTEX
  5
8F85
  8
AM_0
 10
445.25680090590112
 20
110.03374138970671
 30
0.0
 70
    32
  0
VERTEX
  5
8F86
  8
AM_0
 10
445.25280090590093
 20
110.0327413897068
 30
0.0
 70
    32
  0
VERTEX
  5
8F87
  8
AM_0
 10
445.24880090590102
 20
110.0327413897068
 30
0.0
 70
    32
  0
VERTEX
  5
8F88
  8
AM_0
 10
445.24480090590089
 20
110.03174138970699
 30
0.0
 70
    32
  0
VERTEX
  5
8F89
  8
AM_0
 10
445.23980090590089
 20
110.0307413897068
 30
0.0
 70
    32
  0
VERTEX
  5
8F8A
  8
AM_0
 10
445.23580090590082
 20
110.0297413897067
 30
0.0
 70
    32
  0
VERTEX
  5
8F8B
  8
AM_0
 10
445.23180090590103
 20
110.0287413897067
 30
0.0
 70
    32
  0
VERTEX
  5
8F8C
  8
AM_0
 10
445.22780090590112
 20
110.0277413897068
 30
0.0
 70
    32
  0
VERTEX
  5
8F8D
  8
AM_0
 10
445.22380090590087
 20
110.0267413897067
 30
0.0
 70
    32
  0
VERTEX
  5
8F8E
  8
AM_0
 10
445.21980090590102
 20
110.02574138970679
 30
0.0
 70
    32
  0
VERTEX
  5
8F8F
  8
AM_0
 10
445.21480090590092
 20
110.0247413897067
 30
0.0
 70
    32
  0
VERTEX
  5
8F90
  8
AM_0
 10
445.21080090590112
 20
110.0237413897068
 30
0.0
 70
    32
  0
VERTEX
  5
8F91
  8
AM_0
 10
445.20680090590088
 20
110.02274138970699
 30
0.0
 70
    32
  0
VERTEX
  5
8F92
  8
AM_0
 10
445.20280090590092
 20
110.0217413897067
 30
0.0
 70
    32
  0
VERTEX
  5
8F93
  8
AM_0
 10
445.19880090590078
 20
110.0207413897066
 30
0.0
 70
    32
  0
VERTEX
  5
8F94
  8
AM_0
 10
445.19480090590088
 20
110.0197413897067
 30
0.0
 70
    32
  0
VERTEX
  5
8F95
  8
AM_0
 10
445.18980090590122
 20
110.0187413897068
 30
0.0
 70
    32
  0
VERTEX
  5
8F96
  8
AM_0
 10
445.18580090590098
 20
110.0177413897067
 30
0.0
 70
    32
  0
VERTEX
  5
8F97
  8
AM_0
 10
445.18180090590113
 20
110.01674138970679
 30
0.0
 70
    32
  0
VERTEX
  5
8F98
  8
AM_0
 10
445.17780090590088
 20
110.0157413897067
 30
0.0
 70
    32
  0
VERTEX
  5
8F99
  8
AM_0
 10
445.17380090590098
 20
110.0147413897067
 30
0.0
 70
    32
  0
VERTEX
  5
8F9A
  8
AM_0
 10
445.1698009059009
 20
110.01374138970699
 30
0.0
 70
    32
  0
VERTEX
  5
8F9B
  8
AM_0
 10
445.16580090590088
 20
110.0127413897066
 30
0.0
 70
    32
  0
VERTEX
  5
8F9C
  8
AM_0
 10
445.16080090590111
 20
110.0117413897067
 30
0.0
 70
    32
  0
VERTEX
  5
8F9D
  8
AM_0
 10
445.15680090590092
 20
110.01074138970669
 30
0.0
 70
    32
  0
VERTEX
  5
8F9E
  8
AM_0
 10
445.15280090590102
 20
110.0097413897069
 30
0.0
 70
    32
  0
VERTEX
  5
8F9F
  8
AM_0
 10
445.14880090590083
 20
110.0087413897067
 30
0.0
 70
    32
  0
VERTEX
  5
8FA0
  8
AM_0
 10
445.14480090590098
 20
110.00774138970669
 30
0.0
 70
    32
  0
VERTEX
  5
8FA1
  8
AM_0
 10
445.1408009059009
 20
110.0067413897068
 30
0.0
 70
    32
  0
VERTEX
  5
8FA2
  8
AM_0
 10
445.13580090590102
 20
110.0057413897067
 30
0.0
 70
    32
  0
VERTEX
  5
8FA3
  8
AM_0
 10
445.131800905901
 20
110.00474138970699
 30
0.0
 70
    32
  0
VERTEX
  5
8FA4
  8
AM_0
 10
445.12780090590093
 20
110.0037413897068
 30
0.0
 70
    32
  0
VERTEX
  5
8FA5
  8
AM_0
 10
445.12380090590102
 20
110.0027413897068
 30
0.0
 70
    32
  0
VERTEX
  5
8FA6
  8
AM_0
 10
445.11980090590112
 20
110.00174138970679
 30
0.0
 70
    32
  0
VERTEX
  5
8FA7
  8
AM_0
 10
445.11580090590093
 20
110.0007413897069
 30
0.0
 70
    32
  0
VERTEX
  5
8FA8
  8
AM_0
 10
445.11180090590079
 20
109.9997413897067
 30
0.0
 70
    32
  0
VERTEX
  5
8FA9
  8
AM_0
 10
445.107800905901
 20
109.99874138970659
 30
0.0
 70
    32
  0
VERTEX
  5
8FAA
  8
AM_0
 10
445.10280090590118
 20
109.9977413897067
 30
0.0
 70
    32
  0
VERTEX
  5
8FAB
  8
AM_0
 10
445.09880090590087
 20
109.9967413897066
 30
0.0
 70
    32
  0
VERTEX
  5
8FAC
  8
AM_0
 10
445.09480090590102
 20
109.99574138970689
 30
0.0
 70
    32
  0
VERTEX
  5
8FAD
  8
AM_0
 10
445.09080090590089
 20
109.9937413897068
 30
0.0
 70
    32
  0
VERTEX
  5
8FAE
  8
AM_0
 10
445.0868009059011
 20
109.99274138970679
 30
0.0
 70
    32
  0
VERTEX
  5
8FAF
  8
AM_0
 10
445.0828009059008
 20
109.9917413897067
 30
0.0
 70
    32
  0
VERTEX
  5
8FB0
  8
AM_0
 10
445.07880090590089
 20
109.9907413897067
 30
0.0
 70
    32
  0
VERTEX
  5
8FB1
  8
AM_0
 10
445.0748009059011
 20
109.9897413897065
 30
0.0
 70
    32
  0
VERTEX
  5
8FB2
  8
AM_0
 10
445.06980090590088
 20
109.9887413897067
 30
0.0
 70
    32
  0
VERTEX
  5
8FB3
  8
AM_0
 10
445.06580090590103
 20
109.9877413897067
 30
0.0
 70
    32
  0
VERTEX
  5
8FB4
  8
AM_0
 10
445.0618009059009
 20
109.98674138970691
 30
0.0
 70
    32
  0
VERTEX
  5
8FB5
  8
AM_0
 10
445.0578009059011
 20
109.985741389707
 30
0.0
 70
    32
  0
VERTEX
  5
8FB6
  8
AM_0
 10
445.0538009059008
 20
109.98374138970669
 30
0.0
 70
    32
  0
VERTEX
  5
8FB7
  8
AM_0
 10
445.04980090590101
 20
109.9827413897068
 30
0.0
 70
    32
  0
VERTEX
  5
8FB8
  8
AM_0
 10
445.0458009059011
 20
109.9817413897067
 30
0.0
 70
    32
  0
VERTEX
  5
8FB9
  8
AM_0
 10
445.04180090590091
 20
109.98074138970649
 30
0.0
 70
    32
  0
VERTEX
  5
8FBA
  8
AM_0
 10
445.03680090590098
 20
109.9797413897067
 30
0.0
 70
    32
  0
VERTEX
  5
8FBB
  8
AM_0
 10
445.0328009059009
 20
109.9787413897067
 30
0.0
 70
    32
  0
VERTEX
  5
8FBC
  8
AM_0
 10
445.02880090590088
 20
109.97774138970701
 30
0.0
 70
    32
  0
VERTEX
  5
8FBD
  8
AM_0
 10
445.0248009059008
 20
109.9757413897068
 30
0.0
 70
    32
  0
VERTEX
  5
8FBE
  8
AM_0
 10
445.0208009059009
 20
109.97474138970669
 30
0.0
 70
    32
  0
VERTEX
  5
8FBF
  8
AM_0
 10
445.01680090590099
 20
109.9737413897069
 30
0.0
 70
    32
  0
VERTEX
  5
8FC0
  8
AM_0
 10
445.01280090590092
 20
109.9727413897066
 30
0.0
 70
    32
  0
VERTEX
  5
8FC1
  8
AM_0
 10
445.00880090590113
 20
109.97174138970639
 30
0.0
 70
    32
  0
VERTEX
  5
8FC2
  8
AM_0
 10
445.00480090590088
 20
109.9707413897066
 30
0.0
 70
    32
  0
VERTEX
  5
8FC3
  8
AM_0
 10
445.00080090590092
 20
109.96874138970701
 30
0.0
 70
    32
  0
VERTEX
  5
8FC4
  8
AM_0
 10
444.99580090590098
 20
109.9677413897067
 30
0.0
 70
    32
  0
VERTEX
  5
8FC5
  8
AM_0
 10
444.9918009059009
 20
109.966741389707
 30
0.0
 70
    32
  0
VERTEX
  5
8FC6
  8
AM_0
 10
444.98780090590122
 20
109.96574138970669
 30
0.0
 70
    32
  0
VERTEX
  5
8FC7
  8
AM_0
 10
444.98380090590098
 20
109.9647413897068
 30
0.0
 70
    32
  0
VERTEX
  5
8FC8
  8
AM_0
 10
444.9798009059009
 20
109.96274138970669
 30
0.0
 70
    32
  0
VERTEX
  5
8FC9
  8
AM_0
 10
444.97580090590083
 20
109.9617413897065
 30
0.0
 70
    32
  0
VERTEX
  5
8FCA
  8
AM_0
 10
444.97180090590098
 20
109.9607413897067
 30
0.0
 70
    32
  0
VERTEX
  5
8FCB
  8
AM_0
 10
444.96780090590102
 20
109.95974138970701
 30
0.0
 70
    32
  0
VERTEX
  5
8FCC
  8
AM_0
 10
444.963800905901
 20
109.957741389707
 30
0.0
 70
    32
  0
VERTEX
  5
8FCD
  8
AM_0
 10
444.95980090590098
 20
109.95674138970659
 30
0.0
 70
    32
  0
VERTEX
  5
8FCE
  8
AM_0
 10
444.95580090590101
 20
109.9557413897068
 30
0.0
 70
    32
  0
VERTEX
  5
8FCF
  8
AM_0
 10
444.95080090590102
 20
109.9547413897067
 30
0.0
 70
    32
  0
VERTEX
  5
8FD0
  8
AM_0
 10
444.94680090590089
 20
109.9527413897064
 30
0.0
 70
    32
  0
VERTEX
  5
8FD1
  8
AM_0
 10
444.94280090590098
 20
109.9517413897067
 30
0.0
 70
    32
  0
VERTEX
  5
8FD2
  8
AM_0
 10
444.93880090590091
 20
109.9507413897071
 30
0.0
 70
    32
  0
VERTEX
  5
8FD3
  8
AM_0
 10
444.934800905901
 20
109.9497413897067
 30
0.0
 70
    32
  0
VERTEX
  5
8FD4
  8
AM_0
 10
444.93080090590098
 20
109.94774138970671
 30
0.0
 70
    32
  0
VERTEX
  5
8FD5
  8
AM_0
 10
444.9268009059009
 20
109.9467413897067
 30
0.0
 70
    32
  0
VERTEX
  5
8FD6
  8
AM_0
 10
444.92280090590111
 20
109.9457413897067
 30
0.0
 70
    32
  0
VERTEX
  5
8FD7
  8
AM_0
 10
444.91880090590092
 20
109.94474138970661
 30
0.0
 70
    32
  0
VERTEX
  5
8FD8
  8
AM_0
 10
444.9148009059009
 20
109.9427413897067
 30
0.0
 70
    32
  0
VERTEX
  5
8FD9
  8
AM_0
 10
444.91080090590123
 20
109.94174138970671
 30
0.0
 70
    32
  0
VERTEX
  5
8FDA
  8
AM_0
 10
444.90680090590098
 20
109.9407413897067
 30
0.0
 70
    32
  0
VERTEX
  5
8FDB
  8
AM_0
 10
444.90280090590102
 20
109.93874138970671
 30
0.0
 70
    32
  0
VERTEX
  5
8FDC
  8
AM_0
 10
444.89780090590091
 20
109.9377413897067
 30
0.0
 70
    32
  0
VERTEX
  5
8FDD
  8
AM_0
 10
444.89380090590112
 20
109.936741389707
 30
0.0
 70
    32
  0
VERTEX
  5
8FDE
  8
AM_0
 10
444.88980090590093
 20
109.9347413897068
 30
0.0
 70
    32
  0
VERTEX
  5
8FDF
  8
AM_0
 10
444.88580090590091
 20
109.9337413897067
 30
0.0
 70
    32
  0
VERTEX
  5
8FE0
  8
AM_0
 10
444.88180090590112
 20
109.93274138970691
 30
0.0
 70
    32
  0
VERTEX
  5
8FE1
  8
AM_0
 10
444.87780090590098
 20
109.9307413897067
 30
0.0
 70
    32
  0
VERTEX
  5
8FE2
  8
AM_0
 10
444.87380090590102
 20
109.92974138970681
 30
0.0
 70
    32
  0
VERTEX
  5
8FE3
  8
AM_0
 10
444.86980090590077
 20
109.9287413897067
 30
0.0
 70
    32
  0
VERTEX
  5
8FE4
  8
AM_0
 10
444.8658009059011
 20
109.92674138970681
 30
0.0
 70
    32
  0
VERTEX
  5
8FE5
  8
AM_0
 10
444.86180090590102
 20
109.9257413897067
 30
0.0
 70
    32
  0
VERTEX
  5
8FE6
  8
AM_0
 10
444.857800905901
 20
109.9247413897068
 30
0.0
 70
    32
  0
VERTEX
  5
8FE7
  8
AM_0
 10
444.8538009059011
 20
109.9227413897067
 30
0.0
 70
    32
  0
VERTEX
  5
8FE8
  8
AM_0
 10
444.84980090590091
 20
109.9217413897066
 30
0.0
 70
    32
  0
VERTEX
  5
8FE9
  8
AM_0
 10
444.845800905901
 20
109.92074138970671
 30
0.0
 70
    32
  0
VERTEX
  5
8FEA
  8
AM_0
 10
444.84180090590081
 20
109.9187413897069
 30
0.0
 70
    32
  0
VERTEX
  5
8FEB
  8
AM_0
 10
444.83780090590102
 20
109.9177413897068
 30
0.0
 70
    32
  0
VERTEX
  5
8FEC
  8
AM_0
 10
444.83380090590111
 20
109.9157413897067
 30
0.0
 70
    32
  0
VERTEX
  5
8FED
  8
AM_0
 10
444.82980090590092
 20
109.9147413897069
 30
0.0
 70
    32
  0
VERTEX
  5
8FEE
  8
AM_0
 10
444.82580090590102
 20
109.9137413897067
 30
0.0
 70
    32
  0
VERTEX
  5
8FEF
  8
AM_0
 10
444.82180090590111
 20
109.91174138970671
 30
0.0
 70
    32
  0
VERTEX
  5
8FF0
  8
AM_0
 10
444.81780090590092
 20
109.9107413897067
 30
0.0
 70
    32
  0
VERTEX
  5
8FF1
  8
AM_0
 10
444.81380090590079
 20
109.9087413897069
 30
0.0
 70
    32
  0
VERTEX
  5
8FF2
  8
AM_0
 10
444.809800905901
 20
109.9077413897068
 30
0.0
 70
    32
  0
VERTEX
  5
8FF3
  8
AM_0
 10
444.80580090590098
 20
109.90674138970689
 30
0.0
 70
    32
  0
VERTEX
  5
8FF4
  8
AM_0
 10
444.8018009059009
 20
109.9047413897067
 30
0.0
 70
    32
  0
VERTEX
  5
8FF5
  8
AM_0
 10
444.79780090590111
 20
109.9037413897066
 30
0.0
 70
    32
  0
VERTEX
  5
8FF6
  8
AM_0
 10
444.792800905901
 20
109.9017413897068
 30
0.0
 70
    32
  0
VERTEX
  5
8FF7
  8
AM_0
 10
444.7888009059011
 20
109.90074138970721
 30
0.0
 70
    32
  0
VERTEX
  5
8FF8
  8
AM_0
 10
444.78480090590102
 20
109.8987413897068
 30
0.0
 70
    32
  0
VERTEX
  5
8FF9
  8
AM_0
 10
444.78080090590089
 20
109.89774138970679
 30
0.0
 70
    32
  0
VERTEX
  5
8FFA
  8
AM_0
 10
444.7768009059011
 20
109.8957413897067
 30
0.0
 70
    32
  0
VERTEX
  5
8FFB
  8
AM_0
 10
444.77280090590102
 20
109.8947413897067
 30
0.0
 70
    32
  0
VERTEX
  5
8FFC
  8
AM_0
 10
444.76880090590112
 20
109.8927413897068
 30
0.0
 70
    32
  0
VERTEX
  5
8FFD
  8
AM_0
 10
444.76480090590081
 20
109.89174138970699
 30
0.0
 70
    32
  0
VERTEX
  5
8FFE
  8
AM_0
 10
444.76080090590102
 20
109.889741389707
 30
0.0
 70
    32
  0
VERTEX
  5
8FFF
  8
AM_0
 10
444.756800905901
 20
109.88874138970679
 30
0.0
 70
    32
  0
VERTEX
  5
9000
  8
AM_0
 10
444.75280090590093
 20
109.8867413897067
 30
0.0
 70
    32
  0
VERTEX
  5
9001
  8
AM_0
 10
444.74880090590102
 20
109.88574138970669
 30
0.0
 70
    32
  0
VERTEX
  5
9002
  8
AM_0
 10
444.744800905901
 20
109.8837413897067
 30
0.0
 70
    32
  0
VERTEX
  5
9003
  8
AM_0
 10
444.74080090590093
 20
109.88274138970699
 30
0.0
 70
    32
  0
VERTEX
  5
9004
  8
AM_0
 10
444.73680090590091
 20
109.8807413897067
 30
0.0
 70
    32
  0
VERTEX
  5
9005
  8
AM_0
 10
444.73280090590112
 20
109.87974138970679
 30
0.0
 70
    32
  0
VERTEX
  5
9006
  8
AM_0
 10
444.72980090590102
 20
109.8777413897071
 30
0.0
 70
    32
  0
VERTEX
  5
9007
  8
AM_0
 10
444.72580090590111
 20
109.87674138970679
 30
0.0
 70
    32
  0
VERTEX
  5
9008
  8
AM_0
 10
444.72180090590092
 20
109.8747413897067
 30
0.0
 70
    32
  0
VERTEX
  5
9009
  8
AM_0
 10
444.71780090590079
 20
109.87374138970711
 30
0.0
 70
    32
  0
VERTEX
  5
900A
  8
AM_0
 10
444.713800905901
 20
109.8717413897067
 30
0.0
 70
    32
  0
VERTEX
  5
900B
  8
AM_0
 10
444.70980090590098
 20
109.87074138970701
 30
0.0
 70
    32
  0
VERTEX
  5
900C
  8
AM_0
 10
444.7058009059009
 20
109.8687413897071
 30
0.0
 70
    32
  0
VERTEX
  5
900D
  8
AM_0
 10
444.70180090590111
 20
109.8667413897067
 30
0.0
 70
    32
  0
VERTEX
  5
900E
  8
AM_0
 10
444.69780090590098
 20
109.8657413897067
 30
0.0
 70
    32
  0
VERTEX
  5
900F
  8
AM_0
 10
444.6938009059009
 20
109.8637413897067
 30
0.0
 70
    32
  0
VERTEX
  5
9010
  8
AM_0
 10
444.68980090590111
 20
109.8627413897066
 30
0.0
 70
    32
  0
VERTEX
  5
9011
  8
AM_0
 10
444.68580090590098
 20
109.8607413897067
 30
0.0
 70
    32
  0
VERTEX
  5
9012
  8
AM_0
 10
444.68180090590113
 20
109.85874138970649
 30
0.0
 70
    32
  0
VERTEX
  5
9013
  8
AM_0
 10
444.67780090590082
 20
109.8577413897068
 30
0.0
 70
    32
  0
VERTEX
  5
9014
  8
AM_0
 10
444.67380090590098
 20
109.85574138970669
 30
0.0
 70
    32
  0
VERTEX
  5
9015
  8
AM_0
 10
444.66980090590101
 20
109.8547413897067
 30
0.0
 70
    32
  0
VERTEX
  5
9016
  8
AM_0
 10
444.66580090590088
 20
109.85274138970679
 30
0.0
 70
    32
  0
VERTEX
  5
9017
  8
AM_0
 10
444.66180090590098
 20
109.850741389707
 30
0.0
 70
    32
  0
VERTEX
  5
9018
  8
AM_0
 10
444.6578009059009
 20
109.84974138970669
 30
0.0
 70
    32
  0
VERTEX
  5
9019
  8
AM_0
 10
444.65380090590088
 20
109.8477413897069
 30
0.0
 70
    32
  0
VERTEX
  5
901A
  8
AM_0
 10
444.6498009059008
 20
109.8457413897067
 30
0.0
 70
    32
  0
VERTEX
  5
901B
  8
AM_0
 10
444.64580090590113
 20
109.8447413897066
 30
0.0
 70
    32
  0
VERTEX
  5
901C
  8
AM_0
 10
444.64180090590099
 20
109.8427413897067
 30
0.0
 70
    32
  0
VERTEX
  5
901D
  8
AM_0
 10
444.63880090590089
 20
109.84074138970681
 30
0.0
 70
    32
  0
VERTEX
  5
901E
  8
AM_0
 10
444.63480090590087
 20
109.8397413897067
 30
0.0
 70
    32
  0
VERTEX
  5
901F
  8
AM_0
 10
444.6308009059008
 20
109.83774138970711
 30
0.0
 70
    32
  0
VERTEX
  5
9020
  8
AM_0
 10
444.62680090590089
 20
109.8357413897066
 30
0.0
 70
    32
  0
VERTEX
  5
9021
  8
AM_0
 10
444.62280090590099
 20
109.83474138970659
 30
0.0
 70
    32
  0
VERTEX
  5
9022
  8
AM_0
 10
444.61880090590091
 20
109.8327413897071
 30
0.0
 70
    32
  0
VERTEX
  5
9023
  8
AM_0
 10
444.61480090590112
 20
109.8307413897068
 30
0.0
 70
    32
  0
VERTEX
  5
9024
  8
AM_0
 10
444.61080090590087
 20
109.8297413897067
 30
0.0
 70
    32
  0
VERTEX
  5
9025
  8
AM_0
 10
444.60680090590091
 20
109.8277413897067
 30
0.0
 70
    32
  0
VERTEX
  5
9026
  8
AM_0
 10
444.60280090590118
 20
109.82574138970659
 30
0.0
 70
    32
  0
VERTEX
  5
9027
  8
AM_0
 10
444.59880090590087
 20
109.8237413897071
 30
0.0
 70
    32
  0
VERTEX
  5
9028
  8
AM_0
 10
444.59480090590091
 20
109.82274138970671
 30
0.0
 70
    32
  0
VERTEX
  5
9029
  8
AM_0
 10
444.59180090590098
 20
109.8207413897066
 30
0.0
 70
    32
  0
VERTEX
  5
902A
  8
AM_0
 10
444.58780090590091
 20
109.8187413897067
 30
0.0
 70
    32
  0
VERTEX
  5
902B
  8
AM_0
 10
444.58380090590111
 20
109.81674138970661
 30
0.0
 70
    32
  0
VERTEX
  5
902C
  8
AM_0
 10
444.57980090590098
 20
109.8157413897067
 30
0.0
 70
    32
  0
VERTEX
  5
902D
  8
AM_0
 10
444.57580090590102
 20
109.81374138970661
 30
0.0
 70
    32
  0
VERTEX
  5
902E
  8
AM_0
 10
444.57180090590077
 20
109.8117413897068
 30
0.0
 70
    32
  0
VERTEX
  5
902F
  8
AM_0
 10
444.56780090590098
 20
109.8097413897068
 30
0.0
 70
    32
  0
VERTEX
  5
9030
  8
AM_0
 10
444.56380090590091
 20
109.8087413897067
 30
0.0
 70
    32
  0
VERTEX
  5
9031
  8
AM_0
 10
444.559800905901
 20
109.8067413897067
 30
0.0
 70
    32
  0
VERTEX
  5
9032
  8
AM_0
 10
444.55680090590113
 20
109.80474138970681
 30
0.0
 70
    32
  0
VERTEX
  5
9033
  8
AM_0
 10
444.55280090590088
 20
109.8027413897068
 30
0.0
 70
    32
  0
VERTEX
  5
9034
  8
AM_0
 10
444.54880090590098
 20
109.8007413897067
 30
0.0
 70
    32
  0
VERTEX
  5
9035
  8
AM_0
 10
444.5448009059009
 20
109.7997413897064
 30
0.0
 70
    32
  0
VERTEX
  5
9036
  8
AM_0
 10
444.54080090590088
 20
109.7977413897067
 30
0.0
 70
    32
  0
VERTEX
  5
9037
  8
AM_0
 10
444.53680090590098
 20
109.79574138970681
 30
0.0
 70
    32
  0
VERTEX
  5
9038
  8
AM_0
 10
444.5328009059009
 20
109.7937413897069
 30
0.0
 70
    32
  0
VERTEX
  5
9039
  8
AM_0
 10
444.52980090590091
 20
109.7917413897067
 30
0.0
 70
    32
  0
VERTEX
  5
903A
  8
AM_0
 10
444.52580090590089
 20
109.7907413897065
 30
0.0
 70
    32
  0
VERTEX
  5
903B
  8
AM_0
 10
444.52180090590088
 20
109.7887413897067
 30
0.0
 70
    32
  0
VERTEX
  5
903C
  8
AM_0
 10
444.51780090590103
 20
109.78674138970671
 30
0.0
 70
    32
  0
VERTEX
  5
903D
  8
AM_0
 10
444.51380090590089
 20
109.7847413897067
 30
0.0
 70
    32
  0
VERTEX
  5
903E
  8
AM_0
 10
444.5098009059011
 20
109.7827413897067
 30
0.0
 70
    32
  0
VERTEX
  5
903F
  8
AM_0
 10
444.50580090590091
 20
109.7807413897068
 30
0.0
 70
    32
  0
VERTEX
  5
9040
  8
AM_0
 10
444.50280090590098
 20
109.77874138970679
 30
0.0
 70
    32
  0
VERTEX
  5
9041
  8
AM_0
 10
444.49880090590091
 20
109.7767413897067
 30
0.0
 70
    32
  0
VERTEX
  5
9042
  8
AM_0
 10
444.494800905901
 20
109.77574138970679
 30
0.0
 70
    32
  0
VERTEX
  5
9043
  8
AM_0
 10
444.4908009059011
 20
109.773741389707
 30
0.0
 70
    32
  0
VERTEX
  5
9044
  8
AM_0
 10
444.48680090590102
 20
109.77174138970651
 30
0.0
 70
    32
  0
VERTEX
  5
9045
  8
AM_0
 10
444.48380090590098
 20
109.76974138970699
 30
0.0
 70
    32
  0
VERTEX
  5
9046
  8
AM_0
 10
444.47980090590102
 20
109.7677413897067
 30
0.0
 70
    32
  0
VERTEX
  5
9047
  8
AM_0
 10
444.47580090590083
 20
109.7657413897067
 30
0.0
 70
    32
  0
VERTEX
  5
9048
  8
AM_0
 10
444.47180090590098
 20
109.76374138970669
 30
0.0
 70
    32
  0
VERTEX
  5
9049
  8
AM_0
 10
444.46780090590158
 20
109.7617413897068
 30
0.0
 70
    32
  0
VERTEX
  5
904A
  8
AM_0
 10
444.46480090590092
 20
109.7597413897067
 30
0.0
 70
    32
  0
VERTEX
  5
904B
  8
AM_0
 10
444.4608009059009
 20
109.75774138970669
 30
0.0
 70
    32
  0
VERTEX
  5
904C
  8
AM_0
 10
444.45680090590082
 20
109.755741389707
 30
0.0
 70
    32
  0
VERTEX
  5
904D
  8
AM_0
 10
444.45280090590097
 20
109.7537413897068
 30
0.0
 70
    32
  0
VERTEX
  5
904E
  8
AM_0
 10
444.4488009059009
 20
109.75174138970689
 30
0.0
 70
    32
  0
VERTEX
  5
904F
  8
AM_0
 10
444.44580090590091
 20
109.7497413897067
 30
0.0
 70
    32
  0
VERTEX
  5
9050
  8
AM_0
 10
444.44180090590112
 20
109.7477413897067
 30
0.0
 70
    32
  0
VERTEX
  5
9051
  8
AM_0
 10
444.43780090590087
 20
109.74574138970669
 30
0.0
 70
    32
  0
VERTEX
  5
9052
  8
AM_0
 10
444.43380090590091
 20
109.7437413897068
 30
0.0
 70
    32
  0
VERTEX
  5
9053
  8
AM_0
 10
444.42980090590117
 20
109.7417413897067
 30
0.0
 70
    32
  0
VERTEX
  5
9054
  8
AM_0
 10
444.4268009059009
 20
109.73974138970669
 30
0.0
 70
    32
  0
VERTEX
  5
9055
  8
AM_0
 10
444.42280090590111
 20
109.737741389707
 30
0.0
 70
    32
  0
VERTEX
  5
9056
  8
AM_0
 10
444.41880090590098
 20
109.7357413897067
 30
0.0
 70
    32
  0
VERTEX
  5
9057
  8
AM_0
 10
444.4148009059009
 20
109.73374138970669
 30
0.0
 70
    32
  0
VERTEX
  5
9058
  8
AM_0
 10
444.41180090590092
 20
109.7317413897067
 30
0.0
 70
    32
  0
VERTEX
  5
9059
  8
AM_0
 10
444.4078009059009
 20
109.7297413897067
 30
0.0
 70
    32
  0
VERTEX
  5
905A
  8
AM_0
 10
444.40380090590111
 20
109.72774138970679
 30
0.0
 70
    32
  0
VERTEX
  5
905B
  8
AM_0
 10
444.39980090590097
 20
109.7257413897068
 30
0.0
 70
    32
  0
VERTEX
  5
905C
  8
AM_0
 10
444.39680090590088
 20
109.7237413897069
 30
0.0
 70
    32
  0
VERTEX
  5
905D
  8
AM_0
 10
444.39280090590103
 20
109.72174138970669
 30
0.0
 70
    32
  0
VERTEX
  5
905E
  8
AM_0
 10
444.38880090590078
 20
109.7197413897068
 30
0.0
 70
    32
  0
VERTEX
  5
905F
  8
AM_0
 10
444.38580090590102
 20
109.7177413897067
 30
0.0
 70
    32
  0
VERTEX
  5
9060
  8
AM_0
 10
444.38180090590112
 20
109.7147413897068
 30
0.0
 70
    32
  0
VERTEX
  5
9061
  8
AM_0
 10
444.37780090590093
 20
109.71274138970669
 30
0.0
 70
    32
  0
VERTEX
  5
9062
  8
AM_0
 10
444.37380090590102
 20
109.7107413897068
 30
0.0
 70
    32
  0
VERTEX
  5
9063
  8
AM_0
 10
444.37080090590081
 20
109.7087413897068
 30
0.0
 70
    32
  0
VERTEX
  5
9064
  8
AM_0
 10
444.36680090590102
 20
109.70674138970701
 30
0.0
 70
    32
  0
VERTEX
  5
9065
  8
AM_0
 10
444.362800905901
 20
109.7047413897067
 30
0.0
 70
    32
  0
VERTEX
  5
9066
  8
AM_0
 10
444.3598009059009
 20
109.7027413897067
 30
0.0
 70
    32
  0
VERTEX
  5
9067
  8
AM_0
 10
444.35580090590088
 20
109.70074138970671
 30
0.0
 70
    32
  0
VERTEX
  5
9068
  8
AM_0
 10
444.3518009059008
 20
109.69774138970671
 30
0.0
 70
    32
  0
VERTEX
  5
9069
  8
AM_0
 10
444.34880090590082
 20
109.6957413897067
 30
0.0
 70
    32
  0
VERTEX
  5
906A
  8
AM_0
 10
444.34480090590102
 20
109.6937413897067
 30
0.0
 70
    32
  0
VERTEX
  5
906B
  8
AM_0
 10
444.34080090590089
 20
109.69174138970671
 30
0.0
 70
    32
  0
VERTEX
  5
906C
  8
AM_0
 10
444.33780090590091
 20
109.6897413897065
 30
0.0
 70
    32
  0
VERTEX
  5
906D
  8
AM_0
 10
444.33380090590111
 20
109.6867413897068
 30
0.0
 70
    32
  0
VERTEX
  5
906E
  8
AM_0
 10
444.32980090590092
 20
109.6847413897068
 30
0.0
 70
    32
  0
VERTEX
  5
906F
  8
AM_0
 10
444.32680090590111
 20
109.68274138970671
 30
0.0
 70
    32
  0
VERTEX
  5
9070
  8
AM_0
 10
444.32280090590092
 20
109.6807413897067
 30
0.0
 70
    32
  0
VERTEX
  5
9071
  8
AM_0
 10
444.3188009059009
 20
109.6787413897069
 30
0.0
 70
    32
  0
VERTEX
  5
9072
  8
AM_0
 10
444.31580090590103
 20
109.6757413897067
 30
0.0
 70
    32
  0
VERTEX
  5
9073
  8
AM_0
 10
444.3118009059009
 20
109.67374138970671
 30
0.0
 70
    32
  0
VERTEX
  5
9074
  8
AM_0
 10
444.3078009059011
 20
109.6717413897067
 30
0.0
 70
    32
  0
VERTEX
  5
9075
  8
AM_0
 10
444.30480090590112
 20
109.6697413897069
 30
0.0
 70
    32
  0
VERTEX
  5
9076
  8
AM_0
 10
444.30080090590093
 20
109.6667413897067
 30
0.0
 70
    32
  0
VERTEX
  5
9077
  8
AM_0
 10
444.29780090590111
 20
109.6647413897069
 30
0.0
 70
    32
  0
VERTEX
  5
9078
  8
AM_0
 10
444.29380090590098
 20
109.6627413897067
 30
0.0
 70
    32
  0
VERTEX
  5
9079
  8
AM_0
 10
444.28980090590102
 20
109.6607413897068
 30
0.0
 70
    32
  0
VERTEX
  5
907A
  8
AM_0
 10
444.28680090590098
 20
109.6577413897068
 30
0.0
 70
    32
  0
VERTEX
  5
907B
  8
AM_0
 10
444.2828009059009
 20
109.6557413897068
 30
0.0
 70
    32
  0
VERTEX
  5
907C
  8
AM_0
 10
444.27980090590103
 20
109.6537413897066
 30
0.0
 70
    32
  0
VERTEX
  5
907D
  8
AM_0
 10
444.27580090590089
 20
109.65074138970679
 30
0.0
 70
    32
  0
VERTEX
  5
907E
  8
AM_0
 10
444.27180090590088
 20
109.6487413897067
 30
0.0
 70
    32
  0
VERTEX
  5
907F
  8
AM_0
 10
444.268800905901
 20
109.6467413897068
 30
0.0
 70
    32
  0
VERTEX
  5
9080
  8
AM_0
 10
444.26480090590081
 20
109.6437413897067
 30
0.0
 70
    32
  0
VERTEX
  5
9081
  8
AM_0
 10
444.261800905901
 20
109.6417413897067
 30
0.0
 70
    32
  0
VERTEX
  5
9082
  8
AM_0
 10
444.25780090590098
 20
109.6397413897067
 30
0.0
 70
    32
  0
VERTEX
  5
9083
  8
AM_0
 10
444.25480090590088
 20
109.6367413897068
 30
0.0
 70
    32
  0
VERTEX
  5
9084
  8
AM_0
 10
444.25080090590092
 20
109.6347413897067
 30
0.0
 70
    32
  0
VERTEX
  5
9085
  8
AM_0
 10
444.24780090590099
 20
109.6317413897068
 30
0.0
 70
    32
  0
VERTEX
  5
9086
  8
AM_0
 10
444.24380090590091
 20
109.62974138970669
 30
0.0
 70
    32
  0
VERTEX
  5
9087
  8
AM_0
 10
444.23980090590112
 20
109.6277413897069
 30
0.0
 70
    32
  0
VERTEX
  5
9088
  8
AM_0
 10
444.23680090590079
 20
109.6247413897068
 30
0.0
 70
    32
  0
VERTEX
  5
9089
  8
AM_0
 10
444.232800905901
 20
109.6227413897068
 30
0.0
 70
    32
  0
VERTEX
  5
908A
  8
AM_0
 10
444.22980090590102
 20
109.619741389707
 30
0.0
 70
    32
  0
VERTEX
  5
908B
  8
AM_0
 10
444.225800905901
 20
109.61774138970669
 30
0.0
 70
    32
  0
VERTEX
  5
908C
  8
AM_0
 10
444.2228009059009
 20
109.61474138970669
 30
0.0
 70
    32
  0
VERTEX
  5
908D
  8
AM_0
 10
444.21880090590122
 20
109.6127413897068
 30
0.0
 70
    32
  0
VERTEX
  5
908E
  8
AM_0
 10
444.21580090590089
 20
109.610741389707
 30
0.0
 70
    32
  0
VERTEX
  5
908F
  8
AM_0
 10
444.2118009059011
 20
109.6077413897068
 30
0.0
 70
    32
  0
VERTEX
  5
9090
  8
AM_0
 10
444.20880090590123
 20
109.60574138970669
 30
0.0
 70
    32
  0
VERTEX
  5
9091
  8
AM_0
 10
444.20480090590098
 20
109.60274138970679
 30
0.0
 70
    32
  0
VERTEX
  5
9092
  8
AM_0
 10
444.20180090590111
 20
109.6007413897068
 30
0.0
 70
    32
  0
VERTEX
  5
9093
  8
AM_0
 10
444.19880090590078
 20
109.5977413897067
 30
0.0
 70
    32
  0
VERTEX
  5
9094
  8
AM_0
 10
444.19480090590088
 20
109.5957413897065
 30
0.0
 70
    32
  0
VERTEX
  5
9095
  8
AM_0
 10
444.19180090590112
 20
109.5927413897069
 30
0.0
 70
    32
  0
VERTEX
  5
9096
  8
AM_0
 10
444.18780090590081
 20
109.59074138970681
 30
0.0
 70
    32
  0
VERTEX
  5
9097
  8
AM_0
 10
444.184800905901
 20
109.58774138970669
 30
0.0
 70
    32
  0
VERTEX
  5
9098
  8
AM_0
 10
444.18080090590098
 20
109.5857413897066
 30
0.0
 70
    32
  0
VERTEX
  5
9099
  8
AM_0
 10
444.17780090590082
 20
109.5827413897067
 30
0.0
 70
    32
  0
VERTEX
  5
909A
  8
AM_0
 10
444.17480090590101
 20
109.5797413897067
 30
0.0
 70
    32
  0
VERTEX
  5
909B
  8
AM_0
 10
444.1708009059011
 20
109.5777413897064
 30
0.0
 70
    32
  0
VERTEX
  5
909C
  8
AM_0
 10
444.167800905901
 20
109.574741389707
 30
0.0
 70
    32
  0
VERTEX
  5
909D
  8
AM_0
 10
444.1638009059011
 20
109.57274138970701
 30
0.0
 70
    32
  0
VERTEX
  5
909E
  8
AM_0
 10
444.160800905901
 20
109.56974138970671
 30
0.0
 70
    32
  0
VERTEX
  5
909F
  8
AM_0
 10
444.1578009059009
 20
109.56674138970671
 30
0.0
 70
    32
  0
VERTEX
  5
90A0
  8
AM_0
 10
444.15380090590088
 20
109.5647413897067
 30
0.0
 70
    32
  0
VERTEX
  5
90A1
  8
AM_0
 10
444.15080090590089
 20
109.561741389707
 30
0.0
 70
    32
  0
VERTEX
  5
90A2
  8
AM_0
 10
444.14680090590088
 20
109.5597413897068
 30
0.0
 70
    32
  0
VERTEX
  5
90A3
  8
AM_0
 10
444.14380090590112
 20
109.5567413897068
 30
0.0
 70
    32
  0
VERTEX
  5
90A4
  8
AM_0
 10
444.1408009059009
 20
109.5537413897067
 30
0.0
 70
    32
  0
VERTEX
  5
90A5
  8
AM_0
 10
444.13680090590111
 20
109.5517413897071
 30
0.0
 70
    32
  0
VERTEX
  5
90A6
  8
AM_0
 10
444.13380090590113
 20
109.54874138970671
 30
0.0
 70
    32
  0
VERTEX
  5
90A7
  8
AM_0
 10
444.1308009059008
 20
109.54574138970671
 30
0.0
 70
    32
  0
VERTEX
  5
90A8
  8
AM_0
 10
444.12680090590089
 20
109.5437413897067
 30
0.0
 70
    32
  0
VERTEX
  5
90A9
  8
AM_0
 10
444.12380090590102
 20
109.5407413897067
 30
0.0
 70
    32
  0
VERTEX
  5
90AA
  8
AM_0
 10
444.12080090590098
 20
109.5377413897067
 30
0.0
 70
    32
  0
VERTEX
  5
90AB
  8
AM_0
 10
444.11780090590088
 20
109.5347413897067
 30
0.0
 70
    32
  0
VERTEX
  5
90AC
  8
AM_0
 10
444.11380090590097
 20
109.5327413897068
 30
0.0
 70
    32
  0
VERTEX
  5
90AD
  8
AM_0
 10
444.11080090590161
 20
109.5297413897069
 30
0.0
 70
    32
  0
VERTEX
  5
90AE
  8
AM_0
 10
444.107800905901
 20
109.5267413897067
 30
0.0
 70
    32
  0
VERTEX
  5
90AF
  8
AM_0
 10
444.10380090590121
 20
109.5237413897068
 30
0.0
 70
    32
  0
VERTEX
  5
90B0
  8
AM_0
 10
444.100800905901
 20
109.5217413897067
 30
0.0
 70
    32
  0
VERTEX
  5
90B1
  8
AM_0
 10
444.0978009059009
 20
109.51874138970661
 30
0.0
 70
    32
  0
VERTEX
  5
90B2
  8
AM_0
 10
444.09480090590102
 20
109.5157413897069
 30
0.0
 70
    32
  0
VERTEX
  5
90B3
  8
AM_0
 10
444.09080090590078
 20
109.5127413897067
 30
0.0
 70
    32
  0
VERTEX
  5
90B4
  8
AM_0
 10
444.08780090590102
 20
109.51074138970669
 30
0.0
 70
    32
  0
VERTEX
  5
90B5
  8
AM_0
 10
444.08480090590098
 20
109.50774138970679
 30
0.0
 70
    32
  0
VERTEX
  5
90B6
  8
AM_0
 10
444.08180090590082
 20
109.50474138970679
 30
0.0
 70
    32
  0
VERTEX
  5
90B7
  8
AM_0
 10
444.07880090590089
 20
109.50174138970679
 30
0.0
 70
    32
  0
VERTEX
  5
90B8
  8
AM_0
 10
444.0748009059011
 20
109.49874138970679
 30
0.0
 70
    32
  0
VERTEX
  5
90B9
  8
AM_0
 10
444.07180090590089
 20
109.49574138970689
 30
0.0
 70
    32
  0
VERTEX
  5
90BA
  8
AM_0
 10
444.06880090590113
 20
109.4937413897067
 30
0.0
 70
    32
  0
VERTEX
  5
90BB
  8
AM_0
 10
444.06580090590103
 20
109.4907413897064
 30
0.0
 70
    32
  0
VERTEX
  5
90BC
  8
AM_0
 10
444.06280090590081
 20
109.4877413897068
 30
0.0
 70
    32
  0
VERTEX
  5
90BD
  8
AM_0
 10
444.059800905901
 20
109.4847413897067
 30
0.0
 70
    32
  0
VERTEX
  5
90BE
  8
AM_0
 10
444.05680090590113
 20
109.4817413897067
 30
0.0
 70
    32
  0
VERTEX
  5
90BF
  8
AM_0
 10
444.05280090590088
 20
109.4787413897067
 30
0.0
 70
    32
  0
VERTEX
  5
90C0
  8
AM_0
 10
444.04980090590112
 20
109.4757413897067
 30
0.0
 70
    32
  0
VERTEX
  5
90C1
  8
AM_0
 10
444.04680090590102
 20
109.4727413897067
 30
0.0
 70
    32
  0
VERTEX
  5
90C2
  8
AM_0
 10
444.04380090590081
 20
109.4697413897067
 30
0.0
 70
    32
  0
VERTEX
  5
90C3
  8
AM_0
 10
444.04080090590111
 20
109.4667413897067
 30
0.0
 70
    32
  0
VERTEX
  5
90C4
  8
AM_0
 10
444.03780090590112
 20
109.4637413897066
 30
0.0
 70
    32
  0
VERTEX
  5
90C5
  8
AM_0
 10
444.03480090590079
 20
109.4607413897067
 30
0.0
 70
    32
  0
VERTEX
  5
90C6
  8
AM_0
 10
444.03180090590092
 20
109.4577413897067
 30
0.0
 70
    32
  0
VERTEX
  5
90C7
  8
AM_0
 10
444.02880090590111
 20
109.4547413897065
 30
0.0
 70
    32
  0
VERTEX
  5
90C8
  8
AM_0
 10
444.02580090590078
 20
109.4517413897067
 30
0.0
 70
    32
  0
VERTEX
  5
90C9
  8
AM_0
 10
444.02280090590091
 20
109.4487413897067
 30
0.0
 70
    32
  0
VERTEX
  5
90CA
  8
AM_0
 10
444.01980090590098
 20
109.4457413897064
 30
0.0
 70
    32
  0
VERTEX
  5
90CB
  8
AM_0
 10
444.01680090590122
 20
109.4427413897067
 30
0.0
 70
    32
  0
VERTEX
  5
90CC
  8
AM_0
 10
444.01380090590089
 20
109.4397413897068
 30
0.0
 70
    32
  0
VERTEX
  5
90CD
  8
AM_0
 10
444.01080090590091
 20
109.4367413897068
 30
0.0
 70
    32
  0
VERTEX
  5
90CE
  8
AM_0
 10
444.00780090590098
 20
109.4337413897067
 30
0.0
 70
    32
  0
VERTEX
  5
90CF
  8
AM_0
 10
444.00480090590088
 20
109.4307413897068
 30
0.0
 70
    32
  0
VERTEX
  5
90D0
  8
AM_0
 10
444.00180090590089
 20
109.4277413897068
 30
0.0
 70
    32
  0
VERTEX
  5
90D1
  8
AM_0
 10
443.99880090590102
 20
109.4247413897068
 30
0.0
 70
    32
  0
VERTEX
  5
90D2
  8
AM_0
 10
443.99580090590098
 20
109.4217413897067
 30
0.0
 70
    32
  0
VERTEX
  5
90D3
  8
AM_0
 10
443.99280090590088
 20
109.4187413897067
 30
0.0
 70
    32
  0
VERTEX
  5
90D4
  8
AM_0
 10
443.98980090590112
 20
109.4157413897067
 30
0.0
 70
    32
  0
VERTEX
  5
90D5
  8
AM_0
 10
443.98680090590102
 20
109.4127413897067
 30
0.0
 70
    32
  0
VERTEX
  5
90D6
  8
AM_0
 10
443.98380090590092
 20
109.408741389707
 30
0.0
 70
    32
  0
VERTEX
  5
90D7
  8
AM_0
 10
443.98080090590111
 20
109.40574138970651
 30
0.0
 70
    32
  0
VERTEX
  5
90D8
  8
AM_0
 10
443.97780090590101
 20
109.4027413897068
 30
0.0
 70
    32
  0
VERTEX
  5
90D9
  8
AM_0
 10
443.97580090590083
 20
109.3997413897067
 30
0.0
 70
    32
  0
VERTEX
  5
90DA
  8
AM_0
 10
443.9728009059009
 20
109.39674138970651
 30
0.0
 70
    32
  0
VERTEX
  5
90DB
  8
AM_0
 10
443.96980090590102
 20
109.3937413897068
 30
0.0
 70
    32
  0
VERTEX
  5
90DC
  8
AM_0
 10
443.96680090590081
 20
109.389741389707
 30
0.0
 70
    32
  0
VERTEX
  5
90DD
  8
AM_0
 10
443.963800905901
 20
109.3867413897068
 30
0.0
 70
    32
  0
VERTEX
  5
90DE
  8
AM_0
 10
443.96080090590112
 20
109.3837413897067
 30
0.0
 70
    32
  0
VERTEX
  5
90DF
  8
AM_0
 10
443.958800905901
 20
109.3807413897069
 30
0.0
 70
    32
  0
VERTEX
  5
90E0
  8
AM_0
 10
443.9558009059009
 20
109.37674138970679
 30
0.0
 70
    32
  0
VERTEX
  5
90E1
  8
AM_0
 10
443.95280090590092
 20
109.37374138970669
 30
0.0
 70
    32
  0
VERTEX
  5
90E2
  8
AM_0
 10
443.94980090590099
 20
109.37074138970711
 30
0.0
 70
    32
  0
VERTEX
  5
90E3
  8
AM_0
 10
443.94780090590081
 20
109.36774138970659
 30
0.0
 70
    32
  0
VERTEX
  5
90E4
  8
AM_0
 10
443.94480090590088
 20
109.3637413897067
 30
0.0
 70
    32
  0
VERTEX
  5
90E5
  8
AM_0
 10
443.94180090590112
 20
109.3607413897067
 30
0.0
 70
    32
  0
VERTEX
  5
90E6
  8
AM_0
 10
443.93980090590111
 20
109.3577413897069
 30
0.0
 70
    32
  0
VERTEX
  5
90E7
  8
AM_0
 10
443.9368009059009
 20
109.3537413897067
 30
0.0
 70
    32
  0
VERTEX
  5
90E8
  8
AM_0
 10
443.93380090590091
 20
109.3507413897067
 30
0.0
 70
    32
  0
VERTEX
  5
90E9
  8
AM_0
 10
443.93180090590113
 20
109.3477413897067
 30
0.0
 70
    32
  0
VERTEX
  5
90EA
  8
AM_0
 10
443.9288009059008
 20
109.34374138970691
 30
0.0
 70
    32
  0
VERTEX
  5
90EB
  8
AM_0
 10
443.92580090590093
 20
109.34074138970681
 30
0.0
 70
    32
  0
VERTEX
  5
90EC
  8
AM_0
 10
443.92380090590098
 20
109.33774138970669
 30
0.0
 70
    32
  0
VERTEX
  5
90ED
  8
AM_0
 10
443.92080090590122
 20
109.3337413897067
 30
0.0
 70
    32
  0
VERTEX
  5
90EE
  8
AM_0
 10
443.91880090590098
 20
109.3307413897068
 30
0.0
 70
    32
  0
VERTEX
  5
90EF
  8
AM_0
 10
443.91580090590088
 20
109.3267413897067
 30
0.0
 70
    32
  0
VERTEX
  5
90F0
  8
AM_0
 10
443.91280090590112
 20
109.3237413897067
 30
0.0
 70
    32
  0
VERTEX
  5
90F1
  8
AM_0
 10
443.91080090590111
 20
109.3207413897068
 30
0.0
 70
    32
  0
VERTEX
  5
90F2
  8
AM_0
 10
443.90780090590079
 20
109.31674138970681
 30
0.0
 70
    32
  0
VERTEX
  5
90F3
  8
AM_0
 10
443.90580090590089
 20
109.31374138970671
 30
0.0
 70
    32
  0
VERTEX
  5
90F4
  8
AM_0
 10
443.9028009059009
 20
109.3097413897067
 30
0.0
 70
    32
  0
VERTEX
  5
90F5
  8
AM_0
 10
443.90080090590078
 20
109.3067413897067
 30
0.0
 70
    32
  0
VERTEX
  5
90F6
  8
AM_0
 10
443.89780090590102
 20
109.30274138970699
 30
0.0
 70
    32
  0
VERTEX
  5
90F7
  8
AM_0
 10
443.8958009059009
 20
109.2997413897068
 30
0.0
 70
    32
  0
VERTEX
  5
90F8
  8
AM_0
 10
443.89380090590112
 20
109.29574138970671
 30
0.0
 70
    32
  0
VERTEX
  5
90F9
  8
AM_0
 10
443.89080090590102
 20
109.2927413897068
 30
0.0
 70
    32
  0
VERTEX
  5
90FA
  8
AM_0
 10
443.88880090590089
 20
109.2887413897067
 30
0.0
 70
    32
  0
VERTEX
  5
90FB
  8
AM_0
 10
443.88580090590102
 20
109.2857413897067
 30
0.0
 70
    32
  0
VERTEX
  5
90FC
  8
AM_0
 10
443.88380090590101
 20
109.2817413897067
 30
0.0
 70
    32
  0
VERTEX
  5
90FD
  8
AM_0
 10
443.88180090590112
 20
109.2777413897067
 30
0.0
 70
    32
  0
VERTEX
  5
90FE
  8
AM_0
 10
443.8788009059009
 20
109.274741389707
 30
0.0
 70
    32
  0
VERTEX
  5
90FF
  8
AM_0
 10
443.87680090590101
 20
109.2707413897066
 30
0.0
 70
    32
  0
VERTEX
  5
9100
  8
AM_0
 10
443.874800905901
 20
109.2677413897067
 30
0.0
 70
    32
  0
VERTEX
  5
9101
  8
AM_0
 10
443.8718009059009
 20
109.26374138970669
 30
0.0
 70
    32
  0
VERTEX
  5
9102
  8
AM_0
 10
443.869800905901
 20
109.2597413897067
 30
0.0
 70
    32
  0
VERTEX
  5
9103
  8
AM_0
 10
443.86780090590088
 20
109.2567413897068
 30
0.0
 70
    32
  0
VERTEX
  5
9104
  8
AM_0
 10
443.86580090590093
 20
109.2527413897071
 30
0.0
 70
    32
  0
VERTEX
  5
9105
  8
AM_0
 10
443.862800905901
 20
109.24874138970679
 30
0.0
 70
    32
  0
VERTEX
  5
9106
  8
AM_0
 10
443.86080090590082
 20
109.24574138970669
 30
0.0
 70
    32
  0
VERTEX
  5
9107
  8
AM_0
 10
443.85880090590092
 20
109.2417413897067
 30
0.0
 70
    32
  0
VERTEX
  5
9108
  8
AM_0
 10
443.85680090590091
 20
109.2377413897068
 30
0.0
 70
    32
  0
VERTEX
  5
9109
  8
AM_0
 10
443.85480090590102
 20
109.2347413897071
 30
0.0
 70
    32
  0
VERTEX
  5
910A
  8
AM_0
 10
443.85280090590118
 20
109.23074138970679
 30
0.0
 70
    32
  0
VERTEX
  5
910B
  8
AM_0
 10
443.850800905901
 20
109.2267413897067
 30
0.0
 70
    32
  0
VERTEX
  5
910C
  8
AM_0
 10
443.8478009059009
 20
109.2237413897068
 30
0.0
 70
    32
  0
VERTEX
  5
910D
  8
AM_0
 10
443.84580090590111
 20
109.2197413897066
 30
0.0
 70
    32
  0
VERTEX
  5
910E
  8
AM_0
 10
443.84380090590099
 20
109.21574138970681
 30
0.0
 70
    32
  0
VERTEX
  5
910F
  8
AM_0
 10
443.84180090590093
 20
109.2117413897067
 30
0.0
 70
    32
  0
VERTEX
  5
9110
  8
AM_0
 10
443.83980090590092
 20
109.2087413897067
 30
0.0
 70
    32
  0
VERTEX
  5
9111
  8
AM_0
 10
443.83780090590091
 20
109.2047413897067
 30
0.0
 70
    32
  0
VERTEX
  5
9112
  8
AM_0
 10
443.83580090590112
 20
109.20074138970671
 30
0.0
 70
    32
  0
VERTEX
  5
9113
  8
AM_0
 10
443.83380090590123
 20
109.1967413897068
 30
0.0
 70
    32
  0
VERTEX
  5
9114
  8
AM_0
 10
443.83180090590088
 20
109.1927413897064
 30
0.0
 70
    32
  0
VERTEX
  5
9115
  8
AM_0
 10
443.8308009059009
 20
109.189741389707
 30
0.0
 70
    32
  0
VERTEX
  5
9116
  8
AM_0
 10
443.82880090590089
 20
109.18574138970681
 30
0.0
 70
    32
  0
VERTEX
  5
9117
  8
AM_0
 10
443.82680090590111
 20
109.1817413897067
 30
0.0
 70
    32
  0
VERTEX
  5
9118
  8
AM_0
 10
443.8248009059011
 20
109.1777413897066
 30
0.0
 70
    32
  0
VERTEX
  5
9119
  8
AM_0
 10
443.82280090590098
 20
109.17374138970651
 30
0.0
 70
    32
  0
VERTEX
  5
911A
  8
AM_0
 10
443.82080090590091
 20
109.1697413897069
 30
0.0
 70
    32
  0
VERTEX
  5
911B
  8
AM_0
 10
443.81980090590088
 20
109.1657413897066
 30
0.0
 70
    32
  0
VERTEX
  5
911C
  8
AM_0
 10
443.81780090590098
 20
109.1627413897068
 30
0.0
 70
    32
  0
VERTEX
  5
911D
  8
AM_0
 10
443.81580090590103
 20
109.15874138970671
 30
0.0
 70
    32
  0
VERTEX
  5
911E
  8
AM_0
 10
443.81380090590091
 20
109.1547413897067
 30
0.0
 70
    32
  0
VERTEX
  5
911F
  8
AM_0
 10
443.81280090590087
 20
109.15074138970679
 30
0.0
 70
    32
  0
VERTEX
  5
9120
  8
AM_0
 10
443.81080090590098
 20
109.1467413897067
 30
0.0
 70
    32
  0
VERTEX
  5
9121
  8
AM_0
 10
443.80880090590102
 20
109.1427413897066
 30
0.0
 70
    32
  0
VERTEX
  5
9122
  8
AM_0
 10
443.8078009059011
 20
109.13874138970679
 30
0.0
 70
    32
  0
VERTEX
  5
9123
  8
AM_0
 10
443.80580090590121
 20
109.1347413897067
 30
0.0
 70
    32
  0
VERTEX
  5
9124
  8
AM_0
 10
443.80380090590103
 20
109.1307413897069
 30
0.0
 70
    32
  0
VERTEX
  5
9125
  8
AM_0
 10
443.80280090590082
 20
109.12674138970689
 30
0.0
 70
    32
  0
VERTEX
  5
9126
  8
AM_0
 10
443.80080090590093
 20
109.1227413897069
 30
0.0
 70
    32
  0
VERTEX
  5
9127
  8
AM_0
 10
443.7998009059009
 20
109.1187413897068
 30
0.0
 70
    32
  0
VERTEX
  5
9128
  8
AM_0
 10
443.79780090590111
 20
109.1147413897065
 30
0.0
 70
    32
  0
VERTEX
  5
9129
  8
AM_0
 10
443.79680090590102
 20
109.110741389707
 30
0.0
 70
    32
  0
VERTEX
  5
912A
  8
AM_0
 10
443.7948009059009
 20
109.1067413897067
 30
0.0
 70
    32
  0
VERTEX
  5
912B
  8
AM_0
 10
443.79380090590081
 20
109.10274138970679
 30
0.0
 70
    32
  0
VERTEX
  5
912C
  8
AM_0
 10
443.79280090590078
 20
109.0987413897071
 30
0.0
 70
    32
  0
VERTEX
  5
912D
  8
AM_0
 10
443.79080090590088
 20
109.0947413897071
 30
0.0
 70
    32
  0
VERTEX
  5
912E
  8
AM_0
 10
443.78980090590102
 20
109.09074138970669
 30
0.0
 70
    32
  0
VERTEX
  5
912F
  8
AM_0
 10
443.7888009059011
 20
109.0867413897067
 30
0.0
 70
    32
  0
VERTEX
  5
9130
  8
AM_0
 10
443.78680090590098
 20
109.0827413897069
 30
0.0
 70
    32
  0
VERTEX
  5
9131
  8
AM_0
 10
443.78580090590111
 20
109.07874138970681
 30
0.0
 70
    32
  0
VERTEX
  5
9132
  8
AM_0
 10
443.78480090590079
 20
109.0747413897066
 30
0.0
 70
    32
  0
VERTEX
  5
9133
  8
AM_0
 10
443.78380090590082
 20
109.06974138970661
 30
0.0
 70
    32
  0
VERTEX
  5
9134
  8
AM_0
 10
443.78280090590101
 20
109.0657413897066
 30
0.0
 70
    32
  0
VERTEX
  5
9135
  8
AM_0
 10
443.78080090590089
 20
109.0617413897068
 30
0.0
 70
    32
  0
VERTEX
  5
9136
  8
AM_0
 10
443.77980090590103
 20
109.05774138970671
 30
0.0
 70
    32
  0
VERTEX
  5
9137
  8
AM_0
 10
443.77880090590111
 20
109.0537413897071
 30
0.0
 70
    32
  0
VERTEX
  5
9138
  8
AM_0
 10
443.77780090590102
 20
109.04974138970699
 30
0.0
 70
    32
  0
VERTEX
  5
9139
  8
AM_0
 10
443.7768009059011
 20
109.0457413897069
 30
0.0
 70
    32
  0
VERTEX
  5
913A
  8
AM_0
 10
443.77580090590089
 20
109.0417413897068
 30
0.0
 70
    32
  0
VERTEX
  5
913B
  8
AM_0
 10
443.7748009059008
 20
109.03674138970671
 30
0.0
 70
    32
  0
VERTEX
  5
913C
  8
AM_0
 10
443.77380090590088
 20
109.0327413897068
 30
0.0
 70
    32
  0
VERTEX
  5
913D
  8
AM_0
 10
443.77280090590091
 20
109.0287413897066
 30
0.0
 70
    32
  0
VERTEX
  5
913E
  8
AM_0
 10
443.77180090590088
 20
109.0247413897067
 30
0.0
 70
    32
  0
VERTEX
  5
913F
  8
AM_0
 10
443.77080090590113
 20
109.0207413897066
 30
0.0
 70
    32
  0
VERTEX
  5
9140
  8
AM_0
 10
443.76980090590098
 20
109.01674138970679
 30
0.0
 70
    32
  0
VERTEX
  5
9141
  8
AM_0
 10
443.76980090590098
 20
109.0117413897065
 30
0.0
 70
    32
  0
VERTEX
  5
9142
  8
AM_0
 10
443.768800905901
 20
109.00774138970669
 30
0.0
 70
    32
  0
VERTEX
  5
9143
  8
AM_0
 10
443.76780090590103
 20
109.0037413897067
 30
0.0
 70
    32
  0
VERTEX
  5
9144
  8
AM_0
 10
443.76680090590099
 20
108.9997413897068
 30
0.0
 70
    32
  0
VERTEX
  5
9145
  8
AM_0
 10
443.7658009059009
 20
108.99574138970701
 30
0.0
 70
    32
  0
VERTEX
  5
9146
  8
AM_0
 10
443.7658009059009
 20
108.9907413897071
 30
0.0
 70
    32
  0
VERTEX
  5
9147
  8
AM_0
 10
443.76480090590081
 20
108.98674138970691
 30
0.0
 70
    32
  0
VERTEX
  5
9148
  8
AM_0
 10
443.76380090590089
 20
108.9827413897068
 30
0.0
 70
    32
  0
VERTEX
  5
9149
  8
AM_0
 10
443.76380090590089
 20
108.9787413897067
 30
0.0
 70
    32
  0
VERTEX
  5
914A
  8
AM_0
 10
443.76280090590092
 20
108.9737413897067
 30
0.0
 70
    32
  0
VERTEX
  5
914B
  8
AM_0
 10
443.761800905901
 20
108.9697413897067
 30
0.0
 70
    32
  0
VERTEX
  5
914C
  8
AM_0
 10
443.761800905901
 20
108.96574138970669
 30
0.0
 70
    32
  0
VERTEX
  5
914D
  8
AM_0
 10
443.76080090590102
 20
108.9617413897067
 30
0.0
 70
    32
  0
VERTEX
  5
914E
  8
AM_0
 10
443.76080090590102
 20
108.95674138970671
 30
0.0
 70
    32
  0
VERTEX
  5
914F
  8
AM_0
 10
443.75980090590087
 20
108.9527413897067
 30
0.0
 70
    32
  0
VERTEX
  5
9150
  8
AM_0
 10
443.75980090590087
 20
108.9487413897066
 30
0.0
 70
    32
  0
VERTEX
  5
9151
  8
AM_0
 10
443.75880090590113
 20
108.94474138970681
 30
0.0
 70
    32
  0
VERTEX
  5
9152
  8
AM_0
 10
443.75880090590113
 20
108.9397413897067
 30
0.0
 70
    32
  0
VERTEX
  5
9153
  8
AM_0
 10
443.75880090590113
 20
108.93574138970681
 30
0.0
 70
    32
  0
VERTEX
  5
9154
  8
AM_0
 10
443.75780090590098
 20
108.9317413897068
 30
0.0
 70
    32
  0
VERTEX
  5
9155
  8
AM_0
 10
443.75780090590098
 20
108.9277413897068
 30
0.0
 70
    32
  0
VERTEX
  5
9156
  8
AM_0
 10
443.75780090590098
 20
108.9227413897068
 30
0.0
 70
    32
  0
VERTEX
  5
9157
  8
AM_0
 10
443.75780090590098
 20
108.9187413897069
 30
0.0
 70
    32
  0
VERTEX
  5
9158
  8
AM_0
 10
443.75680090590112
 20
108.91474138970671
 30
0.0
 70
    32
  0
VERTEX
  5
9159
  8
AM_0
 10
443.75680090590112
 20
108.9107413897065
 30
0.0
 70
    32
  0
VERTEX
  5
915A
  8
AM_0
 10
443.75680090590112
 20
108.9057413897068
 30
0.0
 70
    32
  0
VERTEX
  5
915B
  8
AM_0
 10
443.75680090590112
 20
108.9017413897067
 30
0.0
 70
    32
  0
VERTEX
  5
915C
  8
AM_0
 10
443.75680090590112
 20
108.8977413897067
 30
0.0
 70
    32
  0
VERTEX
  5
915D
  8
AM_0
 10
443.75680090590112
 20
108.8927413897067
 30
0.0
 70
    32
  0
VERTEX
  5
915E
  8
AM_0
 10
443.75680090590112
 20
108.88874138970669
 30
0.0
 70
    32
  0
VERTEX
  5
915F
  8
AM_0
 10
443.75680090590112
 20
108.88474138970651
 30
0.0
 70
    32
  0
VERTEX
  5
9160
  8
AM_0
 10
443.75680090590112
 20
108.880741389707
 30
0.0
 70
    32
  0
VERTEX
  5
9161
  8
AM_0
 10
443.75680090590112
 20
108.8757413897065
 30
0.0
 70
    32
  0
VERTEX
  5
9162
  8
AM_0
 10
443.75780090590098
 20
108.8717413897069
 30
0.0
 70
    32
  0
VERTEX
  5
9163
  8
AM_0
 10
443.75780090590098
 20
108.86774138970679
 30
0.0
 70
    32
  0
VERTEX
  5
9164
  8
AM_0
 10
443.75780090590098
 20
108.8637413897068
 30
0.0
 70
    32
  0
VERTEX
  5
9165
  8
AM_0
 10
443.75780090590098
 20
108.85874138970711
 30
0.0
 70
    32
  0
VERTEX
  5
9166
  8
AM_0
 10
443.75880090590113
 20
108.8547413897068
 30
0.0
 70
    32
  0
VERTEX
  5
9167
  8
AM_0
 10
443.75880090590113
 20
108.8507413897067
 30
0.0
 70
    32
  0
VERTEX
  5
9168
  8
AM_0
 10
443.75880090590113
 20
108.84674138970669
 30
0.0
 70
    32
  0
VERTEX
  5
9169
  8
AM_0
 10
443.75980090590087
 20
108.8417413897067
 30
0.0
 70
    32
  0
VERTEX
  5
916A
  8
AM_0
 10
443.75980090590087
 20
108.83774138970669
 30
0.0
 70
    32
  0
VERTEX
  5
916B
  8
AM_0
 10
443.75980090590087
 20
108.8337413897068
 30
0.0
 70
    32
  0
VERTEX
  5
916C
  8
AM_0
 10
443.76080090590102
 20
108.8297413897067
 30
0.0
 70
    32
  0
VERTEX
  5
916D
  8
AM_0
 10
443.76080090590102
 20
108.8247413897067
 30
0.0
 70
    32
  0
VERTEX
  5
916E
  8
AM_0
 10
443.761800905901
 20
108.8207413897068
 30
0.0
 70
    32
  0
VERTEX
  5
916F
  8
AM_0
 10
443.761800905901
 20
108.81674138970639
 30
0.0
 70
    32
  0
VERTEX
  5
9170
  8
AM_0
 10
443.76280090590092
 20
108.812741389707
 30
0.0
 70
    32
  0
VERTEX
  5
9171
  8
AM_0
 10
443.76280090590092
 20
108.80774138970649
 30
0.0
 70
    32
  0
VERTEX
  5
9172
  8
AM_0
 10
443.76380090590089
 20
108.8037413897069
 30
0.0
 70
    32
  0
VERTEX
  5
9173
  8
AM_0
 10
443.76380090590089
 20
108.7997413897068
 30
0.0
 70
    32
  0
VERTEX
  5
9174
  8
AM_0
 10
443.76480090590081
 20
108.795741389707
 30
0.0
 70
    32
  0
VERTEX
  5
9175
  8
AM_0
 10
443.76480090590081
 20
108.7907413897067
 30
0.0
 70
    32
  0
VERTEX
  5
9176
  8
AM_0
 10
443.7658009059009
 20
108.786741389707
 30
0.0
 70
    32
  0
VERTEX
  5
9177
  8
AM_0
 10
443.7658009059009
 20
108.7827413897067
 30
0.0
 70
    32
  0
VERTEX
  5
9178
  8
AM_0
 10
443.76680090590099
 20
108.7787413897067
 30
0.0
 70
    32
  0
SEQEND
  5
9179
  8
AM_0
  0
LINE
  5
917A
  8
AM_0
 10
456.75684797097472
 20
110.138478105681
 30
0.0
 11
446.2568479709708
 21
110.138478105681
 31
0.0
  0
LINE
  5
917B
  8
AM_0
 10
456.75684797097472
 20
61.428326586663722
 30
0.0
 11
455.2918479709748
 21
52.608326586664248
 31
0.0
  0
POLYLINE
  5
917C
  8
AM_0
 66
     1
 10
0.0
 20
0.0
 30
0.0
 70
     8
  0
VERTEX
  5
917D
  8
AM_0
 10
443.76680090590099
 20
64.018141389706784
 30
0.0
 70
    32
  0
VERTEX
  5
917E
  8
AM_0
 10
443.76780090590103
 20
64.013941389706702
 30
0.0
 70
    32
  0
VERTEX
  5
917F
  8
AM_0
 10
443.768800905901
 20
64.009641389706744
 30
0.0
 70
    32
  0
VERTEX
  5
9180
  8
AM_0
 10
443.76980090590098
 20
64.005441389706903
 30
0.0
 70
    32
  0
VERTEX
  5
9181
  8
AM_0
 10
443.77080090590113
 20
64.001141389706731
 30
0.0
 70
    32
  0
VERTEX
  5
9182
  8
AM_0
 10
443.77180090590088
 20
63.996941389706762
 30
0.0
 70
    32
  0
VERTEX
  5
9183
  8
AM_0
 10
443.77280090590091
 20
63.992641389706712
 30
0.0
 70
    32
  0
VERTEX
  5
9184
  8
AM_0
 10
443.77380090590088
 20
63.988441389707177
 30
0.0
 70
    32
  0
VERTEX
  5
9185
  8
AM_0
 10
443.7748009059008
 20
63.984241389706767
 30
0.0
 70
    32
  0
VERTEX
  5
9186
  8
AM_0
 10
443.77580090590089
 20
63.979941389707051
 30
0.0
 70
    32
  0
VERTEX
  5
9187
  8
AM_0
 10
443.7768009059011
 20
63.975741389706748
 30
0.0
 70
    32
  0
VERTEX
  5
9188
  8
AM_0
 10
443.77780090590102
 20
63.971541389706772
 30
0.0
 70
    32
  0
VERTEX
  5
9189
  8
AM_0
 10
443.77880090590111
 20
63.967241389707048
 30
0.0
 70
    32
  0
VERTEX
  5
918A
  8
AM_0
 10
443.77980090590103
 20
63.963041389706518
 30
0.0
 70
    32
  0
VERTEX
  5
918B
  8
AM_0
 10
443.78080090590089
 20
63.958841389706791
 30
0.0
 70
    32
  0
VERTEX
  5
918C
  8
AM_0
 10
443.78180090590092
 20
63.954641389707128
 30
0.0
 70
    32
  0
VERTEX
  5
918D
  8
AM_0
 10
443.78280090590101
 20
63.950441389706711
 30
0.0
 70
    32
  0
VERTEX
  5
918E
  8
AM_0
 10
443.78480090590079
 20
63.946241389706763
 30
0.0
 70
    32
  0
VERTEX
  5
918F
  8
AM_0
 10
443.78580090590111
 20
63.942041389707242
 30
0.0
 70
    32
  0
VERTEX
  5
9190
  8
AM_0
 10
443.78680090590098
 20
63.9379413897069
 30
0.0
 70
    32
  0
VERTEX
  5
9191
  8
AM_0
 10
443.78780090590112
 20
63.933741389706711
 30
0.0
 70
    32
  0
VERTEX
  5
9192
  8
AM_0
 10
443.7888009059011
 20
63.929541389706742
 30
0.0
 70
    32
  0
VERTEX
  5
9193
  8
AM_0
 10
443.79080090590088
 20
63.925441389706862
 30
0.0
 70
    32
  0
VERTEX
  5
9194
  8
AM_0
 10
443.79180090590103
 20
63.921241389706658
 30
0.0
 70
    32
  0
VERTEX
  5
9195
  8
AM_0
 10
443.79280090590078
 20
63.917141389706778
 30
0.0
 70
    32
  0
VERTEX
  5
9196
  8
AM_0
 10
443.7948009059009
 20
63.913041389706891
 30
0.0
 70
    32
  0
VERTEX
  5
9197
  8
AM_0
 10
443.7958009059011
 20
63.90894138970679
 30
0.0
 70
    32
  0
VERTEX
  5
9198
  8
AM_0
 10
443.79680090590102
 20
63.9047413897067
 30
0.0
 70
    32
  0
VERTEX
  5
9199
  8
AM_0
 10
443.79880090590098
 20
63.900741389706809
 30
0.0
 70
    32
  0
VERTEX
  5
919A
  8
AM_0
 10
443.7998009059009
 20
63.896641389706929
 30
0.0
 70
    32
  0
VERTEX
  5
919B
  8
AM_0
 10
443.80180090590102
 20
63.892541389706921
 30
0.0
 70
    32
  0
VERTEX
  5
919C
  8
AM_0
 10
443.80280090590082
 20
63.88844138970704
 30
0.0
 70
    32
  0
VERTEX
  5
919D
  8
AM_0
 10
443.80480090590112
 20
63.884441389706929
 30
0.0
 70
    32
  0
VERTEX
  5
919E
  8
AM_0
 10
443.80580090590121
 20
63.8803413897067
 30
0.0
 70
    32
  0
VERTEX
  5
919F
  8
AM_0
 10
443.8078009059011
 20
63.876341389706887
 30
0.0
 70
    32
  0
VERTEX
  5
91A0
  8
AM_0
 10
443.809800905901
 20
63.872341389706889
 30
0.0
 70
    32
  0
VERTEX
  5
91A1
  8
AM_0
 10
443.81080090590098
 20
63.868341389706757
 30
0.0
 70
    32
  0
VERTEX
  5
91A2
  8
AM_0
 10
443.81280090590087
 20
63.864341389706851
 30
0.0
 70
    32
  0
VERTEX
  5
91A3
  8
AM_0
 10
443.81480090590122
 20
63.860341389706697
 30
0.0
 70
    32
  0
VERTEX
  5
91A4
  8
AM_0
 10
443.81680090590112
 20
63.856341389706706
 30
0.0
 70
    32
  0
VERTEX
  5
91A5
  8
AM_0
 10
443.81780090590098
 20
63.852441389706662
 30
0.0
 70
    32
  0
VERTEX
  5
91A6
  8
AM_0
 10
443.81980090590088
 20
63.848441389706849
 30
0.0
 70
    32
  0
VERTEX
  5
91A7
  8
AM_0
 10
443.821800905901
 20
63.844541389706919
 30
0.0
 70
    32
  0
VERTEX
  5
91A8
  8
AM_0
 10
443.82380090590078
 20
63.840541389706679
 30
0.0
 70
    32
  0
VERTEX
  5
91A9
  8
AM_0
 10
443.82580090590102
 20
63.836641389706763
 30
0.0
 70
    32
  0
VERTEX
  5
91AA
  8
AM_0
 10
443.82780090590092
 20
63.832741389706698
 30
0.0
 70
    32
  0
VERTEX
  5
91AB
  8
AM_0
 10
443.82980090590098
 20
63.828841389706561
 30
0.0
 70
    32
  0
VERTEX
  5
91AC
  8
AM_0
 10
443.83180090590088
 20
63.824941389706851
 30
0.0
 70
    32
  0
VERTEX
  5
91AD
  8
AM_0
 10
443.83380090590123
 20
63.82104138970692
 30
0.0
 70
    32
  0
VERTEX
  5
91AE
  8
AM_0
 10
443.83580090590112
 20
63.817141389706542
 30
0.0
 70
    32
  0
VERTEX
  5
91AF
  8
AM_0
 10
443.83780090590091
 20
63.813341389706927
 30
0.0
 70
    32
  0
VERTEX
  5
91B0
  8
AM_0
 10
443.83980090590092
 20
63.809441389706762
 30
0.0
 70
    32
  0
VERTEX
  5
91B1
  8
AM_0
 10
443.84180090590093
 20
63.805641389706928
 30
0.0
 70
    32
  0
VERTEX
  5
91B2
  8
AM_0
 10
443.84380090590099
 20
63.80184138970673
 30
0.0
 70
    32
  0
VERTEX
  5
91B3
  8
AM_0
 10
443.84580090590111
 20
63.797941389707262
 30
0.0
 70
    32
  0
VERTEX
  5
91B4
  8
AM_0
 10
443.8478009059009
 20
63.794141389706631
 30
0.0
 70
    32
  0
VERTEX
  5
91B5
  8
AM_0
 10
443.84980090590091
 20
63.790341389706889
 30
0.0
 70
    32
  0
VERTEX
  5
91B6
  8
AM_0
 10
443.8518009059008
 20
63.786641389706901
 30
0.0
 70
    32
  0
VERTEX
  5
91B7
  8
AM_0
 10
443.85380090590098
 20
63.782841389706732
 30
0.0
 70
    32
  0
VERTEX
  5
91B8
  8
AM_0
 10
443.85680090590091
 20
63.779041389706997
 30
0.0
 70
    32
  0
VERTEX
  5
91B9
  8
AM_0
 10
443.85880090590092
 20
63.775341389706803
 30
0.0
 70
    32
  0
VERTEX
  5
91BA
  8
AM_0
 10
443.86080090590082
 20
63.77154138970706
 30
0.0
 70
    32
  0
VERTEX
  5
91BB
  8
AM_0
 10
443.862800905901
 20
63.767841389706859
 30
0.0
 70
    32
  0
VERTEX
  5
91BC
  8
AM_0
 10
443.86580090590093
 20
63.764141389706772
 30
0.0
 70
    32
  0
VERTEX
  5
91BD
  8
AM_0
 10
443.86780090590088
 20
63.760341389706802
 30
0.0
 70
    32
  0
VERTEX
  5
91BE
  8
AM_0
 10
443.869800905901
 20
63.756641389706701
 30
0.0
 70
    32
  0
VERTEX
  5
91BF
  8
AM_0
 10
443.8718009059009
 20
63.753041389706937
 30
0.0
 70
    32
  0
VERTEX
  5
91C0
  8
AM_0
 10
443.874800905901
 20
63.74934138970707
 30
0.0
 70
    32
  0
VERTEX
  5
91C1
  8
AM_0
 10
443.87680090590101
 20
63.745641389706527
 30
0.0
 70
    32
  0
VERTEX
  5
91C2
  8
AM_0
 10
443.8788009059009
 20
63.742041389706742
 30
0.0
 70
    32
  0
VERTEX
  5
91C3
  8
AM_0
 10
443.88180090590112
 20
63.738341389706747
 30
0.0
 70
    32
  0
VERTEX
  5
91C4
  8
AM_0
 10
443.88380090590101
 20
63.734741389706741
 30
0.0
 70
    32
  0
VERTEX
  5
91C5
  8
AM_0
 10
443.886800905901
 20
63.731041389706661
 30
0.0
 70
    32
  0
VERTEX
  5
91C6
  8
AM_0
 10
443.88880090590089
 20
63.727441389706769
 30
0.0
 70
    32
  0
VERTEX
  5
91C7
  8
AM_0
 10
443.89080090590102
 20
63.72384138970677
 30
0.0
 70
    32
  0
VERTEX
  5
91C8
  8
AM_0
 10
443.89380090590112
 20
63.720241389706644
 30
0.0
 70
    32
  0
VERTEX
  5
91C9
  8
AM_0
 10
443.8958009059009
 20
63.716741389706712
 30
0.0
 70
    32
  0
VERTEX
  5
91CA
  8
AM_0
 10
443.89880090590083
 20
63.713141389707062
 30
0.0
 70
    32
  0
VERTEX
  5
91CB
  8
AM_0
 10
443.90080090590078
 20
63.7095413897067
 30
0.0
 70
    32
  0
VERTEX
  5
91CC
  8
AM_0
 10
443.90380090590111
 20
63.706041389706911
 30
0.0
 70
    32
  0
VERTEX
  5
91CD
  8
AM_0
 10
443.90580090590089
 20
63.70254138970688
 30
0.0
 70
    32
  0
VERTEX
  5
91CE
  8
AM_0
 10
443.90880090590088
 20
63.699041389706963
 30
0.0
 70
    32
  0
VERTEX
  5
91CF
  8
AM_0
 10
443.91180090590098
 20
63.695441389706723
 30
0.0
 70
    32
  0
VERTEX
  5
91D0
  8
AM_0
 10
443.9138009059011
 20
63.692041389706901
 30
0.0
 70
    32
  0
VERTEX
  5
91D1
  8
AM_0
 10
443.91680090590091
 20
63.688541389706643
 30
0.0
 70
    32
  0
VERTEX
  5
91D2
  8
AM_0
 10
443.91880090590098
 20
63.68504138970696
 30
0.0
 70
    32
  0
VERTEX
  5
91D3
  8
AM_0
 10
443.92180090590102
 20
63.681541389706787
 30
0.0
 70
    32
  0
VERTEX
  5
91D4
  8
AM_0
 10
443.9248009059009
 20
63.678141389706752
 30
0.0
 70
    32
  0
VERTEX
  5
91D5
  8
AM_0
 10
443.9268009059009
 20
63.674641389706707
 30
0.0
 70
    32
  0
VERTEX
  5
91D6
  8
AM_0
 10
443.92980090590117
 20
63.671241389706537
 30
0.0
 70
    32
  0
VERTEX
  5
91D7
  8
AM_0
 10
443.9328009059011
 20
63.667841389706958
 30
0.0
 70
    32
  0
VERTEX
  5
91D8
  8
AM_0
 10
443.934800905901
 20
63.66444138970666
 30
0.0
 70
    32
  0
VERTEX
  5
91D9
  8
AM_0
 10
443.93780090590087
 20
63.661041389707059
 30
0.0
 70
    32
  0
VERTEX
  5
91DA
  8
AM_0
 10
443.94080090590103
 20
63.657641389706889
 30
0.0
 70
    32
  0
VERTEX
  5
91DB
  8
AM_0
 10
443.9438009059009
 20
63.654341389706929
 30
0.0
 70
    32
  0
VERTEX
  5
91DC
  8
AM_0
 10
443.94580090590091
 20
63.650941389706652
 30
0.0
 70
    32
  0
VERTEX
  5
91DD
  8
AM_0
 10
443.9488009059009
 20
63.647641389706912
 30
0.0
 70
    32
  0
VERTEX
  5
91DE
  8
AM_0
 10
443.951800905901
 20
63.644241389706721
 30
0.0
 70
    32
  0
VERTEX
  5
91DF
  8
AM_0
 10
443.95480090590092
 20
63.640941389706782
 30
0.0
 70
    32
  0
VERTEX
  5
91E0
  8
AM_0
 10
443.95680090590088
 20
63.637641389707262
 30
0.0
 70
    32
  0
VERTEX
  5
91E1
  8
AM_0
 10
443.95980090590098
 20
63.63434138970706
 30
0.0
 70
    32
  0
VERTEX
  5
91E2
  8
AM_0
 10
443.96280090590102
 20
63.631041389706752
 30
0.0
 70
    32
  0
VERTEX
  5
91E3
  8
AM_0
 10
443.96580090590089
 20
63.627741389706891
 30
0.0
 70
    32
  0
VERTEX
  5
91E4
  8
AM_0
 10
443.96880090590099
 20
63.62444138970671
 30
0.0
 70
    32
  0
VERTEX
  5
91E5
  8
AM_0
 10
443.97180090590098
 20
63.621241389706469
 30
0.0
 70
    32
  0
VERTEX
  5
91E6
  8
AM_0
 10
443.97480090590091
 20
63.617941389706857
 30
0.0
 70
    32
  0
VERTEX
  5
91E7
  8
AM_0
 10
443.97780090590101
 20
63.61474138970685
 30
0.0
 70
    32
  0
VERTEX
  5
91E8
  8
AM_0
 10
443.98080090590111
 20
63.611541389707099
 30
0.0
 70
    32
  0
VERTEX
  5
91E9
  8
AM_0
 10
443.982800905901
 20
63.608341389706773
 30
0.0
 70
    32
  0
VERTEX
  5
91EA
  8
AM_0
 10
443.98580090590082
 20
63.605141389706532
 30
0.0
 70
    32
  0
VERTEX
  5
91EB
  8
AM_0
 10
443.98880090590097
 20
63.601941389706781
 30
0.0
 70
    32
  0
VERTEX
  5
91EC
  8
AM_0
 10
443.99180090590102
 20
63.598741389706781
 30
0.0
 70
    32
  0
VERTEX
  5
91ED
  8
AM_0
 10
443.99480090590077
 20
63.595541389706788
 30
0.0
 70
    32
  0
VERTEX
  5
91EE
  8
AM_0
 10
443.9978009059011
 20
63.592441389706771
 30
0.0
 70
    32
  0
VERTEX
  5
91EF
  8
AM_0
 10
444.00080090590097
 20
63.589241389706778
 30
0.0
 70
    32
  0
VERTEX
  5
91F0
  8
AM_0
 10
444.0038009059009
 20
63.586141389706761
 30
0.0
 70
    32
  0
VERTEX
  5
91F1
  8
AM_0
 10
444.00680090590112
 20
63.583041389706523
 30
0.0
 70
    32
  0
VERTEX
  5
91F2
  8
AM_0
 10
444.0098009059011
 20
63.57984138970675
 30
0.0
 70
    32
  0
VERTEX
  5
91F3
  8
AM_0
 10
444.01280090590097
 20
63.576741389706612
 30
0.0
 70
    32
  0
VERTEX
  5
91F4
  8
AM_0
 10
444.01580090590079
 20
63.573641389706708
 30
0.0
 70
    32
  0
VERTEX
  5
91F5
  8
AM_0
 10
444.01880090590112
 20
63.5706413897069
 30
0.0
 70
    32
  0
VERTEX
  5
91F6
  8
AM_0
 10
444.02280090590091
 20
63.567541389706783
 30
0.0
 70
    32
  0
VERTEX
  5
91F7
  8
AM_0
 10
444.02580090590078
 20
63.564441389706637
 30
0.0
 70
    32
  0
VERTEX
  5
91F8
  8
AM_0
 10
444.02880090590111
 20
63.561441389706701
 30
0.0
 70
    32
  0
VERTEX
  5
91F9
  8
AM_0
 10
444.03180090590092
 20
63.558341389706712
 30
0.0
 70
    32
  0
VERTEX
  5
91FA
  8
AM_0
 10
444.03480090590079
 20
63.555341389707102
 30
0.0
 70
    32
  0
VERTEX
  5
91FB
  8
AM_0
 10
444.03780090590112
 20
63.552341389706719
 30
0.0
 70
    32
  0
VERTEX
  5
91FC
  8
AM_0
 10
444.04080090590111
 20
63.54934138970679
 30
0.0
 70
    32
  0
VERTEX
  5
91FD
  8
AM_0
 10
444.04380090590081
 20
63.54634138970674
 30
0.0
 70
    32
  0
VERTEX
  5
91FE
  8
AM_0
 10
444.04780090590111
 20
63.543341389706711
 30
0.0
 70
    32
  0
VERTEX
  5
91FF
  8
AM_0
 10
444.05080090590081
 20
63.540341389706782
 30
0.0
 70
    32
  0
VERTEX
  5
9200
  8
AM_0
 10
444.0538009059008
 20
63.537341389706746
 30
0.0
 70
    32
  0
VERTEX
  5
9201
  8
AM_0
 10
444.05680090590113
 20
63.534441389706899
 30
0.0
 70
    32
  0
VERTEX
  5
9202
  8
AM_0
 10
444.059800905901
 20
63.531441389706849
 30
0.0
 70
    32
  0
VERTEX
  5
9203
  8
AM_0
 10
444.06280090590081
 20
63.528541389706803
 30
0.0
 70
    32
  0
VERTEX
  5
9204
  8
AM_0
 10
444.066800905901
 20
63.525541389706632
 30
0.0
 70
    32
  0
VERTEX
  5
9205
  8
AM_0
 10
444.06980090590088
 20
63.522641389706571
 30
0.0
 70
    32
  0
VERTEX
  5
9206
  8
AM_0
 10
444.07280090590081
 20
63.519741389706709
 30
0.0
 70
    32
  0
VERTEX
  5
9207
  8
AM_0
 10
444.07580090590102
 20
63.516841389706642
 30
0.0
 70
    32
  0
VERTEX
  5
9208
  8
AM_0
 10
444.07980090590092
 20
63.513941389706709
 30
0.0
 70
    32
  0
VERTEX
  5
9209
  8
AM_0
 10
444.08280090590102
 20
63.511041389706861
 30
0.0
 70
    32
  0
VERTEX
  5
920A
  8
AM_0
 10
444.08580090590112
 20
63.508241389706761
 30
0.0
 70
    32
  0
VERTEX
  5
920B
  8
AM_0
 10
444.088800905901
 20
63.505341389707041
 30
0.0
 70
    32
  0
VERTEX
  5
920C
  8
AM_0
 10
444.09280090590158
 20
63.502541389706707
 30
0.0
 70
    32
  0
VERTEX
  5
920D
  8
AM_0
 10
444.09580090590111
 20
63.49964138970666
 30
0.0
 70
    32
  0
VERTEX
  5
920E
  8
AM_0
 10
444.09880090590087
 20
63.496841389706901
 30
0.0
 70
    32
  0
VERTEX
  5
920F
  8
AM_0
 10
444.10280090590112
 20
63.494041389706929
 30
0.0
 70
    32
  0
VERTEX
  5
9210
  8
AM_0
 10
444.10580090590111
 20
63.491241389706943
 30
0.0
 70
    32
  0
VERTEX
  5
9211
  8
AM_0
 10
444.10880090590098
 20
63.488441389706622
 30
0.0
 70
    32
  0
VERTEX
  5
9212
  8
AM_0
 10
444.11280090590122
 20
63.485641389706757
 30
0.0
 70
    32
  0
VERTEX
  5
9213
  8
AM_0
 10
444.1158009059011
 20
63.482841389706891
 30
0.0
 70
    32
  0
VERTEX
  5
9214
  8
AM_0
 10
444.11880090590091
 20
63.48004138970726
 30
0.0
 70
    32
  0
VERTEX
  5
9215
  8
AM_0
 10
444.1228009059011
 20
63.477341389707142
 30
0.0
 70
    32
  0
VERTEX
  5
9216
  8
AM_0
 10
444.12580090590092
 20
63.474541389706708
 30
0.0
 70
    32
  0
VERTEX
  5
9217
  8
AM_0
 10
444.1288009059009
 20
63.471841389706462
 30
0.0
 70
    32
  0
VERTEX
  5
9218
  8
AM_0
 10
444.13280090590098
 20
63.46904138970671
 30
0.0
 70
    32
  0
VERTEX
  5
9219
  8
AM_0
 10
444.13580090590091
 20
63.466341389706713
 30
0.0
 70
    32
  0
VERTEX
  5
921A
  8
AM_0
 10
444.13980090590093
 20
63.463641389706481
 30
0.0
 70
    32
  0
VERTEX
  5
921B
  8
AM_0
 10
444.14280090590103
 20
63.460941389706697
 30
0.0
 70
    32
  0
VERTEX
  5
921C
  8
AM_0
 10
444.14580090590113
 20
63.458241389706927
 30
0.0
 70
    32
  0
VERTEX
  5
921D
  8
AM_0
 10
444.1498009059008
 20
63.455541389706923
 30
0.0
 70
    32
  0
VERTEX
  5
921E
  8
AM_0
 10
444.15280090590102
 20
63.452841389706791
 30
0.0
 70
    32
  0
VERTEX
  5
921F
  8
AM_0
 10
444.15680090590092
 20
63.450241389706541
 30
0.0
 70
    32
  0
VERTEX
  5
9220
  8
AM_0
 10
444.15980090590079
 20
63.447541389706529
 30
0.0
 70
    32
  0
VERTEX
  5
9221
  8
AM_0
 10
444.1638009059011
 20
63.444841389706532
 30
0.0
 70
    32
  0
VERTEX
  5
9222
  8
AM_0
 10
444.16680090590091
 20
63.442241389706723
 30
0.0
 70
    32
  0
VERTEX
  5
9223
  8
AM_0
 10
444.1698009059009
 20
63.439641389706708
 30
0.0
 70
    32
  0
VERTEX
  5
9224
  8
AM_0
 10
444.17380090590098
 20
63.437041389706792
 30
0.0
 70
    32
  0
VERTEX
  5
9225
  8
AM_0
 10
444.17680090590102
 20
63.434341389706681
 30
0.0
 70
    32
  0
VERTEX
  5
9226
  8
AM_0
 10
444.18080090590098
 20
63.43174138970663
 30
0.0
 70
    32
  0
VERTEX
  5
9227
  8
AM_0
 10
444.18380090590102
 20
63.42914138970707
 30
0.0
 70
    32
  0
VERTEX
  5
9228
  8
AM_0
 10
444.18780090590081
 20
63.426641389706788
 30
0.0
 70
    32
  0
VERTEX
  5
9229
  8
AM_0
 10
444.19080090590103
 20
63.424041389706751
 30
0.0
 70
    32
  0
VERTEX
  5
922A
  8
AM_0
 10
444.19480090590088
 20
63.42144138970707
 30
0.0
 70
    32
  0
VERTEX
  5
922B
  8
AM_0
 10
444.19780090590098
 20
63.418941389706802
 30
0.0
 70
    32
  0
VERTEX
  5
922C
  8
AM_0
 10
444.20180090590111
 20
63.416341389706652
 30
0.0
 70
    32
  0
VERTEX
  5
922D
  8
AM_0
 10
444.20480090590098
 20
63.413841389706711
 30
0.0
 70
    32
  0
VERTEX
  5
922E
  8
AM_0
 10
444.20880090590123
 20
63.411241389706888
 30
0.0
 70
    32
  0
VERTEX
  5
922F
  8
AM_0
 10
444.2118009059011
 20
63.408741389707082
 30
0.0
 70
    32
  0
VERTEX
  5
9230
  8
AM_0
 10
444.21580090590089
 20
63.406241389706899
 30
0.0
 70
    32
  0
VERTEX
  5
9231
  8
AM_0
 10
444.21980090590102
 20
63.403741389706632
 30
0.0
 70
    32
  0
VERTEX
  5
9232
  8
AM_0
 10
444.2228009059009
 20
63.40124138970679
 30
0.0
 70
    32
  0
VERTEX
  5
9233
  8
AM_0
 10
444.2268009059008
 20
63.398741389706849
 30
0.0
 70
    32
  0
VERTEX
  5
9234
  8
AM_0
 10
444.22980090590102
 20
63.396241389706802
 30
0.0
 70
    32
  0
VERTEX
  5
9235
  8
AM_0
 10
444.23380090590092
 20
63.393841389706722
 30
0.0
 70
    32
  0
VERTEX
  5
9236
  8
AM_0
 10
444.23680090590079
 20
63.391341389706781
 30
0.0
 70
    32
  0
VERTEX
  5
9237
  8
AM_0
 10
444.24080090590093
 20
63.388941389706929
 30
0.0
 70
    32
  0
VERTEX
  5
9238
  8
AM_0
 10
444.24480090590112
 20
63.38644138970686
 30
0.0
 70
    32
  0
VERTEX
  5
9239
  8
AM_0
 10
444.24780090590099
 20
63.384041389706901
 30
0.0
 70
    32
  0
VERTEX
  5
923A
  8
AM_0
 10
444.25180090590112
 20
63.381641389706722
 30
0.0
 70
    32
  0
VERTEX
  5
923B
  8
AM_0
 10
444.25480090590088
 20
63.379141389706781
 30
0.0
 70
    32
  0
VERTEX
  5
923C
  8
AM_0
 10
444.25880090590113
 20
63.376741389706801
 30
0.0
 70
    32
  0
VERTEX
  5
923D
  8
AM_0
 10
444.26280090590092
 20
63.374341389706963
 30
0.0
 70
    32
  0
VERTEX
  5
923E
  8
AM_0
 10
444.2658009059009
 20
63.371941389706762
 30
0.0
 70
    32
  0
VERTEX
  5
923F
  8
AM_0
 10
444.26980090590098
 20
63.369541389706569
 30
0.0
 70
    32
  0
VERTEX
  5
9240
  8
AM_0
 10
444.27380090590083
 20
63.367241389706791
 30
0.0
 70
    32
  0
VERTEX
  5
9241
  8
AM_0
 10
444.2768009059011
 20
63.364841389706953
 30
0.0
 70
    32
  0
VERTEX
  5
9242
  8
AM_0
 10
444.28080090590089
 20
63.362441389706881
 30
0.0
 70
    32
  0
VERTEX
  5
9243
  8
AM_0
 10
444.28480090590102
 20
63.360141389706641
 30
0.0
 70
    32
  0
VERTEX
  5
9244
  8
AM_0
 10
444.28780090590112
 20
63.357741389706888
 30
0.0
 70
    32
  0
VERTEX
  5
9245
  8
AM_0
 10
444.29180090590103
 20
63.355441389706932
 30
0.0
 70
    32
  0
VERTEX
  5
9246
  8
AM_0
 10
444.2958009059011
 20
63.3531413897067
 30
0.0
 70
    32
  0
VERTEX
  5
9247
  8
AM_0
 10
444.29880090590098
 20
63.350841389706929
 30
0.0
 70
    32
  0
VERTEX
  5
9248
  8
AM_0
 10
444.30280090590088
 20
63.348541389706732
 30
0.0
 70
    32
  0
VERTEX
  5
9249
  8
AM_0
 10
444.30680090590113
 20
63.346141389706638
 30
0.0
 70
    32
  0
VERTEX
  5
924A
  8
AM_0
 10
444.309800905901
 20
63.343941389706629
 30
0.0
 70
    32
  0
VERTEX
  5
924B
  8
AM_0
 10
444.31380090590079
 20
63.341641389706538
 30
0.0
 70
    32
  0
VERTEX
  5
924C
  8
AM_0
 10
444.31780090590098
 20
63.33934138970676
 30
0.0
 70
    32
  0
VERTEX
  5
924D
  8
AM_0
 10
444.32080090590091
 20
63.337041389706769
 30
0.0
 70
    32
  0
VERTEX
  5
924E
  8
AM_0
 10
444.32480090590099
 20
63.334741389706792
 30
0.0
 70
    32
  0
VERTEX
  5
924F
  8
AM_0
 10
444.32880090590089
 20
63.332541389706762
 30
0.0
 70
    32
  0
VERTEX
  5
9250
  8
AM_0
 10
444.3328009059008
 20
63.330241389706771
 30
0.0
 70
    32
  0
VERTEX
  5
9251
  8
AM_0
 10
444.33580090590112
 20
63.328041389706762
 30
0.0
 70
    32
  0
VERTEX
  5
9252
  8
AM_0
 10
444.33980090590092
 20
63.325841389706632
 30
0.0
 70
    32
  0
VERTEX
  5
9253
  8
AM_0
 10
444.34380090590099
 20
63.323541389706747
 30
0.0
 70
    32
  0
VERTEX
  5
9254
  8
AM_0
 10
444.34680090590092
 20
63.321341389706731
 30
0.0
 70
    32
  0
VERTEX
  5
9255
  8
AM_0
 10
444.35080090590088
 20
63.319141389707063
 30
0.0
 70
    32
  0
VERTEX
  5
9256
  8
AM_0
 10
444.35480090590102
 20
63.316941389706713
 30
0.0
 70
    32
  0
VERTEX
  5
9257
  8
AM_0
 10
444.35880090590092
 20
63.314741389706803
 30
0.0
 70
    32
  0
VERTEX
  5
9258
  8
AM_0
 10
444.36180090590091
 20
63.312541389707008
 30
0.0
 70
    32
  0
VERTEX
  5
9259
  8
AM_0
 10
444.3658009059011
 20
63.310441389706753
 30
0.0
 70
    32
  0
VERTEX
  5
925A
  8
AM_0
 10
444.36980090590089
 20
63.308241389706957
 30
0.0
 70
    32
  0
VERTEX
  5
925B
  8
AM_0
 10
444.37380090590102
 20
63.306041389706479
 30
0.0
 70
    32
  0
VERTEX
  5
925C
  8
AM_0
 10
444.37780090590093
 20
63.303941389706779
 30
0.0
 70
    32
  0
VERTEX
  5
925D
  8
AM_0
 10
444.38080090590103
 20
63.301741389707097
 30
0.0
 70
    32
  0
VERTEX
  5
925E
  8
AM_0
 10
444.3848009059011
 20
63.299641389706707
 30
0.0
 70
    32
  0
VERTEX
  5
925F
  8
AM_0
 10
444.38880090590078
 20
63.297441389706918
 30
0.0
 70
    32
  0
VERTEX
  5
9260
  8
AM_0
 10
444.39280090590103
 20
63.29534138970665
 30
0.0
 70
    32
  0
VERTEX
  5
9261
  8
AM_0
 10
444.3958009059009
 20
63.29324138970685
 30
0.0
 70
    32
  0
VERTEX
  5
9262
  8
AM_0
 10
444.39980090590097
 20
63.291141389706787
 30
0.0
 70
    32
  0
VERTEX
  5
9263
  8
AM_0
 10
444.40380090590111
 20
63.289041389706782
 30
0.0
 70
    32
  0
VERTEX
  5
9264
  8
AM_0
 10
444.4078009059009
 20
63.286941389706712
 30
0.0
 70
    32
  0
VERTEX
  5
9265
  8
AM_0
 10
444.41180090590092
 20
63.284841389706791
 30
0.0
 70
    32
  0
VERTEX
  5
9266
  8
AM_0
 10
444.41580090590088
 20
63.282741389706537
 30
0.0
 70
    32
  0
VERTEX
  5
9267
  8
AM_0
 10
444.41880090590098
 20
63.280641389706702
 30
0.0
 70
    32
  0
VERTEX
  5
9268
  8
AM_0
 10
444.42280090590111
 20
63.27864138970665
 30
0.0
 70
    32
  0
VERTEX
  5
9269
  8
AM_0
 10
444.4268009059009
 20
63.276541389707063
 30
0.0
 70
    32
  0
VERTEX
  5
926A
  8
AM_0
 10
444.43080090590098
 20
63.274441389706801
 30
0.0
 70
    32
  0
VERTEX
  5
926B
  8
AM_0
 10
444.43480090590111
 20
63.272441389706728
 30
0.0
 70
    32
  0
VERTEX
  5
926C
  8
AM_0
 10
444.43780090590087
 20
63.270341389706793
 30
0.0
 70
    32
  0
VERTEX
  5
926D
  8
AM_0
 10
444.44180090590112
 20
63.268341389707061
 30
0.0
 70
    32
  0
VERTEX
  5
926E
  8
AM_0
 10
444.44580090590091
 20
63.266341389706781
 30
0.0
 70
    32
  0
VERTEX
  5
926F
  8
AM_0
 10
444.44980090590099
 20
63.264341389706722
 30
0.0
 70
    32
  0
VERTEX
  5
9270
  8
AM_0
 10
444.45380090590089
 20
63.262341389706762
 30
0.0
 70
    32
  0
VERTEX
  5
9271
  8
AM_0
 10
444.4578009059008
 20
63.260341389706923
 30
0.0
 70
    32
  0
VERTEX
  5
9272
  8
AM_0
 10
444.4618009059011
 20
63.258341389706857
 30
0.0
 70
    32
  0
VERTEX
  5
9273
  8
AM_0
 10
444.46480090590092
 20
63.256341389706897
 30
0.0
 70
    32
  0
VERTEX
  5
9274
  8
AM_0
 10
444.46880090590111
 20
63.25434138970671
 30
0.0
 70
    32
  0
VERTEX
  5
9275
  8
AM_0
 10
444.4728009059009
 20
63.252341389706771
 30
0.0
 70
    32
  0
VERTEX
  5
9276
  8
AM_0
 10
444.47680090590097
 20
63.250341389706932
 30
0.0
 70
    32
  0
VERTEX
  5
9277
  8
AM_0
 10
444.48080090590111
 20
63.248441389706713
 30
0.0
 70
    32
  0
VERTEX
  5
9278
  8
AM_0
 10
444.4848009059009
 20
63.246441389706888
 30
0.0
 70
    32
  0
VERTEX
  5
9279
  8
AM_0
 10
444.48880090590097
 20
63.244541389706789
 30
0.0
 70
    32
  0
VERTEX
  5
927A
  8
AM_0
 10
444.49280090590088
 20
63.24254138970673
 30
0.0
 70
    32
  0
VERTEX
  5
927B
  8
AM_0
 10
444.49680090590078
 20
63.240641389706752
 30
0.0
 70
    32
  0
VERTEX
  5
927C
  8
AM_0
 10
444.49980090590111
 20
63.238741389706888
 30
0.0
 70
    32
  0
VERTEX
  5
927D
  8
AM_0
 10
444.5038009059009
 20
63.236741389706701
 30
0.0
 70
    32
  0
VERTEX
  5
927E
  8
AM_0
 10
444.50780090590098
 20
63.234841389706723
 30
0.0
 70
    32
  0
VERTEX
  5
927F
  8
AM_0
 10
444.511800905901
 20
63.232941389706873
 30
0.0
 70
    32
  0
VERTEX
  5
9280
  8
AM_0
 10
444.51580090590079
 20
63.231041389706661
 30
0.0
 70
    32
  0
VERTEX
  5
9281
  8
AM_0
 10
444.51980090590092
 20
63.229141389706911
 30
0.0
 70
    32
  0
VERTEX
  5
9282
  8
AM_0
 10
444.523800905901
 20
63.227241389706698
 30
0.0
 70
    32
  0
VERTEX
  5
9283
  8
AM_0
 10
444.52780090590102
 20
63.22544138970671
 30
0.0
 70
    32
  0
VERTEX
  5
9284
  8
AM_0
 10
444.53180090590092
 20
63.223541389706718
 30
0.0
 70
    32
  0
VERTEX
  5
9285
  8
AM_0
 10
444.53580090590111
 20
63.22164138970674
 30
0.0
 70
    32
  0
VERTEX
  5
9286
  8
AM_0
 10
444.53980090590102
 20
63.219841389706737
 30
0.0
 70
    32
  0
VERTEX
  5
9287
  8
AM_0
 10
444.542800905901
 20
63.217941389706773
 30
0.0
 70
    32
  0
VERTEX
  5
9288
  8
AM_0
 10
444.54680090590102
 20
63.21614138970677
 30
0.0
 70
    32
  0
VERTEX
  5
9289
  8
AM_0
 10
444.55080090590093
 20
63.214241389706778
 30
0.0
 70
    32
  0
VERTEX
  5
928A
  8
AM_0
 10
444.554800905901
 20
63.212441389706783
 30
0.0
 70
    32
  0
VERTEX
  5
928B
  8
AM_0
 10
444.55880090590102
 20
63.210641389706652
 30
0.0
 70
    32
  0
VERTEX
  5
928C
  8
AM_0
 10
444.56280090590081
 20
63.208741389706802
 30
0.0
 70
    32
  0
VERTEX
  5
928D
  8
AM_0
 10
444.56680090590112
 20
63.206941389706692
 30
0.0
 70
    32
  0
VERTEX
  5
928E
  8
AM_0
 10
444.57080090590102
 20
63.205141389706789
 30
0.0
 70
    32
  0
VERTEX
  5
928F
  8
AM_0
 10
444.5748009059011
 20
63.203341389706793
 30
0.0
 70
    32
  0
VERTEX
  5
9290
  8
AM_0
 10
444.57880090590089
 20
63.20154138970679
 30
0.0
 70
    32
  0
VERTEX
  5
9291
  8
AM_0
 10
444.58280090590102
 20
63.19974138970678
 30
0.0
 70
    32
  0
VERTEX
  5
9292
  8
AM_0
 10
444.5868009059011
 20
63.198041389706631
 30
0.0
 70
    32
  0
VERTEX
  5
9293
  8
AM_0
 10
444.59080090590078
 20
63.196241389706742
 30
0.0
 70
    32
  0
VERTEX
  5
9294
  8
AM_0
 10
444.59480090590091
 20
63.194441389706753
 30
0.0
 70
    32
  0
VERTEX
  5
9295
  8
AM_0
 10
444.59880090590087
 20
63.192641389706623
 30
0.0
 70
    32
  0
VERTEX
  5
9296
  8
AM_0
 10
444.60280090590118
 20
63.190941389706722
 30
0.0
 70
    32
  0
VERTEX
  5
9297
  8
AM_0
 10
444.60680090590091
 20
63.18914138970672
 30
0.0
 70
    32
  0
VERTEX
  5
9298
  8
AM_0
 10
444.61080090590087
 20
63.187441389706933
 30
0.0
 70
    32
  0
VERTEX
  5
9299
  8
AM_0
 10
444.61480090590112
 20
63.185741389706777
 30
0.0
 70
    32
  0
VERTEX
  5
929A
  8
AM_0
 10
444.61880090590091
 20
63.183941389706781
 30
0.0
 70
    32
  0
VERTEX
  5
929B
  8
AM_0
 10
444.62280090590099
 20
63.182241389706519
 30
0.0
 70
    32
  0
VERTEX
  5
929C
  8
AM_0
 10
444.62680090590089
 20
63.180541389706939
 30
0.0
 70
    32
  0
VERTEX
  5
929D
  8
AM_0
 10
444.6308009059008
 20
63.178841389706932
 30
0.0
 70
    32
  0
VERTEX
  5
929E
  8
AM_0
 10
444.63480090590087
 20
63.17714138970679
 30
0.0
 70
    32
  0
VERTEX
  5
929F
  8
AM_0
 10
444.63880090590089
 20
63.175441389706641
 30
0.0
 70
    32
  0
VERTEX
  5
92A0
  8
AM_0
 10
444.64280090590103
 20
63.17374138970672
 30
0.0
 70
    32
  0
VERTEX
  5
92A1
  8
AM_0
 10
444.64680090590088
 20
63.17204138970726
 30
0.0
 70
    32
  0
VERTEX
  5
92A2
  8
AM_0
 10
444.65080090590089
 20
63.170341389706891
 30
0.0
 70
    32
  0
VERTEX
  5
92A3
  8
AM_0
 10
444.65480090590103
 20
63.16864138970675
 30
0.0
 70
    32
  0
VERTEX
  5
92A4
  8
AM_0
 10
444.65880090590082
 20
63.166941389706707
 30
0.0
 70
    32
  0
VERTEX
  5
92A5
  8
AM_0
 10
444.66280090590101
 20
63.16534138970701
 30
0.0
 70
    32
  0
VERTEX
  5
92A6
  8
AM_0
 10
444.66680090590091
 20
63.163641389706747
 30
0.0
 70
    32
  0
VERTEX
  5
92A7
  8
AM_0
 10
444.6708009059011
 20
63.162041389706708
 30
0.0
 70
    32
  0
VERTEX
  5
92A8
  8
AM_0
 10
444.6748009059009
 20
63.160341389707142
 30
0.0
 70
    32
  0
VERTEX
  5
92A9
  8
AM_0
 10
444.67880090590103
 20
63.158741389706741
 30
0.0
 70
    32
  0
VERTEX
  5
92AA
  8
AM_0
 10
444.6828009059011
 20
63.157041389706919
 30
0.0
 70
    32
  0
VERTEX
  5
92AB
  8
AM_0
 10
444.68680090590078
 20
63.15544138970688
 30
0.0
 70
    32
  0
VERTEX
  5
92AC
  8
AM_0
 10
444.69080090590103
 20
63.153841389706713
 30
0.0
 70
    32
  0
VERTEX
  5
92AD
  8
AM_0
 10
444.69480090590088
 20
63.152241389707108
 30
0.0
 70
    32
  0
VERTEX
  5
92AE
  8
AM_0
 10
444.69880090590078
 20
63.150541389706738
 30
0.0
 70
    32
  0
VERTEX
  5
92AF
  8
AM_0
 10
444.70280090590092
 20
63.148941389706792
 30
0.0
 70
    32
  0
VERTEX
  5
92B0
  8
AM_0
 10
444.70680090590088
 20
63.147341389706753
 30
0.0
 70
    32
  0
VERTEX
  5
92B1
  8
AM_0
 10
444.71080090590112
 20
63.145741389707162
 30
0.0
 70
    32
  0
VERTEX
  5
92B2
  8
AM_0
 10
444.71480090590092
 20
63.144241389706728
 30
0.0
 70
    32
  0
VERTEX
  5
92B3
  8
AM_0
 10
444.71880090590111
 20
63.142641389706789
 30
0.0
 70
    32
  0
VERTEX
  5
92B4
  8
AM_0
 10
444.7228009059009
 20
63.141041389706743
 30
0.0
 70
    32
  0
VERTEX
  5
92B5
  8
AM_0
 10
444.7268009059008
 20
63.139441389706789
 30
0.0
 70
    32
  0
VERTEX
  5
92B6
  8
AM_0
 10
444.73080090590088
 20
63.137941389706953
 30
0.0
 70
    32
  0
VERTEX
  5
92B7
  8
AM_0
 10
444.7348009059009
 20
63.136341389706672
 30
0.0
 70
    32
  0
VERTEX
  5
92B8
  8
AM_0
 10
444.73980090590112
 20
63.134741389706718
 30
0.0
 70
    32
  0
VERTEX
  5
92B9
  8
AM_0
 10
444.74380090590091
 20
63.13324138970664
 30
0.0
 70
    32
  0
VERTEX
  5
92BA
  8
AM_0
 10
444.74780090590099
 20
63.131741389706789
 30
0.0
 70
    32
  0
VERTEX
  5
92BB
  8
AM_0
 10
444.75180090590089
 20
63.13014138970675
 30
0.0
 70
    32
  0
VERTEX
  5
92BC
  8
AM_0
 10
444.7558009059008
 20
63.128641389706779
 30
0.0
 70
    32
  0
VERTEX
  5
92BD
  8
AM_0
 10
444.7598009059011
 20
63.127141389706942
 30
0.0
 70
    32
  0
VERTEX
  5
92BE
  8
AM_0
 10
444.76380090590089
 20
63.12554138970664
 30
0.0
 70
    32
  0
VERTEX
  5
92BF
  8
AM_0
 10
444.76780090590103
 20
63.124041389706811
 30
0.0
 70
    32
  0
VERTEX
  5
92C0
  8
AM_0
 10
444.77180090590088
 20
63.122541389706953
 30
0.0
 70
    32
  0
VERTEX
  5
92C1
  8
AM_0
 10
444.77580090590078
 20
63.12104138970664
 30
0.0
 70
    32
  0
VERTEX
  5
92C2
  8
AM_0
 10
444.77980090590103
 20
63.119541389706789
 30
0.0
 70
    32
  0
VERTEX
  5
92C3
  8
AM_0
 10
444.78380090590088
 20
63.118041389706939
 30
0.0
 70
    32
  0
VERTEX
  5
92C4
  8
AM_0
 10
444.78780090590112
 20
63.11654138970664
 30
0.0
 70
    32
  0
VERTEX
  5
92C5
  8
AM_0
 10
444.79180090590103
 20
63.11514138970675
 30
0.0
 70
    32
  0
VERTEX
  5
92C6
  8
AM_0
 10
444.79680090590091
 20
63.11364138970692
 30
0.0
 70
    32
  0
VERTEX
  5
92C7
  8
AM_0
 10
444.80080090590093
 20
63.112141389706707
 30
0.0
 70
    32
  0
VERTEX
  5
92C8
  8
AM_0
 10
444.80480090590117
 20
63.11064138970675
 30
0.0
 70
    32
  0
VERTEX
  5
92C9
  8
AM_0
 10
444.80880090590091
 20
63.109241389706753
 30
0.0
 70
    32
  0
VERTEX
  5
92CA
  8
AM_0
 10
444.81280090590087
 20
63.107741389706931
 30
0.0
 70
    32
  0
VERTEX
  5
92CB
  8
AM_0
 10
444.81680090590112
 20
63.106341389707161
 30
0.0
 70
    32
  0
VERTEX
  5
92CC
  8
AM_0
 10
444.82080090590091
 20
63.104841389706621
 30
0.0
 70
    32
  0
VERTEX
  5
92CD
  8
AM_0
 10
444.82480090590099
 20
63.103441389706738
 30
0.0
 70
    32
  0
VERTEX
  5
92CE
  8
AM_0
 10
444.82880090590112
 20
63.102041389706642
 30
0.0
 70
    32
  0
VERTEX
  5
92CF
  8
AM_0
 10
444.8328009059008
 20
63.100641389706652
 30
0.0
 70
    32
  0
VERTEX
  5
92D0
  8
AM_0
 10
444.83780090590102
 20
63.099141389706901
 30
0.0
 70
    32
  0
VERTEX
  5
92D1
  8
AM_0
 10
444.84180090590081
 20
63.097741389706698
 30
0.0
 70
    32
  0
VERTEX
  5
92D2
  8
AM_0
 10
444.845800905901
 20
63.096341389706708
 30
0.0
 70
    32
  0
VERTEX
  5
92D3
  8
AM_0
 10
444.84980090590091
 20
63.094941389706719
 30
0.0
 70
    32
  0
VERTEX
  5
92D4
  8
AM_0
 10
444.8538009059011
 20
63.09354138970707
 30
0.0
 70
    32
  0
VERTEX
  5
92D5
  8
AM_0
 10
444.857800905901
 20
63.092141389706633
 30
0.0
 70
    32
  0
VERTEX
  5
92D6
  8
AM_0
 10
444.86180090590102
 20
63.09074138970665
 30
0.0
 70
    32
  0
VERTEX
  5
92D7
  8
AM_0
 10
444.8658009059011
 20
63.089341389706753
 30
0.0
 70
    32
  0
VERTEX
  5
92D8
  8
AM_0
 10
444.86980090590077
 20
63.088041389706532
 30
0.0
 70
    32
  0
VERTEX
  5
92D9
  8
AM_0
 10
444.87480090590111
 20
63.086641389706763
 30
0.0
 70
    32
  0
VERTEX
  5
92DA
  8
AM_0
 10
444.8788009059009
 20
63.08524138970688
 30
0.0
 70
    32
  0
VERTEX
  5
92DB
  8
AM_0
 10
444.88280090590098
 20
63.083941389706752
 30
0.0
 70
    32
  0
VERTEX
  5
92DC
  8
AM_0
 10
444.886800905901
 20
63.082541389706748
 30
0.0
 70
    32
  0
VERTEX
  5
92DD
  8
AM_0
 10
444.89080090590079
 20
63.081241389706747
 30
0.0
 70
    32
  0
VERTEX
  5
92DE
  8
AM_0
 10
444.89480090590098
 20
63.079841389706871
 30
0.0
 70
    32
  0
VERTEX
  5
92DF
  8
AM_0
 10
444.898800905901
 20
63.078541389706743
 30
0.0
 70
    32
  0
VERTEX
  5
92E0
  8
AM_0
 10
444.90380090590111
 20
63.077241389706728
 30
0.0
 70
    32
  0
VERTEX
  5
92E1
  8
AM_0
 10
444.9078009059009
 20
63.075841389706852
 30
0.0
 70
    32
  0
VERTEX
  5
92E2
  8
AM_0
 10
444.91180090590098
 20
63.074541389707051
 30
0.0
 70
    32
  0
VERTEX
  5
92E3
  8
AM_0
 10
444.91580090590111
 20
63.073241389706702
 30
0.0
 70
    32
  0
VERTEX
  5
92E4
  8
AM_0
 10
444.9198009059009
 20
63.071941389706822
 30
0.0
 70
    32
  0
VERTEX
  5
92E5
  8
AM_0
 10
444.92380090590092
 20
63.0706413897069
 30
0.0
 70
    32
  0
VERTEX
  5
92E6
  8
AM_0
 10
444.92780090590088
 20
63.069341389706779
 30
0.0
 70
    32
  0
VERTEX
  5
92E7
  8
AM_0
 10
444.93280090590088
 20
63.068041389706757
 30
0.0
 70
    32
  0
VERTEX
  5
92E8
  8
AM_0
 10
444.9368009059009
 20
63.066741389706742
 30
0.0
 70
    32
  0
VERTEX
  5
92E9
  8
AM_0
 10
444.94080090590103
 20
63.06544138970672
 30
0.0
 70
    32
  0
VERTEX
  5
92EA
  8
AM_0
 10
444.94480090590088
 20
63.06414138970672
 30
0.0
 70
    32
  0
VERTEX
  5
92EB
  8
AM_0
 10
444.9488009059009
 20
63.062841389706712
 30
0.0
 70
    32
  0
VERTEX
  5
92EC
  8
AM_0
 10
444.95280090590097
 20
63.061641389706999
 30
0.0
 70
    32
  0
VERTEX
  5
92ED
  8
AM_0
 10
444.95680090590082
 20
63.060341389706771
 30
0.0
 70
    32
  0
VERTEX
  5
92EE
  8
AM_0
 10
444.9618009059011
 20
63.059041389706742
 30
0.0
 70
    32
  0
VERTEX
  5
92EF
  8
AM_0
 10
444.96580090590078
 20
63.057841389706709
 30
0.0
 70
    32
  0
VERTEX
  5
92F0
  8
AM_0
 10
444.96980090590102
 20
63.056541389706787
 30
0.0
 70
    32
  0
VERTEX
  5
92F1
  8
AM_0
 10
444.97380090590087
 20
63.05534138970711
 30
0.0
 70
    32
  0
VERTEX
  5
92F2
  8
AM_0
 10
444.97780090590112
 20
63.054041389706761
 30
0.0
 70
    32
  0
VERTEX
  5
92F3
  8
AM_0
 10
444.98180090590103
 20
63.052841389706927
 30
0.0
 70
    32
  0
VERTEX
  5
92F4
  8
AM_0
 10
444.98680090590091
 20
63.05164138970656
 30
0.0
 70
    32
  0
VERTEX
  5
92F5
  8
AM_0
 10
444.9908009059011
 20
63.050341389706773
 30
0.0
 70
    32
  0
VERTEX
  5
92F6
  8
AM_0
 10
444.994800905901
 20
63.049141389707181
 30
0.0
 70
    32
  0
VERTEX
  5
92F7
  8
AM_0
 10
444.99880090590102
 20
63.047941389706807
 30
0.0
 70
    32
  0
VERTEX
  5
92F8
  8
AM_0
 10
445.00280090590098
 20
63.046741389706661
 30
0.0
 70
    32
  0
VERTEX
  5
92F9
  8
AM_0
 10
445.00680090590117
 20
63.045541389707182
 30
0.0
 70
    32
  0
VERTEX
  5
92FA
  8
AM_0
 10
445.011800905901
 20
63.044341389706787
 30
0.0
 70
    32
  0
VERTEX
  5
92FB
  8
AM_0
 10
445.01580090590079
 20
63.043141389706747
 30
0.0
 70
    32
  0
VERTEX
  5
92FC
  8
AM_0
 10
445.01980090590092
 20
63.041941389706963
 30
0.0
 70
    32
  0
VERTEX
  5
92FD
  8
AM_0
 10
445.02380090590111
 20
63.040741389706902
 30
0.0
 70
    32
  0
VERTEX
  5
92FE
  8
AM_0
 10
445.02780090590102
 20
63.039541389706642
 30
0.0
 70
    32
  0
VERTEX
  5
92FF
  8
AM_0
 10
445.0328009059009
 20
63.03834138970717
 30
0.0
 70
    32
  0
VERTEX
  5
9300
  8
AM_0
 10
445.03680090590098
 20
63.037241389706537
 30
0.0
 70
    32
  0
VERTEX
  5
9301
  8
AM_0
 10
445.04080090590088
 20
63.036041389706732
 30
0.0
 70
    32
  0
VERTEX
  5
9302
  8
AM_0
 10
445.0448009059009
 20
63.034841389706791
 30
0.0
 70
    32
  0
VERTEX
  5
9303
  8
AM_0
 10
445.04880090590098
 20
63.033741389706961
 30
0.0
 70
    32
  0
VERTEX
  5
9304
  8
AM_0
 10
445.05280090590082
 20
63.032541389707042
 30
0.0
 70
    32
  0
VERTEX
  5
9305
  8
AM_0
 10
445.0578009059011
 20
63.031441389706629
 30
0.0
 70
    32
  0
VERTEX
  5
9306
  8
AM_0
 10
445.0618009059009
 20
63.030241389706923
 30
0.0
 70
    32
  0
VERTEX
  5
9307
  8
AM_0
 10
445.06580090590103
 20
63.029141389706538
 30
0.0
 70
    32
  0
VERTEX
  5
9308
  8
AM_0
 10
445.06980090590088
 20
63.027941389706697
 30
0.0
 70
    32
  0
VERTEX
  5
9309
  8
AM_0
 10
445.07380090590078
 20
63.026841389706647
 30
0.0
 70
    32
  0
VERTEX
  5
930A
  8
AM_0
 10
445.07880090590089
 20
63.02574138970693
 30
0.0
 70
    32
  0
VERTEX
  5
930B
  8
AM_0
 10
445.0828009059008
 20
63.024641389706737
 30
0.0
 70
    32
  0
VERTEX
  5
930C
  8
AM_0
 10
445.0868009059011
 20
63.023441389706711
 30
0.0
 70
    32
  0
VERTEX
  5
930D
  8
AM_0
 10
445.09080090590089
 20
63.022341389706639
 30
0.0
 70
    32
  0
VERTEX
  5
930E
  8
AM_0
 10
445.09480090590102
 20
63.021241389706901
 30
0.0
 70
    32
  0
VERTEX
  5
930F
  8
AM_0
 10
445.09980090590091
 20
63.020141389706623
 30
0.0
 70
    32
  0
VERTEX
  5
9310
  8
AM_0
 10
445.10380090590098
 20
63.019041389706899
 30
0.0
 70
    32
  0
VERTEX
  5
9311
  8
AM_0
 10
445.107800905901
 20
63.017941389706714
 30
0.0
 70
    32
  0
VERTEX
  5
9312
  8
AM_0
 10
445.11180090590079
 20
63.016841389706777
 30
0.0
 70
    32
  0
VERTEX
  5
9313
  8
AM_0
 10
445.1168009059009
 20
63.0158413897069
 30
0.0
 70
    32
  0
VERTEX
  5
9314
  8
AM_0
 10
445.12080090590081
 20
63.014741389707062
 30
0.0
 70
    32
  0
VERTEX
  5
9315
  8
AM_0
 10
445.124800905901
 20
63.013641389706777
 30
0.0
 70
    32
  0
VERTEX
  5
9316
  8
AM_0
 10
445.1288009059009
 20
63.012541389706698
 30
0.0
 70
    32
  0
VERTEX
  5
9317
  8
AM_0
 10
445.13280090590098
 20
63.011541389706622
 30
0.0
 70
    32
  0
VERTEX
  5
9318
  8
AM_0
 10
445.13780090590092
 20
63.010441389706898
 30
0.0
 70
    32
  0
VERTEX
  5
9319
  8
AM_0
 10
445.14180090590099
 20
63.009441389706929
 30
0.0
 70
    32
  0
VERTEX
  5
931A
  8
AM_0
 10
445.14580090590113
 20
63.00834138970685
 30
0.0
 70
    32
  0
VERTEX
  5
931B
  8
AM_0
 10
445.1498009059008
 20
63.007341389706767
 30
0.0
 70
    32
  0
VERTEX
  5
931C
  8
AM_0
 10
445.15380090590111
 20
63.006241389706709
 30
0.0
 70
    32
  0
VERTEX
  5
931D
  8
AM_0
 10
445.15880090590082
 20
63.005241389706718
 30
0.0
 70
    32
  0
VERTEX
  5
931E
  8
AM_0
 10
445.16280090590112
 20
63.004241389706742
 30
0.0
 70
    32
  0
VERTEX
  5
931F
  8
AM_0
 10
445.16680090590103
 20
63.003141389706911
 30
0.0
 70
    32
  0
VERTEX
  5
9320
  8
AM_0
 10
445.1708009059011
 20
63.002141389706701
 30
0.0
 70
    32
  0
VERTEX
  5
9321
  8
AM_0
 10
445.17580090590093
 20
63.001141389706717
 30
0.0
 70
    32
  0
VERTEX
  5
9322
  8
AM_0
 10
445.17980090590112
 20
63.000141389706741
 30
0.0
 70
    32
  0
VERTEX
  5
9323
  8
AM_0
 10
445.18380090590091
 20
62.99914138970712
 30
0.0
 70
    32
  0
VERTEX
  5
9324
  8
AM_0
 10
445.18780090590087
 20
62.998141389706788
 30
0.0
 70
    32
  0
VERTEX
  5
9325
  8
AM_0
 10
445.19180090590112
 20
62.997141389706712
 30
0.0
 70
    32
  0
VERTEX
  5
9326
  8
AM_0
 10
445.196800905901
 20
62.99614138970675
 30
0.0
 70
    32
  0
VERTEX
  5
9327
  8
AM_0
 10
445.20080090590102
 20
62.995141389706859
 30
0.0
 70
    32
  0
VERTEX
  5
9328
  8
AM_0
 10
445.20480090590092
 20
62.99414138970679
 30
0.0
 70
    32
  0
VERTEX
  5
9329
  8
AM_0
 10
445.20880090590123
 20
62.993241389706782
 30
0.0
 70
    32
  0
VERTEX
  5
932A
  8
AM_0
 10
445.21380090590111
 20
62.992241389706791
 30
0.0
 70
    32
  0
VERTEX
  5
932B
  8
AM_0
 10
445.2178009059009
 20
62.991241389707049
 30
0.0
 70
    32
  0
VERTEX
  5
932C
  8
AM_0
 10
445.22180090590092
 20
62.990341389706721
 30
0.0
 70
    32
  0
VERTEX
  5
932D
  8
AM_0
 10
445.225800905901
 20
62.989341389706851
 30
0.0
 70
    32
  0
VERTEX
  5
932E
  8
AM_0
 10
445.23080090590088
 20
62.988341389707088
 30
0.0
 70
    32
  0
VERTEX
  5
932F
  8
AM_0
 10
445.2348009059009
 20
62.987441389707101
 30
0.0
 70
    32
  0
VERTEX
  5
9330
  8
AM_0
 10
445.23880090590097
 20
62.986441389706542
 30
0.0
 70
    32
  0
VERTEX
  5
9331
  8
AM_0
 10
445.24280090590088
 20
62.98554138970654
 30
0.0
 70
    32
  0
VERTEX
  5
9332
  8
AM_0
 10
445.2478009059011
 20
62.984641389706781
 30
0.0
 70
    32
  0
VERTEX
  5
9333
  8
AM_0
 10
445.25180090590089
 20
62.983641389707032
 30
0.0
 70
    32
  0
VERTEX
  5
9334
  8
AM_0
 10
445.25580090590159
 20
62.982741389706902
 30
0.0
 70
    32
  0
VERTEX
  5
9335
  8
AM_0
 10
445.2598009059011
 20
62.981841389706787
 30
0.0
 70
    32
  0
VERTEX
  5
9336
  8
AM_0
 10
445.26480090590093
 20
62.980941389706899
 30
0.0
 70
    32
  0
VERTEX
  5
9337
  8
AM_0
 10
445.26880090590112
 20
62.980041389706791
 30
0.0
 70
    32
  0
VERTEX
  5
9338
  8
AM_0
 10
445.27280090590102
 20
62.979141389706911
 30
0.0
 70
    32
  0
VERTEX
  5
9339
  8
AM_0
 10
445.27680090590121
 20
62.978241389706788
 30
0.0
 70
    32
  0
VERTEX
  5
933A
  8
AM_0
 10
445.28180090590098
 20
62.977341389706787
 30
0.0
 70
    32
  0
VERTEX
  5
933B
  8
AM_0
 10
445.28580090590123
 20
62.976441389706899
 30
0.0
 70
    32
  0
VERTEX
  5
933C
  8
AM_0
 10
445.2898009059009
 20
62.975541389706791
 30
0.0
 70
    32
  0
VERTEX
  5
933D
  8
AM_0
 10
445.29380090590172
 20
62.974641389706889
 30
0.0
 70
    32
  0
VERTEX
  5
933E
  8
AM_0
 10
445.29880090590092
 20
62.973741389706781
 30
0.0
 70
    32
  0
VERTEX
  5
933F
  8
AM_0
 10
445.30280090590088
 20
62.97284138970678
 30
0.0
 70
    32
  0
VERTEX
  5
9340
  8
AM_0
 10
445.30680090590113
 20
62.972041389706533
 30
0.0
 70
    32
  0
VERTEX
  5
9341
  8
AM_0
 10
445.31080090590092
 20
62.971141389706538
 30
0.0
 70
    32
  0
VERTEX
  5
9342
  8
AM_0
 10
445.31580090590103
 20
62.970241389706537
 30
0.0
 70
    32
  0
VERTEX
  5
9343
  8
AM_0
 10
445.31980090590088
 20
62.969441389706972
 30
0.0
 70
    32
  0
VERTEX
  5
9344
  8
AM_0
 10
445.3238009059009
 20
62.968541389707191
 30
0.0
 70
    32
  0
VERTEX
  5
9345
  8
AM_0
 10
445.32780090590097
 20
62.967741389707037
 30
0.0
 70
    32
  0
VERTEX
  5
9346
  8
AM_0
 10
445.3328009059008
 20
62.966841389706708
 30
0.0
 70
    32
  0
VERTEX
  5
9347
  8
AM_0
 10
445.3368009059011
 20
62.966041389706682
 30
0.0
 70
    32
  0
VERTEX
  5
9348
  8
AM_0
 10
445.34080090590101
 20
62.96514138970678
 30
0.0
 70
    32
  0
VERTEX
  5
9349
  8
AM_0
 10
445.34480090590102
 20
62.964341389706753
 30
0.0
 70
    32
  0
VERTEX
  5
934A
  8
AM_0
 10
445.34980090590102
 20
62.963541389706741
 30
0.0
 70
    32
  0
VERTEX
  5
934B
  8
AM_0
 10
445.3538009059011
 20
62.962741389707162
 30
0.0
 70
    32
  0
VERTEX
  5
934C
  8
AM_0
 10
445.357800905901
 20
62.961841389706919
 30
0.0
 70
    32
  0
VERTEX
  5
934D
  8
AM_0
 10
445.36280090590111
 20
62.961041389706679
 30
0.0
 70
    32
  0
VERTEX
  5
934E
  8
AM_0
 10
445.3668009059009
 20
62.960241389706752
 30
0.0
 70
    32
  0
VERTEX
  5
934F
  8
AM_0
 10
445.37080090590098
 20
62.959441389706861
 30
0.0
 70
    32
  0
VERTEX
  5
9350
  8
AM_0
 10
445.37480090590111
 20
62.958641389706933
 30
0.0
 70
    32
  0
VERTEX
  5
9351
  8
AM_0
 10
445.37980090590088
 20
62.957841389706793
 30
0.0
 70
    32
  0
VERTEX
  5
9352
  8
AM_0
 10
445.38380090590113
 20
62.95704138970666
 30
0.0
 70
    32
  0
VERTEX
  5
9353
  8
AM_0
 10
445.38780090590092
 20
62.956241389706641
 30
0.0
 70
    32
  0
VERTEX
  5
9354
  8
AM_0
 10
445.39180090590122
 20
62.955441389706714
 30
0.0
 70
    32
  0
VERTEX
  5
9355
  8
AM_0
 10
445.39680090590088
 20
62.954641389706929
 30
0.0
 70
    32
  0
VERTEX
  5
9356
  8
AM_0
 10
445.40080090590078
 20
62.953941389706742
 30
0.0
 70
    32
  0
VERTEX
  5
9357
  8
AM_0
 10
445.40480090590091
 20
62.953141389707071
 30
0.0
 70
    32
  0
VERTEX
  5
9358
  8
AM_0
 10
445.40980090590079
 20
62.952341389706923
 30
0.0
 70
    32
  0
VERTEX
  5
9359
  8
AM_0
 10
445.41380090590093
 20
62.95154138970679
 30
0.0
 70
    32
  0
VERTEX
  5
935A
  8
AM_0
 10
445.417800905901
 20
62.950841389706611
 30
0.0
 70
    32
  0
VERTEX
  5
935B
  8
AM_0
 10
445.42180090590102
 20
62.950041389706712
 30
0.0
 70
    32
  0
VERTEX
  5
935C
  8
AM_0
 10
445.4268009059009
 20
62.949341389706781
 30
0.0
 70
    32
  0
VERTEX
  5
935D
  8
AM_0
 10
445.43080090590098
 20
62.94854138970674
 30
0.0
 70
    32
  0
VERTEX
  5
935E
  8
AM_0
 10
445.434800905901
 20
62.947841389706923
 30
0.0
 70
    32
  0
VERTEX
  5
935F
  8
AM_0
 10
445.43980090590111
 20
62.947041389706783
 30
0.0
 70
    32
  0
VERTEX
  5
9360
  8
AM_0
 10
445.44380090590101
 20
62.946341389706717
 30
0.0
 70
    32
  0
VERTEX
  5
9361
  8
AM_0
 10
445.44780090590081
 20
62.9456413897069
 30
0.0
 70
    32
  0
VERTEX
  5
9362
  8
AM_0
 10
445.45180090590111
 20
62.944841389706767
 30
0.0
 70
    32
  0
VERTEX
  5
9363
  8
AM_0
 10
445.45680090590082
 20
62.944141389706942
 30
0.0
 70
    32
  0
VERTEX
  5
9364
  8
AM_0
 10
445.46080090590112
 20
62.943441389706791
 30
0.0
 70
    32
  0
VERTEX
  5
9365
  8
AM_0
 10
445.46480090590097
 20
62.942741389706718
 30
0.0
 70
    32
  0
VERTEX
  5
9366
  8
AM_0
 10
445.46980090590102
 20
62.941941389706699
 30
0.0
 70
    32
  0
VERTEX
  5
9367
  8
AM_0
 10
445.47380090590087
 20
62.941241389706647
 30
0.0
 70
    32
  0
VERTEX
  5
9368
  8
AM_0
 10
445.47780090590112
 20
62.940541389706709
 30
0.0
 70
    32
  0
VERTEX
  5
9369
  8
AM_0
 10
445.48180090590091
 20
62.939841389706771
 30
0.0
 70
    32
  0
VERTEX
  5
936A
  8
AM_0
 10
445.48680090590079
 20
62.93914138970672
 30
0.0
 70
    32
  0
VERTEX
  5
936B
  8
AM_0
 10
445.49080090590098
 20
62.938441389707009
 30
0.0
 70
    32
  0
VERTEX
  5
936C
  8
AM_0
 10
445.494800905901
 20
62.937741389706723
 30
0.0
 70
    32
  0
VERTEX
  5
936D
  8
AM_0
 10
445.49980090590111
 20
62.937141389706781
 30
0.0
 70
    32
  0
VERTEX
  5
936E
  8
AM_0
 10
445.5038009059009
 20
62.936441389706701
 30
0.0
 70
    32
  0
VERTEX
  5
936F
  8
AM_0
 10
445.50780090590098
 20
62.935741389706891
 30
0.0
 70
    32
  0
VERTEX
  5
9370
  8
AM_0
 10
445.51180090590111
 20
62.935041389706711
 30
0.0
 70
    32
  0
VERTEX
  5
9371
  8
AM_0
 10
445.51680090590099
 20
62.934341389706901
 30
0.0
 70
    32
  0
VERTEX
  5
9372
  8
AM_0
 10
445.52080090590113
 20
62.933741389706697
 30
0.0
 70
    32
  0
VERTEX
  5
9373
  8
AM_0
 10
445.5248009059008
 20
62.933041389706887
 30
0.0
 70
    32
  0
VERTEX
  5
9374
  8
AM_0
 10
445.52980090590103
 20
62.93244138970681
 30
0.0
 70
    32
  0
VERTEX
  5
9375
  8
AM_0
 10
445.53380090590082
 20
62.931741389706758
 30
0.0
 70
    32
  0
VERTEX
  5
9376
  8
AM_0
 10
445.53780090590101
 20
62.931041389706706
 30
0.0
 70
    32
  0
VERTEX
  5
9377
  8
AM_0
 10
445.54180090590091
 20
62.93044138970685
 30
0.0
 70
    32
  0
VERTEX
  5
9378
  8
AM_0
 10
445.54680090590102
 20
62.92984138970688
 30
0.0
 70
    32
  0
VERTEX
  5
9379
  8
AM_0
 10
445.55080090590093
 20
62.929141389706707
 30
0.0
 70
    32
  0
VERTEX
  5
937A
  8
AM_0
 10
445.55480090590112
 20
62.928541389706879
 30
0.0
 70
    32
  0
VERTEX
  5
937B
  8
AM_0
 10
445.559800905901
 20
62.9278413897067
 30
0.0
 70
    32
  0
VERTEX
  5
937C
  8
AM_0
 10
445.56380090590091
 20
62.927241389706758
 30
0.0
 70
    32
  0
VERTEX
  5
937D
  8
AM_0
 10
445.56780090590098
 20
62.926641389706681
 30
0.0
 70
    32
  0
VERTEX
  5
937E
  8
AM_0
 10
445.57280090590098
 20
62.926041389706697
 30
0.0
 70
    32
  0
VERTEX
  5
937F
  8
AM_0
 10
445.57680090590111
 20
62.925441389706748
 30
0.0
 70
    32
  0
VERTEX
  5
9380
  8
AM_0
 10
445.5808009059009
 20
62.924741389706931
 30
0.0
 70
    32
  0
VERTEX
  5
9381
  8
AM_0
 10
445.58580090590112
 20
62.92414138970674
 30
0.0
 70
    32
  0
VERTEX
  5
9382
  8
AM_0
 10
445.58980090590092
 20
62.92354138970687
 30
0.0
 70
    32
  0
VERTEX
  5
9383
  8
AM_0
 10
445.59380090590111
 20
62.922941389706921
 30
0.0
 70
    32
  0
VERTEX
  5
9384
  8
AM_0
 10
445.5978009059009
 20
62.922341389706723
 30
0.0
 70
    32
  0
VERTEX
  5
9385
  8
AM_0
 10
445.60280090590118
 20
62.921741389706881
 30
0.0
 70
    32
  0
VERTEX
  5
9386
  8
AM_0
 10
445.60680090590091
 20
62.921141389706918
 30
0.0
 70
    32
  0
VERTEX
  5
9387
  8
AM_0
 10
445.61080090590087
 20
62.920541389706727
 30
0.0
 70
    32
  0
VERTEX
  5
9388
  8
AM_0
 10
445.61580090590093
 20
62.92004138970686
 30
0.0
 70
    32
  0
VERTEX
  5
9389
  8
AM_0
 10
445.619800905901
 20
62.919441389706769
 30
0.0
 70
    32
  0
VERTEX
  5
938A
  8
AM_0
 10
445.62380090590102
 20
62.918841389706706
 30
0.0
 70
    32
  0
VERTEX
  5
938B
  8
AM_0
 10
445.6288009059009
 20
62.91824138970685
 30
0.0
 70
    32
  0
VERTEX
  5
938C
  8
AM_0
 10
445.63280090590098
 20
62.917741389706862
 30
0.0
 70
    32
  0
VERTEX
  5
938D
  8
AM_0
 10
445.636800905901
 20
62.917141389706792
 30
0.0
 70
    32
  0
VERTEX
  5
938E
  8
AM_0
 10
445.64080090590102
 20
62.916541389706481
 30
0.0
 70
    32
  0
VERTEX
  5
938F
  8
AM_0
 10
445.64580090590101
 20
62.916041389706713
 30
0.0
 70
    32
  0
VERTEX
  5
9390
  8
AM_0
 10
445.64980090590097
 20
62.91544138970675
 30
0.0
 70
    32
  0
VERTEX
  5
9391
  8
AM_0
 10
445.65380090590111
 20
62.914941389706748
 30
0.0
 70
    32
  0
VERTEX
  5
9392
  8
AM_0
 10
445.65880090590088
 20
62.914341389706792
 30
0.0
 70
    32
  0
VERTEX
  5
9393
  8
AM_0
 10
445.66280090590112
 20
62.913841389706697
 30
0.0
 70
    32
  0
VERTEX
  5
9394
  8
AM_0
 10
445.66680090590103
 20
62.913341389706723
 30
0.0
 70
    32
  0
VERTEX
  5
9395
  8
AM_0
 10
445.67180090590091
 20
62.912741389706859
 30
0.0
 70
    32
  0
VERTEX
  5
9396
  8
AM_0
 10
445.67580090590093
 20
62.912241389706757
 30
0.0
 70
    32
  0
VERTEX
  5
9397
  8
AM_0
 10
445.67980090590117
 20
62.911741389706783
 30
0.0
 70
    32
  0
VERTEX
  5
9398
  8
AM_0
 10
445.684800905901
 20
62.911141389706692
 30
0.0
 70
    32
  0
VERTEX
  5
9399
  8
AM_0
 10
445.68880090590079
 20
62.910641389706697
 30
0.0
 70
    32
  0
VERTEX
  5
939A
  8
AM_0
 10
445.69280090590092
 20
62.910141389706709
 30
0.0
 70
    32
  0
VERTEX
  5
939B
  8
AM_0
 10
445.69780090590081
 20
62.909641389706721
 30
0.0
 70
    32
  0
VERTEX
  5
939C
  8
AM_0
 10
445.70180090590111
 20
62.90914138970674
 30
0.0
 70
    32
  0
VERTEX
  5
939D
  8
AM_0
 10
445.7058009059009
 20
62.908641389706652
 30
0.0
 70
    32
  0
VERTEX
  5
939E
  8
AM_0
 10
445.71080090590112
 20
62.90814138970677
 30
0.0
 70
    32
  0
VERTEX
  5
939F
  8
AM_0
 10
445.71480090590092
 20
62.907641389706903
 30
0.0
 70
    32
  0
VERTEX
  5
93A0
  8
AM_0
 10
445.71880090590099
 20
62.907141389706787
 30
0.0
 70
    32
  0
VERTEX
  5
93A1
  8
AM_0
 10
445.72280090590112
 20
62.906641389706792
 30
0.0
 70
    32
  0
VERTEX
  5
93A2
  8
AM_0
 10
445.72780090590101
 20
62.906141389706711
 30
0.0
 70
    32
  0
VERTEX
  5
93A3
  8
AM_0
 10
445.73180090590103
 20
62.90574138970679
 30
0.0
 70
    32
  0
VERTEX
  5
93A4
  8
AM_0
 10
445.73580090590082
 20
62.905241389706703
 30
0.0
 70
    32
  0
VERTEX
  5
93A5
  8
AM_0
 10
445.7408009059011
 20
62.904741389706942
 30
0.0
 70
    32
  0
VERTEX
  5
93A6
  8
AM_0
 10
445.74480090590077
 20
62.904341389706701
 30
0.0
 70
    32
  0
VERTEX
  5
93A7
  8
AM_0
 10
445.74880090590102
 20
62.903841389706699
 30
0.0
 70
    32
  0
VERTEX
  5
93A8
  8
AM_0
 10
445.7538009059009
 20
62.903341389706711
 30
0.0
 70
    32
  0
VERTEX
  5
93A9
  8
AM_0
 10
445.75780090590121
 20
62.902941389706697
 30
0.0
 70
    32
  0
VERTEX
  5
93AA
  8
AM_0
 10
445.761800905901
 20
62.902541389706698
 30
0.0
 70
    32
  0
VERTEX
  5
93AB
  8
AM_0
 10
445.76680090590122
 20
62.90204138970671
 30
0.0
 70
    32
  0
VERTEX
  5
93AC
  8
AM_0
 10
445.7708009059009
 20
62.901641389706811
 30
0.0
 70
    32
  0
VERTEX
  5
93AD
  8
AM_0
 10
445.77480090590097
 20
62.901141389706709
 30
0.0
 70
    32
  0
VERTEX
  5
93AE
  8
AM_0
 10
445.77980090590091
 20
62.900741389706802
 30
0.0
 70
    32
  0
VERTEX
  5
93AF
  8
AM_0
 10
445.78380090590088
 20
62.900341389706789
 30
0.0
 70
    32
  0
VERTEX
  5
93B0
  8
AM_0
 10
445.78780090590112
 20
62.899941389706662
 30
0.0
 70
    32
  0
VERTEX
  5
93B1
  8
AM_0
 10
445.792800905901
 20
62.899441389706681
 30
0.0
 70
    32
  0
VERTEX
  5
93B2
  8
AM_0
 10
445.79680090590102
 20
62.899041389706781
 30
0.0
 70
    32
  0
VERTEX
  5
93B3
  8
AM_0
 10
445.80080090590093
 20
62.898641389706881
 30
0.0
 70
    32
  0
VERTEX
  5
93B4
  8
AM_0
 10
445.80580090590098
 20
62.898241389706762
 30
0.0
 70
    32
  0
VERTEX
  5
93B5
  8
AM_0
 10
445.809800905901
 20
62.897841389707082
 30
0.0
 70
    32
  0
VERTEX
  5
93B6
  8
AM_0
 10
445.81380090590091
 20
62.897441389706721
 30
0.0
 70
    32
  0
VERTEX
  5
93B7
  8
AM_0
 10
445.81880090590113
 20
62.8970413897067
 30
0.0
 70
    32
  0
VERTEX
  5
93B8
  8
AM_0
 10
445.82280090590081
 20
62.896741389706563
 30
0.0
 70
    32
  0
VERTEX
  5
93B9
  8
AM_0
 10
445.826800905901
 20
62.896341389706777
 30
0.0
 70
    32
  0
VERTEX
  5
93BA
  8
AM_0
 10
445.83180090590082
 20
62.895941389706877
 30
0.0
 70
    32
  0
VERTEX
  5
93BB
  8
AM_0
 10
445.83580090590101
 20
62.89554138970675
 30
0.0
 70
    32
  0
VERTEX
  5
93BC
  8
AM_0
 10
445.83980090590092
 20
62.895241389706939
 30
0.0
 70
    32
  0
VERTEX
  5
93BD
  8
AM_0
 10
445.84480090590102
 20
62.894841389706713
 30
0.0
 70
    32
  0
VERTEX
  5
93BE
  8
AM_0
 10
445.84880090590087
 20
62.894441389706792
 30
0.0
 70
    32
  0
VERTEX
  5
93BF
  8
AM_0
 10
445.85280090590112
 20
62.894141389706881
 30
0.0
 70
    32
  0
VERTEX
  5
93C0
  8
AM_0
 10
445.857800905901
 20
62.893741389706747
 30
0.0
 70
    32
  0
VERTEX
  5
93C1
  8
AM_0
 10
445.86180090590091
 20
62.893441389706709
 30
0.0
 70
    32
  0
VERTEX
  5
93C2
  8
AM_0
 10
445.8658009059011
 20
62.893141389706777
 30
0.0
 70
    32
  0
VERTEX
  5
93C3
  8
AM_0
 10
445.87080090590098
 20
62.892741389706771
 30
0.0
 70
    32
  0
VERTEX
  5
93C4
  8
AM_0
 10
445.87480090590111
 20
62.892441389707187
 30
0.0
 70
    32
  0
VERTEX
  5
93C5
  8
AM_0
 10
445.8788009059009
 20
62.892141389707021
 30
0.0
 70
    32
  0
VERTEX
  5
93C6
  8
AM_0
 10
445.88380090590113
 20
62.891841389706642
 30
0.0
 70
    32
  0
VERTEX
  5
93C7
  8
AM_0
 10
445.88780090590092
 20
62.89144138970687
 30
0.0
 70
    32
  0
VERTEX
  5
93C8
  8
AM_0
 10
445.89180090590111
 20
62.891141389706711
 30
0.0
 70
    32
  0
VERTEX
  5
93C9
  8
AM_0
 10
445.89680090590088
 20
62.890841389706793
 30
0.0
 70
    32
  0
VERTEX
  5
93CA
  8
AM_0
 10
445.90080090590089
 20
62.890541389706762
 30
0.0
 70
    32
  0
VERTEX
  5
93CB
  8
AM_0
 10
445.90480090590091
 20
62.890241389707057
 30
0.0
 70
    32
  0
VERTEX
  5
93CC
  8
AM_0
 10
445.90980090590079
 20
62.889941389706792
 30
0.0
 70
    32
  0
VERTEX
  5
93CD
  8
AM_0
 10
445.91380090590093
 20
62.889641389706867
 30
0.0
 70
    32
  0
VERTEX
  5
93CE
  8
AM_0
 10
445.917800905901
 20
62.889341389706701
 30
0.0
 70
    32
  0
VERTEX
  5
93CF
  8
AM_0
 10
445.922800905901
 20
62.88904138970679
 30
0.0
 70
    32
  0
VERTEX
  5
93D0
  8
AM_0
 10
445.9268009059009
 20
62.888841389706947
 30
0.0
 70
    32
  0
VERTEX
  5
93D1
  8
AM_0
 10
445.93080090590098
 20
62.888541389706802
 30
0.0
 70
    32
  0
VERTEX
  5
93D2
  8
AM_0
 10
445.93580090590092
 20
62.888241389706749
 30
0.0
 70
    32
  0
VERTEX
  5
93D3
  8
AM_0
 10
445.93980090590111
 20
62.88794138970718
 30
0.0
 70
    32
  0
VERTEX
  5
93D4
  8
AM_0
 10
445.9438009059009
 20
62.887741389706548
 30
0.0
 70
    32
  0
VERTEX
  5
93D5
  8
AM_0
 10
445.94880090590078
 20
62.887441389706737
 30
0.0
 70
    32
  0
VERTEX
  5
93D6
  8
AM_0
 10
445.95280090590097
 20
62.887241389706681
 30
0.0
 70
    32
  0
VERTEX
  5
93D7
  8
AM_0
 10
445.95680090590088
 20
62.886941389706863
 30
0.0
 70
    32
  0
VERTEX
  5
93D8
  8
AM_0
 10
445.9618009059011
 20
62.886741389706792
 30
0.0
 70
    32
  0
VERTEX
  5
93D9
  8
AM_0
 10
445.96580090590089
 20
62.886441389706633
 30
0.0
 70
    32
  0
VERTEX
  5
93DA
  8
AM_0
 10
445.96980090590091
 20
62.886241389706932
 30
0.0
 70
    32
  0
VERTEX
  5
93DB
  8
AM_0
 10
445.97480090590091
 20
62.885941389706552
 30
0.0
 70
    32
  0
VERTEX
  5
93DC
  8
AM_0
 10
445.97880090590098
 20
62.885741389706943
 30
0.0
 70
    32
  0
VERTEX
  5
93DD
  8
AM_0
 10
445.982800905901
 20
62.885541389706752
 30
0.0
 70
    32
  0
VERTEX
  5
93DE
  8
AM_0
 10
445.98780090590111
 20
62.885341389706809
 30
0.0
 70
    32
  0
VERTEX
  5
93DF
  8
AM_0
 10
445.9918009059009
 20
62.885041389706551
 30
0.0
 70
    32
  0
VERTEX
  5
93E0
  8
AM_0
 10
445.99580090590081
 20
62.8848413897067
 30
0.0
 70
    32
  0
VERTEX
  5
93E1
  8
AM_0
 10
446.00080090590092
 20
62.88464138970663
 30
0.0
 70
    32
  0
VERTEX
  5
93E2
  8
AM_0
 10
446.00480090590088
 20
62.884441389706922
 30
0.0
 70
    32
  0
VERTEX
  5
93E3
  8
AM_0
 10
446.00880090590113
 20
62.884241389706737
 30
0.0
 70
    32
  0
VERTEX
  5
93E4
  8
AM_0
 10
446.01380090590089
 20
62.884041389706802
 30
0.0
 70
    32
  0
VERTEX
  5
93E5
  8
AM_0
 10
446.01780090590103
 20
62.883841389707072
 30
0.0
 70
    32
  0
VERTEX
  5
93E6
  8
AM_0
 10
446.02180090590088
 20
62.883641389706781
 30
0.0
 70
    32
  0
VERTEX
  5
93E7
  8
AM_0
 10
446.0268009059011
 20
62.883441389707173
 30
0.0
 70
    32
  0
VERTEX
  5
93E8
  8
AM_0
 10
446.03080090590089
 20
62.883241389706527
 30
0.0
 70
    32
  0
VERTEX
  5
93E9
  8
AM_0
 10
446.03480090590102
 20
62.883041389706918
 30
0.0
 70
    32
  0
VERTEX
  5
93EA
  8
AM_0
 10
446.03980090590102
 20
62.882841389706641
 30
0.0
 70
    32
  0
VERTEX
  5
93EB
  8
AM_0
 10
446.04380090590161
 20
62.882641389706919
 30
0.0
 70
    32
  0
VERTEX
  5
93EC
  8
AM_0
 10
446.04780090590111
 20
62.88254138970693
 30
0.0
 70
    32
  0
VERTEX
  5
93ED
  8
AM_0
 10
446.05280090590088
 20
62.882341389706752
 30
0.0
 70
    32
  0
VERTEX
  5
93EE
  8
AM_0
 10
446.05680090590113
 20
62.882141389706923
 30
0.0
 70
    32
  0
VERTEX
  5
93EF
  8
AM_0
 10
446.0618009059009
 20
62.882041389707062
 30
0.0
 70
    32
  0
VERTEX
  5
93F0
  8
AM_0
 10
446.06580090590091
 20
62.881841389706771
 30
0.0
 70
    32
  0
VERTEX
  5
93F1
  8
AM_0
 10
446.06980090590088
 20
62.881641389706928
 30
0.0
 70
    32
  0
VERTEX
  5
93F2
  8
AM_0
 10
446.0748009059011
 20
62.881541389706747
 30
0.0
 70
    32
  0
VERTEX
  5
93F3
  8
AM_0
 10
446.07880090590089
 20
62.88134138970679
 30
0.0
 70
    32
  0
VERTEX
  5
93F4
  8
AM_0
 10
446.0828009059008
 20
62.881241389706929
 30
0.0
 70
    32
  0
VERTEX
  5
93F5
  8
AM_0
 10
446.08780090590091
 20
62.881041389706638
 30
0.0
 70
    32
  0
VERTEX
  5
93F6
  8
AM_0
 10
446.09180090590093
 20
62.88094138970667
 30
0.0
 70
    32
  0
VERTEX
  5
93F7
  8
AM_0
 10
446.09580090590111
 20
62.880841389706788
 30
0.0
 70
    32
  0
VERTEX
  5
93F8
  8
AM_0
 10
446.100800905901
 20
62.880641389706852
 30
0.0
 70
    32
  0
VERTEX
  5
93F9
  8
AM_0
 10
446.10480090590102
 20
62.880541389706543
 30
0.0
 70
    32
  0
VERTEX
  5
93FA
  8
AM_0
 10
446.10880090590092
 20
62.880441389706903
 30
0.0
 70
    32
  0
VERTEX
  5
93FB
  8
AM_0
 10
446.11380090590097
 20
62.880341389706707
 30
0.0
 70
    32
  0
VERTEX
  5
93FC
  8
AM_0
 10
446.11780090590088
 20
62.880241389706732
 30
0.0
 70
    32
  0
VERTEX
  5
93FD
  8
AM_0
 10
446.1218009059009
 20
62.880141389706623
 30
0.0
 70
    32
  0
VERTEX
  5
93FE
  8
AM_0
 10
446.12680090590089
 20
62.879941389706929
 30
0.0
 70
    32
  0
VERTEX
  5
93FF
  8
AM_0
 10
446.1308009059008
 20
62.879841389706932
 30
0.0
 70
    32
  0
VERTEX
  5
9400
  8
AM_0
 10
446.1348009059011
 20
62.879741389706751
 30
0.0
 70
    32
  0
VERTEX
  5
9401
  8
AM_0
 10
446.13980090590081
 20
62.879641389706542
 30
0.0
 70
    32
  0
VERTEX
  5
9402
  8
AM_0
 10
446.14380090590112
 20
62.879641389706542
 30
0.0
 70
    32
  0
VERTEX
  5
9403
  8
AM_0
 10
446.14780090590102
 20
62.879541389706787
 30
0.0
 70
    32
  0
VERTEX
  5
9404
  8
AM_0
 10
446.1528009059009
 20
62.87944138970704
 30
0.0
 70
    32
  0
VERTEX
  5
9405
  8
AM_0
 10
446.15680090590098
 20
62.879341389706958
 30
0.0
 70
    32
  0
VERTEX
  5
9406
  8
AM_0
 10
446.16080090590123
 20
62.879241389706742
 30
0.0
 70
    32
  0
VERTEX
  5
9407
  8
AM_0
 10
446.16580090590088
 20
62.879241389706742
 30
0.0
 70
    32
  0
VERTEX
  5
9408
  8
AM_0
 10
446.16980090590079
 20
62.87914138970666
 30
0.0
 70
    32
  0
VERTEX
  5
9409
  8
AM_0
 10
446.17380090590092
 20
62.879041389706792
 30
0.0
 70
    32
  0
VERTEX
  5
940A
  8
AM_0
 10
446.1788009059008
 20
62.879041389706792
 30
0.0
 70
    32
  0
VERTEX
  5
940B
  8
AM_0
 10
446.1828009059011
 20
62.878941389707173
 30
0.0
 70
    32
  0
VERTEX
  5
940C
  8
AM_0
 10
446.18780090590087
 20
62.878841389707063
 30
0.0
 70
    32
  0
VERTEX
  5
940D
  8
AM_0
 10
446.19180090590112
 20
62.878841389707063
 30
0.0
 70
    32
  0
VERTEX
  5
940E
  8
AM_0
 10
446.19580090590091
 20
62.878741389706541
 30
0.0
 70
    32
  0
VERTEX
  5
940F
  8
AM_0
 10
446.20080090590102
 20
62.878741389706541
 30
0.0
 70
    32
  0
VERTEX
  5
9410
  8
AM_0
 10
446.20480090590092
 20
62.878641389706893
 30
0.0
 70
    32
  0
VERTEX
  5
9411
  8
AM_0
 10
446.208800905901
 20
62.878641389706893
 30
0.0
 70
    32
  0
VERTEX
  5
9412
  8
AM_0
 10
446.213800905901
 20
62.878541389706932
 30
0.0
 70
    32
  0
VERTEX
  5
9413
  8
AM_0
 10
446.2178009059009
 20
62.878541389706932
 30
0.0
 70
    32
  0
VERTEX
  5
9414
  8
AM_0
 10
446.22180090590098
 20
62.878441389706722
 30
0.0
 70
    32
  0
VERTEX
  5
9415
  8
AM_0
 10
446.2268009059008
 20
62.878441389706722
 30
0.0
 70
    32
  0
VERTEX
  5
9416
  8
AM_0
 10
446.23080090590111
 20
62.878441389706722
 30
0.0
 70
    32
  0
VERTEX
  5
9417
  8
AM_0
 10
446.2348009059009
 20
62.87834138970652
 30
0.0
 70
    32
  0
VERTEX
  5
9418
  8
AM_0
 10
446.23980090590112
 20
62.87834138970652
 30
0.0
 70
    32
  0
VERTEX
  5
9419
  8
AM_0
 10
446.24380090590103
 20
62.878241389706659
 30
0.0
 70
    32
  0
VERTEX
  5
941A
  8
AM_0
 10
446.2478009059011
 20
62.878241389706659
 30
0.0
 70
    32
  0
VERTEX
  5
941B
  8
AM_0
 10
446.25280090590098
 20
62.878241389706659
 30
0.0
 70
    32
  0
VERTEX
  5
941C
  8
AM_0
 10
446.25680090590112
 20
62.878141389706897
 30
0.0
 70
    32
  0
SEQEND
  5
941D
  8
AM_0
  0
LINE
  5
941E
  8
AM_0
 10
456.75684797097472
 20
62.878175067647241
 30
0.0
 11
446.25684797097477
 21
62.878175067647241
 31
0.0
  0
ARC
  5
941F
  8
AM_0
 10
446.25684797097477
 20
55.108326586664361
 30
0.0
 40
2.5
 50
180.0
 51
270.0
  0
LINE
  5
9420
  8
AM_0
 10
443.75684797097477
 20
51.008326586663657
 30
0.0
 11
443.75684797097477
 21
122.0083265866637
 31
0.0
  0
ARC
  5
9421
  8
AM_0
 10
444.25684797097472
 20
51.00832658666377
 30
0.0
 40
0.5
 50
180.0
 51
270.0
  0
LINE
  5
9422
  8
AM_0
 10
446.25684797097477
 20
52.608326586664248
 30
0.0
 11
455.2918479709748
 21
52.608326586664248
 31
0.0
  0
ARC
  5
9423
  8
AM_0
 10
476.75684797097568
 20
112.00832658666221
 30
0.0
 40
1.0
 50
270.0
 51
0.0
  0
LINE
  5
9424
  8
AM_0
 10
480.25684797097568
 20
56.771348004944002
 30
0.0
 11
480.25684797097477
 21
120.0083165866635
 31
0.0
  0
LINE
  5
9425
  8
AM_0
 10
460.75684797097477
 20
111.00832658666231
 30
0.0
 11
460.75684797097477
 21
122.50832658666221
 31
0.0
  0
LINE
  5
9426
  8
AM_0
 10
460.75684797097477
 20
122.5083265866637
 30
0.0
 11
460.75684797097477
 21
92.008326586663642
 31
0.0
  0
ARC
  5
9427
  8
AM_0
 10
476.75684797097568
 20
121.50832658666179
 30
0.0
 40
0.9999999999998864
 50
0.0
 51
90.0
  0
LINE
  5
9428
  8
AM_0
 10
477.75684797097568
 20
120.0082658012231
 30
0.0
 11
480.25684797097477
 21
120.0082658012231
 31
0.0
  0
LINE
  5
9429
  8
AM_0
 10
460.75684797097477
 20
81.008326586663756
 30
0.0
 11
460.75684797097477
 21
50.508326586663877
 31
0.0
  0
LINE
  5
942A
  8
AM_0
 10
476.75684797097568
 20
111.00832658666231
 30
0.0
 11
460.75684797097477
 21
111.00832658666231
 31
0.0
  0
LINE
  5
942B
  8
AM_0
 10
471.0400615307467
 20
92.008326586663756
 30
0.0
 11
471.0400615307467
 21
81.008326586663756
 31
0.0
  0
LINE
  5
942C
  8
AM_0
 10
477.75684797097477
 20
51.508326586662292
 30
0.0
 11
477.75684797097477
 21
121.50832658666179
 31
0.0
  0
LINE
  5
942D
  8
AM_0
 10
460.75684797097477
 20
50.508326586662058
 30
0.0
 11
460.75684797097477
 21
62.008326586662179
 31
0.0
  0
LINE
  5
942E
  8
AM_0
 10
476.75684797097568
 20
62.008326586662179
 30
0.0
 11
460.75684797097477
 21
62.008326586662179
 31
0.0
  0
ARC
  5
942F
  8
AM_0
 10
476.75684797097568
 20
61.008326586662413
 30
0.0
 40
0.9999999999998864
 50
0.0
 51
90.0
  0
ARC
  5
9430
  8
AM_0
 10
476.75684797097568
 20
51.508326586662292
 30
0.0
 40
1.0
 50
270.0
 51
0.0
  0
LINE
  5
9431
  8
AM_0
 10
477.75684797097477
 20
53.008265801223281
 30
0.0
 11
479.86200793920358
 21
53.008265801223281
 31
0.0
  0
LINE
  5
9435
  8
AM_0
 10
486.53508805970858
 20
116.607057779949
 30
0.0
 11
480.25684797097477
 21
116.4430027473378
 31
0.0
  0
LINE
  5
9437
  8
ﾁｭｳｼﾝｾﾝ
 10
485.90526155115441
 20
86.508327280431686
 30
0.0
 11
623.62818639079535
 21
86.508327280431686
 31
0.0
  0
LINE
  5
968F
  8
ﾁｭｳｼﾝｾﾝ
 10
12.44208697097519
 20
335.45970952600641
 30
0.0
 11
378.07437697097481
 21
335.45970952600641
 31
0.0
  0
ARC
  5
977F
  8
AM_0
 10
380.3434269709748
 20
335.45970952600641
 30
0.0
 40
101.4887199999999
 50
151.89333000000019
 51
208.10666999999961
  0
LINE
  5
9783
  8
AM_0
 10
227.85471697097481
 20
271.95970952600641
 30
0.0
 11
227.85471697097481
 21
398.95970952600641
 31
0.0
  0
LINE
  5
9784
  8
AM_0
 10
257.85471697097489
 20
266.59132952600652
 30
0.0
 11
257.85471697097489
 21
404.32807952600649
 31
0.0
  0
LINE
  5
9785
  8
AM_0
 10
278.85471697097489
 20
285.39247952600653
 30
0.0
 11
278.85471697097489
 21
385.5269395260064
 31
0.0
  0
LINE
  5
9786
  8
AM_0
 10
313.85471697097478
 20
285.20869952600651
 30
0.0
 11
313.85471697097478
 21
385.71070952600633
 31
0.0
  0
LINE
  5
9787
  8
AM_0
 10
329.8546869709748
 20
309.92536952600648
 30
0.0
 11
329.8546869709748
 21
360.99400952600632
 31
0.0
  0
LINE
  5
9788
  8
AM_0
 10
326.8546869709748
 20
385.00465952600649
 30
0.0
 11
326.8546869709748
 21
285.9147495260064
 31
0.0
  0
LINE
  5
9789
  8
AM_0
 10
264.8546869709748
 20
406.45970952600629
 30
0.0
 11
264.8546869709748
 21
264.45970952600641
 31
0.0
  0
ARC
  5
978A
  8
AM_0
 10
247.85468697097511
 20
270.45970952600641
 30
0.0
 40
6.0
 50
169.13878999999881
 51
0.5425729200004517
  0
ARC
  5
978B
  8
AM_0
 10
250.8546869709748
 20
281.41966952600649
 30
0.0
 40
2.0
 50
0.0
 51
90.000003000000945
  0
ARC
  5
978C
  8
AM_0
 10
254.8546869709748
 20
272.2484295260063
 30
0.0
 40
2.0
 50
180.00001000000091
 51
270.0
  0
ARC
  5
978D
  8
ｶｸﾚｾﾝ2
 10
247.85468697097511
 20
270.45970952600641
 30
0.0
 40
6.0
 50
0.5425604000007391
 51
169.13878999999881
  0
LINE
  5
978E
  8
AM_0
 10
227.85471697097481
 20
298.30967952600639
 30
0.0
 11
257.85471697097489
 21
298.30967952600639
 31
0.0
  0
LINE
  5
978F
  8
AM_0
 10
227.85471697097481
 20
283.41966952600649
 30
0.0
 11
257.85471697097489
 21
283.41966952600649
 31
0.0
  0
LINE
  5
9790
  8
AM_0
 10
253.09451697097501
 20
271.29875952600639
 30
0.0
 11
227.85474697097479
 21
271.95970952600641
 31
0.0
  0
LINE
  5
9791
  8
AM_0
 10
237.80234697097481
 20
258.24665952600662
 30
0.0
 11
267.85468697097502
 21
257.45970952600641
 31
0.0
  0
LINE
  5
9807
  8
AM_0
 10
235.8546869709748
 20
260.2459895260065
 30
0.0
 11
235.8546869709748
 21
271.69783952600631
 31
0.0
  0
ARC
  5
9809
  8
AM_0
 10
237.8546869709748
 20
260.2459895260065
 30
0.0
 40
2.0
 50
180.00001000000091
 51
268.5000000000004
  0
LINE
  5
980A
  8
AM_0
 10
252.8546869709748
 20
272.2484295260063
 30
0.0
 11
252.8546869709748
 21
281.41966952600649
 31
0.0
  0
LINE
  5
9817
  8
AM_0
 10
310.93326697097478
 20
288.4351695260064
 30
0.0
 11
292.43665697097481
 21
287.95082952600649
 31
0.0
  0
LINE
  5
9818
  8
AM_0
 10
311.11618697097481
 20
282.22013952600622
 30
0.0
 11
305.4188969709748
 21
281.72166952600651
 31
0.0
  0
LINE
  5
9819
  8
AM_0
 10
267.85471697097501
 20
257.45970952600641
 30
0.0
 11
327.90704697097487
 21
259.03224952600641
 31
0.0
  0
ARC
  5
981A
  8
AM_0
 10
305.8546869709748
 20
276.74067952600649
 30
0.0
 40
5.0
 50
95.00000199999856
 51
180.00001000000091
  0
LINE
  5
981B
  8
AM_0
 10
280.85465697097487
 20
272.3747195260064
 30
0.0
 11
280.85465697097487
 21
281.92173952600649
 31
0.0
  0
LINE
  5
981C
  8
AM_0
 10
276.85468697097508
 20
283.92176952600641
 30
0.0
 11
276.85468697097508
 21
270.3747195260064
 31
0.0
  0
LINE
  5
981D
  8
AM_0
 10
275.8546869709748
 20
285.39247952600653
 30
0.0
 11
275.8546869709748
 21
264.7477595260064
 31
0.0
  0
ARC
  5
981E
  8
AM_0
 10
279.8546869709748
 20
281.03498952600648
 30
0.0
 40
1.0
 50
269.999989999999
 51
0.0000006832462478
  0
ARC
  5
981F
  8
AM_0
 10
279.8546869709748
 20
275.26145952600649
 30
0.0
 40
1.0
 50
269.999989999999
 51
0.0000006832462478
  0
ARC
  5
9820
  8
AM_0
 10
279.8546869709748
 20
272.3747195260064
 30
0.0
 40
1.0
 50
269.999989999999
 51
0.0000006832462478
  0
ARC
  5
9821
  8
AM_0
 10
279.8546869709748
 20
273.26148952600653
 30
0.0
 40
1.0
 50
0.0
 51
90.000003000000945
  0
ARC
  5
9822
  8
AM_0
 10
279.8546869709748
 20
279.03498952600648
 30
0.0
 40
1.0
 50
0.0
 51
90.000003000000945
  0
LINE
  5
9823
  8
AM_0
 10
279.95111697097508
 20
265.45643952600631
 30
0.0
 11
290.58789697097501
 21
271.56965952600649
 31
0.0
  0
LINE
  5
9824
  8
AM_0
 10
267.85468697097502
 20
264.53825952600641
 30
0.0
 11
267.85468697097502
 21
261.31568952600639
 31
0.0
  0
LINE
  5
9825
  8
AM_0
 10
265.25769697097502
 20
264.4702695260064
 30
0.0
 11
260.8546869709748
 21
262.1601195260065
 31
0.0
  0
LINE
  5
9826
  8
AM_0
 10
267.85468697097502
 20
261.31565952600641
 30
0.0
 11
260.8546869709748
 21
257.64299952600641
 31
0.0
  0
LINE
  5
9827
  8
AM_0
 10
260.8546869709748
 20
257.64302952600639
 30
0.0
 11
260.8546869709748
 21
262.1601195260065
 31
0.0
  0
LINE
  5
9828
  8
AM_0
 10
277.59052697097479
 20
264.79322952600648
 30
0.0
 11
264.8546869709748
 21
264.45970952600641
 31
0.0
  0
ARC
  5
9829
  8
AM_0
 10
259.85471697097501
 20
266.59132952600652
 30
0.0
 40
2.0
 50
180.00001000000091
 51
268.5000000000004
  0
ARC
  5
982A
  8
AM_0
 10
255.85471697097489
 20
268.2484295260063
 30
0.0
 40
2.0
 50
0.0
 51
90.000003000000945
  0
LINE
  5
982B
  8
AM_0
 10
254.8546869709748
 20
270.2484295260063
 30
0.0
 11
255.85471697097489
 21
270.2484295260063
 31
0.0
  0
LINE
  5
982C
  8
AM_0
 10
264.85471697097478
 20
264.45970952600641
 30
0.0
 11
259.80237697097482
 21
264.59199952600648
 31
0.0
  0
ARC
  5
982D
  8
AM_0
 10
277.45966697097492
 20
269.7914895260065
 30
0.0
 40
5.0
 50
271.49999999999937
 51
299.8870199999991
  0
LINE
  5
982E
  8
AM_0
 10
276.85468697097508
 20
271.3747195260064
 30
0.0
 11
279.8546869709748
 21
271.3747195260064
 31
0.0
  0
LINE
  5
982F
  8
AM_0
 10
275.8546869709748
 20
270.3747195260064
 30
0.0
 11
276.85468697097508
 21
270.3747195260064
 31
0.0
  0
LINE
  5
9830
  8
AM_0
 10
276.85468697097508
 20
274.26148952600641
 30
0.0
 11
279.8546869709748
 21
274.26148952600641
 31
0.0
  0
LINE
  5
9831
  8
AM_0
 10
276.85468697097508
 20
280.03498952600643
 30
0.0
 11
279.8546869709748
 21
280.03498952600643
 31
0.0
  0
ARC
  5
9832
  8
AM_0
 10
305.8546869709748
 20
263.4564995260065
 30
0.0
 40
5.0
 50
180.00001000000091
 51
271.49999999999937
  0
LINE
  5
9833
  8
AM_0
 10
297.93320697097488
 20
272.36341952600662
 30
0.0
 11
292.94846697097489
 21
272.23289952600641
 31
0.0
  0
ARC
  5
9834
  8
AM_0
 10
293.0793569709748
 20
267.23460952600641
 30
0.0
 40
5.0
 50
91.500001000001546
 51
119.8870199999991
  0
ARC
  5
9835
  8
AM_0
 10
297.85468697097508
 20
275.3623895260065
 30
0.0
 40
3.0
 50
271.49999999999937
 51
0.0
  0
LINE
  5
9836
  8
AM_0
 10
300.8546869709748
 20
263.4564995260065
 30
0.0
 11
300.8546869709748
 21
276.74067952600649
 31
0.0
  0
ARC
  5
9837
  8
AM_0
 10
279.8546869709748
 20
281.92173952600649
 30
0.0
 40
1.0
 50
0.0
 51
90.000003000000945
  0
LINE
  5
9838
  8
AM_0
 10
278.8546869709748
 20
285.39247952600653
 30
0.0
 11
292.43668697097479
 21
287.95085952600641
 31
0.0
  0
LINE
  5
9839
  8
AM_0
 10
275.8546869709748
 20
285.39247952600653
 30
0.0
 11
278.8546869709748
 21
285.39247952600653
 31
0.0
  0
LINE
  5
983A
  8
AM_0
 10
276.85468697097508
 20
282.92176952600641
 30
0.0
 11
279.8546869709748
 21
282.92176952600641
 31
0.0
  0
LINE
  5
983B
  8
AM_0
 10
275.8546869709748
 20
283.92176952600641
 30
0.0
 11
276.85468697097508
 21
283.92176952600641
 31
0.0
  0
ARC
  5
983C
  8
AM_0
 10
310.85471697097478
 20
285.20869952600651
 30
0.0
 40
3.0
 50
274.99999999999972
 51
0.0
  0
LINE
  5
983D
  8
AM_0
 10
329.8546869709748
 20
261.0315395260065
 30
0.0
 11
329.8546869709748
 21
283.88786952600651
 31
0.0
  0
ARC
  5
983F
  8
AM_0
 10
327.8546869709748
 20
261.0315395260065
 30
0.0
 40
2.0
 50
271.49999999999937
 51
0.0
  0
CIRCLE
  5
9840
  8
AM_0
 10
317.8546869709748
 20
270.45970952600641
 30
0.0
 40
6.0
  0
LINE
  5
9842
  8
AM_0
 10
322.29047697097479
 20
287.06037952600622
 30
0.0
 11
317.59296697097489
 21
286.6493995260065
 31
0.0
  0
ARC
  5
9843
  8
AM_0
 10
310.85471697097478
 20
291.43415952600651
 30
0.0
 40
3.0
 50
271.49999999999937
 51
0.0
  0
ARC
  5
9844
  8
AM_0
 10
318.02872697097479
 20
281.6684195260064
 30
0.0
 40
5.0
 50
95.00000199999856
 51
153.73432999999969
  0
ARC
  5
9845
  8
AM_0
 10
321.8546869709748
 20
292.04133952600648
 30
0.0
 40
5.0
 50
274.99999999999972
 51
0.0
  0
ARC
  5
9846
  8
AM_0
 10
327.8546869709748
 20
283.88786952600651
 30
0.0
 40
2.0
 50
0.0
 51
88.499997000000747
  0
LINE
  5
9847
  8
AM_0
 10
327.90704697097487
 20
285.8871995260065
 30
0.0
 11
326.85471697097478
 21
285.91471952600648
 31
0.0
  0
LINE
  5
9848
  8
AM_0
 10
327.81980697097492
 20
308.88865952600651
 30
0.0
 11
328.88959697097488
 21
308.92601952600648
 31
0.0
  0
ARC
  5
9849
  8
AM_0
 10
327.8546869709748
 20
307.88923952600641
 30
0.0
 40
1.0
 50
91.999998000000545
 51
180.00001000000091
  0
ARC
  5
984A
  8
AM_0
 10
328.8546869709748
 20
309.92536952600648
 30
0.0
 40
1.0
 50
272.0000000000004
 51
0.0
  0
ARC
  5
984B
  8
ｶｸﾚｾﾝ2
 10
247.85468697097511
 20
400.45970952600652
 30
0.0
 40
6.0
 50
190.86121000000111
 51
359.45752000000078
  0
ARC
  5
984C
  8
AM_0
 10
250.8546869709748
 20
389.4997495260065
 30
0.0
 40
2.0
 50
270.0
 51
0.0
  0
ARC
  5
984D
  8
AM_0
 10
254.8546869709748
 20
398.67100952600651
 30
0.0
 40
2.0
 50
90.000003000000945
 51
180.00001000000091
  0
ARC
  5
984E
  8
AM_0
 10
247.85468697097511
 20
400.45970952600652
 30
0.0
 40
6.0
 50
359.45751000000092
 51
190.86121000000111
  0
LINE
  5
984F
  8
AM_0
 10
227.85471697097481
 20
387.4997495260065
 30
0.0
 11
257.85471697097489
 21
387.4997495260065
 31
0.0
  0
LINE
  5
9850
  8
AM_0
 10
227.85471697097481
 20
372.60972952600628
 30
0.0
 11
257.85471697097489
 21
372.60972952600628
 31
0.0
  0
LINE
  5
9851
  8
AM_0
 10
253.09451697097501
 20
399.62065952600642
 30
0.0
 11
227.85471697097481
 21
398.95970952600641
 31
0.0
  0
LINE
  5
9852
  8
AM_0
 10
237.80234697097481
 20
412.67274952600638
 30
0.0
 11
267.85468697097502
 21
413.45970952600652
 31
0.0
  0
LINE
  5
9856
  8
AM_0
 10
252.8546869709748
 20
398.67100952600651
 30
0.0
 11
252.8546869709748
 21
389.4997495260065
 31
0.0
  0
LINE
  5
9884
  8
AM_0
 10
235.8546869709748
 20
410.67344952600649
 30
0.0
 11
235.8546869709748
 21
399.22157952600628
 31
0.0
  0
ARC
  5
9885
  8
AM_0
 10
237.8546869709748
 20
410.67344952600649
 30
0.0
 40
2.0
 50
91.500001000001546
 51
180.00001000000091
  0
ARC
  5
9886
  8
AM_0
 10
297.85468697097508
 20
395.55702952600649
 30
0.0
 40
3.0
 50
0.0
 51
88.499997000000747
  0
CIRCLE
  5
9887
  8
AM_0
 10
317.8546869709748
 20
400.45970952600652
 30
0.0
 40
6.0
  0
LINE
  5
9888
  8
AM_0
 10
275.8546869709748
 20
385.5269395260064
 30
0.0
 11
275.8546869709748
 21
406.17164952600638
 31
0.0
  0
LINE
  5
9889
  8
AM_0
 10
276.85468697097508
 20
386.99763952600648
 30
0.0
 11
276.85468697097508
 21
400.5446995260063
 31
0.0
  0
LINE
  5
988A
  8
AM_0
 10
280.85465697097487
 20
398.54469952600653
 30
0.0
 11
280.85465697097487
 21
388.9976695260064
 31
0.0
  0
LINE
  5
988B
  8
AM_0
 10
300.8546869709748
 20
394.17869952600648
 30
0.0
 11
300.8546869709748
 21
407.46290952600629
 31
0.0
  0
LINE
  5
988D
  8
AM_0
 10
329.8546869709748
 20
409.8878695260064
 30
0.0
 11
329.8546869709748
 21
387.0315395260065
 31
0.0
  0
LINE
  5
988E
  8
AM_0
 10
310.93326697097478
 20
382.48423952600638
 30
0.0
 11
292.43668697097479
 21
382.9685895260065
 31
0.0
  0
LINE
  5
988F
  8
AM_0
 10
311.11618697097481
 20
388.69929952600643
 30
0.0
 11
305.41892697097478
 21
389.1977395260065
 31
0.0
  0
ARC
  5
9890
  8
AM_0
 10
279.8546869709748
 20
388.9976695260064
 30
0.0
 40
1.0
 50
269.999989999999
 51
0.0000006832462478
  0
ARC
  5
9891
  8
AM_0
 10
279.8546869709748
 20
391.88441952600641
 30
0.0
 40
1.0
 50
269.999989999999
 51
0.0000006832462478
  0
ARC
  5
9892
  8
AM_0
 10
279.8546869709748
 20
397.65791952600648
 30
0.0
 40
1.0
 50
269.999989999999
 51
0.0000006832462478
  0
ARC
  5
9893
  8
AM_0
 10
279.8546869709748
 20
395.6579495260064
 30
0.0
 40
1.0
 50
0.0
 51
90.000003000000945
  0
ARC
  5
9894
  8
AM_0
 10
279.8546869709748
 20
389.88441952600641
 30
0.0
 40
1.0
 50
0.0
 51
90.000003000000945
  0
LINE
  5
9895
  8
AM_0
 10
278.8546869709748
 20
385.5269695260065
 30
0.0
 11
292.43668697097479
 21
382.9685895260065
 31
0.0
  0
LINE
  5
9896
  8
AM_0
 10
275.8546869709748
 20
385.5269395260064
 30
0.0
 11
278.8546869709748
 21
385.5269395260064
 31
0.0
  0
LINE
  5
9897
  8
AM_0
 10
275.8546869709748
 20
386.99763952600648
 30
0.0
 11
276.85468697097508
 21
386.99763952600648
 31
0.0
  0
LINE
  5
9898
  8
AM_0
 10
276.85468697097508
 20
387.9976695260064
 30
0.0
 11
279.8546869709748
 21
387.9976695260064
 31
0.0
  0
LINE
  5
9899
  8
AM_0
 10
276.85468697097508
 20
390.88441952600652
 30
0.0
 11
279.8546869709748
 21
390.88441952600652
 31
0.0
  0
LINE
  5
989A
  8
AM_0
 10
276.85468697097508
 20
396.65791952600648
 30
0.0
 11
279.8546869709748
 21
396.65791952600648
 31
0.0
  0
ARC
  5
989B
  8
AM_0
 10
305.8546869709748
 20
394.17869952600648
 30
0.0
 40
5.0
 50
180.00001000000091
 51
265.00001000000071
  0
LINE
  5
98A1
  8
AM_0
 10
327.8197669709748
 20
362.03074952600639
 30
0.0
 11
328.88959697097488
 21
361.9933995260065
 31
0.0
  0
ARC
  5
98A2
  8
AM_0
 10
327.8546869709748
 20
363.03016952600638
 30
0.0
 40
1.0
 50
180.00001000000091
 51
267.9999999999996
  0
ARC
  5
98A3
  8
AM_0
 10
328.8546869709748
 20
360.99400952600632
 30
0.0
 40
1.0
 50
0.0
 51
87.999999999999659
  0
LINE
  5
98A4
  8
AM_0
 10
322.29044697097481
 20
383.8590295260064
 30
0.0
 11
317.59293697097479
 21
384.27000952600639
 31
0.0
  0
ARC
  5
98A5
  8
AM_0
 10
310.85471697097478
 20
385.71070952600633
 30
0.0
 40
3.0
 50
0.0
 51
85.000004000001198
  0
ARC
  5
98A6
  8
AM_0
 10
310.85471697097478
 20
379.4852495260065
 30
0.0
 40
3.0
 50
0.0
 51
88.499997000000747
  0
ARC
  5
98A7
  8
AM_0
 10
318.02872697097479
 20
389.25096952600649
 30
0.0
 40
5.0
 50
206.2656700000002
 51
265.00001000000071
  0
ARC
  5
98A8
  8
AM_0
 10
327.8546869709748
 20
387.0315395260065
 30
0.0
 40
2.0
 50
271.49999999999937
 51
0.0
  0
ARC
  5
98A9
  8
AM_0
 10
321.8546869709748
 20
378.8780395260066
 30
0.0
 40
5.0
 50
0.0
 51
85.000004000001198
  0
LINE
  5
98AA
  8
AM_0
 10
326.8546869709748
 20
385.00465952600649
 30
0.0
 11
327.90701697097478
 21
385.03221952600649
 31
0.0
  0
LINE
  5
98AB
  8
AM_0
 10
267.85471697097501
 20
413.45970952600652
 30
0.0
 11
327.90704697097487
 21
411.88716952600652
 31
0.0
  0
ARC
  5
98AC
  8
AM_0
 10
279.8546869709748
 20
398.54469952600653
 30
0.0
 40
1.0
 50
0.0
 51
90.000003000000945
  0
LINE
  5
98AD
  8
AM_0
 10
279.95114697097478
 20
405.46293952600632
 30
0.0
 11
290.58789697097501
 21
399.34974952600641
 31
0.0
  0
LINE
  5
98AE
  8
AM_0
 10
277.59055697097489
 20
406.12617952600641
 30
0.0
 11
264.85471697097478
 21
406.45970952600629
 31
0.0
  0
LINE
  5
98AF
  8
AM_0
 10
267.85471697097501
 20
409.60371952600627
 30
0.0
 11
260.85471697097478
 21
413.27638952600643
 31
0.0
  0
LINE
  5
98B0
  8
AM_0
 10
265.25772697097489
 20
406.44914952600641
 30
0.0
 11
260.85471697097478
 21
408.75926952600639
 31
0.0
  0
ARC
  5
98B1
  8
AM_0
 10
259.85471697097501
 20
404.32807952600649
 30
0.0
 40
2.0
 50
91.500001000001546
 51
180.00001000000091
  0
ARC
  5
98B2
  8
AM_0
 10
255.85471697097489
 20
402.6710095260064
 30
0.0
 40
2.0
 50
270.0
 51
0.0
  0
LINE
  5
98B3
  8
AM_0
 10
254.8546869709748
 20
400.67100952600629
 30
0.0
 11
255.85471697097489
 21
400.67100952600629
 31
0.0
  0
LINE
  5
98B4
  8
AM_0
 10
264.8546869709748
 20
406.45970952600629
 30
0.0
 11
259.8023469709749
 21
406.32740952600642
 31
0.0
  0
LINE
  5
98B5
  8
AM_0
 10
260.8546869709748
 20
413.27638952600643
 30
0.0
 11
260.8546869709748
 21
408.75929952600649
 31
0.0
  0
LINE
  5
98B6
  8
AM_0
 10
267.85468697097502
 20
406.38114952600648
 30
0.0
 11
267.85468697097502
 21
409.60371952600627
 31
0.0
  0
ARC
  5
98B7
  8
AM_0
 10
277.45966697097492
 20
401.12791952600639
 30
0.0
 40
5.0
 50
60.112980000000888
 51
88.499997000000747
  0
LINE
  5
98B8
  8
AM_0
 10
275.8546869709748
 20
400.5446995260063
 30
0.0
 11
276.85468697097508
 21
400.5446995260063
 31
0.0
  0
LINE
  5
98B9
  8
AM_0
 10
276.85468697097508
 20
399.54466952600637
 30
0.0
 11
279.8546869709748
 21
399.54466952600637
 31
0.0
  0
LINE
  5
98BA
  8
AM_0
 10
297.9332369709748
 20
398.5559895260065
 30
0.0
 11
292.94849697097487
 21
398.68650952600638
 31
0.0
  0
ARC
  5
98BB
  8
AM_0
 10
293.0793569709748
 20
403.68479952600649
 30
0.0
 40
5.0
 50
240.11298000000079
 51
268.5000000000004
  0
ARC
  5
98BC
  8
AM_0
 10
305.8546869709748
 20
407.46290952600629
 30
0.0
 40
5.0
 50
88.499997000000747
 51
180.00001000000091
  0
ARC
  5
98BE
  8
AM_0
 10
327.8546869709748
 20
409.8878695260064
 30
0.0
 40
2.0
 50
0.0
 51
88.499997000000747
  0
LINE
  5
9A37
  8
AM_0
 10
202.35471697097481
 20
260.9597095260068
 30
0.0
 11
135.35471697097469
 21
260.9597095260068
 31
0.0
  0
LINE
  5
9A38
  8
AM_0
 10
125.3795907051271
 20
258.45970952600709
 30
0.0
 11
205.85471697097429
 21
258.45970952600652
 31
0.0
  0
LINE
  5
9A39
  8
AM_0
 10
200.9795907051278
 20
237.45970952600629
 30
0.0
 11
198.80528584196861
 21
237.45970952600629
 31
0.0
  0
LINE
  5
9A3A
  8
AM_0
 10
206.8547169709741
 20
241.45970952600669
 30
0.0
 11
198.47959070512741
 21
241.45970952600629
 31
0.0
  0
ARC
  5
9A3B
  8
AM_0
 10
197.9795907051278
 20
226.95970952600669
 30
0.0
 40
2.5
 50
270.0
 51
0.0
  0
ARC
  5
9A3C
  8
AM_0
 10
200.36832697097469
 20
263.95970952600641
 30
0.0
 40
1.5
 50
90.000003000000945
 51
178.50000000000051
  0
LINE
  5
9A3D
  8
AM_0
 10
198.83469697097459
 20
302.09971952600648
 30
0.0
 11
216.6747269709746
 21
302.09971952600648
 31
0.0
  0
LINE
  5
9A3E
  8
AM_0
 10
198.85471697097481
 20
308.97972952600651
 30
0.0
 11
216.8889569709747
 21
308.97972952600651
 31
0.0
  0
LINE
  5
9A3F
  8
AM_0
 10
213.19474697097459
 20
301.45970952600652
 30
0.0
 11
198.85471697097481
 21
301.45970952600652
 31
0.0
  0
LINE
  5
9A40
  8
AM_0
 10
213.18754697097461
 20
309.45970952600652
 30
0.0
 11
198.85471697097481
 21
309.45970952600652
 31
0.0
  0
LINE
  5
9A41
  8
AM_0
 10
213.19474697097459
 20
299.45970952600652
 30
0.0
 11
168.85471697097461
 21
299.45970952600652
 31
0.0
  0
LINE
  5
9A42
  8
AM_0
 10
168.85471697097461
 20
298.73973952600647
 30
0.0
 11
216.6747269709746
 21
298.73973952600647
 31
0.0
  0
LINE
  5
9A43
  8
AM_0
 10
86.31473697097465
 20
311.89964952600661
 30
0.0
 11
216.8889569709747
 21
311.89964952600661
 31
0.0
  0
LINE
  5
9A44
  8
AM_0
 10
213.18754697097461
 20
311.45970952600652
 30
0.0
 11
87.390366970974597
 21
311.45970952600652
 31
0.0
  0
LINE
  5
9A45
  8
AM_0
 10
86.31473697097465
 20
359.02964952600661
 30
0.0
 11
216.8889569709747
 21
359.02964952600661
 31
0.0
  0
LINE
  5
9A46
  8
AM_0
 10
86.524696970974674
 20
372.18968952600648
 30
0.0
 11
216.6747269709746
 21
372.18968952600648
 31
0.0
  0
LINE
  5
9A47
  8
AM_0
 10
213.18754697097461
 20
359.45970952600641
 30
0.0
 11
87.404706970974871
 21
359.45970952600641
 31
0.0
  0
LINE
  5
9A48
  8
AM_0
 10
213.19474697097459
 20
371.45970952600652
 30
0.0
 11
87.404706970974871
 21
371.45970952600652
 31
0.0
  0
LINE
  5
9A49
  8
AM_0
 10
95.854716970974764
 20
399.34971952600648
 30
0.0
 11
214.3746769709746
 21
399.34971952600648
 31
0.0
  0
LINE
  5
9A4A
  8
AM_0
 10
95.854716970974764
 20
400.70970952600641
 30
0.0
 11
214.08237697097439
 21
400.70970952600641
 31
0.0
  0
LINE
  5
9A4B
  8
AM_0
 10
95.854716970974764
 20
401.37974952600649
 30
0.0
 11
213.93839697097459
 21
401.37974952600649
 31
0.0
  0
LINE
  5
9A4C
  8
AM_0
 10
95.854716970974764
 20
397.31968952600653
 30
0.0
 11
212.6647169709745
 21
397.31968952600653
 31
0.0
  0
LINE
  5
9A4D
  8
AM_0
 10
113.85471697097471
 20
381.80967952600639
 30
0.0
 11
219.85471697097461
 21
381.80967952600639
 31
0.0
  0
LINE
  5
9A4E
  8
AM_0
 10
95.854716970974764
 20
273.5997195260066
 30
0.0
 11
212.6647169709745
 21
273.5997195260066
 31
0.0
  0
LINE
  5
9A4F
  8
AM_0
 10
113.85471697097471
 20
289.1097295260065
 30
0.0
 11
219.85471697097461
 21
289.1097295260065
 31
0.0
  0
LINE
  5
9A50
  8
AM_0
 10
198.85471697097481
 20
361.94969952600661
 30
0.0
 11
216.9004369709746
 21
361.94969952600661
 31
0.0
  0
LINE
  5
9A51
  8
AM_0
 10
198.83469697097459
 20
368.82969952600661
 30
0.0
 11
216.6747269709746
 21
368.82969952600661
 31
0.0
  0
LINE
  5
9A52
  8
AM_0
 10
213.20188697097481
 20
361.45970952600652
 30
0.0
 11
198.85471697097481
 21
361.45970952600652
 31
0.0
  0
LINE
  5
9A53
  8
AM_0
 10
213.19474697097459
 20
369.45970952600652
 30
0.0
 11
198.85471697097481
 21
369.45970952600652
 31
0.0
  0
LINE
  5
9A54
  8
AM_0
 10
17.353286870974721
 20
391.45970952600652
 30
0.0
 11
17.353286870974721
 21
279.45970952600652
 31
0.0
  0
LINE
  5
9A55
  8
AM_0
 10
25.354716970974771
 20
282.67771952600663
 30
0.0
 11
25.354716970974771
 21
388.20970952600629
 31
0.0
  0
LINE
  5
9A56
  8
AM_0
 10
67.854716970974764
 20
298.2746495260065
 30
0.0
 11
67.854716970974764
 21
372.64573952600642
 31
0.0
  0
LINE
  5
9A57
  8
AM_0
 10
22.854716970974771
 20
300.93064952600639
 30
0.0
 11
22.854716970974771
 21
369.98875952600662
 31
0.0
  0
LINE
  5
9A58
  8
AM_0
 10
22.353286870974721
 20
370.1981706217137
 30
0.0
 11
22.353286870974721
 21
300.72124843029911
 31
0.0
  0
LINE
  5
9A59
  8
AM_0
 10
72.854716970974749
 20
276.70970952600641
 30
0.0
 11
72.854716970974749
 21
335.45970952600652
 31
0.0
  0
LINE
  5
9A5A
  8
AM_0
 10
47.854716970974764
 20
276.70970952600652
 30
0.0
 11
72.854716970974749
 21
276.70970952600652
 31
0.0
  0
LINE
  5
9A5B
  8
AM_0
 10
24.854716970974771
 20
282.70970952600652
 30
0.0
 11
72.854716970974749
 21
282.70970952600652
 31
0.0
  0
LINE
  5
9A5C
  8
AM_0
 10
47.854716970974764
 20
276.70970952600652
 30
0.0
 11
47.854716970974764
 21
282.70970952600652
 31
0.0
  0
LINE
  5
9A5D
  8
AM_0
 10
22.353286870974721
 20
292.41619062171372
 30
0.0
 11
22.353286870974721
 21
280.45970952600641
 31
0.0
  0
LINE
  5
9A5E
  8
AM_0
 10
27.353286870974731
 20
275.45970952600652
 30
0.0
 11
50.854716970974778
 21
275.45970952600652
 31
0.0
  0
LINE
  5
9A5F
  8
AM_0
 10
26.353286870974731
 20
270.45970952600652
 30
0.0
 11
63.854716970974778
 21
270.45970952600652
 31
0.0
  0
ARC
  5
9A60
  8
AM_0
 10
26.353286870974731
 20
279.45970952600652
 30
0.0
 40
9.0
 50
179.99997999999781
 51
269.99995000000138
  0
ARC
  5
9A61
  8
AM_0
 10
27.353286870974731
 20
280.45970952600641
 30
0.0
 40
5.0
 50
179.99997999999781
 51
269.99995000000138
  0
LINE
  5
9A62
  8
AM_0
 10
50.854716970974778
 20
276.70970952600652
 30
0.0
 11
50.854716970974778
 21
270.45970952600652
 31
0.0
  0
LINE
  5
9A63
  8
AM_0
 10
60.854716970974778
 20
276.70970952600652
 30
0.0
 11
60.854716970974778
 21
270.45970952600652
 31
0.0
  0
LINE
  5
9A64
  8
AM_0
 10
63.854716970974778
 20
275.45970952600652
 30
0.0
 11
63.854716970974778
 21
270.45970952600652
 31
0.0
  0
LINE
  5
9A65
  8
AM_0
 10
60.854716970974778
 20
275.45970952600652
 30
0.0
 11
63.854716970974778
 21
275.45970952600652
 31
0.0
  0
LINE
  5
9A66
  8
AM_0
 10
25.354716970974771
 20
291.56871952600642
 30
0.0
 11
67.854716970974764
 21
291.56871952600642
 31
0.0
  0
LINE
  5
9A67
  8
AM_0
 10
25.354716970974771
 20
301.81871952600642
 30
0.0
 11
67.854716970974764
 21
301.81871952600642
 31
0.0
  0
LINE
  5
9A68
  8
AM_0
 10
23.754746970974679
 20
301.06871952600642
 30
0.0
 11
24.054726970974681
 21
301.06871952600642
 31
0.0
  0
LINE
  5
9A69
  8
AM_0
 10
23.754746970974679
 20
292.06871952600642
 30
0.0
 11
24.054726970974681
 21
292.06871952600642
 31
0.0
  0
ARC
  5
9A6A
  8
AM_0
 10
24.854716970974771
 20
284.70970952600652
 30
0.0
 40
2.0
 50
179.99997999999781
 51
269.99995000000138
  0
ARC
  5
9A6B
  8
AM_0
 10
23.754746970974679
 20
295.06871952600642
 30
0.0
 40
3.0
 50
179.99997999999781
 51
269.99995000000138
  0
LINE
  5
9A6C
  8
AM_0
 10
22.854716970974771
 20
292.20677952600653
 30
0.0
 11
22.854716970974771
 21
284.70970952600652
 31
0.0
  0
ARC
  5
9A6D
  8
AM_0
 10
23.754746970974679
 20
298.06871952600642
 30
0.0
 40
3.0
 50
89.999988999997569
 51
179.99997999999781
  0
LINE
  5
9A6E
  8
AM_0
 10
20.754746970974679
 20
298.06871952600642
 30
0.0
 11
20.754746970974679
 21
295.06871952600642
 31
0.0
  0
LINE
  5
9A6F
  8
AM_0
 10
24.054726970974681
 20
301.16868952600652
 30
0.0
 11
24.054726970974681
 21
291.96873952600652
 31
0.0
  0
LINE
  5
9A70
  8
AM_0
 10
24.054726970974681
 20
291.96873952600652
 30
0.0
 11
25.354716970974771
 21
291.96873952600652
 31
0.0
  0
LINE
  5
9A71
  8
AM_0
 10
24.054726970974681
 20
301.16868952600652
 30
0.0
 11
25.354716970974771
 21
301.16868952600652
 31
0.0
  0
LINE
  5
9A72
  8
AM_0
 10
67.854716970974764
 20
291.56871952600642
 30
0.0
 11
67.854716970974764
 21
282.70970952600652
 31
0.0
  0
LINE
  5
9A73
  8
ﾁｭｳｼﾝｾﾝ
 10
134.67959070512731
 20
252.459709526007
 30
0.0
 11
134.67959070512731
 21
230.459709526007
 31
0.0
  0
LINE
  5
9A74
  8
AM_0
 10
191.079590705128
 20
236.1455042987092
 30
0.0
 11
191.07959070512791
 21
240.19889694409289
 31
0.0
  0
LINE
  5
9A75
  8
AM_0
 10
170.88294475060309
 20
237.77166380891501
 30
0.0
 11
173.08629879608071
 21
238.1470714444485
 31
0.0
  0
LINE
  5
9A76
  8
AM_0
 10
165.6795907051258
 20
253.45970952600669
 30
0.0
 11
165.6795907051258
 21
236.88511593747069
 31
0.0
  0
LINE
  5
9A77
  8
AM_0
 10
167.6795907051291
 20
237.2258760947451
 30
0.0
 11
167.6795907051295
 21
253.4597095260095
 31
0.0
  0
LINE
  5
9A78
  8
AM_0
 10
169.3829447506034
 20
253.45970952600669
 30
0.0
 11
169.3829447506032
 21
237.51609369095979
 31
0.0
  0
LINE
  5
9A79
  8
AM_0
 10
170.88294475060309
 20
237.77166380891501
 30
0.0
 11
170.8829447506034
 21
253.45970952600669
 31
0.0
  0
LINE
  5
9A7A
  8
AM_0
 10
156.0762366596486
 20
235.24889572002411
 30
0.0
 11
156.0762366596486
 21
253.45970952600709
 31
0.0
  0
LINE
  5
9A7B
  8
AM_0
 10
154.07623665964849
 20
253.45970952600669
 30
0.0
 11
154.07623665964849
 21
234.9081355627502
 31
0.0
  0
LINE
  5
9A7C
  8
AM_0
 10
158.27623665964859
 20
253.45970952600669
 30
0.0
 11
158.27623665964859
 21
235.62373189302571
 31
0.0
  0
LINE
  5
9A7D
  8
AM_0
 10
159.7762366596485
 20
235.87930201098101
 30
0.0
 11
159.7762366596485
 21
253.45970952600669
 31
0.0
  0
LINE
  5
9A7E
  8
AM_0
 10
161.97623665964861
 20
253.45970952600669
 30
0.0
 11
161.97623665964841
 21
236.25413818398201
 31
0.0
  0
LINE
  5
9A7F
  8
AM_0
 10
163.47623665964841
 20
236.50970830193739
 30
0.0
 11
163.47623665964841
 21
253.45970952600669
 31
0.0
  0
LINE
  5
9A80
  8
AM_0
 10
119.5795907051269
 20
257.45970952600698
 30
0.0
 11
119.5795907051271
 21
229.459709526007
 31
0.0
  0
LINE
  5
9A81
  8
AM_0
 10
122.1795907051267
 20
228.45970952600709
 30
0.0
 11
198.47959070512741
 21
241.45970952600629
 31
0.0
  0
LINE
  5
9A82
  8
AM_0
 10
122.1795907051267
 20
228.45970952600709
 30
0.0
 11
198.47959070512741
 21
241.45970952600629
 31
0.0
  0
ARC
  5
9A83
  8
AM_0
 10
134.67959070512731
 20
241.459709526007
 30
0.0
 40
9.2999999999997094
 50
180.0
 51
0.0
  0
CIRCLE
  5
9A84
  8
AM_0
 10
134.67959070512731
 20
241.459709526007
 30
0.0
 40
6.2999999999996117
  0
LINE
  5
9A85
  8
AM_0
 10
197.9795907051278
 20
224.45970952600669
 30
0.0
 11
122.5052858419681
 21
224.45970952600709
 31
0.0
  0
LINE
  5
9A86
  8
AM_0
 10
198.80528584196861
 20
237.45970952600629
 30
0.0
 11
122.5052858419681
 21
224.45970952600709
 31
0.0
  0
LINE
  5
9A87
  8
AM_0
 10
122.0981669209164
 20
229.459709526007
 30
0.0
 11
154.07623665964849
 21
234.9081355627502
 31
0.0
  0
LINE
  5
9A88
  8
AM_0
 10
119.579590705127
 20
233.45970952600709
 30
0.0
 11
118.3795907051275
 21
233.45970952600709
 31
0.0
  0
LINE
  5
9A89
  8
AM_0
 10
118.0795907051268
 20
228.45970952600709
 30
0.0
 11
122.1795907051267
 21
228.45970952600709
 31
0.0
  0
LINE
  5
9A8A
  8
AM_0
 10
122.0981669209164
 20
229.459709526007
 30
0.0
 11
118.0795907051268
 21
229.459709526007
 31
0.0
  0
LINE
  5
9A8B
  8
AM_0
 10
118.3795907051275
 20
228.45970952600709
 30
0.0
 11
122.1795907051267
 21
228.45970952600709
 31
0.0
  0
ARC
  5
9A8C
  8
AM_0
 10
119.5795907051274
 20
225.959709526007
 30
0.0
 40
1.499999999999998
 50
180.0
 51
270.0
  0
LINE
  5
9A8D
  8
AM_0
 10
117.5795907051278
 20
233.459709526007
 30
0.0
 11
117.579590705128
 21
225.959709526007
 31
0.0
  0
LINE
  5
9A8E
  8
AM_0
 10
118.0795907051268
 20
229.459709526007
 30
0.0
 11
118.0795907051268
 21
225.959709526007
 31
0.0
  0
ARC
  5
9A8F
  8
AM_0
 10
119.0795907051279
 20
225.959709526007
 30
0.0
 40
1.5000000000001099
 50
180.0
 51
269.99999999999511
  0
LINE
  5
9A90
  8
AM_0
 10
119.0795907051279
 20
224.45970952600709
 30
0.0
 11
119.3780766012847
 21
224.45970952600709
 31
0.0
  0
LINE
  5
9A91
  8
AM_0
 10
118.3795907051275
 20
233.45970952600709
 30
0.0
 11
117.5795907051278
 21
233.459709526007
 31
0.0
  0
LINE
  5
9A92
  8
AM_0
 10
119.5795907051274
 20
224.45970952600709
 30
0.0
 11
122.5052858419681
 21
224.45970952600709
 31
0.0
  0
LINE
  5
9A93
  8
AM_0
 10
156.0762366596486
 20
235.24889572002411
 30
0.0
 11
158.27623665964859
 21
235.62373189302571
 31
0.0
  0
LINE
  5
9A94
  8
AM_0
 10
159.7762366596485
 20
235.87930201098101
 30
0.0
 11
161.97623665964841
 21
236.25413818398201
 31
0.0
  0
LINE
  5
9A95
  8
AM_0
 10
163.47623665964841
 20
236.50970830193739
 30
0.0
 11
165.6795907051258
 21
236.88511593747069
 31
0.0
  0
LINE
  5
9A96
  8
AM_0
 10
167.6795907051291
 20
237.2258760947451
 30
0.0
 11
169.3829447506032
 21
237.51609369095979
 31
0.0
  0
LINE
  5
9A97
  8
AM_0
 10
190.20974222414461
 20
224.45970952600669
 30
0.0
 11
190.20974222414461
 21
235.99520012847481
 31
0.0
  0
LINE
  5
9A98
  8
ﾁｭｳｼﾝｾﾝ
 10
123.6795907051273
 20
241.459709526007
 30
0.0
 11
145.67959070512711
 21
241.459709526007
 31
0.0
  0
LINE
  5
9A99
  8
AM_0
 10
95.854716970974764
 20
271.56968952600641
 30
0.0
 11
137.18113697097459
 21
271.56968952600641
 31
0.0
  0
LINE
  5
9A9A
  8
AM_0
 10
180.85471697097449
 20
309.45970952600652
 30
0.0
 11
87.390366970974597
 21
309.45970952600652
 31
0.0
  0
LINE
  5
9A9B
  8
AM_0
 10
77.184736970974754
 20
319.11973952600653
 30
0.0
 11
149.5259869709746
 21
319.11973952600653
 31
0.0
  0
LINE
  5
9A9C
  8
AM_0
 10
148.2967969709745
 20
319.45970952600652
 30
0.0
 11
78.404706970974857
 21
319.45970952600652
 31
0.0
  0
LINE
  5
9A9D
  8
AM_0
 10
77.184736970974754
 20
321.77964952600661
 30
0.0
 11
149.5259869709746
 21
321.77964952600661
 31
0.0
  0
LINE
  5
9A9E
  8
AM_0
 10
180.85471697097449
 20
301.45970952600652
 30
0.0
 11
87.390366970974597
 21
301.45970952600652
 31
0.0
  0
LINE
  5
9A9F
  8
AM_0
 10
86.31473697097465
 20
308.97972952600651
 30
0.0
 11
180.85471697097449
 21
308.97972952600651
 31
0.0
  0
LINE
  5
9AA0
  8
AM_0
 10
148.2967969709745
 20
321.45970952600652
 30
0.0
 11
78.404706970974857
 21
321.45970952600652
 31
0.0
  0
LINE
  5
9AA1
  8
AM_0
 10
86.524696970974674
 20
298.73973952600647
 30
0.0
 11
168.85471697097461
 21
298.73973952600647
 31
0.0
  0
LINE
  5
9AA2
  8
AM_0
 10
168.85471697097461
 20
299.45970952600652
 30
0.0
 11
87.390366970974597
 21
299.45970952600652
 31
0.0
  0
LINE
  5
9AA3
  8
AM_0
 10
86.524696970974674
 20
302.09971952600648
 30
0.0
 11
180.87473697097471
 21
302.09971952600648
 31
0.0
  0
ARC
  5
9AA4
  8
AM_0
 10
92.352766970974585
 20
280.97776952600651
 30
0.0
 40
1.501982699999999
 50
0.075587202000581
 51
89.924413000001564
  0
LINE
  5
9AA5
  8
AM_0
 10
84.798996970974613
 20
278.7697595260064
 30
0.0
 11
83.839036970974462
 21
283.23973952600642
 31
0.0
  0
ARC
  5
9AA6
  8
AM_0
 10
86.814126970974598
 20
284.46494952600648
 30
0.0
 40
1.9952742999999991
 50
189.96478000000039
 51
269.85141999999968
  0
LINE
  5
9AA7
  8
AM_0
 10
78.555336970974821
 20
273.7896595260064
 30
0.0
 11
92.597456970974775
 21
273.7896595260064
 31
0.0
  0
LINE
  5
9AA8
  8
AM_0
 10
86.552346970974654
 20
277.19969952600661
 30
0.0
 11
92.354716970974764
 21
277.19969952600661
 31
0.0
  0
LINE
  5
9AA9
  8
AM_0
 10
74.664716970974595
 20
280.3597295260065
 30
0.0
 11
84.457496970974589
 21
280.3597295260065
 31
0.0
  0
LINE
  5
9AAA
  8
AM_0
 10
76.616066970974771
 20
275.3007395260064
 30
0.0
 11
76.134746970974675
 21
277.20976952600631
 31
0.0
  0
LINE
  5
9AAB
  8
AM_0
 10
77.044716970974605
 20
275.32966952600651
 30
0.0
 11
76.124736970974595
 21
279.2097395260065
 31
0.0
  0
ARC
  5
9AAC
  8
AM_0
 10
78.555336970974821
 20
275.7896595260064
 30
0.0
 40
2.0
 50
194.1507499999995
 51
269.999989999999
  0
ARC
  5
9AAD
  8
AM_0
 10
78.991556970974671
 20
275.79026952600651
 30
0.0
 40
2.0005671999999981
 50
193.30958999999871
 51
269.80430999999942
  0
LINE
  5
9AAE
  8
AM_0
 10
74.684736970974654
 20
278.33970952600652
 30
0.0
 11
76.334696970974633
 21
278.33970952600652
 31
0.0
  0
LINE
  5
9AAF
  8
AM_0
 10
72.854716970974749
 20
278.02973952600661
 30
0.0
 11
75.674726970974461
 21
277.96974952600641
 31
0.0
  0
ARC
  5
9AB0
  8
AM_0
 10
74.66794697097464
 20
278.86204952600661
 30
0.0
 40
1.497715799999999
 50
13.424378999999609
 51
90.122645000001114
  0
ARC
  5
9AB1
  8
AM_0
 10
74.6824169709746
 20
276.8414195260064
 30
0.0
 40
1.4982997
 50
14.229740000001581
 51
89.910950000001179
  0
ARC
  5
9AB2
  8
AM_0
 10
86.752056970974877
 20
279.18675952600631
 30
0.0
 40
1.997119399999999
 50
192.05523999999849
 51
270.19862999999867
  0
ARC
  5
9AB3
  8
AM_0
 10
95.855636970974615
 20
273.57066952600661
 30
0.0
 40
2.0009109999999981
 50
180.00001000000091
 51
269.97390999999971
  0
ARC
  5
9AB4
  8
AM_0
 10
95.854776970974612
 20
275.5997195260066
 30
0.0
 40
2.0000371999999991
 50
180.0010599999992
 51
269.99892999999958
  0
ARC
  5
9AB5
  8
AM_0
 10
92.3516069709747
 20
275.69651952600651
 30
0.0
 40
1.503128599999999
 50
0.1191296499989459
 51
89.880869999998822
  0
LINE
  5
9AB6
  8
AM_0
 10
93.854716970974764
 20
273.57066952600661
 30
0.0
 11
93.854716970974764
 21
280.97972952600639
 31
0.0
  0
ARC
  5
9AB7
  8
AM_0
 10
92.597456970974775
 20
272.28965952600652
 30
0.0
 40
1.5
 50
21.46170900000077
 51
90.000003000000945
  0
LINE
  5
9AB8
  8
AM_0
 10
135.35471697097469
 20
260.9597095260068
 30
0.0
 11
135.35471697097469
 21
258.45970952600652
 31
0.0
  0
ARC
  5
9AB9
  8
AM_0
 10
120.57959070512671
 20
257.45970952600698
 30
0.0
 40
1.0
 50
90.0
 51
180.0
  0
LINE
  5
9ABA
  8
AM_0
 10
125.3795907051271
 20
258.45970952600709
 30
0.0
 11
125.3795907051268
 21
241.459709526007
 31
0.0
  0
LINE
  5
9ABB
  8
AM_0
 10
120.57959070512671
 20
258.45970952600709
 30
0.0
 11
125.3795907051271
 21
258.45970952600709
 31
0.0
  0
LINE
  5
9ABC
  8
AM_0
 10
113.8547769709748
 20
289.10978952600652
 30
0.0
 11
82.854776970974626
 21
291.13978952600661
 31
0.0
  0
ARC
  5
9ABD
  8
AM_0
 10
87.397566970974594
 20
300.45970952600652
 30
0.0
 40
1.0000255999999981
 50
89.589474000000749
 51
270.41051999999962
  0
ARC
  5
9ABE
  8
AM_0
 10
82.017556970974624
 20
293.87119952600648
 30
0.0
 40
4.9991421999999961
 50
5.3780268999994201
 51
80.360064999998514
  0
LINE
  5
9ABF
  8
AM_0
 10
86.614546970974629
 20
282.47972952600651
 30
0.0
 11
92.354716970974764
 21
282.47972952600651
 31
0.0
  0
ARC
  5
9AC0
  8
AM_0
 10
82.474406970974769
 20
297.80503952600651
 30
0.0
 40
6.0073843
 50
273.6297400000006
 51
314.76384999999948
  0
LINE
  5
9AC1
  8
AM_0
 10
82.85471697097465
 20
287.1097295260065
 30
0.0
 11
82.85471697097465
 21
301.15965952600652
 31
0.0
  0
LINE
  5
9AC2
  8
AM_0
 10
72.854716970974749
 20
292.76975952600651
 30
0.0
 11
82.85471697097465
 21
292.76975952600651
 31
0.0
  0
LINE
  5
9AC3
  8
AM_0
 10
72.854716970974749
 20
287.1097295260065
 30
0.0
 11
82.85471697097465
 21
287.1097295260065
 31
0.0
  0
LINE
  5
9AC4
  8
AM_0
 10
84.063946970974584
 20
288.46635952600661
 30
0.0
 11
84.848976970974604
 21
284.11967952600639
 31
0.0
  0
LINE
  5
9AC5
  8
AM_0
 10
82.368996970974649
 20
284.4196695260066
 30
0.0
 11
84.788986970974733
 21
284.4196695260066
 31
0.0
  0
ARC
  5
9AC6
  8
AM_0
 10
82.371566970974641
 20
282.9173495260066
 30
0.0
 40
1.502416299999999
 50
12.391887000000411
 51
90.098616999999123
  0
ARC
  5
9AC7
  8
AM_0
 10
82.587876970974435
 20
288.19969952600661
 30
0.0
 40
1.5
 50
10.237378999998841
 51
79.752109999998723
  0
LINE
  5
9AC8
  8
AM_0
 10
72.854716970974749
 20
301.15965952600652
 30
0.0
 11
82.85471697097465
 21
301.15965952600652
 31
0.0
  0
ARC
  5
9AC9
  8
AM_0
 10
86.524696970974674
 20
300.40965952600652
 30
0.0
 40
1.6800002000000001
 50
90.000003000000945
 51
270.0
  0
ARC
  5
9ACA
  8
AM_0
 10
85.995526970974751
 20
294.24937952600652
 30
0.0
 40
1.0032491999999991
 50
314.98119000000088
 51
5.1676434000008573
  0
ARC
  5
9ACB
  8
AM_0
 10
94.847516970974979
 20
300.45970952600652
 30
0.0
 40
1.0000259
 50
89.587534000000232
 51
270.4124599999987
  0
ARC
  5
9ACC
  8
AM_0
 10
86.309006970974693
 20
310.42967952600651
 30
0.0
 40
1.460011199999999
 50
89.775248000001255
 51
270.22474000000028
  0
ARC
  5
9ACD
  8
AM_0
 10
87.397566970974594
 20
310.45970952600652
 30
0.0
 40
1.0000255999999981
 50
89.589474000000749
 51
270.41051999999962
  0
ARC
  5
9ACE
  8
AM_0
 10
78.404706970974857
 20
320.45970952600652
 30
0.0
 40
1.0000056999999991
 50
90.000003000000945
 51
270.0
  0
ARC
  5
9ACF
  8
AM_0
 10
77.178446970974605
 20
320.44969952600661
 30
0.0
 40
1.3300148000000001
 50
89.729417999999541
 51
270.27058999999991
  0
ARC
  5
9AD0
  8
AM_0
 10
94.847516970974979
 20
310.45970952600652
 30
0.0
 40
1.0000259
 50
89.587534000000232
 51
270.4124599999987
  0
ARC
  5
9AD1
  8
AM_0
 10
94.847516970974979
 20
320.45970952600652
 30
0.0
 40
1.0000259
 50
89.587534000000232
 51
270.4124599999987
  0
LINE
  5
9AD2
  8
AM_0
 10
167.6795907051295
 20
253.45970952600669
 30
0.0
 11
165.6795907051258
 21
253.45970952600669
 31
0.0
  0
LINE
  5
9AD3
  8
AM_0
 10
167.6795907051295
 20
249.45970952600629
 30
0.0
 11
165.6795907051258
 21
249.45970952600629
 31
0.0
  0
LINE
  5
9AD4
  8
AM_0
 10
143.9795907051269
 20
258.45970952600652
 30
0.0
 11
143.9795907051269
 21
241.45970952600669
 31
0.0
  0
LINE
  5
9AD5
  8
AM_0
 10
159.7762366596485
 20
253.45970952600669
 30
0.0
 11
158.27623665964859
 21
253.45970952600669
 31
0.0
  0
LINE
  5
9AD6
  8
AM_0
 10
159.7762366596485
 20
249.45970952600629
 30
0.0
 11
158.27623665964859
 21
249.4597095260068
 31
0.0
  0
LINE
  5
9AD7
  8
AM_0
 10
156.0762366596486
 20
253.45970952600709
 30
0.0
 11
154.07623665964849
 21
253.45970952600669
 31
0.0
  0
LINE
  5
9AD8
  8
AM_0
 10
156.0762366596486
 20
249.4597095260068
 30
0.0
 11
154.07623665964849
 21
249.4597095260068
 31
0.0
  0
LINE
  5
9AD9
  8
AM_0
 10
163.47623665964841
 20
253.45970952600669
 30
0.0
 11
161.97623665964861
 21
253.45970952600669
 31
0.0
  0
LINE
  5
9ADA
  8
AM_0
 10
163.47623665964841
 20
249.45970952600629
 30
0.0
 11
161.97623665964861
 21
249.45970952600629
 31
0.0
  0
LINE
  5
9ADB
  8
AM_0
 10
138.92025047289499
 20
260.9597095260068
 30
0.0
 11
138.58921697097449
 21
273.59968952600639
 31
0.0
  0
ARC
  5
9ADC
  8
AM_0
 10
137.18113697097459
 20
270.06968952600641
 30
0.0
 40
1.5
 50
1.5000026999989771
 51
90.000003000000945
  0
LINE
  5
9ADD
  8
AM_0
 10
181.99300688703531
 20
239.6645970693817
 30
0.0
 11
191.85471697097421
 21
241.34483600897829
 31
0.0
  0
LINE
  5
9ADE
  8
AM_0
 10
176.78965284155791
 20
253.45970952600669
 30
0.0
 11
176.78965284155771
 21
238.77804919793761
 31
0.0
  0
LINE
  5
9ADF
  8
AM_0
 10
178.28965284155791
 20
239.03361931589299
 30
0.0
 11
178.28965284155791
 21
253.45970952600669
 31
0.0
  0
LINE
  5
9AE0
  8
AM_0
 10
180.49300688703531
 20
253.45970952600669
 30
0.0
 11
180.49300688703531
 21
239.40902695142631
 31
0.0
  0
LINE
  5
9AE1
  8
AM_0
 10
181.99300688703531
 20
239.6645970693817
 30
0.0
 11
181.99300688703531
 21
253.45970952600669
 31
0.0
  0
LINE
  5
9AE2
  8
AM_0
 10
173.08629879608091
 20
253.45970952600669
 30
0.0
 11
173.08629879608071
 21
238.1470714444485
 31
0.0
  0
LINE
  5
9AE3
  8
AM_0
 10
174.5862987960806
 20
238.402641562404
 30
0.0
 11
174.5862987960806
 21
253.45970952600669
 31
0.0
  0
LINE
  5
9AE4
  8
AM_0
 10
174.5862987960806
 20
238.402641562404
 30
0.0
 11
176.78965284155771
 21
238.77804919793761
 31
0.0
  0
LINE
  5
9AE5
  8
AM_0
 10
178.28965284155791
 20
239.03361931589299
 30
0.0
 11
180.49300688703531
 21
239.40902695142631
 31
0.0
  0
LINE
  5
9AE6
  8
AM_0
 10
170.8829447506034
 20
253.45970952600669
 30
0.0
 11
169.3829447506034
 21
253.45970952600669
 31
0.0
  0
LINE
  5
9AE7
  8
AM_0
 10
170.8829447506036
 20
249.45970952600629
 30
0.0
 11
169.3829447506034
 21
249.45970952600629
 31
0.0
  0
LINE
  5
9AE8
  8
AM_0
 10
174.5862987960806
 20
253.45970952600669
 30
0.0
 11
173.08629879608091
 21
253.45970952600669
 31
0.0
  0
LINE
  5
9AE9
  8
AM_0
 10
174.5862987960806
 20
249.45970952600629
 30
0.0
 11
173.08629879608091
 21
249.45970952600629
 31
0.0
  0
LINE
  5
9AEA
  8
AM_0
 10
178.28965284155791
 20
253.45970952600669
 30
0.0
 11
176.78965284155791
 21
253.45970952600669
 31
0.0
  0
LINE
  5
9AEB
  8
AM_0
 10
178.28965284155791
 20
249.45970952600629
 30
0.0
 11
176.78965284155791
 21
249.45970952600629
 31
0.0
  0
LINE
  5
9AEC
  8
AM_0
 10
181.99300688703531
 20
253.45970952600669
 30
0.0
 11
180.49300688703531
 21
253.45970952600669
 31
0.0
  0
LINE
  5
9AED
  8
AM_0
 10
181.99300688703531
 20
249.45970952600629
 30
0.0
 11
180.49300688703531
 21
249.45970952600629
 31
0.0
  0
LINE
  5
9AEE
  8
AM_0
 10
191.85471697097421
 20
241.34483600897829
 30
0.0
 11
191.85471697097421
 21
258.45970952600652
 31
0.0
  0
LINE
  5
9AEF
  8
AM_0
 10
198.78927898110851
 20
260.9597095260068
 30
0.0
 11
199.12028697097469
 21
273.5997795260065
 31
0.0
  0
ARC
  5
9AF0
  8
AM_0
 10
148.2934369709746
 20
320.45970952600652
 30
0.0
 40
1.0000056999999991
 50
269.999989999999
 51
90.000003000000945
  0
ARC
  5
9AF1
  8
AM_0
 10
149.51969697097459
 20
320.44969952600661
 30
0.0
 40
1.3300148000000001
 50
269.72941999999853
 51
90.270567000000995
  0
LINE
  5
9AF2
  8
AM_0
 10
197.83469697097459
 20
307.95970952600652
 30
0.0
 11
197.83469697097459
 21
303.0997195260066
 31
0.0
  0
LINE
  5
9AF3
  8
AM_0
 10
197.35471697097449
 20
307.95970952600652
 30
0.0
 11
197.35471697097449
 21
302.95970952600652
 31
0.0
  0
LINE
  5
9AF4
  8
AM_0
 10
181.87473697097471
 20
307.95970952600652
 30
0.0
 11
181.87473697097471
 21
303.0997195260066
 31
0.0
  0
LINE
  5
9AF5
  8
AM_0
 10
182.35471697097461
 20
307.95970952600652
 30
0.0
 11
182.35471697097461
 21
302.95970952600652
 31
0.0
  0
ARC
  5
9AF6
  8
AM_0
 10
180.87473697097471
 20
303.0997195260066
 30
0.0
 40
1.0
 50
269.999989999999
 51
0.0000006832462478
  0
ARC
  5
9AF7
  8
AM_0
 10
180.85471697097449
 20
302.95970952600652
 30
0.0
 40
1.5
 50
269.999989999999
 51
0.0000006832462478
  0
ARC
  5
9AF8
  8
AM_0
 10
198.83469697097459
 20
303.0997195260066
 30
0.0
 40
1.0
 50
179.99998999999889
 51
270.0
  0
ARC
  5
9AF9
  8
AM_0
 10
198.85471697097481
 20
302.95970952600652
 30
0.0
 40
1.5
 50
179.99998999999889
 51
270.0
  0
ARC
  5
9AFA
  8
AM_0
 10
180.85471697097449
 20
307.95970952600652
 30
0.0
 40
1.02
 50
0.0
 51
90.000003000000945
  0
ARC
  5
9AFB
  8
AM_0
 10
180.85471697097449
 20
307.95970952600652
 30
0.0
 40
1.5
 50
0.0
 51
90.000003000000945
  0
CIRCLE
  5
9AFC
  8
AM_0
 10
187.35471697097461
 20
306.95970952600652
 30
0.0
 40
1.149999999999999
  0
CIRCLE
  5
9AFD
  8
AM_0
 10
187.35471697097461
 20
306.95970952600652
 30
0.0
 40
1.1000000000000001
  0
CIRCLE
  5
9AFE
  8
AM_0
 10
192.35471697097461
 20
306.95970952600652
 30
0.0
 40
1.0
  0
ARC
  5
9AFF
  8
AM_0
 10
198.85471697097481
 20
307.95970952600652
 30
0.0
 40
1.02
 50
90.000003000000945
 51
180.00001000000091
  0
ARC
  5
9B00
  8
AM_0
 10
198.85471697097481
 20
307.95970952600652
 30
0.0
 40
1.5
 50
90.000003000000945
 51
180.00001000000091
  0
LINE
  5
9B01
  8
AM_0
 10
24.854716970974771
 20
388.20970952600629
 30
0.0
 11
72.854716970974749
 21
388.20970952600629
 31
0.0
  0
LINE
  5
9B02
  8
AM_0
 10
47.854716970974764
 20
394.20970952600629
 30
0.0
 11
72.854716970974749
 21
394.20970952600629
 31
0.0
  0
LINE
  5
9B03
  8
AM_0
 10
24.054726970974681
 20
369.75072952600641
 30
0.0
 11
24.054726970974681
 21
378.95067952600641
 31
0.0
  0
ARC
  5
9B04
  8
AM_0
 10
23.754746970974679
 20
372.85069952600639
 30
0.0
 40
3.0
 50
180.00002000000191
 51
270.00001100000242
  0
LINE
  5
9B05
  8
AM_0
 10
25.354716970974771
 20
369.10069952600639
 30
0.0
 11
67.854716970974764
 21
369.10069952600639
 31
0.0
  0
LINE
  5
9B06
  8
AM_0
 10
16.354746970974759
 20
330.45970952600652
 30
0.0
 11
16.354746970974759
 21
340.45970952600652
 31
0.0
  0
LINE
  5
9B07
  8
AM_0
 10
17.353286870974721
 20
330.45970952600652
 30
0.0
 11
16.354746970974759
 21
330.45970952600652
 31
0.0
  0
LINE
  5
9B08
  8
AM_0
 10
22.854716970974771
 20
330.45970952600652
 30
0.0
 11
22.353286870974721
 21
330.45970952600652
 31
0.0
  0
LINE
  5
9B09
  8
AM_0
 10
17.353286870974721
 20
340.45970952600652
 30
0.0
 11
16.354746970974759
 21
340.45970952600652
 31
0.0
  0
LINE
  5
9B0A
  8
AM_0
 10
22.854716970974771
 20
340.45970952600652
 30
0.0
 11
22.353286870974721
 21
340.45970952600652
 31
0.0
  0
LINE
  5
9B0B
  8
AM_0
 10
23.754746970974679
 20
369.85069952600639
 30
0.0
 11
24.054726970974681
 21
369.85069952600639
 31
0.0
  0
LINE
  5
9B0C
  8
AM_0
 10
24.054726970974681
 20
369.75072952600641
 30
0.0
 11
25.354716970974771
 21
369.75072952600641
 31
0.0
  0
LINE
  5
9B0D
  8
AM_0
 10
27.353286870974731
 20
395.45970952600652
 30
0.0
 11
50.854716970974778
 21
395.45970952600652
 31
0.0
  0
LINE
  5
9B0E
  8
AM_0
 10
25.354716970974771
 20
379.35069952600639
 30
0.0
 11
67.854716970974764
 21
379.35069952600639
 31
0.0
  0
LINE
  5
9B0F
  8
AM_0
 10
26.353286870974731
 20
400.45970952600652
 30
0.0
 11
63.854716970974778
 21
400.45970952600652
 31
0.0
  0
ARC
  5
9B10
  8
AM_0
 10
26.353286870974731
 20
391.45970952600652
 30
0.0
 40
9.0
 50
89.999988999997569
 51
179.99997999999781
  0
ARC
  5
9B11
  8
AM_0
 10
27.353286870974731
 20
390.45970952600652
 30
0.0
 40
5.0
 50
89.999988999997569
 51
180.0
  0
LINE
  5
9B12
  8
AM_0
 10
23.754746970974679
 20
378.85069952600639
 30
0.0
 11
24.054726970974681
 21
378.85069952600639
 31
0.0
  0
ARC
  5
9B13
  8
AM_0
 10
24.854716970974771
 20
386.20970952600629
 30
0.0
 40
2.0
 50
90.000049999998538
 51
180.00002000000191
  0
LINE
  5
9B14
  8
AM_0
 10
22.854716970974771
 20
378.7126395260064
 30
0.0
 11
22.854716970974771
 21
386.20970952600629
 31
0.0
  0
LINE
  5
9B15
  8
AM_0
 10
22.353286870974721
 20
378.50322843029909
 30
0.0
 11
22.353286870974721
 21
390.45970952600629
 31
0.0
  0
ARC
  5
9B16
  8
AM_0
 10
23.754746970974679
 20
375.85069952600639
 30
0.0
 40
3.0
 50
90.000049999998538
 51
180.00002000000191
  0
LINE
  5
9B17
  8
AM_0
 10
20.754746970974679
 20
372.85069952600639
 30
0.0
 11
20.754746970974679
 21
375.85069952600639
 31
0.0
  0
LINE
  5
9B18
  8
AM_0
 10
24.054726970974681
 20
378.95067952600641
 30
0.0
 11
25.354716970974771
 21
378.95067952600641
 31
0.0
  0
LINE
  5
9B19
  8
AM_0
 10
47.854716970974764
 20
394.20970952600629
 30
0.0
 11
47.854716970974764
 21
388.20970952600629
 31
0.0
  0
LINE
  5
9B1A
  8
AM_0
 10
67.854716970974764
 20
379.35069952600639
 30
0.0
 11
67.854716970974764
 21
388.20970952600629
 31
0.0
  0
LINE
  5
9B1B
  8
AM_0
 10
50.854716970974778
 20
394.20970952600652
 30
0.0
 11
50.854716970974778
 21
400.45970952600652
 31
0.0
  0
LINE
  5
9B1C
  8
AM_0
 10
60.854716970974778
 20
395.45970952600652
 30
0.0
 11
63.854716970974778
 21
395.45970952600652
 31
0.0
  0
LINE
  5
9B1D
  8
AM_0
 10
60.854716970974778
 20
394.20970952600652
 30
0.0
 11
60.854716970974778
 21
400.45970952600652
 31
0.0
  0
LINE
  5
9B1E
  8
AM_0
 10
63.854716970974778
 20
395.45970952600652
 30
0.0
 11
63.854716970974778
 21
400.45970952600652
 31
0.0
  0
LINE
  5
9B1F
  8
AM_0
 10
180.85471697097449
 20
361.45970952600652
 30
0.0
 11
87.404706970974871
 21
361.45970952600652
 31
0.0
  0
LINE
  5
9B20
  8
AM_0
 10
180.85471697097449
 20
369.45970952600652
 30
0.0
 11
87.404706970974871
 21
369.45970952600652
 31
0.0
  0
LINE
  5
9B21
  8
AM_0
 10
77.124736970974595
 20
329.18968952600659
 30
0.0
 11
149.5898269709748
 21
329.18968952600659
 31
0.0
  0
LINE
  5
9B22
  8
AM_0
 10
148.2967969709745
 20
331.45970952600652
 30
0.0
 11
78.404706970974857
 21
331.45970952600652
 31
0.0
  0
LINE
  5
9B23
  8
AM_0
 10
148.2967969709745
 20
329.45970952600652
 30
0.0
 11
78.404706970974857
 21
329.45970952600652
 31
0.0
  0
LINE
  5
9B24
  8
AM_0
 10
77.124736970974595
 20
331.72972952600651
 30
0.0
 11
149.5898269709748
 21
331.72972952600651
 31
0.0
  0
LINE
  5
9B25
  8
AM_0
 10
77.124736970974595
 20
339.19969952600661
 30
0.0
 11
149.5898269709748
 21
339.19969952600661
 31
0.0
  0
LINE
  5
9B26
  8
AM_0
 10
77.124736970974595
 20
341.73973952600647
 30
0.0
 11
149.5898269709748
 21
341.73973952600647
 31
0.0
  0
LINE
  5
9B27
  8
AM_0
 10
77.184736970974754
 20
349.1397595260064
 30
0.0
 11
149.51340697097481
 21
349.1397595260064
 31
0.0
  0
LINE
  5
9B28
  8
AM_0
 10
77.184736970974754
 20
351.80967952600662
 30
0.0
 11
149.5259869709746
 21
351.80967952600662
 31
0.0
  0
LINE
  5
9B29
  8
AM_0
 10
86.31473697097465
 20
361.94969952600661
 30
0.0
 11
180.85471697097449
 21
361.94969952600661
 31
0.0
  0
LINE
  5
9B2A
  8
AM_0
 10
86.524696970974674
 20
368.82969952600661
 30
0.0
 11
180.87473697097471
 21
368.82969952600661
 31
0.0
  0
LINE
  5
9B2B
  8
AM_0
 10
148.2967969709745
 20
339.45970952600652
 30
0.0
 11
78.404706970974857
 21
339.45970952600652
 31
0.0
  0
LINE
  5
9B2C
  8
AM_0
 10
148.2967969709745
 20
341.45970952600652
 30
0.0
 11
78.404706970974857
 21
341.45970952600652
 31
0.0
  0
LINE
  5
9B2D
  8
AM_0
 10
148.2934369709746
 20
349.45970952600652
 30
0.0
 11
78.404706970974857
 21
349.45970952600652
 31
0.0
  0
LINE
  5
9B2E
  8
AM_0
 10
148.2934369709746
 20
351.45970952600652
 30
0.0
 11
78.404706970974857
 21
351.45970952600652
 31
0.0
  0
LINE
  5
9B2F
  8
AM_0
 10
72.854716970974749
 20
394.20970952600652
 30
0.0
 11
72.854716970974749
 21
335.45970952600652
 31
0.0
  0
ARC
  5
9B30
  8
AM_0
 10
94.847516970974979
 20
370.45970952600652
 30
0.0
 40
1.0000259
 50
89.587534000000232
 51
270.4124599999987
  0
ARC
  5
9B31
  8
AM_0
 10
87.397566970974594
 20
370.45970952600652
 30
0.0
 40
1.0000255999999981
 50
89.589474000000749
 51
270.41051999999962
  0
LINE
  5
9B32
  8
AM_0
 10
82.85471697097465
 20
383.80967952600651
 30
0.0
 11
82.85471697097465
 21
369.76975952600651
 31
0.0
  0
ARC
  5
9B33
  8
AM_0
 10
86.524696970974674
 20
370.5097495260066
 30
0.0
 40
1.6800002000000001
 50
90.000003000000945
 51
270.0
  0
ARC
  5
9B34
  8
AM_0
 10
78.404706970974857
 20
330.45970952600652
 30
0.0
 40
1.0000056999999991
 50
90.000003000000945
 51
270.0
  0
ARC
  5
9B35
  8
AM_0
 10
77.116496970974595
 20
330.45970952600652
 30
0.0
 40
1.2700266
 50
89.629320999999507
 51
270.3706899999986
  0
ARC
  5
9B36
  8
AM_0
 10
78.404706970974857
 20
340.45970952600652
 30
0.0
 40
1.0000056999999991
 50
90.000003000000945
 51
270.0
  0
ARC
  5
9B37
  8
AM_0
 10
77.116496970974595
 20
340.46971952600649
 30
0.0
 40
1.2700266
 50
89.629327999999504
 51
270.37065999999959
  0
ARC
  5
9B38
  8
AM_0
 10
94.847516970974979
 20
330.45970952600652
 30
0.0
 40
1.0000259
 50
89.587534000000232
 51
270.4124599999987
  0
ARC
  5
9B39
  8
AM_0
 10
94.847516970974979
 20
340.45970952600652
 30
0.0
 40
1.0000259
 50
89.587534000000232
 51
270.4124599999987
  0
ARC
  5
9B3A
  8
AM_0
 10
87.397566970974594
 20
360.45970952600652
 30
0.0
 40
1.0000255999999981
 50
89.589474000000749
 51
270.41051999999962
  0
ARC
  5
9B3B
  8
AM_0
 10
86.309006970974693
 20
360.48973952600647
 30
0.0
 40
1.460011199999999
 50
89.775248000001255
 51
270.22474000000028
  0
ARC
  5
9B3C
  8
AM_0
 10
78.404706970974857
 20
350.45970952600652
 30
0.0
 40
1.0000056999999991
 50
90.000003000000945
 51
270.0
  0
ARC
  5
9B3D
  8
AM_0
 10
77.178446970974605
 20
350.47471952600648
 30
0.0
 40
1.3350147999999991
 50
89.730435000000341
 51
270.26956999999999
  0
LINE
  5
9B3E
  8
AM_0
 10
72.854716970974749
 20
369.76975952600651
 30
0.0
 11
82.85471697097465
 21
369.76975952600651
 31
0.0
  0
ARC
  5
9B3F
  8
AM_0
 10
94.847516970974979
 20
360.45970952600652
 30
0.0
 40
1.0000259
 50
89.587534000000232
 51
270.4124599999987
  0
ARC
  5
9B40
  8
AM_0
 10
94.847516970974979
 20
350.45970952600652
 30
0.0
 40
1.0000259
 50
89.587534000000232
 51
270.4124599999987
  0
LINE
  5
9B41
  8
AM_0
 10
113.8547769709748
 20
381.80967952600639
 30
0.0
 11
82.85471697097465
 21
379.77967952600648
 31
0.0
  0
ARC
  5
9B42
  8
AM_0
 10
86.752056970974877
 20
391.73264952600653
 30
0.0
 40
1.997119399999999
 50
89.801366999998493
 51
167.94476000000131
  0
ARC
  5
9B43
  8
AM_0
 10
74.674296970974851
 20
394.08506952600652
 30
0.0
 40
1.505448699999999
 50
270.39686999999981
 51
345.9524700000004
  0
LINE
  5
9B44
  8
AM_0
 10
77.044716970974605
 20
395.5897095260064
 30
0.0
 11
76.124676970974861
 21
391.7197195260066
 31
0.0
  0
LINE
  5
9B45
  8
AM_0
 10
93.854716970974764
 20
397.34971952600648
 30
0.0
 11
93.854716970974764
 21
389.9496995260065
 31
0.0
  0
ARC
  5
9B46
  8
AM_0
 10
82.010296970974849
 20
377.05393952600662
 30
0.0
 40
5.0059714
 50
279.71098000000097
 51
354.6788800000013
  0
LINE
  5
9B47
  8
AM_0
 10
86.809006970974679
 20
388.4496995260065
 30
0.0
 11
92.354716970974764
 21
388.4496995260065
 31
0.0
  0
ARC
  5
9B48
  8
AM_0
 10
82.587876970974435
 20
382.71971952600649
 30
0.0
 40
1.5
 50
280.24789000000118
 51
349.76261999999917
  0
LINE
  5
9B49
  8
AM_0
 10
72.854716970974749
 20
378.14964952600661
 30
0.0
 11
82.85471697097465
 21
378.14964952600661
 31
0.0
  0
ARC
  5
9B4A
  8
AM_0
 10
82.475686970974593
 20
373.12718952600648
 30
0.0
 40
6.0044340999999992
 50
45.225577999998769
 51
86.380821999999185
  0
ARC
  5
9B4B
  8
AM_0
 10
85.996626970974603
 20
376.68040952600649
 30
0.0
 40
1.002184699999999
 50
354.80385999999999
 51
45.047306999998277
  0
LINE
  5
9B4C
  8
AM_0
 10
74.664716970974595
 20
390.55967952600639
 30
0.0
 11
84.457496970974589
 21
390.55967952600639
 31
0.0
  0
LINE
  5
9B4D
  8
AM_0
 10
72.854716970974749
 20
383.80967952600651
 30
0.0
 11
82.85471697097465
 21
383.80967952600651
 31
0.0
  0
LINE
  5
9B4E
  8
AM_0
 10
74.684736970974654
 20
392.57969952600632
 30
0.0
 11
76.334696970974633
 21
392.57969952600632
 31
0.0
  0
LINE
  5
9B4F
  8
AM_0
 10
72.854716970974749
 20
392.88969952600638
 30
0.0
 11
75.674726970974461
 21
392.95970952600641
 31
0.0
  0
ARC
  5
9B50
  8
AM_0
 10
74.659896970974614
 20
392.06455952600652
 30
0.0
 40
1.5048382
 50
270.18264000000067
 51
346.75308000000121
  0
ARC
  5
9B51
  8
AM_0
 10
86.814126970974598
 20
386.45445952600647
 30
0.0
 40
1.9952742999999991
 50
90.148580000000095
 51
170.03521999999941
  0
ARC
  5
9B52
  8
AM_0
 10
82.371566970974641
 20
388.00205952600652
 30
0.0
 40
1.502416299999999
 50
269.90137999999871
 51
347.60813000000093
  0
LINE
  5
9B53
  8
AM_0
 10
82.368996970974649
 20
386.49973952600652
 30
0.0
 11
84.788986970974733
 21
386.49973952600652
 31
0.0
  0
LINE
  5
9B54
  8
AM_0
 10
84.064006970974674
 20
382.45307952600632
 30
0.0
 11
84.849046970974754
 21
386.79975952600648
 31
0.0
  0
LINE
  5
9B55
  8
AM_0
 10
84.798996970974613
 20
392.14970952600652
 30
0.0
 11
83.839036970974462
 21
387.67973952600647
 31
0.0
  0
ARC
  5
9B56
  8
AM_0
 10
92.350996970974705
 20
389.95347952600639
 30
0.0
 40
1.5037541000000001
 50
270.14287000000093
 51
359.85713999999848
  0
LINE
  5
9B57
  8
AM_0
 10
78.964706970974802
 20
398.75974952600649
 30
0.0
 11
92.464706970975044
 21
398.75974952600649
 31
0.0
  0
LINE
  5
9B58
  8
AM_0
 10
78.98472697097462
 20
397.12974952600661
 30
0.0
 11
92.354716970974764
 21
397.12974952600661
 31
0.0
  0
LINE
  5
9B59
  8
AM_0
 10
86.745156970974676
 20
393.72972952600639
 30
0.0
 11
92.354716970974764
 21
393.72972952600639
 31
0.0
  0
ARC
  5
9B5A
  8
AM_0
 10
78.959576970974581
 20
396.76512952600632
 30
0.0
 40
1.994612099999999
 50
89.851991999999015
 51
165.9388600000006
  0
LINE
  5
9B5B
  8
AM_0
 10
77.024696970974674
 20
397.24973952600652
 30
0.0
 11
76.134686970974585
 21
393.7197195260066
 31
0.0
  0
ARC
  5
9B5C
  8
AM_0
 10
78.984966970974597
 20
395.13743952600652
 30
0.0
 40
1.9922863
 50
90.007721000000544
 51
166.87839000000031
  0
ARC
  5
9B5D
  8
AM_0
 10
95.848856970974651
 20
397.35557952600652
 30
0.0
 40
1.994130499999996
 50
89.831105999999224
 51
180.16889000000049
  0
ARC
  5
9B5E
  8
AM_0
 10
95.848006970974652
 20
395.32639952600653
 30
0.0
 40
1.9933081999999991
 50
89.807323000000935
 51
180.19266999999849
  0
ARC
  5
9B5F
  8
AM_0
 10
95.848496970974665
 20
399.38316952600661
 30
0.0
 40
1.9964978999999961
 50
89.821482000000245
 51
165.6006099999997
  0
ARC
  5
9B60
  8
AM_0
 10
95.85117697097462
 20
398.71324952600639
 30
0.0
 40
1.996488899999999
 50
89.899147999998391
 51
180.10084999999879
  0
ARC
  5
9B61
  8
AM_0
 10
92.459636970974785
 20
400.26487952600621
 30
0.0
 40
1.505230099999999
 50
270.19421
 51
345.17177999999848
  0
ARC
  5
9B62
  8
AM_0
 10
92.347816970974435
 20
398.63658952600662
 30
0.0
 40
1.506942899999999
 50
270.2633699999991
 51
359.73663000000079
  0
ARC
  5
9B63
  8
AM_0
 10
92.349836970974593
 20
395.23460952600652
 30
0.0
 40
1.504891299999997
 50
270.1859300000005
 51
359.81406999999939
  0
ARC
  5
9B64
  8
AM_0
 10
148.2934369709746
 20
330.45970952600652
 30
0.0
 40
1.0000056999999991
 50
269.999989999999
 51
90.000003000000945
  0
ARC
  5
9B65
  8
AM_0
 10
149.58164697097459
 20
330.45970952600652
 30
0.0
 40
1.2700266
 50
269.62931999999989
 51
90.370670000001468
  0
ARC
  5
9B66
  8
AM_0
 10
148.2934369709746
 20
340.45970952600652
 30
0.0
 40
1.0000056999999991
 50
269.999989999999
 51
90.000003000000945
  0
ARC
  5
9B67
  8
AM_0
 10
149.58164697097459
 20
340.46971952600649
 30
0.0
 40
1.2700266
 50
269.62931999999989
 51
90.370670000001468
  0
ARC
  5
9B68
  8
AM_0
 10
148.2934369709746
 20
350.45970952600652
 30
0.0
 40
1.0000056999999991
 50
269.999989999999
 51
90.000003000000945
  0
ARC
  5
9B69
  8
AM_0
 10
149.51969697097459
 20
350.47471952600648
 30
0.0
 40
1.3350147999999991
 50
269.73042999999973
 51
90.269556000001344
  0
LINE
  5
9B6A
  8
AM_0
 10
182.35471697097461
 20
362.95970952600652
 30
0.0
 11
182.35471697097461
 21
367.95970952600641
 31
0.0
  0
LINE
  5
9B6B
  8
AM_0
 10
181.87473697097471
 20
362.95970952600652
 30
0.0
 11
181.87473697097471
 21
367.81968952600653
 31
0.0
  0
ARC
  5
9B6C
  8
AM_0
 10
180.85471697097449
 20
362.95970952600652
 30
0.0
 40
1.02
 50
269.999989999999
 51
0.0000006832429909
  0
ARC
  5
9B6D
  8
AM_0
 10
180.85471697097449
 20
362.95970952600652
 30
0.0
 40
1.5
 50
269.999989999999
 51
0.0000006832462478
  0
ARC
  5
9B6E
  8
AM_0
 10
180.87473697097471
 20
367.81968952600653
 30
0.0
 40
1.0
 50
0.0
 51
90.000003000000945
  0
ARC
  5
9B6F
  8
AM_0
 10
180.85471697097449
 20
367.95970952600641
 30
0.0
 40
1.5
 50
0.0
 51
90.000003000000945
  0
CIRCLE
  5
9B70
  8
AM_0
 10
187.35471697097461
 20
363.95970952600652
 30
0.0
 40
1.1000000000000001
  0
CIRCLE
  5
9B71
  8
AM_0
 10
187.35471697097461
 20
363.95970952600652
 30
0.0
 40
1.149999999999999
  0
LINE
  5
9B72
  8
AM_0
 10
197.83469697097459
 20
362.95970952600652
 30
0.0
 11
197.83469697097459
 21
367.81968952600653
 31
0.0
  0
LINE
  5
9B73
  8
AM_0
 10
197.35471697097449
 20
362.95970952600652
 30
0.0
 11
197.35471697097449
 21
367.95970952600641
 31
0.0
  0
CIRCLE
  5
9B74
  8
AM_0
 10
192.35471697097461
 20
363.95970952600652
 30
0.0
 40
1.0
  0
ARC
  5
9B75
  8
AM_0
 10
198.85471697097481
 20
362.95970952600652
 30
0.0
 40
1.02
 50
179.99998999999889
 51
270.0
  0
ARC
  5
9B76
  8
AM_0
 10
198.85471697097481
 20
362.95970952600652
 30
0.0
 40
1.5
 50
179.99998999999889
 51
270.0
  0
ARC
  5
9B77
  8
AM_0
 10
198.83469697097459
 20
367.81968952600653
 30
0.0
 40
1.0
 50
90.000003000000945
 51
180.00001000000091
  0
ARC
  5
9B78
  8
AM_0
 10
198.85471697097481
 20
367.95970952600641
 30
0.0
 40
1.5
 50
90.000003000000945
 51
180.00001000000091
  0
LINE
  5
9B79
  8
AM_0
 10
219.85471697097461
 20
272.95970952600652
 30
0.0
 11
219.85471697097461
 21
397.95970952600652
 31
0.0
  0
ARC
  5
9B7A
  8
AM_0
 10
206.35471697097421
 20
237.95970952600649
 30
0.0
 40
0.5
 50
270.0
 51
0.0
  0
LINE
  5
9B7B
  8
AM_0
 10
200.47959070512789
 20
236.95970952600669
 30
0.0
 11
200.47959070512789
 21
226.95970952600669
 31
0.0
  0
LINE
  5
9B7C
  8
AM_0
 10
200.9795907051278
 20
237.45970952600629
 30
0.0
 11
206.35471697097421
 21
237.45970952600629
 31
0.0
  0
ARC
  5
9B7D
  8
AM_0
 10
200.9795907051278
 20
236.95970952600669
 30
0.0
 40
0.5
 50
90.0
 51
180.0
  0
LINE
  5
9B7E
  8
AM_0
 10
214.59470697097461
 20
275.08976952600648
 30
0.0
 11
218.0546969709747
 21
287.99973952600652
 31
0.0
  0
LINE
  5
9B7F
  8
AM_0
 10
202.35471697097481
 20
260.9597095260068
 30
0.0
 11
202.35471697097481
 21
258.45970952600652
 31
0.0
  0
LINE
  5
9B80
  8
AM_0
 10
206.8547169709741
 20
241.45970952600669
 30
0.0
 11
206.85471697097421
 21
257.45970952600641
 31
0.0
  0
LINE
  5
9B81
  8
AM_0
 10
206.8547169709741
 20
241.45970952600669
 30
0.0
 11
206.8547169709741
 21
237.95970952600649
 31
0.0
  0
ARC
  5
9B82
  8
AM_0
 10
205.85471697097429
 20
257.45970952600641
 30
0.0
 40
1.0
 50
0.0
 51
90.0
  0
LINE
  5
9B83
  8
AM_0
 10
214.56473697097479
 20
274.95970952600652
 30
0.0
 11
219.85471697097461
 21
274.95970952600652
 31
0.0
  0
LINE
  5
9B84
  8
AM_0
 10
218.85471697097461
 20
274.9597695260066
 30
0.0
 11
213.12891697097481
 21
266.14283952600641
 31
0.0
  0
LINE
  5
9B85
  8
AM_0
 10
200.36832697097469
 20
265.45970952600641
 30
0.0
 11
211.8708969709746
 21
265.45970952600641
 31
0.0
  0
ARC
  5
9B86
  8
AM_0
 10
211.8708969709746
 20
266.95970952600652
 30
0.0
 40
1.5
 50
269.999989999999
 51
326.99999999999801
  0
ARC
  5
9B87
  8
AM_0
 10
212.6559869709746
 20
275.60594952600661
 30
0.0
 40
2.0062942999999991
 50
270.24932999999891
 51
345.08844000000039
  0
LINE
  5
9B88
  8
AM_0
 10
220.85471697097461
 20
271.95970952600641
 30
0.0
 11
227.85471697097481
 21
271.95970952600641
 31
0.0
  0
ARC
  5
9B89
  8
AM_0
 10
220.84775697097459
 20
272.95274952600641
 30
0.0
 40
0.99304521
 50
179.5973099999994
 51
270.40267999999998
  0
ARC
  5
9B8A
  8
AM_0
 10
216.6747269709746
 20
300.4196695260066
 30
0.0
 40
1.6800077
 50
269.999989999999
 51
90.000003000000945
  0
ARC
  5
9B8B
  8
AM_0
 10
213.19474697097459
 20
300.45970952600652
 30
0.0
 40
1.0000040999999991
 50
269.999989999999
 51
90.000003000000945
  0
LINE
  5
9B8C
  8
AM_0
 10
220.85471697097461
 20
283.41966952600649
 30
0.0
 11
227.85471697097481
 21
283.41966952600649
 31
0.0
  0
ARC
  5
9B8D
  8
AM_0
 10
220.8470869709746
 20
284.41209952600661
 30
0.0
 40
0.99237448
 50
179.55802000000131
 51
270.4419699999998
  0
ARC
  5
9B8E
  8
AM_0
 10
219.49839697097451
 20
287.61595952600652
 30
0.0
 40
1.4937901
 50
89.756423999998475
 51
165.11292000000071
  0
LINE
  5
9B8F
  8
AM_0
 10
219.85471697097461
 20
298.30967952600651
 30
0.0
 11
227.85471697097481
 21
298.30967952600651
 31
0.0
  0
ARC
  5
9B90
  8
AM_0
 10
213.1946869709746
 20
310.45970952600652
 30
0.0
 40
1.0000255999999981
 50
269.58946999999989
 51
90.410531000001029
  0
ARC
  5
9B91
  8
AM_0
 10
216.89469697097459
 20
310.42967952600651
 30
0.0
 40
1.460011199999999
 50
269.77524999999991
 51
90.224750000000114
  0
ARC
  5
9B92
  8
AM_0
 10
213.19474697097459
 20
370.45970952600652
 30
0.0
 40
1.0000040999999991
 50
269.999989999999
 51
90.000003000000945
  0
ARC
  5
9B93
  8
AM_0
 10
216.6747269709746
 20
370.5097495260066
 30
0.0
 40
1.6800077
 50
269.999989999999
 51
90.000003000000945
  0
ARC
  5
9B94
  8
AM_0
 10
213.1946869709746
 20
360.45970952600652
 30
0.0
 40
1.0000255999999981
 50
269.58946999999989
 51
90.410531000001029
  0
ARC
  5
9B95
  8
AM_0
 10
216.89469697097459
 20
360.48973952600647
 30
0.0
 40
1.460011199999999
 50
269.77524999999991
 51
90.224750000000114
  0
LINE
  5
9B96
  8
AM_0
 10
215.4049169709746
 20
400.1948995260064
 30
0.0
 11
218.0947669709746
 21
387.6796795260064
 31
0.0
  0
LINE
  5
9B97
  8
AM_0
 10
214.59473697097451
 20
395.83964952600638
 30
0.0
 11
218.0547269709744
 21
382.91969952600653
 31
0.0
  0
ARC
  5
9B98
  8
AM_0
 10
219.5048669709746
 20
383.31199952600662
 30
0.0
 40
1.5022733999999991
 50
195.1365099999997
 51
269.99412000000041
  0
LINE
  5
9B99
  8
AM_0
 10
219.85471697097461
 20
372.6097295260065
 30
0.0
 11
227.85471697097481
 21
372.6097295260065
 31
0.0
  0
LINE
  5
9B9A
  8
AM_0
 10
220.85471697097461
 20
387.49973952600652
 30
0.0
 11
227.85471697097481
 21
387.49973952600652
 31
0.0
  0
ARC
  5
9B9B
  8
AM_0
 10
219.56040697097481
 20
387.9999895260064
 30
0.0
 40
1.500286
 50
192.3263099999981
 51
270.16416999999848
  0
ARC
  5
9B9C
  8
AM_0
 10
220.8538069709746
 20
386.5005995260064
 30
0.0
 40
0.9990923399999999
 50
89.947921999999295
 51
180.05208000000101
  0
LINE
  5
9B9D
  8
AM_0
 10
219.56473697097471
 20
386.49973952600652
 30
0.0
 11
217.1447569709747
 21
386.49973952600652
 31
0.0
  0
ARC
  5
9B9E
  8
AM_0
 10
214.3746769709746
 20
397.84971952600648
 30
0.0
 40
1.5
 50
12.12979199999887
 51
90.000003000000945
  0
ARC
  5
9B9F
  8
AM_0
 10
213.93839697097459
 20
399.87974952600632
 30
0.0
 40
1.5
 50
12.12979199999887
 51
90.000003000000945
  0
ARC
  5
9BA0
  8
AM_0
 10
214.08237697097439
 20
399.20970952600641
 30
0.0
 40
1.5
 50
12.12979199999887
 51
90.000003000000945
  0
ARC
  5
9BA1
  8
AM_0
 10
212.66416697097461
 20
395.3205495260064
 30
0.0
 40
1.9991226
 50
15.05079100000003
 51
89.984388999999666
  0
LINE
  5
9BA2
  8
AM_0
 10
220.85471697097461
 20
398.95970952600641
 30
0.0
 11
227.85471697097481
 21
398.95970952600641
 31
0.0
  0
ARC
  5
9BA3
  8
AM_0
 10
220.85453697097481
 20
397.95994952600648
 30
0.0
 40
0.99980682
 50
89.98893100000069
 51
180.0110700000007
  0
LINE
  5
9BA4
  8
AM_0
 10
216.3151669709747
 20
395.95970952600652
 30
0.0
 11
219.85471697097461
 21
395.95970952600652
 31
0.0
  0
LINE
  5
9BA5
  8
ﾁｭｳｼﾝｾﾝ
 10
247.85468697097511
 20
409.45970952600641
 30
0.0
 11
247.85468697097511
 21
391.45970952600652
 31
0.0
  0
LINE
  5
9BA6
  8
ﾁｭｳｼﾝｾﾝ
 10
238.854686970975
 20
400.45970952600652
 30
0.0
 11
256.85468697097502
 21
400.45970952600652
 31
0.0
  0
LINE
  5
9BB3
  8
ﾁｭｳｼﾝｾﾝ
 10
308.8546869709748
 20
400.45970952600652
 30
0.0
 11
326.8546869709748
 21
400.45970952600652
 31
0.0
  0
LINE
  5
9BB4
  8
ﾁｭｳｼﾝｾﾝ
 10
317.8546869709748
 20
409.45970952600641
 30
0.0
 11
317.8546869709748
 21
391.45970952600652
 31
0.0
  0
LINE
  5
9BBB
  8
ﾁｭｳｼﾝｾﾝ
 10
308.8546869709748
 20
270.45970952600641
 30
0.0
 11
326.8546869709748
 21
270.45970952600641
 31
0.0
  0
LINE
  5
9BBC
  8
ﾁｭｳｼﾝｾﾝ
 10
317.8546869709748
 20
279.45970952600641
 30
0.0
 11
317.8546869709748
 21
261.45970952600641
 31
0.0
  0
LINE
  5
9BC3
  8
ﾁｭｳｼﾝｾﾝ
 10
238.854686970975
 20
270.45970952600641
 30
0.0
 11
256.85468697097502
 21
270.45970952600641
 31
0.0
  0
LINE
  5
9BC4
  8
ﾁｭｳｼﾝｾﾝ
 10
247.85468697097511
 20
279.45970952600641
 30
0.0
 11
247.85468697097511
 21
261.45970952600641
 31
0.0
  0
ARC
  5
9EB3
  8
AM_0
 10
554.76672397097491
 20
106.5082975866639
 30
0.0
 40
14.000001299999999
 50
106.601540000002
 51
73.398451999998059
  0
CIRCLE
  5
9EB4
  8
AM_0
 10
554.76672397097491
 20
106.5082975866639
 30
0.0
 40
3.0
  0
CIRCLE
  5
9EB5
  8
AM_5
 10
554.76672397097491
 20
106.5082975866639
 30
0.0
 40
4.000000199999997
  0
LINE
  5
9EB6
  8
AM_0
 10
550.76670997097483
 20
123.5083435866638
 30
0.0
 11
558.76671097097517
 21
123.5083435866638
 31
0.0
  0
LINE
  5
9EB7
  8
AM_0
 10
550.76670997097483
 20
116.5083235866642
 30
0.0
 11
558.76671097097517
 21
116.5083235866642
 31
0.0
  0
LINE
  5
9EB8
  8
AM_0
 10
558.76671097097517
 20
116.5083235866642
 30
0.0
 11
558.76671097097517
 21
123.5083435866638
 31
0.0
  0
LINE
  5
9EB9
  8
AM_0
 10
550.76670997097483
 20
116.5083235866642
 30
0.0
 11
550.76670997097483
 21
123.5083435866638
 31
0.0
  0
LINE
  5
9EC9
  8
AM_0
 10
331.85472697097481
 20
121.5083275866633
 30
0.0
 11
331.85472697097481
 21
91.508321586663385
 31
0.0
  0
LINE
  5
9ECA
  8
AM_0
 10
371.8546869709748
 20
123.5083675866636
 30
0.0
 11
371.8546869709748
 21
92.508350586663525
 31
0.0
  0
LINE
  5
9ECB
  8
AM_0
 10
331.85472697097481
 20
92.508350586663525
 30
0.0
 11
371.8546869709748
 21
92.508350586663525
 31
0.0
  0
LINE
  5
9ECC
  8
AM_0
 10
329.8546869709748
 20
91.508321586663385
 30
0.0
 11
331.85472697097481
 21
91.508321586663385
 31
0.0
  0
LINE
  5
9ECD
  8
AM_0
 10
339.85467697097482
 20
123.5083675866636
 30
0.0
 11
371.8546869709748
 21
123.5083675866636
 31
0.0
  0
LINE
  5
9ECE
  8
AM_0
 10
331.85472697097481
 20
120.5083675866633
 30
0.0
 11
371.8546869709748
 21
120.5083675866633
 31
0.0
  0
LINE
  5
9ECF
  8
AM_0
 10
329.8546869709748
 20
121.5083275866633
 30
0.0
 11
331.85472697097481
 21
121.5083275866633
 31
0.0
  0
LINE
  5
9ED0
  8
AM_0
 10
339.85467697097482
 20
123.5083675866636
 30
0.0
 11
339.85467697097482
 21
120.5083675866633
 31
0.0
  0
LINE
  5
9EF2
  8
AM_0
 10
331.85472697097481
 20
350.45970152600592
 30
0.0
 11
331.85472697097481
 21
320.45969552600587
 31
0.0
  0
LINE
  5
9EF3
  8
AM_0
 10
371.8546869709748
 20
349.45974152600598
 30
0.0
 11
371.8546869709748
 21
321.45972452600603
 31
0.0
  0
LINE
  5
9EF4
  8
AM_0
 10
331.85472697097481
 20
321.45972452600603
 30
0.0
 11
371.8546869709748
 21
321.45972452600603
 31
0.0
  0
LINE
  5
9EF5
  8
AM_0
 10
329.8546869709748
 20
320.45969552600587
 30
0.0
 11
331.85472697097481
 21
320.45969552600587
 31
0.0
  0
LINE
  5
9EF6
  8
AM_0
 10
339.8546869709748
 20
331.4596895260064
 30
0.0
 11
371.8546869709748
 21
331.4596895260064
 31
0.0
  0
LINE
  5
9EF7
  8
AM_0
 10
339.8546869709748
 20
339.45965952600642
 30
0.0
 11
339.8546869709748
 21
331.4596895260064
 31
0.0
  0
ARC
  5
9EF8
  8
AM_0
 10
339.8546869709748
 20
335.45965952600642
 30
0.0
 40
3.9999962
 50
90.000003000000945
 51
270.0
  0
LINE
  5
9EF9
  8
AM_0
 10
331.85472697097481
 20
349.45974152600593
 30
0.0
 11
371.8546869709748
 21
349.45974152600593
 31
0.0
  0
LINE
  5
9EFA
  8
AM_0
 10
339.8546869709748
 20
339.45965952600642
 30
0.0
 11
371.8546869709748
 21
339.45965952600642
 31
0.0
  0
LINE
  5
9EFB
  8
AM_0
 10
329.8546869709748
 20
350.45970152600592
 30
0.0
 11
331.85472697097481
 21
350.45970152600592
 31
0.0
  0
TEXT
  5
A2B6
  8
0
  6
CONTINUOUS
 62
     0
 10
463.37207570191248
 20
320.51870622376953
 30
0.0
 40
10.0
  1
VX04-040B~VX04-050B
  0
VIEWPORT
  5
89
 67
     1
  8
0
 10
210.0
 20
148.5
 30
0.0
 40
420.0
 41
297.0
 68
    -1
 69
     1
1001
ACAD
1000
MVIEW
1002
{
1070
    16
1010
0.0
1020
0.0
1030
0.0
1010
0.0
1020
0.0
1030
1.0
1040
0.0
1040
297.0
1040
221.70154043645701
1040
148.5
1040
50.0
1040
0.0
1040
0.0
1070
     0
1070
   100
1070
     1
1070
     1
1070
     0
1070
     0
1070
     0
1070
     0
1040
0.0
1040
0.0
1040
0.0
1040
10.0
1040
10.0
1040
10.0
1040
10.0
1070
     0
1002
{
1002
}
1002
}
1001
GENIUS_GENOREF_13
1005
1B94
1001
GENIUS_GENSCREG_15
1000
PF
1040
1.0
1000
DF
1040
1.0
1000
MIN
1011
0.0
1021
0.0
1031
0.0
1021
0.0
1031
0.0
1000
MAX
1011
420.0
1021
0.0
1031
0.0
1021
297.0
1031
0.0
1000
FLAGS
1070
     4
  0
ENDSEC
  0
EOF
