  0
SECTION
  2
HEADER
  9
$ACADVER
  1
AC1009
  9
$INSBASE
 10
0.0
 20
0.0
 30
0.0
  9
$EXTMIN
 10
9.4088266941309922
 20
3.9934120185723709
 30
-0.0015258207003583
  9
$EXTMAX
 10
652.41455831630617
 20
456.42654538458709
 30
0.0000000349246037
  9
$LIMMIN
 10
0.0
 20
0.0
  9
$LIMMAX
 10
408.0
 20
284.0
  9
$ORTHOMODE
 70
     0
  9
$REGENMODE
 70
     1
  9
$FILLMODE
 70
     1
  9
$QTEXTMODE
 70
     0
  9
$MIRRTEXT
 70
     1
  9
$DRAGMODE
 70
     2
  9
$LTSCALE
 40
1.0
  9
$OSMODE
 70
   551
  9
$ATTMODE
 70
     1
  9
$TEXTSIZE
 40
2.5
  9
$TRACEWID
 40
1.0
  9
$TEXTSTYLE
  7
STANDARD
  9
$CLAYER
  8
AM_0
  9
$CELTYPE
  6
BYLAYER
  9
$CECOLOR
 62
   256
  9
$DIMSCALE
 40
1.0
  9
$DIMASZ
 40
2.5
  9
$DIMEXO
 40
1.0
  9
$DIMDLI
 40
7.0
  9
$DIMRND
 40
0.0
  9
$DIMDLE
 40
0.0
  9
$DIMEXE
 40
1.0
  9
$DIMTP
 40
0.1
  9
$DIMTM
 40
0.1000000001
  9
$DIMTXT
 40
2.5
  9
$DIMCEN
 40
0.0
  9
$DIMTSZ
 40
0.0
  9
$DIMTOL
 70
     0
  9
$DIMLIM
 70
     0
  9
$DIMTIH
 70
     0
  9
$DIMTOH
 70
     0
  9
$DIMSE1
 70
     0
  9
$DIMSE2
 70
     0
  9
$DIMTAD
 70
     3
  9
$DIMZIN
 70
     8
  9
$DIMBLK
  1

  9
$DIMASO
 70
     1
  9
$DIMSHO
 70
     1
  9
$DIMPOST
  1

  9
$DIMAPOST
  1
"
  9
$DIMALT
 70
     0
  9
$DIMALTD
 70
     2
  9
$DIMALTF
 40
0.0393701
  9
$DIMLFAC
 40
1.0
  9
$DIMTOFL
 70
     1
  9
$DIMTVP
 40
0.0
  9
$DIMTIX
 70
     0
  9
$DIMSOXD
 70
     0
  9
$DIMSAH
 70
     0
  9
$DIMBLK1
  1

  9
$DIMBLK2
  1

  9
$DIMSTYLE
  2
AM_JIS
  9
$DIMCLRD
 70
   256
  9
$DIMCLRE
 70
   256
  9
$DIMCLRT
 70
     4
  9
$DIMTFAC
 40
0.71
  9
$DIMGAP
 40
1.0
  9
$LUNITS
 70
     2
  9
$LUPREC
 70
     2
  9
$SKETCHINC
 40
1.0
  9
$FILLETRAD
 40
2.5
  9
$AUNITS
 70
     0
  9
$AUPREC
 70
     3
  9
$MENU
  1
.
  9
$ELEVATION
 40
0.0
  9
$PELEVATION
 40
0.0
  9
$THICKNESS
 40
0.0
  9
$LIMCHECK
 70
     0
  9
$BLIPMODE
 70
     0
  9
$CHAMFERA
 40
2.5
  9
$CHAMFERB
 40
2.5
  9
$SKPOLY
 70
     0
  9
$TDCREATE
 40
2453061.7460971759
  9
$TDUPDATE
 40
2458540.703290706
  9
$TDINDWG
 40
0.0690612731
  9
$TDUSRTIMER
 40
0.0690610764
  9
$USRTIMER
 70
     1
  9
$ANGBASE
 50
0.0
  9
$ANGDIR
 70
     0
  9
$PDMODE
 70
     0
  9
$PDSIZE
 40
0.0
  9
$PLINEWID
 40
0.0
  9
$COORDS
 70
     1
  9
$SPLFRAME
 70
     0
  9
$SPLINETYPE
 70
     6
  9
$SPLINESEGS
 70
     8
  9
$ATTDIA
 70
     1
  9
$ATTREQ
 70
     1
  9
$HANDLING
 70
     1
  9
$HANDSEED
  5
A1A5
  9
$SURFTAB1
 70
     6
  9
$SURFTAB2
 70
     6
  9
$SURFTYPE
 70
     6
  9
$SURFU
 70
     6
  9
$SURFV
 70
     6
  9
$UCSNAME
  2

  9
$UCSORG
 10
0.0
 20
0.0
 30
0.0
  9
$UCSXDIR
 10
1.0
 20
0.0
 30
0.0
  9
$UCSYDIR
 10
0.0
 20
1.0
 30
0.0
  9
$PUCSNAME
  2

  9
$PUCSORG
 10
0.0
 20
0.0
 30
0.0
  9
$PUCSXDIR
 10
1.0
 20
0.0
 30
0.0
  9
$PUCSYDIR
 10
0.0
 20
1.0
 30
0.0
  9
$USERI1
 70
     0
  9
$USERI2
 70
     0
  9
$USERI3
 70
     0
  9
$USERI4
 70
     0
  9
$USERI5
 70
     0
  9
$USERR1
 40
0.0
  9
$USERR2
 40
0.0
  9
$USERR3
 40
0.0
  9
$USERR4
 40
0.0
  9
$USERR5
 40
0.0
  9
$WORLDVIEW
 70
     1
  9
$SHADEDGE
 70
     3
  9
$SHADEDIF
 70
    70
  9
$TILEMODE
 70
     1
  9
$MAXACTVP
 70
    48
  9
$PLIMCHECK
 70
     0
  9
$PEXTMIN
 10
1.0000000000000000E+020
 20
1.0000000000000000E+020
 30
1.0000000000000000E+020
  9
$PEXTMAX
 10
-1.0000000000000000E+020
 20
-1.0000000000000000E+020
 30
-1.0000000000000000E+020
  9
$PLIMMIN
 10
0.0
 20
0.0
  9
$PLIMMAX
 10
420.0
 20
297.0
  9
$UNITMODE
 70
     0
  9
$VISRETAIN
 70
     1
  9
$PLINEGEN
 70
     0
  9
$PSLTSCALE
 70
     1
  0
ENDSEC
  0
SECTION
  2
TABLES
  0
TABLE
  2
VPORT
 70
     1
  0
VPORT
  2
*ACTIVE
 70
     0
 10
0.0
 20
0.0
 11
1.0
 21
1.0
 12
330.91169250521858
 22
230.2099787015797
 13
0.0
 23
0.0
 14
1.0
 24
1.0
 15
10.0
 25
10.0
 16
0.0
 26
0.0
 36
1.0
 17
0.0
 27
0.0
 37
0.0
 40
455.539081649992
 41
1.7571592210767459
 42
50.0
 43
0.0
 44
0.0
 50
0.0
 51
0.0
 71
     0
 72
   100
 73
     1
 74
     1
 75
     0
 76
     0
 77
     0
 78
     0
  0
ENDTAB
  0
TABLE
  2
LTYPE
 70
    26
  0
LTYPE
  2
CONTINUOUS
 70
     0
  3
Solid line
 72
    65
 73
     0
 40
0.0
  0
LTYPE
  2
PHANTOM2
 70
     0
  3
Phantom (.5x) ___ _ _ ___ _ _ ___ _ _ ___ _ _
 72
    65
 73
     6
 40
31.75
 49
15.875
 49
-3.174999999999998
 49
3.174999999999998
 49
-3.174999999999998
 49
3.174999999999998
 49
-3.174999999999998
  0
LTYPE
  2
CENTER
 70
     0
  3
Center ____ _ ____ _ ____ _ ____ _ ____ _ ____
 72
    65
 73
     4
 40
50.799999999999997
 49
31.75
 49
-6.3499999999999979
 49
6.3499999999999979
 49
-6.3499999999999979
  0
LTYPE
  2
ACANSTGBM
 70
     0
  3
__ . . __ . .
 72
    65
 73
     6
 40
9.0
 49
4.0
 49
-1.0
 49
1.0
 49
-1.0
 49
1.0
 49
-1.0
  0
LTYPE
  2
ACANSTGLM
 70
     0
  3
_ _ _ _ _
 72
    65
 73
     2
 40
3.0
 49
2.0
 49
-1.0
  0
LTYPE
  2
GEN7
 70
     0
  3
____ . ____ . ____ . ____ . ____ . ____ . ____
 72
    65
 73
     4
 40
14.25
 49
9.75
 49
-1.5
 49
1.5
 49
-1.5
  0
LTYPE
  2
GEN3B
 70
     0
  3
 - - - - -
 72
    65
 73
     2
 40
1.0
 49
0.5
 49
-0.5
  0
LTYPE
  2
AM_ISO02W050
 70
     0
  3
__ __ __ __ __ __ __ __ __ __ __ __ __ __ __
 72
    65
 73
     2
 40
7.5
 49
6.0
 49
-1.5
  0
LTYPE
  2
AM_ISO08W050
 70
     0
  3
____ . ____ . ____ . ____ . ____ . ____ . ____
 72
    65
 73
     4
 40
18.0
 49
12.0
 49
-1.5
 49
3.0
 49
-1.5
  0
LTYPE
  2
AM_ISO09W050
 70
     0
  3
_____ . . _____ . . _____ . . ____ .. ____
 72
    65
 73
     6
 40
22.5
 49
12.0
 49
-1.5
 49
3.0
 49
-1.5
 49
3.0
 49
-1.5
  0
LTYPE
  2
AMCONSTR
 70
     0
  3
_______________________
 72
    65
 73
     2
 40
9999.0
 49
9999.0
 49
0.0
  0
LTYPE
  2
AM_ISO02W050X2
 70
     0
  3
 _ _ _ _ _ _ _ _ _ _ _ _
 72
    65
 73
     2
 40
3.75
 49
3.0
 49
-0.75
  0
LTYPE
  2
AM_ISO08W050X2
 70
     0
  3
__ . __ . __ . __ . __ . __
 72
    65
 73
     4
 40
9.0
 49
6.0
 49
-0.75
 49
1.5
 49
-0.75
  0
LTYPE
  2
AMZIGZAG
 70
     0
  3
/\/-/\/-/\/-/\/-/\/-/\/
 72
    65
 73
     2
 40
11.000099999999991
 49
0.0001
 49
-11.0
  0
LTYPE
  2
ACJISTGB
 70
     0
  3
__ . . __ . .
 72
    65
 73
     6
 40
9.0
 49
4.0
 49
-1.0
 49
1.0
 49
-1.0
 49
1.0
 49
-1.0
  0
LTYPE
  2
ACJISTGL
 70
     0
  3
_ _ _ _ _
 72
    65
 73
     2
 40
3.0
 49
2.0
 49
-1.0
  0
LTYPE
  2
ACISOWELD
 70
     0
  3
_ _ _ _ _
 72
    65
 73
     2
 40
2.0
 49
2.0
 49
-1.0
  0
LTYPE
  2
ACISOTGB
 70
     0
  3
__ . . __ . .
 72
    65
 73
     6
 40
9.0
 49
4.0
 49
-1.0
 49
1.0
 49
-1.0
 49
1.0
 49
-1.0
  0
LTYPE
  2
ACISOTGL
 70
     0
  3
_ _ _ _ _
 72
    65
 73
     2
 40
3.0
 49
2.0
 49
-1.0
  0
LTYPE
  2
HIDDEN
 70
     0
  3
Hidden __ __ __ __ __ __ __ __ __ __ __ __ __ _
 72
    65
 73
     2
 40
0.375
 49
0.25
 49
-0.125
  0
LTYPE
  2
CENTER2
 70
     0
  3
Center (.5x) ___ _ ___ _ ___ _ ___ _ ___ _ ___
 72
    65
 73
     4
 40
1.125
 49
0.75
 49
-0.125
 49
0.125
 49
-0.125
  0
LTYPE
  2
HIDDEN2
 70
     0
  3
Hidden (.5x) _ _ _ _ _ _ _ _ _ _ _ _ _ _ _ _ _
 72
    65
 73
     2
 40
0.1875
 49
0.125
 49
-0.0625
  0
LTYPE
  2
AMZIGZAG2
 70
     0
  3
/\/-/\/-/\/-/\/-/\/-/\/
 72
    65
 73
     2
 40
0.4401
 49
0.0001
 49
-0.4400000000000001
  0
LTYPE
  2
ACANSTGB
 70
     0
  3
__ . . __ . .
 72
    65
 73
     6
 40
0.35433070866
 49
0.15748031496
 49
-0.03937007874
 49
0.03937007874
 49
-0.03937007874
 49
0.03937007874
 49
-0.03937007874
  0
LTYPE
  2
ACANSTGL
 70
     0
  3
_ _ _ _ _
 72
    65
 73
     2
 40
0.11811023622
 49
0.07874015748
 49
-0.03937007874
  0
ENDTAB
  0
TABLE
  2
LAYER
 70
     7
  0
LAYER
  2
0
 70
     0
 62
     7
  6
CONTINUOUS
  0
LAYER
  2
AM_0
 70
     0
 62
     7
  6
CONTINUOUS
  0
LAYER
  2
DEFPOINTS
 70
     0
 62
     7
  6
CONTINUOUS
  0
LAYER
  2
ｶｸﾚｾﾝ2
 70
     0
 62
     3
  6
GEN3B
  0
LAYER
  2
ﾁｭｳｼﾝｾﾝ
 70
     0
 62
     1
  6
GEN7
  0
LAYER
  2
AM_0N
 70
     0
 62
     7
  6
CONTINUOUS
  0
LAYER
  2
AM_5
 70
     0
 62
     2
  6
CONTINUOUS
  0
ENDTAB
  0
TABLE
  2
STYLE
 70
    10
  0
STYLE
  2
STANDARD
 70
     0
 40
0.0
 41
0.8299999999999999
 50
0.0
 71
     0
 42
2.5
  3
txt.shx
  4
bigfont.shx
  0
STYLE
  2
ANNOTATIVE
 70
     0
 40
0.0
 41
1.0
 50
0.0
 71
     0
 42
0.2
  3
txt
  4

  0
STYLE
  2
ACANSTS
 70
     0
 40
1.0
 41
1.0
 50
0.0
 71
     0
 42
2.5
  3
romans.shx
  4
bigfont.shx
  0
STYLE
  2
ACANSGDT
 70
     0
 40
0.0
 41
1.0
 50
0.0
 71
     0
 42
2.5
  3
amgdt.shx
  4

  0
STYLE
  2

 70
     1
 40
0.0
 41
1.0
 50
0.0
 71
     0
 42
2.5
  3
ltypeshp.shx
  4

  0
STYLE
  2
ACJISTS
 70
     0
 40
1.0
 41
0.8299999999999999
 50
0.0
 71
     0
 42
2.5
  3
txt.shx
  4
bigfont.shx
  0
STYLE
  2
ACJISGDT
 70
     0
 40
0.0
 41
1.0
 50
0.0
 71
     0
 42
2.5
  3
amgdt.shx
  4

  0
STYLE
  2
ACISOTS
 70
     0
 40
1.0
 41
1.0
 50
0.0
 71
     0
 42
2.5
  3
isocp.shx
  4
extfont.shx
  0
STYLE
  2
ACISOGDT
 70
     0
 40
0.0
 41
1.0
 50
0.0
 71
     0
 42
2.5
  3
amgdt.shx
  4

  0
STYLE
  2

 70
     1
 40
0.0
 41
1.0
 50
0.0
 71
     0
 42
2.5
  3
genltshp.shx
  4

  0
ENDTAB
  0
TABLE
  2
VIEW
 70
    12
  0
VIEW
  2
GEN1
 70
     0
 40
95.824742268041234
 10
71.5
 20
137.08762886597941
 41
143.0
 11
0.0
 21
0.0
 31
1.0
 12
0.0
 22
0.0
 32
0.0
 42
50.0
 43
0.0
 44
0.0
 50
0.0
 71
     0
  0
VIEW
  2
GEN2
 70
     0
 40
95.824742268041234
 10
214.5
 20
137.08762886597941
 41
143.0
 11
0.0
 21
0.0
 31
1.0
 12
0.0
 22
0.0
 32
0.0
 42
50.0
 43
0.0
 44
0.0
 50
0.0
 71
     0
  0
VIEW
  2
GEN3
 70
     0
 40
95.824742268041234
 10
71.5
 20
47.912371134020603
 41
143.0
 11
0.0
 21
0.0
 31
1.0
 12
0.0
 22
0.0
 32
0.0
 42
50.0
 43
0.0
 44
0.0
 50
0.0
 71
     0
  0
VIEW
  2
GEN4
 70
     0
 40
95.824742268041234
 10
214.5
 20
47.912371134020603
 41
143.0
 11
0.0
 21
0.0
 31
1.0
 12
0.0
 22
0.0
 32
0.0
 42
50.0
 43
0.0
 44
0.0
 50
0.0
 71
     0
  0
VIEW
  2
GEN5
 70
     0
 40
95.824742268041234
 10
143.0
 20
92.500000000000057
 41
143.0
 11
0.0
 21
0.0
 31
1.0
 12
0.0
 22
0.0
 32
0.0
 42
50.0
 43
0.0
 44
0.0
 50
0.0
 71
     0
  0
VIEW
  2
GEN6
 70
     0
 40
191.64756804123709
 10
143.0
 20
92.5
 41
285.99713999999989
 11
0.0
 21
0.0
 31
1.0
 12
0.0
 22
0.0
 32
0.0
 42
50.0
 43
0.0
 44
0.0
 50
0.0
 71
     0
  0
VIEW
  2
AM_VIEW1
 70
     0
 40
142.0
 10
119.7777777777777
 20
213.0
 41
239.55555555555549
 11
0.0
 21
0.0
 31
1.0
 12
0.0
 22
0.0
 32
0.0
 42
50.0
 43
0.0
 44
0.0
 50
0.0
 71
     0
  0
VIEW
  2
AM_VIEW2
 70
     0
 40
142.0
 10
288.22222222222211
 20
213.0
 41
239.55555555555549
 11
0.0
 21
0.0
 31
1.0
 12
0.0
 22
0.0
 32
0.0
 42
50.0
 43
0.0
 44
0.0
 50
0.0
 71
     0
  0
VIEW
  2
AM_VIEW3
 70
     0
 40
142.0
 10
119.7777777777777
 20
71.0
 41
239.55555555555549
 11
0.0
 21
0.0
 31
1.0
 12
0.0
 22
0.0
 32
0.0
 42
50.0
 43
0.0
 44
0.0
 50
0.0
 71
     0
  0
VIEW
  2
AM_VIEW4
 70
     0
 40
142.0
 10
288.22222222222211
 20
71.0
 41
239.55555555555549
 11
0.0
 21
0.0
 31
1.0
 12
0.0
 22
0.0
 32
0.0
 42
50.0
 43
0.0
 44
0.0
 50
0.0
 71
     0
  0
VIEW
  2
AM_VIEW5
 70
     0
 40
142.0
 10
204.0
 20
142.0
 41
239.55555555555549
 11
0.0
 21
0.0
 31
1.0
 12
0.0
 22
0.0
 32
0.0
 42
50.0
 43
0.0
 44
0.0
 50
0.0
 71
     0
  0
VIEW
  2
AM_VIEW6
 70
     0
 40
283.99716000000001
 10
204.0
 20
142.0
 41
479.10631999999993
 11
0.0
 21
0.0
 31
1.0
 12
0.0
 22
0.0
 32
0.0
 42
50.0
 43
0.0
 44
0.0
 50
0.0
 71
     0
  0
ENDTAB
  0
TABLE
  2
UCS
 70
     0
  0
ENDTAB
  0
TABLE
  2
APPID
 70
   106
  0
APPID
  2
ACAD
 70
     0
  0
APPID
  2
ACADANNOTATIVE
 70
     0
  0
APPID
  2
MCAD_NO_VIS
 70
     0
  0
APPID
  2
ACAD_TEMP_GRAPHIC
 70
     0
  0
APPID
  2
AD_DRAW
 70
     0
  0
APPID
  2
DESIGNERASSEMBLIES
 70
     0
  0
APPID
  2
ASURF_PCURVE_APPNAME
 70
     0
  0
APPID
  2
GENIUS_GE3SECT_13
 70
     0
  0
APPID
  2
GENIUS_GENCFG_13
 70
     0
  0
APPID
  2
GENIUS_GE3CFG0_13
 70
     0
  0
APPID
  2
GENIUS_GENCFG0_13
 70
     0
  0
APPID
  2
GENIUS_GENCFG1_13
 70
     0
  0
APPID
  2
GENIUS_GENCFG2_13
 70
     0
  0
APPID
  2
GENIUS_GENCFG3_13
 70
     0
  0
APPID
  2
GENIUS_GENCFG4_13
 70
     0
  0
APPID
  2
GENIUS_GEVCFG0_13
 70
     0
  0
APPID
  2
GENIUS_GENOENT_13
 70
     0
  0
APPID
  2
GENIUS_GENREC_14
 70
     0
  0
APPID
  2
GENIUS_GENODEF_13
 70
     0
  0
APPID
  2
GENIUS_GENOBJ-N-REC_13
 70
     0
  0
APPID
  2
GENIUS_GENHINW_13
 70
     0
  0
APPID
  2
GENIUS_FIRSTVISTXT_14
 70
     0
  0
APPID
  2
GENIUS_GENOBJ-N-LEADER_13
 70
     0
  0
APPID
  2
GENIUS_GENOREF_13
 70
     0
  0
APPID
  2
GENIUS_GENOLIS_13
 70
     0
  0
APPID
  2
GEV_VCCNULL_SWITCH_OFF
 70
     0
  0
APPID
  2
GENIUS_GENDTOL_13
 70
     0
  0
APPID
  2
GENIUS_GEFCFG0_13
 70
     0
  0
APPID
  2
GENIUS_GENOBJ-N-TIT_13
 70
     0
  0
APPID
  2
GENIUS_GENTITLE_13
 70
     0
  0
APPID
  2
GENIUS_GENZVEED_13
 70
     0
  0
APPID
  2
GENIUS_GENOBJ-N-SDF_13
 70
     0
  0
APPID
  2
GENIUS_GENSCREG_13
 70
     0
  0
APPID
  2
GENIUS_DUMCFG0_13
 70
     0
  0
APPID
  2
GEVID936201362
 70
     0
  0
APPID
  2
GEVDC
 70
     0
  0
APPID
  2
GEVCON
 70
     0
  0
APPID
  2
VCC
 70
     0
  0
APPID
  2
GEVPT
 70
     0
  0
APPID
  2
GEVIT
 70
     0
  0
APPID
  2
GENBH
 70
     0
  0
APPID
  2
GEVMK
 70
     0
  0
APPID
  2
GENIUS_GENBH_13
 70
     0
  0
APPID
  2
GENIUS_GENOBJ-NBEHI-BHF_13
 70
     0
  0
APPID
  2
GENIUS_GENOBJ-NBEHI-BHB_13
 70
     0
  0
APPID
  2
GENIUS_GENOBJ-F-DESC_13
 70
     0
  0
APPID
  2
GENIUS_GEFDESC_14
 70
     0
  0
APPID
  2
GENIUS_GENOBJ-F-PART_13
 70
     0
  0
APPID
  2
GENIUS_GEFSTDP_13
 70
     0
  0
APPID
  2
GENIUS_GEFPARTINS_13
 70
     0
  0
APPID
  2
GENIUS_GENTRA_14
 70
     0
  0
APPID
  2
GENIUS_GENINF13_13
 70
     0
  0
APPID
  2
GENIUS_GENOBJ-N-INFOPT_13
 70
     0
  0
APPID
  2
GENIUS_GENOBJ-N-RSSYM_13
 70
     0
  0
APPID
  2
GENIUS_GENSYMENT_13
 70
     0
  0
APPID
  2
GENIUS_GENSCSYM_13
 70
     0
  0
APPID
  2
GENIUS_GEFINFNAM_13
 70
     0
  0
APPID
  2
GENIUS_GENSCREG_15
 70
     0
  0
APPID
  2
GENIUS_GENOBJ-N-CEN_13
 70
     0
  0
APPID
  2
GENIUS_GENOBJ-N-CRS_13
 70
     0
  0
APPID
  2
GENIUS_GENOBJ-N-CRC_13
 70
     0
  0
APPID
  2
GENIUS_GENCRC_14
 70
     0
  0
APPID
  2
GEVID942827039
 70
     0
  0
APPID
  2
GEVID942827040
 70
     0
  0
APPID
  2
GEVID942827041
 70
     0
  0
APPID
  2
GENIUS_GENOBJ-F-SCPASSM_13
 70
     0
  0
APPID
  2
GENIUS_GENDIMSH_14
 70
     0
  0
APPID
  2
GENIUS_GENFIL_13
 70
     0
  0
APPID
  2
GENIUS_GENOBJ-N-CHA_13
 70
     0
  0
APPID
  2
GENIUS_GENOBJ-N-FIL_13
 70
     0
  0
APPID
  2
GEVID942827042
 70
     0
  0
APPID
  2
GEVID946020473
 70
     0
  0
APPID
  2
GEVID946020474
 70
     0
  0
APPID
  2
GEVID946020475
 70
     0
  0
APPID
  2
GENIUS_GENOBJ-N-HTC_13
 70
     0
  0
APPID
  2
GENIUS_GENHATCH_13
 70
     0
  0
APPID
  2
GEVID948854295
 70
     0
  0
APPID
  2
GEVID939402019
 70
     0
  0
APPID
  2
GEVID952919491
 70
     0
  0
APPID
  2
GEVID952919492
 70
     0
  0
APPID
  2
GENIUS_GEFWELD_13
 70
     0
  0
APPID
  2
GENIUS_GENOBJ-F-WELS_13
 70
     0
  0
APPID
  2
GEVID952919493
 70
     0
  0
APPID
  2
GENIUS_GENOBJ-N-RSBK_13
 70
     0
  0
APPID
  2
GENIUS_GENOBJ-N-LIB_13
 70
     0
  0
APPID
  2
GENIUS_GENSCALE_13
 70
     0
  0
APPID
  2
GEVID986376691
 70
     0
  0
APPID
  2
ACATTRIBSERVICES
 70
     0
  0
APPID
  2
ACADM_DIM_EDIT
 70
     0
  0
APPID
  2
AMDT_DM_ADJ
 70
     0
  0
APPID
  2
GEVID1057795304
 70
     0
  0
APPID
  2
GENIUS_GEFSH_13
 70
     0
  0
APPID
  2
GENIUS_GENOBJ-F-SHS_13
 70
     0
  0
APPID
  2
GENIUS_GENOBJ-N-ADDLEAD_13
 70
     0
  0
APPID
  2
GENIUS_GENMAINADDLEADER_14
 70
     0
  0
APPID
  2
GENIUS_GENADDLEADER_14
 70
     0
  0
APPID
  2
GENIUS_GENDREL_13
 70
     0
  0
APPID
  2
GEVID1121934822
 70
     0
  0
APPID
  2
GEVID1121934823
 70
     0
  0
APPID
  2
GEVID1121934824
 70
     0
  0
APPID
  2
ACAD_DSTYLE_DIMJAG
 70
     0
  0
APPID
  2
ACAD_DSTYLE_DIMBREAK
 70
     0
  0
APPID
  2
ACAD_NAV_VCDISPLAY
 70
     0
  0
APPID
  2
ACADANNOPO
 70
     0
  0
APPID
  2
ACAD_EXEMPT_FROM_CAD_STANDARDS
 70
     0
  0
APPID
  2
ACAD_MLEADERVER
 70
     0
  0
ENDTAB
  0
TABLE
  2
DIMSTYLE
 70
    29
  0
DIMSTYLE
  2
STANDARD
 70
     0
  3

  4

  5

  6

  7

 40
1.0
 41
0.18
 42
0.0625
 43
0.38
 44
0.18
 45
0.0
 46
0.0
 47
0.0
 48
0.0
140
0.18
141
0.09
142
0.0
143
25.399999999999999
144
1.0
145
0.0
146
1.0
147
0.09
 71
     0
 72
     0
 73
     1
 74
     1
 75
     0
 76
     0
 77
     0
 78
     0
170
     0
171
     2
172
     0
173
     0
174
     0
175
     0
176
     0
177
     0
178
     0
  0
DIMSTYLE
  2
ANNOTATIVE
 70
     0
  3

  4

  5

  6

  7

 40
1.0
 41
0.18
 42
0.0625
 43
0.38
 44
0.18
 45
0.0
 46
0.0
 47
0.0
 48
0.0
140
0.18
141
0.09
142
0.0
143
25.399999999999999
144
1.0
145
0.0
146
1.0
147
0.09
 71
     0
 72
     0
 73
     1
 74
     1
 75
     0
 76
     0
 77
     0
 78
     0
170
     0
171
     2
172
     0
173
     0
174
     0
175
     0
176
     0
177
     0
178
     0
  0
DIMSTYLE
  2
AM_JIS
 70
     0
  3

  4
"
  5

  6

  7

 40
1.0
 41
2.0
 42
1.0
 43
8.0
 44
1.0
 45
0.0
 46
0.0
 47
0.1
 48
0.1
140
2.5
141
0.0
142
0.0
143
0.0393701
144
1.0
145
0.0
146
0.71
147
1.5
 71
     0
 72
     0
 73
     0
 74
     0
 75
     0
 76
     0
 77
     3
 78
     8
170
     0
171
     2
172
     1
173
     0
174
     0
175
     0
176
   256
177
   256
178
     4
  0
DIMSTYLE
  2
AM_JIS$3
 70
     0
  3

  4
"
  5

  6

  7

 40
1.0
 41
2.0
 42
1.0
 43
10.0
 44
1.0
 45
0.0
 46
0.0
 47
0.1
 48
0.1
140
2.5
141
0.0
142
0.0
143
0.0393701
144
1.0
145
0.0
146
0.71
147
1.5
 71
     0
 72
     0
 73
     0
 74
     1
 75
     0
 76
     0
 77
     3
 78
     8
170
     0
171
     2
172
     0
173
     0
174
     0
175
     0
176
   256
177
   256
178
     4
  0
DIMSTYLE
  2
AM_JIS$4
 70
     0
  3

  4
"
  5

  6

  7

 40
1.0
 41
2.0
 42
1.0
 43
10.0
 44
1.0
 45
0.0
 46
0.0
 47
0.1
 48
0.1
140
2.5
141
0.0
142
0.0
143
0.0393701
144
1.0
145
0.0
146
0.71
147
1.5
 71
     0
 72
     0
 73
     0
 74
     0
 75
     0
 76
     0
 77
     3
 78
     8
170
     0
171
     2
172
     0
173
     0
174
     0
175
     0
176
   256
177
   256
178
     4
  0
DIMSTYLE
  2
AM_JIS$6
 70
     0
  3

  4
"
  5

  6

  7

 40
1.0
 41
2.0
 42
1.0
 43
10.0
 44
1.0
 45
0.0
 46
0.0
 47
0.1
 48
0.1
140
2.5
141
0.0
142
0.0
143
0.0393701
144
1.0
145
0.0
146
0.71
147
1.5
 71
     0
 72
     0
 73
     0
 74
     0
 75
     0
 76
     0
 77
     0
 78
     8
170
     0
171
     2
172
     1
173
     0
174
     0
175
     0
176
   256
177
   256
178
     4
  0
DIMSTYLE
  2
AM_JIS$7
 70
     0
  3

  4
"
  5

  6

  7

 40
1.0
 41
2.0
 42
1.0
 43
10.0
 44
1.0
 45
0.0
 46
0.0
 47
0.1
 48
0.1
140
2.5
141
0.0
142
0.0
143
0.0393701
144
1.0
145
0.0
146
0.71
147
1.5
 71
     0
 72
     0
 73
     0
 74
     0
 75
     0
 76
     0
 77
     3
 78
     8
170
     0
171
     2
172
     1
173
     0
174
     0
175
     0
176
   256
177
   256
178
     4
  0
DIMSTYLE
  2
AM_JIS$SF
 70
     0
  3

  4
"
  5

  6

  7

 40
1.0
 41
2.0
 42
1.0
 43
10.0
 44
1.0
 45
0.0
 46
0.0
 47
0.1
 48
0.1
140
2.5
141
0.0
142
0.0
143
0.0393701
144
1.0
145
0.0
146
0.71
147
1.5
 71
     0
 72
     0
 73
     0
 74
     0
 75
     1
 76
     1
 77
     3
 78
     8
170
     0
171
     2
172
     1
173
     0
174
     0
175
     0
176
   256
177
   256
178
     4
  0
DIMSTYLE
  2
AM_JIS$SH
 70
     0
  3

  4
"
  5

  6

  7

 40
1.0
 41
2.0
 42
1.0
 43
10.0
 44
1.0
 45
0.0
 46
0.0
 47
0.1
 48
0.1
140
2.5
141
0.0
142
0.0
143
0.0393701
144
2.0
145
0.0
146
0.71
147
1.5
 71
     0
 72
     0
 73
     0
 74
     0
 75
     1
 76
     1
 77
     3
 78
     8
170
     0
171
     2
172
     1
173
     1
174
     0
175
     0
176
   256
177
   256
178
     4
  0
DIMSTYLE
  2
AM_ISO
 70
     0
  3

  4
"
  5

  6

  7

 40
1.0
 41
2.5
 42
1.0
 43
10.0
 44
1.0
 45
0.0
 46
0.0
 47
0.1
 48
0.1
140
3.5
141
0.0
142
0.0
143
0.0393701
144
1.0
145
0.0
146
0.71
147
1.5
 71
     0
 72
     0
 73
     0
 74
     0
 75
     0
 76
     0
 77
     1
 78
     8
170
     0
171
     2
172
     1
173
     0
174
     0
175
     0
176
   256
177
   256
178
     2
  0
DIMSTYLE
  2
AM_ISO$3
 70
     0
  3

  4
"
  5

  6

  7

 40
1.0
 41
2.5
 42
1.0
 43
10.0
 44
1.0
 45
0.0
 46
0.0
 47
0.1
 48
0.1
140
3.5
141
0.0
142
0.0
143
0.0393701
144
1.0
145
0.0
146
0.71
147
1.5
 71
     0
 72
     0
 73
     0
 74
     1
 75
     0
 76
     0
 77
     1
 78
     8
170
     0
171
     2
172
     0
173
     0
174
     0
175
     0
176
   256
177
   256
178
     2
  0
DIMSTYLE
  2
AM_ISO$4
 70
     0
  3

  4
"
  5

  6

  7

 40
1.0
 41
2.5
 42
1.0
 43
10.0
 44
1.0
 45
0.0
 46
0.0
 47
0.1
 48
0.1
140
3.5
141
0.0
142
0.0
143
0.0393701
144
1.0
145
0.0
146
0.71
147
1.5
 71
     0
 72
     0
 73
     0
 74
     1
 75
     0
 76
     0
 77
     1
 78
     8
170
     0
171
     2
172
     0
173
     0
174
     0
175
     0
176
   256
177
   256
178
     2
  0
DIMSTYLE
  2
AM_ISO$6
 70
     0
  3

  4
"
  5

  6

  7

 40
1.0
 41
2.5
 42
1.0
 43
10.0
 44
1.0
 45
0.0
 46
0.0
 47
0.1
 48
0.1
140
3.5
141
0.0
142
0.0
143
0.0393701
144
1.0
145
0.0
146
0.71
147
1.5
 71
     0
 72
     0
 73
     0
 74
     0
 75
     0
 76
     0
 77
     0
 78
     8
170
     0
171
     2
172
     1
173
     0
174
     0
175
     0
176
   256
177
   256
178
     2
  0
DIMSTYLE
  2
AM_ISO$7
 70
     0
  3

  4
"
  5

  6

  7

 40
1.0
 41
2.5
 42
1.0
 43
10.0
 44
1.0
 45
0.0
 46
0.0
 47
0.1
 48
0.1
140
5.0
141
0.0
142
0.0
143
0.0393701
144
1.0
145
0.0
146
0.71
147
1.5
 71
     0
 72
     0
 73
     0
 74
     0
 75
     0
 76
     0
 77
     1
 78
     8
170
     0
171
     2
172
     1
173
     0
174
     0
175
     0
176
   256
177
   256
178
     2
  0
DIMSTYLE
  2
AM_ISO$SF
 70
     0
  3

  4
"
  5

  6

  7

 40
1.0
 41
2.5
 42
1.0
 43
10.0
 44
1.0
 45
0.0
 46
0.0
 47
0.1
 48
0.1
140
3.5
141
0.0
142
0.0
143
0.0393701
144
1.0
145
0.0
146
0.71
147
1.5
 71
     0
 72
     0
 73
     0
 74
     0
 75
     1
 76
     1
 77
     1
 78
     8
170
     0
171
     2
172
     1
173
     0
174
     0
175
     0
176
   256
177
   256
178
     2
  0
DIMSTYLE
  2
AM_ISO$SH
 70
     0
  3

  4
"
  5

  6

  7

 40
1.0
 41
2.5
 42
1.0
 43
10.0
 44
1.0
 45
0.0
 46
0.0
 47
0.1
 48
0.1
140
3.5
141
0.0
142
0.0
143
0.0393701
144
2.0
145
0.0
146
0.71
147
1.5
 71
     0
 72
     0
 73
     0
 74
     0
 75
     1
 76
     1
 77
     1
 78
     8
170
     0
171
     2
172
     1
173
     1
174
     0
175
     0
176
   256
177
   256
178
     2
  0
DIMSTYLE
  2
GEN-ANSI
 70
     0
  3

  4
"
  5

  6

  7

 40
1.0
 41
2.0
 42
0.5
 43
10.0
 44
0.5
 45
0.0
 46
0.0
 47
0.1
 48
0.1
140
2.5
141
0.0
142
0.0
143
0.0393701
144
1.0
145
0.0
146
0.71
147
1.5
 71
     0
 72
     0
 73
     1
 74
     1
 75
     0
 76
     0
 77
     0
 78
     8
170
     0
171
     2
172
     0
173
     0
174
     0
175
     0
176
   256
177
   256
178
     4
  0
DIMSTYLE
  2
GEN-ANSI$3
 70
     0
  3

  4
"
  5

  6

  7

 40
1.0
 41
2.0
 42
0.5
 43
10.0
 44
0.5
 45
0.0
 46
0.0
 47
0.1
 48
0.1
140
2.5
141
0.0
142
0.0
143
0.0393701
144
1.0
145
0.0
146
0.71
147
1.5
 71
     0
 72
     0
 73
     1
 74
     1
 75
     0
 76
     0
 77
     0
 78
     8
170
     0
171
     2
172
     0
173
     0
174
     0
175
     0
176
   256
177
   256
178
     4
  0
DIMSTYLE
  2
GEN-ANSI$4
 70
     0
  3

  4
"
  5

  6

  7

 40
1.0
 41
2.0
 42
0.5
 43
10.0
 44
0.5
 45
0.0
 46
0.0
 47
0.1
 48
0.1
140
2.5
141
0.0
142
0.0
143
0.0393701
144
1.0
145
0.0
146
0.71
147
1.5
 71
     0
 72
     0
 73
     1
 74
     1
 75
     0
 76
     0
 77
     0
 78
     8
170
     0
171
     2
172
     0
173
     0
174
     0
175
     0
176
   256
177
   256
178
     4
  0
DIMSTYLE
  2
GEN-ANSI$6
 70
     0
  3

  4
"
  5

  6

  7

 40
1.0
 41
2.0
 42
0.5
 43
10.0
 44
0.5
 45
0.0
 46
0.0
 47
0.1
 48
0.1
140
2.5
141
0.0
142
0.0
143
0.0393701
144
1.0
145
0.0
146
0.71
147
1.5
 71
     0
 72
     0
 73
     1
 74
     1
 75
     0
 76
     0
 77
     0
 78
     8
170
     0
171
     2
172
     0
173
     0
174
     0
175
     0
176
   256
177
   256
178
     4
  0
DIMSTYLE
  2
GEN-ANSI-POS
 70
     0
  3

  4
"
  5

  6

  7

 40
1.0
 41
2.5
 42
0.5
 43
10.0
 44
0.5
 45
0.0
 46
0.0
 47
0.1
 48
0.1
140
5.0
141
0.0
142
0.0
143
0.0393701
144
1.0
145
0.0
146
0.71
147
1.5
 71
     0
 72
     0
 73
     0
 74
     0
 75
     0
 76
     0
 77
     0
 78
     8
170
     0
171
     2
172
     0
173
     0
174
     0
175
     0
176
   256
177
   256
178
     4
  0
DIMSTYLE
  2
GEN-ANSI-AXE-F
 70
     0
  3

  4
"
  5

  6

  7

 40
1.0
 41
2.0
 42
0.5
 43
10.0
 44
0.5
 45
0.0
 46
0.0
 47
0.1
 48
0.1
140
2.5
141
0.0
142
0.0
143
0.0393701
144
1.0
145
0.0
146
0.71
147
1.5
 71
     0
 72
     0
 73
     1
 74
     1
 75
     1
 76
     1
 77
     0
 78
     8
170
     0
171
     2
172
     0
173
     1
174
     0
175
     0
176
   256
177
   256
178
     4
  0
DIMSTYLE
  2
GEN-ANSI-AXE-H
 70
     0
  3

  4
"
  5

  6

  7

 40
1.0
 41
2.0
 42
0.5
 43
10.0
 44
0.5
 45
0.0
 46
0.0
 47
0.1
 48
0.1
140
2.5
141
0.0
142
0.0
143
0.0393701
144
2.0
145
0.0
146
0.71
147
1.5
 71
     0
 72
     0
 73
     0
 74
     0
 75
     1
 76
     1
 77
     0
 78
     8
170
     0
171
     2
172
     1
173
     1
174
     0
175
     0
176
   256
177
   256
178
     4
  0
DIMSTYLE
  2
AM_ANSI
 70
     0
  3

  4
mm
  5

  6

  7

 40
1.0
 41
0.12
 42
0.05
 43
0.5
 44
0.1
 45
0.0
 46
0.0
 47
0.1
 48
0.1
140
0.12
141
0.0
142
0.0
143
25.399999999999999
144
1.0
145
0.0
146
0.71
147
0.06
 71
     0
 72
     0
 73
     1
 74
     1
 75
     0
 76
     0
 77
     0
 78
     7
170
     0
171
     2
172
     0
173
     0
174
     0
175
     0
176
   256
177
   256
178
     2
  0
DIMSTYLE
  2
AM_ANSI$3
 70
     0
  3

  4
mm
  5

  6

  7

 40
1.0
 41
0.12
 42
0.05
 43
0.5
 44
0.1
 45
0.0
 46
0.0
 47
0.1
 48
0.1
140
0.12
141
0.0
142
0.0
143
25.399999999999999
144
1.0
145
0.0
146
0.71
147
0.06
 71
     0
 72
     0
 73
     1
 74
     1
 75
     0
 76
     0
 77
     0
 78
     7
170
     0
171
     2
172
     0
173
     0
174
     0
175
     0
176
   256
177
   256
178
     2
  0
DIMSTYLE
  2
AM_ANSI$4
 70
     0
  3

  4
mm
  5

  6

  7

 40
1.0
 41
0.12
 42
0.05
 43
0.5
 44
0.1
 45
0.0
 46
0.0
 47
0.1
 48
0.1
140
0.12
141
0.0
142
0.0
143
25.399999999999999
144
1.0
145
0.0
146
0.71
147
0.06
 71
     0
 72
     0
 73
     1
 74
     1
 75
     0
 76
     0
 77
     0
 78
     7
170
     0
171
     2
172
     0
173
     0
174
     0
175
     0
176
   256
177
   256
178
     2
  0
DIMSTYLE
  2
AM_ANSI$7
 70
     0
  3

  4
mm
  5

  6

  7

 40
1.0
 41
0.12
 42
0.05
 43
0.5
 44
0.1
 45
0.0
 46
0.0
 47
0.1
 48
0.1
140
0.12
141
0.0
142
0.0
143
25.399999999999999
144
1.0
145
0.0
146
0.71
147
0.06
 71
     0
 72
     0
 73
     1
 74
     1
 75
     0
 76
     0
 77
     0
 78
     7
170
     0
171
     2
172
     0
173
     0
174
     0
175
     0
176
   256
177
   256
178
     2
  0
DIMSTYLE
  2
AM_ANSI$SF
 70
     0
  3

  4
mm
  5

  6

  7

 40
1.0
 41
0.12
 42
0.05
 43
0.5
 44
0.1
 45
0.0
 46
0.0
 47
0.1
 48
0.1
140
0.12
141
0.0
142
0.0
143
25.399999999999999
144
1.0
145
0.0
146
0.71
147
0.06
 71
     0
 72
     0
 73
     1
 74
     1
 75
     1
 76
     1
 77
     0
 78
     7
170
     0
171
     2
172
     0
173
     0
174
     0
175
     0
176
   256
177
   256
178
     2
  0
DIMSTYLE
  2
AM_ANSI$SH
 70
     0
  3

  4
mm
  5

  6
GENAXEH
  7

 40
1.0
 41
0.12
 42
0.05
 43
0.5
 44
0.1
 45
0.0
 46
0.0
 47
0.1
 48
0.1
140
0.12
141
0.0
142
0.0
143
25.399999999999999
144
1.0
145
0.0
146
0.71
147
0.06
 71
     0
 72
     0
 73
     1
 74
     1
 75
     1
 76
     1
 77
     0
 78
     7
170
     0
171
     2
172
     0
173
     1
174
     0
175
     0
176
   256
177
   256
178
     2
  0
ENDTAB
  0
ENDSEC
  0
SECTION
  2
BLOCKS
  0
BLOCK
  8
0
  2
$MODEL_SPACE
 70
     0
 10
0.0
 20
0.0
 30
0.0
  3
$MODEL_SPACE
  1

  0
ENDBLK
  5
A00F
  8
0
  0
BLOCK
 67
     1
  8
0
  2
$PAPER_SPACE
 70
     0
 10
0.0
 20
0.0
 30
0.0
  3
$PAPER_SPACE
  1

  0
ENDBLK
  5
A00B
 67
     1
  8
0
  0
BLOCK
  8
0
  2
GENAXEH
 70
     0
 10
0.0
 20
0.0
 30
0.0
  3
GENAXEH
  1

  0
LINE
  5
9F58
  8
0
 10
-1.0
 20
0.0
 30
0.0
 11
1.0
 21
0.0
 31
0.0
  0
ENDBLK
  5
9F5A
  8
0
  0
BLOCK
  8
0
  2
_ACMFILLEDHALF
 70
     0
 10
0.0
 20
0.0
 30
0.0
  3
_ACMFILLEDHALF
  1

  0
TRACE
  5
A11E
  8
AM_0
 62
     0
 10
-0.8
 20
0.0
 30
0.0
 11
-1.0
 21
0.166666666
 31
0.0
 12
0.0
 22
0.0
 32
0.0
 13
0.0
 23
0.0
 33
0.0
  0
LINE
  5
A11F
  8
AM_0
 62
     0
 10
-1.0
 20
0.0
 30
0.0
 11
-0.8
 21
0.0
 31
0.0
  0
ENDBLK
  5
A11D
  8
0
  0
ENDSEC
  0
SECTION
  2
ENTITIES
  0
POINT
  5
1B94
  8
0
 10
0.0
 20
0.0
 30
0.0
1001
GENIUS_GENODEF_13
1002
{
1000
HIER
1070
     1
1002
}
1002
{
1000
MANEDIT
1070
     0
1002
}
1002
{
1000
NOSEL
1070
     0
1002
}
1002
{
1000
BEHIND
1070
     0
1002
}
1002
{
1000
REACTOR
1002
}
1001
GENIUS_GENOBJ-N-SDF_13
1002
{
1000
OWNER
1000
GEN
1002
}
1001
GENIUS_GENOENT_13
1002
{
1000
MYREF
1005
1B94
1002
}
1002
{
1000
GRP
1005
0
1002
}
1001
GENIUS_GENOLIS_13
1002
{
1000
ENT
1005
89
1002
}
  0
ARC
  5
8C5B
  8
AM_0
 10
320.54846510990092
 20
136.24596989209809
 30
0.0
 40
10.000000199999979
 50
90.00000299999769
 51
180.00001000000091
  0
LINE
  5
8C5C
  8
AM_0
 10
267.54848510990098
 20
172.8126998920981
 30
0.0
 11
323.679355109901
 21
171.34287989209719
 31
0.0
  0
LINE
  5
8C5D
  8
AM_0
 10
316.54847510990112
 20
9.0126698920994386
 30
0.0
 11
343.54847510990197
 21
9.0126698920994386
 31
0.0
  0
LINE
  5
8C5E
  8
AM_0
 10
310.54847510990112
 20
36.625953892098323
 30
0.0
 11
323.5484651099008
 21
36.625953892098323
 31
0.0
  0
LINE
  5
8C5F
  8
AM_0
 10
315.54848510990098
 20
24.012669892099431
 30
0.0
 11
341.54846510990092
 21
24.012669892099431
 31
0.0
  0
LINE
  5
8C60
  8
ﾁｭｳｼﾝｾﾝ
 10
232.38321212425069
 20
115.0126748920981
 30
0.0
 11
393.49631510990088
 21
115.0126748920981
 31
0.0
  0
POLYLINE
  5
8C61
  8
AM_0
 66
     1
 10
0.0
 20
0.0
 30
0.0
  0
VERTEX
  5
8C62
  8
AM_0
 10
270.54845510990077
 20
24.01266389209832
 30
0.0
 42
0.12791153
  0
VERTEX
  5
8C63
  8
AM_0
 10
276.64253510990102
 20
25.67808089209711
 30
0.0
 42
0.075873116
  0
VERTEX
  5
8C64
  8
AM_0
 10
281.62394510990111
 20
29.636979892099362
 30
0.0
 42
0.04391337
  0
VERTEX
  5
8C65
  8
AM_0
 10
285.56471510990099
 20
34.65409589209731
 30
0.0
 42
0.028464649
  0
VERTEX
  5
8C66
  8
AM_0
 10
288.75683510990092
 20
40.180719892098523
 30
0.0
 42
0.020370658
  0
VERTEX
  5
8C67
  8
AM_0
 10
291.40358510990092
 20
45.993066892098341
 30
0.0
 42
0.01565625
  0
VERTEX
  5
8C68
  8
AM_0
 10
293.62859510990091
 20
51.97968689209938
 30
0.0
 42
0.012688908
  0
VERTEX
  5
8C69
  8
AM_0
 10
295.51298510990091
 20
58.082787892097251
 30
0.0
 42
0.010707695
  0
VERTEX
  5
8C6A
  8
AM_0
 10
297.11129510990088
 20
64.268211892099316
 30
0.0
 42
0.009324549
  0
VERTEX
  5
8C6B
  8
AM_0
 10
298.461235109901
 20
70.512129892098287
 30
0.0
 42
0.0083349477
  0
VERTEX
  5
8C6C
  8
AM_0
 10
299.5906151099008
 20
76.801131892098255
 30
0.0
 42
0.0076122067
  0
VERTEX
  5
8C6D
  8
AM_0
 10
300.51926510990091
 20
83.12330489209829
 30
0.0
 42
0.0070829649
  0
VERTEX
  5
8C6E
  8
AM_0
 10
301.26203510990092
 20
89.470065892098319
 30
0.0
 42
0.0067007814
  0
VERTEX
  5
8C6F
  8
AM_0
 10
301.82978510990091
 20
95.835114892098289
 30
0.0
 42
0.0064353086
  0
VERTEX
  5
8C70
  8
AM_0
 10
302.23034510990101
 20
102.21310289209821
 30
0.0
 42
0.0062673647
  0
VERTEX
  5
8C71
  8
AM_0
 10
302.46890510990107
 20
108.5992538920982
 30
0.0
 42
0.0061857305
  0
VERTEX
  5
8C72
  8
AM_0
 10
302.5484651099008
 20
114.98924789209831
 30
0.0
  0
SEQEND
  5
8C73
  8
AM_0
  0
LINE
  5
8C74
  8
AM_0
 10
224.04848510990109
 20
155.31264989209939
 30
0.0
 11
224.04848510990109
 21
28.312629892098361
 31
0.0
  0
LINE
  5
8C75
  8
AM_0
 10
260.54846510990092
 20
122.9618618920983
 30
0.0
 11
260.54846510990092
 21
32.268681892099259
 31
0.0
  0
LINE
  5
8C76
  8
AM_0
 10
250.54847510990109
 20
162.63501989209809
 30
0.0
 11
250.54847510990109
 21
24.012669892099431
 31
0.0
  0
LINE
  5
8C77
  8
AM_0
 10
267.54848510990098
 20
172.8126998920981
 30
0.0
 11
267.54848510990098
 21
45.155538892098321
 31
0.0
  0
LINE
  5
8C78
  8
AM_0
 10
310.54847510990112
 20
29.012655892099239
 30
0.0
 11
310.54847510990112
 21
136.24596989209809
 31
0.0
  0
LINE
  5
8C79
  8
ﾁｭｳｼﾝｾﾝ
 10
13.91920064387295
 20
91.812690892098317
 30
0.0
 11
244.3006904269773
 21
91.812690892098317
 31
0.0
  0
LINE
  5
8C7A
  8
ﾁｭｳｼﾝｾﾝ
 10
248.5484651099008
 20
29.012669892099431
 30
0.0
 11
248.5484651099008
 21
4.0126698920994368
 31
0.0
  0
LINE
  5
8C7B
  8
AM_0
 10
233.54849510990101
 20
22.01267189209943
 30
0.0
 11
233.54849510990101
 21
9.0126698920994386
 31
0.0
  0
LINE
  5
8C7C
  8
ｶｸﾚｾﾝ2
 10
254.54846510990089
 20
24.012669892099431
 30
0.0
 11
254.54846510990089
 21
9.0126698920994386
 31
0.0
  0
LINE
  5
8C7D
  8
ｶｸﾚｾﾝ2
 10
242.5484651099008
 20
24.012669892099431
 30
0.0
 11
242.5484651099008
 21
9.0126698920994386
 31
0.0
  0
LINE
  5
8C7E
  8
AM_0
 10
233.54849510990101
 20
9.0126698920994386
 30
0.0
 11
260.54846510990092
 21
9.0126698920994386
 31
0.0
  0
LINE
  5
8C7F
  8
AM_0
 10
261.54848510990109
 20
10.01267189209943
 30
0.0
 11
315.54848510990098
 21
10.01267189209943
 31
0.0
  0
ARC
  5
8C80
  8
AM_0
 10
261.54848510990109
 20
9.0126698920994386
 30
0.0
 40
1.0000000199999961
 50
90.00000299999769
 51
180.00001000000091
  0
LINE
  5
8C81
  8
AM_0
 10
260.54846510990092
 20
9.0126698920994386
 30
0.0
 11
260.54846510990092
 21
9.0126698920994386
 31
0.0
  0
ARC
  5
8C82
  8
AM_0
 10
315.54848510990098
 20
9.0126698920994386
 30
0.0
 40
1.0000000199999961
 50
0.0
 51
90.00000299999769
  0
LINE
  5
8C83
  8
AM_0
 10
316.54847510990112
 20
9.0126698920994386
 30
0.0
 11
316.54847510990112
 21
9.0126698920994386
 31
0.0
  0
LINE
  5
8C84
  8
AM_0
 10
252.54848510990101
 20
30.268698892098431
 30
0.0
 11
258.54848510990098
 21
30.268698892098431
 31
0.0
  0
LINE
  5
8C85
  8
AM_0
 10
235.54847510990109
 20
24.012669892099431
 30
0.0
 11
261.06281510990101
 21
24.012669892099431
 31
0.0
  0
LINE
  5
8C86
  8
AM_0
 10
217.04849510990101
 20
28.312689892099339
 30
0.0
 11
224.04848510990109
 21
28.312689892099339
 31
0.0
  0
LINE
  5
8C87
  8
AM_0
 10
217.04849510990101
 20
39.772695892099371
 30
0.0
 11
224.04848510990109
 21
39.772695892099371
 31
0.0
  0
LINE
  5
8C88
  8
AM_0
 10
224.04848510990109
 20
28.312689892099339
 30
0.0
 11
246.27533510990099
 21
27.53652089209708
 31
0.0
  0
ARC
  5
8C89
  8
AM_0
 10
235.54847510990109
 20
22.01267189209943
 30
0.0
 40
2.00000007
 50
90.00000299999769
 51
180.00001000000091
  0
ARC
  5
8C8A
  8
AM_0
 10
252.54848510990101
 20
28.268697892099219
 30
0.0
 40
2.00000007
 50
90.00000299999769
 51
180.00001000000091
  0
ARC
  5
8C8B
  8
AM_0
 10
247.548475109902
 20
24.295386892098339
 30
0.0
 40
3.0
 50
0.0
 51
79.999998000001099
  0
ARC
  5
8C8C
  8
AM_0
 10
246.170605109901
 20
24.53833589209944
 30
0.0
 40
3.0
 50
79.999998000001099
 51
88.000000000009521
  0
LINE
  5
8C8D
  8
AM_0
 10
246.6915851099011
 20
27.492759892098331
 30
0.0
 11
248.0694551099009
 21
27.249807892098481
 31
0.0
  0
LINE
  5
8C8E
  8
AM_0
 10
224.04848510990109
 20
40.31267489209835
 30
0.0
 11
250.54847510990109
 21
40.31267489209835
 31
0.0
  0
LINE
  5
8C8F
  8
AM_0
 10
216.04856510990109
 20
54.662694892099353
 30
0.0
 11
224.04848510990109
 21
54.662694892099353
 31
0.0
  0
LINE
  5
8C90
  8
AM_0
 10
224.04848510990109
 20
54.664755892098341
 30
0.0
 11
250.54847510990109
 21
54.664755892098341
 31
0.0
  0
LINE
  5
8C91
  8
AM_0
 10
270.4613951099011
 20
60.552024892099318
 30
0.0
 11
264.010585109901
 21
26.454993892097271
 31
0.0
  0
ARC
  5
8C92
  8
AM_0
 10
261.06281510990101
 20
27.012669892099449
 30
0.0
 40
3.0
 50
270.0
 51
349.28687999999249
  0
ARC
  5
8C93
  8
AM_0
 10
258.54848510990098
 20
32.268681892099259
 30
0.0
 40
2.00000007
 50
270.0
 51
0.0
  0
ARC
  5
8C94
  8
AM_0
 10
315.54848510990098
 20
29.012655892099239
 30
0.0
 40
5.0000000999999967
 50
179.99998999999889
 51
270.0
  0
LINE
  5
8C95
  8
AM_0
 10
270.54848510990109
 20
61.481499892098341
 30
0.0
 11
270.54848510990109
 21
96.801309892098274
 31
0.0
  0
ARC
  5
8C96
  8
AM_0
 10
265.54847510990112
 20
61.481499892098341
 30
0.0
 40
5.0000000999999967
 50
349.28687999999249
 51
0.0
  0
ARC
  5
8C97
  8
AM_0
 10
255.54848510990109
 20
162.63501989209809
 30
0.0
 40
5.0000000999999967
 50
91.999997999994264
 51
180.00001000000091
  0
LINE
  5
8C98
  8
AM_0
 10
251.4638951099009
 20
118.4847488920981
 30
0.0
 11
258.54848510990098
 21
118.4847488920981
 31
0.0
  0
LINE
  5
8C99
  8
AM_0
 10
252.54848510990101
 20
146.14677989209821
 30
0.0
 11
258.54848510990098
 21
146.14677989209821
 31
0.0
  0
LINE
  5
8C9A
  8
AM_0
 10
252.54848510990101
 20
124.96189289209831
 30
0.0
 11
258.54848510990098
 21
124.96189289209831
 31
0.0
  0
LINE
  5
8C9B
  8
AM_0
 10
216.04856510990109
 20
128.96268689209811
 30
0.0
 11
224.04848510990109
 21
128.96268689209811
 31
0.0
  0
LINE
  5
8C9C
  8
AM_0
 10
224.04848510990109
 20
128.9606108920982
 30
0.0
 11
250.54847510990109
 21
128.9606108920982
 31
0.0
  0
ARC
  5
8C9D
  8
AM_0
 10
252.54848510990101
 20
126.96189389209729
 30
0.0
 40
2.00000007
 50
179.99998999999889
 51
270.0
  0
LINE
  5
8C9E
  8
AM_0
 10
217.04849510990101
 20
155.3126798920982
 30
0.0
 11
224.04848510990109
 21
155.3126798920982
 31
0.0
  0
LINE
  5
8C9F
  8
AM_0
 10
217.04849510990101
 20
143.8527098920982
 30
0.0
 11
224.04848510990109
 21
143.8527098920982
 31
0.0
  0
LINE
  5
8CA0
  8
AM_0
 10
224.04848510990109
 20
143.31264989209831
 30
0.0
 11
250.54847510990109
 21
143.31264989209831
 31
0.0
  0
LINE
  5
8CA1
  8
AM_0
 10
224.04848510990109
 20
155.31264989209939
 30
0.0
 11
246.135595109901
 21
156.0839498920981
 31
0.0
  0
ARC
  5
8CA2
  8
AM_0
 10
252.54848510990101
 20
144.14676989209809
 30
0.0
 40
2.00000007
 50
90.00000299999769
 51
180.00001000000091
  0
ARC
  5
8CA3
  8
AM_0
 10
247.548475109902
 20
159.3300098920983
 30
0.0
 40
3.0
 50
280.00000000000608
 51
0.0
  0
ARC
  5
8CA4
  8
AM_0
 10
245.96108510990101
 20
161.08092989209831
 30
0.0
 40
5.0000000999999967
 50
271.99999999999051
 51
280.00000000000608
  0
LINE
  5
8CA5
  8
AM_0
 10
246.82937510990109
 20
156.1568798920982
 30
0.0
 11
248.0694551099009
 21
156.37551989209729
 31
0.0
  0
POLYLINE
  5
8CA6
  8
AM_0
 66
     1
 10
0.0
 20
0.0
 30
0.0
  0
VERTEX
  5
8CA7
  8
AM_0
 10
302.5484651099008
 20
132.31266989209729
 30
0.0
 42
0.029628731
  0
VERTEX
  5
8CA8
  8
AM_0
 10
302.35682510990091
 20
135.54198989209721
 30
0.0
 42
0.029327543
  0
VERTEX
  5
8CA9
  8
AM_0
 10
301.7871251099009
 20
138.7229198920981
 30
0.0
 42
0.028837186
  0
VERTEX
  5
8CAA
  8
AM_0
 10
300.851275109901
 20
141.81864989209811
 30
0.0
 42
0.028139479
  0
VERTEX
  5
8CAB
  8
AM_0
 10
299.56889510990078
 20
144.78918989209811
 30
0.0
 42
0.027280614
  0
VERTEX
  5
8CAC
  8
AM_0
 10
297.96638510990101
 20
147.59856989209831
 30
0.0
 42
0.026363464
  0
VERTEX
  5
8CAD
  8
AM_0
 10
296.07176510990092
 20
150.22098989209809
 30
0.0
 42
0.025439158
  0
VERTEX
  5
8CAE
  8
AM_0
 10
293.914225109901
 20
152.63562989209819
 30
0.0
 42
0.024503424
  0
VERTEX
  5
8CAF
  8
AM_0
 10
291.52781510990093
 20
154.82214989209811
 30
0.0
 42
0.023638789
  0
VERTEX
  5
8CB0
  8
AM_0
 10
288.94226510990092
 20
156.76926989209821
 30
0.0
 42
0.022857682
  0
VERTEX
  5
8CB1
  8
AM_0
 10
286.18700510990101
 20
158.46804989209809
 30
0.0
 42
0.022175457
  0
VERTEX
  5
8CB2
  8
AM_0
 10
283.28993510990102
 20
159.91239989209811
 30
0.0
 42
0.021601125
  0
VERTEX
  5
8CB3
  8
AM_0
 10
280.27748510990091
 20
161.0980898920981
 30
0.0
 42
0.021139333
  0
VERTEX
  5
8CB4
  8
AM_0
 10
277.17467510990099
 20
162.02244989209811
 30
0.0
 42
0.020791974
  0
VERTEX
  5
8CB5
  8
AM_0
 10
274.00523510990092
 20
162.68379989209811
 30
0.0
 42
0.020559394
  0
VERTEX
  5
8CB6
  8
AM_0
 10
270.79211510990098
 20
163.08117989209831
 30
0.0
 42
0.020441745
  0
VERTEX
  5
8CB7
  8
AM_0
 10
267.55748510990099
 20
163.2141698920972
 30
0.0
  0
SEQEND
  5
8CB8
  8
AM_0
  0
POLYLINE
  5
8CB9
  8
AM_0
 66
     1
 10
0.0
 20
0.0
 30
0.0
  0
VERTEX
  5
8CBA
  8
AM_0
 10
300.62750510990088
 20
134.19141989209831
 30
0.0
 42
0.032705737
  0
VERTEX
  5
8CBB
  8
AM_0
 10
298.68134510990188
 20
134.9399198920982
 30
0.0
 42
0.016814103
  0
VERTEX
  5
8CBC
  8
AM_0
 10
296.67053510990092
 20
135.50211989209919
 30
0.0
 42
0.010836057
  0
VERTEX
  5
8CBD
  8
AM_0
 10
294.63113510990092
 20
135.95496989209821
 30
0.0
 42
0.007863161
  0
VERTEX
  5
8CBE
  8
AM_0
 10
292.57676510990098
 20
136.33209989209939
 30
0.0
 42
0.0061455438
  0
VERTEX
  5
8CBF
  8
AM_0
 10
290.51249510990101
 20
136.6519898920983
 30
0.0
 42
0.0050541015
  0
VERTEX
  5
8CC0
  8
AM_0
 10
288.44084510990092
 20
136.92588989209821
 30
0.0
 42
0.0043145835
  0
VERTEX
  5
8CC1
  8
AM_0
 10
286.36310510990091
 20
137.16120989209821
 30
0.0
 42
0.0037842963
  0
VERTEX
  5
8CC2
  8
AM_0
 10
284.28392510990102
 20
137.36274989209821
 30
0.0
 42
0.003403486
  0
VERTEX
  5
8CC3
  8
AM_0
 10
282.19991510990093
 20
137.53461989209831
 30
0.0
 42
0.0031173927
  0
VERTEX
  5
8CC4
  8
AM_0
 10
280.11341510990098
 20
137.67936989209821
 30
0.0
 42
0.0029018743
  0
VERTEX
  5
8CC5
  8
AM_0
 10
278.0253251098988
 20
137.7990098920981
 30
0.0
 42
0.0027404553
  0
VERTEX
  5
8CC6
  8
AM_0
 10
275.93600510990098
 20
137.89512989209831
 30
0.0
 42
0.0026217012
  0
VERTEX
  5
8CC7
  8
AM_0
 10
273.8456951099019
 20
137.96883989209729
 30
0.0
 42
0.0025380412
  0
VERTEX
  5
8CC8
  8
AM_0
 10
271.75469510990092
 20
138.02100989209811
 30
0.0
 42
0.0024845601
  0
VERTEX
  5
8CC9
  8
AM_0
 10
269.66327510990078
 20
138.05217989209831
 30
0.0
 42
0.002458447
  0
VERTEX
  5
8CCA
  8
AM_0
 10
267.5716151099009
 20
138.0626798920982
 30
0.0
  0
SEQEND
  5
8CCB
  8
AM_0
  0
ARC
  5
8CCC
  8
AM_0
 10
258.54848510990098
 20
116.4847808920983
 30
0.0
 40
2.00000007
 50
0.0
 51
90.00000299999769
  0
ARC
  5
8CCD
  8
AM_0
 10
258.54848510990098
 20
122.9618618920983
 30
0.0
 40
2.00000007
 50
0.0
 51
90.00000299999769
  0
LINE
  5
8CCE
  8
AM_0
 10
302.5484651099008
 20
132.3126998920981
 30
0.0
 11
302.5484651099008
 21
115.0126748920981
 31
0.0
  0
LINE
  5
8CCF
  8
AM_0
 10
260.54846510990092
 20
170.63685989209739
 30
0.0
 11
260.54846510990092
 21
148.14672989209811
 31
0.0
  0
ARC
  5
8CD0
  8
AM_0
 10
258.54848510990098
 20
148.14672989209811
 30
0.0
 40
2.00000007
 50
270.0
 51
0.0
  0
ARC
  5
8CD1
  8
AM_0
 10
262.54847510990112
 20
170.63685989209739
 30
0.0
 40
2.00000007
 50
91.999997999994264
 51
163.2736499999933
  0
ARC
  5
8CD2
  8
AM_0
 10
255.84467510990109
 20
172.65147989209731
 30
0.0
 40
5.0000000999999967
 50
271.99999999999051
 51
343.27365999999517
  0
LINE
  5
8CD3
  8
AM_0
 10
255.37400510990079
 20
167.63196989209831
 30
0.0
 11
256.0191251099011
 21
167.65452989209729
 31
0.0
  0
LINE
  5
8CD4
  8
AM_0
 10
267.54848510990098
 20
172.8126998920981
 30
0.0
 11
262.47869510990103
 21
172.6356398920982
 31
0.0
  0
LINE
  5
8CD5
  8
AM_0
 10
343.54847510990197
 20
86.986824892098184
 30
0.0
 11
343.54847510990197
 21
143.0385098920982
 31
0.0
  0
LINE
  5
8CD6
  8
AM_0
 10
328.54847510990112
 20
41.625966892099299
 30
0.0
 11
328.54847510990112
 21
166.34454989209809
 31
0.0
  0
LINE
  5
8CD7
  8
AM_0
 10
340.54847510990112
 20
25.885656892097131
 30
0.0
 11
340.54847510990112
 21
151.26363989209921
 31
0.0
  0
LINE
  5
8CD8
  8
ﾁｭｳｼﾝｾﾝ
 10
328.54844510989977
 20
29.012669892099431
 30
0.0
 11
328.54844510989977
 21
4.0126698920994368
 31
0.0
  0
LINE
  5
8CD9
  8
ｶｸﾚｾﾝ2
 10
322.54847510990112
 20
24.012669892099431
 30
0.0
 11
322.54847510990112
 21
9.0126698920994386
 31
0.0
  0
LINE
  5
8CDA
  8
ｶｸﾚｾﾝ2
 10
334.54847510990112
 20
24.012669892099431
 30
0.0
 11
334.54847510990112
 21
9.0126698920994386
 31
0.0
  0
LINE
  5
8CDB
  8
AM_0
 10
343.54847510990197
 20
22.01267189209943
 30
0.0
 11
343.54847510990197
 21
9.0126698920994386
 31
0.0
  0
ARC
  5
8CDC
  8
AM_0
 10
342.54848510990092
 20
25.885656892097131
 30
0.0
 40
2.00000007
 50
179.99998999999889
 51
255.52248999999071
  0
ARC
  5
8CDD
  8
AM_0
 10
341.54846510990092
 20
22.01267189209943
 30
0.0
 40
2.00000007
 50
0.0
 51
90.00000299999769
  0
ARC
  5
8CDE
  8
AM_0
 10
323.5484651099008
 20
41.625966892099299
 30
0.0
 40
5.0000000999999967
 50
270.0
 51
0.0
  0
ARC
  5
8CDF
  8
AM_0
 10
342.54848510990092
 20
86.986824892098184
 30
0.0
 40
1.0000000199999961
 50
271.50000000000267
 51
0.0
  0
ARC
  5
8CE0
  8
AM_0
 10
341.54846510990092
 20
84.959937892098168
 30
0.0
 40
1.0000000199999961
 50
91.500001000001546
 51
180.00001000000091
  0
LINE
  5
8CE1
  8
AM_0
 10
341.52227510990087
 20
85.959633892098253
 30
0.0
 11
342.57464510989968
 21
85.987191892098295
 31
0.0
  0
LINE
  5
8CE2
  8
AM_0
 10
356.54846510990092
 20
132.01266989209941
 30
0.0
 11
388.54853510990102
 21
132.01266989209941
 31
0.0
  0
LINE
  5
8CE3
  8
AM_0
 10
346.54847510990112
 20
101.01267389209821
 30
0.0
 11
388.54853510990102
 21
101.01267389209821
 31
0.0
  0
LINE
  5
8CE4
  8
AM_0
 10
346.54847510990112
 20
129.01267289209721
 30
0.0
 11
388.54853510990102
 21
129.01267289209721
 31
0.0
  0
LINE
  5
8CE5
  8
AM_0
 10
346.54847510990112
 20
130.0126598920983
 30
0.0
 11
346.54847510990112
 21
100.0126718920983
 31
0.0
  0
LINE
  5
8CE6
  8
AM_0
 10
343.54847510990197
 20
100.0126718920983
 30
0.0
 11
346.54847510990112
 21
100.0126718920983
 31
0.0
  0
LINE
  5
8CE7
  8
AM_0
 10
343.54847510990197
 20
130.0126598920983
 30
0.0
 11
346.54847510990112
 21
130.0126598920983
 31
0.0
  0
LINE
  5
8CE8
  8
AM_0
 10
356.54846510990092
 20
132.01266989209941
 30
0.0
 11
356.54846510990092
 21
129.01267289209721
 31
0.0
  0
LINE
  5
8CE9
  8
AM_0
 10
333.11273510990088
 20
154.6632098920972
 30
0.0
 11
337.81001510990092
 21
154.2522698920981
 31
0.0
  0
LINE
  5
8CEA
  8
AM_0
 10
320.54846510990092
 20
146.24595989209729
 30
0.0
 11
328.54847510990112
 21
146.24595989209729
 31
0.0
  0
ARC
  5
8CEB
  8
AM_0
 10
333.54848510990092
 20
159.64419989209719
 30
0.0
 40
5.0000000999999967
 50
179.99998999999889
 51
265.00000000000051
  0
ARC
  5
8CEC
  8
AM_0
 10
337.54847510990112
 20
151.26363989209921
 30
0.0
 40
3.0
 50
0.0
 51
84.999996999998288
  0
ARC
  5
8CED
  8
AM_0
 10
342.54848510990092
 20
143.0385098920982
 30
0.0
 40
1.0000000199999961
 50
0.0
 51
88.499997000000647
  0
ARC
  5
8CEE
  8
AM_0
 10
341.54846510990092
 20
145.06536989209809
 30
0.0
 40
1.0000000199999961
 50
179.99998999999889
 51
268.50000999999878
  0
LINE
  5
8CEF
  8
AM_0
 10
341.52227510990087
 20
144.06573989209821
 30
0.0
 11
342.574615109901
 21
144.03819989209811
 31
0.0
  0
ARC
  5
8CF0
  8
AM_0
 10
323.5484651099008
 20
166.34454989209809
 30
0.0
 40
5.0000000999999967
 50
0.0
 51
88.499997000000647
  0
LINE
  5
8CF3
  8
AM_0
 10
388.54853510990102
 20
132.01266989209941
 30
0.0
 11
388.54853510990102
 21
101.01267389209821
 31
0.0
  0
CIRCLE
  5
8CF6
  8
AM_0
 10
557.90145710990078
 20
115.0126748920981
 30
0.0
 40
29.000001000000001
  0
ARC
  5
8CF7
  8
AM_0
 10
557.90145710990078
 20
100.0126718920983
 30
0.0
 40
54.000003000000007
 50
0.0
 51
180.00001000000091
  0
LINE
  5
8CF8
  8
AM_0
 10
647.90145110990068
 20
24.01268489209928
 30
0.0
 11
640.11031310990131
 21
131.22237989209719
 31
0.0
  0
LINE
  5
8CF9
  8
AM_0
 10
467.90143910990088
 20
24.01268489209928
 30
0.0
 11
475.69260710990091
 21
131.22234989209821
 31
0.0
  0
LINE
  5
8CFA
  8
ﾁｭｳｼﾝｾﾝ
 10
557.90145710990078
 20
5.4779408920983297
 30
0.0
 11
557.90145710990078
 21
177.13601985129429
 31
0.0
  0
LINE
  5
8CFB
  8
AM_0
 10
503.90146910989893
 20
29.012685892099391
 30
0.0
 11
503.90146910989893
 21
100.0126718920983
 31
0.0
  0
LINE
  5
8CFC
  8
AM_0
 10
617.90144210990002
 20
62.812674892099267
 30
0.0
 11
617.90144210990002
 21
144.26262989209721
 31
0.0
  0
LINE
  5
8CFD
  8
AM_0
 10
497.90146910990092
 20
62.812674892099267
 30
0.0
 11
497.90146910990092
 21
144.26262989209721
 31
0.0
  0
LINE
  5
8CFE
  8
AM_0
 10
611.90144210990093
 20
29.012685892099391
 30
0.0
 11
611.90144210990093
 21
100.0126718920983
 31
0.0
  0
LINE
  5
8CFF
  8
AM_0
 10
467.90143910990088
 20
24.01268489209928
 30
0.0
 11
477.51362210990101
 21
101.7522968920982
 31
0.0
  0
LINE
  5
8D00
  8
AM_0
 10
647.90146010990088
 20
24.01268489209928
 30
0.0
 11
638.289292109901
 21
101.7522968920982
 31
0.0
  0
LINE
  5
8D01
  8
AM_0
 10
520.90145510990078
 20
22.01267189209943
 30
0.0
 11
594.90145610990112
 21
22.01267189209943
 31
0.0
  0
LINE
  5
8D02
  8
AM_0
 10
610.90145810990089
 20
11.01268589209938
 30
0.0
 11
504.90147110990091
 21
11.01268589209938
 31
0.0
  0
ARC
  5
8D03
  8
AM_0
 10
504.90147110990091
 20
9.0126848920983758
 30
0.0
 40
2.00000007
 50
90.00000299999769
 51
180.00001000000091
  0
ARC
  5
8D04
  8
AM_0
 10
510.90147110990102
 20
16.012686892099278
 30
0.0
 40
5.0000000999999967
 50
270.0
 51
0.0
  0
LINE
  5
8D05
  8
AM_0
 10
502.90145510990089
 20
9.0126848920983758
 30
0.0
 11
502.90145510990089
 21
22.01267189209943
 31
0.0
  0
LINE
  5
8D06
  8
ﾁｭｳｼﾝｾﾝ
 10
482.90146910990092
 20
4.0126698920994368
 30
0.0
 11
482.90146910990092
 21
29.012669892099431
 31
0.0
  0
LINE
  5
8D07
  8
ｶｸﾚｾﾝ2
 10
476.90146910990092
 20
24.012669892099431
 30
0.0
 11
476.90146910990092
 21
9.0126848920983758
 31
0.0
  0
LINE
  5
8D08
  8
ｶｸﾚｾﾝ2
 10
488.90146910990092
 20
24.012669892099431
 30
0.0
 11
488.90146910990092
 21
9.0126848920983758
 31
0.0
  0
LINE
  5
8D09
  8
AM_0
 10
467.90146910990092
 20
9.0126848920983758
 30
0.0
 11
467.90146910990092
 21
24.012669892099431
 31
0.0
  0
LINE
  5
8D0A
  8
AM_0
 10
502.90145510990089
 20
9.0126848920983758
 30
0.0
 11
467.90146910990092
 21
9.0126848920983758
 31
0.0
  0
ARC
  5
8D0B
  8
AM_0
 10
520.90145510990078
 20
17.012685892099391
 30
0.0
 40
5.0000000999999967
 50
90.00000299999769
 51
180.00001000000091
  0
ARC
  5
8D0C
  8
AM_0
 10
557.90145710990078
 20
62.812674892099267
 30
0.0
 40
60.000002999999992
 50
180.00001000000091
 51
205.84193000000039
  0
LINE
  5
8D0D
  8
AM_0
 10
500.90146910990092
 20
24.012669892099431
 30
0.0
 11
469.90146710990098
 21
24.012669892099431
 31
0.0
  0
ARC
  5
8D0E
  8
AM_0
 10
469.90146710990098
 20
22.01267189209943
 30
0.0
 40
2.00000007
 50
90.00000299999769
 51
180.00001000000091
  0
ARC
  5
8D0F
  8
AM_0
 10
498.90146810990097
 20
29.012685892099391
 30
0.0
 40
5.0000000999999967
 50
270.0
 51
0.0
  0
ARC
  5
8D10
  8
AM_0
 10
500.90146910990092
 20
22.01267189209943
 30
0.0
 40
2.00000007
 50
0.0
 51
90.00000299999769
  0
LINE
  5
8D11
  8
AM_0
 10
515.90146910990097
 20
16.012686892099278
 30
0.0
 11
515.90146910990097
 21
17.012685892099391
 31
0.0
  0
ARC
  5
8D12
  8
AM_0
 10
557.90145710990078
 20
91.812660892098165
 30
0.0
 40
81.000003000000035
 50
265.97274999999712
 51
274.02725000000282
  0
ARC
  5
8D13
  8
AM_0
 10
610.90145810990089
 20
9.0126848920983758
 30
0.0
 40
2.00000007
 50
0.0
 51
90.00000299999769
  0
ARC
  5
8D14
  8
AM_0
 10
604.90145810990111
 20
16.012686892099278
 30
0.0
 40
5.0000000999999967
 50
179.99998999999889
 51
270.0
  0
LINE
  5
8D15
  8
AM_0
 10
647.90144210990093
 20
9.0126848920983758
 30
0.0
 11
647.90144210990093
 21
24.012669892099431
 31
0.0
  0
LINE
  5
8D16
  8
AM_0
 10
612.90144110990093
 20
9.0126848920983758
 30
0.0
 11
612.90144110990093
 21
22.01267189209943
 31
0.0
  0
LINE
  5
8D17
  8
ｶｸﾚｾﾝ2
 10
638.90144210990093
 20
24.012669892099431
 30
0.0
 11
638.90144210990093
 21
9.0126848920983758
 31
0.0
  0
LINE
  5
8D18
  8
ｶｸﾚｾﾝ2
 10
626.90144210990002
 20
24.012669892099431
 30
0.0
 11
626.90144210990002
 21
9.0126848920983758
 31
0.0
  0
LINE
  5
8D19
  8
ﾁｭｳｼﾝｾﾝ
 10
632.90143610990117
 20
4.0126698920994368
 30
0.0
 11
632.90143610990094
 21
29.012669892099439
 31
0.0
  0
LINE
  5
8D1A
  8
AM_0
 10
612.90144110990093
 20
9.0126848920983758
 30
0.0
 11
647.90144210990093
 21
9.0126848920983758
 31
0.0
  0
ARC
  5
8D1B
  8
AM_0
 10
557.90145710990078
 20
62.812674892099267
 30
0.0
 40
60.000002999999992
 50
334.1580699999995
 51
0.0
  0
LINE
  5
8D1C
  8
AM_0
 10
614.90144210990093
 20
24.012669892099431
 30
0.0
 11
645.90145010990091
 21
24.012669892099431
 31
0.0
  0
ARC
  5
8D1D
  8
AM_0
 10
594.90145610990112
 20
17.012685892099391
 30
0.0
 40
5.0000000999999967
 50
0.0
 51
90.00000299999769
  0
LINE
  5
8D1E
  8
AM_0
 10
599.90144210990093
 20
16.012686892099278
 30
0.0
 11
599.90144210990093
 21
17.012685892099391
 31
0.0
  0
ARC
  5
8D1F
  8
AM_0
 10
616.90145810990066
 20
29.012685892099391
 30
0.0
 40
5.0000000999999967
 50
179.99998999999889
 51
270.0
  0
ARC
  5
8D20
  8
AM_0
 10
614.90144210990093
 20
22.01267189209943
 30
0.0
 40
2.00000007
 50
90.00000299999769
 51
180.00001000000091
  0
ARC
  5
8D21
  8
AM_0
 10
645.90145010990091
 20
22.01267189209943
 30
0.0
 40
2.00000007
 50
0.0
 51
90.00000299999769
  0
ARC
  5
8D22
  8
AM_0
 10
557.90145710990078
 20
91.812690892098317
 30
0.0
 40
81.000003000000035
 50
7.048598599997959
 51
172.95139999999409
  0
LINE
  5
8D23
  8
ﾁｭｳｼﾝｾﾝ
 10
511.84808885599512
 20
115.0126748920981
 30
0.0
 11
603.95482536380655
 21
115.0126748920981
 31
0.0
  0
ARC
  5
8D24
  8
AM_0
 10
491.65052210990098
 20
130.0626998920981
 30
0.0
 40
16.000000499999999
 50
118.1761400000052
 51
175.8435100000078
  0
LINE
  5
8D25
  8
AM_0
 10
484.09556210990092
 20
144.16668989209819
 30
0.0
 11
519.65456810990077
 21
163.21419989209821
 31
0.0
  0
ARC
  5
8D26
  8
AM_0
 10
502.90145510990089
 20
144.26262989209721
 30
0.0
 40
5.0000000999999967
 50
136.3594899999996
 51
180.00001000000091
  0
ARC
  5
8D27
  8
AM_0
 10
557.90145710990078
 20
115.0126748920981
 30
0.0
 40
14.000001299999999
 50
106.601539999997
 51
73.398451999991579
  0
CIRCLE
  5
8D28
  8
AM_0
 10
557.90145710990078
 20
115.0126748920981
 30
0.0
 40
3.0
  0
CIRCLE
  5
8D29
  8
AM_5
 10
557.90145710990078
 20
115.0126748920981
 30
0.0
 40
4.000000199999997
  0
LINE
  5
8D2A
  8
AM_0
 10
553.90145510990078
 20
125.0126738920994
 30
0.0
 11
553.90145510990078
 21
132.01266989209941
 31
0.0
  0
LINE
  5
8D2B
  8
AM_0
 10
561.90144110990093
 20
125.0126738920994
 30
0.0
 11
561.90144110990093
 21
132.01266989209941
 31
0.0
  0
LINE
  5
8D2C
  8
AM_0
 10
553.90145510990078
 20
125.0126738920994
 30
0.0
 11
561.90144110990093
 21
125.0126738920994
 31
0.0
  0
LINE
  5
8D2D
  8
AM_0
 10
553.90145510990078
 20
132.01266989209941
 30
0.0
 11
561.90144110990093
 21
132.01266989209941
 31
0.0
  0
ARC
  5
8D2E
  8
AM_0
 10
624.15238910990092
 20
130.0626998920981
 30
0.0
 40
16.000000499999999
 50
4.1564915999975547
 51
61.823859999994752
  0
LINE
  5
8D2F
  8
AM_0
 10
631.70733710990089
 20
144.16668989209819
 30
0.0
 11
596.14831310990098
 21
163.21419989209821
 31
0.0
  0
ARC
  5
8D30
  8
AM_0
 10
612.90144110990093
 20
144.26262989209721
 30
0.0
 40
5.0000000999999967
 50
0.0
 51
43.640500000002987
  0
LINE
  5
8D32
  8
AM_0
 10
216.04847510990109
 20
154.31270489209939
 30
0.0
 11
216.04847510990109
 21
29.312688892098318
 31
0.0
  0
LINE
  5
8D33
  8
AM_0
 10
19.048525109900979
 20
60.13271489209933
 30
0.0
 11
19.048525109900979
 21
126.3426908920982
 31
0.0
  0
LINE
  5
8D34
  8
AM_0
 10
21.54848510990109
 20
34.812705892097249
 30
0.0
 11
21.54848510990109
 21
51.644360074669279
 31
0.0
  0
LINE
  5
8D35
  8
AM_0
 10
69.048475109901119
 20
149.24267489209811
 30
0.0
 11
69.048475109901119
 21
91.812690892098317
 31
0.0
  0
LINE
  5
8D36
  8
AM_0
 10
205.818505109901
 20
121.8126938920981
 30
0.0
 11
205.818505109901
 21
61.812705892098379
 31
0.0
  0
LINE
  5
8D37
  8
ﾁｭｳｼﾝｾﾝ
 10
165.04847510990109
 20
132.43769039209781
 30
0.0
 11
165.04847510990109
 21
51.187691392098841
 31
0.0
  0
ARC
  5
8D38
  8
AM_0
 10
52.049215109901063
 20
91.810800892098314
 30
0.0
 40
8.0019083999999978
 50
90.005172999990876
 51
161.78016000000071
  0
ARC
  5
8D39
  8
AM_0
 10
52.043455109901068
 20
91.806711892098306
 30
0.0
 40
7.9940046000000002
 50
198.1788400000008
 51
270.03581999999773
  0
LINE
  5
8D3A
  8
AM_0
 10
21.54848510990109
 20
47.92270589209943
 30
0.0
 11
69.048475109901119
 21
47.92270589209943
 31
0.0
  0
LINE
  5
8D3B
  8
AM_0
 10
36.688495109900948
 20
94.312692892098312
 30
0.0
 11
46.548475109901112
 21
94.312692892098312
 31
0.0
  0
LINE
  5
8D3C
  8
AM_0
 10
36.688495109900948
 20
89.312691892098172
 30
0.0
 11
46.548475109901112
 21
89.312691892098172
 31
0.0
  0
LINE
  5
8D3D
  8
AM_0
 10
21.048475109901108
 20
34.812705892097249
 30
0.0
 11
69.048475109901119
 21
34.812705892097249
 31
0.0
  0
LINE
  5
8D3E
  8
AM_0
 10
28.128475109901039
 20
88.09269089209829
 30
0.0
 11
13.66847510990101
 21
43.582695892098393
 31
0.0
  0
LINE
  5
8D3F
  8
AM_0
 10
32.888485109901019
 20
86.542701892097284
 30
0.0
 11
18.428485109900969
 21
42.042699892098412
 31
0.0
  0
ARC
  5
8D40
  8
AM_0
 10
16.048525109900979
 20
42.81269189209933
 30
0.0
 40
2.5014680099999991
 50
162.0720800000052
 51
342.07206999999983
  0
ARC
  5
8D41
  8
AM_0
 10
16.047625109900991
 20
42.80727389209936
 30
0.0
 40
3.0008441999999982
 50
185.05818999999289
 51
0.103544000007892
  0
LINE
  5
8D42
  8
AM_0
 10
19.048525109900979
 20
43.952703892098491
 30
0.0
 11
19.048525109900979
 21
36.812688892098322
 31
0.0
  0
ARC
  5
8D43
  8
AM_0
 10
21.043225109900948
 20
36.807411892099253
 30
0.0
 40
1.994720039999998
 50
179.84812999999991
 51
270.15187999999722
  0
LINE
  5
8D44
  8
AM_0
 10
21.54848510990109
 20
51.652701892098321
 30
0.0
 11
21.54848510990109
 21
47.92270589209943
 31
0.0
  0
ARC
  5
8D45
  8
AM_0
 10
12.75611510990097
 20
42.50836889209836
 30
0.0
 40
0.304344
 50
6.4777591000057591
 51
89.547817000002425
  0
ARC
  5
8D46
  8
AM_0
 10
12.75689510990105
 20
42.507621892098307
 30
0.0
 40
0.8050760400000001
 50
5.3506318999939149
 51
89.888465999998445
  0
LINE
  5
8D47
  8
AM_0
 10
12.54848510990109
 20
43.312704892099397
 30
0.0
 11
12.54848510990109
 21
42.81269189209933
 31
0.0
  0
LINE
  5
8D48
  8
AM_0
 10
12.54848510990109
 20
43.312704892099397
 30
0.0
 11
12.758485109900899
 21
43.312704892099397
 31
0.0
  0
ARC
  5
8D49
  8
AM_0
 10
19.096555109900901
 20
54.31281389209834
 30
0.0
 40
4.0504481999999991
 50
99.063520000000551
 51
224.92059999999211
  0
ARC
  5
8D4A
  8
AM_0
 10
36.690925109900938
 20
85.309182892098292
 30
0.0
 40
9.0035201999999952
 50
90.015528000004579
 51
161.99145000000701
  0
ARC
  5
8D4B
  8
AM_0
 10
36.695065109900952
 20
85.312173892098386
 30
0.0
 40
4.0005161999999981
 50
90.094088000008185
 51
162.08606999999819
  0
LINE
  5
8D4C
  8
AM_0
 10
114.0484751099011
 20
45.46271489209834
 30
0.0
 11
216.04847510990109
 21
45.46271489209834
 31
0.0
  0
LINE
  5
8D4D
  8
AM_0
 10
209.3985251099009
 20
55.812705892099288
 30
0.0
 11
74.598535109900936
 21
55.812705892099288
 31
0.0
  0
LINE
  5
8D4E
  8
AM_0
 10
92.048485109901094
 20
29.95269089209728
 30
0.0
 11
208.85846510990109
 21
29.95269089209728
 31
0.0
  0
LINE
  5
8D4F
  8
AM_0
 10
165.04847510990109
 20
55.092705892099268
 30
0.0
 11
212.868475109901
 21
55.092705892099268
 31
0.0
  0
LINE
  5
8D50
  8
AM_0
 10
114.0484751099011
 20
45.462699892099408
 30
0.0
 11
79.048465109900903
 21
47.492697892097112
 31
0.0
  0
LINE
  5
8D51
  8
AM_0
 10
73.31849510990105
 20
85.542672892099304
 30
0.0
 11
114.0484751099011
 21
85.542672892097244
 31
0.0
  0
LINE
  5
8D52
  8
AM_0
 10
113.5484751099011
 20
65.812704892099404
 30
0.0
 11
74.598535109900936
 21
65.812704892099404
 31
0.0
  0
LINE
  5
8D53
  8
AM_0
 10
73.508485109900903
 20
68.252709892098437
 30
0.0
 11
113.5484751099011
 21
68.252709892098437
 31
0.0
  0
LINE
  5
8D54
  8
AM_0
 10
113.5484751099011
 20
67.812705892099274
 30
0.0
 11
74.598535109900936
 21
67.812705892097256
 31
0.0
  0
LINE
  5
8D55
  8
AM_0
 10
73.378495109900982
 20
75.472695892098244
 30
0.0
 11
114.0484751099011
 21
75.472695892098244
 31
0.0
  0
LINE
  5
8D56
  8
AM_0
 10
114.0484751099011
 20
75.812691892098201
 30
0.0
 11
74.608465109901061
 21
75.812691892098201
 31
0.0
  0
LINE
  5
8D57
  8
AM_0
 10
73.378495109900982
 20
78.132714892098193
 30
0.0
 11
114.0484751099011
 21
78.132714892098193
 31
0.0
  0
LINE
  5
8D58
  8
AM_0
 10
114.0484751099011
 20
87.812691892098215
 30
0.0
 11
74.608465109901061
 21
87.812691892098215
 31
0.0
  0
LINE
  5
8D59
  8
AM_0
 10
114.0484751099011
 20
85.812690892098288
 30
0.0
 11
74.608465109901061
 21
85.812690892098288
 31
0.0
  0
LINE
  5
8D5A
  8
AM_0
 10
73.31849510990105
 20
88.082709892098364
 30
0.0
 11
114.0484751099011
 21
88.082709892098364
 31
0.0
  0
LINE
  5
8D5B
  8
AM_0
 10
73.31849510990105
 20
95.552682892098346
 30
0.0
 11
114.0484751099011
 21
95.552682892098346
 31
0.0
  0
LINE
  5
8D5C
  8
AM_0
 10
73.31849510990105
 20
98.082681892098194
 30
0.0
 11
114.0484751099011
 21
98.082681892098194
 31
0.0
  0
LINE
  5
8D5D
  8
AM_0
 10
114.0484751099011
 20
57.81269189209933
 30
0.0
 11
75.038515109901013
 21
57.81269189209933
 31
0.0
  0
LINE
  5
8D5E
  8
AM_0
 10
73.508485109900903
 20
65.3326958920984
 30
0.0
 11
113.5484751099011
 21
65.3326958920984
 31
0.0
  0
LINE
  5
8D5F
  8
AM_0
 10
92.048485109901094
 20
27.92268989209833
 30
0.0
 11
145.04852510990099
 21
27.92268989209833
 31
0.0
  0
LINE
  5
8D60
  8
AM_0
 10
92.048485109901094
 20
26.572698892099421
 30
0.0
 11
145.04852510990099
 21
26.572698892099421
 31
0.0
  0
LINE
  5
8D61
  8
AM_0
 10
92.048485109901094
 20
25.902702892097292
 30
0.0
 11
145.04852510990099
 21
25.902702892097292
 31
0.0
  0
LINE
  5
8D62
  8
AM_0
 10
114.0484751099011
 20
95.812692892098312
 30
0.0
 11
74.608465109901061
 21
95.812692892098312
 31
0.0
  0
LINE
  5
8D63
  8
AM_0
 10
114.0484751099011
 20
97.812690892098317
 30
0.0
 11
74.608465109901061
 21
97.812690892098317
 31
0.0
  0
LINE
  5
8D64
  8
AM_0
 10
114.0484751099011
 20
77.81270789209816
 30
0.0
 11
74.608465109901061
 21
77.81270789209816
 31
0.0
  0
LINE
  5
8D65
  8
AM_0
 10
73.728475109900941
 20
55.092705892099268
 30
0.0
 11
165.04847510990109
 21
55.092705892099268
 31
0.0
  0
LINE
  5
8D66
  8
AM_0
 10
73.728475109900941
 20
58.442694892097279
 30
0.0
 11
114.0484751099011
 21
58.442694892097279
 31
0.0
  0
LINE
  5
8D67
  8
AM_0
 10
69.048475109901119
 20
34.382697892099252
 30
0.0
 11
69.048475109901119
 21
91.812690892098317
 31
0.0
  0
LINE
  5
8D68
  8
AM_0
 10
69.048475109901119
 20
49.122687892099279
 30
0.0
 11
79.048525109900979
 21
49.122687892099279
 31
0.0
  0
LINE
  5
8D69
  8
AM_0
 10
75.188485109900952
 20
30.142692892099369
 30
0.0
 11
88.548475109901105
 21
30.142692892099369
 31
0.0
  0
LINE
  5
8D6A
  8
AM_0
 10
69.048475109901119
 20
43.462698892097237
 30
0.0
 11
79.048525109900979
 21
43.462698892097237
 31
0.0
  0
LINE
  5
8D6B
  8
AM_0
 10
75.278515109901022
 20
38.832693892097261
 30
0.0
 11
88.548475109901105
 21
38.832693892097261
 31
0.0
  0
LINE
  5
8D6C
  8
AM_0
 10
75.15845510990107
 20
28.512702892098321
 30
0.0
 11
88.65845510990107
 21
28.512702892098321
 31
0.0
  0
LINE
  5
8D6D
  8
AM_0
 10
75.218515109901091
 20
33.55271189209725
 30
0.0
 11
88.548475109901105
 21
33.55271189209725
 31
0.0
  0
ARC
  5
8D6E
  8
AM_0
 10
70.838635109900906
 20
39.27989789209937
 30
0.0
 40
1.50278811
 50
12.01334200000281
 51
90.004668000003363
  0
ARC
  5
8D6F
  8
AM_0
 10
75.275515109901093
 20
40.832313892099357
 30
0.0
 40
1.9996281299999981
 50
190.36075999999511
 51
270.08532999999341
  0
ARC
  5
8D70
  8
AM_0
 10
75.160885109901059
 20
30.517020892098341
 30
0.0
 40
2.004324029999998
 50
194.278050000007
 51
269.93108999999242
  0
LINE
  5
8D71
  8
AM_0
 10
69.048535109900968
 20
34.382697892099252
 30
0.0
 11
71.86847510990107
 21
34.31268989209935
 31
0.0
  0
ARC
  5
8D72
  8
AM_0
 10
70.883485109900903
 20
33.190938892099432
 30
0.0
 40
1.5017800800000001
 50
14.332836000000739
 51
90.189382999992631
  0
ARC
  5
8D73
  8
AM_0
 10
70.862815109901021
 20
35.216376892099333
 30
0.0
 40
1.4963320799999991
 50
13.38243799999467
 51
90.164589999994277
  0
ARC
  5
8D74
  8
AM_0
 10
75.186415109900949
 20
32.144643892099339
 30
0.0
 40
2.0019479399999991
 50
193.3411399999984
 51
270.05947999999449
  0
ARC
  5
8D75
  8
AM_0
 10
75.220405109901094
 20
35.5483928920994
 30
0.0
 40
1.995695999999995
 50
192.0225299999999
 51
269.94478000000271
  0
LINE
  5
8D76
  8
AM_0
 10
73.268515109901045
 20
35.13268289209941
 30
0.0
 11
72.308485109901099
 21
39.592689892098399
 31
0.0
  0
LINE
  5
8D77
  8
AM_0
 10
70.858465109901076
 20
36.71269889209929
 30
0.0
 11
72.9185351099011
 21
36.71269889209929
 31
0.0
  0
LINE
  5
8D78
  8
AM_0
 10
70.878505109900971
 20
34.692693892099442
 30
0.0
 11
72.528505109901062
 21
34.692693892099442
 31
0.0
  0
LINE
  5
8D79
  8
AM_0
 10
73.238485109900935
 20
31.68268589209924
 30
0.0
 11
72.318505109901025
 21
35.56269089209831
 31
0.0
  0
LINE
  5
8D7A
  8
AM_0
 10
73.21844510990104
 20
30.022695892098451
 30
0.0
 11
72.338455109900906
 21
33.562689892097289
 31
0.0
  0
LINE
  5
8D7B
  8
AM_0
 10
64.048525109900993
 20
47.92270589209943
 30
0.0
 11
64.048525109900993
 21
34.812705892097249
 31
0.0
  0
LINE
  5
8D7C
  8
AM_0
 10
70.838455109900906
 20
40.78269089209833
 30
0.0
 11
73.258495109901091
 21
40.78269089209833
 31
0.0
  0
LINE
  5
8D7D
  8
AM_0
 10
72.768505109901071
 20
43.462683892098312
 30
0.0
 11
73.30847510990111
 21
40.472679892099428
 31
0.0
  0
LINE
  5
8D7E
  8
AM_0
 10
69.048475109901119
 20
57.512703892098429
 30
0.0
 11
72.218515109901091
 21
57.512703892098429
 31
0.0
  0
ARC
  5
8D7F
  8
AM_0
 10
73.728475109900941
 20
56.76770789209921
 30
0.0
 40
1.67500812
 50
90.00000299999769
 51
270.0
  0
ARC
  5
8D80
  8
AM_0
 10
74.598535109900936
 20
56.812704892099418
 30
0.0
 40
1.000004069999999
 50
90.00000299999769
 51
270.0
  0
ARC
  5
8D81
  8
AM_0
 10
88.549945109901046
 20
28.64412689209939
 30
0.0
 40
1.498559999999999
 50
359.94487999999399
 51
90.055115000003084
  0
ARC
  5
8D82
  8
AM_0
 10
92.051035109901008
 20
29.925207892098339
 30
0.0
 40
2.00251584
 50
180.0718999999998
 51
269.9281000000002
  0
ARC
  5
8D83
  8
AM_0
 10
88.667185109901084
 20
27.012411892098498
 30
0.0
 40
1.500312029999999
 50
14.683033999993
 51
90.331662999994393
  0
ARC
  5
8D84
  8
AM_0
 10
92.049625109900916
 20
27.8991158920985
 30
0.0
 40
1.9964280599999991
 50
194.69462999999899
 51
269.96760999999151
  0
ARC
  5
8D85
  8
AM_0
 10
92.048305109901079
 20
28.572516892099429
 30
0.0
 40
1.9998241199999991
 50
179.99493999999211
 51
270.00505999999473
  0
ARC
  5
8D86
  8
AM_0
 10
88.546945109901088
 20
32.051199892099241
 30
0.0
 40
1.5015081599999991
 50
0.0575469979998106
 51
89.94245100000316
  0
ARC
  5
8D87
  8
AM_0
 10
88.548115109901119
 20
37.332327892099329
 30
0.0
 40
1.500360179999999
 50
0.0138159999949371
 51
89.986184999999963
  0
ARC
  5
8D88
  8
AM_0
 10
92.050135109901007
 20
31.954338892098349
 30
0.0
 40
2.0016401400000001
 50
180.0469600000047
 51
269.95304000000829
  0
LINE
  5
8D89
  8
AM_0
 10
90.048475109901119
 20
29.922705892099419
 30
0.0
 11
90.048475109901119
 21
37.332693892097268
 31
0.0
  0
ARC
  5
8D8A
  8
AM_0
 10
78.218695109901091
 20
50.219808892097248
 30
0.0
 40
5.0021840999999991
 50
5.424525999997674
 51
80.451425000001095
  0
LINE
  5
8D8B
  8
AM_0
 10
79.048525109900979
 20
43.462698892097237
 30
0.0
 11
79.048525109900979
 21
57.512703892098429
 31
0.0
  0
ARC
  5
8D8C
  8
AM_0
 10
78.678715109901063
 20
54.159216892098343
 30
0.0
 40
6.007896599999996
 50
273.52844999999792
 51
314.61726999999422
  0
ARC
  5
8D8D
  8
AM_0
 10
82.195015109901092
 20
50.603781892097217
 30
0.0
 40
1.007376
 50
314.2903200000024
 51
5.0634048999973107
  0
ARC
  5
8D8E
  8
AM_0
 10
91.048525109901007
 20
56.812704892099418
 30
0.0
 40
1.000004069999999
 50
90.00000299999769
 51
270.0
  0
LINE
  5
8D8F
  8
ﾁｭｳｼﾝｾﾝ
 10
52.048525109900993
 20
79.860910959166986
 30
0.0
 11
52.048525109900993
 21
103.7644708250296
 31
0.0
  0
ARC
  5
8D90
  8
AM_0
 10
74.598535109900936
 20
66.812691892099338
 30
0.0
 40
1.000004069999999
 50
90.00000299999769
 51
270.0
  0
ARC
  5
8D91
  8
AM_0
 10
73.508485109900903
 20
66.792687892098471
 30
0.0
 40
1.4600000699999991
 50
90.00000299999769
 51
270.0
  0
ARC
  5
8D92
  8
AM_0
 10
74.599795109900938
 20
76.812705892097256
 30
0.0
 40
1.00003602
 50
89.500715999993631
 51
270.49928999999503
  0
ARC
  5
8D93
  8
AM_0
 10
73.378495109900982
 20
76.802697892097285
 30
0.0
 40
1.33000008
 50
90.00000299999769
 51
270.0
  0
LINE
  5
8D94
  8
AM_0
 10
52.048525109900993
 20
83.812692892098298
 30
0.0
 11
69.048475109901119
 21
83.812692892098298
 31
0.0
  0
LINE
  5
8D95
  8
AM_0
 10
52.048525109900993
 20
99.812691892098201
 30
0.0
 11
69.048475109901119
 21
99.812691892098201
 31
0.0
  0
ARC
  5
8D96
  8
AM_0
 10
52.048525109900993
 20
91.806678892098276
 30
0.0
 40
5.0000519999999984
 50
23.653230000000121
 51
156.34676999999979
  0
ARC
  5
8D97
  8
AM_0
 10
52.048525109900993
 20
91.806678892098276
 30
0.0
 40
4.9952319000000003
 50
203.52670000000049
 51
336.4732900000036
  0
LINE
  5
8D98
  8
AM_0
 10
46.548475109901112
 20
93.812691892098201
 30
0.0
 11
57.548485109901087
 21
93.812691892098201
 31
0.0
  0
LINE
  5
8D99
  8
AM_0
 10
46.548475109901112
 20
89.812692892098326
 30
0.0
 11
57.548485109901087
 21
89.812692892098326
 31
0.0
  0
LINE
  5
8D9A
  8
AM_0
 10
46.548475109901112
 20
89.312691892098172
 30
0.0
 11
46.548475109901112
 21
94.312692892098312
 31
0.0
  0
LINE
  5
8D9B
  8
AM_0
 10
60.048475109901112
 20
89.312691892098172
 30
0.0
 11
60.048475109901112
 21
94.312692892098312
 31
0.0
  0
LINE
  5
8D9C
  8
AM_0
 10
57.548485109901087
 20
89.312691892098172
 30
0.0
 11
57.548485109901087
 21
94.312692892098312
 31
0.0
  0
LINE
  5
8D9D
  8
AM_0
 10
57.548485109901087
 20
94.312692892098312
 30
0.0
 11
60.048475109901112
 21
94.312692892098312
 31
0.0
  0
LINE
  5
8D9E
  8
AM_0
 10
57.548485109901087
 20
89.312691892098172
 30
0.0
 11
60.048475109901112
 21
89.312691892098172
 31
0.0
  0
ARC
  5
8D9F
  8
AM_0
 10
73.31849510990105
 20
86.812692892099463
 30
0.0
 40
1.270004069999999
 50
90.00000299999769
 51
270.0
  0
ARC
  5
8DA0
  8
AM_0
 10
74.599795109900938
 20
86.812692892099463
 30
0.0
 40
1.00003602
 50
89.500715999993631
 51
270.49928999999503
  0
ARC
  5
8DA1
  8
AM_0
 10
74.599795109900938
 20
96.812691892098215
 30
0.0
 40
1.00003602
 50
89.500715999993631
 51
270.49928999999503
  0
ARC
  5
8DA2
  8
AM_0
 10
73.31849510990105
 20
96.8176958920983
 30
0.0
 40
1.265004089999999
 50
90.00000299999769
 51
270.0
  0
ARC
  5
8DA3
  8
AM_0
 10
91.048525109901007
 20
66.812691892099338
 30
0.0
 40
1.000004069999999
 50
90.00000299999769
 51
270.0
  0
ARC
  5
8DA4
  8
AM_0
 10
91.048525109901007
 20
76.812705892097256
 30
0.0
 40
1.000004069999999
 50
90.00000299999769
 51
270.0
  0
ARC
  5
8DA5
  8
AM_0
 10
91.048525109901007
 20
86.812692892099463
 30
0.0
 40
1.000004069999999
 50
90.00000299999769
 51
270.0
  0
ARC
  5
8DA6
  8
AM_0
 10
91.048525109901007
 20
96.812691892098215
 30
0.0
 40
1.000004069999999
 50
90.00000299999769
 51
270.0
  0
ARC
  5
8DA7
  8
AM_0
 10
145.04762510990091
 20
27.903585892098359
 30
0.0
 40
2.000876009999998
 50
270.02510999999589
 51
359.97489000000411
  0
ARC
  5
8DA8
  8
AM_0
 10
145.04615510990101
 20
28.575033892099331
 30
0.0
 40
2.002332029999998
 50
270.06674000000118
 51
359.93325999999882
  0
ARC
  5
8DA9
  8
AM_0
 10
145.0434851099009
 20
29.92772489209846
 30
0.0
 40
2.00502402
 50
270.14341000000132
 51
359.85658999999862
  0
LINE
  5
8DAA
  8
AM_0
 10
147.04847510990109
 20
27.902685892098361
 30
0.0
 11
147.04847510990109
 21
29.95269089209728
 31
0.0
  0
ARC
  5
8DAB
  8
AM_0
 10
212.868475109901
 20
56.76770789209921
 30
0.0
 40
1.6749999899999961
 50
270.0
 51
90.00000299999769
  0
ARC
  5
8DAC
  8
AM_0
 10
210.897835109901
 20
33.319221892098298
 30
0.0
 40
2.0065319999999991
 50
270.01926999999682
 51
347.7268700000032
  0
LINE
  5
8DAD
  8
AM_0
 10
210.7584851099009
 20
31.312704892098509
 30
0.0
 11
216.04847510990109
 21
31.312704892098509
 31
0.0
  0
LINE
  5
8DAE
  8
AM_0
 10
210.78845510990081
 20
31.432683892098339
 30
0.0
 11
214.24847510989881
 21
44.352684892099418
 31
0.0
  0
LINE
  5
8DAF
  8
AM_0
 10
212.868475109901
 20
58.442694892097279
 30
0.0
 11
203.04847510990109
 21
58.442694892097279
 31
0.0
  0
ARC
  5
8DB0
  8
AM_0
 10
208.85390510990101
 20
31.957098892098429
 30
0.0
 40
2.004416039999998
 50
270.13147999999228
 51
344.8333399999994
  0
LINE
  5
8DB1
  8
AM_0
 10
209.3985251099009
 20
57.81269189209933
 30
0.0
 11
203.04847510990109
 21
57.81269189209933
 31
0.0
  0
LINE
  5
8DB2
  8
AM_0
 10
203.04847510990109
 20
61.733952305529101
 30
0.0
 11
205.818505109901
 21
61.812675892099371
 31
0.0
  0
ARC
  5
8DB3
  8
AM_0
 10
209.39033510990109
 20
56.812704892099418
 30
0.0
 40
1.0000319699999971
 50
270.46929999999787
 51
89.530700000002085
  0
ARC
  5
8DB4
  8
AM_0
 10
217.04798510990079
 20
40.772163892097304
 30
0.0
 40
0.99947604
 50
179.97008999999551
 51
270.02992000000683
  0
ARC
  5
8DB5
  8
AM_0
 10
215.755555109901
 20
39.283377892098322
 30
0.0
 40
1.499328059999999
 50
89.888150999993556
 51
168.09384000000131
  0
ARC
  5
8DB6
  8
AM_0
 10
217.04873510990089
 20
29.312871892099341
 30
0.0
 40
1.0001800499999971
 50
180.0103099999989
 51
269.98967999999968
  0
LINE
  5
8DB7
  8
AM_0
 10
212.85848510990101
 20
32.892690892099381
 30
0.0
 11
214.29848510990109
 21
39.592689892098399
 31
0.0
  0
ARC
  5
8DB8
  8
AM_0
 10
215.69387510990089
 20
43.966713892097218
 30
0.0
 40
1.49599605
 50
89.821706999993268
 51
165.04766000000561
  0
LINE
  5
8DB9
  8
AM_0
 10
215.75849510990111
 20
40.78269089209833
 30
0.0
 11
213.34853510990089
 21
40.78269089209833
 31
0.0
  0
LINE
  5
8DBA
  8
AM_0
 10
21.54848510990109
 20
135.70268489209721
 30
0.0
 11
69.048475109901119
 21
135.70268489209721
 31
0.0
  0
LINE
  5
8DBB
  8
AM_0
 10
21.54848510990109
 20
125.45270789209729
 30
0.0
 11
64.048525109900993
 21
125.45270789209729
 31
0.0
  0
LINE
  5
8DBC
  8
AM_0
 10
21.048475109901108
 20
148.8126848920983
 30
0.0
 11
69.048475109901119
 21
148.8126848920983
 31
0.0
  0
ARC
  5
8DBD
  8
AM_0
 10
21.049015109901109
 20
146.8121348920983
 30
0.0
 40
2.000536019999998
 50
90.015328999998147
 51
179.98467999999519
  0
ARC
  5
8DBE
  8
AM_0
 10
19.946245109900921
 20
129.19520489209819
 30
0.0
 40
2.9977641899999981
 50
179.8564500000015
 51
275.78659000000278
  0
LINE
  5
8DBF
  8
AM_0
 10
20.248495109901121
 20
126.10270289209819
 30
0.0
 11
20.248495109901121
 21
135.30269489209829
 31
0.0
  0
LINE
  5
8DC0
  8
AM_0
 10
20.248495109901121
 20
126.10270289209819
 30
0.0
 11
21.54848510990109
 21
126.10270289209819
 31
0.0
  0
LINE
  5
8DC1
  8
AM_0
 10
19.048525109900979
 20
135.06269489209831
 30
0.0
 11
19.048525109900979
 21
146.81270489209811
 31
0.0
  0
ARC
  5
8DC2
  8
AM_0
 10
19.946305109901001
 20
132.20018489209721
 30
0.0
 40
2.99777994
 50
84.213882999998589
 51
179.95210999999989
  0
LINE
  5
8DC3
  8
AM_0
 10
16.948495109900929
 20
129.20270489209719
 30
0.0
 11
16.948495109900929
 21
132.20270489209719
 31
0.0
  0
LINE
  5
8DC4
  8
AM_0
 10
20.248495109901121
 20
135.30269489209829
 30
0.0
 11
21.54848510990109
 21
135.30269489209829
 31
0.0
  0
LINE
  5
8DC5
  8
AM_0
 10
114.0484751099011
 20
138.16268489209821
 30
0.0
 11
216.04847510990109
 21
138.16268489209821
 31
0.0
  0
LINE
  5
8DC6
  8
AM_0
 10
82.728475109900955
 20
128.53268489209921
 30
0.0
 11
212.868475109901
 21
128.53268489209921
 31
0.0
  0
LINE
  5
8DC7
  8
AM_0
 10
209.3985251099009
 20
127.8126848920983
 30
0.0
 11
83.598535109900936
 21
127.8126848920983
 31
0.0
  0
LINE
  5
8DC8
  8
AM_0
 10
92.048485109901094
 20
153.67271489209719
 30
0.0
 11
208.85846510990109
 21
153.67271489209719
 31
0.0
  0
LINE
  5
8DC9
  8
AM_0
 10
114.0485351099009
 20
138.16268489209821
 30
0.0
 11
79.048465109900903
 21
136.13270489209819
 31
0.0
  0
LINE
  5
8DCA
  8
AM_0
 10
73.378495109900982
 20
105.4926848920981
 30
0.0
 11
114.0484751099011
 21
105.4926848920981
 31
0.0
  0
LINE
  5
8DCB
  8
AM_0
 10
73.378495109900982
 20
108.1526888920982
 30
0.0
 11
114.0484751099011
 21
108.1526888920982
 31
0.0
  0
LINE
  5
8DCC
  8
AM_0
 10
82.508485109900903
 20
115.37268989209829
 30
0.0
 11
113.5484751099011
 21
115.37268989209829
 31
0.0
  0
LINE
  5
8DCD
  8
AM_0
 10
82.508485109900903
 20
118.30271489209819
 30
0.0
 11
113.5484751099011
 21
118.30271489209819
 31
0.0
  0
LINE
  5
8DCE
  8
AM_0
 10
82.728475109900955
 20
125.18271989209821
 30
0.0
 11
114.0484751099011
 21
125.18271989209821
 31
0.0
  0
LINE
  5
8DCF
  8
AM_0
 10
114.0484751099011
 20
105.8126918920982
 30
0.0
 11
74.608465109901061
 21
105.8126918920982
 31
0.0
  0
LINE
  5
8DD0
  8
AM_0
 10
114.0484751099011
 20
107.8126928920983
 30
0.0
 11
74.608465109901061
 21
107.8126928920983
 31
0.0
  0
LINE
  5
8DD1
  8
AM_0
 10
113.5484751099011
 20
115.8126938920982
 30
0.0
 11
83.598535109900936
 21
115.8126938920982
 31
0.0
  0
LINE
  5
8DD2
  8
AM_0
 10
113.5484751099011
 20
117.8126918920981
 30
0.0
 11
83.598535109900936
 21
117.8126918920981
 31
0.0
  0
LINE
  5
8DD3
  8
AM_0
 10
114.0484751099011
 20
125.8126928920983
 30
0.0
 11
83.598535109900936
 21
125.8126928920983
 31
0.0
  0
LINE
  5
8DD4
  8
AM_0
 10
92.048485109901094
 20
155.70269489209809
 30
0.0
 11
145.04852510990099
 21
155.70269489209809
 31
0.0
  0
LINE
  5
8DD5
  8
AM_0
 10
92.048485109901094
 20
157.05269489209829
 30
0.0
 11
145.04852510990099
 21
157.05269489209829
 31
0.0
  0
LINE
  5
8DD6
  8
AM_0
 10
92.048485109901094
 20
157.73270489209921
 30
0.0
 11
145.04852510990099
 21
157.73270489209921
 31
0.0
  0
ARC
  5
8DD7
  8
AM_0
 10
75.220165109901018
 20
148.0872848920983
 30
0.0
 40
1.9953880799999959
 50
90.048066999991249
 51
167.98461999999341
  0
LINE
  5
8DD8
  8
AM_0
 10
90.048475109901119
 20
153.7026848920973
 30
0.0
 11
90.048475109901119
 21
146.29271489209819
 31
0.0
  0
LINE
  5
8DD9
  8
AM_0
 10
73.238545109900983
 20
151.94270489209811
 30
0.0
 11
72.318505109901025
 21
148.0626848920983
 31
0.0
  0
LINE
  5
8DDA
  8
AM_0
 10
75.278515109901022
 20
144.79271489209819
 30
0.0
 11
88.548475109901105
 21
144.79271489209819
 31
0.0
  0
LINE
  5
8DDB
  8
AM_0
 10
69.048475109901119
 20
140.16269489209819
 30
0.0
 11
79.048525109900979
 21
140.16269489209819
 31
0.0
  0
LINE
  5
8DDC
  8
AM_0
 10
69.048475109901119
 20
134.5026848920981
 30
0.0
 11
79.048525109900979
 21
134.5026848920981
 31
0.0
  0
LINE
  5
8DDD
  8
AM_0
 10
69.048475109901119
 20
126.1226918920983
 30
0.0
 11
79.048525109900979
 21
126.1226918920983
 31
0.0
  0
ARC
  5
8DDE
  8
AM_0
 10
73.378495109900982
 20
106.8227018920981
 30
0.0
 40
1.33000008
 50
90.00000299999769
 51
270.0
  0
ARC
  5
8DDF
  8
AM_0
 10
74.599795109900938
 20
106.8126908920983
 30
0.0
 40
1.00003602
 50
89.500715999993631
 51
270.49928999999503
  0
LINE
  5
8DE0
  8
AM_0
 10
64.048525109900993
 20
99.812691892098201
 30
0.0
 11
64.048525109900993
 21
148.8126848920983
 31
0.0
  0
ARC
  5
8DE1
  8
AM_0
 10
70.857685109901013
 20
148.4155148920992
 30
0.0
 40
1.502808149999999
 50
270.03078999999502
 51
346.42217999999878
  0
ARC
  5
8DE2
  8
AM_0
 10
70.83974510990106
 20
144.3568148920983
 30
0.0
 40
1.504140059999999
 50
269.95424999999199
 51
347.55525000000432
  0
ARC
  5
8DE3
  8
AM_0
 10
75.270325109901023
 20
142.79930489209809
 30
0.0
 40
1.993432109999999
 50
89.765883999992695
 51
169.7880299999938
  0
LINE
  5
8DE4
  8
AM_0
 10
70.858465109901076
 20
146.91269489209819
 30
0.0
 11
72.9185351099011
 21
146.91269489209819
 31
0.0
  0
LINE
  5
8DE5
  8
AM_0
 10
73.268455109900941
 20
148.5026948920974
 30
0.0
 11
72.30842510990098
 21
144.03269489209919
 31
0.0
  0
LINE
  5
8DE6
  8
AM_0
 10
70.838455109900906
 20
142.85270489209731
 30
0.0
 11
73.258495109901091
 21
142.85270489209731
 31
0.0
  0
LINE
  5
8DE7
  8
AM_0
 10
72.768445109900981
 20
140.16269489209819
 30
0.0
 11
73.30847510990111
 21
143.1527348920992
 31
0.0
  0
ARC
  5
8DE8
  8
AM_0
 10
83.598535109900936
 20
126.8126948920994
 30
0.0
 40
1.000004069999999
 50
90.00000299999769
 51
270.0
  0
ARC
  5
8DE9
  8
AM_0
 10
82.728475109900955
 20
126.8576648920982
 30
0.0
 40
1.67500812
 50
90.00000299999769
 51
270.0
  0
ARC
  5
8DEA
  8
AM_0
 10
91.048525109901007
 20
126.8126948920994
 30
0.0
 40
1.000004069999999
 50
90.00000299999769
 51
270.0
  0
LINE
  5
8DEB
  8
AM_0
 10
79.048525109900979
 20
140.16269489209819
 30
0.0
 11
79.048525109900979
 21
126.1226918920983
 31
0.0
  0
ARC
  5
8DEC
  8
AM_0
 10
83.598535109900936
 20
116.8126928920983
 30
0.0
 40
1.000004069999999
 50
90.00000299999769
 51
270.0
  0
ARC
  5
8DED
  8
AM_0
 10
82.508485109900903
 20
116.83768589209831
 30
0.0
 40
1.46500008
 50
90.00000299999769
 51
270.0
  0
ARC
  5
8DEE
  8
AM_0
 10
91.048525109901007
 20
116.8126928920983
 30
0.0
 40
1.000004069999999
 50
90.00000299999769
 51
270.0
  0
ARC
  5
8DEF
  8
AM_0
 10
91.048525109901007
 20
106.8126908920983
 30
0.0
 40
1.000004069999999
 50
90.00000299999769
 51
270.0
  0
ARC
  5
8DF0
  8
AM_0
 10
82.198435109901084
 20
133.02284489209811
 30
0.0
 40
1.004135999999999
 50
354.84883999999602
 51
45.797436000001838
  0
ARC
  5
8DF1
  8
AM_0
 10
78.669685109900897
 20
129.4807448920983
 30
0.0
 40
6.0039084000000011
 50
45.223692999992473
 51
86.382714000002196
  0
ARC
  5
8DF2
  8
AM_0
 10
78.213445109900945
 20
133.41047489209831
 30
0.0
 40
5.0078918999999971
 50
279.59871999999518
 51
354.525319999994
  0
ARC
  5
8DF3
  8
AM_0
 10
88.542865109900958
 20
146.2983548920983
 30
0.0
 40
1.5056760899999959
 50
270.2155199999923
 51
359.78447000000108
  0
LINE
  5
8DF4
  8
AM_0
 10
75.15845510990107
 20
155.1126848920994
 30
0.0
 11
88.65845510990107
 21
155.1126848920994
 31
0.0
  0
LINE
  5
8DF5
  8
AM_0
 10
75.188485109900952
 20
153.48266489209809
 30
0.0
 11
88.548475109901105
 21
153.48266489209809
 31
0.0
  0
LINE
  5
8DF6
  8
AM_0
 10
75.218515109901091
 20
150.08267489209831
 30
0.0
 11
88.548475109901105
 21
150.08267489209831
 31
0.0
  0
LINE
  5
8DF7
  8
AM_0
 10
69.048475109901119
 20
149.24267489209811
 30
0.0
 11
71.86847510990107
 21
149.3126648920981
 31
0.0
  0
ARC
  5
8DF8
  8
AM_0
 10
75.155845109901065
 20
153.1148948920972
 30
0.0
 40
1.9977801299999991
 50
89.923080999997794
 51
165.86777000000319
  0
ARC
  5
8DF9
  8
AM_0
 10
70.876795109900954
 20
150.43979489209809
 30
0.0
 40
1.5070961099999991
 50
270.0648200000017
 51
345.90217999999732
  0
ARC
  5
8DFA
  8
AM_0
 10
75.181345109901017
 20
151.48721489209831
 30
0.0
 40
1.995484169999999
 50
89.79345799999912
 51
166.8059200000088
  0
LINE
  5
8DFB
  8
AM_0
 10
73.218505109901088
 20
153.60269489209821
 30
0.0
 11
72.338515109900982
 21
150.07271489209819
 31
0.0
  0
LINE
  5
8DFC
  8
AM_0
 10
70.878505109900971
 20
148.93268489209731
 30
0.0
 11
72.528505109901062
 21
148.93268489209731
 31
0.0
  0
ARC
  5
8DFD
  8
AM_0
 10
88.662115109900938
 20
156.61958489209829
 30
0.0
 40
1.506888089999999
 50
269.86222999999939
 51
345.12306999999601
  0
ARC
  5
8DFE
  8
AM_0
 10
88.544635109900995
 20
154.98653489209809
 30
0.0
 40
1.5038481299999991
 50
270.14640000000293
 51
359.85359999999702
  0
ARC
  5
8DFF
  8
AM_0
 10
88.54670510990104
 20
151.58450489209821
 30
0.0
 40
1.501796039999995
 50
270.06854999999888
 51
359.93145000000101
  0
ARC
  5
8E00
  8
AM_0
 10
92.050975109900932
 20
155.73785489209939
 30
0.0
 40
1.99484415
 50
90.071657999991345
 51
165.63719999999361
  0
ARC
  5
8E01
  8
AM_0
 10
92.043055109900919
 20
155.05811489209731
 30
0.0
 40
1.99457616
 50
89.844008000000017
 51
180.1559900000027
  0
ARC
  5
8E02
  8
AM_0
 10
92.045725109901014
 20
153.70547489209821
 30
0.0
 40
1.9972080599999991
 50
89.919857000000462
 51
180.08013999999881
  0
ARC
  5
8E03
  8
AM_0
 10
92.044885109901074
 20
151.67630489209819
 30
0.0
 40
1.996384079999995
 50
89.896162999993464
 51
180.10383999999601
  0
ARC
  5
8E04
  8
AM_0
 10
145.04786510990101
 20
155.73206489209821
 30
0.0
 40
2.0006240100000001
 50
0.0178240009922409
 51
89.98217599999785
  0
ARC
  5
8E05
  8
AM_0
 10
145.05140510990091
 20
155.05562489209811
 30
0.0
 40
1.997088119999999
 50
359.91637999999188
 51
90.083625000000751
  0
ARC
  5
8E06
  8
AM_0
 10
145.04879510990091
 20
153.70298489209921
 30
0.0
 40
1.999720049999999
 50
359.99193999999602
 51
90.008061999993785
  0
LINE
  5
8E07
  8
AM_0
 10
147.04847510990109
 20
155.7326648920982
 30
0.0
 11
147.04847510990109
 21
153.67271489209719
 31
0.0
  0
LINE
  5
8E08
  8
AM_0
 10
210.78845510990081
 20
152.19272489209919
 30
0.0
 11
214.24847510989881
 21
139.27274489209819
 31
0.0
  0
LINE
  5
8E09
  8
AM_0
 10
212.85848510990101
 20
150.7327148920983
 30
0.0
 11
214.29848510990109
 21
144.03269489209919
 31
0.0
  0
ARC
  5
8E0A
  8
AM_0
 10
212.868475109901
 20
126.8576648920982
 30
0.0
 40
1.6749999899999961
 50
270.0
 51
90.00000299999769
  0
LINE
  5
8E0B
  8
AM_0
 10
212.868475109901
 20
125.18271989209821
 30
0.0
 11
203.04847510990109
 21
125.18271989209821
 31
0.0
  0
ARC
  5
8E0C
  8
AM_0
 10
209.39033510990109
 20
126.8126948920994
 30
0.0
 40
1.0000319699999971
 50
270.46929999999787
 51
89.530700000002085
  0
LINE
  5
8E0D
  8
AM_0
 10
203.04847510990109
 20
125.7127178920982
 30
0.0
 11
209.3985251099009
 21
125.7127178920982
 31
0.0
  0
LINE
  5
8E0E
  8
AM_0
 10
203.04847510990109
 20
121.8914174786662
 30
0.0
 11
205.818505109901
 21
121.8126938920981
 31
0.0
  0
ARC
  5
8E0F
  8
AM_0
 10
215.69873510990101
 20
139.66508489209821
 30
0.0
 40
1.50239199
 50
195.14000999999971
 51
269.99063999999328
  0
ARC
  5
8E10
  8
AM_0
 10
217.0428551099009
 20
142.85831489209809
 30
0.0
 40
0.99440004
 50
89.676491000006564
 51
180.32351000000421
  0
ARC
  5
8E11
  8
AM_0
 10
215.75435510990101
 20
144.35315489209731
 30
0.0
 40
1.500476039999995
 50
192.3322299999987
 51
270.15827999999971
  0
LINE
  5
8E12
  8
AM_0
 10
215.75849510990111
 20
142.85270489209731
 30
0.0
 11
213.34853510990089
 21
142.85270489209731
 31
0.0
  0
ARC
  5
8E13
  8
AM_0
 10
210.902965109901
 20
150.3125048920983
 30
0.0
 40
2.0001800699999981
 50
12.126352000003591
 51
90.127514999991448
  0
LINE
  5
8E14
  8
AM_0
 10
210.7584851099009
 20
152.31269489209831
 30
0.0
 11
216.04847510990109
 21
152.31269489209831
 31
0.0
  0
ARC
  5
8E15
  8
AM_0
 10
208.85897510990091
 20
151.67489489209831
 30
0.0
 40
1.997795999999999
 50
15.021597000002179
 51
90.013580999990594
  0
ARC
  5
8E16
  8
AM_0
 10
217.04360510990091
 20
154.3176248920974
 30
0.0
 40
0.9950640599999999
 50
89.714938000006967
 51
180.28506000000439
  0
LINE
  5
8E1D
  8
AM_0
 10
198.54847510990109
 20
114.3126908920983
 30
0.0
 11
198.54847510990109
 21
69.312690892098317
 31
0.0
  0
LINE
  5
8E1E
  8
AM_0
 10
196.4484751099009
 20
114.86294342379109
 30
0.0
 11
196.4484751099009
 21
68.762438360404303
 31
0.0
  0
LINE
  5
8E1F
  8
AM_0
 10
113.5484751099011
 20
73.812690892098288
 30
0.0
 11
113.5484751099011
 21
63.812680892099252
 31
0.0
  0
LINE
  5
8E20
  8
AM_0
 10
114.0484751099011
 20
59.312684892098332
 30
0.0
 11
114.0484751099011
 21
124.31268089209919
 31
0.0
  0
LINE
  5
8E21
  8
AM_0
 10
185.59871964159601
 20
57.912682892098474
 30
0.0
 11
118.468455109901
 21
57.912682892098474
 31
0.0
  0
LINE
  5
8E22
  8
AM_0
 10
118.468455109901
 20
57.912682892098474
 30
0.0
 11
118.468455109901
 21
55.81269189209933
 31
0.0
  0
ARC
  5
8E23
  8
AM_0
 10
117.54109510990099
 20
59.30533789209926
 30
0.0
 40
3.492651899999998
 50
179.8793300000022
 51
270.12067999999482
  0
ARC
  5
8E24
  8
AM_0
 10
114.0411551099009
 20
63.80534089209845
 30
0.0
 40
0.4927000100000001
 50
179.14455999999711
 51
270.8554400000026
  0
ARC
  5
8E25
  8
AM_0
 10
200.54847510990109
 20
69.312690892098317
 30
0.0
 40
2.0
 50
180.0
 51
270.0
  0
LINE
  5
8E26
  8
AM_0
 10
196.03842460356191
 20
67.772488866742378
 30
0.0
 11
186.58866913525591
 21
58.322733398437322
 31
0.0
  0
LINE
  5
8E27
  8
AM_0
 10
186.58867713525589
 20
58.322741398436392
 30
0.0
 11
196.03842460356279
 21
67.772488866742378
 31
0.0
  0
ARC
  5
8E28
  8
AM_0
 10
185.59871964159601
 20
59.312682892099239
 30
0.0
 40
1.399999999999999
 50
270.0
 51
315.00000000000921
1001
GENIUS_GENODEF_13
1002
{
1000
HIER
1070
     0
1002
}
1002
{
1000
MANEDIT
1070
     0
1002
}
1002
{
1000
NOSEL
1070
     0
1002
}
1002
{
1000
BEHIND
1070
     0
1002
}
1002
{
1000
OTHER
1070
     0
1002
}
1002
{
1000
REACTOR
1002
}
1001
GENIUS_GENOBJ-N-FIL_13
1002
{
1000
OWNER
1000
GEN
1002
}
  0
ARC
  5
8E29
  8
AM_0
 10
195.04847510990109
 20
68.762438360404303
 30
0.0
 40
1.4000000000006301
 50
314.99999999997232
 51
0.0
  0
ARC
  5
8E2A
  8
AM_0
 10
201.04847510990109
 20
57.812690892098317
 30
0.0
 40
2.0
 50
270.0
 51
0.0
  0
ARC
  5
8E2B
  8
AM_0
 10
201.04847510990109
 20
65.312690892099212
 30
0.0
 40
2.0
 50
0.0
 51
90.0
  0
LINE
  5
8E2C
  8
AM_0
 10
201.04847510990109
 20
67.312690892099212
 30
0.0
 11
200.54847510990109
 21
67.312690892099212
 31
0.0
  0
LINE
  5
8E2D
  8
AM_0
 10
203.04847510990109
 20
57.812690892098317
 30
0.0
 11
203.04847510990109
 21
65.312690892099212
 31
0.0
  0
LINE
  5
8E2E
  8
AM_0
 10
118.468455109901
 20
125.7126708920982
 30
0.0
 11
185.60621092977581
 21
125.7126708920982
 31
0.0
  0
ARC
  5
8E2F
  8
AM_0
 10
114.049025109901
 20
73.812140892097432
 30
0.0
 40
0.5005480100000002
 50
90.062622000000005
 51
179.9373699999839
  0
ARC
  5
8E30
  8
AM_0
 10
114.049025109901
 20
119.81214089209919
 30
0.0
 40
0.5005480100000002
 50
90.062622000000005
 51
179.9373699999839
  0
ARC
  5
8E31
  8
AM_0
 10
114.0409651099009
 20
109.80518089209799
 30
0.0
 40
0.49254802
 50
179.1265600000018
 51
270.87345000000141
  0
LINE
  5
8E32
  8
AM_0
 10
113.5484751099011
 20
119.8126808920974
 30
0.0
 11
113.5484751099011
 21
109.81269089209739
 31
0.0
  0
LINE
  5
8E33
  8
AM_0
 10
118.468455109901
 20
125.7126708920982
 30
0.0
 11
118.468455109901
 21
127.8076708920982
 31
0.0
  0
ARC
  5
8E34
  8
AM_0
 10
117.548965109901
 20
124.3121908920982
 30
0.0
 40
3.5005001999999981
 50
90.008164999989489
 51
179.99183999999781
  0
LINE
  5
8E35
  8
AM_0
 10
200.54847510990109
 20
97.312690892099241
 30
0.0
 11
198.54847510990109
 21
97.312690892099241
 31
0.0
  0
LINE
  5
8E36
  8
AM_0
 10
198.54847510990109
 20
86.312690892098274
 30
0.0
 11
200.54847510990109
 21
86.312690892098274
 31
0.0
  0
LINE
  5
8E37
  8
AM_0
 10
200.548475109902
 20
86.312690892098274
 30
0.0
 11
200.54847510990109
 21
97.312690892099241
 31
0.0
  0
ARC
  5
8E38
  8
AM_0
 10
200.54847510990109
 20
114.3126908920983
 30
0.0
 40
2.0
 50
90.0
 51
180.0
  0
CIRCLE
  5
8E39
  8
AM_0
 10
197.54847510990109
 20
122.8126908920983
 30
0.0
 40
3.4999999999999631
  0
LINE
  5
8E3A
  8
AM_0
 10
186.58867713525589
 20
125.3026403857593
 30
0.0
 11
196.03842460356191
 21
115.8528929174542
 31
0.0
  0
LINE
  5
8E3B
  8
AM_0
 10
194.4484751099009
 20
117.4428424111142
 30
0.0
 11
196.03842460356191
 21
115.8528929174542
 31
0.0
  0
ARC
  5
8E3C
  8
AM_0
 10
195.04847510990109
 20
114.86294342379109
 30
0.0
 40
1.400000000000118
 50
0.0
 51
45.000000000027619
  0
ARC
  5
8E3D
  8
AM_0
 10
185.59872764159451
 20
124.3126908920983
 30
0.0
 40
1.40000000000077
 50
44.999999999972353
 51
89.999999999947889
  0
LINE
  5
8E3E
  8
AM_0
 10
203.04847510990109
 20
118.3126908920983
 30
0.0
 11
203.04847510990109
 21
125.8126908920983
 31
0.0
  0
LINE
  5
8E3F
  8
AM_0
 10
203.04847510990109
 20
118.3126908920983
 30
0.0
 11
203.04847510990109
 21
125.8126908920983
 31
0.0
  0
ARC
  5
8E40
  8
AM_0
 10
201.04847510990109
 20
118.3126908920983
 30
0.0
 40
2.0
 50
270.0
 51
0.0
  0
LINE
  5
8E41
  8
AM_0
 10
200.54847510990109
 20
116.3126908920983
 30
0.0
 11
201.04847510990109
 21
116.3126908920983
 31
0.0
  0
ARC
  5
8E42
  8
AM_0
 10
201.04847510990109
 20
125.8126908920983
 30
0.0
 40
2.0
 50
0.0
 51
90.0
  0
LINE
  5
8E43
  8
AM_0
 10
194.9099034286937
 20
122.8126908920992
 30
0.0
 11
200.1870467911067
 21
122.8126908920983
 31
0.0
  0
LINE
  5
8E44
  8
AM_0
 10
197.54847510990109
 20
125.45126257330431
 30
0.0
 11
197.54847510990109
 21
120.17411921089131
 31
0.0
  0
CIRCLE
  5
8E45
  8
AM_0
 10
197.54847510990109
 20
60.81269089209718
 30
0.0
 40
3.4999999999999631
  0
LINE
  5
8E46
  8
AM_0
 10
194.9099034286937
 20
60.812690892099212
 30
0.0
 11
200.1870467911067
 21
60.812690892099212
 31
0.0
  0
LINE
  5
8E47
  8
AM_0
 10
197.54847510990109
 20
63.45126257330412
 30
0.0
 11
197.54847510990109
 21
58.174119210891142
 31
0.0
  0
LINE
  5
8E49
  8
AM_0
 10
21.54848510990109
 20
67.838519246174428
 30
0.0
 11
21.54848510990109
 21
148.8126848920983
 31
0.0
  0
LINE
  5
8E7B
  8
AM_0
 10
472.42892096656868
 20
86.312690892098274
 30
0.0
 11
459.89158110990093
 21
86.312690892098274
 31
0.0
  0
LINE
  5
8E7C
  8
AM_0
 10
459.89158110990093
 20
97.312690892099241
 30
0.0
 11
473.22831575993882
 21
97.312690892099241
 31
0.0
  0
LINE
  5
8E7D
  8
AM_0
 10
475.44481950519457
 20
127.8126908920962
 30
0.0
 11
447.39158110990093
 21
127.8126908920962
 31
0.0
  0
LINE
  5
8E7E
  8
AM_0
 10
447.39158110990093
 20
55.812690892096271
 30
0.0
 11
470.21241722131492
 21
55.812690892096271
 31
0.0
  0
LINE
  5
8E7F
  8
AM_0
 10
459.89158110990093
 20
55.812690892096271
 30
0.0
 11
459.89158110990093
 21
127.8126908920962
 31
0.0
  0
LINE
  5
8E80
  8
AM_0
 10
459.89158110990093
 20
116.89269089209731
 30
0.0
 11
458.42658110990089
 21
125.7126908920981
 31
0.0
  0
ARC
  5
8E81
  8
AM_0
 10
449.39158110990081
 20
123.2126908920981
 30
0.0
 40
2.5
 50
90.0
 51
180.0
  0
ARC
  5
8E82
  8
AM_0
 10
447.39158110990093
 20
127.3126908920983
 30
0.0
 40
0.5
 50
90.0
 51
180.0
  0
LINE
  5
8E83
  8
AM_0
 10
458.42658110990089
 20
125.7126908920981
 30
0.0
 11
449.39158110990081
 21
125.7126908920981
 31
0.0
  0
POLYLINE
  5
8E84
  8
AM_0
 66
     1
 10
0.0
 20
0.0
 30
0.0
 70
     8
  0
VERTEX
  5
8E85
  8
AM_0
 10
449.39153404482721
 20
115.44310569514229
 30
0.0
 70
    32
  0
VERTEX
  5
8E86
  8
AM_0
 10
449.38753404482708
 20
115.44310569514229
 30
0.0
 70
    32
  0
VERTEX
  5
8E87
  8
AM_0
 10
449.38353404482717
 20
115.44310569514229
 30
0.0
 70
    32
  0
VERTEX
  5
8E88
  8
AM_0
 10
449.37853404482712
 20
115.44310569514229
 30
0.0
 70
    32
  0
VERTEX
  5
8E89
  8
AM_0
 10
449.3745340448271
 20
115.44310569514229
 30
0.0
 70
    32
  0
VERTEX
  5
8E8A
  8
AM_0
 10
449.37053404482702
 20
115.44310569514229
 30
0.0
 70
    32
  0
VERTEX
  5
8E8B
  8
AM_0
 10
449.36553404482709
 20
115.44310569514229
 30
0.0
 70
    32
  0
VERTEX
  5
8E8C
  8
AM_0
 10
449.36153404482701
 20
115.44210569514139
 30
0.0
 70
    32
  0
VERTEX
  5
8E8D
  8
AM_0
 10
449.35753404482722
 20
115.44210569514139
 30
0.0
 70
    32
  0
VERTEX
  5
8E8E
  8
AM_0
 10
449.35353404482709
 20
115.44210569514139
 30
0.0
 70
    32
  0
VERTEX
  5
8E8F
  8
AM_0
 10
449.34853404482709
 20
115.44210569514139
 30
0.0
 70
    32
  0
VERTEX
  5
8E90
  8
AM_0
 10
449.34453404482713
 20
115.44210569514139
 30
0.0
 70
    32
  0
VERTEX
  5
8E91
  8
AM_0
 10
449.34053404482711
 20
115.44210569514139
 30
0.0
 70
    32
  0
VERTEX
  5
8E92
  8
AM_0
 10
449.3365340448272
 20
115.44210569514139
 30
0.0
 70
    32
  0
VERTEX
  5
8E93
  8
AM_0
 10
449.33153404482709
 20
115.44210569514139
 30
0.0
 70
    32
  0
VERTEX
  5
8E94
  8
AM_0
 10
449.32753404482708
 20
115.44210569514139
 30
0.0
 70
    32
  0
VERTEX
  5
8E95
  8
AM_0
 10
449.32353404482689
 20
115.44210569514139
 30
0.0
 70
    32
  0
VERTEX
  5
8E96
  8
AM_0
 10
449.318534044827
 20
115.44210569514139
 30
0.0
 70
    32
  0
VERTEX
  5
8E97
  8
AM_0
 10
449.31453404482721
 20
115.44210569514139
 30
0.0
 70
    32
  0
VERTEX
  5
8E98
  8
AM_0
 10
449.31053404482708
 20
115.44210569514139
 30
0.0
 70
    32
  0
VERTEX
  5
8E99
  8
AM_0
 10
449.30653404482712
 20
115.44210569514139
 30
0.0
 70
    32
  0
VERTEX
  5
8E9A
  8
AM_0
 10
449.30153404482712
 20
115.44210569514139
 30
0.0
 70
    32
  0
VERTEX
  5
8E9B
  8
AM_0
 10
449.29753404482722
 20
115.44210569514139
 30
0.0
 70
    32
  0
VERTEX
  5
8E9C
  8
AM_0
 10
449.29353404482703
 20
115.44210569514139
 30
0.0
 70
    32
  0
VERTEX
  5
8E9D
  8
AM_0
 10
449.28953404482718
 20
115.44210569514139
 30
0.0
 70
    32
  0
VERTEX
  5
8E9E
  8
AM_0
 10
449.28453404482701
 20
115.4411056951412
 30
0.0
 70
    32
  0
VERTEX
  5
8E9F
  8
AM_0
 10
449.28053404482711
 20
115.4411056951412
 30
0.0
 70
    32
  0
VERTEX
  5
8EA0
  8
AM_0
 10
449.27653404482709
 20
115.4411056951412
 30
0.0
 70
    32
  0
VERTEX
  5
8EA1
  8
AM_0
 10
449.27253404482713
 20
115.4411056951412
 30
0.0
 70
    32
  0
VERTEX
  5
8EA2
  8
AM_0
 10
449.26753404482707
 20
115.4411056951412
 30
0.0
 70
    32
  0
VERTEX
  5
8EA3
  8
AM_0
 10
449.26353404482711
 20
115.4411056951412
 30
0.0
 70
    32
  0
VERTEX
  5
8EA4
  8
AM_0
 10
449.25953404482709
 20
115.4411056951412
 30
0.0
 70
    32
  0
VERTEX
  5
8EA5
  8
AM_0
 10
449.2545340448271
 20
115.4411056951412
 30
0.0
 70
    32
  0
VERTEX
  5
8EA6
  8
AM_0
 10
449.25053404482708
 20
115.4411056951412
 30
0.0
 70
    32
  0
VERTEX
  5
8EA7
  8
AM_0
 10
449.24653404482689
 20
115.4411056951412
 30
0.0
 70
    32
  0
VERTEX
  5
8EA8
  8
AM_0
 10
449.2425340448271
 20
115.4401056951412
 30
0.0
 70
    32
  0
VERTEX
  5
8EA9
  8
AM_0
 10
449.23753404482733
 20
115.4401056951412
 30
0.0
 70
    32
  0
VERTEX
  5
8EAA
  8
AM_0
 10
449.23353404482708
 20
115.4401056951412
 30
0.0
 70
    32
  0
VERTEX
  5
8EAB
  8
AM_0
 10
449.22953404482712
 20
115.4401056951412
 30
0.0
 70
    32
  0
VERTEX
  5
8EAC
  8
AM_0
 10
449.2255340448271
 20
115.4401056951412
 30
0.0
 70
    32
  0
VERTEX
  5
8EAD
  8
AM_0
 10
449.22053404482722
 20
115.4401056951412
 30
0.0
 70
    32
  0
VERTEX
  5
8EAE
  8
AM_0
 10
449.21653404482709
 20
115.4401056951412
 30
0.0
 70
    32
  0
VERTEX
  5
8EAF
  8
AM_0
 10
449.21253404482712
 20
115.43910569514119
 30
0.0
 70
    32
  0
VERTEX
  5
8EB0
  8
AM_0
 10
449.20853404482688
 20
115.43910569514119
 30
0.0
 70
    32
  0
VERTEX
  5
8EB1
  8
AM_0
 10
449.20353404482699
 20
115.43910569514119
 30
0.0
 70
    32
  0
VERTEX
  5
8EB2
  8
AM_0
 10
449.1995340448272
 20
115.43910569514119
 30
0.0
 70
    32
  0
VERTEX
  5
8EB3
  8
AM_0
 10
449.19553404482713
 20
115.43910569514119
 30
0.0
 70
    32
  0
VERTEX
  5
8EB4
  8
AM_0
 10
449.19053404482719
 20
115.43910569514119
 30
0.0
 70
    32
  0
VERTEX
  5
8EB5
  8
AM_0
 10
449.18653404482711
 20
115.43910569514119
 30
0.0
 70
    32
  0
VERTEX
  5
8EB6
  8
AM_0
 10
449.18253404482698
 20
115.4381056951401
 30
0.0
 70
    32
  0
VERTEX
  5
8EB7
  8
AM_0
 10
449.17853404482702
 20
115.4381056951401
 30
0.0
 70
    32
  0
VERTEX
  5
8EB8
  8
AM_0
 10
449.17353404482708
 20
115.4381056951401
 30
0.0
 70
    32
  0
VERTEX
  5
8EB9
  8
AM_0
 10
449.16953404482689
 20
115.4381056951401
 30
0.0
 70
    32
  0
VERTEX
  5
8EBA
  8
AM_0
 10
449.1655340448271
 20
115.4381056951401
 30
0.0
 70
    32
  0
VERTEX
  5
8EBB
  8
AM_0
 10
449.16153404482708
 20
115.43710569514219
 30
0.0
 70
    32
  0
VERTEX
  5
8EBC
  8
AM_0
 10
449.15653404482708
 20
115.43710569514219
 30
0.0
 70
    32
  0
VERTEX
  5
8EBD
  8
AM_0
 10
449.15253404482712
 20
115.43710569514219
 30
0.0
 70
    32
  0
VERTEX
  5
8EBE
  8
AM_0
 10
449.1485340448271
 20
115.43710569514219
 30
0.0
 70
    32
  0
VERTEX
  5
8EBF
  8
AM_0
 10
449.14453404482708
 20
115.43710569514219
 30
0.0
 70
    32
  0
VERTEX
  5
8EC0
  8
AM_0
 10
449.13953404482709
 20
115.43710569514219
 30
0.0
 70
    32
  0
VERTEX
  5
8EC1
  8
AM_0
 10
449.13553404482712
 20
115.43610569514129
 30
0.0
 70
    32
  0
VERTEX
  5
8EC2
  8
AM_0
 10
449.13153404482688
 20
115.43610569514129
 30
0.0
 70
    32
  0
VERTEX
  5
8EC3
  8
AM_0
 10
449.12753404482709
 20
115.43610569514129
 30
0.0
 70
    32
  0
VERTEX
  5
8EC4
  8
AM_0
 10
449.12253404482732
 20
115.43610569514129
 30
0.0
 70
    32
  0
VERTEX
  5
8EC5
  8
AM_0
 10
449.11853404482707
 20
115.4351056951413
 30
0.0
 70
    32
  0
VERTEX
  5
8EC6
  8
AM_0
 10
449.11453404482711
 20
115.4351056951413
 30
0.0
 70
    32
  0
VERTEX
  5
8EC7
  8
AM_0
 10
449.10953404482689
 20
115.4351056951413
 30
0.0
 70
    32
  0
VERTEX
  5
8EC8
  8
AM_0
 10
449.10553404482721
 20
115.4351056951413
 30
0.0
 70
    32
  0
VERTEX
  5
8EC9
  8
AM_0
 10
449.10153404482702
 20
115.4351056951413
 30
0.0
 70
    32
  0
VERTEX
  5
8ECA
  8
AM_0
 10
449.09753404482711
 20
115.4341056951414
 30
0.0
 70
    32
  0
VERTEX
  5
8ECB
  8
AM_0
 10
449.09253404482689
 20
115.4341056951414
 30
0.0
 70
    32
  0
VERTEX
  5
8ECC
  8
AM_0
 10
449.08853404482699
 20
115.4341056951414
 30
0.0
 70
    32
  0
VERTEX
  5
8ECD
  8
AM_0
 10
449.08453404482719
 20
115.4341056951414
 30
0.0
 70
    32
  0
VERTEX
  5
8ECE
  8
AM_0
 10
449.08053404482712
 20
115.43310569514141
 30
0.0
 70
    32
  0
VERTEX
  5
8ECF
  8
AM_0
 10
449.07553404482718
 20
115.43310569514141
 30
0.0
 70
    32
  0
VERTEX
  5
8ED0
  8
AM_0
 10
449.0715340448271
 20
115.43310569514141
 30
0.0
 70
    32
  0
VERTEX
  5
8ED1
  8
AM_0
 10
449.06753404482708
 20
115.4321056951412
 30
0.0
 70
    32
  0
VERTEX
  5
8ED2
  8
AM_0
 10
449.06353404482701
 20
115.4321056951412
 30
0.0
 70
    32
  0
VERTEX
  5
8ED3
  8
AM_0
 10
449.05853404482713
 20
115.4321056951412
 30
0.0
 70
    32
  0
VERTEX
  5
8ED4
  8
AM_0
 10
449.05453404482688
 20
115.4321056951412
 30
0.0
 70
    32
  0
VERTEX
  5
8ED5
  8
AM_0
 10
449.05053404482709
 20
115.4311056951412
 30
0.0
 70
    32
  0
VERTEX
  5
8ED6
  8
AM_0
 10
449.04653404482713
 20
115.4311056951412
 30
0.0
 70
    32
  0
VERTEX
  5
8ED7
  8
AM_0
 10
449.04153404482707
 20
115.4311056951412
 30
0.0
 70
    32
  0
VERTEX
  5
8ED8
  8
AM_0
 10
449.03753404482711
 20
115.4311056951412
 30
0.0
 70
    32
  0
VERTEX
  5
8ED9
  8
AM_0
 10
449.03353404482709
 20
115.4301056951421
 30
0.0
 70
    32
  0
VERTEX
  5
8EDA
  8
AM_0
 10
449.02953404482707
 20
115.4301056951421
 30
0.0
 70
    32
  0
VERTEX
  5
8EDB
  8
AM_0
 10
449.02453404482708
 20
115.4301056951421
 30
0.0
 70
    32
  0
VERTEX
  5
8EDC
  8
AM_0
 10
449.020534044827
 20
115.42910569514009
 30
0.0
 70
    32
  0
VERTEX
  5
8EDD
  8
AM_0
 10
449.01653404482721
 20
115.42910569514009
 30
0.0
 70
    32
  0
VERTEX
  5
8EDE
  8
AM_0
 10
449.01153404482699
 20
115.42910569514009
 30
0.0
 70
    32
  0
VERTEX
  5
8EDF
  8
AM_0
 10
449.0075340448272
 20
115.4281056951413
 30
0.0
 70
    32
  0
VERTEX
  5
8EE0
  8
AM_0
 10
449.00353404482712
 20
115.4281056951413
 30
0.0
 70
    32
  0
VERTEX
  5
8EE1
  8
AM_0
 10
448.99953404482721
 20
115.4281056951413
 30
0.0
 70
    32
  0
VERTEX
  5
8EE2
  8
AM_0
 10
448.99453404482699
 20
115.42710569514119
 30
0.0
 70
    32
  0
VERTEX
  5
8EE3
  8
AM_0
 10
448.9905340448272
 20
115.42710569514119
 30
0.0
 70
    32
  0
VERTEX
  5
8EE4
  8
AM_0
 10
448.98653404482701
 20
115.42710569514119
 30
0.0
 70
    32
  0
VERTEX
  5
8EE5
  8
AM_0
 10
448.9825340448271
 20
115.4261056951413
 30
0.0
 70
    32
  0
VERTEX
  5
8EE6
  8
AM_0
 10
448.97753404482688
 20
115.4261056951413
 30
0.0
 70
    32
  0
VERTEX
  5
8EE7
  8
AM_0
 10
448.97353404482698
 20
115.4261056951413
 30
0.0
 70
    32
  0
VERTEX
  5
8EE8
  8
AM_0
 10
448.96953404482713
 20
115.4251056951402
 30
0.0
 70
    32
  0
VERTEX
  5
8EE9
  8
AM_0
 10
448.96553404482711
 20
115.4251056951402
 30
0.0
 70
    32
  0
VERTEX
  5
8EEA
  8
AM_0
 10
448.96053404482711
 20
115.4251056951402
 30
0.0
 70
    32
  0
VERTEX
  5
8EEB
  8
AM_0
 10
448.95653404482709
 20
115.4241056951423
 30
0.0
 70
    32
  0
VERTEX
  5
8EEC
  8
AM_0
 10
448.95253404482708
 20
115.4241056951423
 30
0.0
 70
    32
  0
VERTEX
  5
8EED
  8
AM_0
 10
448.94853404482689
 20
115.4231056951414
 30
0.0
 70
    32
  0
VERTEX
  5
8EEE
  8
AM_0
 10
448.94353404482712
 20
115.4231056951414
 30
0.0
 70
    32
  0
VERTEX
  5
8EEF
  8
AM_0
 10
448.93953404482733
 20
115.4231056951414
 30
0.0
 70
    32
  0
VERTEX
  5
8EF0
  8
AM_0
 10
448.93553404482708
 20
115.4221056951412
 30
0.0
 70
    32
  0
VERTEX
  5
8EF1
  8
AM_0
 10
448.93153404482712
 20
115.4221056951412
 30
0.0
 70
    32
  0
VERTEX
  5
8EF2
  8
AM_0
 10
448.92653404482701
 20
115.42110569514119
 30
0.0
 70
    32
  0
VERTEX
  5
8EF3
  8
AM_0
 10
448.92253404482722
 20
115.42110569514119
 30
0.0
 70
    32
  0
VERTEX
  5
8EF4
  8
AM_0
 10
448.91853404482708
 20
115.42110569514119
 30
0.0
 70
    32
  0
VERTEX
  5
8EF5
  8
AM_0
 10
448.91453404482712
 20
115.4201056951412
 30
0.0
 70
    32
  0
VERTEX
  5
8EF6
  8
AM_0
 10
448.90953404482713
 20
115.4201056951412
 30
0.0
 70
    32
  0
VERTEX
  5
8EF7
  8
AM_0
 10
448.90553404482699
 20
115.41910569514209
 30
0.0
 70
    32
  0
VERTEX
  5
8EF8
  8
AM_0
 10
448.9015340448272
 20
115.41910569514209
 30
0.0
 70
    32
  0
VERTEX
  5
8EF9
  8
AM_0
 10
448.89753404482713
 20
115.41810569514131
 30
0.0
 70
    32
  0
VERTEX
  5
8EFA
  8
AM_0
 10
448.89253404482719
 20
115.41810569514131
 30
0.0
 70
    32
  0
VERTEX
  5
8EFB
  8
AM_0
 10
448.88853404482711
 20
115.41810569514131
 30
0.0
 70
    32
  0
VERTEX
  5
8EFC
  8
AM_0
 10
448.88453404482698
 20
115.4171056951413
 30
0.0
 70
    32
  0
VERTEX
  5
8EFD
  8
AM_0
 10
448.88053404482702
 20
115.4171056951413
 30
0.0
 70
    32
  0
VERTEX
  5
8EFE
  8
AM_0
 10
448.87553404482708
 20
115.4161056951413
 30
0.0
 70
    32
  0
VERTEX
  5
8EFF
  8
AM_0
 10
448.87153404482689
 20
115.4161056951413
 30
0.0
 70
    32
  0
VERTEX
  5
8F00
  8
AM_0
 10
448.8675340448271
 20
115.41510569514131
 30
0.0
 70
    32
  0
VERTEX
  5
8F01
  8
AM_0
 10
448.86353404482708
 20
115.41510569514131
 30
0.0
 70
    32
  0
VERTEX
  5
8F02
  8
AM_0
 10
448.85953404482711
 20
115.4141056951414
 30
0.0
 70
    32
  0
VERTEX
  5
8F03
  8
AM_0
 10
448.85453404482712
 20
115.4141056951414
 30
0.0
 70
    32
  0
VERTEX
  5
8F04
  8
AM_0
 10
448.8505340448271
 20
115.41310569514231
 30
0.0
 70
    32
  0
VERTEX
  5
8F05
  8
AM_0
 10
448.84653404482708
 20
115.41310569514231
 30
0.0
 70
    32
  0
VERTEX
  5
8F06
  8
AM_0
 10
448.84253404482689
 20
115.41210569514119
 30
0.0
 70
    32
  0
VERTEX
  5
8F07
  8
AM_0
 10
448.83753404482701
 20
115.41210569514119
 30
0.0
 70
    32
  0
VERTEX
  5
8F08
  8
AM_0
 10
448.83353404482688
 20
115.4111056951412
 30
0.0
 70
    32
  0
VERTEX
  5
8F09
  8
AM_0
 10
448.82953404482708
 20
115.4111056951412
 30
0.0
 70
    32
  0
VERTEX
  5
8F0A
  8
AM_0
 10
448.82553404482712
 20
115.4101056951412
 30
0.0
 70
    32
  0
VERTEX
  5
8F0B
  8
AM_0
 10
448.82053404482713
 20
115.4101056951412
 30
0.0
 70
    32
  0
VERTEX
  5
8F0C
  8
AM_0
 10
448.81653404482722
 20
115.40910569514131
 30
0.0
 70
    32
  0
VERTEX
  5
8F0D
  8
AM_0
 10
448.81253404482692
 20
115.40910569514131
 30
0.0
 70
    32
  0
VERTEX
  5
8F0E
  8
AM_0
 10
448.80853404482718
 20
115.4081056951413
 30
0.0
 70
    32
  0
VERTEX
  5
8F0F
  8
AM_0
 10
448.80353404482702
 20
115.4081056951413
 30
0.0
 70
    32
  0
VERTEX
  5
8F10
  8
AM_0
 10
448.79953404482711
 20
115.4071056951402
 30
0.0
 70
    32
  0
VERTEX
  5
8F11
  8
AM_0
 10
448.79553404482721
 20
115.4071056951402
 30
0.0
 70
    32
  0
VERTEX
  5
8F12
  8
AM_0
 10
448.79153404482707
 20
115.40610569514131
 30
0.0
 70
    32
  0
VERTEX
  5
8F13
  8
AM_0
 10
448.78653404482719
 20
115.40610569514131
 30
0.0
 70
    32
  0
VERTEX
  5
8F14
  8
AM_0
 10
448.78253404482712
 20
115.4051056951423
 30
0.0
 70
    32
  0
VERTEX
  5
8F15
  8
AM_0
 10
448.7785340448271
 20
115.4051056951423
 30
0.0
 70
    32
  0
VERTEX
  5
8F16
  8
AM_0
 10
448.77453404482691
 20
115.4041056951414
 30
0.0
 70
    32
  0
VERTEX
  5
8F17
  8
AM_0
 10
448.77053404482712
 20
115.4041056951414
 30
0.0
 70
    32
  0
VERTEX
  5
8F18
  8
AM_0
 10
448.76553404482701
 20
115.40310569514121
 30
0.0
 70
    32
  0
VERTEX
  5
8F19
  8
AM_0
 10
448.7615340448271
 20
115.40210569514031
 30
0.0
 70
    32
  0
VERTEX
  5
8F1A
  8
AM_0
 10
448.75753404482708
 20
115.40210569514031
 30
0.0
 70
    32
  0
VERTEX
  5
8F1B
  8
AM_0
 10
448.75353404482712
 20
115.4011056951403
 30
0.0
 70
    32
  0
VERTEX
  5
8F1C
  8
AM_0
 10
448.74853404482712
 20
115.4011056951403
 30
0.0
 70
    32
  0
VERTEX
  5
8F1D
  8
AM_0
 10
448.74453404482711
 20
115.40010569514121
 30
0.0
 70
    32
  0
VERTEX
  5
8F1E
  8
AM_0
 10
448.7405340448272
 20
115.40010569514121
 30
0.0
 70
    32
  0
VERTEX
  5
8F1F
  8
AM_0
 10
448.73653404482701
 20
115.3991056951413
 30
0.0
 70
    32
  0
VERTEX
  5
8F20
  8
AM_0
 10
448.73153404482707
 20
115.3981056951401
 30
0.0
 70
    32
  0
VERTEX
  5
8F21
  8
AM_0
 10
448.72753404482688
 20
115.3981056951401
 30
0.0
 70
    32
  0
VERTEX
  5
8F22
  8
AM_0
 10
448.72353404482709
 20
115.39710569514131
 30
0.0
 70
    32
  0
VERTEX
  5
8F23
  8
AM_0
 10
448.71953404482718
 20
115.39710569514131
 30
0.0
 70
    32
  0
VERTEX
  5
8F24
  8
AM_0
 10
448.71553404482688
 20
115.3961056951413
 30
0.0
 70
    32
  0
VERTEX
  5
8F25
  8
AM_0
 10
448.71053404482711
 20
115.3951056951414
 30
0.0
 70
    32
  0
VERTEX
  5
8F26
  8
AM_0
 10
448.70653404482692
 20
115.3951056951414
 30
0.0
 70
    32
  0
VERTEX
  5
8F27
  8
AM_0
 10
448.70253404482719
 20
115.3941056951423
 30
0.0
 70
    32
  0
VERTEX
  5
8F28
  8
AM_0
 10
448.69853404482689
 20
115.3941056951423
 30
0.0
 70
    32
  0
VERTEX
  5
8F29
  8
AM_0
 10
448.69353404482717
 20
115.3931056951412
 30
0.0
 70
    32
  0
VERTEX
  5
8F2A
  8
AM_0
 10
448.6895340448271
 20
115.39210569514211
 30
0.0
 70
    32
  0
VERTEX
  5
8F2B
  8
AM_0
 10
448.68553404482708
 20
115.39210569514211
 30
0.0
 70
    32
  0
VERTEX
  5
8F2C
  8
AM_0
 10
448.68153404482717
 20
115.39110569514121
 30
0.0
 70
    32
  0
VERTEX
  5
8F2D
  8
AM_0
 10
448.6775340448271
 20
115.3901056951412
 30
0.0
 70
    32
  0
VERTEX
  5
8F2E
  8
AM_0
 10
448.67253404482722
 20
115.3901056951412
 30
0.0
 70
    32
  0
VERTEX
  5
8F2F
  8
AM_0
 10
448.66853404482703
 20
115.3891056951413
 30
0.0
 70
    32
  0
VERTEX
  5
8F30
  8
AM_0
 10
448.66453404482712
 20
115.3891056951413
 30
0.0
 70
    32
  0
VERTEX
  5
8F31
  8
AM_0
 10
448.66053404482699
 20
115.38810569514131
 30
0.0
 70
    32
  0
VERTEX
  5
8F32
  8
AM_0
 10
448.65553404482711
 20
115.3871056951413
 30
0.0
 70
    32
  0
VERTEX
  5
8F33
  8
AM_0
 10
448.6515340448272
 20
115.3871056951413
 30
0.0
 70
    32
  0
VERTEX
  5
8F34
  8
AM_0
 10
448.64753404482713
 20
115.38610569514231
 30
0.0
 70
    32
  0
VERTEX
  5
8F35
  8
AM_0
 10
448.64353404482722
 20
115.38510569514141
 30
0.0
 70
    32
  0
VERTEX
  5
8F36
  8
AM_0
 10
448.63953404482709
 20
115.38510569514141
 30
0.0
 70
    32
  0
VERTEX
  5
8F37
  8
AM_0
 10
448.63453404482721
 20
115.38410569514031
 30
0.0
 70
    32
  0
VERTEX
  5
8F38
  8
AM_0
 10
448.63053404482707
 20
115.3831056951412
 30
0.0
 70
    32
  0
VERTEX
  5
8F39
  8
AM_0
 10
448.626534044827
 20
115.3831056951412
 30
0.0
 70
    32
  0
VERTEX
  5
8F3A
  8
AM_0
 10
448.6225340448272
 20
115.38210569514121
 30
0.0
 70
    32
  0
VERTEX
  5
8F3B
  8
AM_0
 10
448.61753404482698
 20
115.3811056951412
 30
0.0
 70
    32
  0
VERTEX
  5
8F3C
  8
AM_0
 10
448.61353404482719
 20
115.3811056951412
 30
0.0
 70
    32
  0
VERTEX
  5
8F3D
  8
AM_0
 10
448.60953404482711
 20
115.3801056951401
 30
0.0
 70
    32
  0
VERTEX
  5
8F3E
  8
AM_0
 10
448.60553404482721
 20
115.37910569514131
 30
0.0
 70
    32
  0
VERTEX
  5
8F3F
  8
AM_0
 10
448.60153404482702
 20
115.3781056951413
 30
0.0
 70
    32
  0
VERTEX
  5
8F40
  8
AM_0
 10
448.59653404482719
 20
115.3781056951413
 30
0.0
 70
    32
  0
VERTEX
  5
8F41
  8
AM_0
 10
448.59253404482689
 20
115.3771056951413
 30
0.0
 70
    32
  0
VERTEX
  5
8F42
  8
AM_0
 10
448.5885340448271
 20
115.3761056951423
 30
0.0
 70
    32
  0
VERTEX
  5
8F43
  8
AM_0
 10
448.58453404482708
 20
115.3761056951423
 30
0.0
 70
    32
  0
VERTEX
  5
8F44
  8
AM_0
 10
448.58053404482712
 20
115.37510569514021
 30
0.0
 70
    32
  0
VERTEX
  5
8F45
  8
AM_0
 10
448.57553404482712
 20
115.3741056951403
 30
0.0
 70
    32
  0
VERTEX
  5
8F46
  8
AM_0
 10
448.5715340448271
 20
115.37310569514121
 30
0.0
 70
    32
  0
VERTEX
  5
8F47
  8
AM_0
 10
448.56753404482708
 20
115.37310569514121
 30
0.0
 70
    32
  0
VERTEX
  5
8F48
  8
AM_0
 10
448.56353404482701
 20
115.3721056951412
 30
0.0
 70
    32
  0
VERTEX
  5
8F49
  8
AM_0
 10
448.5595340448271
 20
115.3711056951401
 30
0.0
 70
    32
  0
VERTEX
  5
8F4A
  8
AM_0
 10
448.55453404482688
 20
115.37010569514131
 30
0.0
 70
    32
  0
VERTEX
  5
8F4B
  8
AM_0
 10
448.55053404482709
 20
115.37010569514131
 30
0.0
 70
    32
  0
VERTEX
  5
8F4C
  8
AM_0
 10
448.54653404482713
 20
115.3691056951413
 30
0.0
 70
    32
  0
VERTEX
  5
8F4D
  8
AM_0
 10
448.54253404482711
 20
115.3681056951413
 30
0.0
 70
    32
  0
VERTEX
  5
8F4E
  8
AM_0
 10
448.5385340448272
 20
115.3671056951423
 30
0.0
 70
    32
  0
VERTEX
  5
8F4F
  8
AM_0
 10
448.53353404482709
 20
115.3671056951423
 30
0.0
 70
    32
  0
VERTEX
  5
8F50
  8
AM_0
 10
448.52953404482719
 20
115.3661056951414
 30
0.0
 70
    32
  0
VERTEX
  5
8F51
  8
AM_0
 10
448.52553404482688
 20
115.3651056951423
 30
0.0
 70
    32
  0
VERTEX
  5
8F52
  8
AM_0
 10
448.52153404482698
 20
115.36410569514121
 30
0.0
 70
    32
  0
VERTEX
  5
8F53
  8
AM_0
 10
448.51753404482719
 20
115.36410569514121
 30
0.0
 70
    32
  0
VERTEX
  5
8F54
  8
AM_0
 10
448.51253404482708
 20
115.36310569514031
 30
0.0
 70
    32
  0
VERTEX
  5
8F55
  8
AM_0
 10
448.50853404482717
 20
115.3621056951403
 30
0.0
 70
    32
  0
VERTEX
  5
8F56
  8
AM_0
 10
448.50453404482693
 20
115.3611056951413
 30
0.0
 70
    32
  0
VERTEX
  5
8F57
  8
AM_0
 10
448.50053404482719
 20
115.3601056951413
 30
0.0
 70
    32
  0
VERTEX
  5
8F58
  8
AM_0
 10
448.49653404482689
 20
115.3601056951413
 30
0.0
 70
    32
  0
VERTEX
  5
8F59
  8
AM_0
 10
448.49153404482718
 20
115.3591056951413
 30
0.0
 70
    32
  0
VERTEX
  5
8F5A
  8
AM_0
 10
448.4875340448271
 20
115.3581056951413
 30
0.0
 70
    32
  0
VERTEX
  5
8F5B
  8
AM_0
 10
448.48353404482708
 20
115.35710569514229
 30
0.0
 70
    32
  0
VERTEX
  5
8F5C
  8
AM_0
 10
448.47953404482712
 20
115.3561056951402
 30
0.0
 70
    32
  0
VERTEX
  5
8F5D
  8
AM_0
 10
448.4755340448271
 20
115.3561056951402
 30
0.0
 70
    32
  0
VERTEX
  5
8F5E
  8
AM_0
 10
448.47053404482722
 20
115.35510569514121
 30
0.0
 70
    32
  0
VERTEX
  5
8F5F
  8
AM_0
 10
448.46653404482709
 20
115.3541056951412
 30
0.0
 70
    32
  0
VERTEX
  5
8F60
  8
AM_0
 10
448.46253404482712
 20
115.3531056951412
 30
0.0
 70
    32
  0
VERTEX
  5
8F61
  8
AM_0
 10
448.45853404482688
 20
115.3521056951412
 30
0.0
 70
    32
  0
VERTEX
  5
8F62
  8
AM_0
 10
448.45453404482708
 20
115.3511056951413
 30
0.0
 70
    32
  0
VERTEX
  5
8F63
  8
AM_0
 10
448.45053404482712
 20
115.3511056951413
 30
0.0
 70
    32
  0
VERTEX
  5
8F64
  8
AM_0
 10
448.44553404482701
 20
115.35010569514129
 30
0.0
 70
    32
  0
VERTEX
  5
8F65
  8
AM_0
 10
448.44153404482722
 20
115.3491056951422
 30
0.0
 70
    32
  0
VERTEX
  5
8F66
  8
AM_0
 10
448.43753404482709
 20
115.34810569514219
 30
0.0
 70
    32
  0
VERTEX
  5
8F67
  8
AM_0
 10
448.43353404482713
 20
115.3471056951402
 30
0.0
 70
    32
  0
VERTEX
  5
8F68
  8
AM_0
 10
448.42953404482688
 20
115.3461056951423
 30
0.0
 70
    32
  0
VERTEX
  5
8F69
  8
AM_0
 10
448.424534044827
 20
115.3451056951412
 30
0.0
 70
    32
  0
VERTEX
  5
8F6A
  8
AM_0
 10
448.42053404482721
 20
115.3451056951412
 30
0.0
 70
    32
  0
VERTEX
  5
8F6B
  8
AM_0
 10
448.41653404482707
 20
115.3441056951403
 30
0.0
 70
    32
  0
VERTEX
  5
8F6C
  8
AM_0
 10
448.41253404482711
 20
115.3431056951412
 30
0.0
 70
    32
  0
VERTEX
  5
8F6D
  8
AM_0
 10
448.40853404482692
 20
115.3421056951412
 30
0.0
 70
    32
  0
VERTEX
  5
8F6E
  8
AM_0
 10
448.40453404482719
 20
115.34110569514129
 30
0.0
 70
    32
  0
VERTEX
  5
8F6F
  8
AM_0
 10
448.39953404482702
 20
115.3401056951413
 30
0.0
 70
    32
  0
VERTEX
  5
8F70
  8
AM_0
 10
448.39553404482717
 20
115.3391056951413
 30
0.0
 70
    32
  0
VERTEX
  5
8F71
  8
AM_0
 10
448.3915340448271
 20
115.3381056951423
 30
0.0
 70
    32
  0
VERTEX
  5
8F72
  8
AM_0
 10
448.38753404482708
 20
115.3371056951423
 30
0.0
 70
    32
  0
VERTEX
  5
8F73
  8
AM_0
 10
448.38353404482717
 20
115.3371056951423
 30
0.0
 70
    32
  0
VERTEX
  5
8F74
  8
AM_0
 10
448.3795340448271
 20
115.33610569514229
 30
0.0
 70
    32
  0
VERTEX
  5
8F75
  8
AM_0
 10
448.37453404482721
 20
115.3351056951403
 30
0.0
 70
    32
  0
VERTEX
  5
8F76
  8
AM_0
 10
448.37053404482702
 20
115.3341056951412
 30
0.0
 70
    32
  0
VERTEX
  5
8F77
  8
AM_0
 10
448.36653404482712
 20
115.3331056951412
 30
0.0
 70
    32
  0
VERTEX
  5
8F78
  8
AM_0
 10
448.36253404482733
 20
115.33210569514119
 30
0.0
 70
    32
  0
VERTEX
  5
8F79
  8
AM_0
 10
448.35853404482708
 20
115.3311056951413
 30
0.0
 70
    32
  0
VERTEX
  5
8F7A
  8
AM_0
 10
448.35453404482712
 20
115.33010569514219
 30
0.0
 70
    32
  0
VERTEX
  5
8F7B
  8
AM_0
 10
448.34953404482701
 20
115.3291056951402
 30
0.0
 70
    32
  0
VERTEX
  5
8F7C
  8
AM_0
 10
448.34553404482722
 20
115.3281056951414
 30
0.0
 70
    32
  0
VERTEX
  5
8F7D
  8
AM_0
 10
448.34153404482709
 20
115.32710569514229
 30
0.0
 70
    32
  0
VERTEX
  5
8F7E
  8
AM_0
 10
448.33753404482712
 20
115.3261056951403
 30
0.0
 70
    32
  0
VERTEX
  5
8F7F
  8
AM_0
 10
448.33353404482688
 20
115.32510569514019
 30
0.0
 70
    32
  0
VERTEX
  5
8F80
  8
AM_0
 10
448.32953404482708
 20
115.3241056951412
 30
0.0
 70
    32
  0
VERTEX
  5
8F81
  8
AM_0
 10
448.3245340448272
 20
115.32310569514129
 30
0.0
 70
    32
  0
VERTEX
  5
8F82
  8
AM_0
 10
448.32053404482713
 20
115.3221056951422
 30
0.0
 70
    32
  0
VERTEX
  5
8F83
  8
AM_0
 10
448.31653404482722
 20
115.3211056951413
 30
0.0
 70
    32
  0
VERTEX
  5
8F84
  8
AM_0
 10
448.31253404482692
 20
115.3201056951402
 30
0.0
 70
    32
  0
VERTEX
  5
8F85
  8
AM_0
 10
448.30853404482718
 20
115.3191056951422
 30
0.0
 70
    32
  0
VERTEX
  5
8F86
  8
AM_0
 10
448.30453404482688
 20
115.31810569514229
 30
0.0
 70
    32
  0
VERTEX
  5
8F87
  8
AM_0
 10
448.30053404482709
 20
115.3171056951403
 30
0.0
 70
    32
  0
VERTEX
  5
8F88
  8
AM_0
 10
448.29553404482709
 20
115.3161056951412
 30
0.0
 70
    32
  0
VERTEX
  5
8F89
  8
AM_0
 10
448.29153404482707
 20
115.3151056951412
 30
0.0
 70
    32
  0
VERTEX
  5
8F8A
  8
AM_0
 10
448.28753404482723
 20
115.31410569514119
 30
0.0
 70
    32
  0
VERTEX
  5
8F8B
  8
AM_0
 10
448.28353404482709
 20
115.3131056951413
 30
0.0
 70
    32
  0
VERTEX
  5
8F8C
  8
AM_0
 10
448.27953404482707
 20
115.3121056951413
 30
0.0
 70
    32
  0
VERTEX
  5
8F8D
  8
AM_0
 10
448.27553404482688
 20
115.3111056951402
 30
0.0
 70
    32
  0
VERTEX
  5
8F8E
  8
AM_0
 10
448.27053404482712
 20
115.3101056951422
 30
0.0
 70
    32
  0
VERTEX
  5
8F8F
  8
AM_0
 10
448.26653404482732
 20
115.3091056951413
 30
0.0
 70
    32
  0
VERTEX
  5
8F90
  8
AM_0
 10
448.26253404482708
 20
115.3081056951423
 30
0.0
 70
    32
  0
VERTEX
  5
8F91
  8
AM_0
 10
448.25853404482712
 20
115.3071056951412
 30
0.0
 70
    32
  0
VERTEX
  5
8F92
  8
AM_0
 10
448.2545340448271
 20
115.3061056951403
 30
0.0
 70
    32
  0
VERTEX
  5
8F93
  8
AM_0
 10
448.25053404482708
 20
115.30510569514119
 30
0.0
 70
    32
  0
VERTEX
  5
8F94
  8
AM_0
 10
448.24653404482689
 20
115.3041056951412
 30
0.0
 70
    32
  0
VERTEX
  5
8F95
  8
AM_0
 10
448.2425340448271
 20
115.30310569514219
 30
0.0
 70
    32
  0
VERTEX
  5
8F96
  8
AM_0
 10
448.23753404482721
 20
115.3021056951402
 30
0.0
 70
    32
  0
VERTEX
  5
8F97
  8
AM_0
 10
448.23353404482708
 20
115.3011056951413
 30
0.0
 70
    32
  0
VERTEX
  5
8F98
  8
AM_0
 10
448.22953404482712
 20
115.30010569514219
 30
0.0
 70
    32
  0
VERTEX
  5
8F99
  8
AM_0
 10
448.22553404482687
 20
115.29810569514019
 30
0.0
 70
    32
  0
VERTEX
  5
8F9A
  8
AM_0
 10
448.22153404482719
 20
115.2971056951412
 30
0.0
 70
    32
  0
VERTEX
  5
8F9B
  8
AM_0
 10
448.21753404482712
 20
115.29610569514119
 30
0.0
 70
    32
  0
VERTEX
  5
8F9C
  8
AM_0
 10
448.21353404482699
 20
115.2951056951412
 30
0.0
 70
    32
  0
VERTEX
  5
8F9D
  8
AM_0
 10
448.20953404482719
 20
115.2941056951412
 30
0.0
 70
    32
  0
VERTEX
  5
8F9E
  8
AM_0
 10
448.20453404482708
 20
115.2931056951401
 30
0.0
 70
    32
  0
VERTEX
  5
8F9F
  8
AM_0
 10
448.20053404482718
 20
115.2921056951422
 30
0.0
 70
    32
  0
VERTEX
  5
8FA0
  8
AM_0
 10
448.1965340448271
 20
115.29110569514221
 30
0.0
 70
    32
  0
VERTEX
  5
8FA1
  8
AM_0
 10
448.19253404482708
 20
115.29010569514131
 30
0.0
 70
    32
  0
VERTEX
  5
8FA2
  8
AM_0
 10
448.18853404482701
 20
115.2881056951414
 30
0.0
 70
    32
  0
VERTEX
  5
8FA3
  8
AM_0
 10
448.18453404482722
 20
115.2871056951403
 30
0.0
 70
    32
  0
VERTEX
  5
8FA4
  8
AM_0
 10
448.18053404482708
 20
115.2861056951412
 30
0.0
 70
    32
  0
VERTEX
  5
8FA5
  8
AM_0
 10
448.17653404482712
 20
115.2851056951412
 30
0.0
 70
    32
  0
VERTEX
  5
8FA6
  8
AM_0
 10
448.17153404482713
 20
115.2841056951401
 30
0.0
 70
    32
  0
VERTEX
  5
8FA7
  8
AM_0
 10
448.16753404482711
 20
115.2831056951413
 30
0.0
 70
    32
  0
VERTEX
  5
8FA8
  8
AM_0
 10
448.1635340448272
 20
115.2821056951413
 30
0.0
 70
    32
  0
VERTEX
  5
8FA9
  8
AM_0
 10
448.15953404482701
 20
115.28010569514019
 30
0.0
 70
    32
  0
VERTEX
  5
8FAA
  8
AM_0
 10
448.15553404482711
 20
115.2791056951402
 30
0.0
 70
    32
  0
VERTEX
  5
8FAB
  8
AM_0
 10
448.15153404482732
 20
115.27810569514121
 30
0.0
 70
    32
  0
VERTEX
  5
8FAC
  8
AM_0
 10
448.14753404482713
 20
115.2771056951412
 30
0.0
 70
    32
  0
VERTEX
  5
8FAD
  8
AM_0
 10
448.14353404482722
 20
115.2761056951412
 30
0.0
 70
    32
  0
VERTEX
  5
8FAE
  8
AM_0
 10
448.13953404482709
 20
115.2751056951401
 30
0.0
 70
    32
  0
VERTEX
  5
8FAF
  8
AM_0
 10
448.13553404482712
 20
115.27310569514221
 30
0.0
 70
    32
  0
VERTEX
  5
8FB0
  8
AM_0
 10
448.13053404482707
 20
115.2721056951422
 30
0.0
 70
    32
  0
VERTEX
  5
8FB1
  8
AM_0
 10
448.126534044827
 20
115.27110569514021
 30
0.0
 70
    32
  0
VERTEX
  5
8FB2
  8
AM_0
 10
448.1225340448272
 20
115.2701056951414
 30
0.0
 70
    32
  0
VERTEX
  5
8FB3
  8
AM_0
 10
448.11853404482707
 20
115.26910569514141
 30
0.0
 70
    32
  0
VERTEX
  5
8FB4
  8
AM_0
 10
448.11453404482711
 20
115.2671056951412
 30
0.0
 70
    32
  0
VERTEX
  5
8FB5
  8
AM_0
 10
448.11053404482692
 20
115.26610569514121
 30
0.0
 70
    32
  0
VERTEX
  5
8FB6
  8
AM_0
 10
448.10653404482719
 20
115.2651056951422
 30
0.0
 70
    32
  0
VERTEX
  5
8FB7
  8
AM_0
 10
448.10253404482688
 20
115.2641056951413
 30
0.0
 70
    32
  0
VERTEX
  5
8FB8
  8
AM_0
 10
448.09853404482698
 20
115.2621056951422
 30
0.0
 70
    32
  0
VERTEX
  5
8FB9
  8
AM_0
 10
448.09453404482713
 20
115.2611056951414
 30
0.0
 70
    32
  0
VERTEX
  5
8FBA
  8
AM_0
 10
448.09053404482711
 20
115.26010569514141
 30
0.0
 70
    32
  0
VERTEX
  5
8FBB
  8
AM_0
 10
448.08553404482711
 20
115.2591056951412
 30
0.0
 70
    32
  0
VERTEX
  5
8FBC
  8
AM_0
 10
448.08153404482709
 20
115.2571056951403
 30
0.0
 70
    32
  0
VERTEX
  5
8FBD
  8
AM_0
 10
448.07753404482708
 20
115.2561056951412
 30
0.0
 70
    32
  0
VERTEX
  5
8FBE
  8
AM_0
 10
448.07353404482689
 20
115.2551056951413
 30
0.0
 70
    32
  0
VERTEX
  5
8FBF
  8
AM_0
 10
448.06953404482709
 20
115.2541056951422
 30
0.0
 70
    32
  0
VERTEX
  5
8FC0
  8
AM_0
 10
448.06553404482707
 20
115.2521056951413
 30
0.0
 70
    32
  0
VERTEX
  5
8FC1
  8
AM_0
 10
448.06153404482711
 20
115.2511056951414
 30
0.0
 70
    32
  0
VERTEX
  5
8FC2
  8
AM_0
 10
448.05753404482721
 20
115.2501056951414
 30
0.0
 70
    32
  0
VERTEX
  5
8FC3
  8
AM_0
 10
448.05353404482707
 20
115.2491056951412
 30
0.0
 70
    32
  0
VERTEX
  5
8FC4
  8
AM_0
 10
448.049534044827
 20
115.2471056951412
 30
0.0
 70
    32
  0
VERTEX
  5
8FC5
  8
AM_0
 10
448.04553404482721
 20
115.24610569514211
 30
0.0
 70
    32
  0
VERTEX
  5
8FC6
  8
AM_0
 10
448.04153404482707
 20
115.24510569514131
 30
0.0
 70
    32
  0
VERTEX
  5
8FC7
  8
AM_0
 10
448.03753404482711
 20
115.2431056951413
 30
0.0
 70
    32
  0
VERTEX
  5
8FC8
  8
AM_0
 10
448.03253404482712
 20
115.2421056951413
 30
0.0
 70
    32
  0
VERTEX
  5
8FC9
  8
AM_0
 10
448.02853404482721
 20
115.24110569514229
 30
0.0
 70
    32
  0
VERTEX
  5
8FCA
  8
AM_0
 10
448.02453404482702
 20
115.23910569514121
 30
0.0
 70
    32
  0
VERTEX
  5
8FCB
  8
AM_0
 10
448.02053404482717
 20
115.2381056951412
 30
0.0
 70
    32
  0
VERTEX
  5
8FCC
  8
AM_0
 10
448.01653404482721
 20
115.2371056951412
 30
0.0
 70
    32
  0
VERTEX
  5
8FCD
  8
AM_0
 10
448.01253404482708
 20
115.23510569514011
 30
0.0
 70
    32
  0
VERTEX
  5
8FCE
  8
AM_0
 10
448.00853404482717
 20
115.2341056951413
 30
0.0
 70
    32
  0
VERTEX
  5
8FCF
  8
AM_0
 10
448.00453404482698
 20
115.2331056951413
 30
0.0
 70
    32
  0
VERTEX
  5
8FD0
  8
AM_0
 10
448.00053404482708
 20
115.23110569514139
 30
0.0
 70
    32
  0
VERTEX
  5
8FD1
  8
AM_0
 10
447.99653404482689
 20
115.2301056951403
 30
0.0
 70
    32
  0
VERTEX
  5
8FD2
  8
AM_0
 10
447.9925340448271
 20
115.2291056951403
 30
0.0
 70
    32
  0
VERTEX
  5
8FD3
  8
AM_0
 10
447.98853404482708
 20
115.2271056951422
 30
0.0
 70
    32
  0
VERTEX
  5
8FD4
  8
AM_0
 10
447.98453404482711
 20
115.22610569514011
 30
0.0
 70
    32
  0
VERTEX
  5
8FD5
  8
AM_0
 10
447.98053404482721
 20
115.22510569514129
 30
0.0
 70
    32
  0
VERTEX
  5
8FD6
  8
AM_0
 10
447.97653404482702
 20
115.2231056951413
 30
0.0
 70
    32
  0
VERTEX
  5
8FD7
  8
AM_0
 10
447.97253404482711
 20
115.2221056951423
 30
0.0
 70
    32
  0
VERTEX
  5
8FD8
  8
AM_0
 10
447.96853404482732
 20
115.2201056951412
 30
0.0
 70
    32
  0
VERTEX
  5
8FD9
  8
AM_0
 10
447.96453404482708
 20
115.2191056951412
 30
0.0
 70
    32
  0
VERTEX
  5
8FDA
  8
AM_0
 10
447.96053404482711
 20
115.2181056951412
 30
0.0
 70
    32
  0
VERTEX
  5
8FDB
  8
AM_0
 10
447.95653404482709
 20
115.21610569514129
 30
0.0
 70
    32
  0
VERTEX
  5
8FDC
  8
AM_0
 10
447.95253404482708
 20
115.2151056951413
 30
0.0
 70
    32
  0
VERTEX
  5
8FDD
  8
AM_0
 10
447.94853404482689
 20
115.21310569514139
 30
0.0
 70
    32
  0
VERTEX
  5
8FDE
  8
AM_0
 10
447.94453404482709
 20
115.2121056951414
 30
0.0
 70
    32
  0
VERTEX
  5
8FDF
  8
AM_0
 10
447.94053404482719
 20
115.21110569514229
 30
0.0
 70
    32
  0
VERTEX
  5
8FE0
  8
AM_0
 10
447.93653404482689
 20
115.20910569514029
 30
0.0
 70
    32
  0
VERTEX
  5
8FE1
  8
AM_0
 10
447.93253404482721
 20
115.20810569514011
 30
0.0
 70
    32
  0
VERTEX
  5
8FE2
  8
AM_0
 10
447.92753404482693
 20
115.2061056951413
 30
0.0
 70
    32
  0
VERTEX
  5
8FE3
  8
AM_0
 10
447.92353404482719
 20
115.2051056951413
 30
0.0
 70
    32
  0
VERTEX
  5
8FE4
  8
AM_0
 10
447.91953404482689
 20
115.2031056951423
 30
0.0
 70
    32
  0
VERTEX
  5
8FE5
  8
AM_0
 10
447.91553404482698
 20
115.2021056951402
 30
0.0
 70
    32
  0
VERTEX
  5
8FE6
  8
AM_0
 10
447.91153404482719
 20
115.2001056951412
 30
0.0
 70
    32
  0
VERTEX
  5
8FE7
  8
AM_0
 10
447.90753404482712
 20
115.1991056951403
 30
0.0
 70
    32
  0
VERTEX
  5
8FE8
  8
AM_0
 10
447.9035340448271
 20
115.1971056951413
 30
0.0
 70
    32
  0
VERTEX
  5
8FE9
  8
AM_0
 10
447.89953404482702
 20
115.1961056951413
 30
0.0
 70
    32
  0
VERTEX
  5
8FEA
  8
AM_0
 10
447.89553404482717
 20
115.1941056951413
 30
0.0
 70
    32
  0
VERTEX
  5
8FEB
  8
AM_0
 10
447.8915340448271
 20
115.1931056951402
 30
0.0
 70
    32
  0
VERTEX
  5
8FEC
  8
AM_0
 10
447.88753404482708
 20
115.19110569514029
 30
0.0
 70
    32
  0
VERTEX
  5
8FED
  8
AM_0
 10
447.88353404482712
 20
115.1901056951403
 30
0.0
 70
    32
  0
VERTEX
  5
8FEE
  8
AM_0
 10
447.8795340448271
 20
115.1881056951413
 30
0.0
 70
    32
  0
VERTEX
  5
8FEF
  8
AM_0
 10
447.87553404482708
 20
115.1871056951413
 30
0.0
 70
    32
  0
VERTEX
  5
8FF0
  8
AM_0
 10
447.87153404482689
 20
115.1851056951413
 30
0.0
 70
    32
  0
VERTEX
  5
8FF1
  8
AM_0
 10
447.8675340448271
 20
115.1841056951402
 30
0.0
 70
    32
  0
VERTEX
  5
8FF2
  8
AM_0
 10
447.86453404482711
 20
115.1821056951412
 30
0.0
 70
    32
  0
VERTEX
  5
8FF3
  8
AM_0
 10
447.86053404482709
 20
115.1811056951403
 30
0.0
 70
    32
  0
VERTEX
  5
8FF4
  8
AM_0
 10
447.85653404482707
 20
115.17910569514009
 30
0.0
 70
    32
  0
VERTEX
  5
8FF5
  8
AM_0
 10
447.85253404482688
 20
115.1781056951413
 30
0.0
 70
    32
  0
VERTEX
  5
8FF6
  8
AM_0
 10
447.84853404482709
 20
115.1761056951422
 30
0.0
 70
    32
  0
VERTEX
  5
8FF7
  8
AM_0
 10
447.84453404482718
 20
115.1751056951402
 30
0.0
 70
    32
  0
VERTEX
  5
8FF8
  8
AM_0
 10
447.84053404482688
 20
115.1731056951422
 30
0.0
 70
    32
  0
VERTEX
  5
8FF9
  8
AM_0
 10
447.8365340448272
 20
115.1711056951403
 30
0.0
 70
    32
  0
VERTEX
  5
8FFA
  8
AM_0
 10
447.83253404482713
 20
115.1701056951412
 30
0.0
 70
    32
  0
VERTEX
  5
8FFB
  8
AM_0
 10
447.82853404482699
 20
115.16810569514131
 30
0.0
 70
    32
  0
VERTEX
  5
8FFC
  8
AM_0
 10
447.8245340448272
 20
115.1671056951413
 30
0.0
 70
    32
  0
VERTEX
  5
8FFD
  8
AM_0
 10
447.82053404482713
 20
115.1651056951423
 30
0.0
 70
    32
  0
VERTEX
  5
8FFE
  8
AM_0
 10
447.81653404482711
 20
115.1631056951402
 30
0.0
 70
    32
  0
VERTEX
  5
8FFF
  8
AM_0
 10
447.81253404482692
 20
115.16210569514119
 30
0.0
 70
    32
  0
VERTEX
  5
9000
  8
AM_0
 10
447.80853404482718
 20
115.1601056951412
 30
0.0
 70
    32
  0
VERTEX
  5
9001
  8
AM_0
 10
447.80453404482688
 20
115.15910569514131
 30
0.0
 70
    32
  0
VERTEX
  5
9002
  8
AM_0
 10
447.80053404482709
 20
115.1571056951402
 30
0.0
 70
    32
  0
VERTEX
  5
9003
  8
AM_0
 10
447.79653404482713
 20
115.1551056951414
 30
0.0
 70
    32
  0
VERTEX
  5
9004
  8
AM_0
 10
447.79253404482711
 20
115.1541056951402
 30
0.0
 70
    32
  0
VERTEX
  5
9005
  8
AM_0
 10
447.78853404482709
 20
115.15210569514031
 30
0.0
 70
    32
  0
VERTEX
  5
9006
  8
AM_0
 10
447.78453404482701
 20
115.15010569514131
 30
0.0
 70
    32
  0
VERTEX
  5
9007
  8
AM_0
 10
447.78053404482711
 20
115.1491056951413
 30
0.0
 70
    32
  0
VERTEX
  5
9008
  8
AM_0
 10
447.7765340448272
 20
115.14710569514131
 30
0.0
 70
    32
  0
VERTEX
  5
9009
  8
AM_0
 10
447.7735340448271
 20
115.14510569514231
 30
0.0
 70
    32
  0
VERTEX
  5
900A
  8
AM_0
 10
447.76953404482708
 20
115.1441056951403
 30
0.0
 70
    32
  0
VERTEX
  5
900B
  8
AM_0
 10
447.76553404482701
 20
115.1421056951412
 30
0.0
 70
    32
  0
VERTEX
  5
900C
  8
AM_0
 10
447.7615340448271
 20
115.1401056951413
 30
0.0
 70
    32
  0
VERTEX
  5
900D
  8
AM_0
 10
447.7575340448272
 20
115.1391056951401
 30
0.0
 70
    32
  0
VERTEX
  5
900E
  8
AM_0
 10
447.75353404482701
 20
115.1371056951413
 30
0.0
 70
    32
  0
VERTEX
  5
900F
  8
AM_0
 10
447.74953404482721
 20
115.1351056951423
 30
0.0
 70
    32
  0
VERTEX
  5
9010
  8
AM_0
 10
447.74553404482708
 20
115.13410569514031
 30
0.0
 70
    32
  0
VERTEX
  5
9011
  8
AM_0
 10
447.74153404482712
 20
115.13210569514121
 30
0.0
 70
    32
  0
VERTEX
  5
9012
  8
AM_0
 10
447.73753404482721
 20
115.1301056951401
 30
0.0
 70
    32
  0
VERTEX
  5
9013
  8
AM_0
 10
447.73353404482708
 20
115.1281056951413
 30
0.0
 70
    32
  0
VERTEX
  5
9014
  8
AM_0
 10
447.72953404482718
 20
115.12710569514221
 30
0.0
 70
    32
  0
VERTEX
  5
9015
  8
AM_0
 10
447.72653404482702
 20
115.1251056951423
 30
0.0
 70
    32
  0
VERTEX
  5
9016
  8
AM_0
 10
447.72253404482723
 20
115.12310569514121
 30
0.0
 70
    32
  0
VERTEX
  5
9017
  8
AM_0
 10
447.71853404482709
 20
115.1211056951401
 30
0.0
 70
    32
  0
VERTEX
  5
9018
  8
AM_0
 10
447.71453404482708
 20
115.12010569514131
 30
0.0
 70
    32
  0
VERTEX
  5
9019
  8
AM_0
 10
447.71053404482723
 20
115.1181056951413
 30
0.0
 70
    32
  0
VERTEX
  5
901A
  8
AM_0
 10
447.70653404482698
 20
115.11610569514229
 30
0.0
 70
    32
  0
VERTEX
  5
901B
  8
AM_0
 10
447.70253404482708
 20
115.11410569514121
 30
0.0
 70
    32
  0
VERTEX
  5
901C
  8
AM_0
 10
447.69853404482689
 20
115.1131056951412
 30
0.0
 70
    32
  0
VERTEX
  5
901D
  8
AM_0
 10
447.69453404482709
 20
115.1111056951413
 30
0.0
 70
    32
  0
VERTEX
  5
901E
  8
AM_0
 10
447.69153404482722
 20
115.1091056951413
 30
0.0
 70
    32
  0
VERTEX
  5
901F
  8
AM_0
 10
447.68753404482709
 20
115.10710569514229
 30
0.0
 70
    32
  0
VERTEX
  5
9020
  8
AM_0
 10
447.68353404482713
 20
115.10510569514121
 30
0.0
 70
    32
  0
VERTEX
  5
9021
  8
AM_0
 10
447.67953404482688
 20
115.1041056951412
 30
0.0
 70
    32
  0
VERTEX
  5
9022
  8
AM_0
 10
447.67553404482709
 20
115.1021056951412
 30
0.0
 70
    32
  0
VERTEX
  5
9023
  8
AM_0
 10
447.67153404482713
 20
115.1001056951422
 30
0.0
 70
    32
  0
VERTEX
  5
9024
  8
AM_0
 10
447.66753404482711
 20
115.09810569514219
 30
0.0
 70
    32
  0
VERTEX
  5
9025
  8
AM_0
 10
447.66453404482701
 20
115.0961056951403
 30
0.0
 70
    32
  0
VERTEX
  5
9026
  8
AM_0
 10
447.66053404482687
 20
115.0951056951412
 30
0.0
 70
    32
  0
VERTEX
  5
9027
  8
AM_0
 10
447.65653404482708
 20
115.0931056951412
 30
0.0
 70
    32
  0
VERTEX
  5
9028
  8
AM_0
 10
447.65253404482712
 20
115.09110569514129
 30
0.0
 70
    32
  0
VERTEX
  5
9029
  8
AM_0
 10
447.64853404482687
 20
115.08910569514219
 30
0.0
 70
    32
  0
VERTEX
  5
902A
  8
AM_0
 10
447.6445340448272
 20
115.0871056951423
 30
0.0
 70
    32
  0
VERTEX
  5
902B
  8
AM_0
 10
447.64053404482712
 20
115.0851056951403
 30
0.0
 70
    32
  0
VERTEX
  5
902C
  8
AM_0
 10
447.63753404482708
 20
115.0831056951412
 30
0.0
 70
    32
  0
VERTEX
  5
902D
  8
AM_0
 10
447.63353404482712
 20
115.0811056951402
 30
0.0
 70
    32
  0
VERTEX
  5
902E
  8
AM_0
 10
447.62953404482693
 20
115.0801056951413
 30
0.0
 70
    32
  0
VERTEX
  5
902F
  8
AM_0
 10
447.62553404482719
 20
115.0781056951414
 30
0.0
 70
    32
  0
VERTEX
  5
9030
  8
AM_0
 10
447.62153404482689
 20
115.0761056951403
 30
0.0
 70
    32
  0
VERTEX
  5
9031
  8
AM_0
 10
447.61853404482707
 20
115.0741056951412
 30
0.0
 70
    32
  0
VERTEX
  5
9032
  8
AM_0
 10
447.61453404482722
 20
115.0721056951401
 30
0.0
 70
    32
  0
VERTEX
  5
9033
  8
AM_0
 10
447.61053404482698
 20
115.0701056951422
 30
0.0
 70
    32
  0
VERTEX
  5
9034
  8
AM_0
 10
447.60653404482707
 20
115.06810569514229
 30
0.0
 70
    32
  0
VERTEX
  5
9035
  8
AM_0
 10
447.60253404482688
 20
115.0661056951412
 30
0.0
 70
    32
  0
VERTEX
  5
9036
  8
AM_0
 10
447.59953404482712
 20
115.06410569514119
 30
0.0
 70
    32
  0
VERTEX
  5
9037
  8
AM_0
 10
447.59553404482722
 20
115.06210569514219
 30
0.0
 70
    32
  0
VERTEX
  5
9038
  8
AM_0
 10
447.59153404482697
 20
115.0601056951413
 30
0.0
 70
    32
  0
VERTEX
  5
9039
  8
AM_0
 10
447.58753404482712
 20
115.05810569514141
 30
0.0
 70
    32
  0
VERTEX
  5
903A
  8
AM_0
 10
447.58353404482688
 20
115.0561056951412
 30
0.0
 70
    32
  0
VERTEX
  5
903B
  8
AM_0
 10
447.58053404482712
 20
115.05410569514
 30
0.0
 70
    32
  0
VERTEX
  5
903C
  8
AM_0
 10
447.57653404482721
 20
115.0521056951422
 30
0.0
 70
    32
  0
VERTEX
  5
903D
  8
AM_0
 10
447.57253404482708
 20
115.0501056951413
 30
0.0
 70
    32
  0
VERTEX
  5
903E
  8
AM_0
 10
447.56853404482712
 20
115.0481056951414
 30
0.0
 70
    32
  0
VERTEX
  5
903F
  8
AM_0
 10
447.56453404482733
 20
115.04610569514119
 30
0.0
 70
    32
  0
VERTEX
  5
9040
  8
AM_0
 10
447.56153404482689
 20
115.04410569514221
 30
0.0
 70
    32
  0
VERTEX
  5
9041
  8
AM_0
 10
447.55753404482721
 20
115.0421056951413
 30
0.0
 70
    32
  0
VERTEX
  5
9042
  8
AM_0
 10
447.55353404482707
 20
115.04010569514141
 30
0.0
 70
    32
  0
VERTEX
  5
9043
  8
AM_0
 10
447.549534044827
 20
115.03810569514231
 30
0.0
 70
    32
  0
VERTEX
  5
9044
  8
AM_0
 10
447.54653404482718
 20
115.0361056951412
 30
0.0
 70
    32
  0
VERTEX
  5
9045
  8
AM_0
 10
447.54253404482699
 20
115.03410569514131
 30
0.0
 70
    32
  0
VERTEX
  5
9046
  8
AM_0
 10
447.5385340448272
 20
115.0321056951413
 30
0.0
 70
    32
  0
VERTEX
  5
9047
  8
AM_0
 10
447.53453404482701
 20
115.0301056951423
 30
0.0
 70
    32
  0
VERTEX
  5
9048
  8
AM_0
 10
447.53153404482708
 20
115.02810569514121
 30
0.0
 70
    32
  0
VERTEX
  5
9049
  8
AM_0
 10
447.52753404482718
 20
115.0261056951412
 30
0.0
 70
    32
  0
VERTEX
  5
904A
  8
AM_0
 10
447.52353404482699
 20
115.0241056951413
 30
0.0
 70
    32
  0
VERTEX
  5
904B
  8
AM_0
 10
447.52053404482717
 20
115.02210569514131
 30
0.0
 70
    32
  0
VERTEX
  5
904C
  8
AM_0
 10
447.5165340448271
 20
115.0191056951423
 30
0.0
 70
    32
  0
VERTEX
  5
904D
  8
AM_0
 10
447.51253404482708
 20
115.01710569514211
 30
0.0
 70
    32
  0
VERTEX
  5
904E
  8
AM_0
 10
447.50853404482717
 20
115.0151056951413
 30
0.0
 70
    32
  0
VERTEX
  5
904F
  8
AM_0
 10
447.50553404482702
 20
115.01310569514131
 30
0.0
 70
    32
  0
VERTEX
  5
9050
  8
AM_0
 10
447.50153404482722
 20
115.01110569514231
 30
0.0
 70
    32
  0
VERTEX
  5
9051
  8
AM_0
 10
447.49753404482709
 20
115.00910569514031
 30
0.0
 70
    32
  0
VERTEX
  5
9052
  8
AM_0
 10
447.49453404482711
 20
115.0071056951403
 30
0.0
 70
    32
  0
VERTEX
  5
9053
  8
AM_0
 10
447.49053404482709
 20
115.0051056951413
 30
0.0
 70
    32
  0
VERTEX
  5
9054
  8
AM_0
 10
447.48653404482701
 20
115.0021056951413
 30
0.0
 70
    32
  0
VERTEX
  5
9055
  8
AM_0
 10
447.48353404482708
 20
115.00010569514021
 30
0.0
 70
    32
  0
VERTEX
  5
9056
  8
AM_0
 10
447.47953404482712
 20
114.9981056951421
 30
0.0
 70
    32
  0
VERTEX
  5
9057
  8
AM_0
 10
447.4755340448271
 20
114.9961056951412
 30
0.0
 70
    32
  0
VERTEX
  5
9058
  8
AM_0
 10
447.47253404482711
 20
114.99410569514021
 30
0.0
 70
    32
  0
VERTEX
  5
9059
  8
AM_0
 10
447.46853404482732
 20
114.9911056951414
 30
0.0
 70
    32
  0
VERTEX
  5
905A
  8
AM_0
 10
447.46453404482708
 20
114.98910569514121
 30
0.0
 70
    32
  0
VERTEX
  5
905B
  8
AM_0
 10
447.4615340448272
 20
114.9871056951412
 30
0.0
 70
    32
  0
VERTEX
  5
905C
  8
AM_0
 10
447.45753404482713
 20
114.98510569514011
 30
0.0
 70
    32
  0
VERTEX
  5
905D
  8
AM_0
 10
447.45353404482699
 20
114.9831056951413
 30
0.0
 70
    32
  0
VERTEX
  5
905E
  8
AM_0
 10
447.45053404482712
 20
114.9801056951403
 30
0.0
 70
    32
  0
VERTEX
  5
905F
  8
AM_0
 10
447.44653404482688
 20
114.9781056951412
 30
0.0
 70
    32
  0
VERTEX
  5
9060
  8
AM_0
 10
447.4425340448272
 20
114.9761056951413
 30
0.0
 70
    32
  0
VERTEX
  5
9061
  8
AM_0
 10
447.43953404482721
 20
114.9741056951413
 30
0.0
 70
    32
  0
VERTEX
  5
9062
  8
AM_0
 10
447.43553404482708
 20
114.9711056951423
 30
0.0
 70
    32
  0
VERTEX
  5
9063
  8
AM_0
 10
447.43253404482721
 20
114.9691056951403
 30
0.0
 70
    32
  0
VERTEX
  5
9064
  8
AM_0
 10
447.42853404482702
 20
114.96710569514011
 30
0.0
 70
    32
  0
VERTEX
  5
9065
  8
AM_0
 10
447.42453404482723
 20
114.9651056951413
 30
0.0
 70
    32
  0
VERTEX
  5
9066
  8
AM_0
 10
447.42153404482718
 20
114.9621056951423
 30
0.0
 70
    32
  0
VERTEX
  5
9067
  8
AM_0
 10
447.41753404482711
 20
114.96010569514119
 30
0.0
 70
    32
  0
VERTEX
  5
9068
  8
AM_0
 10
447.41453404482718
 20
114.95810569514011
 30
0.0
 70
    32
  0
VERTEX
  5
9069
  8
AM_0
 10
447.41053404482699
 20
114.9551056951413
 30
0.0
 70
    32
  0
VERTEX
  5
906A
  8
AM_0
 10
447.40653404482708
 20
114.9531056951414
 30
0.0
 70
    32
  0
VERTEX
  5
906B
  8
AM_0
 10
447.40353404482721
 20
114.95110569514119
 30
0.0
 70
    32
  0
VERTEX
  5
906C
  8
AM_0
 10
447.39953404482691
 20
114.94810569514119
 30
0.0
 70
    32
  0
VERTEX
  5
906D
  8
AM_0
 10
447.39653404482709
 20
114.9461056951413
 30
0.0
 70
    32
  0
VERTEX
  5
906E
  8
AM_0
 10
447.39253404482707
 20
114.9441056951423
 30
0.0
 70
    32
  0
VERTEX
  5
906F
  8
AM_0
 10
447.38953404482709
 20
114.9411056951412
 30
0.0
 70
    32
  0
VERTEX
  5
9070
  8
AM_0
 10
447.38553404482712
 20
114.93910569514119
 30
0.0
 70
    32
  0
VERTEX
  5
9071
  8
AM_0
 10
447.38253404482708
 20
114.9361056951402
 30
0.0
 70
    32
  0
VERTEX
  5
9072
  8
AM_0
 10
447.37853404482712
 20
114.9341056951413
 30
0.0
 70
    32
  0
VERTEX
  5
9073
  8
AM_0
 10
447.37453404482721
 20
114.9321056951412
 30
0.0
 70
    32
  0
VERTEX
  5
9074
  8
AM_0
 10
447.37153404482689
 20
114.9291056951412
 30
0.0
 70
    32
  0
VERTEX
  5
9075
  8
AM_0
 10
447.3675340448271
 20
114.9271056951401
 30
0.0
 70
    32
  0
VERTEX
  5
9076
  8
AM_0
 10
447.36453404482711
 20
114.9241056951423
 30
0.0
 70
    32
  0
VERTEX
  5
9077
  8
AM_0
 10
447.36053404482709
 20
114.9221056951403
 30
0.0
 70
    32
  0
VERTEX
  5
9078
  8
AM_0
 10
447.35753404482699
 20
114.9191056951412
 30
0.0
 70
    32
  0
VERTEX
  5
9079
  8
AM_0
 10
447.3535340448272
 20
114.9171056951422
 30
0.0
 70
    32
  0
VERTEX
  5
907A
  8
AM_0
 10
447.35053404482687
 20
114.91510569514131
 30
0.0
 70
    32
  0
VERTEX
  5
907B
  8
AM_0
 10
447.34653404482719
 20
114.9121056951403
 30
0.0
 70
    32
  0
VERTEX
  5
907C
  8
AM_0
 10
447.34353404482721
 20
114.9101056951412
 30
0.0
 70
    32
  0
VERTEX
  5
907D
  8
AM_0
 10
447.33953404482708
 20
114.9071056951413
 30
0.0
 70
    32
  0
VERTEX
  5
907E
  8
AM_0
 10
447.3365340448272
 20
114.9051056951423
 30
0.0
 70
    32
  0
VERTEX
  5
907F
  8
AM_0
 10
447.33353404482699
 20
114.9021056951412
 30
0.0
 70
    32
  0
VERTEX
  5
9080
  8
AM_0
 10
447.32953404482708
 20
114.9001056951401
 30
0.0
 70
    32
  0
VERTEX
  5
9081
  8
AM_0
 10
447.32653404482699
 20
114.8971056951422
 30
0.0
 70
    32
  0
VERTEX
  5
9082
  8
AM_0
 10
447.32253404482702
 20
114.89510569514231
 30
0.0
 70
    32
  0
VERTEX
  5
9083
  8
AM_0
 10
447.31953404482698
 20
114.8921056951412
 30
0.0
 70
    32
  0
VERTEX
  5
9084
  8
AM_0
 10
447.31553404482707
 20
114.8901056951422
 30
0.0
 70
    32
  0
VERTEX
  5
9085
  8
AM_0
 10
447.31253404482698
 20
114.8871056951422
 30
0.0
 70
    32
  0
VERTEX
  5
9086
  8
AM_0
 10
447.30953404482722
 20
114.8841056951412
 30
0.0
 70
    32
  0
VERTEX
  5
9087
  8
AM_0
 10
447.30553404482708
 20
114.8821056951403
 30
0.0
 70
    32
  0
VERTEX
  5
9088
  8
AM_0
 10
447.3025340448271
 20
114.8791056951422
 30
0.0
 70
    32
  0
VERTEX
  5
9089
  8
AM_0
 10
447.29853404482708
 20
114.8771056951413
 30
0.0
 70
    32
  0
VERTEX
  5
908A
  8
AM_0
 10
447.29553404482721
 20
114.8741056951403
 30
0.0
 70
    32
  0
VERTEX
  5
908B
  8
AM_0
 10
447.29253404482711
 20
114.87110569514221
 30
0.0
 70
    32
  0
VERTEX
  5
908C
  8
AM_0
 10
447.2885340448272
 20
114.8691056951413
 30
0.0
 70
    32
  0
VERTEX
  5
908D
  8
AM_0
 10
447.28553404482687
 20
114.8661056951414
 30
0.0
 70
    32
  0
VERTEX
  5
908E
  8
AM_0
 10
447.28153404482708
 20
114.86410569514121
 30
0.0
 70
    32
  0
VERTEX
  5
908F
  8
AM_0
 10
447.27853404482721
 20
114.8611056951401
 30
0.0
 70
    32
  0
VERTEX
  5
9090
  8
AM_0
 10
447.27553404482688
 20
114.8581056951402
 30
0.0
 70
    32
  0
VERTEX
  5
9091
  8
AM_0
 10
447.27153404482709
 20
114.85610569514139
 30
0.0
 70
    32
  0
VERTEX
  5
9092
  8
AM_0
 10
447.26853404482722
 20
114.8531056951412
 30
0.0
 70
    32
  0
VERTEX
  5
9093
  8
AM_0
 10
447.26553404482701
 20
114.85010569514129
 30
0.0
 70
    32
  0
VERTEX
  5
9094
  8
AM_0
 10
447.26153404482699
 20
114.8481056951413
 30
0.0
 70
    32
  0
VERTEX
  5
9095
  8
AM_0
 10
447.25853404482712
 20
114.8451056951412
 30
0.0
 70
    32
  0
VERTEX
  5
9096
  8
AM_0
 10
447.25553404482707
 20
114.84210569514011
 30
0.0
 70
    32
  0
VERTEX
  5
9097
  8
AM_0
 10
447.25253404482709
 20
114.8391056951413
 30
0.0
 70
    32
  0
VERTEX
  5
9098
  8
AM_0
 10
447.24853404482718
 20
114.8371056951414
 30
0.0
 70
    32
  0
VERTEX
  5
9099
  8
AM_0
 10
447.24553404482702
 20
114.8341056951412
 30
0.0
 70
    32
  0
VERTEX
  5
909A
  8
AM_0
 10
447.24253404482698
 20
114.8311056951401
 30
0.0
 70
    32
  0
VERTEX
  5
909B
  8
AM_0
 10
447.23853404482719
 20
114.8281056951423
 30
0.0
 70
    32
  0
VERTEX
  5
909C
  8
AM_0
 10
447.23553404482692
 20
114.82610569514119
 30
0.0
 70
    32
  0
VERTEX
  5
909D
  8
AM_0
 10
447.2325340448271
 20
114.8231056951401
 30
0.0
 70
    32
  0
VERTEX
  5
909E
  8
AM_0
 10
447.22953404482718
 20
114.8201056951422
 30
0.0
 70
    32
  0
VERTEX
  5
909F
  8
AM_0
 10
447.22553404482699
 20
114.8171056951423
 30
0.0
 70
    32
  0
VERTEX
  5
90A0
  8
AM_0
 10
447.22253404482723
 20
114.8151056951403
 30
0.0
 70
    32
  0
VERTEX
  5
90A1
  8
AM_0
 10
447.21953404482718
 20
114.8121056951413
 30
0.0
 70
    32
  0
VERTEX
  5
90A2
  8
AM_0
 10
447.21653404482691
 20
114.80910569514231
 30
0.0
 70
    32
  0
VERTEX
  5
90A3
  8
AM_0
 10
447.2135340448271
 20
114.8061056951412
 30
0.0
 70
    32
  0
VERTEX
  5
90A4
  8
AM_0
 10
447.20953404482708
 20
114.8031056951413
 30
0.0
 70
    32
  0
VERTEX
  5
90A5
  8
AM_0
 10
447.20653404482709
 20
114.8001056951413
 30
0.0
 70
    32
  0
VERTEX
  5
90A6
  8
AM_0
 10
447.20353404482711
 20
114.7981056951423
 30
0.0
 70
    32
  0
VERTEX
  5
90A7
  8
AM_0
 10
447.20053404482712
 20
114.79510569514029
 30
0.0
 70
    32
  0
VERTEX
  5
90A8
  8
AM_0
 10
447.19753404482702
 20
114.7921056951413
 30
0.0
 70
    32
  0
VERTEX
  5
90A9
  8
AM_0
 10
447.19453404482709
 20
114.7891056951423
 30
0.0
 70
    32
  0
VERTEX
  5
90AA
  8
AM_0
 10
447.19153404482722
 20
114.78610569514019
 30
0.0
 70
    32
  0
VERTEX
  5
90AB
  8
AM_0
 10
447.18753404482709
 20
114.7831056951413
 30
0.0
 70
    32
  0
VERTEX
  5
90AC
  8
AM_0
 10
447.1845340448271
 20
114.7801056951414
 30
0.0
 70
    32
  0
VERTEX
  5
90AD
  8
AM_0
 10
447.18153404482712
 20
114.77710569514031
 30
0.0
 70
    32
  0
VERTEX
  5
90AE
  8
AM_0
 10
447.17853404482707
 20
114.7741056951413
 30
0.0
 70
    32
  0
VERTEX
  5
90AF
  8
AM_0
 10
447.17553404482709
 20
114.7711056951423
 30
0.0
 70
    32
  0
VERTEX
  5
90B0
  8
AM_0
 10
447.17253404482722
 20
114.76810569514031
 30
0.0
 70
    32
  0
VERTEX
  5
90B1
  8
AM_0
 10
447.16953404482689
 20
114.7651056951413
 30
0.0
 70
    32
  0
VERTEX
  5
90B2
  8
AM_0
 10
447.16653404482707
 20
114.7621056951413
 30
0.0
 70
    32
  0
VERTEX
  5
90B3
  8
AM_0
 10
447.1635340448272
 20
114.75910569514031
 30
0.0
 70
    32
  0
VERTEX
  5
90B4
  8
AM_0
 10
447.16053404482687
 20
114.7561056951412
 30
0.0
 70
    32
  0
VERTEX
  5
90B5
  8
AM_0
 10
447.15753404482689
 20
114.7531056951413
 30
0.0
 70
    32
  0
VERTEX
  5
90B6
  8
AM_0
 10
447.15453404482719
 20
114.75010569514031
 30
0.0
 70
    32
  0
VERTEX
  5
90B7
  8
AM_0
 10
447.1515340448272
 20
114.7471056951412
 30
0.0
 70
    32
  0
VERTEX
  5
90B8
  8
AM_0
 10
447.14853404482687
 20
114.7441056951422
 30
0.0
 70
    32
  0
VERTEX
  5
90B9
  8
AM_0
 10
447.14553404482712
 20
114.74110569514229
 30
0.0
 70
    32
  0
VERTEX
  5
90BA
  8
AM_0
 10
447.14253404482719
 20
114.7381056951412
 30
0.0
 70
    32
  0
VERTEX
  5
90BB
  8
AM_0
 10
447.13953404482692
 20
114.7351056951413
 30
0.0
 70
    32
  0
VERTEX
  5
90BC
  8
AM_0
 10
447.13653404482699
 20
114.73210569514229
 30
0.0
 70
    32
  0
VERTEX
  5
90BD
  8
AM_0
 10
447.13353404482717
 20
114.7291056951412
 30
0.0
 70
    32
  0
VERTEX
  5
90BE
  8
AM_0
 10
447.13053404482702
 20
114.7261056951413
 30
0.0
 70
    32
  0
VERTEX
  5
90BF
  8
AM_0
 10
447.12753404482709
 20
114.7231056951413
 30
0.0
 70
    32
  0
VERTEX
  5
90C0
  8
AM_0
 10
447.1245340448271
 20
114.7201056951412
 30
0.0
 70
    32
  0
VERTEX
  5
90C1
  8
AM_0
 10
447.12153404482689
 20
114.7171056951413
 30
0.0
 70
    32
  0
VERTEX
  5
90C2
  8
AM_0
 10
447.11853404482707
 20
114.7131056951402
 30
0.0
 70
    32
  0
VERTEX
  5
90C3
  8
AM_0
 10
447.11553404482709
 20
114.7101056951403
 30
0.0
 70
    32
  0
VERTEX
  5
90C4
  8
AM_0
 10
447.11253404482721
 20
114.70710569514129
 30
0.0
 70
    32
  0
VERTEX
  5
90C5
  8
AM_0
 10
447.11053404482709
 20
114.7041056951402
 30
0.0
 70
    32
  0
VERTEX
  5
90C6
  8
AM_0
 10
447.10753404482722
 20
114.7011056951403
 30
0.0
 70
    32
  0
VERTEX
  5
90C7
  8
AM_0
 10
447.10453404482712
 20
114.69810569514119
 30
0.0
 70
    32
  0
VERTEX
  5
90C8
  8
AM_0
 10
447.10153404482691
 20
114.6941056951422
 30
0.0
 70
    32
  0
VERTEX
  5
90C9
  8
AM_0
 10
447.0985340448272
 20
114.6911056951412
 30
0.0
 70
    32
  0
VERTEX
  5
90CA
  8
AM_0
 10
447.09553404482722
 20
114.6881056951412
 30
0.0
 70
    32
  0
VERTEX
  5
90CB
  8
AM_0
 10
447.09353404482732
 20
114.6851056951422
 30
0.0
 70
    32
  0
VERTEX
  5
90CC
  8
AM_0
 10
447.09053404482711
 20
114.6811056951412
 30
0.0
 70
    32
  0
VERTEX
  5
90CD
  8
AM_0
 10
447.08753404482712
 20
114.6781056951413
 30
0.0
 70
    32
  0
VERTEX
  5
90CE
  8
AM_0
 10
447.08453404482708
 20
114.6751056951413
 30
0.0
 70
    32
  0
VERTEX
  5
90CF
  8
AM_0
 10
447.08253404482701
 20
114.6721056951412
 30
0.0
 70
    32
  0
VERTEX
  5
90D0
  8
AM_0
 10
447.07953404482708
 20
114.6681056951401
 30
0.0
 70
    32
  0
VERTEX
  5
90D1
  8
AM_0
 10
447.07653404482721
 20
114.66510569514131
 30
0.0
 70
    32
  0
VERTEX
  5
90D2
  8
AM_0
 10
447.07453404482732
 20
114.66210569514119
 30
0.0
 70
    32
  0
VERTEX
  5
90D3
  8
AM_0
 10
447.0715340448271
 20
114.6581056951422
 30
0.0
 70
    32
  0
VERTEX
  5
90D4
  8
AM_0
 10
447.068534044827
 20
114.6551056951423
 30
0.0
 70
    32
  0
VERTEX
  5
90D5
  8
AM_0
 10
447.06653404482722
 20
114.6521056951412
 30
0.0
 70
    32
  0
VERTEX
  5
90D6
  8
AM_0
 10
447.06353404482712
 20
114.6481056951413
 30
0.0
 70
    32
  0
VERTEX
  5
90D7
  8
AM_0
 10
447.06053404482708
 20
114.6451056951414
 30
0.0
 70
    32
  0
VERTEX
  5
90D8
  8
AM_0
 10
447.05853404482718
 20
114.6421056951412
 30
0.0
 70
    32
  0
VERTEX
  5
90D9
  8
AM_0
 10
447.0555340448272
 20
114.63810569514131
 30
0.0
 70
    32
  0
VERTEX
  5
90DA
  8
AM_0
 10
447.05353404482707
 20
114.63510569514141
 30
0.0
 70
    32
  0
VERTEX
  5
90DB
  8
AM_0
 10
447.05053404482709
 20
114.6311056951421
 30
0.0
 70
    32
  0
VERTEX
  5
90DC
  8
AM_0
 10
447.04753404482722
 20
114.6281056951413
 30
0.0
 70
    32
  0
VERTEX
  5
90DD
  8
AM_0
 10
447.04553404482721
 20
114.6251056951423
 30
0.0
 70
    32
  0
VERTEX
  5
90DE
  8
AM_0
 10
447.04253404482711
 20
114.6211056951413
 30
0.0
 70
    32
  0
VERTEX
  5
90DF
  8
AM_0
 10
447.04053404482698
 20
114.6181056951413
 30
0.0
 70
    32
  0
VERTEX
  5
90E0
  8
AM_0
 10
447.03753404482723
 20
114.6141056951403
 30
0.0
 70
    32
  0
VERTEX
  5
90E1
  8
AM_0
 10
447.03553404482699
 20
114.6111056951413
 30
0.0
 70
    32
  0
VERTEX
  5
90E2
  8
AM_0
 10
447.03253404482712
 20
114.6071056951414
 30
0.0
 70
    32
  0
VERTEX
  5
90E3
  8
AM_0
 10
447.03053404482711
 20
114.6041056951421
 30
0.0
 70
    32
  0
VERTEX
  5
90E4
  8
AM_0
 10
447.02853404482698
 20
114.6001056951412
 30
0.0
 70
    32
  0
VERTEX
  5
90E5
  8
AM_0
 10
447.02553404482688
 20
114.59710569514139
 30
0.0
 70
    32
  0
VERTEX
  5
90E6
  8
AM_0
 10
447.0235340448271
 20
114.5931056951412
 30
0.0
 70
    32
  0
VERTEX
  5
90E7
  8
AM_0
 10
447.02053404482717
 20
114.5901056951413
 30
0.0
 70
    32
  0
VERTEX
  5
90E8
  8
AM_0
 10
447.01853404482722
 20
114.5861056951403
 30
0.0
 70
    32
  0
VERTEX
  5
90E9
  8
AM_0
 10
447.0165340448271
 20
114.58210569514129
 30
0.0
 70
    32
  0
VERTEX
  5
90EA
  8
AM_0
 10
447.01353404482711
 20
114.5791056951422
 30
0.0
 70
    32
  0
VERTEX
  5
90EB
  8
AM_0
 10
447.01153404482721
 20
114.57510569514029
 30
0.0
 70
    32
  0
VERTEX
  5
90EC
  8
AM_0
 10
447.00953404482709
 20
114.5721056951413
 30
0.0
 70
    32
  0
VERTEX
  5
90ED
  8
AM_0
 10
447.00653404482699
 20
114.5681056951402
 30
0.0
 70
    32
  0
VERTEX
  5
90EE
  8
AM_0
 10
447.0045340448271
 20
114.56410569514119
 30
0.0
 70
    32
  0
VERTEX
  5
90EF
  8
AM_0
 10
447.00253404482709
 20
114.56110569514129
 30
0.0
 70
    32
  0
VERTEX
  5
90F0
  8
AM_0
 10
447.00053404482708
 20
114.5571056951412
 30
0.0
 70
    32
  0
VERTEX
  5
90F1
  8
AM_0
 10
446.9975340448272
 20
114.5531056951413
 30
0.0
 70
    32
  0
VERTEX
  5
90F2
  8
AM_0
 10
446.99553404482708
 20
114.55010569514231
 30
0.0
 70
    32
  0
VERTEX
  5
90F3
  8
AM_0
 10
446.99353404482707
 20
114.54610569514119
 30
0.0
 70
    32
  0
VERTEX
  5
90F4
  8
AM_0
 10
446.99153404482712
 20
114.5421056951422
 30
0.0
 70
    32
  0
VERTEX
  5
90F5
  8
AM_0
 10
446.98953404482711
 20
114.5391056951423
 30
0.0
 70
    32
  0
VERTEX
  5
90F6
  8
AM_0
 10
446.98753404482733
 20
114.5351056951412
 30
0.0
 70
    32
  0
VERTEX
  5
90F7
  8
AM_0
 10
446.98553404482709
 20
114.5311056951422
 30
0.0
 70
    32
  0
VERTEX
  5
90F8
  8
AM_0
 10
446.9825340448271
 20
114.52810569514121
 30
0.0
 70
    32
  0
VERTEX
  5
90F9
  8
AM_0
 10
446.98053404482721
 20
114.5241056951413
 30
0.0
 70
    32
  0
VERTEX
  5
90FA
  8
AM_0
 10
446.97853404482731
 20
114.52010569514231
 30
0.0
 70
    32
  0
VERTEX
  5
90FB
  8
AM_0
 10
446.97653404482708
 20
114.51610569514121
 30
0.0
 70
    32
  0
VERTEX
  5
90FC
  8
AM_0
 10
446.97453404482701
 20
114.51310569514131
 30
0.0
 70
    32
  0
VERTEX
  5
90FD
  8
AM_0
 10
446.972534044827
 20
114.5091056951412
 30
0.0
 70
    32
  0
VERTEX
  5
90FE
  8
AM_0
 10
446.97053404482722
 20
114.5051056951401
 30
0.0
 70
    32
  0
VERTEX
  5
90FF
  8
AM_0
 10
446.96853404482721
 20
114.5011056951423
 30
0.0
 70
    32
  0
VERTEX
  5
9100
  8
AM_0
 10
446.96653404482709
 20
114.4971056951412
 30
0.0
 70
    32
  0
VERTEX
  5
9101
  8
AM_0
 10
446.96553404482688
 20
114.4941056951413
 30
0.0
 70
    32
  0
VERTEX
  5
9102
  8
AM_0
 10
446.96353404482699
 20
114.4901056951423
 30
0.0
 70
    32
  0
VERTEX
  5
9103
  8
AM_0
 10
446.9615340448272
 20
114.4861056951401
 30
0.0
 70
    32
  0
VERTEX
  5
9104
  8
AM_0
 10
446.95953404482719
 20
114.4821056951414
 30
0.0
 70
    32
  0
VERTEX
  5
9105
  8
AM_0
 10
446.95753404482713
 20
114.4781056951412
 30
0.0
 70
    32
  0
VERTEX
  5
9106
  8
AM_0
 10
446.95553404482712
 20
114.4741056951422
 30
0.0
 70
    32
  0
VERTEX
  5
9107
  8
AM_0
 10
446.95453404482708
 20
114.4701056951412
 30
0.0
 70
    32
  0
VERTEX
  5
9108
  8
AM_0
 10
446.95253404482719
 20
114.4671056951412
 30
0.0
 70
    32
  0
VERTEX
  5
9109
  8
AM_0
 10
446.95053404482718
 20
114.46310569514129
 30
0.0
 70
    32
  0
VERTEX
  5
910A
  8
AM_0
 10
446.94853404482711
 20
114.4591056951412
 30
0.0
 70
    32
  0
VERTEX
  5
910B
  8
AM_0
 10
446.94753404482702
 20
114.4551056951413
 30
0.0
 70
    32
  0
VERTEX
  5
910C
  8
AM_0
 10
446.94553404482713
 20
114.45110569514119
 30
0.0
 70
    32
  0
VERTEX
  5
910D
  8
AM_0
 10
446.94353404482717
 20
114.4471056951401
 30
0.0
 70
    32
  0
VERTEX
  5
910E
  8
AM_0
 10
446.9425340448272
 20
114.4431056951414
 30
0.0
 70
    32
  0
VERTEX
  5
910F
  8
AM_0
 10
446.94053404482719
 20
114.4391056951421
 30
0.0
 70
    32
  0
VERTEX
  5
9110
  8
AM_0
 10
446.93853404482701
 20
114.4351056951413
 30
0.0
 70
    32
  0
VERTEX
  5
9111
  8
AM_0
 10
446.93753404482692
 20
114.4311056951412
 30
0.0
 70
    32
  0
VERTEX
  5
9112
  8
AM_0
 10
446.93553404482708
 20
114.42710569514119
 30
0.0
 70
    32
  0
VERTEX
  5
9113
  8
AM_0
 10
446.9345340448271
 20
114.4231056951423
 30
0.0
 70
    32
  0
VERTEX
  5
9114
  8
AM_0
 10
446.93253404482698
 20
114.4191056951413
 30
0.0
 70
    32
  0
VERTEX
  5
9115
  8
AM_0
 10
446.93153404482717
 20
114.4151056951423
 30
0.0
 70
    32
  0
VERTEX
  5
9116
  8
AM_0
 10
446.92953404482688
 20
114.41110569514029
 30
0.0
 70
    32
  0
VERTEX
  5
9117
  8
AM_0
 10
446.92853404482702
 20
114.40710569514221
 30
0.0
 70
    32
  0
VERTEX
  5
9118
  8
AM_0
 10
446.9275340448271
 20
114.40310569514121
 30
0.0
 70
    32
  0
VERTEX
  5
9119
  8
AM_0
 10
446.92553404482709
 20
114.3991056951413
 30
0.0
 70
    32
  0
VERTEX
  5
911A
  8
AM_0
 10
446.92453404482723
 20
114.39510569514231
 30
0.0
 70
    32
  0
VERTEX
  5
911B
  8
AM_0
 10
446.92353404482708
 20
114.3911056951403
 30
0.0
 70
    32
  0
VERTEX
  5
911C
  8
AM_0
 10
446.92153404482713
 20
114.38710569514021
 30
0.0
 70
    32
  0
VERTEX
  5
911D
  8
AM_0
 10
446.92053404482709
 20
114.3831056951403
 30
0.0
 70
    32
  0
VERTEX
  5
911E
  8
AM_0
 10
446.91953404482689
 20
114.37910569514131
 30
0.0
 70
    32
  0
VERTEX
  5
911F
  8
AM_0
 10
446.91853404482691
 20
114.3741056951412
 30
0.0
 70
    32
  0
VERTEX
  5
9120
  8
AM_0
 10
446.91753404482711
 20
114.37010569514131
 30
0.0
 70
    32
  0
VERTEX
  5
9121
  8
AM_0
 10
446.91553404482721
 20
114.36610569514229
 30
0.0
 70
    32
  0
VERTEX
  5
9122
  8
AM_0
 10
446.91453404482712
 20
114.3621056951412
 30
0.0
 70
    32
  0
VERTEX
  5
9123
  8
AM_0
 10
446.91353404482709
 20
114.3581056951422
 30
0.0
 70
    32
  0
VERTEX
  5
9124
  8
AM_0
 10
446.91253404482711
 20
114.3541056951412
 30
0.0
 70
    32
  0
VERTEX
  5
9125
  8
AM_0
 10
446.91153404482708
 20
114.3501056951422
 30
0.0
 70
    32
  0
VERTEX
  5
9126
  8
AM_0
 10
446.91053404482699
 20
114.3461056951423
 30
0.0
 70
    32
  0
VERTEX
  5
9127
  8
AM_0
 10
446.90953404482701
 20
114.34110569514129
 30
0.0
 70
    32
  0
VERTEX
  5
9128
  8
AM_0
 10
446.90853404482709
 20
114.3371056951414
 30
0.0
 70
    32
  0
VERTEX
  5
9129
  8
AM_0
 10
446.90753404482712
 20
114.33310569514011
 30
0.0
 70
    32
  0
VERTEX
  5
912A
  8
AM_0
 10
446.90653404482708
 20
114.3291056951402
 30
0.0
 70
    32
  0
VERTEX
  5
912B
  8
AM_0
 10
446.90553404482711
 20
114.3251056951412
 30
0.0
 70
    32
  0
VERTEX
  5
912C
  8
AM_0
 10
446.90453404482707
 20
114.3211056951413
 30
0.0
 70
    32
  0
VERTEX
  5
912D
  8
AM_0
 10
446.90453404482707
 20
114.3161056951412
 30
0.0
 70
    32
  0
VERTEX
  5
912E
  8
AM_0
 10
446.90353404482721
 20
114.31210569514219
 30
0.0
 70
    32
  0
VERTEX
  5
912F
  8
AM_0
 10
446.90253404482712
 20
114.30810569514141
 30
0.0
 70
    32
  0
VERTEX
  5
9130
  8
AM_0
 10
446.90153404482709
 20
114.3041056951412
 30
0.0
 70
    32
  0
VERTEX
  5
9131
  8
AM_0
 10
446.90053404482688
 20
114.30010569514219
 30
0.0
 70
    32
  0
VERTEX
  5
9132
  8
AM_0
 10
446.90053404482688
 20
114.2951056951412
 30
0.0
 70
    32
  0
VERTEX
  5
9133
  8
AM_0
 10
446.89953404482702
 20
114.2911056951413
 30
0.0
 70
    32
  0
VERTEX
  5
9134
  8
AM_0
 10
446.8985340448271
 20
114.28710569514119
 30
0.0
 70
    32
  0
VERTEX
  5
9135
  8
AM_0
 10
446.8985340448271
 20
114.28310569514009
 30
0.0
 70
    32
  0
VERTEX
  5
9136
  8
AM_0
 10
446.89753404482713
 20
114.27810569514121
 30
0.0
 70
    32
  0
VERTEX
  5
9137
  8
AM_0
 10
446.89653404482709
 20
114.2741056951422
 30
0.0
 70
    32
  0
VERTEX
  5
9138
  8
AM_0
 10
446.89653404482709
 20
114.2701056951414
 30
0.0
 70
    32
  0
VERTEX
  5
9139
  8
AM_0
 10
446.89553404482712
 20
114.2661056951403
 30
0.0
 70
    32
  0
VERTEX
  5
913A
  8
AM_0
 10
446.89553404482712
 20
114.26110569514231
 30
0.0
 70
    32
  0
VERTEX
  5
913B
  8
AM_0
 10
446.89453404482708
 20
114.25710569514121
 30
0.0
 70
    32
  0
VERTEX
  5
913C
  8
AM_0
 10
446.89453404482708
 20
114.2531056951413
 30
0.0
 70
    32
  0
VERTEX
  5
913D
  8
AM_0
 10
446.89353404482722
 20
114.2491056951412
 30
0.0
 70
    32
  0
VERTEX
  5
913E
  8
AM_0
 10
446.89353404482722
 20
114.2441056951413
 30
0.0
 70
    32
  0
VERTEX
  5
913F
  8
AM_0
 10
446.89353404482722
 20
114.24010569514139
 30
0.0
 70
    32
  0
VERTEX
  5
9140
  8
AM_0
 10
446.89253404482707
 20
114.2361056951413
 30
0.0
 70
    32
  0
VERTEX
  5
9141
  8
AM_0
 10
446.89253404482707
 20
114.2321056951413
 30
0.0
 70
    32
  0
VERTEX
  5
9142
  8
AM_0
 10
446.89253404482707
 20
114.2271056951412
 30
0.0
 70
    32
  0
VERTEX
  5
9143
  8
AM_0
 10
446.89253404482707
 20
114.22310569514219
 30
0.0
 70
    32
  0
VERTEX
  5
9144
  8
AM_0
 10
446.89153404482732
 20
114.2191056951403
 30
0.0
 70
    32
  0
VERTEX
  5
9145
  8
AM_0
 10
446.89153404482732
 20
114.2151056951413
 30
0.0
 70
    32
  0
VERTEX
  5
9146
  8
AM_0
 10
446.89153404482732
 20
114.2101056951421
 30
0.0
 70
    32
  0
VERTEX
  5
9147
  8
AM_0
 10
446.89153404482732
 20
114.2061056951402
 30
0.0
 70
    32
  0
VERTEX
  5
9148
  8
AM_0
 10
446.89153404482732
 20
114.2021056951402
 30
0.0
 70
    32
  0
VERTEX
  5
9149
  8
AM_0
 10
446.89153404482732
 20
114.1971056951401
 30
0.0
 70
    32
  0
VERTEX
  5
914A
  8
AM_0
 10
446.89153404482732
 20
114.1931056951402
 30
0.0
 70
    32
  0
VERTEX
  5
914B
  8
AM_0
 10
446.89153404482732
 20
114.18910569514119
 30
0.0
 70
    32
  0
VERTEX
  5
914C
  8
AM_0
 10
446.89153404482732
 20
114.1851056951422
 30
0.0
 70
    32
  0
VERTEX
  5
914D
  8
AM_0
 10
446.89153404482732
 20
114.18010569514119
 30
0.0
 70
    32
  0
VERTEX
  5
914E
  8
AM_0
 10
446.89253404482707
 20
114.1761056951413
 30
0.0
 70
    32
  0
VERTEX
  5
914F
  8
AM_0
 10
446.89253404482707
 20
114.1721056951412
 30
0.0
 70
    32
  0
VERTEX
  5
9150
  8
AM_0
 10
446.89253404482707
 20
114.16810569514131
 30
0.0
 70
    32
  0
VERTEX
  5
9151
  8
AM_0
 10
446.89253404482707
 20
114.16310569514231
 30
0.0
 70
    32
  0
VERTEX
  5
9152
  8
AM_0
 10
446.89353404482722
 20
114.15910569514131
 30
0.0
 70
    32
  0
VERTEX
  5
9153
  8
AM_0
 10
446.89353404482722
 20
114.1551056951423
 30
0.0
 70
    32
  0
VERTEX
  5
9154
  8
AM_0
 10
446.89353404482722
 20
114.1511056951412
 30
0.0
 70
    32
  0
VERTEX
  5
9155
  8
AM_0
 10
446.89453404482708
 20
114.1461056951413
 30
0.0
 70
    32
  0
VERTEX
  5
9156
  8
AM_0
 10
446.89453404482708
 20
114.1421056951412
 30
0.0
 70
    32
  0
VERTEX
  5
9157
  8
AM_0
 10
446.89453404482708
 20
114.13810569514131
 30
0.0
 70
    32
  0
VERTEX
  5
9158
  8
AM_0
 10
446.89553404482712
 20
114.13410569514031
 30
0.0
 70
    32
  0
VERTEX
  5
9159
  8
AM_0
 10
446.89553404482712
 20
114.1291056951422
 30
0.0
 70
    32
  0
VERTEX
  5
915A
  8
AM_0
 10
446.89653404482709
 20
114.1251056951423
 30
0.0
 70
    32
  0
VERTEX
  5
915B
  8
AM_0
 10
446.89653404482709
 20
114.1211056951401
 30
0.0
 70
    32
  0
VERTEX
  5
915C
  8
AM_0
 10
446.89753404482713
 20
114.1171056951423
 30
0.0
 70
    32
  0
VERTEX
  5
915D
  8
AM_0
 10
446.89753404482713
 20
114.1121056951403
 30
0.0
 70
    32
  0
VERTEX
  5
915E
  8
AM_0
 10
446.8985340448271
 20
114.1081056951413
 30
0.0
 70
    32
  0
VERTEX
  5
915F
  8
AM_0
 10
446.8985340448271
 20
114.1041056951412
 30
0.0
 70
    32
  0
VERTEX
  5
9160
  8
AM_0
 10
446.89953404482702
 20
114.10010569514129
 30
0.0
 70
    32
  0
VERTEX
  5
9161
  8
AM_0
 10
446.89953404482702
 20
114.0951056951412
 30
0.0
 70
    32
  0
VERTEX
  5
9162
  8
AM_0
 10
446.90053404482688
 20
114.0911056951422
 30
0.0
 70
    32
  0
VERTEX
  5
9163
  8
AM_0
 10
446.90053404482688
 20
114.0871056951414
 30
0.0
 70
    32
  0
VERTEX
  5
9164
  8
AM_0
 10
446.90153404482709
 20
114.08310569514209
 30
0.0
 70
    32
  0
SEQEND
  5
9165
  8
AM_0
  0
LINE
  5
9166
  8
AM_0
 10
459.89158110990093
 20
115.4428424111163
 30
0.0
 11
449.391581109897
 21
115.4428424111163
 31
0.0
  0
LINE
  5
9167
  8
AM_0
 10
459.89158110990093
 20
66.732690892097253
 30
0.0
 11
458.42658110990089
 21
57.912690892098453
 31
0.0
  0
POLYLINE
  5
9168
  8
AM_0
 66
     1
 10
0.0
 20
0.0
 30
0.0
 70
     8
  0
VERTEX
  5
9169
  8
AM_0
 10
446.90153404482709
 20
69.322505695140308
 30
0.0
 70
    32
  0
VERTEX
  5
916A
  8
AM_0
 10
446.90253404482712
 20
69.318305695140225
 30
0.0
 70
    32
  0
VERTEX
  5
916B
  8
AM_0
 10
446.90353404482721
 20
69.31400569514129
 30
0.0
 70
    32
  0
VERTEX
  5
916C
  8
AM_0
 10
446.90453404482707
 20
69.309805695141222
 30
0.0
 70
    32
  0
VERTEX
  5
916D
  8
AM_0
 10
446.90553404482711
 20
69.305505695142301
 30
0.0
 70
    32
  0
VERTEX
  5
916E
  8
AM_0
 10
446.90653404482708
 20
69.301305695142219
 30
0.0
 70
    32
  0
VERTEX
  5
916F
  8
AM_0
 10
446.90753404482712
 20
69.297005695140342
 30
0.0
 70
    32
  0
VERTEX
  5
9170
  8
AM_0
 10
446.90853404482709
 20
69.292805695141396
 30
0.0
 70
    32
  0
VERTEX
  5
9171
  8
AM_0
 10
446.90953404482701
 20
69.288605695140177
 30
0.0
 70
    32
  0
VERTEX
  5
9172
  8
AM_0
 10
446.91053404482699
 20
69.284305695141256
 30
0.0
 70
    32
  0
VERTEX
  5
9173
  8
AM_0
 10
446.91153404482708
 20
69.280105695142311
 30
0.0
 70
    32
  0
VERTEX
  5
9174
  8
AM_0
 10
446.91253404482711
 20
69.275905695141319
 30
0.0
 70
    32
  0
VERTEX
  5
9175
  8
AM_0
 10
446.91353404482709
 20
69.271605695141261
 30
0.0
 70
    32
  0
VERTEX
  5
9176
  8
AM_0
 10
446.91453404482712
 20
69.267405695140255
 30
0.0
 70
    32
  0
VERTEX
  5
9177
  8
AM_0
 10
446.91553404482721
 20
69.263205695141323
 30
0.0
 70
    32
  0
VERTEX
  5
9178
  8
AM_0
 10
446.91653404482707
 20
69.259005695141241
 30
0.0
 70
    32
  0
VERTEX
  5
9179
  8
AM_0
 10
446.91753404482711
 20
69.254805695141386
 30
0.0
 70
    32
  0
VERTEX
  5
917A
  8
AM_0
 10
446.91953404482689
 20
69.250605695141303
 30
0.0
 70
    32
  0
VERTEX
  5
917B
  8
AM_0
 10
446.92053404482709
 20
69.24640569514122
 30
0.0
 70
    32
  0
VERTEX
  5
917C
  8
AM_0
 10
446.92153404482713
 20
69.24230569514134
 30
0.0
 70
    32
  0
VERTEX
  5
917D
  8
AM_0
 10
446.92253404482722
 20
69.238105695140348
 30
0.0
 70
    32
  0
VERTEX
  5
917E
  8
AM_0
 10
446.92353404482708
 20
69.233905695141402
 30
0.0
 70
    32
  0
VERTEX
  5
917F
  8
AM_0
 10
446.92553404482709
 20
69.229805695141295
 30
0.0
 70
    32
  0
VERTEX
  5
9180
  8
AM_0
 10
446.92653404482712
 20
69.225605695140288
 30
0.0
 70
    32
  0
VERTEX
  5
9181
  8
AM_0
 10
446.9275340448271
 20
69.221505695142241
 30
0.0
 70
    32
  0
VERTEX
  5
9182
  8
AM_0
 10
446.92953404482688
 20
69.217405695141224
 30
0.0
 70
    32
  0
VERTEX
  5
9183
  8
AM_0
 10
446.93053404482708
 20
69.213305695140207
 30
0.0
 70
    32
  0
VERTEX
  5
9184
  8
AM_0
 10
446.93153404482717
 20
69.209105695141261
 30
0.0
 70
    32
  0
VERTEX
  5
9185
  8
AM_0
 10
446.93353404482718
 20
69.205105695142265
 30
0.0
 70
    32
  0
VERTEX
  5
9186
  8
AM_0
 10
446.9345340448271
 20
69.201005695141248
 30
0.0
 70
    32
  0
VERTEX
  5
9187
  8
AM_0
 10
446.93653404482711
 20
69.196905695141368
 30
0.0
 70
    32
  0
VERTEX
  5
9188
  8
AM_0
 10
446.93753404482692
 20
69.192805695140351
 30
0.0
 70
    32
  0
VERTEX
  5
9189
  8
AM_0
 10
446.9395340448271
 20
69.188805695141355
 30
0.0
 70
    32
  0
VERTEX
  5
918A
  8
AM_0
 10
446.94053404482719
 20
69.184705695141247
 30
0.0
 70
    32
  0
VERTEX
  5
918B
  8
AM_0
 10
446.9425340448272
 20
69.180705695142251
 30
0.0
 70
    32
  0
VERTEX
  5
918C
  8
AM_0
 10
446.94453404482698
 20
69.176705695142346
 30
0.0
 70
    32
  0
VERTEX
  5
918D
  8
AM_0
 10
446.94553404482713
 20
69.172705695141303
 30
0.0
 70
    32
  0
VERTEX
  5
918E
  8
AM_0
 10
446.94753404482702
 20
69.168705695142293
 30
0.0
 70
    32
  0
VERTEX
  5
918F
  8
AM_0
 10
446.9495340448272
 20
69.164705695140356
 30
0.0
 70
    32
  0
VERTEX
  5
9190
  8
AM_0
 10
446.95153404482721
 20
69.160705695140223
 30
0.0
 70
    32
  0
VERTEX
  5
9191
  8
AM_0
 10
446.95253404482719
 20
69.156805695142339
 30
0.0
 70
    32
  0
VERTEX
  5
9192
  8
AM_0
 10
446.95453404482708
 20
69.152805695141296
 30
0.0
 70
    32
  0
VERTEX
  5
9193
  8
AM_0
 10
446.95653404482692
 20
69.148905695141366
 30
0.0
 70
    32
  0
VERTEX
  5
9194
  8
AM_0
 10
446.95853404482688
 20
69.144905695140324
 30
0.0
 70
    32
  0
VERTEX
  5
9195
  8
AM_0
 10
446.96053404482711
 20
69.141005695141303
 30
0.0
 70
    32
  0
VERTEX
  5
9196
  8
AM_0
 10
446.96253404482712
 20
69.137105695141358
 30
0.0
 70
    32
  0
VERTEX
  5
9197
  8
AM_0
 10
446.96453404482708
 20
69.133205695140319
 30
0.0
 70
    32
  0
VERTEX
  5
9198
  8
AM_0
 10
446.96653404482709
 20
69.129305695141284
 30
0.0
 70
    32
  0
VERTEX
  5
9199
  8
AM_0
 10
446.96853404482721
 20
69.125405695141353
 30
0.0
 70
    32
  0
VERTEX
  5
919A
  8
AM_0
 10
446.97053404482722
 20
69.121505695140286
 30
0.0
 70
    32
  0
VERTEX
  5
919B
  8
AM_0
 10
446.972534044827
 20
69.11770569514124
 30
0.0
 70
    32
  0
VERTEX
  5
919C
  8
AM_0
 10
446.97453404482701
 20
69.113805695142204
 30
0.0
 70
    32
  0
VERTEX
  5
919D
  8
AM_0
 10
446.97653404482708
 20
69.110005695142263
 30
0.0
 70
    32
  0
VERTEX
  5
919E
  8
AM_0
 10
446.97853404482731
 20
69.106205695142322
 30
0.0
 70
    32
  0
VERTEX
  5
919F
  8
AM_0
 10
446.98053404482721
 20
69.10230569514124
 30
0.0
 70
    32
  0
VERTEX
  5
91A0
  8
AM_0
 10
446.9825340448271
 20
69.098505695141284
 30
0.0
 70
    32
  0
VERTEX
  5
91A1
  8
AM_0
 10
446.98453404482711
 20
69.094705695141329
 30
0.0
 70
    32
  0
VERTEX
  5
91A2
  8
AM_0
 10
446.98653404482701
 20
69.091005695142258
 30
0.0
 70
    32
  0
VERTEX
  5
91A3
  8
AM_0
 10
446.98853404482708
 20
69.087205695142302
 30
0.0
 70
    32
  0
VERTEX
  5
91A4
  8
AM_0
 10
446.99153404482712
 20
69.083405695142346
 30
0.0
 70
    32
  0
VERTEX
  5
91A5
  8
AM_0
 10
446.99353404482707
 20
69.079705695140319
 30
0.0
 70
    32
  0
VERTEX
  5
91A6
  8
AM_0
 10
446.99553404482708
 20
69.075905695141273
 30
0.0
 70
    32
  0
VERTEX
  5
91A7
  8
AM_0
 10
446.9975340448272
 20
69.072205695141292
 30
0.0
 70
    32
  0
VERTEX
  5
91A8
  8
AM_0
 10
447.00053404482708
 20
69.068505695141312
 30
0.0
 70
    32
  0
VERTEX
  5
91A9
  8
AM_0
 10
447.00253404482709
 20
69.064705695140219
 30
0.0
 70
    32
  0
VERTEX
  5
91AA
  8
AM_0
 10
447.0045340448271
 20
69.061005695142285
 30
0.0
 70
    32
  0
VERTEX
  5
91AB
  8
AM_0
 10
447.00653404482699
 20
69.057405695141355
 30
0.0
 70
    32
  0
VERTEX
  5
91AC
  8
AM_0
 10
447.00953404482709
 20
69.053705695142298
 30
0.0
 70
    32
  0
VERTEX
  5
91AD
  8
AM_0
 10
447.01153404482721
 20
69.050005695140271
 30
0.0
 70
    32
  0
VERTEX
  5
91AE
  8
AM_0
 10
447.01353404482711
 20
69.046405695141402
 30
0.0
 70
    32
  0
VERTEX
  5
91AF
  8
AM_0
 10
447.0165340448271
 20
69.042705695142331
 30
0.0
 70
    32
  0
VERTEX
  5
91B0
  8
AM_0
 10
447.01853404482722
 20
69.039105695140279
 30
0.0
 70
    32
  0
VERTEX
  5
91B1
  8
AM_0
 10
447.02153404482698
 20
69.035405695140298
 30
0.0
 70
    32
  0
VERTEX
  5
91B2
  8
AM_0
 10
447.0235340448271
 20
69.031805695140292
 30
0.0
 70
    32
  0
VERTEX
  5
91B3
  8
AM_0
 10
447.02553404482688
 20
69.028205695142333
 30
0.0
 70
    32
  0
VERTEX
  5
91B4
  8
AM_0
 10
447.02853404482698
 20
69.024605695140281
 30
0.0
 70
    32
  0
VERTEX
  5
91B5
  8
AM_0
 10
447.03053404482711
 20
69.02110569514025
 30
0.0
 70
    32
  0
VERTEX
  5
91B6
  8
AM_0
 10
447.03353404482692
 20
69.017505695140244
 30
0.0
 70
    32
  0
VERTEX
  5
91B7
  8
AM_0
 10
447.03553404482699
 20
69.013905695141389
 30
0.0
 70
    32
  0
VERTEX
  5
91B8
  8
AM_0
 10
447.0385340448272
 20
69.010405695141344
 30
0.0
 70
    32
  0
VERTEX
  5
91B9
  8
AM_0
 10
447.04053404482698
 20
69.006905695141313
 30
0.0
 70
    32
  0
VERTEX
  5
91BA
  8
AM_0
 10
447.04353404482703
 20
69.003405695140373
 30
0.0
 70
    32
  0
VERTEX
  5
91BB
  8
AM_0
 10
447.04653404482718
 20
68.999805695141276
 30
0.0
 70
    32
  0
VERTEX
  5
91BC
  8
AM_0
 10
447.04853404482719
 20
68.99640569514122
 30
0.0
 70
    32
  0
VERTEX
  5
91BD
  8
AM_0
 10
447.05153404482712
 20
68.992905695142326
 30
0.0
 70
    32
  0
VERTEX
  5
91BE
  8
AM_0
 10
447.05353404482707
 20
68.989405695141386
 30
0.0
 70
    32
  0
VERTEX
  5
91BF
  8
AM_0
 10
447.05653404482712
 20
68.985905695141369
 30
0.0
 70
    32
  0
VERTEX
  5
91C0
  8
AM_0
 10
447.05953404482699
 20
68.982505695140148
 30
0.0
 70
    32
  0
VERTEX
  5
91C1
  8
AM_0
 10
447.06153404482689
 20
68.979005695141282
 30
0.0
 70
    32
  0
VERTEX
  5
91C2
  8
AM_0
 10
447.06453404482721
 20
68.975605695140288
 30
0.0
 70
    32
  0
VERTEX
  5
91C3
  8
AM_0
 10
447.0675340448272
 20
68.972205695141383
 30
0.0
 70
    32
  0
VERTEX
  5
91C4
  8
AM_0
 10
447.06953404482709
 20
68.968805695141327
 30
0.0
 70
    32
  0
VERTEX
  5
91C5
  8
AM_0
 10
447.07253404482708
 20
68.965405695140362
 30
0.0
 70
    32
  0
VERTEX
  5
91C6
  8
AM_0
 10
447.07553404482712
 20
68.96200569514032
 30
0.0
 70
    32
  0
VERTEX
  5
91C7
  8
AM_0
 10
447.07853404482711
 20
68.958705695142271
 30
0.0
 70
    32
  0
VERTEX
  5
91C8
  8
AM_0
 10
447.08053404482712
 20
68.955305695141291
 30
0.0
 70
    32
  0
VERTEX
  5
91C9
  8
AM_0
 10
447.08353404482688
 20
68.952005695141224
 30
0.0
 70
    32
  0
VERTEX
  5
91CA
  8
AM_0
 10
447.0865340448272
 20
68.948605695141396
 30
0.0
 70
    32
  0
VERTEX
  5
91CB
  8
AM_0
 10
447.08953404482708
 20
68.945305695142224
 30
0.0
 70
    32
  0
VERTEX
  5
91CC
  8
AM_0
 10
447.09153404482709
 20
68.942005695141233
 30
0.0
 70
    32
  0
VERTEX
  5
91CD
  8
AM_0
 10
447.09453404482713
 20
68.938705695142289
 30
0.0
 70
    32
  0
VERTEX
  5
91CE
  8
AM_0
 10
447.09753404482711
 20
68.935405695141284
 30
0.0
 70
    32
  0
VERTEX
  5
91CF
  8
AM_0
 10
447.1005340448271
 20
68.932105695141203
 30
0.0
 70
    32
  0
VERTEX
  5
91D0
  8
AM_0
 10
447.10353404482709
 20
68.928805695141364
 30
0.0
 70
    32
  0
VERTEX
  5
91D1
  8
AM_0
 10
447.10653404482707
 20
68.925605695141257
 30
0.0
 70
    32
  0
VERTEX
  5
91D2
  8
AM_0
 10
447.10953404482711
 20
68.922305695142313
 30
0.0
 70
    32
  0
VERTEX
  5
91D3
  8
AM_0
 10
447.11253404482721
 20
68.919105695141297
 30
0.0
 70
    32
  0
VERTEX
  5
91D4
  8
AM_0
 10
447.11553404482709
 20
68.915905695142314
 30
0.0
 70
    32
  0
VERTEX
  5
91D5
  8
AM_0
 10
447.1175340448271
 20
68.912705695142222
 30
0.0
 70
    32
  0
VERTEX
  5
91D6
  8
AM_0
 10
447.12053404482702
 20
68.909505695140297
 30
0.0
 70
    32
  0
VERTEX
  5
91D7
  8
AM_0
 10
447.12353404482718
 20
68.906305695141327
 30
0.0
 70
    32
  0
VERTEX
  5
91D8
  8
AM_0
 10
447.12653404482722
 20
68.903105695141221
 30
0.0
 70
    32
  0
VERTEX
  5
91D9
  8
AM_0
 10
447.12953404482698
 20
68.899905695140205
 30
0.0
 70
    32
  0
VERTEX
  5
91DA
  8
AM_0
 10
447.1325340448272
 20
68.896805695141438
 30
0.0
 70
    32
  0
VERTEX
  5
91DB
  8
AM_0
 10
447.13553404482718
 20
68.893605695141332
 30
0.0
 70
    32
  0
VERTEX
  5
91DC
  8
AM_0
 10
447.13853404482711
 20
68.890505695140291
 30
0.0
 70
    32
  0
VERTEX
  5
91DD
  8
AM_0
 10
447.14153404482721
 20
68.887405695141297
 30
0.0
 70
    32
  0
VERTEX
  5
91DE
  8
AM_0
 10
447.1445340448272
 20
68.884205695142327
 30
0.0
 70
    32
  0
VERTEX
  5
91DF
  8
AM_0
 10
447.14753404482713
 20
68.881105695141287
 30
0.0
 70
    32
  0
VERTEX
  5
91E0
  8
AM_0
 10
447.15053404482688
 20
68.878005695142292
 30
0.0
 70
    32
  0
VERTEX
  5
91E1
  8
AM_0
 10
447.15353404482721
 20
68.875005695141226
 30
0.0
 70
    32
  0
VERTEX
  5
91E2
  8
AM_0
 10
447.15753404482689
 20
68.871905695142232
 30
0.0
 70
    32
  0
VERTEX
  5
91E3
  8
AM_0
 10
447.16053404482687
 20
68.868805695140281
 30
0.0
 70
    32
  0
VERTEX
  5
91E4
  8
AM_0
 10
447.1635340448272
 20
68.865805695141262
 30
0.0
 70
    32
  0
VERTEX
  5
91E5
  8
AM_0
 10
447.16653404482707
 20
68.862705695141344
 30
0.0
 70
    32
  0
VERTEX
  5
91E6
  8
AM_0
 10
447.16953404482689
 20
68.859705695141415
 30
0.0
 70
    32
  0
VERTEX
  5
91E7
  8
AM_0
 10
447.17253404482722
 20
68.856705695140363
 30
0.0
 70
    32
  0
VERTEX
  5
91E8
  8
AM_0
 10
447.17553404482709
 20
68.853705695141343
 30
0.0
 70
    32
  0
VERTEX
  5
91E9
  8
AM_0
 10
447.17853404482707
 20
68.850705695142324
 30
0.0
 70
    32
  0
VERTEX
  5
91EA
  8
AM_0
 10
447.18253404482721
 20
68.847705695140348
 30
0.0
 70
    32
  0
VERTEX
  5
91EB
  8
AM_0
 10
447.18553404482708
 20
68.844705695141329
 30
0.0
 70
    32
  0
VERTEX
  5
91EC
  8
AM_0
 10
447.18853404482701
 20
68.841705695141385
 30
0.0
 70
    32
  0
VERTEX
  5
91ED
  8
AM_0
 10
447.19153404482722
 20
68.838805695141218
 30
0.0
 70
    32
  0
VERTEX
  5
91EE
  8
AM_0
 10
447.19453404482709
 20
68.835805695141289
 30
0.0
 70
    32
  0
VERTEX
  5
91EF
  8
AM_0
 10
447.19753404482702
 20
68.832905695140198
 30
0.0
 70
    32
  0
VERTEX
  5
91F0
  8
AM_0
 10
447.20153404482721
 20
68.829905695141406
 30
0.0
 70
    32
  0
VERTEX
  5
91F1
  8
AM_0
 10
447.20453404482708
 20
68.827005695140329
 30
0.0
 70
    32
  0
VERTEX
  5
91F2
  8
AM_0
 10
447.2075340448269
 20
68.824105695141284
 30
0.0
 70
    32
  0
VERTEX
  5
91F3
  8
AM_0
 10
447.21053404482723
 20
68.821205695140179
 30
0.0
 70
    32
  0
VERTEX
  5
91F4
  8
AM_0
 10
447.21453404482708
 20
68.818305695142271
 30
0.0
 70
    32
  0
VERTEX
  5
91F5
  8
AM_0
 10
447.21753404482689
 20
68.815405695141393
 30
0.0
 70
    32
  0
VERTEX
  5
91F6
  8
AM_0
 10
447.22053404482722
 20
68.812605695140292
 30
0.0
 70
    32
  0
VERTEX
  5
91F7
  8
AM_0
 10
447.22353404482698
 20
68.809705695141247
 30
0.0
 70
    32
  0
VERTEX
  5
91F8
  8
AM_0
 10
447.22753404482688
 20
68.806905695142177
 30
0.0
 70
    32
  0
VERTEX
  5
91F9
  8
AM_0
 10
447.23053404482698
 20
68.804005695141313
 30
0.0
 70
    32
  0
VERTEX
  5
91FA
  8
AM_0
 10
447.23353404482708
 20
68.801205695142244
 30
0.0
 70
    32
  0
VERTEX
  5
91FB
  8
AM_0
 10
447.23753404482721
 20
68.798405695141355
 30
0.0
 70
    32
  0
VERTEX
  5
91FC
  8
AM_0
 10
447.2405340448272
 20
68.795605695142285
 30
0.0
 70
    32
  0
VERTEX
  5
91FD
  8
AM_0
 10
447.24353404482707
 20
68.79280569514232
 30
0.0
 70
    32
  0
VERTEX
  5
91FE
  8
AM_0
 10
447.2475340448272
 20
68.790005695141417
 30
0.0
 70
    32
  0
VERTEX
  5
91FF
  8
AM_0
 10
447.25053404482719
 20
68.787205695142347
 30
0.0
 70
    32
  0
VERTEX
  5
9200
  8
AM_0
 10
447.25353404482712
 20
68.784405695141231
 30
0.0
 70
    32
  0
VERTEX
  5
9201
  8
AM_0
 10
447.2575340448272
 20
68.781705695141227
 30
0.0
 70
    32
  0
VERTEX
  5
9202
  8
AM_0
 10
447.26053404482712
 20
68.778905695140324
 30
0.0
 70
    32
  0
VERTEX
  5
9203
  8
AM_0
 10
447.26353404482688
 20
68.776205695140348
 30
0.0
 70
    32
  0
VERTEX
  5
9204
  8
AM_0
 10
447.26753404482707
 20
68.773405695141264
 30
0.0
 70
    32
  0
VERTEX
  5
9205
  8
AM_0
 10
447.270534044827
 20
68.77070569514126
 30
0.0
 70
    32
  0
VERTEX
  5
9206
  8
AM_0
 10
447.27453404482708
 20
68.768005695141255
 30
0.0
 70
    32
  0
VERTEX
  5
9207
  8
AM_0
 10
447.27753404482712
 20
68.765305695141251
 30
0.0
 70
    32
  0
VERTEX
  5
9208
  8
AM_0
 10
447.28053404482711
 20
68.762605695141247
 30
0.0
 70
    32
  0
VERTEX
  5
9209
  8
AM_0
 10
447.28453404482701
 20
68.759905695141242
 30
0.0
 70
    32
  0
VERTEX
  5
920A
  8
AM_0
 10
447.28753404482711
 20
68.757205695141238
 30
0.0
 70
    32
  0
VERTEX
  5
920B
  8
AM_0
 10
447.29153404482707
 20
68.754605695141436
 30
0.0
 70
    32
  0
VERTEX
  5
920C
  8
AM_0
 10
447.29453404482689
 20
68.75190569514028
 30
0.0
 70
    32
  0
VERTEX
  5
920D
  8
AM_0
 10
447.29853404482708
 20
68.74920569514029
 30
0.0
 70
    32
  0
VERTEX
  5
920E
  8
AM_0
 10
447.30153404482712
 20
68.746605695141398
 30
0.0
 70
    32
  0
VERTEX
  5
920F
  8
AM_0
 10
447.30453404482688
 20
68.744005695141354
 30
0.0
 70
    32
  0
VERTEX
  5
9210
  8
AM_0
 10
447.30853404482713
 20
68.741405695140202
 30
0.0
 70
    32
  0
VERTEX
  5
9211
  8
AM_0
 10
447.31153404482711
 20
68.738705695140197
 30
0.0
 70
    32
  0
VERTEX
  5
9212
  8
AM_0
 10
447.31553404482707
 20
68.736105695140168
 30
0.0
 70
    32
  0
VERTEX
  5
9213
  8
AM_0
 10
447.31853404482717
 20
68.733505695141275
 30
0.0
 70
    32
  0
VERTEX
  5
9214
  8
AM_0
 10
447.32253404482702
 20
68.731005695140311
 30
0.0
 70
    32
  0
VERTEX
  5
9215
  8
AM_0
 10
447.32553404482718
 20
68.728405695140282
 30
0.0
 70
    32
  0
VERTEX
  5
9216
  8
AM_0
 10
447.32953404482708
 20
68.725805695141389
 30
0.0
 70
    32
  0
VERTEX
  5
9217
  8
AM_0
 10
447.33253404482701
 20
68.723305695142244
 30
0.0
 70
    32
  0
VERTEX
  5
9218
  8
AM_0
 10
447.3365340448272
 20
68.720705695140168
 30
0.0
 70
    32
  0
VERTEX
  5
9219
  8
AM_0
 10
447.33953404482708
 20
68.718205695141251
 30
0.0
 70
    32
  0
VERTEX
  5
921A
  8
AM_0
 10
447.34353404482721
 20
68.715605695141221
 30
0.0
 70
    32
  0
VERTEX
  5
921B
  8
AM_0
 10
447.34653404482719
 20
68.713105695141394
 30
0.0
 70
    32
  0
VERTEX
  5
921C
  8
AM_0
 10
447.35053404482687
 20
68.710605695141339
 30
0.0
 70
    32
  0
VERTEX
  5
921D
  8
AM_0
 10
447.35453404482712
 20
68.708105695140148
 30
0.0
 70
    32
  0
VERTEX
  5
921E
  8
AM_0
 10
447.35753404482699
 20
68.705605695140321
 30
0.0
 70
    32
  0
VERTEX
  5
921F
  8
AM_0
 10
447.36153404482712
 20
68.703105695142312
 30
0.0
 70
    32
  0
VERTEX
  5
9220
  8
AM_0
 10
447.36453404482711
 20
68.700605695141348
 30
0.0
 70
    32
  0
VERTEX
  5
9221
  8
AM_0
 10
447.36853404482707
 20
68.698205695140359
 30
0.0
 70
    32
  0
VERTEX
  5
9222
  8
AM_0
 10
447.37153404482689
 20
68.695705695141442
 30
0.0
 70
    32
  0
VERTEX
  5
9223
  8
AM_0
 10
447.37553404482708
 20
68.693305695140225
 30
0.0
 70
    32
  0
VERTEX
  5
9224
  8
AM_0
 10
447.3795340448271
 20
68.690805695141293
 30
0.0
 70
    32
  0
VERTEX
  5
9225
  8
AM_0
 10
447.38253404482708
 20
68.688405695141213
 30
0.0
 70
    32
  0
VERTEX
  5
9226
  8
AM_0
 10
447.3865340448271
 20
68.686005695142285
 30
0.0
 70
    32
  0
VERTEX
  5
9227
  8
AM_0
 10
447.38953404482709
 20
68.683505695141321
 30
0.0
 70
    32
  0
VERTEX
  5
9228
  8
AM_0
 10
447.39353404482722
 20
68.681105695140317
 30
0.0
 70
    32
  0
VERTEX
  5
9229
  8
AM_0
 10
447.39753404482713
 20
68.678705695142298
 30
0.0
 70
    32
  0
VERTEX
  5
922A
  8
AM_0
 10
447.40053404482688
 20
68.676305695141295
 30
0.0
 70
    32
  0
VERTEX
  5
922B
  8
AM_0
 10
447.40453404482707
 20
68.67390569514032
 30
0.0
 70
    32
  0
VERTEX
  5
922C
  8
AM_0
 10
447.40853404482698
 20
68.671605695141352
 30
0.0
 70
    32
  0
VERTEX
  5
922D
  8
AM_0
 10
447.41153404482708
 20
68.669205695141272
 30
0.0
 70
    32
  0
VERTEX
  5
922E
  8
AM_0
 10
447.4155340448271
 20
68.66680569514142
 30
0.0
 70
    32
  0
VERTEX
  5
922F
  8
AM_0
 10
447.41953404482689
 20
68.664505695140178
 30
0.0
 70
    32
  0
VERTEX
  5
9230
  8
AM_0
 10
447.4225340448271
 20
68.662105695141236
 30
0.0
 70
    32
  0
VERTEX
  5
9231
  8
AM_0
 10
447.42653404482712
 20
68.659805695141344
 30
0.0
 70
    32
  0
VERTEX
  5
9232
  8
AM_0
 10
447.4305340448272
 20
68.657505695141253
 30
0.0
 70
    32
  0
VERTEX
  5
9233
  8
AM_0
 10
447.43353404482718
 20
68.655205695142286
 30
0.0
 70
    32
  0
VERTEX
  5
9234
  8
AM_0
 10
447.43753404482692
 20
68.652905695141271
 30
0.0
 70
    32
  0
VERTEX
  5
9235
  8
AM_0
 10
447.44153404482722
 20
68.650505695140282
 30
0.0
 70
    32
  0
VERTEX
  5
9236
  8
AM_0
 10
447.44453404482698
 20
68.648305695140152
 30
0.0
 70
    32
  0
VERTEX
  5
9237
  8
AM_0
 10
447.44853404482689
 20
68.646005695140289
 30
0.0
 70
    32
  0
VERTEX
  5
9238
  8
AM_0
 10
447.45253404482719
 20
68.643705695141293
 30
0.0
 70
    32
  0
VERTEX
  5
9239
  8
AM_0
 10
447.45553404482689
 20
68.641405695140264
 30
0.0
 70
    32
  0
VERTEX
  5
923A
  8
AM_0
 10
447.45953404482731
 20
68.639105695141325
 30
0.0
 70
    32
  0
VERTEX
  5
923B
  8
AM_0
 10
447.4635340448271
 20
68.636905695142332
 30
0.0
 70
    32
  0
VERTEX
  5
923C
  8
AM_0
 10
447.46753404482689
 20
68.634605695142227
 30
0.0
 70
    32
  0
VERTEX
  5
923D
  8
AM_0
 10
447.47053404482722
 20
68.63240569514231
 30
0.0
 70
    32
  0
VERTEX
  5
923E
  8
AM_0
 10
447.47453404482712
 20
68.630205695141285
 30
0.0
 70
    32
  0
VERTEX
  5
923F
  8
AM_0
 10
447.4785340448272
 20
68.627905695141408
 30
0.0
 70
    32
  0
VERTEX
  5
9240
  8
AM_0
 10
447.48153404482707
 20
68.625705695141278
 30
0.0
 70
    32
  0
VERTEX
  5
9241
  8
AM_0
 10
447.48553404482709
 20
68.623505695141375
 30
0.0
 70
    32
  0
VERTEX
  5
9242
  8
AM_0
 10
447.48953404482711
 20
68.621305695140336
 30
0.0
 70
    32
  0
VERTEX
  5
9243
  8
AM_0
 10
447.49353404482707
 20
68.619105695142252
 30
0.0
 70
    32
  0
VERTEX
  5
9244
  8
AM_0
 10
447.49653404482689
 20
68.61690569514235
 30
0.0
 70
    32
  0
VERTEX
  5
9245
  8
AM_0
 10
447.50053404482708
 20
68.614805695140134
 30
0.0
 70
    32
  0
VERTEX
  5
9246
  8
AM_0
 10
447.5045340448271
 20
68.612605695142292
 30
0.0
 70
    32
  0
VERTEX
  5
9247
  8
AM_0
 10
447.50853404482717
 20
68.610405695141253
 30
0.0
 70
    32
  0
VERTEX
  5
9248
  8
AM_0
 10
447.51253404482708
 20
68.608305695141325
 30
0.0
 70
    32
  0
VERTEX
  5
9249
  8
AM_0
 10
447.51553404482701
 20
68.606105695142332
 30
0.0
 70
    32
  0
VERTEX
  5
924A
  8
AM_0
 10
447.5195340448272
 20
68.604005695141254
 30
0.0
 70
    32
  0
VERTEX
  5
924B
  8
AM_0
 10
447.52353404482699
 20
68.601805695141366
 30
0.0
 70
    32
  0
VERTEX
  5
924C
  8
AM_0
 10
447.52753404482718
 20
68.599705695140301
 30
0.0
 70
    32
  0
VERTEX
  5
924D
  8
AM_0
 10
447.53053404482699
 20
68.597605695141283
 30
0.0
 70
    32
  0
VERTEX
  5
924E
  8
AM_0
 10
447.53453404482701
 20
68.59550569514137
 30
0.0
 70
    32
  0
VERTEX
  5
924F
  8
AM_0
 10
447.5385340448272
 20
68.593405695141414
 30
0.0
 70
    32
  0
VERTEX
  5
9250
  8
AM_0
 10
447.54253404482699
 20
68.591305695141273
 30
0.0
 70
    32
  0
VERTEX
  5
9251
  8
AM_0
 10
447.54653404482718
 20
68.589205695141359
 30
0.0
 70
    32
  0
VERTEX
  5
9252
  8
AM_0
 10
447.55053404482709
 20
68.587105695141403
 30
0.0
 70
    32
  0
VERTEX
  5
9253
  8
AM_0
 10
447.55353404482707
 20
68.585005695141263
 30
0.0
 70
    32
  0
VERTEX
  5
9254
  8
AM_0
 10
447.55753404482721
 20
68.583005695142219
 30
0.0
 70
    32
  0
VERTEX
  5
9255
  8
AM_0
 10
447.56153404482689
 20
68.580905695141382
 30
0.0
 70
    32
  0
VERTEX
  5
9256
  8
AM_0
 10
447.56553404482707
 20
68.578805695141213
 30
0.0
 70
    32
  0
VERTEX
  5
9257
  8
AM_0
 10
447.56953404482709
 20
68.576805695141275
 30
0.0
 70
    32
  0
VERTEX
  5
9258
  8
AM_0
 10
447.57253404482708
 20
68.574705695141347
 30
0.0
 70
    32
  0
VERTEX
  5
9259
  8
AM_0
 10
447.57653404482721
 20
68.572705695142304
 30
0.0
 70
    32
  0
VERTEX
  5
925A
  8
AM_0
 10
447.58053404482712
 20
68.570705695142351
 30
0.0
 70
    32
  0
VERTEX
  5
925B
  8
AM_0
 10
447.58453404482708
 20
68.568705695141261
 30
0.0
 70
    32
  0
VERTEX
  5
925C
  8
AM_0
 10
447.5885340448271
 20
68.566705695141295
 30
0.0
 70
    32
  0
VERTEX
  5
925D
  8
AM_0
 10
447.59253404482689
 20
68.564705695142266
 30
0.0
 70
    32
  0
VERTEX
  5
925E
  8
AM_0
 10
447.59653404482708
 20
68.562705695141403
 30
0.0
 70
    32
  0
VERTEX
  5
925F
  8
AM_0
 10
447.59953404482712
 20
68.560705695141223
 30
0.0
 70
    32
  0
VERTEX
  5
9260
  8
AM_0
 10
447.60353404482709
 20
68.558705695141271
 30
0.0
 70
    32
  0
VERTEX
  5
9261
  8
AM_0
 10
447.60753404482722
 20
68.556705695142227
 30
0.0
 70
    32
  0
VERTEX
  5
9262
  8
AM_0
 10
447.61153404482701
 20
68.554705695141365
 30
0.0
 70
    32
  0
VERTEX
  5
9263
  8
AM_0
 10
447.61553404482709
 20
68.552805695141387
 30
0.0
 70
    32
  0
VERTEX
  5
9264
  8
AM_0
 10
447.61953404482711
 20
68.550805695142344
 30
0.0
 70
    32
  0
VERTEX
  5
9265
  8
AM_0
 10
447.62353404482718
 20
68.54890569514032
 30
0.0
 70
    32
  0
VERTEX
  5
9266
  8
AM_0
 10
447.62753404482709
 20
68.546905695140367
 30
0.0
 70
    32
  0
VERTEX
  5
9267
  8
AM_0
 10
447.63153404482699
 20
68.545005695141285
 30
0.0
 70
    32
  0
VERTEX
  5
9268
  8
AM_0
 10
447.63453404482721
 20
68.543105695141321
 30
0.0
 70
    32
  0
VERTEX
  5
9269
  8
AM_0
 10
447.63853404482688
 20
68.541105695141368
 30
0.0
 70
    32
  0
VERTEX
  5
926A
  8
AM_0
 10
447.64253404482719
 20
68.539205695141391
 30
0.0
 70
    32
  0
VERTEX
  5
926B
  8
AM_0
 10
447.64653404482698
 20
68.537305695142322
 30
0.0
 70
    32
  0
VERTEX
  5
926C
  8
AM_0
 10
447.65053404482688
 20
68.535405695142344
 30
0.0
 70
    32
  0
VERTEX
  5
926D
  8
AM_0
 10
447.65453404482719
 20
68.53350569514123
 30
0.0
 70
    32
  0
VERTEX
  5
926E
  8
AM_0
 10
447.65853404482709
 20
68.531605695140343
 30
0.0
 70
    32
  0
VERTEX
  5
926F
  8
AM_0
 10
447.66253404482711
 20
68.52980569514034
 30
0.0
 70
    32
  0
VERTEX
  5
9270
  8
AM_0
 10
447.66653404482707
 20
68.527905695141271
 30
0.0
 70
    32
  0
VERTEX
  5
9271
  8
AM_0
 10
447.67053404482732
 20
68.526005695141293
 30
0.0
 70
    32
  0
VERTEX
  5
9272
  8
AM_0
 10
447.67453404482711
 20
68.524205695141291
 30
0.0
 70
    32
  0
VERTEX
  5
9273
  8
AM_0
 10
447.6775340448271
 20
68.522305695141313
 30
0.0
 70
    32
  0
VERTEX
  5
9274
  8
AM_0
 10
447.68153404482712
 20
68.52050569514131
 30
0.0
 70
    32
  0
VERTEX
  5
9275
  8
AM_0
 10
447.68553404482708
 20
68.518605695141332
 30
0.0
 70
    32
  0
VERTEX
  5
9276
  8
AM_0
 10
447.68953404482721
 20
68.516805695141329
 30
0.0
 70
    32
  0
VERTEX
  5
9277
  8
AM_0
 10
447.69353404482712
 20
68.515005695141326
 30
0.0
 70
    32
  0
VERTEX
  5
9278
  8
AM_0
 10
447.69753404482691
 20
68.513105695141348
 30
0.0
 70
    32
  0
VERTEX
  5
9279
  8
AM_0
 10
447.7015340448271
 20
68.51130569514136
 30
0.0
 70
    32
  0
VERTEX
  5
927A
  8
AM_0
 10
447.70553404482712
 20
68.509505695142252
 30
0.0
 70
    32
  0
VERTEX
  5
927B
  8
AM_0
 10
447.70953404482708
 20
68.50770569514134
 30
0.0
 70
    32
  0
VERTEX
  5
927C
  8
AM_0
 10
447.71353404482699
 20
68.505905695141351
 30
0.0
 70
    32
  0
VERTEX
  5
927D
  8
AM_0
 10
447.71753404482689
 20
68.504105695141305
 30
0.0
 70
    32
  0
VERTEX
  5
927E
  8
AM_0
 10
447.72153404482719
 20
68.502405695140396
 30
0.0
 70
    32
  0
VERTEX
  5
927F
  8
AM_0
 10
447.72553404482699
 20
68.500605695141303
 30
0.0
 70
    32
  0
VERTEX
  5
9280
  8
AM_0
 10
447.72953404482718
 20
68.4988056951413
 30
0.0
 70
    32
  0
VERTEX
  5
9281
  8
AM_0
 10
447.73353404482708
 20
68.497005695141297
 30
0.0
 70
    32
  0
VERTEX
  5
9282
  8
AM_0
 10
447.73753404482721
 20
68.495305695141283
 30
0.0
 70
    32
  0
VERTEX
  5
9283
  8
AM_0
 10
447.74153404482712
 20
68.49350569514128
 30
0.0
 70
    32
  0
VERTEX
  5
9284
  8
AM_0
 10
447.74553404482708
 20
68.491805695141238
 30
0.0
 70
    32
  0
VERTEX
  5
9285
  8
AM_0
 10
447.74953404482721
 20
68.490105695142347
 30
0.0
 70
    32
  0
VERTEX
  5
9286
  8
AM_0
 10
447.75353404482701
 20
68.488305695142344
 30
0.0
 70
    32
  0
VERTEX
  5
9287
  8
AM_0
 10
447.7575340448272
 20
68.486605695141407
 30
0.0
 70
    32
  0
VERTEX
  5
9288
  8
AM_0
 10
447.7615340448271
 20
68.484905695142288
 30
0.0
 70
    32
  0
VERTEX
  5
9289
  8
AM_0
 10
447.76553404482701
 20
68.483205695141351
 30
0.0
 70
    32
  0
VERTEX
  5
928A
  8
AM_0
 10
447.76953404482708
 20
68.481505695141323
 30
0.0
 70
    32
  0
VERTEX
  5
928B
  8
AM_0
 10
447.7735340448271
 20
68.479805695141295
 30
0.0
 70
    32
  0
VERTEX
  5
928C
  8
AM_0
 10
447.77753404482712
 20
68.478105695141281
 30
0.0
 70
    32
  0
VERTEX
  5
928D
  8
AM_0
 10
447.78153404482708
 20
68.476405695141239
 30
0.0
 70
    32
  0
VERTEX
  5
928E
  8
AM_0
 10
447.78553404482699
 20
68.474705695142347
 30
0.0
 70
    32
  0
VERTEX
  5
928F
  8
AM_0
 10
447.78953404482712
 20
68.473005695142305
 30
0.0
 70
    32
  0
VERTEX
  5
9290
  8
AM_0
 10
447.79353404482703
 20
68.471305695141382
 30
0.0
 70
    32
  0
VERTEX
  5
9291
  8
AM_0
 10
447.79753404482722
 20
68.469705695141329
 30
0.0
 70
    32
  0
VERTEX
  5
9292
  8
AM_0
 10
447.80153404482712
 20
68.468005695141301
 30
0.0
 70
    32
  0
VERTEX
  5
9293
  8
AM_0
 10
447.80553404482708
 20
68.466405695141248
 30
0.0
 70
    32
  0
VERTEX
  5
9294
  8
AM_0
 10
447.8095340448271
 20
68.46470569514122
 30
0.0
 70
    32
  0
VERTEX
  5
9295
  8
AM_0
 10
447.81353404482701
 20
68.463105695142303
 30
0.0
 70
    32
  0
VERTEX
  5
9296
  8
AM_0
 10
447.8175340448272
 20
68.461405695142275
 30
0.0
 70
    32
  0
VERTEX
  5
9297
  8
AM_0
 10
447.82153404482699
 20
68.459805695141313
 30
0.0
 70
    32
  0
VERTEX
  5
9298
  8
AM_0
 10
447.82553404482718
 20
68.45820569514126
 30
0.0
 70
    32
  0
VERTEX
  5
9299
  8
AM_0
 10
447.82953404482708
 20
68.456605695141434
 30
0.0
 70
    32
  0
VERTEX
  5
929A
  8
AM_0
 10
447.83353404482688
 20
68.454905695141406
 30
0.0
 70
    32
  0
VERTEX
  5
929B
  8
AM_0
 10
447.83753404482718
 20
68.453305695141353
 30
0.0
 70
    32
  0
VERTEX
  5
929C
  8
AM_0
 10
447.84153404482709
 20
68.4517056951413
 30
0.0
 70
    32
  0
VERTEX
  5
929D
  8
AM_0
 10
447.84553404482722
 20
68.450105695140337
 30
0.0
 70
    32
  0
VERTEX
  5
929E
  8
AM_0
 10
447.84953404482712
 20
68.448605695141396
 30
0.0
 70
    32
  0
VERTEX
  5
929F
  8
AM_0
 10
447.85353404482731
 20
68.447005695141343
 30
0.0
 70
    32
  0
VERTEX
  5
92A0
  8
AM_0
 10
447.8575340448271
 20
68.445405695141289
 30
0.0
 70
    32
  0
VERTEX
  5
92A1
  8
AM_0
 10
447.86153404482701
 20
68.443805695141236
 30
0.0
 70
    32
  0
VERTEX
  5
92A2
  8
AM_0
 10
447.8655340448272
 20
68.442305695141386
 30
0.0
 70
    32
  0
VERTEX
  5
92A3
  8
AM_0
 10
447.86953404482711
 20
68.440705695141318
 30
0.0
 70
    32
  0
VERTEX
  5
92A4
  8
AM_0
 10
447.87453404482721
 20
68.439105695141279
 30
0.0
 70
    32
  0
VERTEX
  5
92A5
  8
AM_0
 10
447.87853404482712
 20
68.437605695141428
 30
0.0
 70
    32
  0
VERTEX
  5
92A6
  8
AM_0
 10
447.88253404482708
 20
68.43610569514135
 30
0.0
 70
    32
  0
VERTEX
  5
92A7
  8
AM_0
 10
447.88653404482721
 20
68.434505695141283
 30
0.0
 70
    32
  0
VERTEX
  5
92A8
  8
AM_0
 10
447.89053404482701
 20
68.433005695140309
 30
0.0
 70
    32
  0
VERTEX
  5
92A9
  8
AM_0
 10
447.89453404482708
 20
68.431505695141354
 30
0.0
 70
    32
  0
VERTEX
  5
92AA
  8
AM_0
 10
447.8985340448271
 20
68.429905695141329
 30
0.0
 70
    32
  0
VERTEX
  5
92AB
  8
AM_0
 10
447.90253404482718
 20
68.428405695141237
 30
0.0
 70
    32
  0
VERTEX
  5
92AC
  8
AM_0
 10
447.90653404482708
 20
68.426905695141386
 30
0.0
 70
    32
  0
VERTEX
  5
92AD
  8
AM_0
 10
447.91053404482699
 20
68.425405695140384
 30
0.0
 70
    32
  0
VERTEX
  5
92AE
  8
AM_0
 10
447.91453404482718
 20
68.423905695141215
 30
0.0
 70
    32
  0
VERTEX
  5
92AF
  8
AM_0
 10
447.91853404482703
 20
68.422405695142274
 30
0.0
 70
    32
  0
VERTEX
  5
92B0
  8
AM_0
 10
447.92253404482722
 20
68.42090569514221
 30
0.0
 70
    32
  0
VERTEX
  5
92B1
  8
AM_0
 10
447.92653404482712
 20
68.419505695141424
 30
0.0
 70
    32
  0
VERTEX
  5
92B2
  8
AM_0
 10
447.93153404482712
 20
68.418005695142256
 30
0.0
 70
    32
  0
VERTEX
  5
92B3
  8
AM_0
 10
447.93553404482708
 20
68.416505695141254
 30
0.0
 70
    32
  0
VERTEX
  5
92B4
  8
AM_0
 10
447.93953404482721
 20
68.415005695141417
 30
0.0
 70
    32
  0
VERTEX
  5
92B5
  8
AM_0
 10
447.943534044827
 20
68.413605695141314
 30
0.0
 70
    32
  0
VERTEX
  5
92B6
  8
AM_0
 10
447.94753404482708
 20
68.412105695141236
 30
0.0
 70
    32
  0
VERTEX
  5
92B7
  8
AM_0
 10
447.95153404482721
 20
68.410705695142255
 30
0.0
 70
    32
  0
VERTEX
  5
92B8
  8
AM_0
 10
447.95553404482689
 20
68.409205695141281
 30
0.0
 70
    32
  0
VERTEX
  5
92B9
  8
AM_0
 10
447.95953404482719
 20
68.407805695141406
 30
0.0
 70
    32
  0
VERTEX
  5
92BA
  8
AM_0
 10
447.9635340448271
 20
68.406405695140393
 30
0.0
 70
    32
  0
VERTEX
  5
92BB
  8
AM_0
 10
447.96753404482689
 20
68.40500569514235
 30
0.0
 70
    32
  0
VERTEX
  5
92BC
  8
AM_0
 10
447.97253404482711
 20
68.403505695141348
 30
0.0
 70
    32
  0
VERTEX
  5
92BD
  8
AM_0
 10
447.97653404482702
 20
68.402105695141245
 30
0.0
 70
    32
  0
VERTEX
  5
92BE
  8
AM_0
 10
447.98053404482721
 20
68.400705695142278
 30
0.0
 70
    32
  0
VERTEX
  5
92BF
  8
AM_0
 10
447.98453404482711
 20
68.39930569514128
 30
0.0
 70
    32
  0
VERTEX
  5
92C0
  8
AM_0
 10
447.98853404482708
 20
68.39790569514139
 30
0.0
 70
    32
  0
VERTEX
  5
92C1
  8
AM_0
 10
447.9925340448271
 20
68.396505695141286
 30
0.0
 70
    32
  0
VERTEX
  5
92C2
  8
AM_0
 10
447.99653404482689
 20
68.39510569514141
 30
0.0
 70
    32
  0
VERTEX
  5
92C3
  8
AM_0
 10
448.00053404482708
 20
68.393705695141293
 30
0.0
 70
    32
  0
VERTEX
  5
92C4
  8
AM_0
 10
448.00453404482698
 20
68.392405695141406
 30
0.0
 70
    32
  0
VERTEX
  5
92C5
  8
AM_0
 10
448.00953404482698
 20
68.391005695141303
 30
0.0
 70
    32
  0
VERTEX
  5
92C6
  8
AM_0
 10
448.01353404482711
 20
68.389605695141427
 30
0.0
 70
    32
  0
VERTEX
  5
92C7
  8
AM_0
 10
448.01753404482719
 20
68.388305695141284
 30
0.0
 70
    32
  0
VERTEX
  5
92C8
  8
AM_0
 10
448.02153404482698
 20
68.386905695141422
 30
0.0
 70
    32
  0
VERTEX
  5
92C9
  8
AM_0
 10
448.02553404482711
 20
68.385605695141294
 30
0.0
 70
    32
  0
VERTEX
  5
92CA
  8
AM_0
 10
448.02953404482719
 20
68.384205695142327
 30
0.0
 70
    32
  0
VERTEX
  5
92CB
  8
AM_0
 10
448.03353404482692
 20
68.382905695141275
 30
0.0
 70
    32
  0
VERTEX
  5
92CC
  8
AM_0
 10
448.0385340448272
 20
68.381605695141388
 30
0.0
 70
    32
  0
VERTEX
  5
92CD
  8
AM_0
 10
448.04253404482688
 20
68.380205695141285
 30
0.0
 70
    32
  0
VERTEX
  5
92CE
  8
AM_0
 10
448.04653404482713
 20
68.378905695141384
 30
0.0
 70
    32
  0
VERTEX
  5
92CF
  8
AM_0
 10
448.05053404482709
 20
68.377605695140346
 30
0.0
 70
    32
  0
VERTEX
  5
92D0
  8
AM_0
 10
448.05453404482688
 20
68.376305695141369
 30
0.0
 70
    32
  0
VERTEX
  5
92D1
  8
AM_0
 10
448.05853404482701
 20
68.375005695141226
 30
0.0
 70
    32
  0
VERTEX
  5
92D2
  8
AM_0
 10
448.06253404482709
 20
68.373705695142235
 30
0.0
 70
    32
  0
VERTEX
  5
92D3
  8
AM_0
 10
448.06753404482708
 20
68.372405695141424
 30
0.0
 70
    32
  0
VERTEX
  5
92D4
  8
AM_0
 10
448.0715340448271
 20
68.371105695142205
 30
0.0
 70
    32
  0
VERTEX
  5
92D5
  8
AM_0
 10
448.07553404482712
 20
68.369805695141395
 30
0.0
 70
    32
  0
VERTEX
  5
92D6
  8
AM_0
 10
448.07953404482708
 20
68.36850569514128
 30
0.0
 70
    32
  0
VERTEX
  5
92D7
  8
AM_0
 10
448.08353404482699
 20
68.367205695141365
 30
0.0
 70
    32
  0
VERTEX
  5
92D8
  8
AM_0
 10
448.08753404482712
 20
68.366005695141439
 30
0.0
 70
    32
  0
VERTEX
  5
92D9
  8
AM_0
 10
448.09153404482697
 20
68.364705695141311
 30
0.0
 70
    32
  0
VERTEX
  5
92DA
  8
AM_0
 10
448.09653404482708
 20
68.36340569514141
 30
0.0
 70
    32
  0
VERTEX
  5
92DB
  8
AM_0
 10
448.1005340448271
 20
68.362205695141256
 30
0.0
 70
    32
  0
VERTEX
  5
92DC
  8
AM_0
 10
448.10453404482718
 20
68.360905695141369
 30
0.0
 70
    32
  0
VERTEX
  5
92DD
  8
AM_0
 10
448.10853404482708
 20
68.359705695142353
 30
0.0
 70
    32
  0
VERTEX
  5
92DE
  8
AM_0
 10
448.1125340448271
 20
68.3584056951413
 30
0.0
 70
    32
  0
VERTEX
  5
92DF
  8
AM_0
 10
448.11653404482718
 20
68.357205695142284
 30
0.0
 70
    32
  0
VERTEX
  5
92E0
  8
AM_0
 10
448.12153404482711
 20
68.356005695140311
 30
0.0
 70
    32
  0
VERTEX
  5
92E1
  8
AM_0
 10
448.12553404482719
 20
68.35470569514132
 30
0.0
 70
    32
  0
VERTEX
  5
92E2
  8
AM_0
 10
448.12953404482693
 20
68.353505695141394
 30
0.0
 70
    32
  0
VERTEX
  5
92E3
  8
AM_0
 10
448.13353404482712
 20
68.352305695141226
 30
0.0
 70
    32
  0
VERTEX
  5
92E4
  8
AM_0
 10
448.13753404482708
 20
68.351105695141314
 30
0.0
 70
    32
  0
VERTEX
  5
92E5
  8
AM_0
 10
448.14153404482721
 20
68.349905695142283
 30
0.0
 70
    32
  0
VERTEX
  5
92E6
  8
AM_0
 10
448.14653404482709
 20
68.348705695141234
 30
0.0
 70
    32
  0
VERTEX
  5
92E7
  8
AM_0
 10
448.15053404482688
 20
68.347505695141294
 30
0.0
 70
    32
  0
VERTEX
  5
92E8
  8
AM_0
 10
448.15453404482707
 20
68.346305695141382
 30
0.0
 70
    32
  0
VERTEX
  5
92E9
  8
AM_0
 10
448.15853404482709
 20
68.345105695141214
 30
0.0
 70
    32
  0
VERTEX
  5
92EA
  8
AM_0
 10
448.16253404482711
 20
68.343905695141302
 30
0.0
 70
    32
  0
VERTEX
  5
92EB
  8
AM_0
 10
448.16753404482711
 20
68.342705695141376
 30
0.0
 70
    32
  0
VERTEX
  5
92EC
  8
AM_0
 10
448.17153404482713
 20
68.341605695141425
 30
0.0
 70
    32
  0
VERTEX
  5
92ED
  8
AM_0
 10
448.17553404482709
 20
68.340405695141271
 30
0.0
 70
    32
  0
VERTEX
  5
92EE
  8
AM_0
 10
448.17953404482688
 20
68.339205695142255
 30
0.0
 70
    32
  0
VERTEX
  5
92EF
  8
AM_0
 10
448.18353404482713
 20
68.338105695141394
 30
0.0
 70
    32
  0
VERTEX
  5
92F0
  8
AM_0
 10
448.18753404482698
 20
68.33690569514124
 30
0.0
 70
    32
  0
VERTEX
  5
92F1
  8
AM_0
 10
448.19253404482708
 20
68.33580569514038
 30
0.0
 70
    32
  0
VERTEX
  5
92F2
  8
AM_0
 10
448.1965340448271
 20
68.334605695141363
 30
0.0
 70
    32
  0
VERTEX
  5
92F3
  8
AM_0
 10
448.20053404482718
 20
68.333505695141412
 30
0.0
 70
    32
  0
VERTEX
  5
92F4
  8
AM_0
 10
448.20453404482708
 20
68.332305695141244
 30
0.0
 70
    32
  0
VERTEX
  5
92F5
  8
AM_0
 10
448.2085340448271
 20
68.331205695142216
 30
0.0
 70
    32
  0
VERTEX
  5
92F6
  8
AM_0
 10
448.21353404482699
 20
68.330105695141356
 30
0.0
 70
    32
  0
VERTEX
  5
92F7
  8
AM_0
 10
448.21753404482712
 20
68.329005695142314
 30
0.0
 70
    32
  0
VERTEX
  5
92F8
  8
AM_0
 10
448.22153404482719
 20
68.327805695141251
 30
0.0
 70
    32
  0
VERTEX
  5
92F9
  8
AM_0
 10
448.22553404482687
 20
68.3267056951413
 30
0.0
 70
    32
  0
VERTEX
  5
92FA
  8
AM_0
 10
448.22953404482712
 20
68.325605695141348
 30
0.0
 70
    32
  0
VERTEX
  5
92FB
  8
AM_0
 10
448.23453404482689
 20
68.324505695141397
 30
0.0
 70
    32
  0
VERTEX
  5
92FC
  8
AM_0
 10
448.23853404482719
 20
68.323405695141219
 30
0.0
 70
    32
  0
VERTEX
  5
92FD
  8
AM_0
 10
448.2425340448271
 20
68.322305695141281
 30
0.0
 70
    32
  0
VERTEX
  5
92FE
  8
AM_0
 10
448.24653404482689
 20
68.321205695140407
 30
0.0
 70
    32
  0
VERTEX
  5
92FF
  8
AM_0
 10
448.25153404482711
 20
68.32020569514134
 30
0.0
 70
    32
  0
VERTEX
  5
9300
  8
AM_0
 10
448.25553404482702
 20
68.319105695141388
 30
0.0
 70
    32
  0
VERTEX
  5
9301
  8
AM_0
 10
448.25953404482721
 20
68.318005695142347
 30
0.0
 70
    32
  0
VERTEX
  5
9302
  8
AM_0
 10
448.26353404482711
 20
68.316905695141259
 30
0.0
 70
    32
  0
VERTEX
  5
9303
  8
AM_0
 10
448.26753404482707
 20
68.315905695141282
 30
0.0
 70
    32
  0
VERTEX
  5
9304
  8
AM_0
 10
448.27253404482713
 20
68.31480569514224
 30
0.0
 70
    32
  0
VERTEX
  5
9305
  8
AM_0
 10
448.27653404482709
 20
68.313805695142264
 30
0.0
 70
    32
  0
VERTEX
  5
9306
  8
AM_0
 10
448.28053404482722
 20
68.312705695141403
 30
0.0
 70
    32
  0
VERTEX
  5
9307
  8
AM_0
 10
448.28453404482701
 20
68.311705695141427
 30
0.0
 70
    32
  0
VERTEX
  5
9308
  8
AM_0
 10
448.28853404482709
 20
68.310605695140339
 30
0.0
 70
    32
  0
VERTEX
  5
9309
  8
AM_0
 10
448.29353404482703
 20
68.309605695141272
 30
0.0
 70
    32
  0
VERTEX
  5
930A
  8
AM_0
 10
448.2975340448271
 20
68.308605695141296
 30
0.0
 70
    32
  0
VERTEX
  5
930B
  8
AM_0
 10
448.30153404482712
 20
68.307505695141344
 30
0.0
 70
    32
  0
VERTEX
  5
930C
  8
AM_0
 10
448.3055340448272
 20
68.306505695142278
 30
0.0
 70
    32
  0
VERTEX
  5
930D
  8
AM_0
 10
448.31053404482708
 20
68.305505695141392
 30
0.0
 70
    32
  0
VERTEX
  5
930E
  8
AM_0
 10
448.31453404482721
 20
68.304505695142325
 30
0.0
 70
    32
  0
VERTEX
  5
930F
  8
AM_0
 10
448.31853404482712
 20
68.303505695142348
 30
0.0
 70
    32
  0
VERTEX
  5
9310
  8
AM_0
 10
448.32253404482702
 20
68.302505695140326
 30
0.0
 70
    32
  0
VERTEX
  5
9311
  8
AM_0
 10
448.32653404482721
 20
68.301505695141259
 30
0.0
 70
    32
  0
VERTEX
  5
9312
  8
AM_0
 10
448.33153404482692
 20
68.300505695141283
 30
0.0
 70
    32
  0
VERTEX
  5
9313
  8
AM_0
 10
448.33553404482711
 20
68.299505695141292
 30
0.0
 70
    32
  0
VERTEX
  5
9314
  8
AM_0
 10
448.33953404482708
 20
68.29850569514133
 30
0.0
 70
    32
  0
VERTEX
  5
9315
  8
AM_0
 10
448.34353404482732
 20
68.297605695141328
 30
0.0
 70
    32
  0
VERTEX
  5
9316
  8
AM_0
 10
448.34853404482709
 20
68.296605695141352
 30
0.0
 70
    32
  0
VERTEX
  5
9317
  8
AM_0
 10
448.35253404482688
 20
68.295605695141376
 30
0.0
 70
    32
  0
VERTEX
  5
9318
  8
AM_0
 10
448.35653404482707
 20
68.294705695141388
 30
0.0
 70
    32
  0
VERTEX
  5
9319
  8
AM_0
 10
448.36053404482709
 20
68.293705695141384
 30
0.0
 70
    32
  0
VERTEX
  5
931A
  8
AM_0
 10
448.36553404482709
 20
68.292705695142331
 30
0.0
 70
    32
  0
VERTEX
  5
931B
  8
AM_0
 10
448.36953404482711
 20
68.29180569514142
 30
0.0
 70
    32
  0
VERTEX
  5
931C
  8
AM_0
 10
448.37353404482712
 20
68.290805695140321
 30
0.0
 70
    32
  0
VERTEX
  5
931D
  8
AM_0
 10
448.37753404482709
 20
68.28990569514032
 30
0.0
 70
    32
  0
VERTEX
  5
931E
  8
AM_0
 10
448.38253404482708
 20
68.28900569514029
 30
0.0
 70
    32
  0
VERTEX
  5
931F
  8
AM_0
 10
448.38653404482721
 20
68.288005695141237
 30
0.0
 70
    32
  0
VERTEX
  5
9320
  8
AM_0
 10
448.39053404482701
 20
68.287105695141236
 30
0.0
 70
    32
  0
VERTEX
  5
9321
  8
AM_0
 10
448.39453404482708
 20
68.286205695141234
 30
0.0
 70
    32
  0
VERTEX
  5
9322
  8
AM_0
 10
448.39953404482702
 20
68.285305695141233
 30
0.0
 70
    32
  0
VERTEX
  5
9323
  8
AM_0
 10
448.40353404482698
 20
68.284405695141231
 30
0.0
 70
    32
  0
VERTEX
  5
9324
  8
AM_0
 10
448.40753404482712
 20
68.28350569514032
 30
0.0
 70
    32
  0
VERTEX
  5
9325
  8
AM_0
 10
448.41153404482719
 20
68.282605695141214
 30
0.0
 70
    32
  0
VERTEX
  5
9326
  8
AM_0
 10
448.41653404482707
 20
68.281705695141227
 30
0.0
 70
    32
  0
VERTEX
  5
9327
  8
AM_0
 10
448.42053404482721
 20
68.280805695141225
 30
0.0
 70
    32
  0
VERTEX
  5
9328
  8
AM_0
 10
448.424534044827
 20
68.279905695141224
 30
0.0
 70
    32
  0
VERTEX
  5
9329
  8
AM_0
 10
448.42853404482707
 20
68.279005695140313
 30
0.0
 70
    32
  0
VERTEX
  5
932A
  8
AM_0
 10
448.43353404482713
 20
68.278105695140312
 30
0.0
 70
    32
  0
VERTEX
  5
932B
  8
AM_0
 10
448.43753404482709
 20
68.27720569514122
 30
0.0
 70
    32
  0
VERTEX
  5
932C
  8
AM_0
 10
448.44153404482722
 20
68.27640569514142
 30
0.0
 70
    32
  0
VERTEX
  5
932D
  8
AM_0
 10
448.44553404482701
 20
68.275505695141419
 30
0.0
 70
    32
  0
VERTEX
  5
932E
  8
AM_0
 10
448.45053404482712
 20
68.274605695141403
 30
0.0
 70
    32
  0
VERTEX
  5
932F
  8
AM_0
 10
448.45453404482708
 20
68.273805695141391
 30
0.0
 70
    32
  0
VERTEX
  5
9330
  8
AM_0
 10
448.45853404482688
 20
68.27290569514139
 30
0.0
 70
    32
  0
VERTEX
  5
9331
  8
AM_0
 10
448.46253404482712
 20
68.272105695141363
 30
0.0
 70
    32
  0
VERTEX
  5
9332
  8
AM_0
 10
448.46753404482689
 20
68.271205695141362
 30
0.0
 70
    32
  0
VERTEX
  5
9333
  8
AM_0
 10
448.47153404482708
 20
68.270405695141349
 30
0.0
 70
    32
  0
VERTEX
  5
9334
  8
AM_0
 10
448.4755340448271
 20
68.269505695141305
 30
0.0
 70
    32
  0
VERTEX
  5
9335
  8
AM_0
 10
448.47953404482712
 20
68.268705695141293
 30
0.0
 70
    32
  0
VERTEX
  5
9336
  8
AM_0
 10
448.48453404482711
 20
68.26790569514128
 30
0.0
 70
    32
  0
VERTEX
  5
9337
  8
AM_0
 10
448.48853404482708
 20
68.267105695141254
 30
0.0
 70
    32
  0
VERTEX
  5
9338
  8
AM_0
 10
448.49253404482698
 20
68.266205695141252
 30
0.0
 70
    32
  0
VERTEX
  5
9339
  8
AM_0
 10
448.49753404482709
 20
68.265405695141226
 30
0.0
 70
    32
  0
VERTEX
  5
933A
  8
AM_0
 10
448.50153404482711
 20
68.26460569514235
 30
0.0
 70
    32
  0
VERTEX
  5
933B
  8
AM_0
 10
448.50553404482702
 20
68.263805695142324
 30
0.0
 70
    32
  0
VERTEX
  5
933C
  8
AM_0
 10
448.50953404482721
 20
68.263005695141374
 30
0.0
 70
    32
  0
VERTEX
  5
933D
  8
AM_0
 10
448.51453404482692
 20
68.262205695141347
 30
0.0
 70
    32
  0
VERTEX
  5
933E
  8
AM_0
 10
448.51853404482722
 20
68.26140569514132
 30
0.0
 70
    32
  0
VERTEX
  5
933F
  8
AM_0
 10
448.52253404482713
 20
68.260605695141294
 30
0.0
 70
    32
  0
VERTEX
  5
9340
  8
AM_0
 10
448.5265340448272
 20
68.259805695141253
 30
0.0
 70
    32
  0
VERTEX
  5
9341
  8
AM_0
 10
448.53153404482708
 20
68.259005695141241
 30
0.0
 70
    32
  0
VERTEX
  5
9342
  8
AM_0
 10
448.53553404482687
 20
68.258305695141416
 30
0.0
 70
    32
  0
VERTEX
  5
9343
  8
AM_0
 10
448.53953404482701
 20
68.257505695142299
 30
0.0
 70
    32
  0
VERTEX
  5
9344
  8
AM_0
 10
448.54453404482689
 20
68.256705695141363
 30
0.0
 70
    32
  0
VERTEX
  5
9345
  8
AM_0
 10
448.54853404482708
 20
68.255905695142246
 30
0.0
 70
    32
  0
VERTEX
  5
9346
  8
AM_0
 10
448.5525340448271
 20
68.255205695141285
 30
0.0
 70
    32
  0
VERTEX
  5
9347
  8
AM_0
 10
448.55653404482712
 20
68.254405695141259
 30
0.0
 70
    32
  0
VERTEX
  5
9348
  8
AM_0
 10
448.56153404482711
 20
68.253705695141434
 30
0.0
 70
    32
  0
VERTEX
  5
9349
  8
AM_0
 10
448.56553404482707
 20
68.252905695141408
 30
0.0
 70
    32
  0
VERTEX
  5
934A
  8
AM_0
 10
448.56953404482721
 20
68.252205695141356
 30
0.0
 70
    32
  0
VERTEX
  5
934B
  8
AM_0
 10
448.57453404482709
 20
68.251405695142239
 30
0.0
 70
    32
  0
VERTEX
  5
934C
  8
AM_0
 10
448.57853404482722
 20
68.250705695141278
 30
0.0
 70
    32
  0
VERTEX
  5
934D
  8
AM_0
 10
448.58253404482701
 20
68.250005695141226
 30
0.0
 70
    32
  0
VERTEX
  5
934E
  8
AM_0
 10
448.58653404482698
 20
68.249205695141427
 30
0.0
 70
    32
  0
VERTEX
  5
934F
  8
AM_0
 10
448.59153404482691
 20
68.248505695141375
 30
0.0
 70
    32
  0
VERTEX
  5
9350
  8
AM_0
 10
448.5955340448271
 20
68.247805695141324
 30
0.0
 70
    32
  0
VERTEX
  5
9351
  8
AM_0
 10
448.59953404482712
 20
68.247105695141272
 30
0.0
 70
    32
  0
VERTEX
  5
9352
  8
AM_0
 10
448.60453404482718
 20
68.246305695142155
 30
0.0
 70
    32
  0
VERTEX
  5
9353
  8
AM_0
 10
448.60853404482708
 20
68.245605695142331
 30
0.0
 70
    32
  0
VERTEX
  5
9354
  8
AM_0
 10
448.61253404482721
 20
68.24490569514137
 30
0.0
 70
    32
  0
VERTEX
  5
9355
  8
AM_0
 10
448.61653404482712
 20
68.244205695141289
 30
0.0
 70
    32
  0
VERTEX
  5
9356
  8
AM_0
 10
448.62153404482689
 20
68.24350569514128
 30
0.0
 70
    32
  0
VERTEX
  5
9357
  8
AM_0
 10
448.62553404482719
 20
68.242805695141442
 30
0.0
 70
    32
  0
VERTEX
  5
9358
  8
AM_0
 10
448.6295340448271
 20
68.24210569514139
 30
0.0
 70
    32
  0
VERTEX
  5
9359
  8
AM_0
 10
448.63453404482721
 20
68.241505695141313
 30
0.0
 70
    32
  0
VERTEX
  5
935A
  8
AM_0
 10
448.63853404482711
 20
68.240805695141262
 30
0.0
 70
    32
  0
VERTEX
  5
935B
  8
AM_0
 10
448.64253404482707
 20
68.240105695142347
 30
0.0
 70
    32
  0
VERTEX
  5
935C
  8
AM_0
 10
448.64653404482709
 20
68.239405695141386
 30
0.0
 70
    32
  0
VERTEX
  5
935D
  8
AM_0
 10
448.6515340448272
 20
68.238705695142244
 30
0.0
 70
    32
  0
VERTEX
  5
935E
  8
AM_0
 10
448.65553404482711
 20
68.238105695141257
 30
0.0
 70
    32
  0
VERTEX
  5
935F
  8
AM_0
 10
448.65953404482701
 20
68.237405695141433
 30
0.0
 70
    32
  0
VERTEX
  5
9360
  8
AM_0
 10
448.66453404482712
 20
68.236805695142266
 30
0.0
 70
    32
  0
VERTEX
  5
9361
  8
AM_0
 10
448.66853404482703
 20
68.236105695141291
 30
0.0
 70
    32
  0
VERTEX
  5
9362
  8
AM_0
 10
448.67253404482722
 20
68.235405695141253
 30
0.0
 70
    32
  0
VERTEX
  5
9363
  8
AM_0
 10
448.67653404482712
 20
68.234805695141418
 30
0.0
 70
    32
  0
VERTEX
  5
9364
  8
AM_0
 10
448.68153404482717
 20
68.234205695141327
 30
0.0
 70
    32
  0
VERTEX
  5
9365
  8
AM_0
 10
448.68553404482708
 20
68.233505695140366
 30
0.0
 70
    32
  0
VERTEX
  5
9366
  8
AM_0
 10
448.6895340448271
 20
68.232905695141426
 30
0.0
 70
    32
  0
VERTEX
  5
9367
  8
AM_0
 10
448.69453404482698
 20
68.232205695141388
 30
0.0
 70
    32
  0
VERTEX
  5
9368
  8
AM_0
 10
448.69853404482689
 20
68.231605695141283
 30
0.0
 70
    32
  0
VERTEX
  5
9369
  8
AM_0
 10
448.70253404482719
 20
68.231005695141221
 30
0.0
 70
    32
  0
VERTEX
  5
936A
  8
AM_0
 10
448.70753404482701
 20
68.230405695141357
 30
0.0
 70
    32
  0
VERTEX
  5
936B
  8
AM_0
 10
448.7115340448272
 20
68.229805695141295
 30
0.0
 70
    32
  0
VERTEX
  5
936C
  8
AM_0
 10
448.71553404482688
 20
68.229105695141243
 30
0.0
 70
    32
  0
VERTEX
  5
936D
  8
AM_0
 10
448.72053404482722
 20
68.228505695141394
 30
0.0
 70
    32
  0
VERTEX
  5
936E
  8
AM_0
 10
448.72453404482712
 20
68.227905695141331
 30
0.0
 70
    32
  0
VERTEX
  5
936F
  8
AM_0
 10
448.72853404482731
 20
68.227305695142149
 30
0.0
 70
    32
  0
VERTEX
  5
9370
  8
AM_0
 10
448.7325340448271
 20
68.2267056951423
 30
0.0
 70
    32
  0
VERTEX
  5
9371
  8
AM_0
 10
448.73753404482733
 20
68.226105695141314
 30
0.0
 70
    32
  0
VERTEX
  5
9372
  8
AM_0
 10
448.74153404482712
 20
68.225505695141237
 30
0.0
 70
    32
  0
VERTEX
  5
9373
  8
AM_0
 10
448.74553404482708
 20
68.224905695141388
 30
0.0
 70
    32
  0
VERTEX
  5
9374
  8
AM_0
 10
448.75053404482708
 20
68.224405695141286
 30
0.0
 70
    32
  0
VERTEX
  5
9375
  8
AM_0
 10
448.7545340448271
 20
68.2238056951403
 30
0.0
 70
    32
  0
VERTEX
  5
9376
  8
AM_0
 10
448.75853404482712
 20
68.22320569514136
 30
0.0
 70
    32
  0
VERTEX
  5
9377
  8
AM_0
 10
448.76353404482711
 20
68.222605695141283
 30
0.0
 70
    32
  0
VERTEX
  5
9378
  8
AM_0
 10
448.76753404482707
 20
68.222105695142318
 30
0.0
 70
    32
  0
VERTEX
  5
9379
  8
AM_0
 10
448.77153404482709
 20
68.221505695141332
 30
0.0
 70
    32
  0
VERTEX
  5
937A
  8
AM_0
 10
448.77553404482688
 20
68.220905695140345
 30
0.0
 70
    32
  0
VERTEX
  5
937B
  8
AM_0
 10
448.78053404482722
 20
68.22040569514138
 30
0.0
 70
    32
  0
VERTEX
  5
937C
  8
AM_0
 10
448.78453404482701
 20
68.219805695141289
 30
0.0
 70
    32
  0
VERTEX
  5
937D
  8
AM_0
 10
448.78853404482709
 20
68.219305695142339
 30
0.0
 70
    32
  0
VERTEX
  5
937E
  8
AM_0
 10
448.79353404482703
 20
68.218705695140443
 30
0.0
 70
    32
  0
VERTEX
  5
937F
  8
AM_0
 10
448.79753404482699
 20
68.218205695140341
 30
0.0
 70
    32
  0
VERTEX
  5
9380
  8
AM_0
 10
448.80153404482712
 20
68.217705695141376
 30
0.0
 70
    32
  0
VERTEX
  5
9381
  8
AM_0
 10
448.80653404482712
 20
68.217105695141299
 30
0.0
 70
    32
  0
VERTEX
  5
9382
  8
AM_0
 10
448.81053404482708
 20
68.216605695141425
 30
0.0
 70
    32
  0
VERTEX
  5
9383
  8
AM_0
 10
448.81453404482721
 20
68.216105695141323
 30
0.0
 70
    32
  0
VERTEX
  5
9384
  8
AM_0
 10
448.81953404482698
 20
68.215505695140337
 30
0.0
 70
    32
  0
VERTEX
  5
9385
  8
AM_0
 10
448.82353404482689
 20
68.215005695141343
 30
0.0
 70
    32
  0
VERTEX
  5
9386
  8
AM_0
 10
448.82753404482719
 20
68.214505695141256
 30
0.0
 70
    32
  0
VERTEX
  5
9387
  8
AM_0
 10
448.83253404482713
 20
68.214005695142305
 30
0.0
 70
    32
  0
VERTEX
  5
9388
  8
AM_0
 10
448.8365340448272
 20
68.213505695141293
 30
0.0
 70
    32
  0
VERTEX
  5
9389
  8
AM_0
 10
448.84053404482711
 20
68.213005695141419
 30
0.0
 70
    32
  0
VERTEX
  5
938A
  8
AM_0
 10
448.84553404482722
 20
68.212505695142227
 30
0.0
 70
    32
  0
VERTEX
  5
938B
  8
AM_0
 10
448.84953404482712
 20
68.212005695141215
 30
0.0
 70
    32
  0
VERTEX
  5
938C
  8
AM_0
 10
448.85353404482709
 20
68.211505695141341
 30
0.0
 70
    32
  0
VERTEX
  5
938D
  8
AM_0
 10
448.8575340448271
 20
68.211005695140329
 30
0.0
 70
    32
  0
VERTEX
  5
938E
  8
AM_0
 10
448.86253404482721
 20
68.210505695141364
 30
0.0
 70
    32
  0
VERTEX
  5
938F
  8
AM_0
 10
448.86653404482712
 20
68.210105695140328
 30
0.0
 70
    32
  0
VERTEX
  5
9390
  8
AM_0
 10
448.87053404482691
 20
68.209605695142272
 30
0.0
 70
    32
  0
VERTEX
  5
9391
  8
AM_0
 10
448.87553404482708
 20
68.209105695141261
 30
0.0
 70
    32
  0
VERTEX
  5
9392
  8
AM_0
 10
448.87953404482698
 20
68.208705695142271
 30
0.0
 70
    32
  0
VERTEX
  5
9393
  8
AM_0
 10
448.88353404482717
 20
68.208205695141245
 30
0.0
 70
    32
  0
VERTEX
  5
9394
  8
AM_0
 10
448.88853404482711
 20
68.207705695142295
 30
0.0
 70
    32
  0
VERTEX
  5
9395
  8
AM_0
 10
448.89253404482719
 20
68.207305695141244
 30
0.0
 70
    32
  0
VERTEX
  5
9396
  8
AM_0
 10
448.89653404482698
 20
68.206905695141359
 30
0.0
 70
    32
  0
VERTEX
  5
9397
  8
AM_0
 10
448.9015340448272
 20
68.20640569514218
 30
0.0
 70
    32
  0
VERTEX
  5
9398
  8
AM_0
 10
448.90553404482699
 20
68.206005695141357
 30
0.0
 70
    32
  0
VERTEX
  5
9399
  8
AM_0
 10
448.90953404482713
 20
68.205505695141255
 30
0.0
 70
    32
  0
VERTEX
  5
939A
  8
AM_0
 10
448.91453404482712
 20
68.20510569514137
 30
0.0
 70
    32
  0
VERTEX
  5
939B
  8
AM_0
 10
448.91853404482708
 20
68.204705695140319
 30
0.0
 70
    32
  0
VERTEX
  5
939C
  8
AM_0
 10
448.92253404482722
 20
68.204305695141329
 30
0.0
 70
    32
  0
VERTEX
  5
939D
  8
AM_0
 10
448.9275340448271
 20
68.203805695140318
 30
0.0
 70
    32
  0
VERTEX
  5
939E
  8
AM_0
 10
448.93153404482712
 20
68.203405695141328
 30
0.0
 70
    32
  0
VERTEX
  5
939F
  8
AM_0
 10
448.93553404482708
 20
68.203005695142352
 30
0.0
 70
    32
  0
VERTEX
  5
93A0
  8
AM_0
 10
448.94053404482707
 20
68.202605695142211
 30
0.0
 70
    32
  0
VERTEX
  5
93A1
  8
AM_0
 10
448.94453404482709
 20
68.202205695142311
 30
0.0
 70
    32
  0
VERTEX
  5
93A2
  8
AM_0
 10
448.94853404482689
 20
68.201805695141275
 30
0.0
 70
    32
  0
VERTEX
  5
93A3
  8
AM_0
 10
448.95353404482711
 20
68.201405695141389
 30
0.0
 70
    32
  0
VERTEX
  5
93A4
  8
AM_0
 10
448.9575340448269
 20
68.201105695140313
 30
0.0
 70
    32
  0
VERTEX
  5
93A5
  8
AM_0
 10
448.96153404482709
 20
68.200705695141323
 30
0.0
 70
    32
  0
VERTEX
  5
93A6
  8
AM_0
 10
448.96653404482697
 20
68.200305695142333
 30
0.0
 70
    32
  0
VERTEX
  5
93A7
  8
AM_0
 10
448.97053404482722
 20
68.199905695141297
 30
0.0
 70
    32
  0
VERTEX
  5
93A8
  8
AM_0
 10
448.97453404482712
 20
68.199605695142282
 30
0.0
 70
    32
  0
VERTEX
  5
93A9
  8
AM_0
 10
448.97953404482718
 20
68.199205695141245
 30
0.0
 70
    32
  0
VERTEX
  5
93AA
  8
AM_0
 10
448.98353404482708
 20
68.198805695142255
 30
0.0
 70
    32
  0
VERTEX
  5
93AB
  8
AM_0
 10
448.9875340448271
 20
68.19850569514233
 30
0.0
 70
    32
  0
VERTEX
  5
93AC
  8
AM_0
 10
448.99253404482698
 20
68.198105695141294
 30
0.0
 70
    32
  0
VERTEX
  5
93AD
  8
AM_0
 10
448.99653404482711
 20
68.197805695141355
 30
0.0
 70
    32
  0
VERTEX
  5
93AE
  8
AM_0
 10
449.00053404482719
 20
68.197505695141217
 30
0.0
 70
    32
  0
VERTEX
  5
93AF
  8
AM_0
 10
449.00553404482707
 20
68.197105695141332
 30
0.0
 70
    32
  0
VERTEX
  5
93B0
  8
AM_0
 10
449.00953404482721
 20
68.196805695141393
 30
0.0
 70
    32
  0
VERTEX
  5
93B1
  8
AM_0
 10
449.01353404482688
 20
68.196505695141241
 30
0.0
 70
    32
  0
VERTEX
  5
93B2
  8
AM_0
 10
449.01853404482722
 20
68.196205695140407
 30
0.0
 70
    32
  0
VERTEX
  5
93B3
  8
AM_0
 10
449.02253404482713
 20
68.195805695142326
 30
0.0
 70
    32
  0
VERTEX
  5
93B4
  8
AM_0
 10
449.02653404482732
 20
68.195505695141264
 30
0.0
 70
    32
  0
VERTEX
  5
93B5
  8
AM_0
 10
449.03153404482708
 20
68.19520569514134
 30
0.0
 70
    32
  0
VERTEX
  5
93B6
  8
AM_0
 10
449.03553404482687
 20
68.194905695141415
 30
0.0
 70
    32
  0
VERTEX
  5
93B7
  8
AM_0
 10
449.03953404482712
 20
68.194605695141263
 30
0.0
 70
    32
  0
VERTEX
  5
93B8
  8
AM_0
 10
449.04453404482689
 20
68.194305695141338
 30
0.0
 70
    32
  0
VERTEX
  5
93B9
  8
AM_0
 10
449.04853404482708
 20
68.194005695141414
 30
0.0
 70
    32
  0
VERTEX
  5
93BA
  8
AM_0
 10
449.0525340448271
 20
68.193705695141261
 30
0.0
 70
    32
  0
VERTEX
  5
93BB
  8
AM_0
 10
449.05753404482721
 20
68.193405695141351
 30
0.0
 70
    32
  0
VERTEX
  5
93BC
  8
AM_0
 10
449.06153404482711
 20
68.193205695142296
 30
0.0
 70
    32
  0
VERTEX
  5
93BD
  8
AM_0
 10
449.06553404482707
 20
68.192905695140325
 30
0.0
 70
    32
  0
VERTEX
  5
93BE
  8
AM_0
 10
449.07053404482713
 20
68.19260569514131
 30
0.0
 70
    32
  0
VERTEX
  5
93BF
  8
AM_0
 10
449.07453404482709
 20
68.192305695142295
 30
0.0
 70
    32
  0
VERTEX
  5
93C0
  8
AM_0
 10
449.07853404482722
 20
68.19210569514054
 30
0.0
 70
    32
  0
VERTEX
  5
93C1
  8
AM_0
 10
449.08353404482699
 20
68.191805695141284
 30
0.0
 70
    32
  0
VERTEX
  5
93C2
  8
AM_0
 10
449.08753404482718
 20
68.191605695142243
 30
0.0
 70
    32
  0
VERTEX
  5
93C3
  8
AM_0
 10
449.09153404482691
 20
68.191305695142319
 30
0.0
 70
    32
  0
VERTEX
  5
93C4
  8
AM_0
 10
449.09653404482719
 20
68.191105695141232
 30
0.0
 70
    32
  0
VERTEX
  5
93C5
  8
AM_0
 10
449.10053404482687
 20
68.190805695141293
 30
0.0
 70
    32
  0
VERTEX
  5
93C6
  8
AM_0
 10
449.10453404482712
 20
68.190605695142253
 30
0.0
 70
    32
  0
VERTEX
  5
93C7
  8
AM_0
 10
449.10953404482689
 20
68.190305695141433
 30
0.0
 70
    32
  0
VERTEX
  5
93C8
  8
AM_0
 10
449.1135340448273
 20
68.190105695141256
 30
0.0
 70
    32
  0
VERTEX
  5
93C9
  8
AM_0
 10
449.1175340448271
 20
68.189905695141292
 30
0.0
 70
    32
  0
VERTEX
  5
93CA
  8
AM_0
 10
449.12253404482732
 20
68.189705695142266
 30
0.0
 70
    32
  0
VERTEX
  5
93CB
  8
AM_0
 10
449.12653404482711
 20
68.189405695141431
 30
0.0
 70
    32
  0
VERTEX
  5
93CC
  8
AM_0
 10
449.13053404482707
 20
68.189205695141254
 30
0.0
 70
    32
  0
VERTEX
  5
93CD
  8
AM_0
 10
449.13553404482712
 20
68.189005695140395
 30
0.0
 70
    32
  0
VERTEX
  5
93CE
  8
AM_0
 10
449.13953404482709
 20
68.188805695141369
 30
0.0
 70
    32
  0
VERTEX
  5
93CF
  8
AM_0
 10
449.14353404482722
 20
68.188605695141405
 30
0.0
 70
    32
  0
VERTEX
  5
93D0
  8
AM_0
 10
449.1485340448271
 20
68.188405695140318
 30
0.0
 70
    32
  0
VERTEX
  5
93D1
  8
AM_0
 10
449.15253404482712
 20
68.188205695141264
 30
0.0
 70
    32
  0
VERTEX
  5
93D2
  8
AM_0
 10
449.15653404482708
 20
68.188005695141328
 30
0.0
 70
    32
  0
VERTEX
  5
93D3
  8
AM_0
 10
449.16153404482708
 20
68.187805695142274
 30
0.0
 70
    32
  0
VERTEX
  5
93D4
  8
AM_0
 10
449.1655340448271
 20
68.187605695141428
 30
0.0
 70
    32
  0
VERTEX
  5
93D5
  8
AM_0
 10
449.16953404482689
 20
68.187405695141251
 30
0.0
 70
    32
  0
VERTEX
  5
93D6
  8
AM_0
 10
449.17453404482723
 20
68.187205695141301
 30
0.0
 70
    32
  0
VERTEX
  5
93D7
  8
AM_0
 10
449.17853404482702
 20
68.187005695141352
 30
0.0
 70
    32
  0
VERTEX
  5
93D8
  8
AM_0
 10
449.18253404482698
 20
68.186905695141377
 30
0.0
 70
    32
  0
VERTEX
  5
93D9
  8
AM_0
 10
449.18753404482692
 20
68.186705695140489
 30
0.0
 70
    32
  0
VERTEX
  5
93DA
  8
AM_0
 10
449.19153404482711
 20
68.18650569514125
 30
0.0
 70
    32
  0
VERTEX
  5
93DB
  8
AM_0
 10
449.19653404482699
 20
68.186405695141275
 30
0.0
 70
    32
  0
VERTEX
  5
93DC
  8
AM_0
 10
449.20053404482718
 20
68.186205695141325
 30
0.0
 70
    32
  0
VERTEX
  5
93DD
  8
AM_0
 10
449.20453404482708
 20
68.186005695141375
 30
0.0
 70
    32
  0
VERTEX
  5
93DE
  8
AM_0
 10
449.20953404482719
 20
68.18590569514231
 30
0.0
 70
    32
  0
VERTEX
  5
93DF
  8
AM_0
 10
449.21353404482699
 20
68.185705695141223
 30
0.0
 70
    32
  0
VERTEX
  5
93E0
  8
AM_0
 10
449.21753404482689
 20
68.185605695141248
 30
0.0
 70
    32
  0
VERTEX
  5
93E1
  8
AM_0
 10
449.222534044827
 20
68.185405695140389
 30
0.0
 70
    32
  0
VERTEX
  5
93E2
  8
AM_0
 10
449.22653404482708
 20
68.185305695141324
 30
0.0
 70
    32
  0
VERTEX
  5
93E3
  8
AM_0
 10
449.23053404482721
 20
68.185205695142258
 30
0.0
 70
    32
  0
VERTEX
  5
93E4
  8
AM_0
 10
449.23553404482709
 20
68.185005695141399
 30
0.0
 70
    32
  0
VERTEX
  5
93E5
  8
AM_0
 10
449.23953404482711
 20
68.184905695141424
 30
0.0
 70
    32
  0
VERTEX
  5
93E6
  8
AM_0
 10
449.24353404482707
 20
68.184805695141222
 30
0.0
 70
    32
  0
VERTEX
  5
93E7
  8
AM_0
 10
449.24853404482712
 20
68.184705695141247
 30
0.0
 70
    32
  0
VERTEX
  5
93E8
  8
AM_0
 10
449.25253404482709
 20
68.184605695141272
 30
0.0
 70
    32
  0
VERTEX
  5
93E9
  8
AM_0
 10
449.25653404482699
 20
68.184505695141297
 30
0.0
 70
    32
  0
VERTEX
  5
93EA
  8
AM_0
 10
449.26153404482721
 20
68.184305695141319
 30
0.0
 70
    32
  0
VERTEX
  5
93EB
  8
AM_0
 10
449.26553404482701
 20
68.184205695141344
 30
0.0
 70
    32
  0
VERTEX
  5
93EC
  8
AM_0
 10
449.26953404482708
 20
68.184105695141383
 30
0.0
 70
    32
  0
VERTEX
  5
93ED
  8
AM_0
 10
449.27453404482702
 20
68.184005695141423
 30
0.0
 70
    32
  0
VERTEX
  5
93EE
  8
AM_0
 10
449.27853404482698
 20
68.184005695141423
 30
0.0
 70
    32
  0
VERTEX
  5
93EF
  8
AM_0
 10
449.28253404482712
 20
68.183905695140311
 30
0.0
 70
    32
  0
VERTEX
  5
93F0
  8
AM_0
 10
449.28753404482711
 20
68.183805695141245
 30
0.0
 70
    32
  0
VERTEX
  5
93F1
  8
AM_0
 10
449.29153404482707
 20
68.183705695141271
 30
0.0
 70
    32
  0
VERTEX
  5
93F2
  8
AM_0
 10
449.29553404482721
 20
68.183605695141296
 30
0.0
 70
    32
  0
VERTEX
  5
93F3
  8
AM_0
 10
449.30053404482709
 20
68.183605695141296
 30
0.0
 70
    32
  0
VERTEX
  5
93F4
  8
AM_0
 10
449.30453404482688
 20
68.183505695141321
 30
0.0
 70
    32
  0
VERTEX
  5
93F5
  8
AM_0
 10
449.30853404482718
 20
68.18340569514136
 30
0.0
 70
    32
  0
VERTEX
  5
93F6
  8
AM_0
 10
449.31353404482712
 20
68.18340569514136
 30
0.0
 70
    32
  0
VERTEX
  5
93F7
  8
AM_0
 10
449.3175340448272
 20
68.18330569514228
 30
0.0
 70
    32
  0
VERTEX
  5
93F8
  8
AM_0
 10
449.32253404482708
 20
68.18320569514232
 30
0.0
 70
    32
  0
VERTEX
  5
93F9
  8
AM_0
 10
449.32653404482721
 20
68.18320569514232
 30
0.0
 70
    32
  0
VERTEX
  5
93FA
  8
AM_0
 10
449.33053404482712
 20
68.183105695141421
 30
0.0
 70
    32
  0
VERTEX
  5
93FB
  8
AM_0
 10
449.33553404482711
 20
68.183105695141421
 30
0.0
 70
    32
  0
VERTEX
  5
93FC
  8
AM_0
 10
449.33953404482708
 20
68.183005695141205
 30
0.0
 70
    32
  0
VERTEX
  5
93FD
  8
AM_0
 10
449.34353404482721
 20
68.183005695141205
 30
0.0
 70
    32
  0
VERTEX
  5
93FE
  8
AM_0
 10
449.34853404482709
 20
68.182905695141244
 30
0.0
 70
    32
  0
VERTEX
  5
93FF
  8
AM_0
 10
449.35253404482688
 20
68.182905695141244
 30
0.0
 70
    32
  0
VERTEX
  5
9400
  8
AM_0
 10
449.35653404482707
 20
68.182805695141283
 30
0.0
 70
    32
  0
VERTEX
  5
9401
  8
AM_0
 10
449.36153404482701
 20
68.182805695141283
 30
0.0
 70
    32
  0
VERTEX
  5
9402
  8
AM_0
 10
449.36553404482709
 20
68.182805695141283
 30
0.0
 70
    32
  0
VERTEX
  5
9403
  8
AM_0
 10
449.36953404482711
 20
68.182705695141294
 30
0.0
 70
    32
  0
VERTEX
  5
9404
  8
AM_0
 10
449.3745340448271
 20
68.182705695141294
 30
0.0
 70
    32
  0
VERTEX
  5
9405
  8
AM_0
 10
449.37853404482712
 20
68.182605695141319
 30
0.0
 70
    32
  0
VERTEX
  5
9406
  8
AM_0
 10
449.3825340448272
 20
68.182605695141319
 30
0.0
 70
    32
  0
VERTEX
  5
9407
  8
AM_0
 10
449.38753404482708
 20
68.182605695141319
 30
0.0
 70
    32
  0
VERTEX
  5
9408
  8
AM_0
 10
449.39153404482721
 20
68.182505695141344
 30
0.0
 70
    32
  0
SEQEND
  5
9409
  8
AM_0
  0
LINE
  5
940A
  8
AM_0
 10
459.89158110990093
 20
68.182539373082363
 30
0.0
 11
449.39158110990081
 21
68.182539373082363
 31
0.0
  0
ARC
  5
940B
  8
AM_0
 10
449.39158110990081
 20
60.412690892099363
 30
0.0
 40
2.5
 50
180.0
 51
270.0
  0
LINE
  5
940C
  8
AM_0
 10
446.89158110990081
 20
56.31269089209718
 30
0.0
 11
446.89158110990081
 21
127.3126908920983
 31
0.0
  0
ARC
  5
940D
  8
AM_0
 10
447.39158110990093
 20
56.312690892098317
 30
0.0
 40
0.5
 50
180.0
 51
270.0
  0
LINE
  5
940E
  8
AM_0
 10
449.39158110990081
 20
57.912690892098453
 30
0.0
 11
458.42658110990089
 21
57.912690892098453
 31
0.0
  0
LINE
  5
940F
  8
AM_0
 10
463.89158110990093
 20
116.3126908920962
 30
0.0
 11
463.89158110990093
 21
127.8126908920962
 31
0.0
  0
LINE
  5
9410
  8
AM_0
 10
463.89158110990093
 20
127.8126908920983
 30
0.0
 11
463.89158110990093
 21
97.312690892097393
 31
0.0
  0
LINE
  5
9411
  8
AM_0
 10
463.89158110990093
 20
86.312690892098274
 30
0.0
 11
463.89158110990093
 21
55.812690892098331
 31
0.0
  0
LINE
  5
9412
  8
AM_0
 10
474.6090885848518
 20
116.3126908920962
 30
0.0
 11
463.89158110990093
 21
116.3126908920962
 31
0.0
  0
LINE
  5
9413
  8
AM_0
 10
463.89158110990093
 20
55.812690892096271
 30
0.0
 11
463.89158110990093
 21
67.312690892096271
 31
0.0
  0
LINE
  5
9414
  8
AM_0
 10
471.04814814165638
 20
67.312690892096271
 30
0.0
 11
463.89158110990093
 21
67.312690892096271
 31
0.0
  0
LINE
  5
9418
  8
ﾁｭｳｼﾝｾﾝ
 10
480.1758760516671
 20
91.306980371696355
 30
0.0
 11
635.62703816813485
 21
91.306980371696355
 31
0.0
  0
LINE
  5
9649
  8
AM_0
 10
356.54853510990091
 20
370.42067624969923
 30
0.0
 11
388.54853510990102
 21
370.42067624969923
 31
0.0
  0
LINE
  5
964A
  8
AM_0
 10
356.54853510990091
 20
362.42070624969921
 30
0.0
 11
388.54853510990102
 21
362.42070624969921
 31
0.0
  0
LINE
  5
964B
  8
AM_0
 10
346.54856510990089
 20
352.42073624969919
 30
0.0
 11
388.54853510990102
 21
352.42073624969919
 31
0.0
  0
LINE
  5
964C
  8
AM_0
 10
346.54856510990089
 20
380.4207362496993
 30
0.0
 11
388.54853510990102
 21
380.4207362496993
 31
0.0
  0
LINE
  5
964D
  8
ﾁｭｳｼﾝｾﾝ
 10
9.4369351099010714
 20
366.42070624969921
 30
0.0
 11
393.255565109901
 21
366.42070624969921
 31
0.0
  0
ARC
  5
973B
  8
AM_0
 10
356.54853510990091
 20
366.42067624969923
 30
0.0
 40
3.9999962
 50
90.000003000000945
 51
270.0
  0
LINE
  5
973F
  8
AM_0
 10
224.04856510990081
 20
302.92070624969898
 30
0.0
 11
224.04856510990081
 21
429.92070624969909
 31
0.0
  0
LINE
  5
9740
  8
AM_0
 10
260.54853510990091
 20
295.33052624969918
 30
0.0
 11
260.54853510990091
 21
437.51088624969918
 31
0.0
  0
LINE
  5
9741
  8
AM_0
 10
250.54856510990089
 20
289.5918462496993
 30
0.0
 11
250.54856510990089
 21
443.24956624969911
 31
0.0
  0
LINE
  5
9742
  8
AM_0
 10
328.54856510990078
 20
311.24916624969921
 30
0.0
 11
328.54856510990078
 21
421.59224624969897
 31
0.0
  0
LINE
  5
9743
  8
AM_0
 10
343.54856510990101
 20
394.4465562496992
 30
0.0
 11
343.54856510990101
 21
338.39485624969922
 31
0.0
  0
LINE
  5
9744
  8
AM_0
 10
340.54856510990089
 20
312.29368624969919
 30
0.0
 11
340.54856510990089
 21
420.54771624969908
 31
0.0
  0
LINE
  5
9745
  8
AM_0
 10
267.54856510990089
 20
284.16975624969888
 30
0.0
 11
267.54856510990089
 21
448.6716562496992
 31
0.0
  0
LINE
  5
9746
  8
AM_0
 10
356.54853510990091
 20
370.42067624969923
 30
0.0
 11
356.54853510990091
 21
362.42070624969921
 31
0.0
  0
LINE
  5
9747
  8
AM_0
 10
346.54856510990089
 20
381.42070624969921
 30
0.0
 11
346.54856510990089
 21
351.42070624969909
 31
0.0
  0
ARC
  5
9748
  8
ｶｸﾚｾﾝ2
 10
248.54856510990089
 20
291.42070624969909
 30
0.0
 40
6.0
 50
302.21193000000079
 51
70.528778999998195
  0
ARC
  5
9749
  8
AM_0
 10
255.54856510990081
 20
289.5918462496993
 30
0.0
 40
5.0
 50
180.00001000000091
 51
267.9999999999996
  0
ARC
  5
974A
  8
AM_0
 10
248.54856510990089
 20
291.42070624969909
 30
0.0
 40
6.0
 50
70.528778999998195
 51
302.21194000000139
  0
LINE
  5
974B
  8
AM_0
 10
267.54856510990089
 20
286.31334624969929
 30
0.0
 11
251.77344510990079
 21
286.31334624969929
 31
0.0
  0
LINE
  5
974C
  8
AM_0
 10
250.54856510990089
 20
307.11220624969923
 30
0.0
 11
260.54853510990091
 21
307.11220624969923
 31
0.0
  0
LINE
  5
974D
  8
AM_0
 10
236.47004510990081
 20
277.31306624969909
 30
0.0
 11
270.54856510990078
 21
276.42070624969909
 31
0.0
  0
LINE
  5
9763
  8
AM_0
 10
233.54856510990089
 20
280.3120362496993
 30
0.0
 11
233.54856510990089
 21
299.20460624969922
 31
0.0
  0
ARC
  5
979F
  8
AM_0
 10
236.54856510990081
 20
280.3120362496993
 30
0.0
 40
3.0
 50
180.00001000000091
 51
268.5000000000004
  0
LINE
  5
97C5
  8
AM_0
 10
224.04856510990081
 20
314.3806962496991
 30
0.0
 11
250.54853510990091
 21
314.3806962496991
 31
0.0
  0
LINE
  5
97C6
  8
AM_0
 10
224.04859510990079
 20
302.92067624969923
 30
0.0
 11
247.65324510990081
 21
302.09639624969918
 31
0.0
  0
ARC
  5
97D3
  8
AM_0
 10
236.54856510990081
 20
299.20460624969922
 30
0.0
 40
3.0
 50
105.00000000000161
 51
180.00001000000091
  0
LINE
  5
97D4
  8
AM_0
 10
235.77210510990091
 20
302.10237624969909
 30
0.0
 11
237.1222351099008
 21
302.46416624969908
 31
0.0
  0
ARC
  5
97D5
  8
AM_0
 10
247.54856510990089
 20
299.09822624969922
 30
0.0
 40
3.0
 50
0.0
 51
87.999999999999659
  0
LINE
  5
97D6
  8
AM_0
 10
224.04856510990081
 20
329.27278624969921
 30
0.0
 11
250.54853510990091
 21
329.27278624969921
 31
0.0
  0
POLYLINE
  5
97DC
  8
AM_0
 66
     1
 10
0.0
 20
0.0
 30
0.0
  0
VERTEX
  5
97DD
  8
AM_0
 10
268.8121051099011
 20
286.4917262496993
 30
0.0
 42
0.021277534
  0
VERTEX
  5
97DE
  8
AM_0
 10
279.6422451099009
 20
288.5482462496991
 30
0.0
 42
0.020622971
  0
VERTEX
  5
97DF
  8
AM_0
 10
289.76700510990088
 20
291.36528624969918
 30
0.0
 42
0.022709
  0
VERTEX
  5
97E0
  8
AM_0
 10
300.5739251099011
 20
295.41084624969898
 30
0.0
  0
SEQEND
  5
97E1
  8
AM_0
  0
POLYLINE
  5
97E2
  8
AM_0
 66
     1
 10
0.0
 20
0.0
 30
0.0
  0
VERTEX
  5
97E3
  8
AM_0
 10
267.54856510990089
 20
328.14561624969917
 30
0.0
 42
-0.059991193
  0
VERTEX
  5
97E4
  8
AM_0
 10
293.13737510990092
 20
312.21340624969901
 30
0.0
 42
-0.30883796
  0
VERTEX
  5
97E5
  8
AM_0
 10
302.54853510990091
 20
296.27266624969923
 30
0.0
 42
-0.25905842
  0
VERTEX
  5
97E6
  8
AM_0
 10
268.09886510990083
 20
276.48460624969908
 30
0.0
  0
SEQEND
  5
97E7
  8
AM_0
  0
CIRCLE
  5
97E8
  8
AM_0
 10
328.54856510990078
 20
291.42070624969909
 30
0.0
 40
6.0
  0
LINE
  5
97E9
  8
AM_0
 10
310.54856510990078
 20
282.6007862496993
 30
0.0
 11
310.54856510990078
 21
298.06660624969908
 31
0.0
  0
LINE
  5
97EB
  8
AM_0
 10
343.54856510990101
 20
281.25474624969928
 30
0.0
 11
343.54856510990101
 21
308.42070624969921
 31
0.0
  0
LINE
  5
97EC
  8
AM_0
 10
270.54856510990078
 20
276.42070624969909
 30
0.0
 11
340.62708510990092
 21
278.25578624969921
 31
0.0
  0
ARC
  5
97ED
  8
AM_0
 10
265.54856510990089
 20
277.5533662496992
 30
0.0
 40
1.0
 50
270.0
 51
0.0
  0
ARC
  5
97EE
  8
AM_0
 10
265.54856510990089
 20
281.5533662496992
 30
0.0
 40
5.0
 50
268.5000000000004
 51
0.0000006832462478
  0
LINE
  5
97EF
  8
AM_0
 10
267.54856510990089
 20
284.16975624969888
 30
0.0
 11
255.37406510990081
 21
284.59489624969922
 31
0.0
  0
ARC
  5
97F0
  8
AM_0
 10
267.54856510990089
 20
280.8965062496992
 30
0.0
 40
1.0
 50
109.47121999999951
 51
180.00001000000091
  0
ARC
  5
97F1
  8
AM_0
 10
265.54856510990089
 20
286.55336624969908
 30
0.0
 40
5.0
 50
289.4712300000017
 51
331.5287600000002
  0
LINE
  5
97F2
  8
AM_0
 10
266.54856510990078
 20
277.5533662496992
 30
0.0
 11
266.54856510990078
 21
280.8965062496992
 31
0.0
  0
LINE
  5
97F3
  8
AM_0
 10
270.54856510990078
 20
281.5533662496992
 30
0.0
 11
270.54856510990078
 21
284.16975624969888
 31
0.0
  0
LINE
  5
97F4
  8
AM_0
 10
267.54856510990089
 20
284.16975624969888
 30
0.0
 11
270.54856510990078
 21
284.16975624969888
 31
0.0
  0
ARC
  5
97F5
  8
AM_0
 10
315.54856510990089
 20
282.6007862496993
 30
0.0
 40
5.0
 50
180.00001000000091
 51
271.49999999999937
  0
ARC
  5
97F6
  8
AM_0
 10
340.54856510990089
 20
281.25474624969928
 30
0.0
 40
3.0
 50
271.49999999999937
 51
0.0
  0
LINE
  5
97F7
  8
AM_0
 10
267.54856510990089
 20
328.14561624969917
 30
0.0
 11
260.54853510990091
 21
328.14561624969917
 31
0.0
  0
LINE
  5
97F9
  8
AM_0
 10
337.81000510990083
 20
312.18111624969907
 30
0.0
 11
332.01459510990088
 21
311.67409624969918
 31
0.0
  0
ARC
  5
97FA
  8
AM_0
 10
318.54856510990078
 20
298.06660624969908
 30
0.0
 40
8.0
 50
91.999998000000545
 51
180.00001000000091
  0
ARC
  5
97FB
  8
AM_0
 10
323.54856510990078
 20
311.24916624969921
 30
0.0
 40
5.0
 50
272.0000000000004
 51
0.0
  0
LINE
  5
97FC
  8
AM_0
 10
323.72306510990092
 20
306.25218624969909
 30
0.0
 11
318.26935510990091
 21
306.06175624969922
 31
0.0
  0
ARC
  5
97FD
  8
AM_0
 10
332.45038510990088
 20
306.6931062496991
 30
0.0
 40
5.0
 50
95.00000199999856
 51
152.896189999999
  0
ARC
  5
97FE
  8
AM_0
 10
340.54856510990089
 20
308.42070624969921
 30
0.0
 40
3.0
 50
0.0
 51
75.522487999998262
  0
ARC
  5
97FF
  8
AM_0
 10
337.54856510990078
 20
315.1696962496992
 30
0.0
 40
3.0
 50
274.99999999999972
 51
0.0
  0
ARC
  5
9800
  8
AM_0
 10
341.54856510990078
 20
312.29368624969919
 30
0.0
 40
1.0
 50
180.00001000000091
 51
255.5224900000002
  0
LINE
  5
9801
  8
AM_0
 10
341.52238510990088
 20
337.3676662496992
 30
0.0
 11
342.5747451099009
 21
337.39522624969919
 31
0.0
  0
ARC
  5
9802
  8
AM_0
 10
341.54856510990078
 20
336.36800624969919
 30
0.0
 40
1.0
 50
91.500001000001546
 51
180.00001000000091
  0
ARC
  5
9803
  8
AM_0
 10
342.54856510990089
 20
338.39485624969922
 30
0.0
 40
1.0
 50
271.49999999999937
 51
0.0
  0
LINE
  5
9804
  8
AM_0
 10
343.54856510990101
 20
351.42070624969909
 30
0.0
 11
346.54856510990089
 21
351.42070624969909
 31
0.0
  0
ARC
  5
9805
  8
AM_0
 10
248.54856510990089
 20
441.42070624969898
 30
0.0
 40
6.0
 50
57.78807200000049
 51
289.4712300000017
  0
ARC
  5
9806
  8
AM_0
 10
255.54856510990081
 20
443.24956624969911
 30
0.0
 40
5.0
 50
91.999998000000545
 51
180.00001000000091
  0
ARC
  5
9807
  8
ｶｸﾚｾﾝ2
 10
248.54856510990089
 20
441.42070624969898
 30
0.0
 40
6.0
 50
289.4712300000017
 51
57.78807200000049
  0
LINE
  5
9808
  8
AM_0
 10
267.54856510990089
 20
446.52806624969918
 30
0.0
 11
251.77344510990079
 21
446.52806624969918
 31
0.0
  0
LINE
  5
9809
  8
AM_0
 10
250.54856510990089
 20
425.72920624969919
 30
0.0
 11
260.54853510990091
 21
425.72920624969919
 31
0.0
  0
LINE
  5
980A
  8
AM_0
 10
236.47004510990081
 20
455.52830624969903
 30
0.0
 11
270.54856510990078
 21
456.42067624969923
 31
0.0
  0
LINE
  5
980D
  8
AM_0
 10
233.54856510990089
 20
452.5293462496993
 30
0.0
 11
233.54856510990089
 21
433.6367962496991
 31
0.0
  0
LINE
  5
9827
  8
AM_0
 10
224.04856510990081
 20
403.56862624969932
 30
0.0
 11
250.54853510990091
 21
403.56862624969932
 31
0.0
  0
LINE
  5
982D
  8
AM_0
 10
224.04856510990081
 20
429.92070624969909
 30
0.0
 11
247.6532751099009
 21
430.74501624969912
 31
0.0
  0
LINE
  5
982E
  8
AM_0
 10
224.04856510990081
 20
418.46071624969909
 30
0.0
 11
250.54853510990091
 21
418.46071624969909
 31
0.0
  0
ARC
  5
983D
  8
AM_0
 10
236.54856510990081
 20
433.6367962496991
 30
0.0
 40
3.0
 50
180.00001000000091
 51
254.99999000000091
  0
LINE
  5
983E
  8
AM_0
 10
235.7721351099008
 20
430.7390362496991
 30
0.0
 11
237.12226510990081
 21
430.37724624969923
 31
0.0
  0
ARC
  5
983F
  8
AM_0
 10
247.54856510990089
 20
433.74318624969902
 30
0.0
 40
3.0
 50
272.0000000000004
 51
0.0
  0
ARC
  5
9840
  8
AM_0
 10
236.54856510990081
 20
452.5293462496993
 30
0.0
 40
3.0
 50
91.500001000001546
 51
180.00001000000091
  0
POLYLINE
  5
9841
  8
AM_0
 66
     1
 10
0.0
 20
0.0
 30
0.0
  0
VERTEX
  5
9842
  8
AM_0
 10
268.8121051099011
 20
446.34968624969918
 30
0.0
 42
-0.021277534
  0
VERTEX
  5
9843
  8
AM_0
 10
279.6422451099009
 20
444.2931662496992
 30
0.0
 42
-0.020622971
  0
VERTEX
  5
9844
  8
AM_0
 10
289.76700510990088
 20
441.47612624969918
 30
0.0
 42
-0.022709
  0
VERTEX
  5
9845
  8
AM_0
 10
300.5739251099011
 20
437.43056624969921
 30
0.0
  0
SEQEND
  5
9846
  8
AM_0
  0
POLYLINE
  5
9847
  8
AM_0
 66
     1
 10
0.0
 20
0.0
 30
0.0
  0
VERTEX
  5
9848
  8
AM_0
 10
267.54856510990089
 20
404.6957862496991
 30
0.0
 42
0.059991175
  0
VERTEX
  5
9849
  8
AM_0
 10
293.13737510990092
 20
420.62799624969898
 30
0.0
 42
0.30883786
  0
VERTEX
  5
984A
  8
AM_0
 10
302.54853510990091
 20
436.56874624969919
 30
0.0
 42
0.25905849
  0
VERTEX
  5
984B
  8
AM_0
 10
268.09888510990078
 20
456.3567962496993
 30
0.0
  0
SEQEND
  5
984C
  8
AM_0
  0
CIRCLE
  5
984D
  8
AM_0
 10
328.54856510990078
 20
441.42070624969898
 30
0.0
 40
6.0
  0
LINE
  5
984E
  8
AM_0
 10
310.54856510990078
 20
434.77479624969919
 30
0.0
 11
310.54856510990078
 21
450.2406162496992
 31
0.0
  0
LINE
  5
9850
  8
AM_0
 10
343.54856510990101
 20
451.58665624969922
 30
0.0
 11
343.54856510990101
 21
424.42070624969898
 31
0.0
  0
LINE
  5
9851
  8
AM_0
 10
267.54856510990089
 20
404.6957862496991
 30
0.0
 11
260.54853510990091
 21
404.6957862496991
 31
0.0
  0
LINE
  5
9852
  8
AM_0
 10
343.54856510990101
 20
381.42070624969921
 30
0.0
 11
346.54856510990089
 21
381.42070624969921
 31
0.0
  0
ARC
  5
9853
  8
AM_0
 10
342.54856510990089
 20
394.4465562496992
 30
0.0
 40
1.0
 50
0.0
 51
88.499997000000747
  0
ARC
  5
9854
  8
AM_0
 10
341.54856510990078
 20
396.47340624969922
 30
0.0
 40
1.0
 50
180.00001000000091
 51
268.5000000000004
  0
LINE
  5
9855
  8
AM_0
 10
341.52241510990081
 20
395.4737762496992
 30
0.0
 11
342.5747451099009
 21
395.44621624969921
 31
0.0
  0
LINE
  5
9856
  8
AM_0
 10
337.81003510990109
 20
420.66029624969912
 30
0.0
 11
332.01459510990088
 21
421.16734624969922
 31
0.0
  0
ARC
  5
9858
  8
AM_0
 10
323.54856510990078
 20
421.59224624969897
 30
0.0
 40
5.0
 50
0.0
 51
87.999999999999659
  0
ARC
  5
9859
  8
AM_0
 10
332.45038510990088
 20
426.14830624969898
 30
0.0
 40
5.0
 50
207.10381000000089
 51
265.00001000000071
  0
LINE
  5
985A
  8
AM_0
 10
323.7230351099011
 20
426.58922624969932
 30
0.0
 11
318.26935510990091
 21
426.77965624969897
 31
0.0
  0
ARC
  5
985B
  8
AM_0
 10
318.54856510990078
 20
434.77479624969919
 30
0.0
 40
8.0
 50
180.00001000000091
 51
267.9999999999996
  0
ARC
  5
985C
  8
AM_0
 10
340.54856510990089
 20
424.42070624969898
 30
0.0
 40
3.0
 50
284.47750999999971
 51
0.0
  0
ARC
  5
985D
  8
AM_0
 10
337.54856510990078
 20
417.67171624969922
 30
0.0
 40
3.0
 50
0.0
 51
85.000004000001198
  0
ARC
  5
985E
  8
AM_0
 10
341.54856510990078
 20
420.54771624969908
 30
0.0
 40
1.0
 50
104.4775099999998
 51
180.00001000000091
  0
LINE
  5
985F
  8
AM_0
 10
270.54856510990078
 20
456.42070624969909
 30
0.0
 11
340.62708510990092
 21
454.58562624969898
 31
0.0
  0
ARC
  5
9860
  8
AM_0
 10
265.54856510990089
 20
455.28804624969911
 30
0.0
 40
1.0
 50
0.0
 51
90.000003000000945
  0
ARC
  5
9861
  8
AM_0
 10
265.54856510990089
 20
451.28804624969911
 30
0.0
 40
5.0
 50
0.0
 51
91.500001000001546
  0
LINE
  5
9862
  8
AM_0
 10
267.54853510990091
 20
448.6716562496992
 30
0.0
 11
255.3740351099008
 21
448.24650624969911
 31
0.0
  0
LINE
  5
9863
  8
AM_0
 10
266.54856510990078
 20
455.28804624969911
 30
0.0
 11
266.54856510990078
 21
451.94490624969927
 31
0.0
  0
ARC
  5
9864
  8
AM_0
 10
267.54856510990089
 20
451.94490624969927
 30
0.0
 40
1.0
 50
180.00001000000091
 51
250.52876999999819
  0
ARC
  5
9865
  8
AM_0
 10
265.54856510990089
 20
446.28804624969911
 30
0.0
 40
5.0
 50
28.471238999999581
 51
70.528778999998195
  0
LINE
  5
9866
  8
AM_0
 10
267.54856510990089
 20
448.6716562496992
 30
0.0
 11
270.54856510990078
 21
448.6716562496992
 31
0.0
  0
LINE
  5
9867
  8
AM_0
 10
270.54856510990078
 20
451.28804624969911
 30
0.0
 11
270.54856510990078
 21
448.6716562496992
 31
0.0
  0
ARC
  5
9868
  8
AM_0
 10
315.54856510990089
 20
450.2406162496992
 30
0.0
 40
5.0
 50
88.499997000000747
 51
180.00001000000091
  0
ARC
  5
9869
  8
AM_0
 10
340.54856510990089
 20
451.58665624969922
 30
0.0
 40
3.0
 50
0.0
 51
88.499997000000747
  0
LINE
  5
986A
  8
AM_0
 10
388.54853510990102
 20
380.4207362496993
 30
0.0
 11
388.54853510990102
 21
352.42073624969919
 31
0.0
  0
LINE
  5
99E3
  8
AM_0
 10
121.5734388440532
 20
289.42070624969972
 30
0.0
 11
202.0485651099003
 21
289.42070624969938
 31
0.0
  0
LINE
  5
99E4
  8
AM_0
 10
203.0485651099001
 20
272.42070624969938
 30
0.0
 11
194.67343884405341
 21
272.42070624969898
 31
0.0
  0
LINE
  5
99E5
  8
AM_0
 10
195.02854510990059
 20
333.06071624969923
 30
0.0
 11
212.8685751099006
 21
333.06071624969923
 31
0.0
  0
LINE
  5
99E6
  8
AM_0
 10
195.04856510990081
 20
339.9407262496992
 30
0.0
 11
213.08280510990059
 21
339.9407262496992
 31
0.0
  0
LINE
  5
99E7
  8
AM_0
 10
209.38859510990051
 20
332.42070624969909
 30
0.0
 11
195.04856510990081
 21
332.42070624969909
 31
0.0
  0
LINE
  5
99E8
  8
AM_0
 10
209.38139510990061
 20
340.42070624969921
 30
0.0
 11
195.04856510990081
 21
340.42070624969921
 31
0.0
  0
LINE
  5
99E9
  8
AM_0
 10
209.38859510990051
 20
330.42070624969909
 30
0.0
 11
165.04856510990061
 21
330.42070624969909
 31
0.0
  0
LINE
  5
99EA
  8
AM_0
 10
165.04856510990061
 20
329.70073624969928
 30
0.0
 11
212.8685751099006
 21
329.70073624969928
 31
0.0
  0
LINE
  5
99EB
  8
AM_0
 10
82.508585109900679
 20
342.8606462496993
 30
0.0
 11
213.08280510990059
 21
342.8606462496993
 31
0.0
  0
LINE
  5
99EC
  8
AM_0
 10
209.38139510990061
 20
342.42070624969921
 30
0.0
 11
83.584215109900583
 21
342.42070624969921
 31
0.0
  0
LINE
  5
99ED
  8
AM_0
 10
82.508585109900679
 20
389.99064624969941
 30
0.0
 11
213.08280510990059
 21
389.99064624969941
 31
0.0
  0
LINE
  5
99EE
  8
AM_0
 10
82.718545109900703
 20
403.15068624969939
 30
0.0
 11
212.8685751099006
 21
403.15068624969939
 31
0.0
  0
LINE
  5
99EF
  8
AM_0
 10
209.38139510990061
 20
390.42070624969932
 30
0.0
 11
83.5985551099009
 21
390.42070624969932
 31
0.0
  0
LINE
  5
99F0
  8
AM_0
 10
209.38859510990051
 20
402.42070624969932
 30
0.0
 11
83.5985551099009
 21
402.42070624969932
 31
0.0
  0
LINE
  5
99F1
  8
AM_0
 10
92.048565109900792
 20
430.31071624969911
 30
0.0
 11
210.56852510990061
 21
430.31071624969911
 31
0.0
  0
LINE
  5
99F2
  8
AM_0
 10
92.048565109900792
 20
431.67070624969909
 30
0.0
 11
210.27622510990051
 21
431.67070624969909
 31
0.0
  0
LINE
  5
99F3
  8
AM_0
 10
92.048565109900792
 20
432.34074624969941
 30
0.0
 11
210.13224510990051
 21
432.34074624969941
 31
0.0
  0
LINE
  5
99F4
  8
AM_0
 10
92.048565109900792
 20
428.28068624969922
 30
0.0
 11
208.85856510990061
 21
428.28068624969922
 31
0.0
  0
LINE
  5
99F5
  8
AM_0
 10
110.04856510990081
 20
412.77067624969908
 30
0.0
 11
216.04856510990061
 21
412.77067624969908
 31
0.0
  0
LINE
  5
99F6
  8
AM_0
 10
92.048565109900792
 20
304.56071624969923
 30
0.0
 11
208.85856510990061
 21
304.56071624969923
 31
0.0
  0
LINE
  5
99F7
  8
AM_0
 10
110.04856510990081
 20
320.07072624969919
 30
0.0
 11
216.04856510990061
 21
320.07072624969919
 31
0.0
  0
LINE
  5
99F8
  8
AM_0
 10
195.04856510990081
 20
392.9106962496993
 30
0.0
 11
213.0942851099006
 21
392.9106962496993
 31
0.0
  0
LINE
  5
99F9
  8
AM_0
 10
195.02854510990059
 20
399.79069624969918
 30
0.0
 11
212.8685751099006
 21
399.79069624969918
 31
0.0
  0
LINE
  5
99FA
  8
AM_0
 10
209.39573510990081
 20
392.42070624969932
 30
0.0
 11
195.04856510990081
 21
392.42070624969932
 31
0.0
  0
LINE
  5
99FB
  8
AM_0
 10
209.38859510990051
 20
400.42070624969909
 30
0.0
 11
195.04856510990081
 21
400.42070624969909
 31
0.0
  0
LINE
  5
99FC
  8
AM_0
 10
197.17343884405381
 20
268.42070624969909
 30
0.0
 11
202.5485651099003
 21
268.42070624969909
 31
0.0
  0
LINE
  5
99FD
  8
AM_0
 10
196.56217510990069
 20
296.42070624969898
 30
0.0
 11
208.0647451099006
 21
296.42070624969898
 31
0.0
  0
ARC
  5
99FE
  8
AM_0
 10
144.4872851099006
 20
351.42070624969909
 30
0.0
 40
1.0000056999999991
 50
269.999989999999
 51
90.000003000000945
  0
ARC
  5
99FF
  8
AM_0
 10
145.71354510990071
 20
351.4106962496993
 30
0.0
 40
1.3300148000000001
 50
269.72941999999853
 51
90.270567000000995
  0
ARC
  5
9A00
  8
AM_0
 10
91.041365109900994
 20
351.42070624969909
 30
0.0
 40
1.0000259
 50
89.587534000000232
 51
270.4124599999987
  0
ARC
  5
9A01
  8
AM_0
 10
74.5985551099009
 20
351.42070624969909
 30
0.0
 40
1.0000056999999991
 50
90.000003000000945
 51
270.0
  0
ARC
  5
9A02
  8
AM_0
 10
73.372295109900634
 20
351.4106962496993
 30
0.0
 40
1.3300148000000001
 50
89.729417999999541
 51
270.27058999999991
  0
LINE
  5
9A03
  8
AM_0
 10
13.547135009900749
 20
422.42070624969921
 30
0.0
 11
13.547135009900749
 21
310.42070624969932
 31
0.0
  0
LINE
  5
9A04
  8
AM_0
 10
21.5485651099008
 20
313.63871624969931
 30
0.0
 11
21.5485651099008
 21
419.17070624969881
 31
0.0
  0
LINE
  5
9A05
  8
AM_0
 10
64.048565109900807
 20
329.23564624969919
 30
0.0
 11
64.048565109900807
 21
403.60673624969911
 31
0.0
  0
LINE
  5
9A06
  8
AM_0
 10
19.0485651099008
 20
331.89164624969919
 30
0.0
 11
19.0485651099008
 21
400.94975624969942
 31
0.0
  0
LINE
  5
9A07
  8
AM_0
 10
18.547135009900739
 20
401.1591673454065
 30
0.0
 11
18.547135009900739
 21
331.68224515399191
 31
0.0
  0
LINE
  5
9A08
  8
AM_0
 10
69.048565109900807
 20
307.67070624969909
 30
0.0
 11
69.048565109900807
 21
366.42070624969932
 31
0.0
  0
LINE
  5
9A09
  8
AM_0
 10
70.858565109900638
 20
311.32072624969919
 30
0.0
 11
80.651345109900632
 21
311.32072624969919
 31
0.0
  0
LINE
  5
9A0A
  8
AM_0
 10
72.8099151099008
 20
306.2617362496992
 30
0.0
 11
72.328595109900704
 21
308.17076624969911
 31
0.0
  0
LINE
  5
9A0B
  8
AM_0
 10
73.238565109900634
 20
306.2906662496992
 30
0.0
 11
72.318585109900624
 21
310.17073624969919
 31
0.0
  0
ARC
  5
9A0C
  8
AM_0
 10
74.74918510990085
 20
306.75065624969909
 30
0.0
 40
2.0
 50
194.1507499999995
 51
269.999989999999
  0
LINE
  5
9A0D
  8
AM_0
 10
69.048565109900807
 20
323.7307562496992
 30
0.0
 11
79.048565109900679
 21
323.7307562496992
 31
0.0
  0
LINE
  5
9A0E
  8
AM_0
 10
69.048565109900807
 20
318.07072624969919
 30
0.0
 11
79.048565109900679
 21
318.07072624969919
 31
0.0
  0
LINE
  5
9A0F
  8
AM_0
 10
69.048565109900807
 20
332.12065624969932
 30
0.0
 11
79.048565109900679
 21
332.12065624969932
 31
0.0
  0
LINE
  5
9A10
  8
AM_0
 10
57.048565109900792
 20
307.67070624969932
 30
0.0
 11
57.048565109900792
 21
301.42070624969932
 31
0.0
  0
LINE
  5
9A11
  8
AM_0
 10
60.0485651099008
 20
306.42070624969932
 30
0.0
 11
60.0485651099008
 21
301.42070624969932
 31
0.0
  0
LINE
  5
9A12
  8
AM_0
 10
47.048565109900792
 20
307.67070624969932
 30
0.0
 11
47.048565109900792
 21
301.42070624969932
 31
0.0
  0
ARC
  5
9A13
  8
AM_0
 10
23.547135009900749
 20
311.42070624969932
 30
0.0
 40
5.0
 50
179.99997999999781
 51
269.99995000000138
  0
ARC
  5
9A14
  8
AM_0
 10
22.547135009900749
 20
310.42070624969932
 30
0.0
 40
9.0
 50
179.99997999999781
 51
269.99995000000138
  0
LINE
  5
9A15
  8
AM_0
 10
22.547135009900749
 20
301.42070624969932
 30
0.0
 11
60.0485651099008
 21
301.42070624969932
 31
0.0
  0
LINE
  5
9A16
  8
AM_0
 10
21.0485651099008
 20
313.67070624969932
 30
0.0
 11
69.048565109900807
 21
313.67070624969932
 31
0.0
  0
LINE
  5
9A17
  8
AM_0
 10
23.547135009900749
 20
306.42070624969932
 30
0.0
 11
47.048565109900792
 21
306.42070624969932
 31
0.0
  0
LINE
  5
9A18
  8
AM_0
 10
21.5485651099008
 20
322.52971624969922
 30
0.0
 11
64.048565109900807
 21
322.52971624969922
 31
0.0
  0
LINE
  5
9A19
  8
AM_0
 10
21.5485651099008
 20
332.77971624969922
 30
0.0
 11
64.048565109900807
 21
332.77971624969922
 31
0.0
  0
LINE
  5
9A1A
  8
AM_0
 10
16.948595109900701
 20
329.02971624969922
 30
0.0
 11
16.948595109900701
 21
326.02971624969922
 31
0.0
  0
LINE
  5
9A1B
  8
AM_0
 10
20.24857510990071
 20
332.12968624969932
 30
0.0
 11
20.24857510990071
 21
322.92973624969909
 31
0.0
  0
LINE
  5
9A1C
  8
AM_0
 10
19.0485651099008
 20
323.16777624969927
 30
0.0
 11
19.0485651099008
 21
315.67070624969932
 31
0.0
  0
LINE
  5
9A1D
  8
AM_0
 10
18.547135009900739
 20
323.37718734540653
 30
0.0
 11
18.547135009900739
 21
311.42070624969932
 31
0.0
  0
ARC
  5
9A1E
  8
AM_0
 10
21.0485651099008
 20
315.67070624969932
 30
0.0
 40
2.0
 50
179.99997999999781
 51
269.99995000000138
  0
ARC
  5
9A1F
  8
AM_0
 10
19.94859510990069
 20
326.02971624969922
 30
0.0
 40
3.0
 50
179.99997999999781
 51
269.99995000000138
  0
LINE
  5
9A20
  8
AM_0
 10
20.24857510990071
 20
322.92973624969909
 30
0.0
 11
21.5485651099008
 21
322.92973624969909
 31
0.0
  0
LINE
  5
9A21
  8
AM_0
 10
19.94859510990069
 20
323.02971624969922
 30
0.0
 11
20.24857510990071
 21
323.02971624969922
 31
0.0
  0
ARC
  5
9A22
  8
AM_0
 10
19.94859510990069
 20
329.02971624969922
 30
0.0
 40
3.0
 50
89.999988999997569
 51
179.99997999999781
  0
LINE
  5
9A23
  8
AM_0
 10
20.24857510990071
 20
332.12968624969932
 30
0.0
 11
21.5485651099008
 21
332.12968624969932
 31
0.0
  0
LINE
  5
9A24
  8
AM_0
 10
19.94859510990069
 20
332.02971624969922
 30
0.0
 11
20.24857510990071
 21
332.02971624969922
 31
0.0
  0
LINE
  5
9A25
  8
AM_0
 10
44.048565109900807
 20
307.67070624969932
 30
0.0
 11
69.048565109900807
 21
307.67070624969932
 31
0.0
  0
LINE
  5
9A26
  8
AM_0
 10
44.048565109900807
 20
307.67070624969932
 30
0.0
 11
44.048565109900807
 21
313.67070624969932
 31
0.0
  0
LINE
  5
9A27
  8
AM_0
 10
64.048565109900807
 20
322.52971624969922
 30
0.0
 11
64.048565109900807
 21
313.67070624969932
 31
0.0
  0
LINE
  5
9A28
  8
AM_0
 10
57.048565109900792
 20
306.42070624969932
 30
0.0
 11
60.0485651099008
 21
306.42070624969932
 31
0.0
  0
LINE
  5
9A29
  8
AM_0
 10
70.878585109900683
 20
309.3007062496992
 30
0.0
 11
72.528545109900634
 21
309.3007062496992
 31
0.0
  0
LINE
  5
9A2A
  8
AM_0
 10
69.048565109900807
 20
308.9907362496993
 30
0.0
 11
71.86857510990049
 21
308.93074624969921
 31
0.0
  0
ARC
  5
9A2B
  8
AM_0
 10
70.861795109900655
 20
309.8230462496993
 30
0.0
 40
1.497715799999999
 50
13.424378999999609
 51
90.122645000001114
  0
ARC
  5
9A2C
  8
AM_0
 10
70.876265109900615
 20
307.80241624969909
 30
0.0
 40
1.4982997
 50
14.229740000001581
 51
89.910950000001179
  0
LINE
  5
9A2D
  8
AM_0
 10
196.67343884405389
 20
267.92070624969938
 30
0.0
 11
196.67343884405389
 21
257.92070624969938
 31
0.0
  0
LINE
  5
9A2E
  8
AM_0
 10
186.40359036307069
 20
255.42070624969941
 30
0.0
 11
186.40359036307069
 21
266.95619685216758
 31
0.0
  0
LINE
  5
9A2F
  8
AM_0
 10
113.7734388440539
 20
264.42070624969972
 30
0.0
 11
113.773438844054
 21
256.92070624969972
 31
0.0
  0
LINE
  5
9A30
  8
ﾁｭｳｼﾝｾﾝ
 10
130.87343884405331
 20
283.42070624969972
 30
0.0
 11
130.87343884405331
 21
261.42070624969972
 31
0.0
  0
LINE
  5
9A31
  8
AM_0
 10
115.7734388440529
 20
288.42070624969972
 30
0.0
 11
115.7734388440531
 21
260.42070624969972
 31
0.0
  0
LINE
  5
9A32
  8
AM_0
 10
118.3734388440528
 20
259.42070624969978
 30
0.0
 11
194.67343884405341
 21
272.42070624969898
 31
0.0
  0
LINE
  5
9A33
  8
AM_0
 10
118.3734388440528
 20
259.42070624969978
 30
0.0
 11
194.67343884405341
 21
272.42070624969898
 31
0.0
  0
LINE
  5
9A34
  8
AM_0
 10
194.9991339808947
 20
268.42070624969909
 30
0.0
 11
118.6991339808941
 21
255.42070624969989
 31
0.0
  0
LINE
  5
9A35
  8
AM_0
 10
118.2920150598424
 20
260.42070624969972
 30
0.0
 11
150.2700847985744
 21
265.86913228644289
 31
0.0
  0
LINE
  5
9A36
  8
AM_0
 10
194.17343884405381
 20
255.42070624969941
 30
0.0
 11
118.6991339808941
 21
255.42070624969989
 31
0.0
  0
ARC
  5
9A37
  8
AM_0
 10
115.7734388440534
 20
256.92070624969972
 30
0.0
 40
1.499999999999998
 50
180.0
 51
270.0
  0
ARC
  5
9A38
  8
AM_0
 10
115.2734388440539
 20
256.92070624969972
 30
0.0
 40
1.5000000000001099
 50
180.0
 51
269.99999999999511
  0
LINE
  5
9A39
  8
AM_0
 10
115.7734388440534
 20
255.42070624969989
 30
0.0
 11
118.6991339808941
 21
255.42070624969989
 31
0.0
  0
LINE
  5
9A3A
  8
AM_0
 10
115.2734388440539
 20
255.42070624969989
 30
0.0
 11
115.5719247402108
 21
255.42070624969989
 31
0.0
  0
LINE
  5
9A3B
  8
AM_0
 10
114.27343884405281
 20
259.42070624969978
 30
0.0
 11
118.3734388440528
 21
259.42070624969978
 31
0.0
  0
LINE
  5
9A3C
  8
AM_0
 10
118.2920150598424
 20
260.42070624969972
 30
0.0
 11
114.27343884405281
 21
260.42070624969972
 31
0.0
  0
LINE
  5
9A3D
  8
AM_0
 10
114.5734388440535
 20
259.42070624969978
 30
0.0
 11
118.3734388440528
 21
259.42070624969978
 31
0.0
  0
LINE
  5
9A3E
  8
AM_0
 10
114.27343884405281
 20
260.42070624969972
 30
0.0
 11
114.27343884405281
 21
256.92070624969972
 31
0.0
  0
ARC
  5
9A3F
  8
AM_0
 10
194.17343884405381
 20
257.92070624969938
 30
0.0
 40
2.5
 50
270.0
 51
0.0
  0
LINE
  5
9A40
  8
AM_0
 10
177.04856510990061
 20
340.42070624969921
 30
0.0
 11
83.584215109900583
 21
340.42070624969921
 31
0.0
  0
LINE
  5
9A41
  8
AM_0
 10
73.378585109900783
 20
350.0807362496991
 30
0.0
 11
145.7198351099006
 21
350.0807362496991
 31
0.0
  0
LINE
  5
9A42
  8
AM_0
 10
144.49064510990061
 20
350.42070624969921
 30
0.0
 11
74.5985551099009
 21
350.42070624969921
 31
0.0
  0
LINE
  5
9A43
  8
AM_0
 10
82.508585109900679
 20
339.9407262496992
 30
0.0
 11
177.04856510990061
 21
339.9407262496992
 31
0.0
  0
LINE
  5
9A44
  8
AM_0
 10
198.54856510990081
 20
291.92070624969961
 30
0.0
 11
131.54856510990081
 21
291.92070624969961
 31
0.0
  0
ARC
  5
9A45
  8
AM_0
 10
130.87343884405331
 20
272.42070624969972
 30
0.0
 40
9.2999999999997094
 50
180.0
 51
0.0
  0
CIRCLE
  5
9A46
  8
AM_0
 10
130.87343884405331
 20
272.42070624969972
 30
0.0
 40
6.2999999999996117
  0
LINE
  5
9A47
  8
ﾁｭｳｼﾝｾﾝ
 10
119.8734388440533
 20
272.42070624969972
 30
0.0
 11
141.87343884405331
 21
272.42070624969972
 31
0.0
  0
LINE
  5
9A48
  8
AM_0
 10
177.04856510990061
 20
332.42070624969909
 30
0.0
 11
83.584215109900583
 21
332.42070624969909
 31
0.0
  0
LINE
  5
9A49
  8
AM_0
 10
82.718545109900703
 20
329.70073624969928
 30
0.0
 11
165.04856510990061
 21
329.70073624969928
 31
0.0
  0
LINE
  5
9A4A
  8
AM_0
 10
165.04856510990061
 20
330.42070624969909
 30
0.0
 11
83.584215109900583
 21
330.42070624969909
 31
0.0
  0
LINE
  5
9A4B
  8
AM_0
 10
82.718545109900703
 20
333.06071624969923
 30
0.0
 11
177.06858510990071
 21
333.06071624969923
 31
0.0
  0
ARC
  5
9A4C
  8
AM_0
 10
92.048625109900641
 20
306.56071624969923
 30
0.0
 40
2.0000371999999991
 50
180.0010599999992
 51
269.99892999999958
  0
LINE
  5
9A4D
  8
AM_0
 10
90.048565109900778
 20
304.5316662496993
 30
0.0
 11
90.048565109900778
 21
311.9407262496992
 31
0.0
  0
ARC
  5
9A4E
  8
AM_0
 10
75.185405109900699
 20
306.75126624969931
 30
0.0
 40
2.0005671999999981
 50
193.30958999999871
 51
269.80430999999942
  0
LINE
  5
9A4F
  8
AM_0
 10
92.048565109900792
 20
302.53068624969922
 30
0.0
 11
133.37498510990059
 21
302.53068624969922
 31
0.0
  0
LINE
  5
9A50
  8
AM_0
 10
74.74918510990085
 20
304.75065624969909
 30
0.0
 11
88.791305109900833
 21
304.75065624969909
 31
0.0
  0
ARC
  5
9A51
  8
AM_0
 10
92.049485109900644
 20
304.5316662496993
 30
0.0
 40
2.0009109999999981
 50
180.00001000000091
 51
269.97390999999971
  0
ARC
  5
9A52
  8
AM_0
 10
88.791305109900833
 20
303.25065624969932
 30
0.0
 40
1.5
 50
21.46170900000077
 51
90.000003000000945
  0
LINE
  5
9A53
  8
AM_0
 10
121.5734388440532
 20
289.42070624969972
 30
0.0
 11
121.5734388440529
 21
272.42070624969972
 31
0.0
  0
LINE
  5
9A54
  8
AM_0
 10
115.773438844053
 20
264.42070624969972
 30
0.0
 11
114.5734388440535
 21
264.42070624969972
 31
0.0
  0
LINE
  5
9A55
  8
AM_0
 10
114.5734388440535
 20
264.42070624969972
 30
0.0
 11
113.7734388440539
 21
264.42070624969972
 31
0.0
  0
LINE
  5
9A56
  8
AM_0
 10
116.77343884405281
 20
289.42070624969972
 30
0.0
 11
121.5734388440532
 21
289.42070624969972
 31
0.0
  0
ARC
  5
9A57
  8
AM_0
 10
116.77343884405281
 20
288.42070624969972
 30
0.0
 40
1.0
 50
90.0
 51
180.0
  0
LINE
  5
9A58
  8
AM_0
 10
135.11409861182099
 20
291.92070624969949
 30
0.0
 11
134.78306510990049
 21
304.56068624969919
 31
0.0
  0
LINE
  5
9A59
  8
AM_0
 10
131.54856510990081
 20
291.92070624969961
 30
0.0
 11
131.54856510990081
 21
289.42070624969938
 31
0.0
  0
ARC
  5
9A5A
  8
AM_0
 10
133.37498510990059
 20
301.0306862496991
 30
0.0
 40
1.5
 50
1.5000026999989771
 51
90.000003000000945
  0
LINE
  5
9A5B
  8
AM_0
 10
110.0486251099008
 20
320.07078624969921
 30
0.0
 11
79.048625109900655
 21
322.10078624969941
 31
0.0
  0
ARC
  5
9A5C
  8
AM_0
 10
78.211405109900653
 20
324.83219624969922
 30
0.0
 40
4.9991421999999961
 50
5.3780268999994201
 51
80.360064999998514
  0
LINE
  5
9A5D
  8
AM_0
 10
79.048565109900679
 20
318.07072624969919
 30
0.0
 11
79.048565109900679
 21
332.12065624969932
 31
0.0
  0
ARC
  5
9A5E
  8
AM_0
 10
88.545455109900672
 20
306.6575162496992
 30
0.0
 40
1.503128599999999
 50
0.1191296499989459
 51
89.880869999998822
  0
ARC
  5
9A5F
  8
AM_0
 10
88.546615109900614
 20
311.9387662496992
 30
0.0
 40
1.501982699999999
 50
0.075587202000581
 51
89.924413000001564
  0
LINE
  5
9A60
  8
AM_0
 10
80.257795109900627
 20
319.4273562496993
 30
0.0
 11
81.042825109900633
 21
315.0806762496992
 31
0.0
  0
LINE
  5
9A61
  8
AM_0
 10
78.562845109900678
 20
315.38066624969917
 30
0.0
 11
80.982835109900776
 21
315.38066624969917
 31
0.0
  0
LINE
  5
9A62
  8
AM_0
 10
80.992845109900657
 20
309.7307562496992
 30
0.0
 11
80.032885109900505
 21
314.2007362496991
 31
0.0
  0
ARC
  5
9A63
  8
AM_0
 10
78.56541510990067
 20
313.87834624969918
 30
0.0
 40
1.502416299999999
 50
12.391887000000411
 51
90.098616999999123
  0
LINE
  5
9A64
  8
AM_0
 10
82.746195109900697
 20
308.1606962496993
 30
0.0
 11
88.548565109900807
 21
308.1606962496993
 31
0.0
  0
ARC
  5
9A65
  8
AM_0
 10
82.945905109900906
 20
310.14775624969911
 30
0.0
 40
1.997119399999999
 50
192.05523999999849
 51
270.19862999999867
  0
LINE
  5
9A66
  8
AM_0
 10
82.808395109900687
 20
313.4407262496992
 30
0.0
 11
88.548565109900807
 21
313.4407262496992
 31
0.0
  0
ARC
  5
9A67
  8
AM_0
 10
83.007975109900627
 20
315.42594624969922
 30
0.0
 40
1.9952742999999991
 50
189.96478000000039
 51
269.85141999999968
  0
ARC
  5
9A68
  8
AM_0
 10
78.668255109900784
 20
328.7660362496992
 30
0.0
 40
6.0073843
 50
273.6297400000006
 51
314.76384999999948
  0
ARC
  5
9A69
  8
AM_0
 10
78.781725109900449
 20
319.1606962496993
 30
0.0
 40
1.5
 50
10.237378999998841
 51
79.752109999998723
  0
ARC
  5
9A6A
  8
AM_0
 10
82.189375109900794
 20
325.21037624969932
 30
0.0
 40
1.0032491999999991
 50
314.98119000000088
 51
5.1676434000008573
  0
ARC
  5
9A6B
  8
AM_0
 10
83.591415109900609
 20
331.42070624969932
 30
0.0
 40
1.0000255999999981
 50
89.589474000000749
 51
270.41051999999962
  0
ARC
  5
9A6C
  8
AM_0
 10
82.718545109900703
 20
331.3706562496991
 30
0.0
 40
1.6800002000000001
 50
90.000003000000945
 51
270.0
  0
ARC
  5
9A6D
  8
AM_0
 10
82.502855109900707
 20
341.3906762496992
 30
0.0
 40
1.460011199999999
 50
89.775248000001255
 51
270.22474000000028
  0
ARC
  5
9A6E
  8
AM_0
 10
83.591415109900609
 20
341.42070624969932
 30
0.0
 40
1.0000255999999981
 50
89.589474000000749
 51
270.41051999999962
  0
ARC
  5
9A6F
  8
AM_0
 10
91.041365109900994
 20
331.42070624969932
 30
0.0
 40
1.0000259
 50
89.587534000000232
 51
270.4124599999987
  0
ARC
  5
9A70
  8
AM_0
 10
91.041365109900994
 20
341.42070624969932
 30
0.0
 40
1.0000259
 50
89.587534000000232
 51
270.4124599999987
  0
LINE
  5
9A71
  8
AM_0
 10
167.0767928895292
 20
268.73266053260772
 30
0.0
 11
169.28014693500671
 21
269.1080681681413
 31
0.0
  0
LINE
  5
9A72
  8
AM_0
 10
167.0767928895292
 20
268.73266053260772
 30
0.0
 11
167.0767928895294
 21
284.42070624969938
 31
0.0
  0
LINE
  5
9A73
  8
AM_0
 10
140.17343884405301
 20
289.42070624969938
 30
0.0
 11
140.17343884405301
 21
272.42070624969938
 31
0.0
  0
LINE
  5
9A74
  8
AM_0
 10
161.87343884405189
 20
284.42070624969938
 30
0.0
 11
161.87343884405189
 21
267.84611266116349
 31
0.0
  0
LINE
  5
9A75
  8
AM_0
 10
163.8734388440551
 20
268.18687281843791
 30
0.0
 11
163.8734388440555
 21
284.42070624970228
 31
0.0
  0
LINE
  5
9A76
  8
AM_0
 10
165.5767928895294
 20
284.42070624969938
 30
0.0
 11
165.57679288952929
 21
268.47709041465248
 31
0.0
  0
LINE
  5
9A77
  8
AM_0
 10
152.2700847985746
 20
266.20989244371691
 30
0.0
 11
152.2700847985746
 21
284.42070624969972
 31
0.0
  0
LINE
  5
9A78
  8
AM_0
 10
150.2700847985744
 20
284.42070624969938
 30
0.0
 11
150.2700847985744
 21
265.86913228644289
 31
0.0
  0
LINE
  5
9A79
  8
AM_0
 10
154.47008479857459
 20
284.42070624969938
 30
0.0
 11
154.47008479857459
 21
266.58472861671862
 31
0.0
  0
LINE
  5
9A7A
  8
AM_0
 10
155.9700847985745
 20
266.84029873467381
 30
0.0
 11
155.9700847985745
 21
284.42070624969938
 31
0.0
  0
LINE
  5
9A7B
  8
AM_0
 10
158.17008479857461
 20
284.42070624969938
 30
0.0
 11
158.17008479857461
 21
267.21513490767472
 31
0.0
  0
LINE
  5
9A7C
  8
AM_0
 10
159.67008479857441
 20
267.47070502563008
 30
0.0
 11
159.67008479857441
 21
284.42070624969938
 31
0.0
  0
LINE
  5
9A7D
  8
AM_0
 10
152.2700847985746
 20
266.20989244371691
 30
0.0
 11
154.47008479857459
 21
266.58472861671862
 31
0.0
  0
LINE
  5
9A7E
  8
AM_0
 10
152.2700847985746
 20
280.42070624969949
 30
0.0
 11
150.2700847985744
 21
280.42070624969949
 31
0.0
  0
LINE
  5
9A7F
  8
AM_0
 10
159.67008479857441
 20
267.47070502563008
 30
0.0
 11
161.87343884405189
 21
267.84611266116349
 31
0.0
  0
LINE
  5
9A80
  8
AM_0
 10
155.9700847985745
 20
266.84029873467381
 30
0.0
 11
158.17008479857461
 21
267.21513490767472
 31
0.0
  0
LINE
  5
9A81
  8
AM_0
 10
163.8734388440551
 20
268.18687281843791
 30
0.0
 11
165.57679288952929
 21
268.47709041465248
 31
0.0
  0
LINE
  5
9A82
  8
AM_0
 10
155.9700847985745
 20
280.42070624969898
 30
0.0
 11
154.47008479857459
 21
280.42070624969949
 31
0.0
  0
LINE
  5
9A83
  8
AM_0
 10
159.67008479857441
 20
280.42070624969898
 30
0.0
 11
158.17008479857461
 21
280.42070624969898
 31
0.0
  0
LINE
  5
9A84
  8
AM_0
 10
163.8734388440555
 20
280.42070624969898
 30
0.0
 11
161.87343884405189
 21
280.42070624969898
 31
0.0
  0
LINE
  5
9A85
  8
AM_0
 10
167.0767928895296
 20
280.42070624969898
 30
0.0
 11
165.5767928895294
 21
280.42070624969898
 31
0.0
  0
LINE
  5
9A86
  8
AM_0
 10
152.2700847985746
 20
284.42070624969972
 30
0.0
 11
150.2700847985744
 21
284.42070624969938
 31
0.0
  0
LINE
  5
9A87
  8
AM_0
 10
155.9700847985745
 20
284.42070624969938
 30
0.0
 11
154.47008479857459
 21
284.42070624969938
 31
0.0
  0
LINE
  5
9A88
  8
AM_0
 10
159.67008479857441
 20
284.42070624969938
 30
0.0
 11
158.17008479857461
 21
284.42070624969938
 31
0.0
  0
LINE
  5
9A89
  8
AM_0
 10
163.8734388440555
 20
284.42070624969938
 30
0.0
 11
161.87343884405189
 21
284.42070624969938
 31
0.0
  0
LINE
  5
9A8A
  8
AM_0
 10
167.0767928895294
 20
284.42070624969938
 30
0.0
 11
165.5767928895294
 21
284.42070624969938
 31
0.0
  0
LINE
  5
9A8B
  8
AM_0
 10
188.04856510990021
 20
272.30583273267109
 30
0.0
 11
188.04856510990021
 21
289.42070624969938
 31
0.0
  0
LINE
  5
9A8C
  8
AM_0
 10
172.98350098048391
 20
284.42070624969938
 30
0.0
 11
172.9835009804838
 21
269.73904592163041
 31
0.0
  0
LINE
  5
9A8D
  8
AM_0
 10
174.48350098048391
 20
269.99461603958571
 30
0.0
 11
174.48350098048391
 21
284.42070624969938
 31
0.0
  0
LINE
  5
9A8E
  8
AM_0
 10
176.68685502596131
 20
284.42070624969938
 30
0.0
 11
176.68685502596131
 21
270.37002367511911
 31
0.0
  0
LINE
  5
9A8F
  8
AM_0
 10
178.18685502596131
 20
270.62559379307447
 30
0.0
 11
178.18685502596131
 21
284.42070624969938
 31
0.0
  0
LINE
  5
9A90
  8
AM_0
 10
169.28014693500691
 20
284.42070624969938
 30
0.0
 11
169.28014693500671
 21
269.1080681681413
 31
0.0
  0
LINE
  5
9A91
  8
AM_0
 10
170.7801469350066
 20
269.36363828609677
 30
0.0
 11
170.7801469350066
 21
284.42070624969938
 31
0.0
  0
LINE
  5
9A92
  8
AM_0
 10
178.18685502596131
 20
270.62559379307447
 30
0.0
 11
188.04856510990021
 21
272.30583273267109
 31
0.0
  0
LINE
  5
9A93
  8
AM_0
 10
174.48350098048391
 20
269.99461603958571
 30
0.0
 11
176.68685502596131
 21
270.37002367511911
 31
0.0
  0
LINE
  5
9A94
  8
AM_0
 10
170.7801469350066
 20
269.36363828609677
 30
0.0
 11
172.9835009804838
 21
269.73904592163041
 31
0.0
  0
LINE
  5
9A95
  8
AM_0
 10
170.7801469350066
 20
280.42070624969898
 30
0.0
 11
169.28014693500691
 21
280.42070624969898
 31
0.0
  0
LINE
  5
9A96
  8
AM_0
 10
174.48350098048391
 20
280.42070624969898
 30
0.0
 11
172.98350098048391
 21
280.42070624969898
 31
0.0
  0
LINE
  5
9A97
  8
AM_0
 10
178.18685502596131
 20
280.42070624969898
 30
0.0
 11
176.68685502596131
 21
280.42070624969898
 31
0.0
  0
LINE
  5
9A98
  8
AM_0
 10
187.27343884405411
 20
267.10650102240191
 30
0.0
 11
187.273438844054
 21
271.15989366778558
 31
0.0
  0
LINE
  5
9A99
  8
AM_0
 10
197.17343884405381
 20
268.42070624969909
 30
0.0
 11
194.9991339808947
 21
268.42070624969909
 31
0.0
  0
ARC
  5
9A9A
  8
AM_0
 10
197.17343884405381
 20
267.92070624969938
 30
0.0
 40
0.5
 50
90.0
 51
180.0
  0
LINE
  5
9A9B
  8
AM_0
 10
170.7801469350066
 20
284.42070624969938
 30
0.0
 11
169.28014693500691
 21
284.42070624969938
 31
0.0
  0
LINE
  5
9A9C
  8
AM_0
 10
174.48350098048391
 20
284.42070624969938
 30
0.0
 11
172.98350098048391
 21
284.42070624969938
 31
0.0
  0
LINE
  5
9A9D
  8
AM_0
 10
178.18685502596131
 20
284.42070624969938
 30
0.0
 11
176.68685502596131
 21
284.42070624969938
 31
0.0
  0
ARC
  5
9A9E
  8
AM_0
 10
196.56217510990069
 20
294.92070624969909
 30
0.0
 40
1.5
 50
90.000003000000945
 51
178.50000000000051
  0
LINE
  5
9A9F
  8
AM_0
 10
194.98312712003471
 20
291.92070624969949
 30
0.0
 11
195.31413510990069
 21
304.56077624969919
 31
0.0
  0
LINE
  5
9AA0
  8
AM_0
 10
198.54856510990081
 20
291.92070624969961
 30
0.0
 11
198.54856510990081
 21
289.42070624969938
 31
0.0
  0
CIRCLE
  5
9AA1
  8
AM_0
 10
183.54856510990061
 20
337.92070624969921
 30
0.0
 40
1.149999999999999
  0
CIRCLE
  5
9AA2
  8
AM_0
 10
183.54856510990061
 20
337.92070624969921
 30
0.0
 40
1.1000000000000001
  0
ARC
  5
9AA3
  8
AM_0
 10
177.04856510990061
 20
338.92070624969909
 30
0.0
 40
1.02
 50
0.0
 51
90.000003000000945
  0
ARC
  5
9AA4
  8
AM_0
 10
177.04856510990061
 20
338.92070624969909
 30
0.0
 40
1.5
 50
0.0
 51
90.000003000000945
  0
ARC
  5
9AA5
  8
AM_0
 10
177.06858510990071
 20
334.06071624969923
 30
0.0
 40
1.0
 50
269.999989999999
 51
0.0000006832462478
  0
ARC
  5
9AA6
  8
AM_0
 10
177.04856510990061
 20
333.92070624969921
 30
0.0
 40
1.5
 50
269.999989999999
 51
0.0000006832462478
  0
LINE
  5
9AA7
  8
AM_0
 10
178.06858510990079
 20
338.92070624969909
 30
0.0
 11
178.06858510990079
 21
334.06071624969923
 31
0.0
  0
LINE
  5
9AA8
  8
AM_0
 10
178.54856510990061
 20
338.92070624969909
 30
0.0
 11
178.54856510990061
 21
333.92070624969921
 31
0.0
  0
ARC
  5
9AA9
  8
AM_0
 10
195.04856510990081
 20
338.92070624969909
 30
0.0
 40
1.02
 50
90.000003000000945
 51
180.00001000000091
  0
ARC
  5
9AAA
  8
AM_0
 10
195.04856510990081
 20
338.92070624969909
 30
0.0
 40
1.5
 50
90.000003000000945
 51
180.00001000000091
  0
CIRCLE
  5
9AAB
  8
AM_0
 10
188.54856510990061
 20
337.92070624969921
 30
0.0
 40
1.0
  0
ARC
  5
9AAC
  8
AM_0
 10
195.02854510990059
 20
334.06071624969923
 30
0.0
 40
1.0
 50
179.99998999999889
 51
270.0
  0
ARC
  5
9AAD
  8
AM_0
 10
195.04856510990081
 20
333.92070624969921
 30
0.0
 40
1.5
 50
179.99998999999889
 51
270.0
  0
LINE
  5
9AAE
  8
AM_0
 10
194.0285451099007
 20
338.92070624969909
 30
0.0
 11
194.0285451099007
 21
334.06071624969923
 31
0.0
  0
LINE
  5
9AAF
  8
AM_0
 10
193.54856510990061
 20
338.92070624969909
 30
0.0
 11
193.54856510990061
 21
333.92070624969921
 31
0.0
  0
ARC
  5
9AB0
  8
AM_0
 10
73.310345109900624
 20
361.42070624969932
 30
0.0
 40
1.2700266
 50
89.629320999999507
 51
270.3706899999986
  0
ARC
  5
9AB1
  8
AM_0
 10
73.310345109900624
 20
371.43071624969917
 30
0.0
 40
1.2700266
 50
89.629327999999504
 51
270.37065999999959
  0
ARC
  5
9AB2
  8
AM_0
 10
73.372295109900634
 20
381.43571624969923
 30
0.0
 40
1.3350147999999991
 50
89.730435000000341
 51
270.26956999999999
  0
LINE
  5
9AB3
  8
AM_0
 10
69.048565109900807
 20
400.7307562496992
 30
0.0
 11
79.048565109900679
 21
400.7307562496992
 31
0.0
  0
LINE
  5
9AB4
  8
AM_0
 10
73.238565109900634
 20
426.55070624969909
 30
0.0
 11
72.318525109900904
 21
422.68071624969917
 31
0.0
  0
LINE
  5
9AB5
  8
AM_0
 10
69.048565109900807
 20
409.1106462496993
 30
0.0
 11
79.048565109900679
 21
409.1106462496993
 31
0.0
  0
LINE
  5
9AB6
  8
AM_0
 10
70.858565109900638
 20
421.52067624969908
 30
0.0
 11
80.651345109900632
 21
421.52067624969908
 31
0.0
  0
LINE
  5
9AB7
  8
AM_0
 10
69.048565109900807
 20
414.77067624969919
 30
0.0
 11
79.048565109900679
 21
414.77067624969919
 31
0.0
  0
LINE
  5
9AB8
  8
AM_0
 10
73.218545109900703
 20
428.21073624969932
 30
0.0
 11
72.328535109900642
 21
424.68071624969917
 31
0.0
  0
LINE
  5
9AB9
  8
AM_0
 10
69.048565109900807
 20
425.17070624969932
 30
0.0
 11
69.048565109900807
 21
366.42070624969932
 31
0.0
  0
LINE
  5
9ABA
  8
AM_0
 10
12.548595109900781
 20
361.42070624969932
 30
0.0
 11
12.548595109900781
 21
371.42070624969921
 31
0.0
  0
LINE
  5
9ABB
  8
AM_0
 10
13.547135009900749
 20
361.42070624969932
 30
0.0
 11
12.548595109900781
 21
361.42070624969932
 31
0.0
  0
LINE
  5
9ABC
  8
AM_0
 10
19.0485651099008
 20
361.42070624969932
 30
0.0
 11
18.547135009900739
 21
361.42070624969932
 31
0.0
  0
LINE
  5
9ABD
  8
AM_0
 10
13.547135009900749
 20
371.42070624969921
 30
0.0
 11
12.548595109900781
 21
371.42070624969921
 31
0.0
  0
LINE
  5
9ABE
  8
AM_0
 10
19.0485651099008
 20
371.42070624969921
 30
0.0
 11
18.547135009900739
 21
371.42070624969921
 31
0.0
  0
LINE
  5
9ABF
  8
AM_0
 10
23.547135009900749
 20
426.42070624969921
 30
0.0
 11
47.048565109900792
 21
426.42070624969921
 31
0.0
  0
LINE
  5
9AC0
  8
AM_0
 10
22.547135009900749
 20
431.42070624969932
 30
0.0
 11
60.0485651099008
 21
431.42070624969932
 31
0.0
  0
LINE
  5
9AC1
  8
AM_0
 10
21.0485651099008
 20
419.17070624969881
 30
0.0
 11
69.048565109900807
 21
419.17070624969881
 31
0.0
  0
LINE
  5
9AC2
  8
AM_0
 10
21.5485651099008
 20
400.0616962496992
 30
0.0
 11
64.048565109900807
 21
400.0616962496992
 31
0.0
  0
LINE
  5
9AC3
  8
AM_0
 10
21.5485651099008
 20
410.3116962496992
 30
0.0
 11
64.048565109900807
 21
410.3116962496992
 31
0.0
  0
LINE
  5
9AC4
  8
AM_0
 10
19.0485651099008
 20
409.6736362496992
 30
0.0
 11
19.0485651099008
 21
417.17070624969909
 31
0.0
  0
LINE
  5
9AC5
  8
AM_0
 10
18.547135009900739
 20
409.46422515399189
 30
0.0
 11
18.547135009900739
 21
421.42070624969881
 31
0.0
  0
LINE
  5
9AC6
  8
AM_0
 10
16.948595109900701
 20
403.81169624969908
 30
0.0
 11
16.948595109900701
 21
406.8116962496992
 31
0.0
  0
LINE
  5
9AC7
  8
AM_0
 10
20.24857510990071
 20
400.7117262496991
 30
0.0
 11
20.24857510990071
 21
409.9116762496991
 31
0.0
  0
ARC
  5
9AC8
  8
AM_0
 10
19.94859510990069
 20
403.81169624969908
 30
0.0
 40
3.0
 50
180.00002000000191
 51
270.00001100000242
  0
LINE
  5
9AC9
  8
AM_0
 10
20.24857510990071
 20
400.7117262496991
 30
0.0
 11
21.5485651099008
 21
400.7117262496991
 31
0.0
  0
LINE
  5
9ACA
  8
AM_0
 10
19.94859510990069
 20
400.81169624969903
 30
0.0
 11
20.24857510990071
 21
400.81169624969903
 31
0.0
  0
ARC
  5
9ACB
  8
AM_0
 10
19.94859510990069
 20
406.8116962496992
 30
0.0
 40
3.0
 50
90.000049999998538
 51
180.00002000000191
  0
LINE
  5
9ACC
  8
AM_0
 10
20.24857510990071
 20
409.9116762496991
 30
0.0
 11
21.5485651099008
 21
409.9116762496991
 31
0.0
  0
LINE
  5
9ACD
  8
AM_0
 10
19.94859510990069
 20
409.8116962496992
 30
0.0
 11
20.24857510990071
 21
409.8116962496992
 31
0.0
  0
ARC
  5
9ACE
  8
AM_0
 10
22.547135009900749
 20
422.42070624969921
 30
0.0
 40
9.0
 50
89.999988999997569
 51
179.99997999999781
  0
ARC
  5
9ACF
  8
AM_0
 10
23.547135009900749
 20
421.42070624969921
 30
0.0
 40
5.0
 50
89.999988999997569
 51
180.0
  0
ARC
  5
9AD0
  8
AM_0
 10
21.0485651099008
 20
417.17070624969909
 30
0.0
 40
2.0
 50
90.000049999998538
 51
180.00002000000191
  0
LINE
  5
9AD1
  8
AM_0
 10
64.048565109900807
 20
410.3116962496992
 30
0.0
 11
64.048565109900807
 21
419.17070624969881
 31
0.0
  0
LINE
  5
9AD2
  8
AM_0
 10
44.048565109900807
 20
425.17070624969909
 30
0.0
 11
69.048565109900807
 21
425.17070624969909
 31
0.0
  0
LINE
  5
9AD3
  8
AM_0
 10
47.048565109900792
 20
425.17070624969932
 30
0.0
 11
47.048565109900792
 21
431.42070624969932
 31
0.0
  0
LINE
  5
9AD4
  8
AM_0
 10
44.048565109900807
 20
425.17070624969909
 30
0.0
 11
44.048565109900807
 21
419.17070624969881
 31
0.0
  0
LINE
  5
9AD5
  8
AM_0
 10
57.048565109900792
 20
425.17070624969932
 30
0.0
 11
57.048565109900792
 21
431.42070624969932
 31
0.0
  0
LINE
  5
9AD6
  8
AM_0
 10
60.0485651099008
 20
426.42070624969921
 30
0.0
 11
60.0485651099008
 21
431.42070624969932
 31
0.0
  0
LINE
  5
9AD7
  8
AM_0
 10
57.048565109900792
 20
426.42070624969921
 30
0.0
 11
60.0485651099008
 21
426.42070624969921
 31
0.0
  0
ARC
  5
9AD8
  8
AM_0
 10
70.853745109900643
 20
423.02555624969921
 30
0.0
 40
1.5048382
 50
270.18264000000067
 51
346.75308000000121
  0
LINE
  5
9AD9
  8
AM_0
 10
69.048565109900807
 20
423.85069624969901
 30
0.0
 11
71.86857510990049
 21
423.92070624969909
 31
0.0
  0
LINE
  5
9ADA
  8
AM_0
 10
70.878585109900683
 20
423.54069624969912
 30
0.0
 11
72.528545109900634
 21
423.54069624969912
 31
0.0
  0
ARC
  5
9ADB
  8
AM_0
 10
70.868145109900908
 20
425.04606624969921
 30
0.0
 40
1.505448699999999
 50
270.39686999999981
 51
345.9524700000004
  0
LINE
  5
9ADC
  8
AM_0
 10
73.378585109900783
 20
352.74064624969941
 30
0.0
 11
145.7198351099006
 21
352.74064624969941
 31
0.0
  0
LINE
  5
9ADD
  8
AM_0
 10
144.49064510990061
 20
352.42070624969932
 30
0.0
 11
74.5985551099009
 21
352.42070624969932
 31
0.0
  0
LINE
  5
9ADE
  8
AM_0
 10
177.04856510990061
 20
392.42070624969932
 30
0.0
 11
83.5985551099009
 21
392.42070624969932
 31
0.0
  0
LINE
  5
9ADF
  8
AM_0
 10
177.04856510990061
 20
400.42070624969909
 30
0.0
 11
83.5985551099009
 21
400.42070624969909
 31
0.0
  0
LINE
  5
9AE0
  8
AM_0
 10
73.318585109900624
 20
360.15068624969928
 30
0.0
 11
145.7836751099008
 21
360.15068624969928
 31
0.0
  0
LINE
  5
9AE1
  8
AM_0
 10
144.49064510990061
 20
362.42070624969932
 30
0.0
 11
74.5985551099009
 21
362.42070624969932
 31
0.0
  0
LINE
  5
9AE2
  8
AM_0
 10
144.49064510990061
 20
360.42070624969921
 30
0.0
 11
74.5985551099009
 21
360.42070624969921
 31
0.0
  0
LINE
  5
9AE3
  8
AM_0
 10
73.318585109900624
 20
362.6907262496992
 30
0.0
 11
145.7836751099008
 21
362.6907262496992
 31
0.0
  0
LINE
  5
9AE4
  8
AM_0
 10
73.318585109900624
 20
370.1606962496993
 30
0.0
 11
145.7836751099008
 21
370.1606962496993
 31
0.0
  0
LINE
  5
9AE5
  8
AM_0
 10
73.318585109900624
 20
372.70073624969928
 30
0.0
 11
145.7836751099008
 21
372.70073624969928
 31
0.0
  0
LINE
  5
9AE6
  8
AM_0
 10
73.378585109900783
 20
380.10075624969909
 30
0.0
 11
145.7072551099009
 21
380.10075624969909
 31
0.0
  0
LINE
  5
9AE7
  8
AM_0
 10
73.378585109900783
 20
382.77067624969931
 30
0.0
 11
145.7198351099006
 21
382.77067624969931
 31
0.0
  0
LINE
  5
9AE8
  8
AM_0
 10
82.508585109900679
 20
392.9106962496993
 30
0.0
 11
177.04856510990061
 21
392.9106962496993
 31
0.0
  0
LINE
  5
9AE9
  8
AM_0
 10
82.718545109900703
 20
399.79069624969918
 30
0.0
 11
177.06858510990071
 21
399.79069624969918
 31
0.0
  0
LINE
  5
9AEA
  8
AM_0
 10
144.49064510990061
 20
370.42070624969932
 30
0.0
 11
74.5985551099009
 21
370.42070624969932
 31
0.0
  0
LINE
  5
9AEB
  8
AM_0
 10
144.49064510990061
 20
372.42070624969909
 30
0.0
 11
74.5985551099009
 21
372.42070624969909
 31
0.0
  0
LINE
  5
9AEC
  8
AM_0
 10
144.4872851099006
 20
380.42070624969921
 30
0.0
 11
74.5985551099009
 21
380.42070624969921
 31
0.0
  0
LINE
  5
9AED
  8
AM_0
 10
144.4872851099006
 20
382.42070624969932
 30
0.0
 11
74.5985551099009
 21
382.42070624969932
 31
0.0
  0
ARC
  5
9AEE
  8
AM_0
 10
74.5985551099009
 20
361.42070624969932
 30
0.0
 40
1.0000056999999991
 50
90.000003000000945
 51
270.0
  0
ARC
  5
9AEF
  8
AM_0
 10
74.5985551099009
 20
371.42070624969921
 30
0.0
 40
1.0000056999999991
 50
90.000003000000945
 51
270.0
  0
ARC
  5
9AF0
  8
AM_0
 10
91.041365109900994
 20
361.42070624969932
 30
0.0
 40
1.0000259
 50
89.587534000000232
 51
270.4124599999987
  0
ARC
  5
9AF1
  8
AM_0
 10
91.041365109900994
 20
371.42070624969921
 30
0.0
 40
1.0000259
 50
89.587534000000232
 51
270.4124599999987
  0
ARC
  5
9AF2
  8
AM_0
 10
74.5985551099009
 20
381.42070624969921
 30
0.0
 40
1.0000056999999991
 50
90.000003000000945
 51
270.0
  0
ARC
  5
9AF3
  8
AM_0
 10
83.591415109900609
 20
391.42070624969932
 30
0.0
 40
1.0000255999999981
 50
89.589474000000749
 51
270.41051999999962
  0
ARC
  5
9AF4
  8
AM_0
 10
82.502855109900707
 20
391.45073624969939
 30
0.0
 40
1.460011199999999
 50
89.775248000001255
 51
270.22474000000028
  0
ARC
  5
9AF5
  8
AM_0
 10
91.041365109900994
 20
381.42070624969921
 30
0.0
 40
1.0000259
 50
89.587534000000232
 51
270.4124599999987
  0
ARC
  5
9AF6
  8
AM_0
 10
91.041365109900994
 20
391.42070624969932
 30
0.0
 40
1.0000259
 50
89.587534000000232
 51
270.4124599999987
  0
LINE
  5
9AF7
  8
AM_0
 10
110.0486251099008
 20
412.77067624969908
 30
0.0
 11
79.048565109900679
 21
410.74067624969922
 31
0.0
  0
LINE
  5
9AF8
  8
AM_0
 10
80.257855109900703
 20
413.41407624969912
 30
0.0
 11
81.042895109900783
 21
417.76075624969923
 31
0.0
  0
ARC
  5
9AF9
  8
AM_0
 10
78.204145109900907
 20
408.01493624969919
 30
0.0
 40
5.0059714
 50
279.71098000000097
 51
354.6788800000013
  0
LINE
  5
9AFA
  8
AM_0
 10
79.048565109900679
 20
414.77067624969919
 30
0.0
 11
79.048565109900679
 21
400.7307562496992
 31
0.0
  0
ARC
  5
9AFB
  8
AM_0
 10
82.718545109900703
 20
401.47074624969918
 30
0.0
 40
1.6800002000000001
 50
90.000003000000945
 51
270.0
  0
ARC
  5
9AFC
  8
AM_0
 10
83.591415109900609
 20
401.42070624969909
 30
0.0
 40
1.0000255999999981
 50
89.589474000000749
 51
270.41051999999962
  0
ARC
  5
9AFD
  8
AM_0
 10
78.669535109900622
 20
404.08818624969922
 30
0.0
 40
6.0044340999999992
 50
45.225577999998769
 51
86.380821999999185
  0
ARC
  5
9AFE
  8
AM_0
 10
78.781725109900449
 20
413.68071624969912
 30
0.0
 40
1.5
 50
280.24789000000118
 51
349.76261999999917
  0
ARC
  5
9AFF
  8
AM_0
 10
82.190475109900646
 20
407.64140624969917
 30
0.0
 40
1.002184699999999
 50
354.80385999999999
 51
45.047306999998277
  0
ARC
  5
9B00
  8
AM_0
 10
91.041365109900994
 20
401.42070624969909
 30
0.0
 40
1.0000259
 50
89.587534000000232
 51
270.4124599999987
  0
LINE
  5
9B01
  8
AM_0
 10
75.158555109900831
 20
429.72074624969918
 30
0.0
 11
88.658555109901059
 21
429.72074624969918
 31
0.0
  0
ARC
  5
9B02
  8
AM_0
 10
88.541665109900492
 20
429.59758624969942
 30
0.0
 40
1.506942899999999
 50
270.2633699999991
 51
359.73663000000079
  0
ARC
  5
9B03
  8
AM_0
 10
88.543685109900608
 20
426.1956062496991
 30
0.0
 40
1.504891299999997
 50
270.1859300000005
 51
359.81406999999939
  0
ARC
  5
9B04
  8
AM_0
 10
88.544845109900763
 20
420.91447624969908
 30
0.0
 40
1.5037541000000001
 50
270.14287000000093
 51
359.85713999999848
  0
ARC
  5
9B05
  8
AM_0
 10
75.178815109900626
 20
426.09843624969909
 30
0.0
 40
1.9922863
 50
90.007721000000544
 51
166.87839000000031
  0
LINE
  5
9B06
  8
AM_0
 10
75.178575109900649
 20
428.09074624969918
 30
0.0
 11
88.548565109900807
 21
428.09074624969918
 31
0.0
  0
LINE
  5
9B07
  8
AM_0
 10
78.562845109900678
 20
417.4607362496991
 30
0.0
 11
80.982835109900776
 21
417.4607362496991
 31
0.0
  0
LINE
  5
9B08
  8
AM_0
 10
80.992845109900657
 20
423.11070624969932
 30
0.0
 11
80.032885109900505
 21
418.6407362496991
 31
0.0
  0
ARC
  5
9B09
  8
AM_0
 10
78.56541510990067
 20
418.96305624969909
 30
0.0
 40
1.502416299999999
 50
269.90137999999871
 51
347.60813000000093
  0
LINE
  5
9B0A
  8
AM_0
 10
83.002855109900679
 20
419.41069624969919
 30
0.0
 11
88.548565109900807
 21
419.41069624969919
 31
0.0
  0
ARC
  5
9B0B
  8
AM_0
 10
83.007975109900627
 20
417.4154562496991
 30
0.0
 40
1.9952742999999991
 50
90.148580000000095
 51
170.03521999999941
  0
LINE
  5
9B0C
  8
AM_0
 10
82.939005109900705
 20
424.6907262496992
 30
0.0
 11
88.548565109900807
 21
424.6907262496992
 31
0.0
  0
ARC
  5
9B0D
  8
AM_0
 10
82.945905109900906
 20
422.69364624969921
 30
0.0
 40
1.997119399999999
 50
89.801366999998493
 51
167.94476000000131
  0
ARC
  5
9B0E
  8
AM_0
 10
75.15342510990061
 20
427.72612624969912
 30
0.0
 40
1.994612099999999
 50
89.851991999999015
 51
165.9388600000006
  0
ARC
  5
9B0F
  8
AM_0
 10
92.041855109900681
 20
426.28739624969933
 30
0.0
 40
1.9933081999999991
 50
89.807323000000935
 51
180.19266999999849
  0
LINE
  5
9B10
  8
AM_0
 10
90.048565109900778
 20
428.31071624969923
 30
0.0
 11
90.048565109900778
 21
420.91069624969907
 31
0.0
  0
ARC
  5
9B11
  8
AM_0
 10
92.042345109900708
 20
430.34416624969919
 30
0.0
 40
1.9964978999999961
 50
89.821482000000245
 51
165.6006099999997
  0
ARC
  5
9B12
  8
AM_0
 10
92.045025109900649
 20
429.67424624969908
 30
0.0
 40
1.996488899999999
 50
89.899147999998391
 51
180.10084999999879
  0
ARC
  5
9B13
  8
AM_0
 10
88.653485109900785
 20
431.22587624969901
 30
0.0
 40
1.505230099999999
 50
270.19421
 51
345.17177999999848
  0
ARC
  5
9B14
  8
AM_0
 10
92.042705109900695
 20
428.3165762496991
 30
0.0
 40
1.994130499999996
 50
89.831105999999224
 51
180.16889000000049
  0
LINE
  5
9B15
  8
AM_0
 10
194.0285451099007
 20
393.92070624969921
 30
0.0
 11
194.0285451099007
 21
398.78068624969927
 31
0.0
  0
LINE
  5
9B16
  8
AM_0
 10
193.54856510990061
 20
393.92070624969921
 30
0.0
 11
193.54856510990061
 21
398.92070624969932
 31
0.0
  0
CIRCLE
  5
9B17
  8
AM_0
 10
188.54856510990061
 20
394.92070624969932
 30
0.0
 40
1.0
  0
LINE
  5
9B18
  8
AM_0
 10
178.54856510990061
 20
393.92070624969921
 30
0.0
 11
178.54856510990061
 21
398.92070624969932
 31
0.0
  0
LINE
  5
9B19
  8
AM_0
 10
178.06858510990079
 20
393.92070624969921
 30
0.0
 11
178.06858510990079
 21
398.78068624969927
 31
0.0
  0
CIRCLE
  5
9B1A
  8
AM_0
 10
183.54856510990061
 20
394.92070624969932
 30
0.0
 40
1.1000000000000001
  0
CIRCLE
  5
9B1B
  8
AM_0
 10
183.54856510990061
 20
394.92070624969932
 30
0.0
 40
1.149999999999999
  0
ARC
  5
9B1C
  8
AM_0
 10
145.77549510990059
 20
371.43071624969917
 30
0.0
 40
1.2700266
 50
269.62931999999989
 51
90.370670000001468
  0
ARC
  5
9B1D
  8
AM_0
 10
145.77549510990059
 20
361.42070624969932
 30
0.0
 40
1.2700266
 50
269.62931999999989
 51
90.370670000001468
  0
ARC
  5
9B1E
  8
AM_0
 10
144.4872851099006
 20
361.42070624969932
 30
0.0
 40
1.0000056999999991
 50
269.999989999999
 51
90.000003000000945
  0
ARC
  5
9B1F
  8
AM_0
 10
144.4872851099006
 20
371.42070624969921
 30
0.0
 40
1.0000056999999991
 50
269.999989999999
 51
90.000003000000945
  0
ARC
  5
9B20
  8
AM_0
 10
144.4872851099006
 20
381.42070624969921
 30
0.0
 40
1.0000056999999991
 50
269.999989999999
 51
90.000003000000945
  0
ARC
  5
9B21
  8
AM_0
 10
145.71354510990071
 20
381.43571624969923
 30
0.0
 40
1.3350147999999991
 50
269.73042999999973
 51
90.269556000001344
  0
ARC
  5
9B22
  8
AM_0
 10
177.04856510990061
 20
393.92070624969921
 30
0.0
 40
1.02
 50
269.999989999999
 51
0.0000006832429909
  0
ARC
  5
9B23
  8
AM_0
 10
177.04856510990061
 20
393.92070624969921
 30
0.0
 40
1.5
 50
269.999989999999
 51
0.0000006832462478
  0
ARC
  5
9B24
  8
AM_0
 10
195.04856510990081
 20
393.92070624969921
 30
0.0
 40
1.02
 50
179.99998999999889
 51
270.0
  0
ARC
  5
9B25
  8
AM_0
 10
195.04856510990081
 20
393.92070624969921
 30
0.0
 40
1.5
 50
179.99998999999889
 51
270.0
  0
ARC
  5
9B26
  8
AM_0
 10
177.04856510990061
 20
398.92070624969932
 30
0.0
 40
1.5
 50
0.0
 51
90.000003000000945
  0
ARC
  5
9B27
  8
AM_0
 10
177.06858510990071
 20
398.78068624969927
 30
0.0
 40
1.0
 50
0.0
 51
90.000003000000945
  0
ARC
  5
9B28
  8
AM_0
 10
195.04856510990081
 20
398.92070624969932
 30
0.0
 40
1.5
 50
90.000003000000945
 51
180.00001000000091
  0
ARC
  5
9B29
  8
AM_0
 10
195.02854510990059
 20
398.78068624969927
 30
0.0
 40
1.0
 50
90.000003000000945
 51
180.00001000000091
  0
LINE
  5
9B2A
  8
AM_0
 10
216.04856510990061
 20
303.92070624969932
 30
0.0
 11
216.04856510990061
 21
428.92070624969921
 31
0.0
  0
LINE
  5
9B2B
  8
AM_0
 10
210.78855510990061
 20
306.05076624969922
 30
0.0
 11
214.2485451099007
 21
318.96073624969921
 31
0.0
  0
LINE
  5
9B2C
  8
AM_0
 10
203.0485651099001
 20
272.42070624969938
 30
0.0
 11
203.04856510990021
 21
288.42070624969898
 31
0.0
  0
LINE
  5
9B2D
  8
AM_0
 10
203.0485651099001
 20
272.42070624969938
 30
0.0
 11
203.0485651099001
 21
268.92070624969921
 31
0.0
  0
ARC
  5
9B2E
  8
AM_0
 10
202.5485651099003
 20
268.92070624969921
 30
0.0
 40
0.5
 50
270.0
 51
0.0
  0
ARC
  5
9B2F
  8
AM_0
 10
217.04160510990059
 20
303.91374624969922
 30
0.0
 40
0.99304521
 50
179.5973099999994
 51
270.40267999999998
  0
ARC
  5
9B30
  8
AM_0
 10
202.0485651099003
 20
288.42070624969898
 30
0.0
 40
1.0
 50
0.0
 51
90.0
  0
ARC
  5
9B31
  8
AM_0
 10
208.0647451099006
 20
297.92070624969932
 30
0.0
 40
1.5
 50
269.999989999999
 51
326.99999999999801
  0
LINE
  5
9B32
  8
AM_0
 10
215.04856510990061
 20
305.92076624969923
 30
0.0
 11
209.32276510990081
 21
297.10383624969921
 31
0.0
  0
LINE
  5
9B33
  8
AM_0
 10
210.75858510990071
 20
305.92070624969932
 30
0.0
 11
216.04856510990061
 21
305.92070624969932
 31
0.0
  0
ARC
  5
9B34
  8
AM_0
 10
208.8498351099006
 20
306.5669462496993
 30
0.0
 40
2.0062942999999991
 50
270.24932999999891
 51
345.08844000000039
  0
LINE
  5
9B35
  8
AM_0
 10
217.04856510990061
 20
302.92070624969921
 30
0.0
 11
224.04856510990081
 21
302.92070624969921
 31
0.0
  0
ARC
  5
9B36
  8
AM_0
 10
217.0409351099006
 20
315.3730962496993
 30
0.0
 40
0.99237448
 50
179.55802000000131
 51
270.4419699999998
  0
ARC
  5
9B37
  8
AM_0
 10
215.6922451099006
 20
318.57695624969932
 30
0.0
 40
1.4937901
 50
89.756423999998475
 51
165.11292000000071
  0
LINE
  5
9B38
  8
AM_0
 10
217.04856510990061
 20
314.38066624969917
 30
0.0
 11
224.04856510990081
 21
314.38066624969917
 31
0.0
  0
LINE
  5
9B39
  8
AM_0
 10
216.04856510990061
 20
329.27067624969919
 30
0.0
 11
224.04856510990081
 21
329.27067624969919
 31
0.0
  0
ARC
  5
9B3A
  8
AM_0
 10
212.8685751099006
 20
331.38066624969917
 30
0.0
 40
1.6800077
 50
269.999989999999
 51
90.000003000000945
  0
ARC
  5
9B3B
  8
AM_0
 10
209.38859510990051
 20
331.42070624969932
 30
0.0
 40
1.0000040999999991
 50
269.999989999999
 51
90.000003000000945
  0
ARC
  5
9B3C
  8
AM_0
 10
213.08854510990071
 20
341.3906762496992
 30
0.0
 40
1.460011199999999
 50
269.77524999999991
 51
90.224750000000114
  0
ARC
  5
9B3D
  8
AM_0
 10
209.3885351099006
 20
341.42070624969932
 30
0.0
 40
1.0000255999999981
 50
269.58946999999989
 51
90.410531000001029
  0
ARC
  5
9B3E
  8
AM_0
 10
213.08854510990071
 20
391.45073624969939
 30
0.0
 40
1.460011199999999
 50
269.77524999999991
 51
90.224750000000114
  0
ARC
  5
9B3F
  8
AM_0
 10
209.3885351099006
 20
391.42070624969932
 30
0.0
 40
1.0000255999999981
 50
269.58946999999989
 51
90.410531000001029
  0
LINE
  5
9B40
  8
AM_0
 10
210.78858510990051
 20
426.80064624969901
 30
0.0
 11
214.24857510990049
 21
413.8806962496991
 31
0.0
  0
LINE
  5
9B41
  8
AM_0
 10
216.04856510990061
 20
403.57072624969908
 30
0.0
 11
224.04856510990081
 21
403.57072624969908
 31
0.0
  0
ARC
  5
9B42
  8
AM_0
 10
212.8685751099006
 20
401.47074624969918
 30
0.0
 40
1.6800077
 50
269.999989999999
 51
90.000003000000945
  0
ARC
  5
9B43
  8
AM_0
 10
209.38859510990051
 20
401.42070624969909
 30
0.0
 40
1.0000040999999991
 50
269.999989999999
 51
90.000003000000945
  0
ARC
  5
9B44
  8
AM_0
 10
215.6987151099006
 20
414.2729962496993
 30
0.0
 40
1.5022733999999991
 50
195.1365099999997
 51
269.99412000000041
  0
ARC
  5
9B45
  8
AM_0
 10
217.04838510990081
 20
428.92094624969923
 30
0.0
 40
0.99980682
 50
89.98893100000069
 51
180.0110700000007
  0
ARC
  5
9B46
  8
AM_0
 10
217.04765510990069
 20
417.46159624969908
 30
0.0
 40
0.9990923399999999
 50
89.947921999999295
 51
180.05208000000101
  0
ARC
  5
9B47
  8
AM_0
 10
208.85801510990069
 20
426.28154624969909
 30
0.0
 40
1.9991226
 50
15.05079100000003
 51
89.984388999999666
  0
LINE
  5
9B48
  8
AM_0
 10
211.59876510990071
 20
431.1558962496992
 30
0.0
 11
214.2886151099006
 21
418.64067624969908
 31
0.0
  0
LINE
  5
9B49
  8
AM_0
 10
215.75858510990071
 20
417.4607362496991
 30
0.0
 11
213.3386051099007
 21
417.4607362496991
 31
0.0
  0
ARC
  5
9B4A
  8
AM_0
 10
215.75425510990081
 20
418.96098624969909
 30
0.0
 40
1.500286
 50
192.3263099999981
 51
270.16416999999848
  0
LINE
  5
9B4B
  8
AM_0
 10
212.5090151099007
 20
426.92070624969932
 30
0.0
 11
216.04856510990061
 21
426.92070624969932
 31
0.0
  0
ARC
  5
9B4C
  8
AM_0
 10
210.56852510990061
 20
428.81071624969911
 30
0.0
 40
1.5
 50
12.12979199999887
 51
90.000003000000945
  0
ARC
  5
9B4D
  8
AM_0
 10
210.13224510990051
 20
430.84074624969912
 30
0.0
 40
1.5
 50
12.12979199999887
 51
90.000003000000945
  0
ARC
  5
9B4E
  8
AM_0
 10
210.27622510990051
 20
430.17070624969921
 30
0.0
 40
1.5
 50
12.12979199999887
 51
90.000003000000945
  0
LINE
  5
9B4F
  8
AM_0
 10
217.04856510990061
 20
418.46073624969932
 30
0.0
 11
224.04856510990081
 21
418.46073624969932
 31
0.0
  0
LINE
  5
9B50
  8
AM_0
 10
217.04856510990061
 20
429.92070624969909
 30
0.0
 11
224.04856510990081
 21
429.92070624969909
 31
0.0
  0
LINE
  5
9B60
  8
ﾁｭｳｼﾝｾﾝ
 10
317.54856510990089
 20
441.42070624969898
 30
0.0
 11
339.54856510990078
 21
441.42070624969898
 31
0.0
  0
LINE
  5
9B61
  8
ﾁｭｳｼﾝｾﾝ
 10
328.54856510990078
 20
452.42070624969909
 30
0.0
 11
328.54856510990078
 21
430.42070624969909
 31
0.0
  0
LINE
  5
9E2E
  8
ﾁｭｳｼﾝｾﾝ
 10
237.54856510990081
 20
441.42070624969898
 30
0.0
 11
259.54856510990078
 21
441.42070624969898
 31
0.0
  0
LINE
  5
9E2F
  8
ﾁｭｳｼﾝｾﾝ
 10
248.54856510990089
 20
452.42070624969909
 30
0.0
 11
248.54856510990089
 21
430.42070624969909
 31
0.0
  0
LINE
  5
9E36
  8
ﾁｭｳｼﾝｾﾝ
 10
237.54856510990081
 20
291.42070624969909
 30
0.0
 11
259.54856510990078
 21
291.42070624969909
 31
0.0
  0
LINE
  5
9E37
  8
ﾁｭｳｼﾝｾﾝ
 10
248.54856510990089
 20
302.42070624969921
 30
0.0
 11
248.54856510990089
 21
280.42070624969921
 31
0.0
  0
LINE
  5
9E3E
  8
ﾁｭｳｼﾝｾﾝ
 10
317.54856510990089
 20
291.42070624969909
 30
0.0
 11
339.54856510990078
 21
291.42070624969909
 31
0.0
  0
LINE
  5
9E3F
  8
ﾁｭｳｼﾝｾﾝ
 10
328.54856510990078
 20
302.42070624969921
 30
0.0
 11
328.54856510990078
 21
280.42070624969921
 31
0.0
  0
TEXT
  5
A144
  8
0
  6
CONTINUOUS
 62
     0
 10
472.39383479241963
 20
354.45056794300717
 30
0.0
 40
10.0
  1
VX04-060B~VX04-100B
  0
VIEWPORT
  5
89
 67
     1
  8
0
 10
210.0
 20
148.5
 30
0.0
 40
420.0
 41
297.0
 68
    -1
 69
     1
1001
ACAD
1000
MVIEW
1002
{
1070
    16
1010
0.0
1020
0.0
1030
0.0
1010
0.0
1020
0.0
1030
1.0
1040
0.0
1040
297.0
1040
221.70154043645701
1040
148.5
1040
50.0
1040
0.0
1040
0.0
1070
     0
1070
   100
1070
     1
1070
     1
1070
     0
1070
     0
1070
     0
1070
     0
1040
0.0
1040
0.0
1040
0.0
1040
10.0
1040
10.0
1040
10.0
1040
10.0
1070
     0
1002
{
1002
}
1002
}
1001
GENIUS_GENOREF_13
1005
1B94
1001
GENIUS_GENSCREG_15
1000
PF
1040
1.0
1000
DF
1040
1.0
1000
MIN
1011
0.0
1021
0.0
1031
0.0
1021
0.0
1031
0.0
1000
MAX
1011
420.0
1021
0.0
1031
0.0
1021
297.0
1031
0.0
1000
FLAGS
1070
     4
  0
ENDSEC
  0
EOF
