  0
SECTION
  2
HEADER
  9
$ACADVER
  1
AC1009
  9
$INSBASE
 10
0.0
 20
0.0
 30
0.0
  9
$EXTMIN
 10
4.7599236953587933
 20
1.936473165650795
 30
-0.0015258207003583
  9
$EXTMAX
 10
734.01321393654734
 20
552.61129659117626
 30
0.0000000349246037
  9
$LIMMIN
 10
0.0
 20
0.0
  9
$LIMMAX
 10
408.0
 20
284.0
  9
$ORTHOMODE
 70
     0
  9
$REGENMODE
 70
     1
  9
$FILLMODE
 70
     1
  9
$QTEXTMODE
 70
     0
  9
$MIRRTEXT
 70
     1
  9
$DRAGMODE
 70
     2
  9
$LTSCALE
 40
1.0
  9
$OSMODE
 70
   551
  9
$ATTMODE
 70
     1
  9
$TEXTSIZE
 40
2.5
  9
$TRACEWID
 40
1.0
  9
$TEXTSTYLE
  7
STANDARD
  9
$CLAYER
  8
AM_0
  9
$CELTYPE
  6
BYLAYER
  9
$CECOLOR
 62
   256
  9
$DIMSCALE
 40
1.0
  9
$DIMASZ
 40
2.5
  9
$DIMEXO
 40
1.0
  9
$DIMDLI
 40
7.0
  9
$DIMRND
 40
0.0
  9
$DIMDLE
 40
0.0
  9
$DIMEXE
 40
1.0
  9
$DIMTP
 40
0.1
  9
$DIMTM
 40
0.1000000001
  9
$DIMTXT
 40
2.5
  9
$DIMCEN
 40
0.0
  9
$DIMTSZ
 40
0.0
  9
$DIMTOL
 70
     0
  9
$DIMLIM
 70
     0
  9
$DIMTIH
 70
     0
  9
$DIMTOH
 70
     0
  9
$DIMSE1
 70
     0
  9
$DIMSE2
 70
     0
  9
$DIMTAD
 70
     3
  9
$DIMZIN
 70
     8
  9
$DIMBLK
  1

  9
$DIMASO
 70
     1
  9
$DIMSHO
 70
     1
  9
$DIMPOST
  1

  9
$DIMAPOST
  1
"
  9
$DIMALT
 70
     0
  9
$DIMALTD
 70
     2
  9
$DIMALTF
 40
0.0393701
  9
$DIMLFAC
 40
1.0
  9
$DIMTOFL
 70
     1
  9
$DIMTVP
 40
0.0
  9
$DIMTIX
 70
     0
  9
$DIMSOXD
 70
     0
  9
$DIMSAH
 70
     0
  9
$DIMBLK1
  1

  9
$DIMBLK2
  1

  9
$DIMSTYLE
  2
AM_JIS
  9
$DIMCLRD
 70
   256
  9
$DIMCLRE
 70
   256
  9
$DIMCLRT
 70
     4
  9
$DIMTFAC
 40
0.71
  9
$DIMGAP
 40
1.0
  9
$LUNITS
 70
     2
  9
$LUPREC
 70
     2
  9
$SKETCHINC
 40
1.0
  9
$FILLETRAD
 40
2.5
  9
$AUNITS
 70
     0
  9
$AUPREC
 70
     3
  9
$MENU
  1
.
  9
$ELEVATION
 40
0.0
  9
$PELEVATION
 40
0.0
  9
$THICKNESS
 40
0.0
  9
$LIMCHECK
 70
     0
  9
$BLIPMODE
 70
     0
  9
$CHAMFERA
 40
2.5
  9
$CHAMFERB
 40
2.5
  9
$SKPOLY
 70
     0
  9
$TDCREATE
 40
2453061.7556329509
  9
$TDUPDATE
 40
2458540.7036924539
  9
$TDINDWG
 40
0.0590581366
  9
$TDUSRTIMER
 40
0.0590579282
  9
$USRTIMER
 70
     1
  9
$ANGBASE
 50
0.0
  9
$ANGDIR
 70
     0
  9
$PDMODE
 70
     0
  9
$PDSIZE
 40
0.0
  9
$PLINEWID
 40
0.0
  9
$COORDS
 70
     1
  9
$SPLFRAME
 70
     0
  9
$SPLINETYPE
 70
     6
  9
$SPLINESEGS
 70
     8
  9
$ATTDIA
 70
     1
  9
$ATTREQ
 70
     1
  9
$HANDLING
 70
     1
  9
$HANDSEED
  5
A10F
  9
$SURFTAB1
 70
     6
  9
$SURFTAB2
 70
     6
  9
$SURFTYPE
 70
     6
  9
$SURFU
 70
     6
  9
$SURFV
 70
     6
  9
$UCSNAME
  2

  9
$UCSORG
 10
0.0
 20
0.0
 30
0.0
  9
$UCSXDIR
 10
1.0
 20
0.0
 30
0.0
  9
$UCSYDIR
 10
0.0
 20
1.0
 30
0.0
  9
$PUCSNAME
  2

  9
$PUCSORG
 10
0.0
 20
0.0
 30
0.0
  9
$PUCSXDIR
 10
1.0
 20
0.0
 30
0.0
  9
$PUCSYDIR
 10
0.0
 20
1.0
 30
0.0
  9
$USERI1
 70
     0
  9
$USERI2
 70
     0
  9
$USERI3
 70
     0
  9
$USERI4
 70
     0
  9
$USERI5
 70
     0
  9
$USERR1
 40
0.0
  9
$USERR2
 40
0.0
  9
$USERR3
 40
0.0
  9
$USERR4
 40
0.0
  9
$USERR5
 40
0.0
  9
$WORLDVIEW
 70
     1
  9
$SHADEDGE
 70
     3
  9
$SHADEDIF
 70
    70
  9
$TILEMODE
 70
     1
  9
$MAXACTVP
 70
    48
  9
$PLIMCHECK
 70
     0
  9
$PEXTMIN
 10
1.0000000000000000E+020
 20
1.0000000000000000E+020
 30
1.0000000000000000E+020
  9
$PEXTMAX
 10
-1.0000000000000000E+020
 20
-1.0000000000000000E+020
 30
-1.0000000000000000E+020
  9
$PLIMMIN
 10
0.0
 20
0.0
  9
$PLIMMAX
 10
420.0
 20
297.0
  9
$UNITMODE
 70
     0
  9
$VISRETAIN
 70
     1
  9
$PLINEGEN
 70
     0
  9
$PSLTSCALE
 70
     1
  0
ENDSEC
  0
SECTION
  2
TABLES
  0
TABLE
  2
VPORT
 70
     1
  0
VPORT
  2
*ACTIVE
 70
     0
 10
0.0
 20
0.0
 11
1.0
 21
1.0
 12
369.38656881595313
 22
277.27388487841358
 13
0.0
 23
0.0
 14
1.0
 24
1.0
 15
10.0
 25
10.0
 16
0.0
 26
0.0
 36
1.0
 17
0.0
 27
0.0
 37
0.0
 40
554.45519978771438
 41
1.7571592210767459
 42
50.0
 43
0.0
 44
0.0
 50
0.0
 51
0.0
 71
     0
 72
   100
 73
     1
 74
     1
 75
     0
 76
     0
 77
     0
 78
     0
  0
ENDTAB
  0
TABLE
  2
LTYPE
 70
    26
  0
LTYPE
  2
CONTINUOUS
 70
     0
  3
Solid line
 72
    65
 73
     0
 40
0.0
  0
LTYPE
  2
PHANTOM2
 70
     0
  3
Phantom (.5x) ___ _ _ ___ _ _ ___ _ _ ___ _ _
 72
    65
 73
     6
 40
31.75
 49
15.875
 49
-3.174999999999998
 49
3.174999999999998
 49
-3.174999999999998
 49
3.174999999999998
 49
-3.174999999999998
  0
LTYPE
  2
CENTER
 70
     0
  3
Center ____ _ ____ _ ____ _ ____ _ ____ _ ____
 72
    65
 73
     4
 40
50.799999999999997
 49
31.75
 49
-6.3499999999999979
 49
6.3499999999999979
 49
-6.3499999999999979
  0
LTYPE
  2
ACANSTGBM
 70
     0
  3
__ . . __ . .
 72
    65
 73
     6
 40
9.0
 49
4.0
 49
-1.0
 49
1.0
 49
-1.0
 49
1.0
 49
-1.0
  0
LTYPE
  2
ACANSTGLM
 70
     0
  3
_ _ _ _ _
 72
    65
 73
     2
 40
3.0
 49
2.0
 49
-1.0
  0
LTYPE
  2
GEN7
 70
     0
  3
____ . ____ . ____ . ____ . ____ . ____ . ____
 72
    65
 73
     4
 40
14.25
 49
9.75
 49
-1.5
 49
1.5
 49
-1.5
  0
LTYPE
  2
GEN3B
 70
     0
  3
 - - - - -
 72
    65
 73
     2
 40
1.0
 49
0.5
 49
-0.5
  0
LTYPE
  2
AM_ISO02W050
 70
     0
  3
__ __ __ __ __ __ __ __ __ __ __ __ __ __ __
 72
    65
 73
     2
 40
7.5
 49
6.0
 49
-1.5
  0
LTYPE
  2
AM_ISO08W050
 70
     0
  3
____ . ____ . ____ . ____ . ____ . ____ . ____
 72
    65
 73
     4
 40
18.0
 49
12.0
 49
-1.5
 49
3.0
 49
-1.5
  0
LTYPE
  2
AM_ISO09W050
 70
     0
  3
_____ . . _____ . . _____ . . ____ .. ____
 72
    65
 73
     6
 40
22.5
 49
12.0
 49
-1.5
 49
3.0
 49
-1.5
 49
3.0
 49
-1.5
  0
LTYPE
  2
AMCONSTR
 70
     0
  3
_______________________
 72
    65
 73
     2
 40
9999.0
 49
9999.0
 49
0.0
  0
LTYPE
  2
AM_ISO02W050X2
 70
     0
  3
 _ _ _ _ _ _ _ _ _ _ _ _
 72
    65
 73
     2
 40
3.75
 49
3.0
 49
-0.75
  0
LTYPE
  2
AM_ISO08W050X2
 70
     0
  3
__ . __ . __ . __ . __ . __
 72
    65
 73
     4
 40
9.0
 49
6.0
 49
-0.75
 49
1.5
 49
-0.75
  0
LTYPE
  2
AMZIGZAG
 70
     0
  3
/\/-/\/-/\/-/\/-/\/-/\/
 72
    65
 73
     2
 40
11.000099999999991
 49
0.0001
 49
-11.0
  0
LTYPE
  2
ACJISTGB
 70
     0
  3
__ . . __ . .
 72
    65
 73
     6
 40
9.0
 49
4.0
 49
-1.0
 49
1.0
 49
-1.0
 49
1.0
 49
-1.0
  0
LTYPE
  2
ACJISTGL
 70
     0
  3
_ _ _ _ _
 72
    65
 73
     2
 40
3.0
 49
2.0
 49
-1.0
  0
LTYPE
  2
ACISOWELD
 70
     0
  3
_ _ _ _ _
 72
    65
 73
     2
 40
2.0
 49
2.0
 49
-1.0
  0
LTYPE
  2
ACISOTGB
 70
     0
  3
__ . . __ . .
 72
    65
 73
     6
 40
9.0
 49
4.0
 49
-1.0
 49
1.0
 49
-1.0
 49
1.0
 49
-1.0
  0
LTYPE
  2
ACISOTGL
 70
     0
  3
_ _ _ _ _
 72
    65
 73
     2
 40
3.0
 49
2.0
 49
-1.0
  0
LTYPE
  2
HIDDEN
 70
     0
  3
Hidden __ __ __ __ __ __ __ __ __ __ __ __ __ _
 72
    65
 73
     2
 40
0.375
 49
0.25
 49
-0.125
  0
LTYPE
  2
CENTER2
 70
     0
  3
Center (.5x) ___ _ ___ _ ___ _ ___ _ ___ _ ___
 72
    65
 73
     4
 40
1.125
 49
0.75
 49
-0.125
 49
0.125
 49
-0.125
  0
LTYPE
  2
HIDDEN2
 70
     0
  3
Hidden (.5x) _ _ _ _ _ _ _ _ _ _ _ _ _ _ _ _ _
 72
    65
 73
     2
 40
0.1875
 49
0.125
 49
-0.0625
  0
LTYPE
  2
AMZIGZAG2
 70
     0
  3
/\/-/\/-/\/-/\/-/\/-/\/
 72
    65
 73
     2
 40
0.4401
 49
0.0001
 49
-0.4400000000000001
  0
LTYPE
  2
ACANSTGB
 70
     0
  3
__ . . __ . .
 72
    65
 73
     6
 40
0.35433070866
 49
0.15748031496
 49
-0.03937007874
 49
0.03937007874
 49
-0.03937007874
 49
0.03937007874
 49
-0.03937007874
  0
LTYPE
  2
ACANSTGL
 70
     0
  3
_ _ _ _ _
 72
    65
 73
     2
 40
0.11811023622
 49
0.07874015748
 49
-0.03937007874
  0
ENDTAB
  0
TABLE
  2
LAYER
 70
     7
  0
LAYER
  2
0
 70
     0
 62
     7
  6
CONTINUOUS
  0
LAYER
  2
AM_0
 70
     0
 62
     7
  6
CONTINUOUS
  0
LAYER
  2
DEFPOINTS
 70
     0
 62
     7
  6
CONTINUOUS
  0
LAYER
  2
ｶｸﾚｾﾝ2
 70
     0
 62
     3
  6
GEN3B
  0
LAYER
  2
ﾁｭｳｼﾝｾﾝ
 70
     0
 62
     1
  6
GEN7
  0
LAYER
  2
AM_0N
 70
     0
 62
     7
  6
CONTINUOUS
  0
LAYER
  2
AM_5
 70
     0
 62
     2
  6
CONTINUOUS
  0
ENDTAB
  0
TABLE
  2
STYLE
 70
    10
  0
STYLE
  2
STANDARD
 70
     0
 40
0.0
 41
0.8299999999999999
 50
0.0
 71
     0
 42
2.5
  3
txt.shx
  4
bigfont.shx
  0
STYLE
  2
ANNOTATIVE
 70
     0
 40
0.0
 41
1.0
 50
0.0
 71
     0
 42
0.2
  3
txt
  4

  0
STYLE
  2
ACANSTS
 70
     0
 40
1.0
 41
1.0
 50
0.0
 71
     0
 42
2.5
  3
romans.shx
  4
bigfont.shx
  0
STYLE
  2
ACANSGDT
 70
     0
 40
0.0
 41
1.0
 50
0.0
 71
     0
 42
2.5
  3
amgdt.shx
  4

  0
STYLE
  2

 70
     1
 40
0.0
 41
1.0
 50
0.0
 71
     0
 42
2.5
  3
ltypeshp.shx
  4

  0
STYLE
  2
ACJISTS
 70
     0
 40
1.0
 41
0.8299999999999999
 50
0.0
 71
     0
 42
2.5
  3
txt.shx
  4
bigfont.shx
  0
STYLE
  2
ACJISGDT
 70
     0
 40
0.0
 41
1.0
 50
0.0
 71
     0
 42
2.5
  3
amgdt.shx
  4

  0
STYLE
  2
ACISOTS
 70
     0
 40
1.0
 41
1.0
 50
0.0
 71
     0
 42
2.5
  3
isocp.shx
  4
extfont.shx
  0
STYLE
  2
ACISOGDT
 70
     0
 40
0.0
 41
1.0
 50
0.0
 71
     0
 42
2.5
  3
amgdt.shx
  4

  0
STYLE
  2

 70
     1
 40
0.0
 41
1.0
 50
0.0
 71
     0
 42
2.5
  3
genltshp.shx
  4

  0
ENDTAB
  0
TABLE
  2
VIEW
 70
    12
  0
VIEW
  2
GEN1
 70
     0
 40
95.824742268041234
 10
71.5
 20
137.08762886597941
 41
143.0
 11
0.0
 21
0.0
 31
1.0
 12
0.0
 22
0.0
 32
0.0
 42
50.0
 43
0.0
 44
0.0
 50
0.0
 71
     0
  0
VIEW
  2
GEN2
 70
     0
 40
95.824742268041234
 10
214.5
 20
137.08762886597941
 41
143.0
 11
0.0
 21
0.0
 31
1.0
 12
0.0
 22
0.0
 32
0.0
 42
50.0
 43
0.0
 44
0.0
 50
0.0
 71
     0
  0
VIEW
  2
GEN3
 70
     0
 40
95.824742268041234
 10
71.5
 20
47.912371134020603
 41
143.0
 11
0.0
 21
0.0
 31
1.0
 12
0.0
 22
0.0
 32
0.0
 42
50.0
 43
0.0
 44
0.0
 50
0.0
 71
     0
  0
VIEW
  2
GEN4
 70
     0
 40
95.824742268041234
 10
214.5
 20
47.912371134020603
 41
143.0
 11
0.0
 21
0.0
 31
1.0
 12
0.0
 22
0.0
 32
0.0
 42
50.0
 43
0.0
 44
0.0
 50
0.0
 71
     0
  0
VIEW
  2
GEN5
 70
     0
 40
95.824742268041234
 10
143.0
 20
92.500000000000057
 41
143.0
 11
0.0
 21
0.0
 31
1.0
 12
0.0
 22
0.0
 32
0.0
 42
50.0
 43
0.0
 44
0.0
 50
0.0
 71
     0
  0
VIEW
  2
GEN6
 70
     0
 40
191.64756804123709
 10
143.0
 20
92.5
 41
285.99713999999989
 11
0.0
 21
0.0
 31
1.0
 12
0.0
 22
0.0
 32
0.0
 42
50.0
 43
0.0
 44
0.0
 50
0.0
 71
     0
  0
VIEW
  2
AM_VIEW1
 70
     0
 40
142.0
 10
119.7777777777777
 20
213.0
 41
239.55555555555549
 11
0.0
 21
0.0
 31
1.0
 12
0.0
 22
0.0
 32
0.0
 42
50.0
 43
0.0
 44
0.0
 50
0.0
 71
     0
  0
VIEW
  2
AM_VIEW2
 70
     0
 40
142.0
 10
288.22222222222211
 20
213.0
 41
239.55555555555549
 11
0.0
 21
0.0
 31
1.0
 12
0.0
 22
0.0
 32
0.0
 42
50.0
 43
0.0
 44
0.0
 50
0.0
 71
     0
  0
VIEW
  2
AM_VIEW3
 70
     0
 40
142.0
 10
119.7777777777777
 20
71.0
 41
239.55555555555549
 11
0.0
 21
0.0
 31
1.0
 12
0.0
 22
0.0
 32
0.0
 42
50.0
 43
0.0
 44
0.0
 50
0.0
 71
     0
  0
VIEW
  2
AM_VIEW4
 70
     0
 40
142.0
 10
288.22222222222211
 20
71.0
 41
239.55555555555549
 11
0.0
 21
0.0
 31
1.0
 12
0.0
 22
0.0
 32
0.0
 42
50.0
 43
0.0
 44
0.0
 50
0.0
 71
     0
  0
VIEW
  2
AM_VIEW5
 70
     0
 40
142.0
 10
204.0
 20
142.0
 41
239.55555555555549
 11
0.0
 21
0.0
 31
1.0
 12
0.0
 22
0.0
 32
0.0
 42
50.0
 43
0.0
 44
0.0
 50
0.0
 71
     0
  0
VIEW
  2
AM_VIEW6
 70
     0
 40
283.99716000000001
 10
204.0
 20
142.0
 41
479.10631999999993
 11
0.0
 21
0.0
 31
1.0
 12
0.0
 22
0.0
 32
0.0
 42
50.0
 43
0.0
 44
0.0
 50
0.0
 71
     0
  0
ENDTAB
  0
TABLE
  2
UCS
 70
     0
  0
ENDTAB
  0
TABLE
  2
APPID
 70
   106
  0
APPID
  2
ACAD
 70
     0
  0
APPID
  2
ACADANNOTATIVE
 70
     0
  0
APPID
  2
MCAD_NO_VIS
 70
     0
  0
APPID
  2
ACAD_TEMP_GRAPHIC
 70
     0
  0
APPID
  2
AD_DRAW
 70
     0
  0
APPID
  2
DESIGNERASSEMBLIES
 70
     0
  0
APPID
  2
ASURF_PCURVE_APPNAME
 70
     0
  0
APPID
  2
GENIUS_GE3SECT_13
 70
     0
  0
APPID
  2
GENIUS_GENCFG_13
 70
     0
  0
APPID
  2
GENIUS_GE3CFG0_13
 70
     0
  0
APPID
  2
GENIUS_GENCFG0_13
 70
     0
  0
APPID
  2
GENIUS_GENCFG1_13
 70
     0
  0
APPID
  2
GENIUS_GENCFG2_13
 70
     0
  0
APPID
  2
GENIUS_GENCFG3_13
 70
     0
  0
APPID
  2
GENIUS_GENCFG4_13
 70
     0
  0
APPID
  2
GENIUS_GEVCFG0_13
 70
     0
  0
APPID
  2
GENIUS_GENOENT_13
 70
     0
  0
APPID
  2
GENIUS_GENREC_14
 70
     0
  0
APPID
  2
GENIUS_GENODEF_13
 70
     0
  0
APPID
  2
GENIUS_GENOBJ-N-REC_13
 70
     0
  0
APPID
  2
GENIUS_GENHINW_13
 70
     0
  0
APPID
  2
GENIUS_FIRSTVISTXT_14
 70
     0
  0
APPID
  2
GENIUS_GENOBJ-N-LEADER_13
 70
     0
  0
APPID
  2
GENIUS_GENOREF_13
 70
     0
  0
APPID
  2
GENIUS_GENOLIS_13
 70
     0
  0
APPID
  2
GEV_VCCNULL_SWITCH_OFF
 70
     0
  0
APPID
  2
GENIUS_GENDTOL_13
 70
     0
  0
APPID
  2
GENIUS_GEFCFG0_13
 70
     0
  0
APPID
  2
GENIUS_GENOBJ-N-TIT_13
 70
     0
  0
APPID
  2
GENIUS_GENTITLE_13
 70
     0
  0
APPID
  2
GENIUS_GENZVEED_13
 70
     0
  0
APPID
  2
GENIUS_GENOBJ-N-SDF_13
 70
     0
  0
APPID
  2
GENIUS_GENSCREG_13
 70
     0
  0
APPID
  2
GENIUS_DUMCFG0_13
 70
     0
  0
APPID
  2
GEVID936201362
 70
     0
  0
APPID
  2
GEVDC
 70
     0
  0
APPID
  2
GEVCON
 70
     0
  0
APPID
  2
VCC
 70
     0
  0
APPID
  2
GEVPT
 70
     0
  0
APPID
  2
GEVIT
 70
     0
  0
APPID
  2
GENBH
 70
     0
  0
APPID
  2
GEVMK
 70
     0
  0
APPID
  2
GENIUS_GENBH_13
 70
     0
  0
APPID
  2
GENIUS_GENOBJ-NBEHI-BHF_13
 70
     0
  0
APPID
  2
GENIUS_GENOBJ-NBEHI-BHB_13
 70
     0
  0
APPID
  2
GENIUS_GENOBJ-F-DESC_13
 70
     0
  0
APPID
  2
GENIUS_GEFDESC_14
 70
     0
  0
APPID
  2
GENIUS_GENOBJ-F-PART_13
 70
     0
  0
APPID
  2
GENIUS_GEFSTDP_13
 70
     0
  0
APPID
  2
GENIUS_GEFPARTINS_13
 70
     0
  0
APPID
  2
GENIUS_GENTRA_14
 70
     0
  0
APPID
  2
GENIUS_GENINF13_13
 70
     0
  0
APPID
  2
GENIUS_GENOBJ-N-INFOPT_13
 70
     0
  0
APPID
  2
GENIUS_GENOBJ-N-RSSYM_13
 70
     0
  0
APPID
  2
GENIUS_GENSYMENT_13
 70
     0
  0
APPID
  2
GENIUS_GENSCSYM_13
 70
     0
  0
APPID
  2
GENIUS_GEFINFNAM_13
 70
     0
  0
APPID
  2
GENIUS_GENSCREG_15
 70
     0
  0
APPID
  2
GENIUS_GENOBJ-N-CEN_13
 70
     0
  0
APPID
  2
GENIUS_GENOBJ-N-CRS_13
 70
     0
  0
APPID
  2
GENIUS_GENOBJ-N-CRC_13
 70
     0
  0
APPID
  2
GENIUS_GENCRC_14
 70
     0
  0
APPID
  2
GEVID942827039
 70
     0
  0
APPID
  2
GEVID942827040
 70
     0
  0
APPID
  2
GEVID942827041
 70
     0
  0
APPID
  2
GENIUS_GENOBJ-F-SCPASSM_13
 70
     0
  0
APPID
  2
GENIUS_GENDIMSH_14
 70
     0
  0
APPID
  2
GENIUS_GENFIL_13
 70
     0
  0
APPID
  2
GENIUS_GENOBJ-N-CHA_13
 70
     0
  0
APPID
  2
GENIUS_GENOBJ-N-FIL_13
 70
     0
  0
APPID
  2
GEVID942827042
 70
     0
  0
APPID
  2
GEVID946020473
 70
     0
  0
APPID
  2
GEVID946020474
 70
     0
  0
APPID
  2
GEVID946020475
 70
     0
  0
APPID
  2
GENIUS_GENOBJ-N-HTC_13
 70
     0
  0
APPID
  2
GENIUS_GENHATCH_13
 70
     0
  0
APPID
  2
GEVID948854295
 70
     0
  0
APPID
  2
GEVID939402019
 70
     0
  0
APPID
  2
GEVID952919491
 70
     0
  0
APPID
  2
GEVID952919492
 70
     0
  0
APPID
  2
GENIUS_GEFWELD_13
 70
     0
  0
APPID
  2
GENIUS_GENOBJ-F-WELS_13
 70
     0
  0
APPID
  2
GEVID952919493
 70
     0
  0
APPID
  2
GENIUS_GENOBJ-N-RSBK_13
 70
     0
  0
APPID
  2
GENIUS_GENOBJ-N-LIB_13
 70
     0
  0
APPID
  2
GENIUS_GENSCALE_13
 70
     0
  0
APPID
  2
GEVID986376691
 70
     0
  0
APPID
  2
ACATTRIBSERVICES
 70
     0
  0
APPID
  2
ACADM_DIM_EDIT
 70
     0
  0
APPID
  2
AMDT_DM_ADJ
 70
     0
  0
APPID
  2
GEVID1057795304
 70
     0
  0
APPID
  2
GENIUS_GEFSH_13
 70
     0
  0
APPID
  2
GENIUS_GENOBJ-F-SHS_13
 70
     0
  0
APPID
  2
GENIUS_GENOBJ-N-ADDLEAD_13
 70
     0
  0
APPID
  2
GENIUS_GENMAINADDLEADER_14
 70
     0
  0
APPID
  2
GENIUS_GENADDLEADER_14
 70
     0
  0
APPID
  2
GENIUS_GENDREL_13
 70
     0
  0
APPID
  2
GEVID1121934822
 70
     0
  0
APPID
  2
GEVID1121934823
 70
     0
  0
APPID
  2
GEVID1121934824
 70
     0
  0
APPID
  2
ACAD_DSTYLE_DIMJAG
 70
     0
  0
APPID
  2
ACAD_DSTYLE_DIMBREAK
 70
     0
  0
APPID
  2
ACAD_NAV_VCDISPLAY
 70
     0
  0
APPID
  2
ACADANNOPO
 70
     0
  0
APPID
  2
ACAD_EXEMPT_FROM_CAD_STANDARDS
 70
     0
  0
APPID
  2
ACAD_MLEADERVER
 70
     0
  0
ENDTAB
  0
TABLE
  2
DIMSTYLE
 70
    29
  0
DIMSTYLE
  2
STANDARD
 70
     0
  3

  4

  5

  6

  7

 40
1.0
 41
0.18
 42
0.0625
 43
0.38
 44
0.18
 45
0.0
 46
0.0
 47
0.0
 48
0.0
140
0.18
141
0.09
142
0.0
143
25.399999999999999
144
1.0
145
0.0
146
1.0
147
0.09
 71
     0
 72
     0
 73
     1
 74
     1
 75
     0
 76
     0
 77
     0
 78
     0
170
     0
171
     2
172
     0
173
     0
174
     0
175
     0
176
     0
177
     0
178
     0
  0
DIMSTYLE
  2
ANNOTATIVE
 70
     0
  3

  4

  5

  6

  7

 40
1.0
 41
0.18
 42
0.0625
 43
0.38
 44
0.18
 45
0.0
 46
0.0
 47
0.0
 48
0.0
140
0.18
141
0.09
142
0.0
143
25.399999999999999
144
1.0
145
0.0
146
1.0
147
0.09
 71
     0
 72
     0
 73
     1
 74
     1
 75
     0
 76
     0
 77
     0
 78
     0
170
     0
171
     2
172
     0
173
     0
174
     0
175
     0
176
     0
177
     0
178
     0
  0
DIMSTYLE
  2
AM_JIS
 70
     0
  3

  4
"
  5

  6

  7

 40
1.0
 41
2.0
 42
1.0
 43
8.0
 44
1.0
 45
0.0
 46
0.0
 47
0.1
 48
0.1
140
2.5
141
0.0
142
0.0
143
0.0393701
144
1.0
145
0.0
146
0.71
147
1.5
 71
     0
 72
     0
 73
     0
 74
     0
 75
     0
 76
     0
 77
     3
 78
     8
170
     0
171
     2
172
     1
173
     0
174
     0
175
     0
176
   256
177
   256
178
     4
  0
DIMSTYLE
  2
AM_JIS$3
 70
     0
  3

  4
"
  5

  6

  7

 40
1.0
 41
2.0
 42
1.0
 43
10.0
 44
1.0
 45
0.0
 46
0.0
 47
0.1
 48
0.1
140
2.5
141
0.0
142
0.0
143
0.0393701
144
1.0
145
0.0
146
0.71
147
1.5
 71
     0
 72
     0
 73
     0
 74
     1
 75
     0
 76
     0
 77
     3
 78
     8
170
     0
171
     2
172
     0
173
     0
174
     0
175
     0
176
   256
177
   256
178
     4
  0
DIMSTYLE
  2
AM_JIS$4
 70
     0
  3

  4
"
  5

  6

  7

 40
1.0
 41
2.0
 42
1.0
 43
10.0
 44
1.0
 45
0.0
 46
0.0
 47
0.1
 48
0.1
140
2.5
141
0.0
142
0.0
143
0.0393701
144
1.0
145
0.0
146
0.71
147
1.5
 71
     0
 72
     0
 73
     0
 74
     0
 75
     0
 76
     0
 77
     3
 78
     8
170
     0
171
     2
172
     0
173
     0
174
     0
175
     0
176
   256
177
   256
178
     4
  0
DIMSTYLE
  2
AM_JIS$6
 70
     0
  3

  4
"
  5

  6

  7

 40
1.0
 41
2.0
 42
1.0
 43
10.0
 44
1.0
 45
0.0
 46
0.0
 47
0.1
 48
0.1
140
2.5
141
0.0
142
0.0
143
0.0393701
144
1.0
145
0.0
146
0.71
147
1.5
 71
     0
 72
     0
 73
     0
 74
     0
 75
     0
 76
     0
 77
     0
 78
     8
170
     0
171
     2
172
     1
173
     0
174
     0
175
     0
176
   256
177
   256
178
     4
  0
DIMSTYLE
  2
AM_JIS$7
 70
     0
  3

  4
"
  5

  6

  7

 40
1.0
 41
2.0
 42
1.0
 43
10.0
 44
1.0
 45
0.0
 46
0.0
 47
0.1
 48
0.1
140
2.5
141
0.0
142
0.0
143
0.0393701
144
1.0
145
0.0
146
0.71
147
1.5
 71
     0
 72
     0
 73
     0
 74
     0
 75
     0
 76
     0
 77
     3
 78
     8
170
     0
171
     2
172
     1
173
     0
174
     0
175
     0
176
   256
177
   256
178
     4
  0
DIMSTYLE
  2
AM_JIS$SF
 70
     0
  3

  4
"
  5

  6

  7

 40
1.0
 41
2.0
 42
1.0
 43
10.0
 44
1.0
 45
0.0
 46
0.0
 47
0.1
 48
0.1
140
2.5
141
0.0
142
0.0
143
0.0393701
144
1.0
145
0.0
146
0.71
147
1.5
 71
     0
 72
     0
 73
     0
 74
     0
 75
     1
 76
     1
 77
     3
 78
     8
170
     0
171
     2
172
     1
173
     0
174
     0
175
     0
176
   256
177
   256
178
     4
  0
DIMSTYLE
  2
AM_JIS$SH
 70
     0
  3

  4
"
  5

  6

  7

 40
1.0
 41
2.0
 42
1.0
 43
10.0
 44
1.0
 45
0.0
 46
0.0
 47
0.1
 48
0.1
140
2.5
141
0.0
142
0.0
143
0.0393701
144
2.0
145
0.0
146
0.71
147
1.5
 71
     0
 72
     0
 73
     0
 74
     0
 75
     1
 76
     1
 77
     3
 78
     8
170
     0
171
     2
172
     1
173
     1
174
     0
175
     0
176
   256
177
   256
178
     4
  0
DIMSTYLE
  2
AM_ISO
 70
     0
  3

  4
"
  5

  6

  7

 40
1.0
 41
2.5
 42
1.0
 43
10.0
 44
1.0
 45
0.0
 46
0.0
 47
0.1
 48
0.1
140
3.5
141
0.0
142
0.0
143
0.0393701
144
1.0
145
0.0
146
0.71
147
1.5
 71
     0
 72
     0
 73
     0
 74
     0
 75
     0
 76
     0
 77
     1
 78
     8
170
     0
171
     2
172
     1
173
     0
174
     0
175
     0
176
   256
177
   256
178
     2
  0
DIMSTYLE
  2
AM_ISO$3
 70
     0
  3

  4
"
  5

  6

  7

 40
1.0
 41
2.5
 42
1.0
 43
10.0
 44
1.0
 45
0.0
 46
0.0
 47
0.1
 48
0.1
140
3.5
141
0.0
142
0.0
143
0.0393701
144
1.0
145
0.0
146
0.71
147
1.5
 71
     0
 72
     0
 73
     0
 74
     1
 75
     0
 76
     0
 77
     1
 78
     8
170
     0
171
     2
172
     0
173
     0
174
     0
175
     0
176
   256
177
   256
178
     2
  0
DIMSTYLE
  2
AM_ISO$4
 70
     0
  3

  4
"
  5

  6

  7

 40
1.0
 41
2.5
 42
1.0
 43
10.0
 44
1.0
 45
0.0
 46
0.0
 47
0.1
 48
0.1
140
3.5
141
0.0
142
0.0
143
0.0393701
144
1.0
145
0.0
146
0.71
147
1.5
 71
     0
 72
     0
 73
     0
 74
     1
 75
     0
 76
     0
 77
     1
 78
     8
170
     0
171
     2
172
     0
173
     0
174
     0
175
     0
176
   256
177
   256
178
     2
  0
DIMSTYLE
  2
AM_ISO$6
 70
     0
  3

  4
"
  5

  6

  7

 40
1.0
 41
2.5
 42
1.0
 43
10.0
 44
1.0
 45
0.0
 46
0.0
 47
0.1
 48
0.1
140
3.5
141
0.0
142
0.0
143
0.0393701
144
1.0
145
0.0
146
0.71
147
1.5
 71
     0
 72
     0
 73
     0
 74
     0
 75
     0
 76
     0
 77
     0
 78
     8
170
     0
171
     2
172
     1
173
     0
174
     0
175
     0
176
   256
177
   256
178
     2
  0
DIMSTYLE
  2
AM_ISO$7
 70
     0
  3

  4
"
  5

  6

  7

 40
1.0
 41
2.5
 42
1.0
 43
10.0
 44
1.0
 45
0.0
 46
0.0
 47
0.1
 48
0.1
140
5.0
141
0.0
142
0.0
143
0.0393701
144
1.0
145
0.0
146
0.71
147
1.5
 71
     0
 72
     0
 73
     0
 74
     0
 75
     0
 76
     0
 77
     1
 78
     8
170
     0
171
     2
172
     1
173
     0
174
     0
175
     0
176
   256
177
   256
178
     2
  0
DIMSTYLE
  2
AM_ISO$SF
 70
     0
  3

  4
"
  5

  6

  7

 40
1.0
 41
2.5
 42
1.0
 43
10.0
 44
1.0
 45
0.0
 46
0.0
 47
0.1
 48
0.1
140
3.5
141
0.0
142
0.0
143
0.0393701
144
1.0
145
0.0
146
0.71
147
1.5
 71
     0
 72
     0
 73
     0
 74
     0
 75
     1
 76
     1
 77
     1
 78
     8
170
     0
171
     2
172
     1
173
     0
174
     0
175
     0
176
   256
177
   256
178
     2
  0
DIMSTYLE
  2
AM_ISO$SH
 70
     0
  3

  4
"
  5

  6

  7

 40
1.0
 41
2.5
 42
1.0
 43
10.0
 44
1.0
 45
0.0
 46
0.0
 47
0.1
 48
0.1
140
3.5
141
0.0
142
0.0
143
0.0393701
144
2.0
145
0.0
146
0.71
147
1.5
 71
     0
 72
     0
 73
     0
 74
     0
 75
     1
 76
     1
 77
     1
 78
     8
170
     0
171
     2
172
     1
173
     1
174
     0
175
     0
176
   256
177
   256
178
     2
  0
DIMSTYLE
  2
GEN-ANSI
 70
     0
  3

  4
"
  5

  6

  7

 40
1.0
 41
2.0
 42
0.5
 43
10.0
 44
0.5
 45
0.0
 46
0.0
 47
0.1
 48
0.1
140
2.5
141
0.0
142
0.0
143
0.0393701
144
1.0
145
0.0
146
0.71
147
1.5
 71
     0
 72
     0
 73
     1
 74
     1
 75
     0
 76
     0
 77
     0
 78
     8
170
     0
171
     2
172
     0
173
     0
174
     0
175
     0
176
   256
177
   256
178
     4
  0
DIMSTYLE
  2
GEN-ANSI$3
 70
     0
  3

  4
"
  5

  6

  7

 40
1.0
 41
2.0
 42
0.5
 43
10.0
 44
0.5
 45
0.0
 46
0.0
 47
0.1
 48
0.1
140
2.5
141
0.0
142
0.0
143
0.0393701
144
1.0
145
0.0
146
0.71
147
1.5
 71
     0
 72
     0
 73
     1
 74
     1
 75
     0
 76
     0
 77
     0
 78
     8
170
     0
171
     2
172
     0
173
     0
174
     0
175
     0
176
   256
177
   256
178
     4
  0
DIMSTYLE
  2
GEN-ANSI$4
 70
     0
  3

  4
"
  5

  6

  7

 40
1.0
 41
2.0
 42
0.5
 43
10.0
 44
0.5
 45
0.0
 46
0.0
 47
0.1
 48
0.1
140
2.5
141
0.0
142
0.0
143
0.0393701
144
1.0
145
0.0
146
0.71
147
1.5
 71
     0
 72
     0
 73
     1
 74
     1
 75
     0
 76
     0
 77
     0
 78
     8
170
     0
171
     2
172
     0
173
     0
174
     0
175
     0
176
   256
177
   256
178
     4
  0
DIMSTYLE
  2
GEN-ANSI$6
 70
     0
  3

  4
"
  5

  6

  7

 40
1.0
 41
2.0
 42
0.5
 43
10.0
 44
0.5
 45
0.0
 46
0.0
 47
0.1
 48
0.1
140
2.5
141
0.0
142
0.0
143
0.0393701
144
1.0
145
0.0
146
0.71
147
1.5
 71
     0
 72
     0
 73
     1
 74
     1
 75
     0
 76
     0
 77
     0
 78
     8
170
     0
171
     2
172
     0
173
     0
174
     0
175
     0
176
   256
177
   256
178
     4
  0
DIMSTYLE
  2
GEN-ANSI-POS
 70
     0
  3

  4
"
  5

  6

  7

 40
1.0
 41
2.5
 42
0.5
 43
10.0
 44
0.5
 45
0.0
 46
0.0
 47
0.1
 48
0.1
140
5.0
141
0.0
142
0.0
143
0.0393701
144
1.0
145
0.0
146
0.71
147
1.5
 71
     0
 72
     0
 73
     0
 74
     0
 75
     0
 76
     0
 77
     0
 78
     8
170
     0
171
     2
172
     0
173
     0
174
     0
175
     0
176
   256
177
   256
178
     4
  0
DIMSTYLE
  2
GEN-ANSI-AXE-F
 70
     0
  3

  4
"
  5

  6

  7

 40
1.0
 41
2.0
 42
0.5
 43
10.0
 44
0.5
 45
0.0
 46
0.0
 47
0.1
 48
0.1
140
2.5
141
0.0
142
0.0
143
0.0393701
144
1.0
145
0.0
146
0.71
147
1.5
 71
     0
 72
     0
 73
     1
 74
     1
 75
     1
 76
     1
 77
     0
 78
     8
170
     0
171
     2
172
     0
173
     1
174
     0
175
     0
176
   256
177
   256
178
     4
  0
DIMSTYLE
  2
GEN-ANSI-AXE-H
 70
     0
  3

  4
"
  5

  6

  7

 40
1.0
 41
2.0
 42
0.5
 43
10.0
 44
0.5
 45
0.0
 46
0.0
 47
0.1
 48
0.1
140
2.5
141
0.0
142
0.0
143
0.0393701
144
2.0
145
0.0
146
0.71
147
1.5
 71
     0
 72
     0
 73
     0
 74
     0
 75
     1
 76
     1
 77
     0
 78
     8
170
     0
171
     2
172
     1
173
     1
174
     0
175
     0
176
   256
177
   256
178
     4
  0
DIMSTYLE
  2
AM_ANSI
 70
     0
  3

  4
mm
  5

  6

  7

 40
1.0
 41
0.12
 42
0.05
 43
0.5
 44
0.1
 45
0.0
 46
0.0
 47
0.1
 48
0.1
140
0.12
141
0.0
142
0.0
143
25.399999999999999
144
1.0
145
0.0
146
0.71
147
0.06
 71
     0
 72
     0
 73
     1
 74
     1
 75
     0
 76
     0
 77
     0
 78
     7
170
     0
171
     2
172
     0
173
     0
174
     0
175
     0
176
   256
177
   256
178
     2
  0
DIMSTYLE
  2
AM_ANSI$3
 70
     0
  3

  4
mm
  5

  6

  7

 40
1.0
 41
0.12
 42
0.05
 43
0.5
 44
0.1
 45
0.0
 46
0.0
 47
0.1
 48
0.1
140
0.12
141
0.0
142
0.0
143
25.399999999999999
144
1.0
145
0.0
146
0.71
147
0.06
 71
     0
 72
     0
 73
     1
 74
     1
 75
     0
 76
     0
 77
     0
 78
     7
170
     0
171
     2
172
     0
173
     0
174
     0
175
     0
176
   256
177
   256
178
     2
  0
DIMSTYLE
  2
AM_ANSI$4
 70
     0
  3

  4
mm
  5

  6

  7

 40
1.0
 41
0.12
 42
0.05
 43
0.5
 44
0.1
 45
0.0
 46
0.0
 47
0.1
 48
0.1
140
0.12
141
0.0
142
0.0
143
25.399999999999999
144
1.0
145
0.0
146
0.71
147
0.06
 71
     0
 72
     0
 73
     1
 74
     1
 75
     0
 76
     0
 77
     0
 78
     7
170
     0
171
     2
172
     0
173
     0
174
     0
175
     0
176
   256
177
   256
178
     2
  0
DIMSTYLE
  2
AM_ANSI$7
 70
     0
  3

  4
mm
  5

  6

  7

 40
1.0
 41
0.12
 42
0.05
 43
0.5
 44
0.1
 45
0.0
 46
0.0
 47
0.1
 48
0.1
140
0.12
141
0.0
142
0.0
143
25.399999999999999
144
1.0
145
0.0
146
0.71
147
0.06
 71
     0
 72
     0
 73
     1
 74
     1
 75
     0
 76
     0
 77
     0
 78
     7
170
     0
171
     2
172
     0
173
     0
174
     0
175
     0
176
   256
177
   256
178
     2
  0
DIMSTYLE
  2
AM_ANSI$SF
 70
     0
  3

  4
mm
  5

  6

  7

 40
1.0
 41
0.12
 42
0.05
 43
0.5
 44
0.1
 45
0.0
 46
0.0
 47
0.1
 48
0.1
140
0.12
141
0.0
142
0.0
143
25.399999999999999
144
1.0
145
0.0
146
0.71
147
0.06
 71
     0
 72
     0
 73
     1
 74
     1
 75
     1
 76
     1
 77
     0
 78
     7
170
     0
171
     2
172
     0
173
     0
174
     0
175
     0
176
   256
177
   256
178
     2
  0
DIMSTYLE
  2
AM_ANSI$SH
 70
     0
  3

  4
mm
  5

  6
GENAXEH
  7

 40
1.0
 41
0.12
 42
0.05
 43
0.5
 44
0.1
 45
0.0
 46
0.0
 47
0.1
 48
0.1
140
0.12
141
0.0
142
0.0
143
25.399999999999999
144
1.0
145
0.0
146
0.71
147
0.06
 71
     0
 72
     0
 73
     1
 74
     1
 75
     1
 76
     1
 77
     0
 78
     7
170
     0
171
     2
172
     0
173
     1
174
     0
175
     0
176
   256
177
   256
178
     2
  0
ENDTAB
  0
ENDSEC
  0
SECTION
  2
BLOCKS
  0
BLOCK
  8
0
  2
$MODEL_SPACE
 70
     0
 10
0.0
 20
0.0
 30
0.0
  3
$MODEL_SPACE
  1

  0
ENDBLK
  5
9F79
  8
0
  0
BLOCK
 67
     1
  8
0
  2
$PAPER_SPACE
 70
     0
 10
0.0
 20
0.0
 30
0.0
  3
$PAPER_SPACE
  1

  0
ENDBLK
  5
9F75
 67
     1
  8
0
  0
BLOCK
  8
0
  2
GENAXEH
 70
     0
 10
0.0
 20
0.0
 30
0.0
  3
GENAXEH
  1

  0
LINE
  5
9EC2
  8
0
 10
-1.0
 20
0.0
 30
0.0
 11
1.0
 21
0.0
 31
0.0
  0
ENDBLK
  5
9EC4
  8
0
  0
BLOCK
  8
0
  2
_ACMFILLEDHALF
 70
     0
 10
0.0
 20
0.0
 30
0.0
  3
_ACMFILLEDHALF
  1

  0
TRACE
  5
A088
  8
AM_0
 62
     0
 10
-0.8
 20
0.0
 30
0.0
 11
-1.0
 21
0.166666666
 31
0.0
 12
0.0
 22
0.0
 32
0.0
 13
0.0
 23
0.0
 33
0.0
  0
LINE
  5
A089
  8
AM_0
 62
     0
 10
-1.0
 20
0.0
 30
0.0
 11
-0.8
 21
0.0
 31
0.0
  0
ENDBLK
  5
A087
  8
0
  0
ENDSEC
  0
SECTION
  2
ENTITIES
  0
POINT
  5
1B94
  8
0
 10
0.0
 20
0.0
 30
0.0
1001
GENIUS_GENODEF_13
1002
{
1000
HIER
1070
     1
1002
}
1002
{
1000
MANEDIT
1070
     0
1002
}
1002
{
1000
NOSEL
1070
     0
1002
}
1002
{
1000
BEHIND
1070
     0
1002
}
1002
{
1000
REACTOR
1002
}
1001
GENIUS_GENOBJ-N-SDF_13
1002
{
1000
OWNER
1000
GEN
1002
}
1001
GENIUS_GENOENT_13
1002
{
1000
MYREF
1005
1B94
1002
}
1002
{
1000
GRP
1005
0
1002
}
1001
GENIUS_GENOLIS_13
1002
{
1000
ENT
1005
89
1002
}
  0
ARC
  5
8C34
  8
AM_0
 10
362.23003887599492
 20
191.24113543782309
 30
0.0
 40
4.000000199999997
 50
0.0
 51
90.000002999984645
  0
ARC
  5
8C35
  8
AM_0
 10
374.23003887599492
 20
32.780523437823149
 30
0.0
 40
8.0000000999999976
 50
179.99998999999889
 51
252.5423899999858
  0
ARC
  5
8C36
  8
AM_0
 10
369.23002887599608
 20
182.0146354378231
 30
0.0
 40
3.0
 50
179.99998999999889
 51
240.00000999999409
  0
ARC
  5
8C37
  8
AM_0
 10
369.23002887599608
 20
112.4676304378231
 30
0.0
 40
3.0
 50
119.99999999999891
 51
180.00001000000091
  0
LINE
  5
8C38
  8
AM_0
 10
337.22998887599391
 20
7.2411544378231829
 30
0.0
 11
373.22998887599488
 21
7.2411544378231829
 31
0.0
  0
LINE
  5
8C39
  8
AM_0
 10
340.22998887599482
 20
25.241139437823289
 30
0.0
 11
371.23003887599492
 21
25.241139437823289
 31
0.0
  0
LINE
  5
8C3A
  8
ﾁｭｳｼﾝｾﾝ
 10
243.73350711067809
 20
147.2410984378233
 30
0.0
 11
441.3485946450316
 21
147.2410984378233
 31
0.0
  0
LINE
  5
8C3B
  8
AM_0
 10
235.2299888759961
 20
47.312202437823089
 30
0.0
 11
235.2299888759961
 21
191.1700654378231
 31
0.0
  0
LINE
  5
8C3C
  8
AM_0
 10
222.73006887599649
 20
182.7410854378231
 30
0.0
 11
222.73006887599649
 21
55.741065437823117
 31
0.0
  0
LINE
  5
8C3D
  8
AM_0
 10
250.2299888759961
 20
31.491141437823451
 30
0.0
 11
250.2299888759961
 21
216.4605454378231
 31
0.0
  0
LINE
  5
8C3E
  8
AM_0
 10
264.23005887599493
 20
75.865530437823153
 30
0.0
 11
264.23005887599493
 21
133.88886343782309
 31
0.0
  0
LINE
  5
8C3F
  8
AM_0
 10
345.23002887599608
 20
47.698845437823131
 30
0.0
 11
345.23002887599608
 21
208.7220454378232
 31
0.0
  0
LINE
  5
8C40
  8
AM_0
 10
325.22998887599488
 20
40.241127437823131
 30
0.0
 11
325.22998887599488
 21
178.6838554378233
 31
0.0
  0
LINE
  5
8C41
  8
AM_0
 10
366.23002887599608
 20
32.780523437823149
 30
0.0
 11
366.23002887599608
 21
191.24113543782309
 31
0.0
  0
LINE
  5
8C42
  8
AM_0
 10
260.23006887599649
 20
62.741127437823138
 30
0.0
 11
260.23006887599649
 21
218.74117543782319
 31
0.0
  0
LINE
  5
8C43
  8
ﾁｭｳｼﾝｾﾝ
 10
13.780657537666221
 20
119.2411294378231
 30
0.0
 11
256.28539681306893
 21
119.2411294378231
 31
0.0
  0
ARC
  5
8C44
  8
AM_0
 10
230.23006887599641
 20
50.476173437823093
 30
0.0
 40
5.0000000999999967
 50
0.0
 51
88.000000000022425
  0
LINE
  5
8C45
  8
AM_0
 10
222.73006887599649
 20
82.093194437823186
 30
0.0
 11
235.2299888759961
 21
82.093194437823186
 31
0.0
  0
LINE
  5
8C46
  8
AM_0
 10
222.73006887599649
 20
67.741110437823295
 30
0.0
 11
235.2299888759961
 21
67.741110437823295
 31
0.0
  0
LINE
  5
8C47
  8
AM_0
 10
212.23006887599649
 20
7.2411544378231829
 30
0.0
 11
248.23006887599649
 21
7.2411544378231829
 31
0.0
  0
LINE
  5
8C48
  8
AM_0
 10
214.22998887599621
 20
25.241139437823289
 30
0.0
 11
245.3101988759949
 21
25.241139437823289
 31
0.0
  0
LINE
  5
8C49
  8
ｶｸﾚｾﾝ2
 10
222.73006887599649
 20
25.241139437823289
 30
0.0
 11
222.73006887599649
 21
7.2411544378231829
 31
0.0
  0
LINE
  5
8C4A
  8
AM_0
 10
212.23006887599649
 20
7.2411544378231829
 30
0.0
 11
212.23006887599649
 21
23.241156437823118
 31
0.0
  0
LINE
  5
8C4B
  8
ﾁｭｳｼﾝｾﾝ
 10
230.23006887599641
 20
2.241154437823182
 30
0.0
 11
230.23006887599649
 21
30.241139437823289
 31
0.0
  0
ARC
  5
8C4C
  8
AM_0
 10
214.22998887599621
 20
23.241156437823118
 30
0.0
 40
2.00000007
 50
90.000002999984645
 51
180.00001000000091
  0
LINE
  5
8C4D
  8
AM_0
 10
215.72998887599621
 20
55.741140437823098
 30
0.0
 11
222.73006887599649
 21
55.741140437823098
 31
0.0
  0
LINE
  5
8C4E
  8
AM_0
 10
222.72994887599631
 20
55.741140437823098
 30
0.0
 11
230.40442887599639
 21
55.47313543782316
 31
0.0
  0
LINE
  5
8C4F
  8
AM_0
 10
215.72998887599621
 20
67.201134437823157
 30
0.0
 11
222.73006887599649
 21
67.201134437823157
 31
0.0
  0
LINE
  5
8C50
  8
AM_0
 10
214.73005887599399
 20
82.091133437823203
 30
0.0
 11
222.73006887599649
 21
82.091133437823203
 31
0.0
  0
ARC
  5
8C51
  8
AM_0
 10
340.22998887599482
 20
40.241127437823131
 30
0.0
 40
15.000000299999989
 50
179.99998999999889
 51
270.0
  0
LINE
  5
8C52
  8
AM_0
 10
236.69446887599631
 20
43.776678437823129
 30
0.0
 11
249.35134887599631
 21
31.11980443782317
 31
0.0
  0
LINE
  5
8C53
  8
AM_0
 10
249.11989887599611
 20
28.02204043782314
 30
0.0
 11
264.03967887599629
 21
74.646432437823137
 31
0.0
  0
LINE
  5
8C54
  8
AM_0
 10
250.2299888759961
 20
9.2411554378231813
 30
0.0
 11
335.23003887599492
 21
9.2411554378231813
 31
0.0
  0
LINE
  5
8C55
  8
ｶｸﾚｾﾝ2
 10
237.73006887599689
 20
25.241139437823289
 30
0.0
 11
237.73006887599689
 21
7.2411544378231829
 31
0.0
  0
ARC
  5
8C56
  8
AM_0
 10
250.2299888759961
 20
7.2411544378231829
 30
0.0
 40
2.00000007
 50
90.000002999984645
 51
180.00001000000091
  0
ARC
  5
8C57
  8
AM_0
 10
245.3101988759949
 20
29.241156437823118
 30
0.0
 40
4.000000199999997
 50
270.0
 51
342.2553300000115
  0
ARC
  5
8C58
  8
AM_0
 10
247.22998887599621
 20
28.998510437823139
 30
0.0
 40
3.0
 50
27.893113000001321
 51
45.000000999994569
  0
LINE
  5
8C59
  8
ｶｸﾚｾﾝ2
 10
347.72998887599618
 20
25.241139437823289
 30
0.0
 11
347.72998887599618
 21
7.2411544378231829
 31
0.0
  0
LINE
  5
8C5A
  8
ｶｸﾚｾﾝ2
 10
362.72998887599488
 20
25.241139437823289
 30
0.0
 11
362.72998887599488
 21
7.2411544378231829
 31
0.0
  0
LINE
  5
8C5B
  8
ﾁｭｳｼﾝｾﾝ
 10
355.22998887599618
 20
2.241154437823182
 30
0.0
 11
355.22998887599618
 21
30.241139437823289
 31
0.0
  0
ARC
  5
8C5C
  8
AM_0
 10
335.23003887599492
 20
7.2411544378231829
 30
0.0
 40
2.00000007
 50
0.0
 51
90.000002999984645
  0
LINE
  5
8C5D
  8
AM_0
 10
337.22998887599391
 20
7.2411544378231829
 30
0.0
 11
337.22998887599391
 21
7.2411544378231829
 31
0.0
  0
ARC
  5
8C5E
  8
AM_0
 10
240.2300588759949
 20
47.312202437823089
 30
0.0
 40
5.0000000999999967
 50
179.99998999999889
 51
224.99999999999531
  0
LINE
  5
8C5F
  8
AM_0
 10
250.2299888759961
 20
38.823339437823108
 30
0.0
 11
252.57631887599601
 21
38.823339437823108
 31
0.0
  0
LINE
  5
8C60
  8
AM_0
 10
250.2299888759961
 20
56.176107437823127
 30
0.0
 11
258.12922887599638
 21
56.176107437823127
 31
0.0
  0
ARC
  5
8C61
  8
AM_0
 10
260.23006887599649
 20
75.865530437823153
 30
0.0
 40
4.000000199999997
 50
342.2553300000115
 51
0.0
  0
LINE
  5
8C62
  8
AM_0
 10
330.3049988759949
 20
39.698859437823103
 30
0.0
 11
337.22998887599391
 21
39.698859437823103
 31
0.0
  0
ARC
  5
8C63
  8
AM_0
 10
337.22998887599391
 20
47.698845437823131
 30
0.0
 40
8.0000000999999976
 50
270.0
 51
0.0
  0
ARC
  5
8C64
  8
AM_0
 10
230.23006887599641
 20
188.00608543782329
 30
0.0
 40
5.0000000999999967
 50
271.99999999997749
 51
0.0
  0
LINE
  5
8C65
  8
AM_0
 10
222.73006887599649
 20
156.38905543782309
 30
0.0
 11
235.2299888759961
 21
156.38905543782309
 31
0.0
  0
LINE
  5
8C66
  8
AM_0
 10
222.73006887599649
 20
170.74111543782311
 30
0.0
 11
235.2299888759961
 21
170.74111543782311
 31
0.0
  0
LINE
  5
8C67
  8
AM_0
 10
214.73005887599399
 20
156.39115543782299
 30
0.0
 11
222.73006887599649
 21
156.39115543782299
 31
0.0
  0
LINE
  5
8C68
  8
AM_0
 10
215.72998887599621
 20
182.74111543782311
 30
0.0
 11
222.73006887599649
 21
182.74111543782311
 31
0.0
  0
LINE
  5
8C69
  8
AM_0
 10
215.72998887599621
 20
171.28114543782331
 30
0.0
 11
222.73006887599649
 21
171.28114543782331
 31
0.0
  0
LINE
  5
8C6A
  8
AM_0
 10
222.73000887599619
 20
182.74111543782311
 30
0.0
 11
230.40448887599629
 21
183.00913543782309
 31
0.0
  0
POLYLINE
  5
8C6B
  8
AM_0
 66
     1
 10
0.0
 20
0.0
 30
0.0
  0
VERTEX
  5
8C6C
  8
AM_0
 10
287.99920887599637
 20
174.71344543782311
 30
0.0
 42
0.03875946
  0
VERTEX
  5
8C6D
  8
AM_0
 10
290.74702887599631
 20
177.6243154378231
 30
0.0
 42
0.045306424
  0
VERTEX
  5
8C6E
  8
AM_0
 10
292.96921887599632
 20
180.95200543782309
 30
0.0
 42
0.052171444
  0
VERTEX
  5
8C6F
  8
AM_0
 10
294.50590887599623
 20
184.6498354378231
 30
0.0
 42
0.057266632
  0
VERTEX
  5
8C70
  8
AM_0
 10
295.2001688759965
 20
188.5885954378231
 30
0.0
 42
0.058402258
  0
VERTEX
  5
8C71
  8
AM_0
 10
294.96940887599612
 20
192.57679543782319
 30
0.0
 42
0.05504525
  0
VERTEX
  5
8C72
  8
AM_0
 10
293.84389887599627
 20
196.4119354378231
 30
0.0
 42
0.048778111
  0
VERTEX
  5
8C73
  8
AM_0
 10
291.95104887599598
 20
199.93246543782311
 30
0.0
 42
0.041944157
  0
VERTEX
  5
8C74
  8
AM_0
 10
289.45354887599598
 20
203.05549543782311
 30
0.0
 42
0.035908231
  0
VERTEX
  5
8C75
  8
AM_0
 10
286.50094887599693
 20
205.75627543782329
 30
0.0
 42
0.031063197
  0
VERTEX
  5
8C76
  8
AM_0
 10
283.21426887599631
 20
208.0402354378231
 30
0.0
 42
0.027381873
  0
VERTEX
  5
8C77
  8
AM_0
 10
279.68233887599399
 20
209.92735543782311
 30
0.0
 42
0.024647421
  0
VERTEX
  5
8C78
  8
AM_0
 10
275.97334887599618
 20
211.43848543782309
 30
0.0
 42
0.022677586
  0
VERTEX
  5
8C79
  8
AM_0
 10
272.13796887599619
 20
212.59315543782299
 30
0.0
 42
0.021321534
  0
VERTEX
  5
8C7A
  8
AM_0
 10
268.21552887599501
 20
213.40699543782301
 30
0.0
 42
0.020471113
  0
VERTEX
  5
8C7B
  8
AM_0
 10
264.2386388759964
 20
213.89104543782321
 30
0.0
 42
0.020088534
  0
VERTEX
  5
8C7C
  8
AM_0
 10
260.23003887599629
 20
214.0519654378231
 30
0.0
  0
SEQEND
  5
8C7D
  8
AM_0
  0
ARC
  5
8C7E
  8
AM_0
 10
337.22998887599391
 20
208.7220454378232
 30
0.0
 40
8.0000000999999976
 50
0.0
 51
88.499996999987701
  0
LINE
  5
8C7F
  8
AM_0
 10
260.23000887599522
 20
149.42643343782319
 30
0.0
 11
287.99863887599622
 21
174.71293543782309
 31
0.0
  0
LINE
  5
8C80
  8
AM_0
 10
260.23006887599649
 20
133.88886343782309
 30
0.0
 11
264.23005887599493
 21
133.88886343782309
 31
0.0
  0
LINE
  5
8C81
  8
AM_0
 10
260.23000887599522
 20
149.42646343782309
 30
0.0
 11
260.23150887599689
 21
149.42646343782309
 31
0.0
  0
POLYLINE
  5
8C82
  8
AM_0
 66
     1
 10
0.0
 20
0.0
 30
0.0
  0
VERTEX
  5
8C83
  8
AM_0
 10
293.68669887599521
 20
191.88253543782329
 30
0.0
 42
0.046334034
  0
VERTEX
  5
8C84
  8
AM_0
 10
291.8348588759963
 20
192.94015543782311
 30
0.0
 42
0.024113349
  0
VERTEX
  5
8C85
  8
AM_0
 10
289.85539887599492
 20
193.74001543782319
 30
0.0
 42
0.015482213
  0
VERTEX
  5
8C86
  8
AM_0
 10
287.81845887599508
 20
194.38468543782321
 30
0.0
 42
0.011170747
  0
VERTEX
  5
8C87
  8
AM_0
 10
285.75073887599632
 20
194.92117543782319
 30
0.0
 42
0.0086851837
  0
VERTEX
  5
8C88
  8
AM_0
 10
283.66315887599512
 20
195.37585543782311
 30
0.0
 42
0.0071112966
  0
VERTEX
  5
8C89
  8
AM_0
 10
281.56147887599627
 20
195.76486543782309
 30
0.0
 42
0.0060487861
  0
VERTEX
  5
8C8A
  8
AM_0
 10
279.44875887599608
 20
196.0988854378231
 30
0.0
 42
0.0052886795
  0
VERTEX
  5
8C8B
  8
AM_0
 10
277.33138887599489
 20
196.38472543782319
 30
0.0
 42
0.004745088
  0
VERTEX
  5
8C8C
  8
AM_0
 10
275.20627887599488
 20
196.62838543782311
 30
0.0
 42
0.0043374779
  0
VERTEX
  5
8C8D
  8
AM_0
 10
273.07657887599629
 20
196.83352543782311
 30
0.0
 42
0.0040309373
  0
VERTEX
  5
8C8E
  8
AM_0
 10
270.94378887599481
 20
197.00305543782309
 30
0.0
 42
0.0038017218
  0
VERTEX
  5
8C8F
  8
AM_0
 10
268.80856887599521
 20
197.1391654378231
 30
0.0
 42
0.0036333144
  0
VERTEX
  5
8C90
  8
AM_0
 10
266.67148887599609
 20
197.24356543782329
 30
0.0
 42
0.0035147919
  0
VERTEX
  5
8C91
  8
AM_0
 10
264.53308887599491
 20
197.31742543782329
 30
0.0
 42
0.003439074
  0
VERTEX
  5
8C92
  8
AM_0
 10
262.39387887599639
 20
197.36155543782311
 30
0.0
 42
0.0034021156
  0
VERTEX
  5
8C93
  8
AM_0
 10
260.25418887599699
 20
197.37640543782319
 30
0.0
  0
SEQEND
  5
8C94
  8
AM_0
  0
ARC
  5
8C95
  8
AM_0
 10
247.22998887599621
 20
209.4837754378232
 30
0.0
 40
3.0
 50
315.0000000000046
 51
0.0
  0
LINE
  5
8C96
  8
AM_0
 10
236.69446887599631
 20
194.7055654378232
 30
0.0
 11
249.35134887599631
 21
207.3624454378232
 31
0.0
  0
ARC
  5
8C97
  8
AM_0
 10
240.2300588759949
 20
191.1700654378231
 30
0.0
 40
5.0000000999999967
 50
135.0000000000046
 51
180.00001000000091
  0
LINE
  5
8C98
  8
AM_0
 10
250.2299888759961
 20
197.37640543782319
 30
0.0
 11
260.23006887599649
 21
197.37640543782319
 31
0.0
  0
LINE
  5
8C99
  8
AM_0
 10
333.23002887599608
 20
186.68383543782309
 30
0.0
 11
341.62954887599602
 21
186.68383543782309
 31
0.0
  0
ARC
  5
8C9A
  8
AM_0
 10
333.23002887599608
 20
178.6838554378233
 30
0.0
 40
8.0000000999999976
 50
90.000002999984645
 51
180.00001000000091
  0
ARC
  5
8C9B
  8
AM_0
 10
353.23003887599617
 20
203.2411354378232
 30
0.0
 40
8.0000000999999976
 50
179.99998999999889
 51
270.0
  0
LINE
  5
8C9C
  8
AM_0
 10
353.23003887599617
 20
195.24112543782309
 30
0.0
 11
362.23003887599492
 21
195.24112543782309
 31
0.0
  0
LINE
  5
8C9D
  8
AM_0
 10
260.23000887599522
 20
218.74117543782319
 30
0.0
 11
337.43941887599613
 21
216.71938543782309
 31
0.0
  0
ARC
  5
8C9E
  8
AM_0
 10
252.2300588759949
 20
216.4605454378231
 30
0.0
 40
2.00000007
 50
91.999997999994008
 51
180.00001000000091
  0
LINE
  5
8C9F
  8
AM_0
 10
252.16015887599491
 20
218.4593854378231
 30
0.0
 11
260.23000887599522
 21
218.741205437823
 31
0.0
  0
LINE
  5
8CA0
  8
AM_0
 10
373.22998887599488
 20
119.9731834378231
 30
0.0
 11
373.22998887599488
 21
147.2410984378233
 31
0.0
  0
LINE
  5
8CA1
  8
AM_0
 10
373.22998887599488
 20
7.2411544378231829
 30
0.0
 11
373.22998887599488
 21
23.241156437823118
 31
0.0
  0
ARC
  5
8CA2
  8
AM_0
 10
371.23003887599492
 20
23.241156437823118
 30
0.0
 40
2.00000007
 50
0.0
 51
90.000002999984645
  0
ARC
  5
8CA3
  8
AM_0
 10
370.22998887599482
 20
119.9731834378231
 30
0.0
 40
3.0
 50
299.99999999999892
 51
0.0
  0
LINE
  5
8CA4
  8
AM_0
 10
367.72996887599493
 20
115.0657444378233
 30
0.0
 11
371.72995887599598
 21
117.37516243782311
 31
0.0
  0
LINE
  5
8CA5
  8
AM_0
 10
435.22996887599618
 20
163.2411154378232
 30
0.0
 11
377.23003887599617
 21
163.2411154378232
 31
0.0
  0
LINE
  5
8CA6
  8
AM_0
 10
435.22996887599618
 20
166.24111543782311
 30
0.0
 11
390.23002887599608
 21
166.24111543782311
 31
0.0
  0
LINE
  5
8CA7
  8
AM_0
 10
435.22996887599618
 20
131.24112943782319
 30
0.0
 11
377.23003887599617
 21
131.24112943782319
 31
0.0
  0
LINE
  5
8CA8
  8
AM_0
 10
373.22998887599488
 20
147.2410984378233
 30
0.0
 11
373.22998887599488
 21
174.5090854378231
 31
0.0
  0
LINE
  5
8CA9
  8
AM_0
 10
377.23003887599617
 20
129.74112943782299
 30
0.0
 11
377.23003887599617
 21
164.74111543782311
 31
0.0
  0
LINE
  5
8CAA
  8
AM_0
 10
377.23003887599617
 20
129.74112943782299
 30
0.0
 11
373.22998887599488
 21
129.74112943782299
 31
0.0
  0
LINE
  5
8CAB
  8
AM_0
 10
377.23003887599617
 20
164.74111543782311
 30
0.0
 11
373.22998887599488
 21
164.74111543782311
 31
0.0
  0
LINE
  5
8CAC
  8
AM_0
 10
390.23002887599608
 20
163.2411154378232
 30
0.0
 11
390.23002887599608
 21
166.24111543782311
 31
0.0
  0
LINE
  5
8CAD
  8
AM_0
 10
367.73005887599618
 20
179.41654543782309
 30
0.0
 11
371.73004887599512
 21
177.10714543782311
 31
0.0
  0
ARC
  5
8CAE
  8
AM_0
 10
370.22998887599482
 20
174.5090854378231
 30
0.0
 40
3.0
 50
0.0
 51
60.000001999990033
  0
LINE
  5
8CAF
  8
AM_0
 10
435.22996887599618
 20
131.24112943782319
 30
0.0
 11
435.22996887599618
 21
166.24111543782311
 31
0.0
  0
CIRCLE
  5
8CB0
  8
AM_0
 10
619.00778835340952
 20
147.2410984378233
 30
0.0
 40
29.000001000000001
  0
ARC
  5
8CB1
  8
AM_0
 10
619.00778835340952
 20
130.24112743782311
 30
0.0
 40
65.000000999999997
 50
0.0
 51
180.00001000000091
  0
LINE
  5
8CB2
  8
AM_0
 10
504.0405073534107
 20
22.682775437823292
 30
0.0
 11
520.59189435341068
 21
133.8889264378233
 31
0.0
  0
LINE
  5
8CB3
  8
AM_0
 10
733.97510235341065
 20
22.682760437823159
 30
0.0
 11
717.42370035341082
 21
133.8888934378231
 31
0.0
  0
LINE
  5
8CB4
  8
AM_0
 10
542.00778735341089
 20
179.33482543782321
 30
0.0
 11
542.00778735341089
 21
80.978385437823277
 31
0.0
  0
LINE
  5
8CB5
  8
AM_0
 10
696.0077833534109
 20
179.33482543782321
 30
0.0
 11
696.0077833534109
 21
80.978385437823277
 31
0.0
  0
LINE
  5
8CB6
  8
AM_0
 10
684.00778335341101
 20
130.24112743782311
 30
0.0
 11
684.00778335341101
 21
40.241127437823131
 31
0.0
  0
LINE
  5
8CB7
  8
AM_0
 10
554.00777235341093
 20
130.24112743782311
 30
0.0
 11
554.00777235341093
 21
40.241127437823131
 31
0.0
  0
LINE
  5
8CB8
  8
ﾁｭｳｼﾝｾﾝ
 10
619.00778835340952
 20
1.966383949679537
 30
0.0
 11
619.00778835340952
 21
224.44942745341899
 31
0.0
  0
LINE
  5
8CB9
  8
AM_0
 10
556.00777335340854
 20
9.2411554378231813
 30
0.0
 11
682.00778535340953
 21
9.2411554378231813
 31
0.0
  0
LINE
  5
8CBA
  8
AM_0
 10
550.00777335340854
 20
25.241139437823289
 30
0.0
 11
507.00778635341049
 21
25.241139437823289
 31
0.0
  0
LINE
  5
8CBB
  8
AM_0
 10
504.00777735340921
 20
7.2411544378231829
 30
0.0
 11
554.00777235341093
 21
7.2411544378231829
 31
0.0
  0
LINE
  5
8CBC
  8
ｶｸﾚｾﾝ2
 10
516.50778735340964
 20
25.241139437823289
 30
0.0
 11
516.50778735340964
 21
7.2411544378231829
 31
0.0
  0
LINE
  5
8CBD
  8
AM_0
 10
504.00777735340921
 20
22.241139437823271
 30
0.0
 11
504.00777735340921
 21
7.2411544378231829
 31
0.0
  0
ARC
  5
8CBE
  8
AM_0
 10
507.00778635341049
 20
22.241139437823271
 30
0.0
 40
3.0
 50
90.000002999984645
 51
180.00001000000091
  0
ARC
  5
8CBF
  8
AM_0
 10
539.00778735341078
 20
40.241127437823131
 30
0.0
 40
15.000000299999989
 50
270.0
 51
0.0
  0
ARC
  5
8CC0
  8
AM_0
 10
556.00777335340854
 20
7.2411544378231829
 30
0.0
 40
2.00000007
 50
90.000002999984645
 51
180.00001000000091
  0
ARC
  5
8CC1
  8
AM_0
 10
550.00777335340854
 20
21.241140437823159
 30
0.0
 40
4.000000199999997
 50
0.0
 51
90.000002999984645
  0
LINE
  5
8CC2
  8
ｶｸﾚｾﾝ2
 10
531.50778735340964
 20
25.241139437823289
 30
0.0
 11
531.50778735340964
 21
7.2411544378231829
 31
0.0
  0
LINE
  5
8CC3
  8
AM_0
 10
554.00777235341093
 20
21.241140437823159
 30
0.0
 11
554.00777235341093
 21
7.2411544378231829
 31
0.0
  0
LINE
  5
8CC4
  8
ﾁｭｳｼﾝｾﾝ
 10
524.007787353411
 20
30.241139437823289
 30
0.0
 11
524.00778735341123
 21
2.241154437823182
 31
0.0
  0
ARC
  5
8CC5
  8
AM_0
 10
619.00778835340952
 20
80.978385437823277
 30
0.0
 40
77.000000999999983
 50
179.99998999999889
 51
212.4183900000078
  0
ARC
  5
8CC6
  8
AM_0
 10
699.00778335341079
 20
40.241127437823131
 30
0.0
 40
15.000000299999989
 50
179.99998999999889
 51
270.0
  0
LINE
  5
8CC7
  8
AM_0
 10
688.00778535341078
 20
25.241139437823289
 30
0.0
 11
731.00778435341078
 21
25.241139437823289
 31
0.0
  0
LINE
  5
8CC8
  8
AM_0
 10
684.00778335341101
 20
7.2411544378231829
 30
0.0
 11
734.0077843534109
 21
7.2411544378231829
 31
0.0
  0
LINE
  5
8CC9
  8
AM_0
 10
684.00778335341101
 20
21.241140437823159
 30
0.0
 11
684.00778335341101
 21
7.2411544378231829
 31
0.0
  0
ARC
  5
8CCA
  8
AM_0
 10
682.00778535340953
 20
7.2411544378231829
 30
0.0
 40
2.00000007
 50
0.0
 51
90.000002999984645
  0
ARC
  5
8CCB
  8
AM_0
 10
688.00778535341078
 20
21.241140437823159
 30
0.0
 40
4.000000199999997
 50
90.000002999984645
 51
180.00001000000091
  0
LINE
  5
8CCC
  8
ｶｸﾚｾﾝ2
 10
706.50778335341079
 20
25.241139437823289
 30
0.0
 11
706.50778335341079
 21
7.2411544378231829
 31
0.0
  0
LINE
  5
8CCD
  8
ﾁｭｳｼﾝｾﾝ
 10
714.00778635340976
 20
30.241139437823289
 30
0.0
 11
714.00778635340953
 21
2.241154437823182
 31
0.0
  0
LINE
  5
8CCE
  8
ｶｸﾚｾﾝ2
 10
721.50778635341157
 20
25.241139437823289
 30
0.0
 11
721.50778635341157
 21
7.2411544378231829
 31
0.0
  0
LINE
  5
8CCF
  8
AM_0
 10
734.0077843534109
 20
22.241139437823271
 30
0.0
 11
734.0077843534109
 21
7.2411544378231829
 31
0.0
  0
ARC
  5
8CD0
  8
AM_0
 10
731.00778435341078
 20
22.241139437823271
 30
0.0
 40
3.0
 50
0.0
 51
90.000002999984645
  0
ARC
  5
8CD1
  8
AM_0
 10
619.00778835340952
 20
80.978385437823277
 30
0.0
 40
77.000000999999983
 50
327.5816000000014
 51
0.0
  0
ARC
  5
8CD2
  8
AM_0
 10
619.00778835340952
 20
119.2411294378231
 30
0.0
 40
99.500004000000004
 50
8.4654901000043417
 51
171.53449999999839
  0
LINE
  5
8CD3
  8
AM_0
 10
690.52852035340845
 20
201.35713543782319
 30
0.0
 11
648.23070735340957
 21
214.3530454378232
 31
0.0
  0
LINE
  5
8CD4
  8
ﾁｭｳｼﾝｾﾝ
 10
562.37567447625941
 20
147.2410984378233
 30
0.0
 11
675.63990223055976
 21
147.2410984378233
 31
0.0
  0
LINE
  5
8CD5
  8
AM_0
 10
547.68582735340851
 20
200.95510543782311
 30
0.0
 11
588.82245435340974
 21
214.0519654378231
 31
0.0
  0
LINE
  5
8CD6
  8
AM_0
 10
537.29376735341066
 20
190.56313543782309
 30
0.0
 11
524.19693435341105
 21
149.4264934378231
 31
0.0
  0
ARC
  5
8CD7
  8
AM_0
 10
550.00777335340854
 20
179.33482543782321
 30
0.0
 40
8.0000000999999976
 50
138.9466499999948
 51
180.00001000000091
  0
ARC
  5
8CD8
  8
AM_0
 10
552.53972535341052
 20
185.70916543782329
 30
0.0
 40
16.000000499999999
 50
107.0794599999804
 51
162.9205299999976
  0
ARC
  5
8CD9
  8
AM_0
 10
619.00778835340952
 20
147.2410984378233
 30
0.0
 40
16.000000499999999
 50
108.2099599999986
 51
71.790051999992613
  0
CIRCLE
  5
8CDA
  8
AM_5
 10
619.00778835340952
 20
147.2410984378233
 30
0.0
 40
4.000000199999997
  0
CIRCLE
  5
8CDB
  8
AM_0
 10
619.00778835340952
 20
147.2410984378233
 30
0.0
 40
2.75000007
  0
LINE
  5
8CDC
  8
AM_0
 10
614.00777535340808
 20
166.24111543782311
 30
0.0
 11
624.0077743534107
 21
166.24111543782311
 31
0.0
  0
LINE
  5
8CDD
  8
AM_0
 10
614.00777535340808
 20
158.2411354378232
 30
0.0
 11
624.0077743534107
 21
158.2411354378232
 31
0.0
  0
LINE
  5
8CDE
  8
AM_0
 10
614.00777535340808
 20
158.2411354378232
 30
0.0
 11
614.00777535340808
 21
166.24111543782311
 31
0.0
  0
LINE
  5
8CDF
  8
AM_0
 10
624.0077743534107
 20
158.2411354378232
 30
0.0
 11
624.0077743534107
 21
166.24111543782311
 31
0.0
  0
LINE
  5
8CE0
  8
AM_0
 10
701.1237373534093
 20
190.76194543782319
 30
0.0
 11
714.11967135340944
 21
148.46409043782299
 31
0.0
  0
ARC
  5
8CE1
  8
AM_0
 10
688.00778535341078
 20
179.33482543782321
 30
0.0
 40
8.0000000999999976
 50
0.0
 51
41.053350999992972
  0
ARC
  5
8CE2
  8
AM_0
 10
685.82937735341102
 20
186.06271543782319
 30
0.0
 40
16.000000499999999
 50
17.079463000003152
 51
72.920534000003912
  0
LINE
  5
8CE4
  8
AM_0
 10
214.73005887599399
 20
181.7411434378233
 30
0.0
 11
214.73005887599399
 21
56.741127437823138
 31
0.0
  0
LINE
  5
8CE5
  8
AM_0
 10
17.730108875995011
 20
87.561153437823165
 30
0.0
 11
17.730108875995011
 21
153.7711294378233
 31
0.0
  0
LINE
  5
8CE6
  8
AM_0
 10
20.230068875996949
 20
62.241144437823088
 30
0.0
 11
20.230068875996949
 21
79.072798620395304
 31
0.0
  0
LINE
  5
8CE7
  8
AM_0
 10
67.730058875996747
 20
176.6711134378231
 30
0.0
 11
67.730058875996747
 21
119.2411294378231
 31
0.0
  0
LINE
  5
8CE8
  8
AM_0
 10
204.5000888759964
 20
149.2411324378231
 30
0.0
 11
204.5000888759964
 21
89.241144437823181
 31
0.0
  0
LINE
  5
8CE9
  8
ﾁｭｳｼﾝｾﾝ
 10
163.7300588759949
 20
159.86612893782311
 30
0.0
 11
163.7300588759949
 21
78.616129937823061
 31
0.0
  0
ARC
  5
8CEA
  8
AM_0
 10
50.73079887599625
 20
119.2392394378231
 30
0.0
 40
8.0019083999999978
 50
90.005172999990876
 51
161.7801600000017
  0
ARC
  5
8CEB
  8
AM_0
 10
50.725038875996233
 20
119.23515043782329
 30
0.0
 40
7.9940046000000002
 50
198.17884000000171
 51
270.03581999999773
  0
LINE
  5
8CEC
  8
AM_0
 10
20.230068875996949
 20
75.35114443782328
 30
0.0
 11
67.730058875994899
 21
75.35114443782328
 31
0.0
  0
LINE
  5
8CED
  8
AM_0
 10
35.370078875996107
 20
121.7411314378233
 30
0.0
 11
45.230058875996278
 21
121.7411314378233
 31
0.0
  0
LINE
  5
8CEE
  8
AM_0
 10
35.370078875996107
 20
116.7411304378231
 30
0.0
 11
45.230058875996278
 21
116.7411304378231
 31
0.0
  0
LINE
  5
8CEF
  8
AM_0
 10
19.730058875996288
 20
62.241144437823088
 30
0.0
 11
67.730058875996747
 21
62.241144437823088
 31
0.0
  0
LINE
  5
8CF0
  8
AM_0
 10
26.810058875996209
 20
115.5211294378233
 30
0.0
 11
12.350058875996179
 21
71.011134437823159
 31
0.0
  0
LINE
  5
8CF1
  8
AM_0
 10
31.570068875996181
 20
113.9711404378231
 30
0.0
 11
17.110068875996141
 21
69.471138437823129
 31
0.0
  0
ARC
  5
8CF2
  8
AM_0
 10
14.73010887599639
 20
70.241130437823131
 30
0.0
 40
2.5014680099999991
 50
162.072079999999
 51
342.07206999999983
  0
ARC
  5
8CF3
  8
AM_0
 10
14.72920887599502
 20
70.235712437823167
 30
0.0
 40
3.0008441999999982
 50
185.05819000000051
 51
0.1035440000013547
  0
LINE
  5
8CF4
  8
AM_0
 10
17.730108875995011
 20
71.381142437823442
 30
0.0
 11
17.730108875995011
 21
64.241127437823138
 31
0.0
  0
ARC
  5
8CF5
  8
AM_0
 10
19.724808875997041
 20
64.235850437823103
 30
0.0
 40
1.994720039999998
 50
179.84812999999991
 51
270.15187999998409
  0
LINE
  5
8CF6
  8
AM_0
 10
20.230068875996949
 20
79.081140437823194
 30
0.0
 11
20.230068875996949
 21
75.35114443782328
 31
0.0
  0
ARC
  5
8CF7
  8
AM_0
 10
11.43769887599637
 20
69.936807437823177
 30
0.0
 40
0.304344
 50
6.477759099997817
 51
89.547816999989408
  0
ARC
  5
8CF8
  8
AM_0
 10
11.43847887599668
 20
69.93606043782313
 30
0.0
 40
0.8050760400000001
 50
5.3506319000004003
 51
89.888465999985428
  0
LINE
  5
8CF9
  8
AM_0
 10
11.230068875996491
 20
70.741143437823439
 30
0.0
 11
11.230068875996491
 21
70.241130437823131
 31
0.0
  0
LINE
  5
8CFA
  8
AM_0
 10
11.230068875996491
 20
70.741143437823439
 30
0.0
 11
11.44006887599607
 21
70.741143437823439
 31
0.0
  0
ARC
  5
8CFB
  8
AM_0
 10
17.778138875994951
 20
81.741252437823178
 30
0.0
 40
4.0504481999999991
 50
99.063520000001105
 51
224.9205999999968
  0
ARC
  5
8CFC
  8
AM_0
 10
35.372508875995209
 20
112.73762143782319
 30
0.0
 40
9.0035201999999952
 50
90.015528000017568
 51
161.99145000000081
  0
ARC
  5
8CFD
  8
AM_0
 10
35.376648875995208
 20
112.740612437823
 30
0.0
 40
4.0005161999999981
 50
90.094088000021216
 51
162.0860699999991
  0
LINE
  5
8CFE
  8
AM_0
 10
112.7300588759949
 20
72.891153437823164
 30
0.0
 11
214.73005887599399
 21
72.891153437823164
 31
0.0
  0
LINE
  5
8CFF
  8
AM_0
 10
208.08010887599491
 20
83.241144437823195
 30
0.0
 11
73.280118875996308
 21
83.241144437823195
 31
0.0
  0
LINE
  5
8D00
  8
AM_0
 10
90.73006887599648
 20
57.381129437823283
 30
0.0
 11
207.54004887599649
 21
57.381129437823283
 31
0.0
  0
LINE
  5
8D01
  8
AM_0
 10
163.7300588759949
 20
82.521144437823196
 30
0.0
 11
211.5500588759964
 21
82.521144437823196
 31
0.0
  0
LINE
  5
8D02
  8
AM_0
 10
112.7300588759949
 20
72.891138437823145
 30
0.0
 11
77.73004887599609
 21
74.921136437823122
 31
0.0
  0
LINE
  5
8D03
  8
AM_0
 10
72.000078875996223
 20
112.9711114378231
 30
0.0
 11
112.7300588759949
 21
112.9711114378231
 31
0.0
  0
LINE
  5
8D04
  8
AM_0
 10
112.23005887599621
 20
93.241143437823411
 30
0.0
 11
73.280118875996308
 21
93.241143437823411
 31
0.0
  0
LINE
  5
8D05
  8
AM_0
 10
72.190068875996985
 20
95.681148437823282
 30
0.0
 11
112.23005887599621
 21
95.681148437823282
 31
0.0
  0
LINE
  5
8D06
  8
AM_0
 10
112.23005887599621
 20
95.241144437823294
 30
0.0
 11
73.280118875996308
 21
95.241144437823294
 31
0.0
  0
LINE
  5
8D07
  8
AM_0
 10
72.060078875996183
 20
102.9011344378233
 30
0.0
 11
112.7300588759949
 21
102.9011344378233
 31
0.0
  0
LINE
  5
8D08
  8
AM_0
 10
112.7300588759949
 20
103.2411304378233
 30
0.0
 11
73.29004887599649
 21
103.2411304378233
 31
0.0
  0
LINE
  5
8D09
  8
AM_0
 10
72.060078875996183
 20
105.56115343782309
 30
0.0
 11
112.7300588759949
 21
105.56115343782309
 31
0.0
  0
LINE
  5
8D0A
  8
AM_0
 10
112.7300588759949
 20
115.2411304378231
 30
0.0
 11
73.29004887599649
 21
115.2411304378231
 31
0.0
  0
LINE
  5
8D0B
  8
AM_0
 10
112.7300588759949
 20
113.2411294378231
 30
0.0
 11
73.29004887599649
 21
113.2411294378231
 31
0.0
  0
LINE
  5
8D0C
  8
AM_0
 10
72.000078875996223
 20
115.5111484378231
 30
0.0
 11
112.7300588759949
 21
115.5111484378231
 31
0.0
  0
LINE
  5
8D0D
  8
AM_0
 10
72.000078875996223
 20
122.98112143782321
 30
0.0
 11
112.7300588759949
 21
122.98112143782321
 31
0.0
  0
LINE
  5
8D0E
  8
AM_0
 10
72.000078875996223
 20
125.5111204378231
 30
0.0
 11
112.7300588759949
 21
125.5111204378231
 31
0.0
  0
LINE
  5
8D0F
  8
AM_0
 10
112.7300588759949
 20
85.241130437823188
 30
0.0
 11
73.720098875995063
 21
85.241130437823188
 31
0.0
  0
LINE
  5
8D10
  8
AM_0
 10
72.190068875996985
 20
92.761134437823088
 30
0.0
 11
112.23005887599621
 21
92.761134437823088
 31
0.0
  0
LINE
  5
8D11
  8
AM_0
 10
90.73006887599648
 20
55.351128437823093
 30
0.0
 11
143.73010887599631
 21
55.351128437823093
 31
0.0
  0
LINE
  5
8D12
  8
AM_0
 10
90.73006887599648
 20
54.001137437823267
 30
0.0
 11
143.73010887599631
 21
54.001137437823267
 31
0.0
  0
LINE
  5
8D13
  8
AM_0
 10
90.73006887599648
 20
53.331141437823142
 30
0.0
 11
143.73010887599631
 21
53.331141437823142
 31
0.0
  0
LINE
  5
8D14
  8
AM_0
 10
112.7300588759949
 20
123.2411314378233
 30
0.0
 11
73.29004887599649
 21
123.2411314378233
 31
0.0
  0
LINE
  5
8D15
  8
AM_0
 10
112.7300588759949
 20
125.2411294378231
 30
0.0
 11
73.29004887599649
 21
125.2411294378231
 31
0.0
  0
LINE
  5
8D16
  8
AM_0
 10
112.7300588759949
 20
105.2411464378231
 30
0.0
 11
73.29004887599649
 21
105.2411464378231
 31
0.0
  0
LINE
  5
8D17
  8
AM_0
 10
72.410058875996114
 20
82.521144437823196
 30
0.0
 11
163.7300588759949
 21
82.521144437823196
 31
0.0
  0
LINE
  5
8D18
  8
AM_0
 10
72.410058875996114
 20
85.871133437823175
 30
0.0
 11
112.7300588759949
 21
85.871133437823175
 31
0.0
  0
LINE
  5
8D19
  8
AM_0
 10
67.730058875996747
 20
61.811136437823102
 30
0.0
 11
67.730058875996747
 21
119.2411294378231
 31
0.0
  0
LINE
  5
8D1A
  8
AM_0
 10
67.730058875996747
 20
76.551126437823072
 30
0.0
 11
77.730108875995043
 21
76.551126437823072
 31
0.0
  0
LINE
  5
8D1B
  8
AM_0
 10
73.870068875996338
 20
57.571131437823169
 30
0.0
 11
87.230058875996306
 21
57.571131437823169
 31
0.0
  0
LINE
  5
8D1C
  8
AM_0
 10
67.730058875996747
 20
70.891137437823147
 30
0.0
 11
77.730108875995043
 21
70.891137437823147
 31
0.0
  0
LINE
  5
8D1D
  8
AM_0
 10
73.960098875997119
 20
66.261132437823093
 30
0.0
 11
87.230058875996306
 21
66.261132437823093
 31
0.0
  0
LINE
  5
8D1E
  8
AM_0
 10
73.840038875995091
 20
55.941141437823141
 30
0.0
 11
87.340038875995106
 21
55.941141437823141
 31
0.0
  0
LINE
  5
8D1F
  8
AM_0
 10
73.900098875996264
 20
60.981150437823104
 30
0.0
 11
87.230058875996306
 21
60.981150437823104
 31
0.0
  0
ARC
  5
8D20
  8
AM_0
 10
69.520218875996306
 20
66.708336437823178
 30
0.0
 40
1.50278811
 50
12.013341999996911
 51
90.004668000016366
  0
ARC
  5
8D21
  8
AM_0
 10
73.957098875996493
 20
68.260752437823157
 30
0.0
 40
1.9996281299999981
 50
190.36076000000071
 51
270.08532999998027
  0
ARC
  5
8D22
  8
AM_0
 10
73.84246887599646
 20
57.945459437823153
 30
0.0
 40
2.004324029999998
 50
194.27804999999751
 51
269.93108999997929
  0
LINE
  5
8D23
  8
AM_0
 10
67.730118875995231
 20
61.811136437823102
 30
0.0
 11
70.550058875996456
 21
61.741128437823143
 31
0.0
  0
ARC
  5
8D24
  8
AM_0
 10
69.565068875996076
 20
60.619377437823289
 30
0.0
 40
1.5017800800000001
 50
14.332836000000739
 51
90.189383000005648
  0
ARC
  5
8D25
  8
AM_0
 10
69.544398875996194
 20
62.644815437823127
 30
0.0
 40
1.4963320799999991
 50
13.382438000004029
 51
90.164589999994277
  0
ARC
  5
8D26
  8
AM_0
 10
73.867998875995013
 20
59.573082437823132
 30
0.0
 40
2.0019479399999991
 50
193.3411400000015
 51
270.05947999999449
  0
ARC
  5
8D27
  8
AM_0
 10
73.901988875996267
 20
62.976831437823421
 30
0.0
 40
1.995695999999995
 50
192.0225299999999
 51
269.94477999998969
  0
LINE
  5
8D28
  8
AM_0
 10
71.950098875995081
 20
62.56112143782331
 30
0.0
 11
70.990068875996698
 21
67.021128437823165
 31
0.0
  0
LINE
  5
8D29
  8
AM_0
 10
69.540048875995126
 20
64.14113743782309
 30
0.0
 11
71.600118875995122
 21
64.14113743782309
 31
0.0
  0
LINE
  5
8D2A
  8
AM_0
 10
69.560088875996371
 20
62.121132437823277
 30
0.0
 11
71.210088875996462
 21
62.121132437823277
 31
0.0
  0
LINE
  5
8D2B
  8
AM_0
 10
71.920068875995184
 20
59.11112443782315
 30
0.0
 11
71.000088875996411
 21
62.991129437823133
 31
0.0
  0
LINE
  5
8D2C
  8
AM_0
 10
71.900028875996199
 20
57.45113443782315
 30
0.0
 11
71.020038875994942
 21
60.991128437823143
 31
0.0
  0
LINE
  5
8D2D
  8
AM_0
 10
62.730108875996393
 20
75.35114443782328
 30
0.0
 11
62.730108875996393
 21
62.241144437823088
 31
0.0
  0
LINE
  5
8D2E
  8
AM_0
 10
69.520038875994942
 20
68.211129437823104
 30
0.0
 11
71.940078875996278
 21
68.211129437823104
 31
0.0
  0
LINE
  5
8D2F
  8
AM_0
 10
71.45008887599397
 20
70.891122437823299
 30
0.0
 11
71.990058875995146
 21
67.901118437823413
 31
0.0
  0
LINE
  5
8D30
  8
AM_0
 10
67.730058875996747
 20
84.941142437823203
 30
0.0
 11
70.900098875996264
 21
84.941142437823203
 31
0.0
  0
ARC
  5
8D31
  8
AM_0
 10
72.410058875996114
 20
84.196146437823202
 30
0.0
 40
1.67500812
 50
90.000002999984645
 51
270.0
  0
ARC
  5
8D32
  8
AM_0
 10
73.280118875996308
 20
84.241143437823368
 30
0.0
 40
1.000004069999999
 50
90.000002999984645
 51
270.0
  0
ARC
  5
8D33
  8
AM_0
 10
87.23152887599646
 20
56.072565437823293
 30
0.0
 40
1.498559999999999
 50
359.94488000000052
 51
90.055115000003084
  0
ARC
  5
8D34
  8
AM_0
 10
90.73261887599709
 20
57.353646437823151
 30
0.0
 40
2.00251584
 50
180.0718999999998
 51
269.9281000000002
  0
ARC
  5
8D35
  8
AM_0
 10
87.348768875996456
 20
54.440850437823428
 30
0.0
 40
1.500312029999999
 50
14.683033999999299
 51
90.331662999981404
  0
ARC
  5
8D36
  8
AM_0
 10
90.731208875996344
 20
55.327554437823153
 30
0.0
 40
1.9964280599999991
 50
194.69462999999919
 51
269.96760999999151
  0
ARC
  5
8D37
  8
AM_0
 10
90.729888875996465
 20
56.000955437823279
 30
0.0
 40
1.9998241199999991
 50
179.99493999999871
 51
270.00505999999473
  0
ARC
  5
8D38
  8
AM_0
 10
87.228528875994016
 20
59.479638437823141
 30
0.0
 40
1.5015081599999991
 50
0.0575469979997975
 51
89.94245100000316
  0
ARC
  5
8D39
  8
AM_0
 10
87.229698875994018
 20
64.760766437823094
 30
0.0
 40
1.500360179999999
 50
0.0138160000014509
 51
89.986184999986932
  0
ARC
  5
8D3A
  8
AM_0
 10
90.731718875997089
 20
59.382777437823151
 30
0.0
 40
2.0016401400000001
 50
180.04696000000129
 51
269.9530400000213
  0
LINE
  5
8D3B
  8
AM_0
 10
88.730058875996306
 20
57.35114443782328
 30
0.0
 11
88.730058875996306
 21
64.761132437823179
 31
0.0
  0
ARC
  5
8D3C
  8
AM_0
 10
76.900278875996719
 20
77.648247437823102
 30
0.0
 40
5.0021840999999991
 50
5.4245259999996849
 51
80.45142500000162
  0
LINE
  5
8D3D
  8
AM_0
 10
77.730108875995043
 20
70.891137437823147
 30
0.0
 11
77.730108875995043
 21
84.941142437823203
 31
0.0
  0
ARC
  5
8D3E
  8
AM_0
 10
77.36029887599625
 20
81.587655437823173
 30
0.0
 40
6.007896599999996
 50
273.5284499999853
 51
314.61726999999649
  0
ARC
  5
8D3F
  8
AM_0
 10
80.87659887599645
 20
78.032220437823185
 30
0.0
 40
1.007376
 50
314.29032000000012
 51
5.0634049000017072
  0
ARC
  5
8D40
  8
AM_0
 10
89.730108875996379
 20
84.241143437823368
 30
0.0
 40
1.000004069999999
 50
90.000002999984645
 51
270.0
  0
LINE
  5
8D41
  8
ﾁｭｳｼﾝｾﾝ
 10
50.7301088759964
 20
107.05182610698451
 30
0.0
 11
50.7301088759964
 21
131.4304327686616
 31
0.0
  0
ARC
  5
8D42
  8
AM_0
 10
73.280118875996308
 20
94.241130437823159
 30
0.0
 40
1.000004069999999
 50
90.000002999984645
 51
270.0
  0
ARC
  5
8D43
  8
AM_0
 10
72.190068875996985
 20
94.221126437823315
 30
0.0
 40
1.4600000699999991
 50
90.000002999984645
 51
270.0
  0
ARC
  5
8D44
  8
AM_0
 10
73.281378875994946
 20
104.2411444378231
 30
0.0
 40
1.00003602
 50
89.500715999993631
 51
270.49928999999503
  0
ARC
  5
8D45
  8
AM_0
 10
72.060078875996183
 20
104.2311364378231
 30
0.0
 40
1.33000008
 50
90.000002999984645
 51
270.0
  0
LINE
  5
8D46
  8
AM_0
 10
50.7301088759964
 20
111.2411314378233
 30
0.0
 11
67.730058875996747
 21
111.2411314378233
 31
0.0
  0
LINE
  5
8D47
  8
AM_0
 10
50.7301088759964
 20
127.2411304378231
 30
0.0
 11
67.730058875996747
 21
127.2411304378231
 31
0.0
  0
ARC
  5
8D48
  8
AM_0
 10
50.7301088759964
 20
119.2351174378234
 30
0.0
 40
5.0000519999999984
 50
23.65323000000534
 51
156.34676999999459
  0
ARC
  5
8D49
  8
AM_0
 10
50.7301088759964
 20
119.2351174378234
 30
0.0
 40
4.9952319000000003
 50
203.52670000000651
 51
336.47329000000582
  0
LINE
  5
8D4A
  8
AM_0
 10
45.230058875996278
 20
121.2411304378231
 30
0.0
 11
56.230068875996487
 21
121.2411304378231
 31
0.0
  0
LINE
  5
8D4B
  8
AM_0
 10
45.230058875996278
 20
117.2411314378233
 30
0.0
 11
56.230068875996487
 21
117.2411314378233
 31
0.0
  0
LINE
  5
8D4C
  8
AM_0
 10
45.230058875996278
 20
116.7411304378231
 30
0.0
 11
45.230058875996278
 21
121.7411314378233
 31
0.0
  0
LINE
  5
8D4D
  8
AM_0
 10
58.730058875996278
 20
116.7411304378231
 30
0.0
 11
58.730058875996278
 21
121.7411314378233
 31
0.0
  0
LINE
  5
8D4E
  8
AM_0
 10
56.230068875996487
 20
116.7411304378231
 30
0.0
 11
56.230068875996487
 21
121.7411314378233
 31
0.0
  0
LINE
  5
8D4F
  8
AM_0
 10
56.230068875996487
 20
121.7411314378233
 30
0.0
 11
58.730058875996278
 21
121.7411314378233
 31
0.0
  0
LINE
  5
8D50
  8
AM_0
 10
56.230068875996487
 20
116.7411304378231
 30
0.0
 11
58.730058875996278
 21
116.7411304378231
 31
0.0
  0
ARC
  5
8D51
  8
AM_0
 10
72.000078875996223
 20
114.2411314378233
 30
0.0
 40
1.270004069999999
 50
90.000002999984645
 51
270.0
  0
ARC
  5
8D52
  8
AM_0
 10
73.281378875994946
 20
114.2411314378233
 30
0.0
 40
1.00003602
 50
89.500715999993631
 51
270.49928999999503
  0
ARC
  5
8D53
  8
AM_0
 10
73.281378875994946
 20
124.2411304378232
 30
0.0
 40
1.00003602
 50
89.500715999993631
 51
270.49928999999503
  0
ARC
  5
8D54
  8
AM_0
 10
72.000078875996223
 20
124.2461344378233
 30
0.0
 40
1.265004089999999
 50
90.000002999984645
 51
270.0
  0
ARC
  5
8D55
  8
AM_0
 10
89.730108875996379
 20
94.241130437823159
 30
0.0
 40
1.000004069999999
 50
90.000002999984645
 51
270.0
  0
ARC
  5
8D56
  8
AM_0
 10
89.730108875996379
 20
104.2411444378231
 30
0.0
 40
1.000004069999999
 50
90.000002999984645
 51
270.0
  0
ARC
  5
8D57
  8
AM_0
 10
89.730108875996379
 20
114.2411314378233
 30
0.0
 40
1.000004069999999
 50
90.000002999984645
 51
270.0
  0
ARC
  5
8D58
  8
AM_0
 10
89.730108875996379
 20
124.2411304378232
 30
0.0
 40
1.000004069999999
 50
90.000002999984645
 51
270.0
  0
ARC
  5
8D59
  8
AM_0
 10
143.729208875995
 20
55.332024437823108
 30
0.0
 40
2.000876009999998
 50
270.02510999999589
 51
359.97489000000081
  0
ARC
  5
8D5A
  8
AM_0
 10
143.72773887599621
 20
56.003472437823177
 30
0.0
 40
2.002332029999998
 50
270.06674000000118
 51
359.93325999999882
  0
ARC
  5
8D5B
  8
AM_0
 10
143.7250688759963
 20
57.35616343782317
 30
0.0
 40
2.00502402
 50
270.14341000000132
 51
359.85658999999868
  0
LINE
  5
8D5C
  8
AM_0
 10
145.7300588759949
 20
55.331124437823178
 30
0.0
 11
145.7300588759949
 21
57.381129437823283
 31
0.0
  0
ARC
  5
8D5D
  8
AM_0
 10
211.5500588759964
 20
84.196146437823202
 30
0.0
 40
1.6749999899999961
 50
270.0
 51
90.000002999984645
  0
ARC
  5
8D5E
  8
AM_0
 10
209.5794188759964
 20
60.747660437823292
 30
0.0
 40
2.0065319999999991
 50
270.01926999998381
 51
347.72686999999718
  0
LINE
  5
8D5F
  8
AM_0
 10
209.44006887599599
 20
58.741143437823439
 30
0.0
 11
214.73005887599399
 21
58.741143437823439
 31
0.0
  0
LINE
  5
8D60
  8
AM_0
 10
209.4700388759961
 20
58.861122437823099
 30
0.0
 11
212.930058875996
 21
71.781123437823283
 31
0.0
  0
LINE
  5
8D61
  8
AM_0
 10
211.5500588759964
 20
85.871133437823175
 30
0.0
 11
201.7300588759949
 21
85.871133437823175
 31
0.0
  0
ARC
  5
8D62
  8
AM_0
 10
207.53548887599609
 20
59.385537437823132
 30
0.0
 40
2.004416039999998
 50
270.13147999999228
 51
344.8333399999994
  0
LINE
  5
8D63
  8
AM_0
 10
208.08010887599491
 20
85.241130437823188
 30
0.0
 11
201.7300588759949
 21
85.241130437823188
 31
0.0
  0
LINE
  5
8D64
  8
AM_0
 10
201.7300588759949
 20
89.162390851254244
 30
0.0
 11
204.5000888759964
 21
89.241114437823185
 31
0.0
  0
ARC
  5
8D65
  8
AM_0
 10
208.0719188759949
 20
84.241143437823368
 30
0.0
 40
1.0000319699999971
 50
270.4692999999848
 51
89.530700000015187
  0
ARC
  5
8D66
  8
AM_0
 10
215.729568875995
 20
68.200602437823136
 30
0.0
 40
0.99947604
 50
179.97008999999869
 51
270.02991999999381
  0
ARC
  5
8D67
  8
AM_0
 10
214.4371388759964
 20
66.711816437823131
 30
0.0
 40
1.499328059999999
 50
89.888150999980539
 51
168.09384000000131
  0
ARC
  5
8D68
  8
AM_0
 10
215.73031887599601
 20
56.741310437823131
 30
0.0
 40
1.0001800499999971
 50
180.0103099999989
 51
269.98967999999968
  0
LINE
  5
8D69
  8
AM_0
 10
211.54006887599641
 20
60.321129437823167
 30
0.0
 11
212.98006887599641
 21
67.021128437823165
 31
0.0
  0
ARC
  5
8D6A
  8
AM_0
 10
214.37545887599609
 20
71.395152437823114
 30
0.0
 40
1.49599605
 50
89.821707000006256
 51
165.0476599999993
  0
LINE
  5
8D6B
  8
AM_0
 10
214.44007887599619
 20
68.211129437823104
 30
0.0
 11
212.03011887599629
 21
68.211129437823104
 31
0.0
  0
LINE
  5
8D6C
  8
AM_0
 10
20.230068875996949
 20
163.13112343782311
 30
0.0
 11
67.730058875994899
 21
163.13112343782311
 31
0.0
  0
LINE
  5
8D6D
  8
AM_0
 10
20.230068875996949
 20
152.88114643782319
 30
0.0
 11
62.730108875996393
 21
152.88114643782319
 31
0.0
  0
LINE
  5
8D6E
  8
AM_0
 10
19.730058875996288
 20
176.24112343782309
 30
0.0
 11
67.730058875996747
 21
176.24112343782309
 31
0.0
  0
ARC
  5
8D6F
  8
AM_0
 10
19.730598875994009
 20
174.24057343782309
 30
0.0
 40
2.000536019999998
 50
90.015328999985087
 51
179.98467999999841
  0
ARC
  5
8D70
  8
AM_0
 10
18.627828875996329
 20
156.62364343782309
 30
0.0
 40
2.9977641899999981
 50
179.8564500000015
 51
275.78659000000317
  0
LINE
  5
8D71
  8
AM_0
 10
18.93007887599515
 20
153.53114143782309
 30
0.0
 11
18.93007887599515
 21
162.7311334378231
 31
0.0
  0
LINE
  5
8D72
  8
AM_0
 10
18.93007887599515
 20
153.53114143782309
 30
0.0
 11
20.230068875996949
 21
153.53114143782309
 31
0.0
  0
LINE
  5
8D73
  8
AM_0
 10
17.730108875995011
 20
162.49113343782321
 30
0.0
 11
17.730108875995011
 21
174.2411434378233
 31
0.0
  0
ARC
  5
8D74
  8
AM_0
 10
18.62788887599617
 20
159.62862343782311
 30
0.0
 40
2.99777994
 50
84.213883000010895
 51
179.95210999999989
  0
LINE
  5
8D75
  8
AM_0
 10
15.630078875996331
 20
156.6311434378232
 30
0.0
 11
15.630078875996331
 21
159.63114343782311
 31
0.0
  0
LINE
  5
8D76
  8
AM_0
 10
18.93007887599515
 20
162.7311334378231
 30
0.0
 11
20.230068875996949
 21
162.7311334378231
 31
0.0
  0
LINE
  5
8D77
  8
AM_0
 10
112.7300588759949
 20
165.5911234378232
 30
0.0
 11
214.73005887599399
 21
165.5911234378232
 31
0.0
  0
LINE
  5
8D78
  8
AM_0
 10
81.410058875996128
 20
155.96112343782309
 30
0.0
 11
211.5500588759964
 21
155.96112343782309
 31
0.0
  0
LINE
  5
8D79
  8
AM_0
 10
208.08010887599491
 20
155.24112343782309
 30
0.0
 11
82.280118875994944
 21
155.24112343782309
 31
0.0
  0
LINE
  5
8D7A
  8
AM_0
 10
90.73006887599648
 20
181.1011534378232
 30
0.0
 11
207.54004887599649
 21
181.1011534378232
 31
0.0
  0
LINE
  5
8D7B
  8
AM_0
 10
112.7301188759952
 20
165.5911234378232
 30
0.0
 11
77.73004887599609
 21
163.56114343782309
 31
0.0
  0
LINE
  5
8D7C
  8
AM_0
 10
72.060078875996183
 20
132.92112343782301
 30
0.0
 11
112.7300588759949
 21
132.92112343782301
 31
0.0
  0
LINE
  5
8D7D
  8
AM_0
 10
72.060078875996183
 20
135.58112743782331
 30
0.0
 11
112.7300588759949
 21
135.58112743782331
 31
0.0
  0
LINE
  5
8D7E
  8
AM_0
 10
81.190068875996062
 20
142.80112843782311
 30
0.0
 11
112.23005887599621
 21
142.80112843782311
 31
0.0
  0
LINE
  5
8D7F
  8
AM_0
 10
81.190068875996062
 20
145.73115343782331
 30
0.0
 11
112.23005887599621
 21
145.73115343782331
 31
0.0
  0
LINE
  5
8D80
  8
AM_0
 10
81.410058875996128
 20
152.61115843782309
 30
0.0
 11
112.73005887599621
 21
152.61115843782309
 31
0.0
  0
LINE
  5
8D81
  8
AM_0
 10
112.7300588759949
 20
133.2411304378231
 30
0.0
 11
73.29004887599649
 21
133.2411304378231
 31
0.0
  0
LINE
  5
8D82
  8
AM_0
 10
112.7300588759949
 20
135.2411314378233
 30
0.0
 11
73.29004887599649
 21
135.2411314378233
 31
0.0
  0
LINE
  5
8D83
  8
AM_0
 10
112.23005887599621
 20
143.2411324378231
 30
0.0
 11
82.280118875994944
 21
143.2411324378231
 31
0.0
  0
LINE
  5
8D84
  8
AM_0
 10
112.23005887599621
 20
145.24113043782299
 30
0.0
 11
82.280118875994944
 21
145.24113043782299
 31
0.0
  0
LINE
  5
8D85
  8
AM_0
 10
112.73005887599621
 20
153.24113143782321
 30
0.0
 11
82.280118875994944
 21
153.24113143782321
 31
0.0
  0
LINE
  5
8D86
  8
AM_0
 10
90.73006887599648
 20
183.13113343782331
 30
0.0
 11
143.73010887599631
 21
183.13113343782331
 31
0.0
  0
LINE
  5
8D87
  8
AM_0
 10
90.73006887599648
 20
184.4811334378231
 30
0.0
 11
143.73010887599631
 21
184.4811334378231
 31
0.0
  0
LINE
  5
8D88
  8
AM_0
 10
90.73006887599648
 20
185.16114343782311
 30
0.0
 11
143.73010887599631
 21
185.16114343782311
 31
0.0
  0
ARC
  5
8D89
  8
AM_0
 10
73.901748875996404
 20
175.51572343782331
 30
0.0
 40
1.9953880799999959
 50
90.048066999991249
 51
167.98461999999969
  0
LINE
  5
8D8A
  8
AM_0
 10
88.730058875996306
 20
181.13112343782331
 30
0.0
 11
88.730058875996306
 21
173.72115343782309
 31
0.0
  0
LINE
  5
8D8B
  8
AM_0
 10
71.920128875996852
 20
179.37114343782309
 30
0.0
 11
71.000088875996411
 21
175.49112343782309
 31
0.0
  0
LINE
  5
8D8C
  8
AM_0
 10
73.960098875997119
 20
172.2211534378232
 30
0.0
 11
87.230058875996306
 21
172.2211534378232
 31
0.0
  0
LINE
  5
8D8D
  8
AM_0
 10
67.730058875996747
 20
167.59113343782309
 30
0.0
 11
77.730108875995043
 21
167.59113343782309
 31
0.0
  0
LINE
  5
8D8E
  8
AM_0
 10
67.730058875996747
 20
161.93112343782309
 30
0.0
 11
77.730108875995043
 21
161.93112343782309
 31
0.0
  0
LINE
  5
8D8F
  8
AM_0
 10
67.730058875996747
 20
153.55113043782319
 30
0.0
 11
77.730108875995043
 21
153.55113043782319
 31
0.0
  0
ARC
  5
8D90
  8
AM_0
 10
72.060078875996183
 20
134.2511404378231
 30
0.0
 40
1.33000008
 50
90.000002999984645
 51
270.0
  0
ARC
  5
8D91
  8
AM_0
 10
73.281378875994946
 20
134.24112943782319
 30
0.0
 40
1.00003602
 50
89.500715999993631
 51
270.49928999999503
  0
LINE
  5
8D92
  8
AM_0
 10
62.730108875996393
 20
127.2411304378231
 30
0.0
 11
62.730108875996393
 21
176.24112343782309
 31
0.0
  0
ARC
  5
8D93
  8
AM_0
 10
69.539268875996186
 20
175.8439534378231
 30
0.0
 40
1.502808149999999
 50
270.03078999999502
 51
346.42217999999878
  0
ARC
  5
8D94
  8
AM_0
 10
69.521328875995096
 20
171.7852534378232
 30
0.0
 40
1.504140059999999
 50
269.95424999999199
 51
347.55525000000119
  0
ARC
  5
8D95
  8
AM_0
 10
73.951908875996196
 20
170.22774343782331
 30
0.0
 40
1.993432109999999
 50
89.765883999979707
 51
169.78803000000019
  0
LINE
  5
8D96
  8
AM_0
 10
69.540048875995126
 20
174.34113343782309
 30
0.0
 11
71.600118875995122
 21
174.34113343782309
 31
0.0
  0
LINE
  5
8D97
  8
AM_0
 10
71.950038875997052
 20
175.93113343782309
 30
0.0
 11
70.990008875995045
 21
171.46113343782309
 31
0.0
  0
LINE
  5
8D98
  8
AM_0
 10
69.520038875994942
 20
170.28114343782309
 30
0.0
 11
71.940078875996278
 21
170.28114343782309
 31
0.0
  0
LINE
  5
8D99
  8
AM_0
 10
71.450028875996409
 20
167.59113343782309
 30
0.0
 11
71.990058875995146
 21
170.58117343782311
 31
0.0
  0
ARC
  5
8D9A
  8
AM_0
 10
82.280118875994944
 20
154.24113343782321
 30
0.0
 40
1.000004069999999
 50
90.000002999984645
 51
270.0
  0
ARC
  5
8D9B
  8
AM_0
 10
81.410058875996128
 20
154.2861034378231
 30
0.0
 40
1.67500812
 50
90.000002999984645
 51
270.0
  0
ARC
  5
8D9C
  8
AM_0
 10
89.730108875996379
 20
154.24113343782321
 30
0.0
 40
1.000004069999999
 50
90.000002999984645
 51
270.0
  0
LINE
  5
8D9D
  8
AM_0
 10
77.730108875995043
 20
167.59113343782309
 30
0.0
 11
77.730108875995043
 21
153.55113043782319
 31
0.0
  0
ARC
  5
8D9E
  8
AM_0
 10
82.280118875994944
 20
144.2411314378233
 30
0.0
 40
1.000004069999999
 50
90.000002999984645
 51
270.0
  0
ARC
  5
8D9F
  8
AM_0
 10
81.190068875996062
 20
144.26612443782321
 30
0.0
 40
1.46500008
 50
90.000002999984645
 51
270.0
  0
ARC
  5
8DA0
  8
AM_0
 10
89.730108875996379
 20
144.2411314378233
 30
0.0
 40
1.000004069999999
 50
90.000002999984645
 51
270.0
  0
ARC
  5
8DA1
  8
AM_0
 10
89.730108875996379
 20
134.24112943782319
 30
0.0
 40
1.000004069999999
 50
90.000002999984645
 51
270.0
  0
ARC
  5
8DA2
  8
AM_0
 10
80.880018875996925
 20
160.45128343782309
 30
0.0
 40
1.004135999999999
 50
354.84883999999812
 51
45.797435999994747
  0
ARC
  5
8DA3
  8
AM_0
 10
77.351268875995174
 20
156.90918343782329
 30
0.0
 40
6.0039084000000011
 50
45.223692999997049
 51
86.382714000002196
  0
ARC
  5
8DA4
  8
AM_0
 10
76.895028875996076
 20
160.83891343782309
 30
0.0
 40
5.0078918999999971
 50
279.59871999999461
 51
354.52532000000048
  0
ARC
  5
8DA5
  8
AM_0
 10
87.224448875996117
 20
173.72679343782309
 30
0.0
 40
1.5056760899999959
 50
270.2155199999923
 51
359.78447000000108
  0
LINE
  5
8DA6
  8
AM_0
 10
73.840038875995091
 20
182.5411234378233
 30
0.0
 11
87.340038875995106
 21
182.5411234378233
 31
0.0
  0
LINE
  5
8DA7
  8
AM_0
 10
73.870068875996338
 20
180.9111034378231
 30
0.0
 11
87.230058875996306
 21
180.9111034378231
 31
0.0
  0
LINE
  5
8DA8
  8
AM_0
 10
73.900098875996264
 20
177.5111134378231
 30
0.0
 11
87.230058875996306
 21
177.5111134378231
 31
0.0
  0
LINE
  5
8DA9
  8
AM_0
 10
67.730058875996747
 20
176.6711134378231
 30
0.0
 11
70.550058875996456
 21
176.74110343782311
 31
0.0
  0
ARC
  5
8DAA
  8
AM_0
 10
73.837428875996451
 20
180.54333343782309
 30
0.0
 40
1.9977801299999991
 50
89.923080999997794
 51
165.86777000000319
  0
ARC
  5
8DAB
  8
AM_0
 10
69.558378875996368
 20
177.86823343782331
 30
0.0
 40
1.5070961099999991
 50
270.0648200000017
 51
345.90218000000061
  0
ARC
  5
8DAC
  8
AM_0
 10
73.862928875997099
 20
178.9156534378231
 30
0.0
 40
1.995484169999999
 50
89.79345799999912
 51
166.8059200000024
  0
LINE
  5
8DAD
  8
AM_0
 10
71.900088875995152
 20
181.03113343782331
 30
0.0
 11
71.020098875996155
 21
177.50115343782329
 31
0.0
  0
LINE
  5
8DAE
  8
AM_0
 10
69.560088875996371
 20
176.3611234378231
 30
0.0
 11
71.210088875996462
 21
176.3611234378231
 31
0.0
  0
ARC
  5
8DAF
  8
AM_0
 10
87.343698875996324
 20
184.0480234378231
 30
0.0
 40
1.506888089999999
 50
269.86222999998643
 51
345.12306999999907
  0
ARC
  5
8DB0
  8
AM_0
 10
87.226218875996409
 20
182.41497343782319
 30
0.0
 40
1.5038481299999991
 50
270.14639999998991
 51
359.85360000000009
  0
ARC
  5
8DB1
  8
AM_0
 10
87.228288875995062
 20
179.01294343782331
 30
0.0
 40
1.501796039999995
 50
270.06854999998592
 51
359.93145000000101
  0
ARC
  5
8DB2
  8
AM_0
 10
90.732558875996347
 20
183.1662934378233
 30
0.0
 40
1.99484415
 50
90.071657999978328
 51
165.63720000000311
  0
ARC
  5
8DB3
  8
AM_0
 10
90.724638875996305
 20
182.48655343782329
 30
0.0
 40
1.99457616
 50
89.844008000013005
 51
180.15598999999941
  0
ARC
  5
8DB4
  8
AM_0
 10
90.727308875996187
 20
181.13391343782331
 30
0.0
 40
1.9972080599999991
 50
89.919857000000462
 51
180.08013999999881
  0
ARC
  5
8DB5
  8
AM_0
 10
90.726468875996474
 20
179.10474343782309
 30
0.0
 40
1.996384079999995
 50
89.896162999993464
 51
180.10383999999931
  0
ARC
  5
8DB6
  8
AM_0
 10
143.7294488759967
 20
183.16050343782311
 30
0.0
 40
2.0006240100000001
 50
0.0178240009987588
 51
89.98217599999785
  0
ARC
  5
8DB7
  8
AM_0
 10
143.73298887599631
 20
182.4840634378231
 30
0.0
 40
1.997088119999999
 50
359.91637999999853
 51
90.083624999987734
  0
ARC
  5
8DB8
  8
AM_0
 10
143.730378875995
 20
181.13142343782309
 30
0.0
 40
1.999720049999999
 50
359.9919399999992
 51
90.008061999993785
  0
LINE
  5
8DB9
  8
AM_0
 10
145.7300588759949
 20
183.16110343782319
 30
0.0
 11
145.7300588759949
 21
181.1011534378232
 31
0.0
  0
LINE
  5
8DBA
  8
AM_0
 10
209.4700388759961
 20
179.6211634378231
 30
0.0
 11
212.930058875996
 21
166.70118343782309
 31
0.0
  0
LINE
  5
8DBB
  8
AM_0
 10
211.54006887599641
 20
178.16115343782309
 30
0.0
 11
212.98006887599641
 21
171.46113343782309
 31
0.0
  0
ARC
  5
8DBC
  8
AM_0
 10
211.5500588759964
 20
154.2861034378231
 30
0.0
 40
1.6749999899999961
 50
270.0
 51
90.000002999984645
  0
LINE
  5
8DBD
  8
AM_0
 10
211.5500588759964
 20
152.61115843782309
 30
0.0
 11
201.7300588759949
 21
152.61115843782309
 31
0.0
  0
ARC
  5
8DBE
  8
AM_0
 10
208.0719188759949
 20
154.24113343782321
 30
0.0
 40
1.0000319699999971
 50
270.4692999999848
 51
89.530700000015187
  0
LINE
  5
8DBF
  8
AM_0
 10
201.7300588759949
 20
153.1411564378231
 30
0.0
 11
208.08010887599491
 21
153.1411564378231
 31
0.0
  0
LINE
  5
8DC0
  8
AM_0
 10
201.7300588759949
 20
149.31985602439241
 30
0.0
 11
204.5000888759964
 21
149.2411324378231
 31
0.0
  0
ARC
  5
8DC1
  8
AM_0
 10
214.38031887599621
 20
167.09352343782311
 30
0.0
 40
1.50239199
 50
195.14000999999971
 51
269.99063999998032
  0
ARC
  5
8DC2
  8
AM_0
 10
215.7244388759963
 20
170.28675343782311
 30
0.0
 40
0.99440004
 50
89.67649099999349
 51
180.32351000000079
  0
ARC
  5
8DC3
  8
AM_0
 10
214.43593887599619
 20
171.78159343782309
 30
0.0
 40
1.500476039999995
 50
192.33222999999589
 51
270.15827999999971
  0
LINE
  5
8DC4
  8
AM_0
 10
214.44007887599619
 20
170.28114343782309
 30
0.0
 11
212.03011887599629
 21
170.28114343782309
 31
0.0
  0
ARC
  5
8DC5
  8
AM_0
 10
209.5845488759964
 20
177.74094343782309
 30
0.0
 40
2.0001800699999981
 50
12.126352000003131
 51
90.127514999991448
  0
LINE
  5
8DC6
  8
AM_0
 10
209.44006887599599
 20
179.74113343782321
 30
0.0
 11
214.73005887599399
 21
179.74113343782321
 31
0.0
  0
ARC
  5
8DC7
  8
AM_0
 10
207.54055887599631
 20
179.1033334378231
 30
0.0
 40
1.997795999999999
 50
15.02159699999565
 51
90.013580999977563
  0
ARC
  5
8DC8
  8
AM_0
 10
215.72518887599699
 20
181.7460634378231
 30
0.0
 40
0.9950640599999999
 50
89.71493799999395
 51
180.28506000000129
  0
LINE
  5
8DCF
  8
AM_0
 10
197.23005887599669
 20
141.7411294378231
 30
0.0
 11
197.2300588759949
 21
96.741129437823204
 31
0.0
  0
LINE
  5
8DD0
  8
AM_0
 10
195.1300588759963
 20
142.2913819695172
 30
0.0
 11
195.1300588759963
 21
96.190876906128963
 31
0.0
  0
LINE
  5
8DD1
  8
AM_0
 10
112.23005887599621
 20
101.2411294378231
 30
0.0
 11
112.23005887599621
 21
91.241119437823073
 31
0.0
  0
LINE
  5
8DD2
  8
AM_0
 10
112.7300588759949
 20
86.741123437823205
 30
0.0
 11
112.7300588759949
 21
151.74111943782299
 31
0.0
  0
LINE
  5
8DD3
  8
AM_0
 10
184.2803034076901
 20
85.341121437823176
 30
0.0
 11
117.1500388759964
 21
85.341121437823176
 31
0.0
  0
LINE
  5
8DD4
  8
AM_0
 10
117.1500388759964
 20
85.341121437823176
 30
0.0
 11
117.1500388759964
 21
83.241130437823159
 31
0.0
  0
ARC
  5
8DD5
  8
AM_0
 10
116.22267887599619
 20
86.733776437823181
 30
0.0
 40
3.492651899999998
 50
179.8793300000022
 51
270.12067999999482
  0
ARC
  5
8DD6
  8
AM_0
 10
112.722738875997
 20
91.233779437823316
 30
0.0
 40
0.4927000100000001
 50
179.14455999999711
 51
270.8554399999897
  0
ARC
  5
8DD7
  8
AM_0
 10
199.23005887599621
 20
96.741129437823204
 30
0.0
 40
2.0
 50
180.0
 51
270.0
  0
LINE
  5
8DD8
  8
AM_0
 10
194.72000836965699
 20
95.200927412467266
 30
0.0
 11
185.2702529013508
 21
85.751171944161399
 31
0.0
  0
LINE
  5
8DD9
  8
AM_0
 10
185.2702609013522
 20
85.75117994416226
 30
0.0
 11
194.72000836965699
 21
95.200927412467266
 31
0.0
  0
ARC
  5
8DDA
  8
AM_0
 10
184.2803034076901
 20
86.741121437823068
 30
0.0
 40
1.399999999999999
 50
270.0
 51
315.00000000000921
1001
GENIUS_GENODEF_13
1002
{
1000
HIER
1070
     0
1002
}
1002
{
1000
MANEDIT
1070
     0
1002
}
1002
{
1000
NOSEL
1070
     0
1002
}
1002
{
1000
BEHIND
1070
     0
1002
}
1002
{
1000
OTHER
1070
     0
1002
}
1002
{
1000
REACTOR
1002
}
1001
GENIUS_GENOBJ-N-FIL_13
1002
{
1000
OWNER
1000
GEN
1002
}
  0
ARC
  5
8DDB
  8
AM_0
 10
193.7300588759949
 20
96.190876906128963
 30
0.0
 40
1.4000000000006301
 50
314.99999999997232
 51
0.0
  0
ARC
  5
8DDC
  8
AM_0
 10
199.73005887599609
 20
85.241129437823176
 30
0.0
 40
2.0
 50
270.0
 51
0.0
  0
ARC
  5
8DDD
  8
AM_0
 10
199.73005887599609
 20
92.741129437823162
 30
0.0
 40
2.0
 50
0.0
 51
90.0
  0
LINE
  5
8DDE
  8
AM_0
 10
199.73005887599609
 20
94.741129437823204
 30
0.0
 11
199.23005887599621
 21
94.741129437823204
 31
0.0
  0
LINE
  5
8DDF
  8
AM_0
 10
201.7300588759949
 20
85.241129437823176
 30
0.0
 11
201.7300588759949
 21
92.741129437823162
 31
0.0
  0
LINE
  5
8DE0
  8
AM_0
 10
117.1500388759964
 20
153.1411094378233
 30
0.0
 11
184.28779469587101
 21
153.1411094378233
 31
0.0
  0
ARC
  5
8DE1
  8
AM_0
 10
112.7306088759965
 20
101.240579437823
 30
0.0
 40
0.5005480100000002
 50
90.062622000000005
 51
179.93736999999041
  0
ARC
  5
8DE2
  8
AM_0
 10
112.7306088759965
 20
147.24057943782299
 30
0.0
 40
0.5005480100000002
 50
90.062622000000005
 51
179.93736999999041
  0
ARC
  5
8DE3
  8
AM_0
 10
112.722548875995
 20
137.23361943782311
 30
0.0
 40
0.49254802
 50
179.12656000000169
 51
270.8734499999884
  0
LINE
  5
8DE4
  8
AM_0
 10
112.23005887599621
 20
147.24111943782219
 30
0.0
 11
112.23005887599621
 21
137.24112943782299
 31
0.0
  0
LINE
  5
8DE5
  8
AM_0
 10
117.1500388759964
 20
153.1411094378233
 30
0.0
 11
117.1500388759964
 21
155.2361094378233
 31
0.0
  0
ARC
  5
8DE6
  8
AM_0
 10
116.2305488759952
 20
151.74062943782329
 30
0.0
 40
3.5005001999999981
 50
90.008164999989489
 51
179.99183999999781
  0
LINE
  5
8DE7
  8
AM_0
 10
199.23005887599621
 20
124.7411294378231
 30
0.0
 11
197.2300588759949
 21
124.7411294378231
 31
0.0
  0
LINE
  5
8DE8
  8
AM_0
 10
197.2300588759949
 20
113.7411294378231
 30
0.0
 11
199.23005887599621
 21
113.7411294378231
 31
0.0
  0
LINE
  5
8DE9
  8
AM_0
 10
199.23005887599621
 20
113.7411294378231
 30
0.0
 11
199.23005887599621
 21
124.7411294378231
 31
0.0
  0
ARC
  5
8DEA
  8
AM_0
 10
199.23005887599621
 20
141.7411294378231
 30
0.0
 40
2.0
 50
90.0
 51
180.0
  0
CIRCLE
  5
8DEB
  8
AM_0
 10
196.23005887599621
 20
150.2411294378231
 30
0.0
 40
3.4999999999999631
  0
LINE
  5
8DEC
  8
AM_0
 10
185.2702609013522
 20
152.73107893148429
 30
0.0
 11
194.72000836965699
 21
143.28133146317921
 31
0.0
  0
LINE
  5
8DED
  8
AM_0
 10
193.1300588759963
 20
144.87128095683931
 30
0.0
 11
194.72000836965699
 21
143.28133146317921
 31
0.0
  0
ARC
  5
8DEE
  8
AM_0
 10
193.7300588759949
 20
142.2913819695172
 30
0.0
 40
1.400000000000118
 50
0.0
 51
45.000000000027619
  0
ARC
  5
8DEF
  8
AM_0
 10
184.28031140768871
 20
151.7411294378231
 30
0.0
 40
1.40000000000077
 50
44.999999999981569
 51
89.999999999947889
  0
LINE
  5
8DF0
  8
AM_0
 10
201.7300588759949
 20
145.74112943782319
 30
0.0
 11
201.7300588759949
 21
153.2411294378231
 31
0.0
  0
LINE
  5
8DF1
  8
AM_0
 10
201.7300588759949
 20
145.74112943782319
 30
0.0
 11
201.7300588759949
 21
153.2411294378231
 31
0.0
  0
ARC
  5
8DF2
  8
AM_0
 10
199.73005887599609
 20
145.74112943782319
 30
0.0
 40
2.0
 50
270.0
 51
0.0
  0
LINE
  5
8DF3
  8
AM_0
 10
199.23005887599621
 20
143.74112943782319
 30
0.0
 11
199.73005887599609
 21
143.74112943782319
 31
0.0
  0
ARC
  5
8DF4
  8
AM_0
 10
199.73005887599609
 20
153.2411294378231
 30
0.0
 40
2.0
 50
0.0
 51
90.0
  0
LINE
  5
8DF5
  8
AM_0
 10
193.5914871947879
 20
150.2411294378243
 30
0.0
 11
198.86863055720229
 21
150.2411294378231
 31
0.0
  0
LINE
  5
8DF6
  8
AM_0
 10
196.23005887599621
 20
152.87970111902931
 30
0.0
 11
196.23005887599621
 21
147.60255775661611
 31
0.0
  0
CIRCLE
  5
8DF7
  8
AM_0
 10
196.23005887599621
 20
88.241129437823176
 30
0.0
 40
3.4999999999999631
  0
LINE
  5
8DF8
  8
AM_0
 10
193.5914871947879
 20
88.241129437824384
 30
0.0
 11
198.86863055720229
 21
88.241129437824384
 31
0.0
  0
LINE
  5
8DF9
  8
AM_0
 10
196.23005887599621
 20
90.879701119030472
 30
0.0
 11
196.23005887599621
 21
85.602557756616065
 31
0.0
  0
LINE
  5
8DFB
  8
AM_0
 10
20.230068875996949
 20
95.266957791899344
 30
0.0
 11
20.230068875996949
 21
176.24112343782309
 31
0.0
  0
LINE
  5
8E34
  8
AM_0
 10
526.04816267311071
 20
155.2411294378214
 30
0.0
 11
508.4979123534107
 21
155.2411294378222
 31
0.0
  0
LINE
  5
8E35
  8
AM_0
 10
508.4979123534107
 20
83.241129437821201
 30
0.0
 11
513.0537205985737
 21
83.241129437821201
 31
0.0
  0
LINE
  5
8E36
  8
AM_0
 10
520.9979123534107
 20
144.32112943782309
 30
0.0
 11
519.53291235341055
 21
153.14112943782331
 31
0.0
  0
ARC
  5
8E37
  8
AM_0
 10
510.49791235340928
 20
150.64112943782311
 30
0.0
 40
2.5
 50
90.0
 51
180.0
  0
ARC
  5
8E38
  8
AM_0
 10
508.4979123534107
 20
154.74112943782299
 30
0.0
 40
0.5
 50
90.0
 51
180.0
  0
LINE
  5
8E39
  8
AM_0
 10
519.53291235341055
 20
153.14112943782331
 30
0.0
 11
510.49791235340928
 21
153.14112943782331
 31
0.0
  0
POLYLINE
  5
8E3A
  8
AM_0
 66
     1
 10
0.0
 20
0.0
 30
0.0
 70
     8
  0
VERTEX
  5
8E3B
  8
AM_0
 10
510.49786528833653
 20
142.8715442408664
 30
0.0
 70
    32
  0
VERTEX
  5
8E3C
  8
AM_0
 10
510.4938652883356
 20
142.8715442408664
 30
0.0
 70
    32
  0
VERTEX
  5
8E3D
  8
AM_0
 10
510.48986528833598
 20
142.8715442408664
 30
0.0
 70
    32
  0
VERTEX
  5
8E3E
  8
AM_0
 10
510.48486528833638
 20
142.8715442408664
 30
0.0
 70
    32
  0
VERTEX
  5
8E3F
  8
AM_0
 10
510.48086528833602
 20
142.8715442408664
 30
0.0
 70
    32
  0
VERTEX
  5
8E40
  8
AM_0
 10
510.47686528833572
 20
142.8715442408664
 30
0.0
 70
    32
  0
VERTEX
  5
8E41
  8
AM_0
 10
510.47186528833572
 20
142.8715442408664
 30
0.0
 70
    32
  0
VERTEX
  5
8E42
  8
AM_0
 10
510.46786528833559
 20
142.87054424086639
 30
0.0
 70
    32
  0
VERTEX
  5
8E43
  8
AM_0
 10
510.46386528833591
 20
142.87054424086639
 30
0.0
 70
    32
  0
VERTEX
  5
8E44
  8
AM_0
 10
510.4598652883364
 20
142.87054424086639
 30
0.0
 70
    32
  0
VERTEX
  5
8E45
  8
AM_0
 10
510.4548652883359
 20
142.87054424086639
 30
0.0
 70
    32
  0
VERTEX
  5
8E46
  8
AM_0
 10
510.45086528833542
 20
142.87054424086639
 30
0.0
 70
    32
  0
VERTEX
  5
8E47
  8
AM_0
 10
510.44686528833643
 20
142.87054424086639
 30
0.0
 70
    32
  0
VERTEX
  5
8E48
  8
AM_0
 10
510.44286528833572
 20
142.87054424086639
 30
0.0
 70
    32
  0
VERTEX
  5
8E49
  8
AM_0
 10
510.43786528833641
 20
142.87054424086639
 30
0.0
 70
    32
  0
VERTEX
  5
8E4A
  8
AM_0
 10
510.43386528833571
 20
142.87054424086639
 30
0.0
 70
    32
  0
VERTEX
  5
8E4B
  8
AM_0
 10
510.4298652883358
 20
142.87054424086639
 30
0.0
 70
    32
  0
VERTEX
  5
8E4C
  8
AM_0
 10
510.4248652883357
 20
142.87054424086639
 30
0.0
 70
    32
  0
VERTEX
  5
8E4D
  8
AM_0
 10
510.42086528833568
 20
142.87054424086639
 30
0.0
 70
    32
  0
VERTEX
  5
8E4E
  8
AM_0
 10
510.41686528833583
 20
142.87054424086639
 30
0.0
 70
    32
  0
VERTEX
  5
8E4F
  8
AM_0
 10
510.41286528833598
 20
142.87054424086639
 30
0.0
 70
    32
  0
VERTEX
  5
8E50
  8
AM_0
 10
510.40786528833581
 20
142.87054424086639
 30
0.0
 70
    32
  0
VERTEX
  5
8E51
  8
AM_0
 10
510.40386528833591
 20
142.87054424086639
 30
0.0
 70
    32
  0
VERTEX
  5
8E52
  8
AM_0
 10
510.3998652883364
 20
142.87054424086639
 30
0.0
 70
    32
  0
VERTEX
  5
8E53
  8
AM_0
 10
510.39586528833559
 20
142.87054424086639
 30
0.0
 70
    32
  0
VERTEX
  5
8E54
  8
AM_0
 10
510.39086528833627
 20
142.8695442408665
 30
0.0
 70
    32
  0
VERTEX
  5
8E55
  8
AM_0
 10
510.38686528833648
 20
142.8695442408665
 30
0.0
 70
    32
  0
VERTEX
  5
8E56
  8
AM_0
 10
510.38286528833572
 20
142.8695442408665
 30
0.0
 70
    32
  0
VERTEX
  5
8E57
  8
AM_0
 10
510.37886528833582
 20
142.8695442408665
 30
0.0
 70
    32
  0
VERTEX
  5
8E58
  8
AM_0
 10
510.37386528833571
 20
142.8695442408665
 30
0.0
 70
    32
  0
VERTEX
  5
8E59
  8
AM_0
 10
510.3698652883358
 20
142.8695442408665
 30
0.0
 70
    32
  0
VERTEX
  5
8E5A
  8
AM_0
 10
510.36586528833601
 20
142.8695442408665
 30
0.0
 70
    32
  0
VERTEX
  5
8E5B
  8
AM_0
 10
510.36086528833567
 20
142.8695442408665
 30
0.0
 70
    32
  0
VERTEX
  5
8E5C
  8
AM_0
 10
510.35686528833588
 20
142.8695442408665
 30
0.0
 70
    32
  0
VERTEX
  5
8E5D
  8
AM_0
 10
510.35286528833637
 20
142.8695442408665
 30
0.0
 70
    32
  0
VERTEX
  5
8E5E
  8
AM_0
 10
510.34886528833641
 20
142.86854424086641
 30
0.0
 70
    32
  0
VERTEX
  5
8E5F
  8
AM_0
 10
510.34386528833551
 20
142.86854424086641
 30
0.0
 70
    32
  0
VERTEX
  5
8E60
  8
AM_0
 10
510.33986528833651
 20
142.86854424086641
 30
0.0
 70
    32
  0
VERTEX
  5
8E61
  8
AM_0
 10
510.3358652883357
 20
142.86854424086641
 30
0.0
 70
    32
  0
VERTEX
  5
8E62
  8
AM_0
 10
510.33186528833568
 20
142.86854424086641
 30
0.0
 70
    32
  0
VERTEX
  5
8E63
  8
AM_0
 10
510.32686528833568
 20
142.86854424086641
 30
0.0
 70
    32
  0
VERTEX
  5
8E64
  8
AM_0
 10
510.32286528833572
 20
142.86854424086641
 30
0.0
 70
    32
  0
VERTEX
  5
8E65
  8
AM_0
 10
510.31886528833593
 20
142.86754424086641
 30
0.0
 70
    32
  0
VERTEX
  5
8E66
  8
AM_0
 10
510.31486528833648
 20
142.86754424086641
 30
0.0
 70
    32
  0
VERTEX
  5
8E67
  8
AM_0
 10
510.30986528833591
 20
142.86754424086641
 30
0.0
 70
    32
  0
VERTEX
  5
8E68
  8
AM_0
 10
510.3058652883355
 20
142.86754424086641
 30
0.0
 70
    32
  0
VERTEX
  5
8E69
  8
AM_0
 10
510.30186528833639
 20
142.86754424086641
 30
0.0
 70
    32
  0
VERTEX
  5
8E6A
  8
AM_0
 10
510.29686528833543
 20
142.86754424086641
 30
0.0
 70
    32
  0
VERTEX
  5
8E6B
  8
AM_0
 10
510.29286528833637
 20
142.86754424086641
 30
0.0
 70
    32
  0
VERTEX
  5
8E6C
  8
AM_0
 10
510.28886528833573
 20
142.8665442408651
 30
0.0
 70
    32
  0
VERTEX
  5
8E6D
  8
AM_0
 10
510.28486528833582
 20
142.8665442408651
 30
0.0
 70
    32
  0
VERTEX
  5
8E6E
  8
AM_0
 10
510.27986528833571
 20
142.8665442408651
 30
0.0
 70
    32
  0
VERTEX
  5
8E6F
  8
AM_0
 10
510.27586528833581
 20
142.8665442408651
 30
0.0
 70
    32
  0
VERTEX
  5
8E70
  8
AM_0
 10
510.2718652883363
 20
142.8665442408651
 30
0.0
 70
    32
  0
VERTEX
  5
8E71
  8
AM_0
 10
510.26786528833537
 20
142.86554424086609
 30
0.0
 70
    32
  0
VERTEX
  5
8E72
  8
AM_0
 10
510.26286528833617
 20
142.86554424086609
 30
0.0
 70
    32
  0
VERTEX
  5
8E73
  8
AM_0
 10
510.25886528833593
 20
142.86554424086609
 30
0.0
 70
    32
  0
VERTEX
  5
8E74
  8
AM_0
 10
510.25486528833642
 20
142.86554424086609
 30
0.0
 70
    32
  0
VERTEX
  5
8E75
  8
AM_0
 10
510.25086528833572
 20
142.86554424086609
 30
0.0
 70
    32
  0
VERTEX
  5
8E76
  8
AM_0
 10
510.2458652883364
 20
142.86554424086609
 30
0.0
 70
    32
  0
VERTEX
  5
8E77
  8
AM_0
 10
510.2418652883357
 20
142.86454424086619
 30
0.0
 70
    32
  0
VERTEX
  5
8E78
  8
AM_0
 10
510.23786528833568
 20
142.86454424086619
 30
0.0
 70
    32
  0
VERTEX
  5
8E79
  8
AM_0
 10
510.23386528833618
 20
142.86454424086619
 30
0.0
 70
    32
  0
VERTEX
  5
8E7A
  8
AM_0
 10
510.22886528833573
 20
142.86454424086619
 30
0.0
 70
    32
  0
VERTEX
  5
8E7B
  8
AM_0
 10
510.22486528833622
 20
142.86354424086639
 30
0.0
 70
    32
  0
VERTEX
  5
8E7C
  8
AM_0
 10
510.22086528833592
 20
142.86354424086639
 30
0.0
 70
    32
  0
VERTEX
  5
8E7D
  8
AM_0
 10
510.21586528833598
 20
142.86354424086639
 30
0.0
 70
    32
  0
VERTEX
  5
8E7E
  8
AM_0
 10
510.21186528833641
 20
142.86354424086639
 30
0.0
 70
    32
  0
VERTEX
  5
8E7F
  8
AM_0
 10
510.20786528833628
 20
142.86354424086639
 30
0.0
 70
    32
  0
VERTEX
  5
8E80
  8
AM_0
 10
510.20386528833569
 20
142.86254424086641
 30
0.0
 70
    32
  0
VERTEX
  5
8E81
  8
AM_0
 10
510.19886528833638
 20
142.86254424086641
 30
0.0
 70
    32
  0
VERTEX
  5
8E82
  8
AM_0
 10
510.19486528833659
 20
142.86254424086641
 30
0.0
 70
    32
  0
VERTEX
  5
8E83
  8
AM_0
 10
510.19086528833571
 20
142.86254424086641
 30
0.0
 70
    32
  0
VERTEX
  5
8E84
  8
AM_0
 10
510.18686528833621
 20
142.86154424086641
 30
0.0
 70
    32
  0
VERTEX
  5
8E85
  8
AM_0
 10
510.18186528833559
 20
142.86154424086641
 30
0.0
 70
    32
  0
VERTEX
  5
8E86
  8
AM_0
 10
510.17786528833568
 20
142.86154424086641
 30
0.0
 70
    32
  0
VERTEX
  5
8E87
  8
AM_0
 10
510.1738652883364
 20
142.8605442408664
 30
0.0
 70
    32
  0
VERTEX
  5
8E88
  8
AM_0
 10
510.16986528833638
 20
142.8605442408664
 30
0.0
 70
    32
  0
VERTEX
  5
8E89
  8
AM_0
 10
510.16486528833639
 20
142.8605442408664
 30
0.0
 70
    32
  0
VERTEX
  5
8E8A
  8
AM_0
 10
510.16086528833631
 20
142.8605442408664
 30
0.0
 70
    32
  0
VERTEX
  5
8E8B
  8
AM_0
 10
510.15686528833641
 20
142.85954424086631
 30
0.0
 70
    32
  0
VERTEX
  5
8E8C
  8
AM_0
 10
510.15286528833582
 20
142.85954424086631
 30
0.0
 70
    32
  0
VERTEX
  5
8E8D
  8
AM_0
 10
510.1478652883365
 20
142.85954424086631
 30
0.0
 70
    32
  0
VERTEX
  5
8E8E
  8
AM_0
 10
510.14386528833569
 20
142.85954424086631
 30
0.0
 70
    32
  0
VERTEX
  5
8E8F
  8
AM_0
 10
510.13986528833573
 20
142.85854424086639
 30
0.0
 70
    32
  0
VERTEX
  5
8E90
  8
AM_0
 10
510.13586528833622
 20
142.85854424086639
 30
0.0
 70
    32
  0
VERTEX
  5
8E91
  8
AM_0
 10
510.13086528833583
 20
142.85854424086639
 30
0.0
 70
    32
  0
VERTEX
  5
8E92
  8
AM_0
 10
510.12686528833632
 20
142.85754424086639
 30
0.0
 70
    32
  0
VERTEX
  5
8E93
  8
AM_0
 10
510.12286528833653
 20
142.85754424086639
 30
0.0
 70
    32
  0
VERTEX
  5
8E94
  8
AM_0
 10
510.1178652883363
 20
142.85754424086639
 30
0.0
 70
    32
  0
VERTEX
  5
8E95
  8
AM_0
 10
510.11386528833629
 20
142.8565442408663
 30
0.0
 70
    32
  0
VERTEX
  5
8E96
  8
AM_0
 10
510.10986528833638
 20
142.8565442408663
 30
0.0
 70
    32
  0
VERTEX
  5
8E97
  8
AM_0
 10
510.10586528833568
 20
142.8565442408663
 30
0.0
 70
    32
  0
VERTEX
  5
8E98
  8
AM_0
 10
510.10086528833642
 20
142.85554424086641
 30
0.0
 70
    32
  0
VERTEX
  5
8E99
  8
AM_0
 10
510.09686528833572
 20
142.85554424086641
 30
0.0
 70
    32
  0
VERTEX
  5
8E9A
  8
AM_0
 10
510.09286528833582
 20
142.85554424086641
 30
0.0
 70
    32
  0
VERTEX
  5
8E9B
  8
AM_0
 10
510.08886528833619
 20
142.8545442408664
 30
0.0
 70
    32
  0
VERTEX
  5
8E9C
  8
AM_0
 10
510.0838652883358
 20
142.8545442408664
 30
0.0
 70
    32
  0
VERTEX
  5
8E9D
  8
AM_0
 10
510.07986528833618
 20
142.8545442408664
 30
0.0
 70
    32
  0
VERTEX
  5
8E9E
  8
AM_0
 10
510.07586528833639
 20
142.8535442408664
 30
0.0
 70
    32
  0
VERTEX
  5
8E9F
  8
AM_0
 10
510.07186528833643
 20
142.8535442408664
 30
0.0
 70
    32
  0
VERTEX
  5
8EA0
  8
AM_0
 10
510.06686528833637
 20
142.8535442408664
 30
0.0
 70
    32
  0
VERTEX
  5
8EA1
  8
AM_0
 10
510.06286528833641
 20
142.85254424086631
 30
0.0
 70
    32
  0
VERTEX
  5
8EA2
  8
AM_0
 10
510.05886528833571
 20
142.85254424086631
 30
0.0
 70
    32
  0
VERTEX
  5
8EA3
  8
AM_0
 10
510.05486528833569
 20
142.8515442408663
 30
0.0
 70
    32
  0
VERTEX
  5
8EA4
  8
AM_0
 10
510.04986528833581
 20
142.8515442408663
 30
0.0
 70
    32
  0
VERTEX
  5
8EA5
  8
AM_0
 10
510.04586528833568
 20
142.8515442408663
 30
0.0
 70
    32
  0
VERTEX
  5
8EA6
  8
AM_0
 10
510.04186528833623
 20
142.85054424086641
 30
0.0
 70
    32
  0
VERTEX
  5
8EA7
  8
AM_0
 10
510.03786528833638
 20
142.85054424086641
 30
0.0
 70
    32
  0
VERTEX
  5
8EA8
  8
AM_0
 10
510.03286528833593
 20
142.84954424086641
 30
0.0
 70
    32
  0
VERTEX
  5
8EA9
  8
AM_0
 10
510.02886528833642
 20
142.84954424086641
 30
0.0
 70
    32
  0
VERTEX
  5
8EAA
  8
AM_0
 10
510.02486528833629
 20
142.84954424086641
 30
0.0
 70
    32
  0
VERTEX
  5
8EAB
  8
AM_0
 10
510.0208652883361
 20
142.8485442408664
 30
0.0
 70
    32
  0
VERTEX
  5
8EAC
  8
AM_0
 10
510.01586528833627
 20
142.8485442408664
 30
0.0
 70
    32
  0
VERTEX
  5
8EAD
  8
AM_0
 10
510.01186528833648
 20
142.8475442408664
 30
0.0
 70
    32
  0
VERTEX
  5
8EAE
  8
AM_0
 10
510.00786528833572
 20
142.8475442408664
 30
0.0
 70
    32
  0
VERTEX
  5
8EAF
  8
AM_0
 10
510.00386528833621
 20
142.84654424086639
 30
0.0
 70
    32
  0
VERTEX
  5
8EB0
  8
AM_0
 10
509.99886528833611
 20
142.84654424086639
 30
0.0
 70
    32
  0
VERTEX
  5
8EB1
  8
AM_0
 10
509.9948652883358
 20
142.84654424086639
 30
0.0
 70
    32
  0
VERTEX
  5
8EB2
  8
AM_0
 10
509.99086528833641
 20
142.84554424086619
 30
0.0
 70
    32
  0
VERTEX
  5
8EB3
  8
AM_0
 10
509.98686528833639
 20
142.84554424086619
 30
0.0
 70
    32
  0
VERTEX
  5
8EB4
  8
AM_0
 10
509.98186528833639
 20
142.8445442408663
 30
0.0
 70
    32
  0
VERTEX
  5
8EB5
  8
AM_0
 10
509.97786528833637
 20
142.8445442408663
 30
0.0
 70
    32
  0
VERTEX
  5
8EB6
  8
AM_0
 10
509.97386528833658
 20
142.84354424086641
 30
0.0
 70
    32
  0
VERTEX
  5
8EB7
  8
AM_0
 10
509.96986528833582
 20
142.84354424086641
 30
0.0
 70
    32
  0
VERTEX
  5
8EB8
  8
AM_0
 10
509.96586528833632
 20
142.8425442408664
 30
0.0
 70
    32
  0
VERTEX
  5
8EB9
  8
AM_0
 10
509.96086528833621
 20
142.8425442408664
 30
0.0
 70
    32
  0
VERTEX
  5
8EBA
  8
AM_0
 10
509.95686528833568
 20
142.8415442408664
 30
0.0
 70
    32
  0
VERTEX
  5
8EBB
  8
AM_0
 10
509.95286528833623
 20
142.8415442408664
 30
0.0
 70
    32
  0
VERTEX
  5
8EBC
  8
AM_0
 10
509.94886528833649
 20
142.84054424086631
 30
0.0
 70
    32
  0
VERTEX
  5
8EBD
  8
AM_0
 10
509.94386528833633
 20
142.84054424086631
 30
0.0
 70
    32
  0
VERTEX
  5
8EBE
  8
AM_0
 10
509.93986528833648
 20
142.83954424086511
 30
0.0
 70
    32
  0
VERTEX
  5
8EBF
  8
AM_0
 10
509.9358652883364
 20
142.83954424086511
 30
0.0
 70
    32
  0
VERTEX
  5
8EC0
  8
AM_0
 10
509.9318652883357
 20
142.83854424086641
 30
0.0
 70
    32
  0
VERTEX
  5
8EC1
  8
AM_0
 10
509.9268652883365
 20
142.83854424086641
 30
0.0
 70
    32
  0
VERTEX
  5
8EC2
  8
AM_0
 10
509.92286528833603
 20
142.83754424086621
 30
0.0
 70
    32
  0
VERTEX
  5
8EC3
  8
AM_0
 10
509.91886528833561
 20
142.83754424086621
 30
0.0
 70
    32
  0
VERTEX
  5
8EC4
  8
AM_0
 10
509.91486528833622
 20
142.8365442408662
 30
0.0
 70
    32
  0
VERTEX
  5
8EC5
  8
AM_0
 10
509.90986528833628
 20
142.8365442408662
 30
0.0
 70
    32
  0
VERTEX
  5
8EC6
  8
AM_0
 10
509.90586528833632
 20
142.83554424086611
 30
0.0
 70
    32
  0
VERTEX
  5
8EC7
  8
AM_0
 10
509.90186528833652
 20
142.83554424086611
 30
0.0
 70
    32
  0
VERTEX
  5
8EC8
  8
AM_0
 10
509.89786528833559
 20
142.83454424086639
 30
0.0
 70
    32
  0
VERTEX
  5
8EC9
  8
AM_0
 10
509.89286528833651
 20
142.83454424086639
 30
0.0
 70
    32
  0
VERTEX
  5
8ECA
  8
AM_0
 10
509.88886528833558
 20
142.8335442408663
 30
0.0
 70
    32
  0
VERTEX
  5
8ECB
  8
AM_0
 10
509.88486528833602
 20
142.8335442408663
 30
0.0
 70
    32
  0
VERTEX
  5
8ECC
  8
AM_0
 10
509.88086528833583
 20
142.83254424086641
 30
0.0
 70
    32
  0
VERTEX
  5
8ECD
  8
AM_0
 10
509.87686528833638
 20
142.83254424086641
 30
0.0
 70
    32
  0
VERTEX
  5
8ECE
  8
AM_0
 10
509.87186528833621
 20
142.83154424086641
 30
0.0
 70
    32
  0
VERTEX
  5
8ECF
  8
AM_0
 10
509.8678652883363
 20
142.8305442408666
 30
0.0
 70
    32
  0
VERTEX
  5
8ED0
  8
AM_0
 10
509.8638652883364
 20
142.8305442408666
 30
0.0
 70
    32
  0
VERTEX
  5
8ED1
  8
AM_0
 10
509.85986528833558
 20
142.8295442408666
 30
0.0
 70
    32
  0
VERTEX
  5
8ED2
  8
AM_0
 10
509.85486528833638
 20
142.8295442408666
 30
0.0
 70
    32
  0
VERTEX
  5
8ED3
  8
AM_0
 10
509.85086528833563
 20
142.82854424086639
 30
0.0
 70
    32
  0
VERTEX
  5
8ED4
  8
AM_0
 10
509.84686528833618
 20
142.82854424086639
 30
0.0
 70
    32
  0
VERTEX
  5
8ED5
  8
AM_0
 10
509.84286528833582
 20
142.82754424086619
 30
0.0
 70
    32
  0
VERTEX
  5
8ED6
  8
AM_0
 10
509.8378652883361
 20
142.82654424086641
 30
0.0
 70
    32
  0
VERTEX
  5
8ED7
  8
AM_0
 10
509.8338652883362
 20
142.82654424086641
 30
0.0
 70
    32
  0
VERTEX
  5
8ED8
  8
AM_0
 10
509.82986528833641
 20
142.82554424086641
 30
0.0
 70
    32
  0
VERTEX
  5
8ED9
  8
AM_0
 10
509.82586528833463
 20
142.82554424086641
 30
0.0
 70
    32
  0
VERTEX
  5
8EDA
  8
AM_0
 10
509.82186528833557
 20
142.8245442408664
 30
0.0
 70
    32
  0
VERTEX
  5
8EDB
  8
AM_0
 10
509.81686528833598
 20
142.82354424086651
 30
0.0
 70
    32
  0
VERTEX
  5
8EDC
  8
AM_0
 10
509.81286528833567
 20
142.82354424086651
 30
0.0
 70
    32
  0
VERTEX
  5
8EDD
  8
AM_0
 10
509.80886528833599
 20
142.82254424086639
 30
0.0
 70
    32
  0
VERTEX
  5
8EDE
  8
AM_0
 10
509.80486528833609
 20
142.82254424086639
 30
0.0
 70
    32
  0
VERTEX
  5
8EDF
  8
AM_0
 10
509.79986528833598
 20
142.82154424086511
 30
0.0
 70
    32
  0
VERTEX
  5
8EE0
  8
AM_0
 10
509.79586528833607
 20
142.82054424086641
 30
0.0
 70
    32
  0
VERTEX
  5
8EE1
  8
AM_0
 10
509.79186528833628
 20
142.82054424086641
 30
0.0
 70
    32
  0
VERTEX
  5
8EE2
  8
AM_0
 10
509.78786528833592
 20
142.81954424086641
 30
0.0
 70
    32
  0
VERTEX
  5
8EE3
  8
AM_0
 10
509.78386528833562
 20
142.81854424086609
 30
0.0
 70
    32
  0
VERTEX
  5
8EE4
  8
AM_0
 10
509.77886528833591
 20
142.81854424086609
 30
0.0
 70
    32
  0
VERTEX
  5
8EE5
  8
AM_0
 10
509.7748652883356
 20
142.8175442408662
 30
0.0
 70
    32
  0
VERTEX
  5
8EE6
  8
AM_0
 10
509.7708652883361
 20
142.8175442408662
 30
0.0
 70
    32
  0
VERTEX
  5
8EE7
  8
AM_0
 10
509.76686528833631
 20
142.81654424086619
 30
0.0
 70
    32
  0
VERTEX
  5
8EE8
  8
AM_0
 10
509.76186528833642
 20
142.81554424086639
 30
0.0
 70
    32
  0
VERTEX
  5
8EE9
  8
AM_0
 10
509.75786528833612
 20
142.81554424086639
 30
0.0
 70
    32
  0
VERTEX
  5
8EEA
  8
AM_0
 10
509.75386528833587
 20
142.81454424086641
 30
0.0
 70
    32
  0
VERTEX
  5
8EEB
  8
AM_0
 10
509.74986528833591
 20
142.81354424086641
 30
0.0
 70
    32
  0
VERTEX
  5
8EEC
  8
AM_0
 10
509.74586528833538
 20
142.81354424086641
 30
0.0
 70
    32
  0
VERTEX
  5
8EED
  8
AM_0
 10
509.74086528833578
 20
142.81254424086509
 30
0.0
 70
    32
  0
VERTEX
  5
8EEE
  8
AM_0
 10
509.73686528833531
 20
142.81154424086631
 30
0.0
 70
    32
  0
VERTEX
  5
8EEF
  8
AM_0
 10
509.73286528833597
 20
142.81154424086631
 30
0.0
 70
    32
  0
VERTEX
  5
8EF0
  8
AM_0
 10
509.72886528833618
 20
142.81054424086639
 30
0.0
 70
    32
  0
VERTEX
  5
8EF1
  8
AM_0
 10
509.72386528833653
 20
142.80954424086639
 30
0.0
 70
    32
  0
VERTEX
  5
8EF2
  8
AM_0
 10
509.71986528833622
 20
142.80954424086639
 30
0.0
 70
    32
  0
VERTEX
  5
8EF3
  8
AM_0
 10
509.71586528833581
 20
142.80854424086641
 30
0.0
 70
    32
  0
VERTEX
  5
8EF4
  8
AM_0
 10
509.71186528833579
 20
142.80754424086641
 30
0.0
 70
    32
  0
VERTEX
  5
8EF5
  8
AM_0
 10
509.7078652883356
 20
142.8065442408664
 30
0.0
 70
    32
  0
VERTEX
  5
8EF6
  8
AM_0
 10
509.70286528833589
 20
142.8065442408664
 30
0.0
 70
    32
  0
VERTEX
  5
8EF7
  8
AM_0
 10
509.69886528833553
 20
142.80554424086631
 30
0.0
 70
    32
  0
VERTEX
  5
8EF8
  8
AM_0
 10
509.69486528833659
 20
142.80454424086631
 30
0.0
 70
    32
  0
VERTEX
  5
8EF9
  8
AM_0
 10
509.69086528833571
 20
142.80454424086631
 30
0.0
 70
    32
  0
VERTEX
  5
8EFA
  8
AM_0
 10
509.6868652883357
 20
142.8035442408663
 30
0.0
 70
    32
  0
VERTEX
  5
8EFB
  8
AM_0
 10
509.6818652883357
 20
142.80254424086641
 30
0.0
 70
    32
  0
VERTEX
  5
8EFC
  8
AM_0
 10
509.67786528833568
 20
142.80154424086641
 30
0.0
 70
    32
  0
VERTEX
  5
8EFD
  8
AM_0
 10
509.67386528833589
 20
142.80154424086641
 30
0.0
 70
    32
  0
VERTEX
  5
8EFE
  8
AM_0
 10
509.66986528833559
 20
142.8005442408664
 30
0.0
 70
    32
  0
VERTEX
  5
8EFF
  8
AM_0
 10
509.66586528833642
 20
142.7995442408664
 30
0.0
 70
    32
  0
VERTEX
  5
8F00
  8
AM_0
 10
509.66086528833557
 20
142.79854424086631
 30
0.0
 70
    32
  0
VERTEX
  5
8F01
  8
AM_0
 10
509.65686528833641
 20
142.79854424086631
 30
0.0
 70
    32
  0
VERTEX
  5
8F02
  8
AM_0
 10
509.6528652883357
 20
142.79754424086619
 30
0.0
 70
    32
  0
VERTEX
  5
8F03
  8
AM_0
 10
509.64886528833568
 20
142.79654424086621
 30
0.0
 70
    32
  0
VERTEX
  5
8F04
  8
AM_0
 10
509.64486528833589
 20
142.79554424086641
 30
0.0
 70
    32
  0
VERTEX
  5
8F05
  8
AM_0
 10
509.63986528833573
 20
142.79554424086641
 30
0.0
 70
    32
  0
VERTEX
  5
8F06
  8
AM_0
 10
509.63586528833588
 20
142.7945442408664
 30
0.0
 70
    32
  0
VERTEX
  5
8F07
  8
AM_0
 10
509.63186528833552
 20
142.7935442408664
 30
0.0
 70
    32
  0
VERTEX
  5
8F08
  8
AM_0
 10
509.62786528833652
 20
142.79254424086639
 30
0.0
 70
    32
  0
VERTEX
  5
8F09
  8
AM_0
 10
509.62386528833559
 20
142.79254424086639
 30
0.0
 70
    32
  0
VERTEX
  5
8F0A
  8
AM_0
 10
509.61886528833639
 20
142.79154424086639
 30
0.0
 70
    32
  0
VERTEX
  5
8F0B
  8
AM_0
 10
509.61486528833569
 20
142.7905442408651
 30
0.0
 70
    32
  0
VERTEX
  5
8F0C
  8
AM_0
 10
509.61086528833567
 20
142.78954424086621
 30
0.0
 70
    32
  0
VERTEX
  5
8F0D
  8
AM_0
 10
509.60686528833588
 20
142.78854424086609
 30
0.0
 70
    32
  0
VERTEX
  5
8F0E
  8
AM_0
 10
509.60286528833637
 20
142.78854424086609
 30
0.0
 70
    32
  0
VERTEX
  5
8F0F
  8
AM_0
 10
509.59786528833592
 20
142.7875442408662
 30
0.0
 70
    32
  0
VERTEX
  5
8F10
  8
AM_0
 10
509.59386528833539
 20
142.78654424086639
 30
0.0
 70
    32
  0
VERTEX
  5
8F11
  8
AM_0
 10
509.58986528833663
 20
142.78554424086639
 30
0.0
 70
    32
  0
VERTEX
  5
8F12
  8
AM_0
 10
509.58586528833558
 20
142.78454424086641
 30
0.0
 70
    32
  0
VERTEX
  5
8F13
  8
AM_0
 10
509.58186528833568
 20
142.78454424086641
 30
0.0
 70
    32
  0
VERTEX
  5
8F14
  8
AM_0
 10
509.57686528833568
 20
142.78354424086641
 30
0.0
 70
    32
  0
VERTEX
  5
8F15
  8
AM_0
 10
509.57286528833572
 20
142.7825442408666
 30
0.0
 70
    32
  0
VERTEX
  5
8F16
  8
AM_0
 10
509.56886528833593
 20
142.78154424086651
 30
0.0
 70
    32
  0
VERTEX
  5
8F17
  8
AM_0
 10
509.56486528833631
 20
142.78054424086639
 30
0.0
 70
    32
  0
VERTEX
  5
8F18
  8
AM_0
 10
509.5608652883364
 20
142.77954424086619
 30
0.0
 70
    32
  0
VERTEX
  5
8F19
  8
AM_0
 10
509.5568652883357
 20
142.77954424086619
 30
0.0
 70
    32
  0
VERTEX
  5
8F1A
  8
AM_0
 10
509.5518652883365
 20
142.77854424086641
 30
0.0
 70
    32
  0
VERTEX
  5
8F1B
  8
AM_0
 10
509.54786528833569
 20
142.77754424086609
 30
0.0
 70
    32
  0
VERTEX
  5
8F1C
  8
AM_0
 10
509.54386528833572
 20
142.77654424086651
 30
0.0
 70
    32
  0
VERTEX
  5
8F1D
  8
AM_0
 10
509.53986528833587
 20
142.7755442408664
 30
0.0
 70
    32
  0
VERTEX
  5
8F1E
  8
AM_0
 10
509.53586528833648
 20
142.77454424086639
 30
0.0
 70
    32
  0
VERTEX
  5
8F1F
  8
AM_0
 10
509.53086528833592
 20
142.77354424086641
 30
0.0
 70
    32
  0
VERTEX
  5
8F20
  8
AM_0
 10
509.52686528833652
 20
142.77354424086641
 30
0.0
 70
    32
  0
VERTEX
  5
8F21
  8
AM_0
 10
509.52286528833639
 20
142.77254424086641
 30
0.0
 70
    32
  0
VERTEX
  5
8F22
  8
AM_0
 10
509.51886528833569
 20
142.7715442408664
 30
0.0
 70
    32
  0
VERTEX
  5
8F23
  8
AM_0
 10
509.51486528833573
 20
142.77054424086609
 30
0.0
 70
    32
  0
VERTEX
  5
8F24
  8
AM_0
 10
509.51086528833588
 20
142.7695442408662
 30
0.0
 70
    32
  0
VERTEX
  5
8F25
  8
AM_0
 10
509.50586528833583
 20
142.76854424086619
 30
0.0
 70
    32
  0
VERTEX
  5
8F26
  8
AM_0
 10
509.50186528833598
 20
142.76754424086641
 30
0.0
 70
    32
  0
VERTEX
  5
8F27
  8
AM_0
 10
509.49786528833641
 20
142.76654424086641
 30
0.0
 70
    32
  0
VERTEX
  5
8F28
  8
AM_0
 10
509.49386528833662
 20
142.7655442408664
 30
0.0
 70
    32
  0
VERTEX
  5
8F29
  8
AM_0
 10
509.48986528833569
 20
142.7655442408664
 30
0.0
 70
    32
  0
VERTEX
  5
8F2A
  8
AM_0
 10
509.48586528833567
 20
142.76454424086629
 30
0.0
 70
    32
  0
VERTEX
  5
8F2B
  8
AM_0
 10
509.48086528833568
 20
142.76354424086509
 30
0.0
 70
    32
  0
VERTEX
  5
8F2C
  8
AM_0
 10
509.47686528833572
 20
142.76254424086639
 30
0.0
 70
    32
  0
VERTEX
  5
8F2D
  8
AM_0
 10
509.47286528833592
 20
142.76154424086641
 30
0.0
 70
    32
  0
VERTEX
  5
8F2E
  8
AM_0
 10
509.4688652883363
 20
142.76054424086641
 30
0.0
 70
    32
  0
VERTEX
  5
8F2F
  8
AM_0
 10
509.46486528833651
 20
142.7595442408664
 30
0.0
 70
    32
  0
VERTEX
  5
8F30
  8
AM_0
 10
509.46086528833581
 20
142.7585442408664
 30
0.0
 70
    32
  0
VERTEX
  5
8F31
  8
AM_0
 10
509.4558652883365
 20
142.7575442408662
 30
0.0
 70
    32
  0
VERTEX
  5
8F32
  8
AM_0
 10
509.45186528833568
 20
142.7565442408663
 30
0.0
 70
    32
  0
VERTEX
  5
8F33
  8
AM_0
 10
509.44786528833572
 20
142.75554424086641
 30
0.0
 70
    32
  0
VERTEX
  5
8F34
  8
AM_0
 10
509.44386528833633
 20
142.75454424086641
 30
0.0
 70
    32
  0
VERTEX
  5
8F35
  8
AM_0
 10
509.43986528833648
 20
142.7535442408664
 30
0.0
 70
    32
  0
VERTEX
  5
8F36
  8
AM_0
 10
509.4358652883364
 20
142.7525442408664
 30
0.0
 70
    32
  0
VERTEX
  5
8F37
  8
AM_0
 10
509.4308652883372
 20
142.75154424086639
 30
0.0
 70
    32
  0
VERTEX
  5
8F38
  8
AM_0
 10
509.42686528833639
 20
142.75054424086619
 30
0.0
 70
    32
  0
VERTEX
  5
8F39
  8
AM_0
 10
509.42286528833569
 20
142.74954424086619
 30
0.0
 70
    32
  0
VERTEX
  5
8F3A
  8
AM_0
 10
509.41886528833572
 20
142.74854424086621
 30
0.0
 70
    32
  0
VERTEX
  5
8F3B
  8
AM_0
 10
509.41486528833627
 20
142.7475442408664
 30
0.0
 70
    32
  0
VERTEX
  5
8F3C
  8
AM_0
 10
509.41086528833642
 20
142.7465442408664
 30
0.0
 70
    32
  0
VERTEX
  5
8F3D
  8
AM_0
 10
509.40686528833658
 20
142.7455442408652
 30
0.0
 70
    32
  0
VERTEX
  5
8F3E
  8
AM_0
 10
509.40186528833641
 20
142.74454424086639
 30
0.0
 70
    32
  0
VERTEX
  5
8F3F
  8
AM_0
 10
509.3978652883365
 20
142.74354424086641
 30
0.0
 70
    32
  0
VERTEX
  5
8F40
  8
AM_0
 10
509.39386528833569
 20
142.74254424086641
 30
0.0
 70
    32
  0
VERTEX
  5
8F41
  8
AM_0
 10
509.38986528833573
 20
142.7415442408662
 30
0.0
 70
    32
  0
VERTEX
  5
8F42
  8
AM_0
 10
509.38586528833639
 20
142.74054424086609
 30
0.0
 70
    32
  0
VERTEX
  5
8F43
  8
AM_0
 10
509.38186528833631
 20
142.73954424086619
 30
0.0
 70
    32
  0
VERTEX
  5
8F44
  8
AM_0
 10
509.37686528833638
 20
142.7385442408663
 30
0.0
 70
    32
  0
VERTEX
  5
8F45
  8
AM_0
 10
509.3728652883363
 20
142.73754424086641
 30
0.0
 70
    32
  0
VERTEX
  5
8F46
  8
AM_0
 10
509.36886528833651
 20
142.73654424086641
 30
0.0
 70
    32
  0
VERTEX
  5
8F47
  8
AM_0
 10
509.36486528833569
 20
142.7355442408664
 30
0.0
 70
    32
  0
VERTEX
  5
8F48
  8
AM_0
 10
509.3608652883363
 20
142.7345442408666
 30
0.0
 70
    32
  0
VERTEX
  5
8F49
  8
AM_0
 10
509.35686528833622
 20
142.73354424086639
 30
0.0
 70
    32
  0
VERTEX
  5
8F4A
  8
AM_0
 10
509.35286528833649
 20
142.73254424086639
 30
0.0
 70
    32
  0
VERTEX
  5
8F4B
  8
AM_0
 10
509.34886528833641
 20
142.73154424086641
 30
0.0
 70
    32
  0
VERTEX
  5
8F4C
  8
AM_0
 10
509.34386528833647
 20
142.73054424086641
 30
0.0
 70
    32
  0
VERTEX
  5
8F4D
  8
AM_0
 10
509.3398652883364
 20
142.72954424086629
 30
0.0
 70
    32
  0
VERTEX
  5
8F4E
  8
AM_0
 10
509.3358652883357
 20
142.7285442408664
 30
0.0
 70
    32
  0
VERTEX
  5
8F4F
  8
AM_0
 10
509.3318652883363
 20
142.72654424086639
 30
0.0
 70
    32
  0
VERTEX
  5
8F50
  8
AM_0
 10
509.32786528833589
 20
142.72554424086641
 30
0.0
 70
    32
  0
VERTEX
  5
8F51
  8
AM_0
 10
509.32386528833638
 20
142.72454424086641
 30
0.0
 70
    32
  0
VERTEX
  5
8F52
  8
AM_0
 10
509.31986528833659
 20
142.7235442408664
 30
0.0
 70
    32
  0
VERTEX
  5
8F53
  8
AM_0
 10
509.31586528833611
 20
142.7225442408664
 30
0.0
 70
    32
  0
VERTEX
  5
8F54
  8
AM_0
 10
509.31086528833657
 20
142.72154424086619
 30
0.0
 70
    32
  0
VERTEX
  5
8F55
  8
AM_0
 10
509.30686528833559
 20
142.72054424086619
 30
0.0
 70
    32
  0
VERTEX
  5
8F56
  8
AM_0
 10
509.30286528833608
 20
142.71954424086641
 30
0.0
 70
    32
  0
VERTEX
  5
8F57
  8
AM_0
 10
509.2988652883364
 20
142.71854424086641
 30
0.0
 70
    32
  0
VERTEX
  5
8F58
  8
AM_0
 10
509.29486528833638
 20
142.71654424086631
 30
0.0
 70
    32
  0
VERTEX
  5
8F59
  8
AM_0
 10
509.29086528833642
 20
142.71554424086631
 30
0.0
 70
    32
  0
VERTEX
  5
8F5A
  8
AM_0
 10
509.28686528833572
 20
142.71454424086639
 30
0.0
 70
    32
  0
VERTEX
  5
8F5B
  8
AM_0
 10
509.2828652883357
 20
142.71354424086641
 30
0.0
 70
    32
  0
VERTEX
  5
8F5C
  8
AM_0
 10
509.2778652883361
 20
142.71254424086641
 30
0.0
 70
    32
  0
VERTEX
  5
8F5D
  8
AM_0
 10
509.27386528833568
 20
142.7115442408664
 30
0.0
 70
    32
  0
VERTEX
  5
8F5E
  8
AM_0
 10
509.26986528833618
 20
142.71054424086631
 30
0.0
 70
    32
  0
VERTEX
  5
8F5F
  8
AM_0
 10
509.2658652883365
 20
142.7085442408663
 30
0.0
 70
    32
  0
VERTEX
  5
8F60
  8
AM_0
 10
509.26186528833648
 20
142.70754424086641
 30
0.0
 70
    32
  0
VERTEX
  5
8F61
  8
AM_0
 10
509.25786528833572
 20
142.70654424086641
 30
0.0
 70
    32
  0
VERTEX
  5
8F62
  8
AM_0
 10
509.25386528833633
 20
142.7055442408664
 30
0.0
 70
    32
  0
VERTEX
  5
8F63
  8
AM_0
 10
509.24986528833642
 20
142.7045442408664
 30
0.0
 70
    32
  0
VERTEX
  5
8F64
  8
AM_0
 10
509.24586528833629
 20
142.70354424086639
 30
0.0
 70
    32
  0
VERTEX
  5
8F65
  8
AM_0
 10
509.2418652883357
 20
142.70154424086621
 30
0.0
 70
    32
  0
VERTEX
  5
8F66
  8
AM_0
 10
509.23686528833628
 20
142.70054424086621
 30
0.0
 70
    32
  0
VERTEX
  5
8F67
  8
AM_0
 10
509.23286528833569
 20
142.6995442408664
 30
0.0
 70
    32
  0
VERTEX
  5
8F68
  8
AM_0
 10
509.22886528833573
 20
142.6985442408664
 30
0.0
 70
    32
  0
VERTEX
  5
8F69
  8
AM_0
 10
509.22486528833628
 20
142.69754424086639
 30
0.0
 70
    32
  0
VERTEX
  5
8F6A
  8
AM_0
 10
509.22086528833643
 20
142.69554424086641
 30
0.0
 70
    32
  0
VERTEX
  5
8F6B
  8
AM_0
 10
509.21686528833652
 20
142.69454424086641
 30
0.0
 70
    32
  0
VERTEX
  5
8F6C
  8
AM_0
 10
509.21286528833559
 20
142.69354424086609
 30
0.0
 70
    32
  0
VERTEX
  5
8F6D
  8
AM_0
 10
509.20886528833609
 20
142.6925442408662
 30
0.0
 70
    32
  0
VERTEX
  5
8F6E
  8
AM_0
 10
509.20486528833618
 20
142.6905442408663
 30
0.0
 70
    32
  0
VERTEX
  5
8F6F
  8
AM_0
 10
509.20086528833639
 20
142.68954424086641
 30
0.0
 70
    32
  0
VERTEX
  5
8F70
  8
AM_0
 10
509.19686528833643
 20
142.68854424086641
 30
0.0
 70
    32
  0
VERTEX
  5
8F71
  8
AM_0
 10
509.19186528833632
 20
142.6875442408664
 30
0.0
 70
    32
  0
VERTEX
  5
8F72
  8
AM_0
 10
509.18786528833641
 20
142.68554424086639
 30
0.0
 70
    32
  0
VERTEX
  5
8F73
  8
AM_0
 10
509.18386528833571
 20
142.68454424086639
 30
0.0
 70
    32
  0
VERTEX
  5
8F74
  8
AM_0
 10
509.1798652883362
 20
142.68354424086641
 30
0.0
 70
    32
  0
VERTEX
  5
8F75
  8
AM_0
 10
509.1758652883363
 20
142.68254424086629
 30
0.0
 70
    32
  0
VERTEX
  5
8F76
  8
AM_0
 10
509.17186528833639
 20
142.6805442408664
 30
0.0
 70
    32
  0
VERTEX
  5
8F77
  8
AM_0
 10
509.16786528833649
 20
142.67954424086639
 30
0.0
 70
    32
  0
VERTEX
  5
8F78
  8
AM_0
 10
509.16386528833618
 20
142.67854424086639
 30
0.0
 70
    32
  0
VERTEX
  5
8F79
  8
AM_0
 10
509.15986528833611
 20
142.67754424086641
 30
0.0
 70
    32
  0
VERTEX
  5
8F7A
  8
AM_0
 10
509.15586528833632
 20
142.6755442408664
 30
0.0
 70
    32
  0
VERTEX
  5
8F7B
  8
AM_0
 10
509.15186528833641
 20
142.6745442408664
 30
0.0
 70
    32
  0
VERTEX
  5
8F7C
  8
AM_0
 10
509.1478652883365
 20
142.67354424086619
 30
0.0
 70
    32
  0
VERTEX
  5
8F7D
  8
AM_0
 10
509.14386528833569
 20
142.67154424086641
 30
0.0
 70
    32
  0
VERTEX
  5
8F7E
  8
AM_0
 10
509.13886528833649
 20
142.67054424086641
 30
0.0
 70
    32
  0
VERTEX
  5
8F7F
  8
AM_0
 10
509.13486528833602
 20
142.66954424086629
 30
0.0
 70
    32
  0
VERTEX
  5
8F80
  8
AM_0
 10
509.13086528833583
 20
142.66754424086631
 30
0.0
 70
    32
  0
VERTEX
  5
8F81
  8
AM_0
 10
509.12686528833632
 20
142.66654424086639
 30
0.0
 70
    32
  0
VERTEX
  5
8F82
  8
AM_0
 10
509.12286528833653
 20
142.66554424086641
 30
0.0
 70
    32
  0
VERTEX
  5
8F83
  8
AM_0
 10
509.11886528833639
 20
142.6635442408664
 30
0.0
 70
    32
  0
VERTEX
  5
8F84
  8
AM_0
 10
509.11486528833569
 20
142.6625442408662
 30
0.0
 70
    32
  0
VERTEX
  5
8F85
  8
AM_0
 10
509.11086528833607
 20
142.66154424086619
 30
0.0
 70
    32
  0
VERTEX
  5
8F86
  8
AM_0
 10
509.10686528833639
 20
142.65954424086641
 30
0.0
 70
    32
  0
VERTEX
  5
8F87
  8
AM_0
 10
509.10286528833637
 20
142.65854424086641
 30
0.0
 70
    32
  0
VERTEX
  5
8F88
  8
AM_0
 10
509.09886528833562
 20
142.6575442408664
 30
0.0
 70
    32
  0
VERTEX
  5
8F89
  8
AM_0
 10
509.09486528833611
 20
142.65554424086639
 30
0.0
 70
    32
  0
VERTEX
  5
8F8A
  8
AM_0
 10
509.09086528833632
 20
142.65454424086619
 30
0.0
 70
    32
  0
VERTEX
  5
8F8B
  8
AM_0
 10
509.08686528833641
 20
142.65354424086621
 30
0.0
 70
    32
  0
VERTEX
  5
8F8C
  8
AM_0
 10
509.0828652883356
 20
142.6515442408664
 30
0.0
 70
    32
  0
VERTEX
  5
8F8D
  8
AM_0
 10
509.07886528833569
 20
142.6505442408664
 30
0.0
 70
    32
  0
VERTEX
  5
8F8E
  8
AM_0
 10
509.07486528833618
 20
142.64854424086641
 30
0.0
 70
    32
  0
VERTEX
  5
8F8F
  8
AM_0
 10
509.07086528833622
 20
142.64754424086641
 30
0.0
 70
    32
  0
VERTEX
  5
8F90
  8
AM_0
 10
509.06686528833637
 20
142.6465442408666
 30
0.0
 70
    32
  0
VERTEX
  5
8F91
  8
AM_0
 10
509.0628652883355
 20
142.6445442408662
 30
0.0
 70
    32
  0
VERTEX
  5
8F92
  8
AM_0
 10
509.05886528833611
 20
142.64354424086619
 30
0.0
 70
    32
  0
VERTEX
  5
8F93
  8
AM_0
 10
509.0548652883358
 20
142.64154424086641
 30
0.0
 70
    32
  0
VERTEX
  5
8F94
  8
AM_0
 10
509.05086528833641
 20
142.64054424086649
 30
0.0
 70
    32
  0
VERTEX
  5
8F95
  8
AM_0
 10
509.04686528833543
 20
142.6395442408664
 30
0.0
 70
    32
  0
VERTEX
  5
8F96
  8
AM_0
 10
509.04286528833649
 20
142.63754424086639
 30
0.0
 70
    32
  0
VERTEX
  5
8F97
  8
AM_0
 10
509.03886528833573
 20
142.63654424086641
 30
0.0
 70
    32
  0
VERTEX
  5
8F98
  8
AM_0
 10
509.03386528833568
 20
142.63454424086629
 30
0.0
 70
    32
  0
VERTEX
  5
8F99
  8
AM_0
 10
509.029865288336
 20
142.6335442408662
 30
0.0
 70
    32
  0
VERTEX
  5
8F9A
  8
AM_0
 10
509.02586528833609
 20
142.63154424086639
 30
0.0
 70
    32
  0
VERTEX
  5
8F9B
  8
AM_0
 10
509.0218652883363
 20
142.63054424086641
 30
0.0
 70
    32
  0
VERTEX
  5
8F9C
  8
AM_0
 10
509.01786528833537
 20
142.6285442408664
 30
0.0
 70
    32
  0
VERTEX
  5
8F9D
  8
AM_0
 10
509.01386528833638
 20
142.6275442408664
 30
0.0
 70
    32
  0
VERTEX
  5
8F9E
  8
AM_0
 10
509.00986528833567
 20
142.62554424086619
 30
0.0
 70
    32
  0
VERTEX
  5
8F9F
  8
AM_0
 10
509.00586528833628
 20
142.62454424086641
 30
0.0
 70
    32
  0
VERTEX
  5
8FA0
  8
AM_0
 10
509.00186528833592
 20
142.6225442408664
 30
0.0
 70
    32
  0
VERTEX
  5
8FA1
  8
AM_0
 10
508.99786528833641
 20
142.62154424086631
 30
0.0
 70
    32
  0
VERTEX
  5
8FA2
  8
AM_0
 10
508.9938652883356
 20
142.61954424086639
 30
0.0
 70
    32
  0
VERTEX
  5
8FA3
  8
AM_0
 10
508.9898652883362
 20
142.61854424086641
 30
0.0
 70
    32
  0
VERTEX
  5
8FA4
  8
AM_0
 10
508.98586528833619
 20
142.6165442408664
 30
0.0
 70
    32
  0
VERTEX
  5
8FA5
  8
AM_0
 10
508.98186528833588
 20
142.61554424086631
 30
0.0
 70
    32
  0
VERTEX
  5
8FA6
  8
AM_0
 10
508.9778652883345
 20
142.61354424086619
 30
0.0
 70
    32
  0
VERTEX
  5
8FA7
  8
AM_0
 10
508.97386528833641
 20
142.61254424086641
 30
0.0
 70
    32
  0
VERTEX
  5
8FA8
  8
AM_0
 10
508.97086528833592
 20
142.6105442408664
 30
0.0
 70
    32
  0
VERTEX
  5
8FA9
  8
AM_0
 10
508.96686528833641
 20
142.6095442408664
 30
0.0
 70
    32
  0
VERTEX
  5
8FAA
  8
AM_0
 10
508.96286528833599
 20
142.60754424086639
 30
0.0
 70
    32
  0
VERTEX
  5
8FAB
  8
AM_0
 10
508.9588652883362
 20
142.60654424086621
 30
0.0
 70
    32
  0
VERTEX
  5
8FAC
  8
AM_0
 10
508.95486528833572
 20
142.60454424086609
 30
0.0
 70
    32
  0
VERTEX
  5
8FAD
  8
AM_0
 10
508.95086528833531
 20
142.6035442408664
 30
0.0
 70
    32
  0
VERTEX
  5
8FAE
  8
AM_0
 10
508.94686528833557
 20
142.6015442408663
 30
0.0
 70
    32
  0
VERTEX
  5
8FAF
  8
AM_0
 10
508.94286528833618
 20
142.59954424086641
 30
0.0
 70
    32
  0
VERTEX
  5
8FB0
  8
AM_0
 10
508.93886528833582
 20
142.5985442408664
 30
0.0
 70
    32
  0
VERTEX
  5
8FB1
  8
AM_0
 10
508.93486528833603
 20
142.59654424086619
 30
0.0
 70
    32
  0
VERTEX
  5
8FB2
  8
AM_0
 10
508.9308652883355
 20
142.59554424086619
 30
0.0
 70
    32
  0
VERTEX
  5
8FB3
  8
AM_0
 10
508.92686528833559
 20
142.59354424086641
 30
0.0
 70
    32
  0
VERTEX
  5
8FB4
  8
AM_0
 10
508.92286528833603
 20
142.5915442408664
 30
0.0
 70
    32
  0
VERTEX
  5
8FB5
  8
AM_0
 10
508.91886528833572
 20
142.59054424086639
 30
0.0
 70
    32
  0
VERTEX
  5
8FB6
  8
AM_0
 10
508.91486528833587
 20
142.58854424086641
 30
0.0
 70
    32
  0
VERTEX
  5
8FB7
  8
AM_0
 10
508.9108652883354
 20
142.58754424086629
 30
0.0
 70
    32
  0
VERTEX
  5
8FB8
  8
AM_0
 10
508.90686528833658
 20
142.5855442408662
 30
0.0
 70
    32
  0
VERTEX
  5
8FB9
  8
AM_0
 10
508.9028652883357
 20
142.58354424086639
 30
0.0
 70
    32
  0
VERTEX
  5
8FBA
  8
AM_0
 10
508.89886528833568
 20
142.58254424086641
 30
0.0
 70
    32
  0
VERTEX
  5
8FBB
  8
AM_0
 10
508.89486528833589
 20
142.5805442408664
 30
0.0
 70
    32
  0
VERTEX
  5
8FBC
  8
AM_0
 10
508.8908652883365
 20
142.57854424086659
 30
0.0
 70
    32
  0
VERTEX
  5
8FBD
  8
AM_0
 10
508.88686528833642
 20
142.57754424086619
 30
0.0
 70
    32
  0
VERTEX
  5
8FBE
  8
AM_0
 10
508.88286528833572
 20
142.57554424086641
 30
0.0
 70
    32
  0
VERTEX
  5
8FBF
  8
AM_0
 10
508.87986528833551
 20
142.57354424086631
 30
0.0
 70
    32
  0
VERTEX
  5
8FC0
  8
AM_0
 10
508.87586528833572
 20
142.57254424086639
 30
0.0
 70
    32
  0
VERTEX
  5
8FC1
  8
AM_0
 10
508.87186528833581
 20
142.57054424086641
 30
0.0
 70
    32
  0
VERTEX
  5
8FC2
  8
AM_0
 10
508.86786528833568
 20
142.5685442408664
 30
0.0
 70
    32
  0
VERTEX
  5
8FC3
  8
AM_0
 10
508.86386528833538
 20
142.5675442408662
 30
0.0
 70
    32
  0
VERTEX
  5
8FC4
  8
AM_0
 10
508.85986528833649
 20
142.56554424086619
 30
0.0
 70
    32
  0
VERTEX
  5
8FC5
  8
AM_0
 10
508.85586528833568
 20
142.56354424086641
 30
0.0
 70
    32
  0
VERTEX
  5
8FC6
  8
AM_0
 10
508.85186528833572
 20
142.5625442408664
 30
0.0
 70
    32
  0
VERTEX
  5
8FC7
  8
AM_0
 10
508.84786528833592
 20
142.56054424086639
 30
0.0
 70
    32
  0
VERTEX
  5
8FC8
  8
AM_0
 10
508.84386528833551
 20
142.55854424086621
 30
0.0
 70
    32
  0
VERTEX
  5
8FC9
  8
AM_0
 10
508.8398652883364
 20
142.55654424086629
 30
0.0
 70
    32
  0
VERTEX
  5
8FCA
  8
AM_0
 10
508.83586528833558
 20
142.5555442408664
 30
0.0
 70
    32
  0
VERTEX
  5
8FCB
  8
AM_0
 10
508.83286528833639
 20
142.5535442408663
 30
0.0
 70
    32
  0
VERTEX
  5
8FCC
  8
AM_0
 10
508.82886528833558
 20
142.5515442408666
 30
0.0
 70
    32
  0
VERTEX
  5
8FCD
  8
AM_0
 10
508.82486528833567
 20
142.5495442408664
 30
0.0
 70
    32
  0
VERTEX
  5
8FCE
  8
AM_0
 10
508.82086528833582
 20
142.54854424086619
 30
0.0
 70
    32
  0
VERTEX
  5
8FCF
  8
AM_0
 10
508.81686528833637
 20
142.5465442408663
 30
0.0
 70
    32
  0
VERTEX
  5
8FD0
  8
AM_0
 10
508.81286528833562
 20
142.5445442408664
 30
0.0
 70
    32
  0
VERTEX
  5
8FD1
  8
AM_0
 10
508.80886528833571
 20
142.54254424086639
 30
0.0
 70
    32
  0
VERTEX
  5
8FD2
  8
AM_0
 10
508.80486528833569
 20
142.54154424086639
 30
0.0
 70
    32
  0
VERTEX
  5
8FD3
  8
AM_0
 10
508.8008652883363
 20
142.53954424086629
 30
0.0
 70
    32
  0
VERTEX
  5
8FD4
  8
AM_0
 10
508.79786528833569
 20
142.5375442408662
 30
0.0
 70
    32
  0
VERTEX
  5
8FD5
  8
AM_0
 10
508.79386528833572
 20
142.53554424086639
 30
0.0
 70
    32
  0
VERTEX
  5
8FD6
  8
AM_0
 10
508.78986528833587
 20
142.53354424086641
 30
0.0
 70
    32
  0
VERTEX
  5
8FD7
  8
AM_0
 10
508.78586528833642
 20
142.53254424086651
 30
0.0
 70
    32
  0
VERTEX
  5
8FD8
  8
AM_0
 10
508.78186528833641
 20
142.53054424086639
 30
0.0
 70
    32
  0
VERTEX
  5
8FD9
  8
AM_0
 10
508.7778652883357
 20
142.52854424086641
 30
0.0
 70
    32
  0
VERTEX
  5
8FDA
  8
AM_0
 10
508.77386528833568
 20
142.52654424086629
 30
0.0
 70
    32
  0
VERTEX
  5
8FDB
  8
AM_0
 10
508.7708652883357
 20
142.52454424086639
 30
0.0
 70
    32
  0
VERTEX
  5
8FDC
  8
AM_0
 10
508.76686528833568
 20
142.52354424086641
 30
0.0
 70
    32
  0
VERTEX
  5
8FDD
  8
AM_0
 10
508.76286528833617
 20
142.5215442408664
 30
0.0
 70
    32
  0
VERTEX
  5
8FDE
  8
AM_0
 10
508.75886528833598
 20
142.5195442408662
 30
0.0
 70
    32
  0
VERTEX
  5
8FDF
  8
AM_0
 10
508.75486528833648
 20
142.51754424086641
 30
0.0
 70
    32
  0
VERTEX
  5
8FE0
  8
AM_0
 10
508.7508652883356
 20
142.5155442408664
 30
0.0
 70
    32
  0
VERTEX
  5
8FE1
  8
AM_0
 10
508.74686528833581
 20
142.51354424086631
 30
0.0
 70
    32
  0
VERTEX
  5
8FE2
  8
AM_0
 10
508.74386528833639
 20
142.51154424086641
 30
0.0
 70
    32
  0
VERTEX
  5
8FE3
  8
AM_0
 10
508.73986528833569
 20
142.50954424086629
 30
0.0
 70
    32
  0
VERTEX
  5
8FE4
  8
AM_0
 10
508.73586528833567
 20
142.5085442408664
 30
0.0
 70
    32
  0
VERTEX
  5
8FE5
  8
AM_0
 10
508.73186528833639
 20
142.5065442408663
 30
0.0
 70
    32
  0
VERTEX
  5
8FE6
  8
AM_0
 10
508.72786528833637
 20
142.50454424086641
 30
0.0
 70
    32
  0
VERTEX
  5
8FE7
  8
AM_0
 10
508.72486528833628
 20
142.5025442408664
 30
0.0
 70
    32
  0
VERTEX
  5
8FE8
  8
AM_0
 10
508.72086528833597
 20
142.50054424086619
 30
0.0
 70
    32
  0
VERTEX
  5
8FE9
  8
AM_0
 10
508.71686528833641
 20
142.49854424086621
 30
0.0
 70
    32
  0
VERTEX
  5
8FEA
  8
AM_0
 10
508.71286528833571
 20
142.4965442408664
 30
0.0
 70
    32
  0
VERTEX
  5
8FEB
  8
AM_0
 10
508.7088652883358
 20
142.4945442408663
 30
0.0
 70
    32
  0
VERTEX
  5
8FEC
  8
AM_0
 10
508.7058652883365
 20
142.49254424086641
 30
0.0
 70
    32
  0
VERTEX
  5
8FED
  8
AM_0
 10
508.70186528833568
 20
142.4905442408662
 30
0.0
 70
    32
  0
VERTEX
  5
8FEE
  8
AM_0
 10
508.69786528833572
 20
142.48854424086639
 30
0.0
 70
    32
  0
VERTEX
  5
8FEF
  8
AM_0
 10
508.69386528833638
 20
142.48654424086641
 30
0.0
 70
    32
  0
VERTEX
  5
8FF0
  8
AM_0
 10
508.68986528833631
 20
142.4845442408666
 30
0.0
 70
    32
  0
VERTEX
  5
8FF1
  8
AM_0
 10
508.68686528833632
 20
142.48254424086639
 30
0.0
 70
    32
  0
VERTEX
  5
8FF2
  8
AM_0
 10
508.6828652883359
 20
142.48054424086641
 30
0.0
 70
    32
  0
VERTEX
  5
8FF3
  8
AM_0
 10
508.67886528833651
 20
142.4785442408664
 30
0.0
 70
    32
  0
VERTEX
  5
8FF4
  8
AM_0
 10
508.6748652883357
 20
142.47654424086639
 30
0.0
 70
    32
  0
VERTEX
  5
8FF5
  8
AM_0
 10
508.67086528833568
 20
142.47454424086641
 30
0.0
 70
    32
  0
VERTEX
  5
8FF6
  8
AM_0
 10
508.66786528833649
 20
142.4725442408664
 30
0.0
 70
    32
  0
VERTEX
  5
8FF7
  8
AM_0
 10
508.66386528833573
 20
142.47054424086619
 30
0.0
 70
    32
  0
VERTEX
  5
8FF8
  8
AM_0
 10
508.65986528833452
 20
142.46854424086641
 30
0.0
 70
    32
  0
VERTEX
  5
8FF9
  8
AM_0
 10
508.65586528833632
 20
142.46654424086631
 30
0.0
 70
    32
  0
VERTEX
  5
8FFA
  8
AM_0
 10
508.6528652883357
 20
142.46454424086639
 30
0.0
 70
    32
  0
VERTEX
  5
8FFB
  8
AM_0
 10
508.64886528833631
 20
142.46254424086629
 30
0.0
 70
    32
  0
VERTEX
  5
8FFC
  8
AM_0
 10
508.64486528833589
 20
142.4605442408664
 30
0.0
 70
    32
  0
VERTEX
  5
8FFD
  8
AM_0
 10
508.64086528833627
 20
142.4585442408663
 30
0.0
 70
    32
  0
VERTEX
  5
8FFE
  8
AM_0
 10
508.6378652883356
 20
142.45654424086641
 30
0.0
 70
    32
  0
VERTEX
  5
8FFF
  8
AM_0
 10
508.63386528833638
 20
142.4545442408664
 30
0.0
 70
    32
  0
VERTEX
  5
9000
  8
AM_0
 10
508.62986528833642
 20
142.45254424086619
 30
0.0
 70
    32
  0
VERTEX
  5
9001
  8
AM_0
 10
508.62686528833621
 20
142.45054424086621
 30
0.0
 70
    32
  0
VERTEX
  5
9002
  8
AM_0
 10
508.6228652883355
 20
142.44754424086639
 30
0.0
 70
    32
  0
VERTEX
  5
9003
  8
AM_0
 10
508.61886528833651
 20
142.44554424086641
 30
0.0
 70
    32
  0
VERTEX
  5
9004
  8
AM_0
 10
508.61486528833569
 20
142.4435442408662
 30
0.0
 70
    32
  0
VERTEX
  5
9005
  8
AM_0
 10
508.6118652883365
 20
142.44154424086619
 30
0.0
 70
    32
  0
VERTEX
  5
9006
  8
AM_0
 10
508.60786528833557
 20
142.43954424086641
 30
0.0
 70
    32
  0
VERTEX
  5
9007
  8
AM_0
 10
508.60386528833612
 20
142.4375442408664
 30
0.0
 70
    32
  0
VERTEX
  5
9008
  8
AM_0
 10
508.60086528833642
 20
142.43554424086639
 30
0.0
 70
    32
  0
VERTEX
  5
9009
  8
AM_0
 10
508.59686528833572
 20
142.43354424086641
 30
0.0
 70
    32
  0
VERTEX
  5
900A
  8
AM_0
 10
508.59286528833582
 20
142.4305442408664
 30
0.0
 70
    32
  0
VERTEX
  5
900B
  8
AM_0
 10
508.58986528833651
 20
142.42854424086639
 30
0.0
 70
    32
  0
VERTEX
  5
900C
  8
AM_0
 10
508.58586528833581
 20
142.42654424086641
 30
0.0
 70
    32
  0
VERTEX
  5
900D
  8
AM_0
 10
508.5818652883363
 20
142.4245442408664
 30
0.0
 70
    32
  0
VERTEX
  5
900E
  8
AM_0
 10
508.57886528833581
 20
142.42254424086619
 30
0.0
 70
    32
  0
VERTEX
  5
900F
  8
AM_0
 10
508.57486528833567
 20
142.4195442408664
 30
0.0
 70
    32
  0
VERTEX
  5
9010
  8
AM_0
 10
508.57086528833588
 20
142.41754424086631
 30
0.0
 70
    32
  0
VERTEX
  5
9011
  8
AM_0
 10
508.56786528833572
 20
142.41554424086641
 30
0.0
 70
    32
  0
VERTEX
  5
9012
  8
AM_0
 10
508.56386528833582
 20
142.4135442408664
 30
0.0
 70
    32
  0
VERTEX
  5
9013
  8
AM_0
 10
508.55986528833631
 20
142.41154424086619
 30
0.0
 70
    32
  0
VERTEX
  5
9014
  8
AM_0
 10
508.5568652883357
 20
142.40854424086641
 30
0.0
 70
    32
  0
VERTEX
  5
9015
  8
AM_0
 10
508.55286528833568
 20
142.4065442408664
 30
0.0
 70
    32
  0
VERTEX
  5
9016
  8
AM_0
 10
508.5488652883364
 20
142.40454424086619
 30
0.0
 70
    32
  0
VERTEX
  5
9017
  8
AM_0
 10
508.54586528833568
 20
142.40254424086621
 30
0.0
 70
    32
  0
VERTEX
  5
9018
  8
AM_0
 10
508.54186528833628
 20
142.39954424086631
 30
0.0
 70
    32
  0
VERTEX
  5
9019
  8
AM_0
 10
508.53886528833573
 20
142.39754424086641
 30
0.0
 70
    32
  0
VERTEX
  5
901A
  8
AM_0
 10
508.53486528833628
 20
142.3955442408662
 30
0.0
 70
    32
  0
VERTEX
  5
901B
  8
AM_0
 10
508.5308652883362
 20
142.39354424086619
 30
0.0
 70
    32
  0
VERTEX
  5
901C
  8
AM_0
 10
508.5278652883361
 20
142.3905442408664
 30
0.0
 70
    32
  0
VERTEX
  5
901D
  8
AM_0
 10
508.5238652883358
 20
142.38854424086651
 30
0.0
 70
    32
  0
VERTEX
  5
901E
  8
AM_0
 10
508.52086528833559
 20
142.38654424086641
 30
0.0
 70
    32
  0
VERTEX
  5
901F
  8
AM_0
 10
508.51686528833568
 20
142.38354424086609
 30
0.0
 70
    32
  0
VERTEX
  5
9020
  8
AM_0
 10
508.51286528833617
 20
142.38154424086639
 30
0.0
 70
    32
  0
VERTEX
  5
9021
  8
AM_0
 10
508.50986528833567
 20
142.37954424086641
 30
0.0
 70
    32
  0
VERTEX
  5
9022
  8
AM_0
 10
508.50586528833611
 20
142.37654424086639
 30
0.0
 70
    32
  0
VERTEX
  5
9023
  8
AM_0
 10
508.50286528833641
 20
142.37454424086641
 30
0.0
 70
    32
  0
VERTEX
  5
9024
  8
AM_0
 10
508.49886528833582
 20
142.3725442408664
 30
0.0
 70
    32
  0
VERTEX
  5
9025
  8
AM_0
 10
508.4958652883364
 20
142.3695442408663
 30
0.0
 70
    32
  0
VERTEX
  5
9026
  8
AM_0
 10
508.4918652883357
 20
142.36754424086641
 30
0.0
 70
    32
  0
VERTEX
  5
9027
  8
AM_0
 10
508.48886528833629
 20
142.36454424086631
 30
0.0
 70
    32
  0
VERTEX
  5
9028
  8
AM_0
 10
508.48486528833649
 20
142.36254424086641
 30
0.0
 70
    32
  0
VERTEX
  5
9029
  8
AM_0
 10
508.48086528833568
 20
142.3605442408664
 30
0.0
 70
    32
  0
VERTEX
  5
902A
  8
AM_0
 10
508.47786528833649
 20
142.35754424086639
 30
0.0
 70
    32
  0
VERTEX
  5
902B
  8
AM_0
 10
508.47386528833641
 20
142.35554424086621
 30
0.0
 70
    32
  0
VERTEX
  5
902C
  8
AM_0
 10
508.47086528833643
 20
142.35254424086631
 30
0.0
 70
    32
  0
VERTEX
  5
902D
  8
AM_0
 10
508.46686528833641
 20
142.3505442408651
 30
0.0
 70
    32
  0
VERTEX
  5
902E
  8
AM_0
 10
508.4638652883358
 20
142.34754424086651
 30
0.0
 70
    32
  0
VERTEX
  5
902F
  8
AM_0
 10
508.45986528833629
 20
142.34554424086619
 30
0.0
 70
    32
  0
VERTEX
  5
9030
  8
AM_0
 10
508.45686528833568
 20
142.34354424086641
 30
0.0
 70
    32
  0
VERTEX
  5
9031
  8
AM_0
 10
508.45286528833628
 20
142.34054424086639
 30
0.0
 70
    32
  0
VERTEX
  5
9032
  8
AM_0
 10
508.44986528833567
 20
142.33854424086641
 30
0.0
 70
    32
  0
VERTEX
  5
9033
  8
AM_0
 10
508.44586528833628
 20
142.33554424086611
 30
0.0
 70
    32
  0
VERTEX
  5
9034
  8
AM_0
 10
508.44286528833572
 20
142.33354424086639
 30
0.0
 70
    32
  0
VERTEX
  5
9035
  8
AM_0
 10
508.43986528833642
 20
142.33054424086629
 30
0.0
 70
    32
  0
VERTEX
  5
9036
  8
AM_0
 10
508.43586528833652
 20
142.32854424086639
 30
0.0
 70
    32
  0
VERTEX
  5
9037
  8
AM_0
 10
508.43286528833642
 20
142.32554424086641
 30
0.0
 70
    32
  0
VERTEX
  5
9038
  8
AM_0
 10
508.42886528833651
 20
142.32354424086631
 30
0.0
 70
    32
  0
VERTEX
  5
9039
  8
AM_0
 10
508.4258652883359
 20
142.32054424086641
 30
0.0
 70
    32
  0
VERTEX
  5
903A
  8
AM_0
 10
508.42186528833639
 20
142.3185442408664
 30
0.0
 70
    32
  0
VERTEX
  5
903B
  8
AM_0
 10
508.41886528833572
 20
142.31554424086619
 30
0.0
 70
    32
  0
VERTEX
  5
903C
  8
AM_0
 10
508.41586528833659
 20
142.3125442408664
 30
0.0
 70
    32
  0
VERTEX
  5
903D
  8
AM_0
 10
508.41186528833572
 20
142.31054424086639
 30
0.0
 70
    32
  0
VERTEX
  5
903E
  8
AM_0
 10
508.40886528833641
 20
142.30754424086621
 30
0.0
 70
    32
  0
VERTEX
  5
903F
  8
AM_0
 10
508.40486528833571
 20
142.3055442408664
 30
0.0
 70
    32
  0
VERTEX
  5
9040
  8
AM_0
 10
508.40186528833641
 20
142.30254424086641
 30
0.0
 70
    32
  0
VERTEX
  5
9041
  8
AM_0
 10
508.39886528833631
 20
142.2995442408664
 30
0.0
 70
    32
  0
VERTEX
  5
9042
  8
AM_0
 10
508.39486528833618
 20
142.2975442408661
 30
0.0
 70
    32
  0
VERTEX
  5
9043
  8
AM_0
 10
508.39186528833619
 20
142.2945442408664
 30
0.0
 70
    32
  0
VERTEX
  5
9044
  8
AM_0
 10
508.38786528833617
 20
142.29254424086639
 30
0.0
 70
    32
  0
VERTEX
  5
9045
  8
AM_0
 10
508.38486528833619
 20
142.28954424086609
 30
0.0
 70
    32
  0
VERTEX
  5
9046
  8
AM_0
 10
508.38186528833648
 20
142.28654424086639
 30
0.0
 70
    32
  0
VERTEX
  5
9047
  8
AM_0
 10
508.37786528833641
 20
142.28454424086641
 30
0.0
 70
    32
  0
VERTEX
  5
9048
  8
AM_0
 10
508.37486528833642
 20
142.2815442408664
 30
0.0
 70
    32
  0
VERTEX
  5
9049
  8
AM_0
 10
508.37186528833581
 20
142.27854424086641
 30
0.0
 70
    32
  0
VERTEX
  5
904A
  8
AM_0
 10
508.3678652883363
 20
142.27654424086629
 30
0.0
 70
    32
  0
VERTEX
  5
904B
  8
AM_0
 10
508.36486528833569
 20
142.27354424086641
 30
0.0
 70
    32
  0
VERTEX
  5
904C
  8
AM_0
 10
508.3618652883365
 20
142.2705442408664
 30
0.0
 70
    32
  0
VERTEX
  5
904D
  8
AM_0
 10
508.35886528833618
 20
142.26754424086619
 30
0.0
 70
    32
  0
VERTEX
  5
904E
  8
AM_0
 10
508.35486528833633
 20
142.2655442408664
 30
0.0
 70
    32
  0
VERTEX
  5
904F
  8
AM_0
 10
508.35186528833628
 20
142.26254424086639
 30
0.0
 70
    32
  0
VERTEX
  5
9050
  8
AM_0
 10
508.34886528833471
 20
142.25954424086609
 30
0.0
 70
    32
  0
VERTEX
  5
9051
  8
AM_0
 10
508.34486528833611
 20
142.25654424086639
 30
0.0
 70
    32
  0
VERTEX
  5
9052
  8
AM_0
 10
508.34186528833652
 20
142.25454424086641
 30
0.0
 70
    32
  0
VERTEX
  5
9053
  8
AM_0
 10
508.33886528833631
 20
142.25154424086639
 30
0.0
 70
    32
  0
VERTEX
  5
9054
  8
AM_0
 10
508.33586528833558
 20
142.24854424086621
 30
0.0
 70
    32
  0
VERTEX
  5
9055
  8
AM_0
 10
508.33186528833608
 20
142.24554424086639
 30
0.0
 70
    32
  0
VERTEX
  5
9056
  8
AM_0
 10
508.32886528833558
 20
142.24354424086641
 30
0.0
 70
    32
  0
VERTEX
  5
9057
  8
AM_0
 10
508.32586528833639
 20
142.2405442408662
 30
0.0
 70
    32
  0
VERTEX
  5
9058
  8
AM_0
 10
508.32286528833612
 20
142.23754424086641
 30
0.0
 70
    32
  0
VERTEX
  5
9059
  8
AM_0
 10
508.31986528833562
 20
142.2345442408664
 30
0.0
 70
    32
  0
VERTEX
  5
905A
  8
AM_0
 10
508.31586528833611
 20
142.23154424086641
 30
0.0
 70
    32
  0
VERTEX
  5
905B
  8
AM_0
 10
508.31286528833562
 20
142.22854424086611
 30
0.0
 70
    32
  0
VERTEX
  5
905C
  8
AM_0
 10
508.30986528833631
 20
142.2265442408663
 30
0.0
 70
    32
  0
VERTEX
  5
905D
  8
AM_0
 10
508.3068652883361
 20
142.2235442408664
 30
0.0
 70
    32
  0
VERTEX
  5
905E
  8
AM_0
 10
508.30386528833452
 20
142.22054424086619
 30
0.0
 70
    32
  0
VERTEX
  5
905F
  8
AM_0
 10
508.3008652883363
 20
142.2175442408664
 30
0.0
 70
    32
  0
VERTEX
  5
9060
  8
AM_0
 10
508.29786528833569
 20
142.21454424086639
 30
0.0
 70
    32
  0
VERTEX
  5
9061
  8
AM_0
 10
508.29386528833612
 20
142.21154424086609
 30
0.0
 70
    32
  0
VERTEX
  5
9062
  8
AM_0
 10
508.29086528833562
 20
142.2085442408663
 30
0.0
 70
    32
  0
VERTEX
  5
9063
  8
AM_0
 10
508.28786528833638
 20
142.2055442408664
 30
0.0
 70
    32
  0
VERTEX
  5
9064
  8
AM_0
 10
508.28486528833611
 20
142.20254424086619
 30
0.0
 70
    32
  0
VERTEX
  5
9065
  8
AM_0
 10
508.28186528833561
 20
142.1995442408664
 30
0.0
 70
    32
  0
VERTEX
  5
9066
  8
AM_0
 10
508.27886528833642
 20
142.1965442408663
 30
0.0
 70
    32
  0
VERTEX
  5
9067
  8
AM_0
 10
508.27586528833621
 20
142.1935442408662
 30
0.0
 70
    32
  0
VERTEX
  5
9068
  8
AM_0
 10
508.27286528833559
 20
142.19054424086639
 30
0.0
 70
    32
  0
VERTEX
  5
9069
  8
AM_0
 10
508.26986528833618
 20
142.1875442408664
 30
0.0
 70
    32
  0
VERTEX
  5
906A
  8
AM_0
 10
508.26686528833568
 20
142.18454424086639
 30
0.0
 70
    32
  0
VERTEX
  5
906B
  8
AM_0
 10
508.26386528833558
 20
142.18154424086629
 30
0.0
 70
    32
  0
VERTEX
  5
906C
  8
AM_0
 10
508.26086528833622
 20
142.17854424086639
 30
0.0
 70
    32
  0
VERTEX
  5
906D
  8
AM_0
 10
508.25786528833618
 20
142.1755442408664
 30
0.0
 70
    32
  0
VERTEX
  5
906E
  8
AM_0
 10
508.25486528833648
 20
142.17254424086619
 30
0.0
 70
    32
  0
VERTEX
  5
906F
  8
AM_0
 10
508.25186528833632
 20
142.1695442408664
 30
0.0
 70
    32
  0
VERTEX
  5
9070
  8
AM_0
 10
508.24886528833622
 20
142.16654424086639
 30
0.0
 70
    32
  0
VERTEX
  5
9071
  8
AM_0
 10
508.24586528833572
 20
142.16354424086609
 30
0.0
 70
    32
  0
VERTEX
  5
9072
  8
AM_0
 10
508.2428652883363
 20
142.16054424086639
 30
0.0
 70
    32
  0
VERTEX
  5
9073
  8
AM_0
 10
508.2398652883362
 20
142.1575442408664
 30
0.0
 70
    32
  0
VERTEX
  5
9074
  8
AM_0
 10
508.23686528833559
 20
142.15454424086619
 30
0.0
 70
    32
  0
VERTEX
  5
9075
  8
AM_0
 10
508.23386528833618
 20
142.1515442408664
 30
0.0
 70
    32
  0
VERTEX
  5
9076
  8
AM_0
 10
508.23086528833602
 20
142.14854424086641
 30
0.0
 70
    32
  0
VERTEX
  5
9077
  8
AM_0
 10
508.22786528833473
 20
142.1455442408662
 30
0.0
 70
    32
  0
VERTEX
  5
9078
  8
AM_0
 10
508.22486528833628
 20
142.14154424086641
 30
0.0
 70
    32
  0
VERTEX
  5
9079
  8
AM_0
 10
508.22186528833572
 20
142.13854424086639
 30
0.0
 70
    32
  0
VERTEX
  5
907A
  8
AM_0
 10
508.21886528833539
 20
142.13554424086641
 30
0.0
 70
    32
  0
VERTEX
  5
907B
  8
AM_0
 10
508.21686528833641
 20
142.13254424086631
 30
0.0
 70
    32
  0
VERTEX
  5
907C
  8
AM_0
 10
508.21386528833591
 20
142.12954424086641
 30
0.0
 70
    32
  0
VERTEX
  5
907D
  8
AM_0
 10
508.21086528833621
 20
142.12654424086639
 30
0.0
 70
    32
  0
VERTEX
  5
907E
  8
AM_0
 10
508.2078652883356
 20
142.1225442408664
 30
0.0
 70
    32
  0
VERTEX
  5
907F
  8
AM_0
 10
508.2048652883359
 20
142.1195442408663
 30
0.0
 70
    32
  0
VERTEX
  5
9080
  8
AM_0
 10
508.20186528833619
 20
142.11654424086609
 30
0.0
 70
    32
  0
VERTEX
  5
9081
  8
AM_0
 10
508.19986528833618
 20
142.11354424086619
 30
0.0
 70
    32
  0
VERTEX
  5
9082
  8
AM_0
 10
508.19686528833557
 20
142.1095442408664
 30
0.0
 70
    32
  0
VERTEX
  5
9083
  8
AM_0
 10
508.19386528833581
 20
142.1065442408663
 30
0.0
 70
    32
  0
VERTEX
  5
9084
  8
AM_0
 10
508.19086528833611
 20
142.1035442408664
 30
0.0
 70
    32
  0
VERTEX
  5
9085
  8
AM_0
 10
508.1888652883361
 20
142.10054424086641
 30
0.0
 70
    32
  0
VERTEX
  5
9086
  8
AM_0
 10
508.1858652883364
 20
142.09654424086509
 30
0.0
 70
    32
  0
VERTEX
  5
9087
  8
AM_0
 10
508.18286528833579
 20
142.09354424086641
 30
0.0
 70
    32
  0
VERTEX
  5
9088
  8
AM_0
 10
508.1808652883355
 20
142.09054424086659
 30
0.0
 70
    32
  0
VERTEX
  5
9089
  8
AM_0
 10
508.17786528833568
 20
142.08654424086629
 30
0.0
 70
    32
  0
VERTEX
  5
908A
  8
AM_0
 10
508.1748652883357
 20
142.08354424086639
 30
0.0
 70
    32
  0
VERTEX
  5
908B
  8
AM_0
 10
508.1728652883362
 20
142.0805442408664
 30
0.0
 70
    32
  0
VERTEX
  5
908C
  8
AM_0
 10
508.1698652883353
 20
142.07654424086641
 30
0.0
 70
    32
  0
VERTEX
  5
908D
  8
AM_0
 10
508.16686528833583
 20
142.0735442408664
 30
0.0
 70
    32
  0
VERTEX
  5
908E
  8
AM_0
 10
508.16486528833587
 20
142.07054424086641
 30
0.0
 70
    32
  0
VERTEX
  5
908F
  8
AM_0
 10
508.16186528833617
 20
142.06654424086631
 30
0.0
 70
    32
  0
VERTEX
  5
9090
  8
AM_0
 10
508.15986528833582
 20
142.06354424086641
 30
0.0
 70
    32
  0
VERTEX
  5
9091
  8
AM_0
 10
508.15686528833652
 20
142.05954424086639
 30
0.0
 70
    32
  0
VERTEX
  5
9092
  8
AM_0
 10
508.15386528833591
 20
142.0565442408662
 30
0.0
 70
    32
  0
VERTEX
  5
9093
  8
AM_0
 10
508.15186528833448
 20
142.0535442408663
 30
0.0
 70
    32
  0
VERTEX
  5
9094
  8
AM_0
 10
508.1488652883358
 20
142.04954424086651
 30
0.0
 70
    32
  0
VERTEX
  5
9095
  8
AM_0
 10
508.1468652883359
 20
142.04654424086641
 30
0.0
 70
    32
  0
VERTEX
  5
9096
  8
AM_0
 10
508.14386528833597
 20
142.0425442408665
 30
0.0
 70
    32
  0
VERTEX
  5
9097
  8
AM_0
 10
508.14186528833568
 20
142.03954424086629
 30
0.0
 70
    32
  0
VERTEX
  5
9098
  8
AM_0
 10
508.13886528833558
 20
142.03554424086639
 30
0.0
 70
    32
  0
VERTEX
  5
9099
  8
AM_0
 10
508.13686528833648
 20
142.03254424086629
 30
0.0
 70
    32
  0
VERTEX
  5
909A
  8
AM_0
 10
508.13486528833602
 20
142.02854424086641
 30
0.0
 70
    32
  0
VERTEX
  5
909B
  8
AM_0
 10
508.1318652883354
 20
142.02554424086631
 30
0.0
 70
    32
  0
VERTEX
  5
909C
  8
AM_0
 10
508.12986528833562
 20
142.0215442408664
 30
0.0
 70
    32
  0
VERTEX
  5
909D
  8
AM_0
 10
508.12686528833592
 20
142.01854424086619
 30
0.0
 70
    32
  0
VERTEX
  5
909E
  8
AM_0
 10
508.12486528833591
 20
142.0145442408664
 30
0.0
 70
    32
  0
VERTEX
  5
909F
  8
AM_0
 10
508.12286528833539
 20
142.01054424086621
 30
0.0
 70
    32
  0
VERTEX
  5
90A0
  8
AM_0
 10
508.11986528833569
 20
142.00754424086639
 30
0.0
 70
    32
  0
VERTEX
  5
90A1
  8
AM_0
 10
508.11786528833591
 20
142.0035442408666
 30
0.0
 70
    32
  0
VERTEX
  5
90A2
  8
AM_0
 10
508.1158652883359
 20
142.00054424086619
 30
0.0
 70
    32
  0
VERTEX
  5
90A3
  8
AM_0
 10
508.11286528833568
 20
141.9965442408664
 30
0.0
 70
    32
  0
VERTEX
  5
90A4
  8
AM_0
 10
508.11086528833567
 20
141.99254424086641
 30
0.0
 70
    32
  0
VERTEX
  5
90A5
  8
AM_0
 10
508.10886528833589
 20
141.98954424086619
 30
0.0
 70
    32
  0
VERTEX
  5
90A6
  8
AM_0
 10
508.10686528833588
 20
141.9855442408664
 30
0.0
 70
    32
  0
VERTEX
  5
90A7
  8
AM_0
 10
508.10386528833573
 20
141.98154424086641
 30
0.0
 70
    32
  0
VERTEX
  5
90A8
  8
AM_0
 10
508.10186528833572
 20
141.9785442408664
 30
0.0
 70
    32
  0
VERTEX
  5
90A9
  8
AM_0
 10
508.09986528833588
 20
141.97454424086641
 30
0.0
 70
    32
  0
VERTEX
  5
90AA
  8
AM_0
 10
508.09786528833581
 20
141.97054424086619
 30
0.0
 70
    32
  0
VERTEX
  5
90AB
  8
AM_0
 10
508.09586528833643
 20
141.9675442408664
 30
0.0
 70
    32
  0
VERTEX
  5
90AC
  8
AM_0
 10
508.09386528833551
 20
141.96354424086641
 30
0.0
 70
    32
  0
VERTEX
  5
90AD
  8
AM_0
 10
508.09186528833538
 20
141.95954424086639
 30
0.0
 70
    32
  0
VERTEX
  5
90AE
  8
AM_0
 10
508.08886528833568
 20
141.95654424086641
 30
0.0
 70
    32
  0
VERTEX
  5
90AF
  8
AM_0
 10
508.0868652883359
 20
141.95254424086619
 30
0.0
 70
    32
  0
VERTEX
  5
90B0
  8
AM_0
 10
508.08486528833538
 20
141.9485442408664
 30
0.0
 70
    32
  0
VERTEX
  5
90B1
  8
AM_0
 10
508.08286528833651
 20
141.94454424086641
 30
0.0
 70
    32
  0
VERTEX
  5
90B2
  8
AM_0
 10
508.0808652883365
 20
141.94154424086619
 30
0.0
 70
    32
  0
VERTEX
  5
90B3
  8
AM_0
 10
508.07886528833569
 20
141.93754424086629
 30
0.0
 70
    32
  0
VERTEX
  5
90B4
  8
AM_0
 10
508.07686528833568
 20
141.93354424086641
 30
0.0
 70
    32
  0
VERTEX
  5
90B5
  8
AM_0
 10
508.07486528833562
 20
141.92954424086631
 30
0.0
 70
    32
  0
VERTEX
  5
90B6
  8
AM_0
 10
508.07286528833572
 20
141.9255442408664
 30
0.0
 70
    32
  0
VERTEX
  5
90B7
  8
AM_0
 10
508.07186528833648
 20
141.92254424086619
 30
0.0
 70
    32
  0
VERTEX
  5
90B8
  8
AM_0
 10
508.06986528833568
 20
141.9185442408664
 30
0.0
 70
    32
  0
VERTEX
  5
90B9
  8
AM_0
 10
508.06786528833561
 20
141.91454424086621
 30
0.0
 70
    32
  0
VERTEX
  5
90BA
  8
AM_0
 10
508.0658652883356
 20
141.91054424086639
 30
0.0
 70
    32
  0
VERTEX
  5
90BB
  8
AM_0
 10
508.06386528833582
 20
141.9065442408664
 30
0.0
 70
    32
  0
VERTEX
  5
90BC
  8
AM_0
 10
508.06186528833581
 20
141.90254424086629
 30
0.0
 70
    32
  0
VERTEX
  5
90BD
  8
AM_0
 10
508.0608652883364
 20
141.89854424086641
 30
0.0
 70
    32
  0
VERTEX
  5
90BE
  8
AM_0
 10
508.0588652883356
 20
141.89554424086609
 30
0.0
 70
    32
  0
VERTEX
  5
90BF
  8
AM_0
 10
508.05686528833559
 20
141.89154424086641
 30
0.0
 70
    32
  0
VERTEX
  5
90C0
  8
AM_0
 10
508.0548652883358
 20
141.88754424086639
 30
0.0
 70
    32
  0
VERTEX
  5
90C1
  8
AM_0
 10
508.0538652883356
 20
141.88354424086631
 30
0.0
 70
    32
  0
VERTEX
  5
90C2
  8
AM_0
 10
508.05186528833639
 20
141.87954424086641
 30
0.0
 70
    32
  0
VERTEX
  5
90C3
  8
AM_0
 10
508.04986528833558
 20
141.87554424086619
 30
0.0
 70
    32
  0
VERTEX
  5
90C4
  8
AM_0
 10
508.04886528833589
 20
141.8715442408664
 30
0.0
 70
    32
  0
VERTEX
  5
90C5
  8
AM_0
 10
508.04686528833543
 20
141.86754424086641
 30
0.0
 70
    32
  0
VERTEX
  5
90C6
  8
AM_0
 10
508.04486528833638
 20
141.86354424086639
 30
0.0
 70
    32
  0
VERTEX
  5
90C7
  8
AM_0
 10
508.04386528833572
 20
141.85954424086651
 30
0.0
 70
    32
  0
VERTEX
  5
90C8
  8
AM_0
 10
508.04186528833583
 20
141.85554424086621
 30
0.0
 70
    32
  0
VERTEX
  5
90C9
  8
AM_0
 10
508.04086528833659
 20
141.85154424086639
 30
0.0
 70
    32
  0
VERTEX
  5
90CA
  8
AM_0
 10
508.03886528833573
 20
141.84754424086651
 30
0.0
 70
    32
  0
VERTEX
  5
90CB
  8
AM_0
 10
508.03786528833598
 20
141.84354424086641
 30
0.0
 70
    32
  0
VERTEX
  5
90CC
  8
AM_0
 10
508.03586528833642
 20
141.83954424086639
 30
0.0
 70
    32
  0
VERTEX
  5
90CD
  8
AM_0
 10
508.03486528833571
 20
141.83554424086611
 30
0.0
 70
    32
  0
VERTEX
  5
90CE
  8
AM_0
 10
508.03386528833641
 20
141.83154424086641
 30
0.0
 70
    32
  0
VERTEX
  5
90CF
  8
AM_0
 10
508.03186528833561
 20
141.82754424086619
 30
0.0
 70
    32
  0
VERTEX
  5
90D0
  8
AM_0
 10
508.03086528833592
 20
141.8235442408664
 30
0.0
 70
    32
  0
VERTEX
  5
90D1
  8
AM_0
 10
508.02986528833571
 20
141.81954424086641
 30
0.0
 70
    32
  0
VERTEX
  5
90D2
  8
AM_0
 10
508.0278652883357
 20
141.8155442408663
 30
0.0
 70
    32
  0
VERTEX
  5
90D3
  8
AM_0
 10
508.02686528833641
 20
141.8115442408664
 30
0.0
 70
    32
  0
VERTEX
  5
90D4
  8
AM_0
 10
508.02586528833569
 20
141.80754424086629
 30
0.0
 70
    32
  0
VERTEX
  5
90D5
  8
AM_0
 10
508.0248652883356
 20
141.80254424086641
 30
0.0
 70
    32
  0
VERTEX
  5
90D6
  8
AM_0
 10
508.0238652883358
 20
141.79854424086619
 30
0.0
 70
    32
  0
VERTEX
  5
90D7
  8
AM_0
 10
508.0218652883359
 20
141.79454424086629
 30
0.0
 70
    32
  0
VERTEX
  5
90D8
  8
AM_0
 10
508.02086528833559
 20
141.79054424086641
 30
0.0
 70
    32
  0
VERTEX
  5
90D9
  8
AM_0
 10
508.0198652883364
 20
141.78654424086619
 30
0.0
 70
    32
  0
VERTEX
  5
90DA
  8
AM_0
 10
508.01886528833569
 20
141.7825442408664
 30
0.0
 70
    32
  0
VERTEX
  5
90DB
  8
AM_0
 10
508.01786528833537
 20
141.7785442408661
 30
0.0
 70
    32
  0
VERTEX
  5
90DC
  8
AM_0
 10
508.01686528833568
 20
141.77454424086631
 30
0.0
 70
    32
  0
VERTEX
  5
90DD
  8
AM_0
 10
508.01586528833559
 20
141.7695442408662
 30
0.0
 70
    32
  0
VERTEX
  5
90DE
  8
AM_0
 10
508.01486528833573
 20
141.7655442408664
 30
0.0
 70
    32
  0
VERTEX
  5
90DF
  8
AM_0
 10
508.01386528833638
 20
141.76154424086641
 30
0.0
 70
    32
  0
VERTEX
  5
90E0
  8
AM_0
 10
508.01286528833589
 20
141.75754424086639
 30
0.0
 70
    32
  0
VERTEX
  5
90E1
  8
AM_0
 10
508.01186528833642
 20
141.7535442408664
 30
0.0
 70
    32
  0
VERTEX
  5
90E2
  8
AM_0
 10
508.01086528833588
 20
141.74954424086641
 30
0.0
 70
    32
  0
VERTEX
  5
90E3
  8
AM_0
 10
508.01086528833588
 20
141.74454424086639
 30
0.0
 70
    32
  0
VERTEX
  5
90E4
  8
AM_0
 10
508.00986528833567
 20
141.74054424086609
 30
0.0
 70
    32
  0
VERTEX
  5
90E5
  8
AM_0
 10
508.00886528833593
 20
141.73654424086641
 30
0.0
 70
    32
  0
VERTEX
  5
90E6
  8
AM_0
 10
508.00786528833572
 20
141.73254424086639
 30
0.0
 70
    32
  0
VERTEX
  5
90E7
  8
AM_0
 10
508.00686528833643
 20
141.7285442408664
 30
0.0
 70
    32
  0
VERTEX
  5
90E8
  8
AM_0
 10
508.00686528833643
 20
141.7235442408664
 30
0.0
 70
    32
  0
VERTEX
  5
90E9
  8
AM_0
 10
508.00586528833583
 20
141.7195442408663
 30
0.0
 70
    32
  0
VERTEX
  5
90EA
  8
AM_0
 10
508.00486528833642
 20
141.71554424086639
 30
0.0
 70
    32
  0
VERTEX
  5
90EB
  8
AM_0
 10
508.00486528833642
 20
141.7115442408662
 30
0.0
 70
    32
  0
VERTEX
  5
90EC
  8
AM_0
 10
508.00386528833582
 20
141.70654424086641
 30
0.0
 70
    32
  0
VERTEX
  5
90ED
  8
AM_0
 10
508.00286528833641
 20
141.70254424086619
 30
0.0
 70
    32
  0
VERTEX
  5
90EE
  8
AM_0
 10
508.00286528833641
 20
141.6985442408664
 30
0.0
 70
    32
  0
VERTEX
  5
90EF
  8
AM_0
 10
508.00186528833592
 20
141.69454424086641
 30
0.0
 70
    32
  0
VERTEX
  5
90F0
  8
AM_0
 10
508.00186528833592
 20
141.68954424086641
 30
0.0
 70
    32
  0
VERTEX
  5
90F1
  8
AM_0
 10
508.00086528833572
 20
141.68554424086639
 30
0.0
 70
    32
  0
VERTEX
  5
90F2
  8
AM_0
 10
508.00086528833572
 20
141.6815442408664
 30
0.0
 70
    32
  0
VERTEX
  5
90F3
  8
AM_0
 10
507.99986528833591
 20
141.67754424086641
 30
0.0
 70
    32
  0
VERTEX
  5
90F4
  8
AM_0
 10
507.99986528833591
 20
141.67254424086619
 30
0.0
 70
    32
  0
VERTEX
  5
90F5
  8
AM_0
 10
507.99986528833591
 20
141.6685442408664
 30
0.0
 70
    32
  0
VERTEX
  5
90F6
  8
AM_0
 10
507.99886528833571
 20
141.66454424086621
 30
0.0
 70
    32
  0
VERTEX
  5
90F7
  8
AM_0
 10
507.99886528833571
 20
141.66054424086639
 30
0.0
 70
    32
  0
VERTEX
  5
90F8
  8
AM_0
 10
507.99886528833571
 20
141.65554424086639
 30
0.0
 70
    32
  0
VERTEX
  5
90F9
  8
AM_0
 10
507.99886528833571
 20
141.6515442408664
 30
0.0
 70
    32
  0
VERTEX
  5
90FA
  8
AM_0
 10
507.9978652883363
 20
141.64754424086641
 30
0.0
 70
    32
  0
VERTEX
  5
90FB
  8
AM_0
 10
507.9978652883363
 20
141.64354424086619
 30
0.0
 70
    32
  0
VERTEX
  5
90FC
  8
AM_0
 10
507.9978652883363
 20
141.63854424086631
 30
0.0
 70
    32
  0
VERTEX
  5
90FD
  8
AM_0
 10
507.9978652883363
 20
141.6345442408664
 30
0.0
 70
    32
  0
VERTEX
  5
90FE
  8
AM_0
 10
507.9978652883363
 20
141.63054424086641
 30
0.0
 70
    32
  0
VERTEX
  5
90FF
  8
AM_0
 10
507.9978652883363
 20
141.62554424086619
 30
0.0
 70
    32
  0
VERTEX
  5
9100
  8
AM_0
 10
507.9978652883363
 20
141.6215442408664
 30
0.0
 70
    32
  0
VERTEX
  5
9101
  8
AM_0
 10
507.9978652883363
 20
141.61754424086641
 30
0.0
 70
    32
  0
VERTEX
  5
9102
  8
AM_0
 10
507.9978652883363
 20
141.6135442408663
 30
0.0
 70
    32
  0
VERTEX
  5
9103
  8
AM_0
 10
507.9978652883363
 20
141.60854424086639
 30
0.0
 70
    32
  0
VERTEX
  5
9104
  8
AM_0
 10
507.99886528833571
 20
141.60454424086609
 30
0.0
 70
    32
  0
VERTEX
  5
9105
  8
AM_0
 10
507.99886528833571
 20
141.60054424086641
 30
0.0
 70
    32
  0
VERTEX
  5
9106
  8
AM_0
 10
507.99886528833571
 20
141.59654424086619
 30
0.0
 70
    32
  0
VERTEX
  5
9107
  8
AM_0
 10
507.99886528833571
 20
141.59154424086631
 30
0.0
 70
    32
  0
VERTEX
  5
9108
  8
AM_0
 10
507.99986528833591
 20
141.58754424086641
 30
0.0
 70
    32
  0
VERTEX
  5
9109
  8
AM_0
 10
507.99986528833591
 20
141.5835442408663
 30
0.0
 70
    32
  0
VERTEX
  5
910A
  8
AM_0
 10
507.99986528833591
 20
141.5795442408664
 30
0.0
 70
    32
  0
VERTEX
  5
910B
  8
AM_0
 10
508.00086528833572
 20
141.5745442408664
 30
0.0
 70
    32
  0
VERTEX
  5
910C
  8
AM_0
 10
508.00086528833572
 20
141.57054424086641
 30
0.0
 70
    32
  0
VERTEX
  5
910D
  8
AM_0
 10
508.00086528833572
 20
141.56654424086619
 30
0.0
 70
    32
  0
VERTEX
  5
910E
  8
AM_0
 10
508.00186528833592
 20
141.5625442408649
 30
0.0
 70
    32
  0
VERTEX
  5
910F
  8
AM_0
 10
508.00186528833592
 20
141.55754424086609
 30
0.0
 70
    32
  0
VERTEX
  5
9110
  8
AM_0
 10
508.00286528833641
 20
141.55354424086639
 30
0.0
 70
    32
  0
VERTEX
  5
9111
  8
AM_0
 10
508.00286528833641
 20
141.5495442408664
 30
0.0
 70
    32
  0
VERTEX
  5
9112
  8
AM_0
 10
508.00386528833582
 20
141.54554424086641
 30
0.0
 70
    32
  0
VERTEX
  5
9113
  8
AM_0
 10
508.00386528833582
 20
141.54054424086641
 30
0.0
 70
    32
  0
VERTEX
  5
9114
  8
AM_0
 10
508.00486528833642
 20
141.53654424086619
 30
0.0
 70
    32
  0
VERTEX
  5
9115
  8
AM_0
 10
508.00486528833642
 20
141.5325442408664
 30
0.0
 70
    32
  0
VERTEX
  5
9116
  8
AM_0
 10
508.00586528833583
 20
141.52854424086621
 30
0.0
 70
    32
  0
VERTEX
  5
9117
  8
AM_0
 10
508.00586528833583
 20
141.52354424086641
 30
0.0
 70
    32
  0
VERTEX
  5
9118
  8
AM_0
 10
508.00686528833643
 20
141.5195442408662
 30
0.0
 70
    32
  0
VERTEX
  5
9119
  8
AM_0
 10
508.00686528833643
 20
141.5155442408664
 30
0.0
 70
    32
  0
VERTEX
  5
911A
  8
AM_0
 10
508.00786528833572
 20
141.51154424086641
 30
0.0
 70
    32
  0
SEQEND
  5
911B
  8
AM_0
  0
LINE
  5
911C
  8
AM_0
 10
520.9979123534107
 20
142.87128095684011
 30
0.0
 11
510.49791235340479
 21
142.87128095684011
 31
0.0
  0
POLYLINE
  5
911D
  8
AM_0
 66
     1
 10
0.0
 20
0.0
 30
0.0
 70
     8
  0
VERTEX
  5
911E
  8
AM_0
 10
508.00786528833572
 20
96.750944240866374
 30
0.0
 70
    32
  0
VERTEX
  5
911F
  8
AM_0
 10
508.00886528833593
 20
96.74674424086642
 30
0.0
 70
    32
  0
VERTEX
  5
9120
  8
AM_0
 10
508.00986528833567
 20
96.742444240866305
 30
0.0
 70
    32
  0
VERTEX
  5
9121
  8
AM_0
 10
508.01086528833588
 20
96.738244240866493
 30
0.0
 70
    32
  0
VERTEX
  5
9122
  8
AM_0
 10
508.01186528833642
 20
96.733944240866364
 30
0.0
 70
    32
  0
VERTEX
  5
9123
  8
AM_0
 10
508.01286528833589
 20
96.729744240866282
 30
0.0
 70
    32
  0
VERTEX
  5
9124
  8
AM_0
 10
508.01386528833638
 20
96.725444240866452
 30
0.0
 70
    32
  0
VERTEX
  5
9125
  8
AM_0
 10
508.01486528833573
 20
96.721244240866369
 30
0.0
 70
    32
  0
VERTEX
  5
9126
  8
AM_0
 10
508.01586528833559
 20
96.717044240866414
 30
0.0
 70
    32
  0
VERTEX
  5
9127
  8
AM_0
 10
508.01686528833568
 20
96.712744240866485
 30
0.0
 70
    32
  0
VERTEX
  5
9128
  8
AM_0
 10
508.01786528833537
 20
96.708544240866416
 30
0.0
 70
    32
  0
VERTEX
  5
9129
  8
AM_0
 10
508.01886528833569
 20
96.704344240866433
 30
0.0
 70
    32
  0
VERTEX
  5
912A
  8
AM_0
 10
508.0198652883364
 20
96.700044240866475
 30
0.0
 70
    32
  0
VERTEX
  5
912B
  8
AM_0
 10
508.02086528833559
 20
96.695844240865213
 30
0.0
 70
    32
  0
VERTEX
  5
912C
  8
AM_0
 10
508.0218652883359
 20
96.69164424086641
 30
0.0
 70
    32
  0
VERTEX
  5
912D
  8
AM_0
 10
508.02286528833662
 20
96.687444240867251
 30
0.0
 70
    32
  0
VERTEX
  5
912E
  8
AM_0
 10
508.0238652883358
 20
96.683244240866486
 30
0.0
 70
    32
  0
VERTEX
  5
912F
  8
AM_0
 10
508.02586528833569
 20
96.679044240866276
 30
0.0
 70
    32
  0
VERTEX
  5
9130
  8
AM_0
 10
508.02686528833641
 20
96.674844240866349
 30
0.0
 70
    32
  0
VERTEX
  5
9131
  8
AM_0
 10
508.0278652883357
 20
96.670744240866284
 30
0.0
 70
    32
  0
VERTEX
  5
9132
  8
AM_0
 10
508.02886528833642
 20
96.666544240866486
 30
0.0
 70
    32
  0
VERTEX
  5
9133
  8
AM_0
 10
508.02986528833571
 20
96.662344240866517
 30
0.0
 70
    32
  0
VERTEX
  5
9134
  8
AM_0
 10
508.03186528833561
 20
96.658244240866424
 30
0.0
 70
    32
  0
VERTEX
  5
9135
  8
AM_0
 10
508.03286528833581
 20
96.654044240865289
 30
0.0
 70
    32
  0
VERTEX
  5
9136
  8
AM_0
 10
508.03386528833641
 20
96.64994424086629
 30
0.0
 70
    32
  0
VERTEX
  5
9137
  8
AM_0
 10
508.03586528833642
 20
96.645844240866396
 30
0.0
 70
    32
  0
VERTEX
  5
9138
  8
AM_0
 10
508.03686528833572
 20
96.641744240866274
 30
0.0
 70
    32
  0
VERTEX
  5
9139
  8
AM_0
 10
508.03786528833598
 20
96.63754424086649
 30
0.0
 70
    32
  0
VERTEX
  5
913A
  8
AM_0
 10
508.03986528833587
 20
96.633544240866286
 30
0.0
 70
    32
  0
VERTEX
  5
913B
  8
AM_0
 10
508.04086528833659
 20
96.629444240866462
 30
0.0
 70
    32
  0
VERTEX
  5
913C
  8
AM_0
 10
508.04286528833637
 20
96.625344240866283
 30
0.0
 70
    32
  0
VERTEX
  5
913D
  8
AM_0
 10
508.04386528833572
 20
96.621244240866474
 30
0.0
 70
    32
  0
VERTEX
  5
913E
  8
AM_0
 10
508.04586528833568
 20
96.617244240866285
 30
0.0
 70
    32
  0
VERTEX
  5
913F
  8
AM_0
 10
508.04686528833543
 20
96.61314424086649
 30
0.0
 70
    32
  0
VERTEX
  5
9140
  8
AM_0
 10
508.04886528833589
 20
96.609144240866286
 30
0.0
 70
    32
  0
VERTEX
  5
9141
  8
AM_0
 10
508.05086528833567
 20
96.605144240866494
 30
0.0
 70
    32
  0
VERTEX
  5
9142
  8
AM_0
 10
508.05186528833639
 20
96.60114424086629
 30
0.0
 70
    32
  0
VERTEX
  5
9143
  8
AM_0
 10
508.0538652883356
 20
96.597144240866371
 30
0.0
 70
    32
  0
VERTEX
  5
9144
  8
AM_0
 10
508.0558652883355
 20
96.593144240866593
 30
0.0
 70
    32
  0
VERTEX
  5
9145
  8
AM_0
 10
508.05786528833642
 20
96.589144240865167
 30
0.0
 70
    32
  0
VERTEX
  5
9146
  8
AM_0
 10
508.0588652883356
 20
96.585244240866501
 30
0.0
 70
    32
  0
VERTEX
  5
9147
  8
AM_0
 10
508.0608652883364
 20
96.581244240866425
 30
0.0
 70
    32
  0
VERTEX
  5
9148
  8
AM_0
 10
508.06286528833567
 20
96.577344240866282
 30
0.0
 70
    32
  0
VERTEX
  5
9149
  8
AM_0
 10
508.06486528833648
 20
96.573344240866504
 30
0.0
 70
    32
  0
VERTEX
  5
914A
  8
AM_0
 10
508.06686528833598
 20
96.569444240866417
 30
0.0
 70
    32
  0
VERTEX
  5
914B
  8
AM_0
 10
508.06886528833593
 20
96.565544240866302
 30
0.0
 70
    32
  0
VERTEX
  5
914C
  8
AM_0
 10
508.07086528833582
 20
96.561644240866485
 30
0.0
 70
    32
  0
VERTEX
  5
914D
  8
AM_0
 10
508.07286528833572
 20
96.557744240866512
 30
0.0
 70
    32
  0
VERTEX
  5
914E
  8
AM_0
 10
508.07486528833562
 20
96.553844240866283
 30
0.0
 70
    32
  0
VERTEX
  5
914F
  8
AM_0
 10
508.07686528833568
 20
96.549944240866452
 30
0.0
 70
    32
  0
VERTEX
  5
9150
  8
AM_0
 10
508.07886528833569
 20
96.546144240866425
 30
0.0
 70
    32
  0
VERTEX
  5
9151
  8
AM_0
 10
508.0808652883365
 20
96.542244240866424
 30
0.0
 70
    32
  0
VERTEX
  5
9152
  8
AM_0
 10
508.08286528833651
 20
96.538444240866284
 30
0.0
 70
    32
  0
VERTEX
  5
9153
  8
AM_0
 10
508.08486528833538
 20
96.534644240866484
 30
0.0
 70
    32
  0
VERTEX
  5
9154
  8
AM_0
 10
508.0868652883359
 20
96.530744240866369
 30
0.0
 70
    32
  0
VERTEX
  5
9155
  8
AM_0
 10
508.08886528833568
 20
96.526944240866527
 30
0.0
 70
    32
  0
VERTEX
  5
9156
  8
AM_0
 10
508.09086528833581
 20
96.523144240866245
 30
0.0
 70
    32
  0
VERTEX
  5
9157
  8
AM_0
 10
508.09286528833582
 20
96.519444240866292
 30
0.0
 70
    32
  0
VERTEX
  5
9158
  8
AM_0
 10
508.09486528833571
 20
96.515644240866379
 30
0.0
 70
    32
  0
VERTEX
  5
9159
  8
AM_0
 10
508.09786528833581
 20
96.511844240866495
 30
0.0
 70
    32
  0
VERTEX
  5
915A
  8
AM_0
 10
508.09986528833588
 20
96.508144240866415
 30
0.0
 70
    32
  0
VERTEX
  5
915B
  8
AM_0
 10
508.10186528833572
 20
96.504344240866487
 30
0.0
 70
    32
  0
VERTEX
  5
915C
  8
AM_0
 10
508.10386528833573
 20
96.500644240866436
 30
0.0
 70
    32
  0
VERTEX
  5
915D
  8
AM_0
 10
508.10686528833588
 20
96.496944240866284
 30
0.0
 70
    32
  0
VERTEX
  5
915E
  8
AM_0
 10
508.10886528833589
 20
96.493144240866286
 30
0.0
 70
    32
  0
VERTEX
  5
915F
  8
AM_0
 10
508.11086528833567
 20
96.489444240866504
 30
0.0
 70
    32
  0
VERTEX
  5
9160
  8
AM_0
 10
508.11286528833568
 20
96.4858442408663
 30
0.0
 70
    32
  0
VERTEX
  5
9161
  8
AM_0
 10
508.1158652883359
 20
96.482144240866376
 30
0.0
 70
    32
  0
VERTEX
  5
9162
  8
AM_0
 10
508.11786528833591
 20
96.478444240866438
 30
0.0
 70
    32
  0
VERTEX
  5
9163
  8
AM_0
 10
508.11986528833569
 20
96.474844240866503
 30
0.0
 70
    32
  0
VERTEX
  5
9164
  8
AM_0
 10
508.12286528833539
 20
96.471144240866451
 30
0.0
 70
    32
  0
VERTEX
  5
9165
  8
AM_0
 10
508.12486528833591
 20
96.467544240866445
 30
0.0
 70
    32
  0
VERTEX
  5
9166
  8
AM_0
 10
508.12786528833658
 20
96.463844240866464
 30
0.0
 70
    32
  0
VERTEX
  5
9167
  8
AM_0
 10
508.12986528833562
 20
96.460244240866487
 30
0.0
 70
    32
  0
VERTEX
  5
9168
  8
AM_0
 10
508.1318652883354
 20
96.456644240866467
 30
0.0
 70
    32
  0
VERTEX
  5
9169
  8
AM_0
 10
508.13486528833602
 20
96.453044240866461
 30
0.0
 70
    32
  0
VERTEX
  5
916A
  8
AM_0
 10
508.13686528833648
 20
96.449544240866359
 30
0.0
 70
    32
  0
VERTEX
  5
916B
  8
AM_0
 10
508.13986528833573
 20
96.445944240866496
 30
0.0
 70
    32
  0
VERTEX
  5
916C
  8
AM_0
 10
508.14186528833568
 20
96.442344240866305
 30
0.0
 70
    32
  0
VERTEX
  5
916D
  8
AM_0
 10
508.14486528833589
 20
96.438844240866274
 30
0.0
 70
    32
  0
VERTEX
  5
916E
  8
AM_0
 10
508.1468652883359
 20
96.435344240866314
 30
0.0
 70
    32
  0
VERTEX
  5
916F
  8
AM_0
 10
508.1498652883364
 20
96.431844240866624
 30
0.0
 70
    32
  0
VERTEX
  5
9170
  8
AM_0
 10
508.15286528833622
 20
96.428244240866604
 30
0.0
 70
    32
  0
VERTEX
  5
9171
  8
AM_0
 10
508.15486528833623
 20
96.424844240866406
 30
0.0
 70
    32
  0
VERTEX
  5
9172
  8
AM_0
 10
508.15786528833581
 20
96.421344240866475
 30
0.0
 70
    32
  0
VERTEX
  5
9173
  8
AM_0
 10
508.15986528833582
 20
96.417844240866373
 30
0.0
 70
    32
  0
VERTEX
  5
9174
  8
AM_0
 10
508.16286528833598
 20
96.414344240866285
 30
0.0
 70
    32
  0
VERTEX
  5
9175
  8
AM_0
 10
508.16586528833659
 20
96.410944240866428
 30
0.0
 70
    32
  0
VERTEX
  5
9176
  8
AM_0
 10
508.16786528833558
 20
96.407444240866496
 30
0.0
 70
    32
  0
VERTEX
  5
9177
  8
AM_0
 10
508.17086528833619
 20
96.404044240866483
 30
0.0
 70
    32
  0
VERTEX
  5
9178
  8
AM_0
 10
508.17386528833589
 20
96.400644240866484
 30
0.0
 70
    32
  0
VERTEX
  5
9179
  8
AM_0
 10
508.17586528833567
 20
96.397244240866442
 30
0.0
 70
    32
  0
VERTEX
  5
917A
  8
AM_0
 10
508.17886528833651
 20
96.393844240866486
 30
0.0
 70
    32
  0
VERTEX
  5
917B
  8
AM_0
 10
508.1818652883361
 20
96.390444240866358
 30
0.0
 70
    32
  0
VERTEX
  5
917C
  8
AM_0
 10
508.18486528833569
 20
96.387144240866434
 30
0.0
 70
    32
  0
VERTEX
  5
917D
  8
AM_0
 10
508.18686528833581
 20
96.383744240866264
 30
0.0
 70
    32
  0
VERTEX
  5
917E
  8
AM_0
 10
508.1898652883346
 20
96.380444240866382
 30
0.0
 70
    32
  0
VERTEX
  5
917F
  8
AM_0
 10
508.19286528833618
 20
96.377044240866496
 30
0.0
 70
    32
  0
VERTEX
  5
9180
  8
AM_0
 10
508.19586528833588
 20
96.373744240866415
 30
0.0
 70
    32
  0
VERTEX
  5
9181
  8
AM_0
 10
508.19786528833612
 20
96.370444240866419
 30
0.0
 70
    32
  0
VERTEX
  5
9182
  8
AM_0
 10
508.20086528833542
 20
96.367144240866494
 30
0.0
 70
    32
  0
VERTEX
  5
9183
  8
AM_0
 10
508.20386528833598
 20
96.363844240866413
 30
0.0
 70
    32
  0
VERTEX
  5
9184
  8
AM_0
 10
508.20686528833619
 20
96.360544240866375
 30
0.0
 70
    32
  0
VERTEX
  5
9185
  8
AM_0
 10
508.20986528833538
 20
96.357244240866407
 30
0.0
 70
    32
  0
VERTEX
  5
9186
  8
AM_0
 10
508.21286528833571
 20
96.354044240866486
 30
0.0
 70
    32
  0
VERTEX
  5
9187
  8
AM_0
 10
508.21586528833632
 20
96.350744240866419
 30
0.0
 70
    32
  0
VERTEX
  5
9188
  8
AM_0
 10
508.21886528833539
 20
96.347544240866441
 30
0.0
 70
    32
  0
VERTEX
  5
9189
  8
AM_0
 10
508.22186528833572
 20
96.344344240866491
 30
0.0
 70
    32
  0
VERTEX
  5
918A
  8
AM_0
 10
508.22386528833658
 20
96.341144240866413
 30
0.0
 70
    32
  0
VERTEX
  5
918B
  8
AM_0
 10
508.22686528833628
 20
96.337944240866506
 30
0.0
 70
    32
  0
VERTEX
  5
918C
  8
AM_0
 10
508.22986528833542
 20
96.334744240866414
 30
0.0
 70
    32
  0
VERTEX
  5
918D
  8
AM_0
 10
508.23286528833597
 20
96.33154424086635
 30
0.0
 70
    32
  0
VERTEX
  5
918E
  8
AM_0
 10
508.2358652883363
 20
96.328344240866286
 30
0.0
 70
    32
  0
VERTEX
  5
918F
  8
AM_0
 10
508.23886528833538
 20
96.325244240866496
 30
0.0
 70
    32
  0
VERTEX
  5
9190
  8
AM_0
 10
508.2418652883361
 20
96.322044240866262
 30
0.0
 70
    32
  0
VERTEX
  5
9191
  8
AM_0
 10
508.24486528833631
 20
96.318944240866486
 30
0.0
 70
    32
  0
VERTEX
  5
9192
  8
AM_0
 10
508.2478652883355
 20
96.315844240866426
 30
0.0
 70
    32
  0
VERTEX
  5
9193
  8
AM_0
 10
508.2508652883356
 20
96.312644240866433
 30
0.0
 70
    32
  0
VERTEX
  5
9194
  8
AM_0
 10
508.25386528833633
 20
96.3095442408666
 30
0.0
 70
    32
  0
VERTEX
  5
9195
  8
AM_0
 10
508.25686528833552
 20
96.306444240866483
 30
0.0
 70
    32
  0
VERTEX
  5
9196
  8
AM_0
 10
508.25986528833567
 20
96.303444240866355
 30
0.0
 70
    32
  0
VERTEX
  5
9197
  8
AM_0
 10
508.26386528833558
 20
96.300344240866451
 30
0.0
 70
    32
  0
VERTEX
  5
9198
  8
AM_0
 10
508.26686528833568
 20
96.297244240866462
 30
0.0
 70
    32
  0
VERTEX
  5
9199
  8
AM_0
 10
508.26986528833618
 20
96.294244240866504
 30
0.0
 70
    32
  0
VERTEX
  5
919A
  8
AM_0
 10
508.27286528833559
 20
96.291144240866416
 30
0.0
 70
    32
  0
VERTEX
  5
919B
  8
AM_0
 10
508.27586528833621
 20
96.288144240866487
 30
0.0
 70
    32
  0
VERTEX
  5
919C
  8
AM_0
 10
508.27886528833642
 20
96.285144240866487
 30
0.0
 70
    32
  0
VERTEX
  5
919D
  8
AM_0
 10
508.28186528833561
 20
96.282144240866273
 30
0.0
 70
    32
  0
VERTEX
  5
919E
  8
AM_0
 10
508.28486528833611
 20
96.279144240866486
 30
0.0
 70
    32
  0
VERTEX
  5
919F
  8
AM_0
 10
508.28886528833573
 20
96.276144240866486
 30
0.0
 70
    32
  0
VERTEX
  5
91A0
  8
AM_0
 10
508.29186528833623
 20
96.273144240866273
 30
0.0
 70
    32
  0
VERTEX
  5
91A1
  8
AM_0
 10
508.29486528833451
 20
96.270144240866387
 30
0.0
 70
    32
  0
VERTEX
  5
91A2
  8
AM_0
 10
508.29786528833569
 20
96.267244240866376
 30
0.0
 70
    32
  0
VERTEX
  5
91A3
  8
AM_0
 10
508.3008652883363
 20
96.264244240866503
 30
0.0
 70
    32
  0
VERTEX
  5
91A4
  8
AM_0
 10
508.30386528833452
 20
96.261344240866265
 30
0.0
 70
    32
  0
VERTEX
  5
91A5
  8
AM_0
 10
508.30786528833642
 20
96.258344240866407
 30
0.0
 70
    32
  0
VERTEX
  5
91A6
  8
AM_0
 10
508.31086528833561
 20
96.25544424086641
 30
0.0
 70
    32
  0
VERTEX
  5
91A7
  8
AM_0
 10
508.3138652883361
 20
96.252544240866584
 30
0.0
 70
    32
  0
VERTEX
  5
91A8
  8
AM_0
 10
508.31686528833637
 20
96.249644240866417
 30
0.0
 70
    32
  0
VERTEX
  5
91A9
  8
AM_0
 10
508.32086528833628
 20
96.246744240866491
 30
0.0
 70
    32
  0
VERTEX
  5
91AA
  8
AM_0
 10
508.32386528833638
 20
96.243844240866423
 30
0.0
 70
    32
  0
VERTEX
  5
91AB
  8
AM_0
 10
508.32686528833568
 20
96.241044240865307
 30
0.0
 70
    32
  0
VERTEX
  5
91AC
  8
AM_0
 10
508.32986528833618
 20
96.238144240866418
 30
0.0
 70
    32
  0
VERTEX
  5
91AD
  8
AM_0
 10
508.33386528833609
 20
96.235344240866496
 30
0.0
 70
    32
  0
VERTEX
  5
91AE
  8
AM_0
 10
508.33686528833641
 20
96.232444240866414
 30
0.0
 70
    32
  0
VERTEX
  5
91AF
  8
AM_0
 10
508.33986528833572
 20
96.229644240866264
 30
0.0
 70
    32
  0
VERTEX
  5
91B0
  8
AM_0
 10
508.34386528833647
 20
96.226844240866285
 30
0.0
 70
    32
  0
VERTEX
  5
91B1
  8
AM_0
 10
508.34686528833601
 20
96.224044240866306
 30
0.0
 70
    32
  0
VERTEX
  5
91B2
  8
AM_0
 10
508.34986528833628
 20
96.221244240866369
 30
0.0
 70
    32
  0
VERTEX
  5
91B3
  8
AM_0
 10
508.35386528833612
 20
96.218444240866418
 30
0.0
 70
    32
  0
VERTEX
  5
91B4
  8
AM_0
 10
508.35686528833628
 20
96.215644240866496
 30
0.0
 70
    32
  0
VERTEX
  5
91B5
  8
AM_0
 10
508.35986528833649
 20
96.212844240866374
 30
0.0
 70
    32
  0
VERTEX
  5
91B6
  8
AM_0
 10
508.36386528833629
 20
96.210144240867294
 30
0.0
 70
    32
  0
VERTEX
  5
91B7
  8
AM_0
 10
508.3668652883357
 20
96.20734424086649
 30
0.0
 70
    32
  0
VERTEX
  5
91B8
  8
AM_0
 10
508.36986528833631
 20
96.204644240866429
 30
0.0
 70
    32
  0
VERTEX
  5
91B9
  8
AM_0
 10
508.37386528833571
 20
96.201844240866521
 30
0.0
 70
    32
  0
VERTEX
  5
91BA
  8
AM_0
 10
508.37686528833632
 20
96.199144240866488
 30
0.0
 70
    32
  0
VERTEX
  5
91BB
  8
AM_0
 10
508.38086528833583
 20
96.196444240866484
 30
0.0
 70
    32
  0
VERTEX
  5
91BC
  8
AM_0
 10
508.38386528833638
 20
96.193744240866451
 30
0.0
 70
    32
  0
VERTEX
  5
91BD
  8
AM_0
 10
508.38686528833642
 20
96.191044240866432
 30
0.0
 70
    32
  0
VERTEX
  5
91BE
  8
AM_0
 10
508.3908652883365
 20
96.188344240866414
 30
0.0
 70
    32
  0
VERTEX
  5
91BF
  8
AM_0
 10
508.39386528833569
 20
96.185644240866424
 30
0.0
 70
    32
  0
VERTEX
  5
91C0
  8
AM_0
 10
508.39786528833662
 20
96.183044240866522
 30
0.0
 70
    32
  0
VERTEX
  5
91C1
  8
AM_0
 10
508.40086528833621
 20
96.180344240866489
 30
0.0
 70
    32
  0
VERTEX
  5
91C2
  8
AM_0
 10
508.40486528833571
 20
96.177644240866485
 30
0.0
 70
    32
  0
VERTEX
  5
91C3
  8
AM_0
 10
508.40786528833632
 20
96.175044240866384
 30
0.0
 70
    32
  0
VERTEX
  5
91C4
  8
AM_0
 10
508.41086528833642
 20
96.172444240866497
 30
0.0
 70
    32
  0
VERTEX
  5
91C5
  8
AM_0
 10
508.41486528833639
 20
96.169844240866297
 30
0.0
 70
    32
  0
VERTEX
  5
91C6
  8
AM_0
 10
508.41786528833637
 20
96.167144240866264
 30
0.0
 70
    32
  0
VERTEX
  5
91C7
  8
AM_0
 10
508.42186528833639
 20
96.164544240866277
 30
0.0
 70
    32
  0
VERTEX
  5
91C8
  8
AM_0
 10
508.42486528833558
 20
96.161944240866504
 30
0.0
 70
    32
  0
VERTEX
  5
91C9
  8
AM_0
 10
508.42886528833651
 20
96.159444240866335
 30
0.0
 70
    32
  0
VERTEX
  5
91CA
  8
AM_0
 10
508.43186528833559
 20
96.156844240866434
 30
0.0
 70
    32
  0
VERTEX
  5
91CB
  8
AM_0
 10
508.43586528833652
 20
96.154244240866362
 30
0.0
 70
    32
  0
VERTEX
  5
91CC
  8
AM_0
 10
508.43886528833627
 20
96.151744240866265
 30
0.0
 70
    32
  0
VERTEX
  5
91CD
  8
AM_0
 10
508.44286528833572
 20
96.149144240866406
 30
0.0
 70
    32
  0
VERTEX
  5
91CE
  8
AM_0
 10
508.44586528833628
 20
96.146644240866394
 30
0.0
 70
    32
  0
VERTEX
  5
91CF
  8
AM_0
 10
508.44986528833567
 20
96.144044240866364
 30
0.0
 70
    32
  0
VERTEX
  5
91D0
  8
AM_0
 10
508.45286528833628
 20
96.141544240866381
 30
0.0
 70
    32
  0
VERTEX
  5
91D1
  8
AM_0
 10
508.45686528833568
 20
96.139044240866255
 30
0.0
 70
    32
  0
VERTEX
  5
91D2
  8
AM_0
 10
508.4608652883357
 20
96.136544240866513
 30
0.0
 70
    32
  0
VERTEX
  5
91D3
  8
AM_0
 10
508.4638652883358
 20
96.134044240866359
 30
0.0
 70
    32
  0
VERTEX
  5
91D4
  8
AM_0
 10
508.4678652883361
 20
96.131544240866418
 30
0.0
 70
    32
  0
VERTEX
  5
91D5
  8
AM_0
 10
508.47086528833643
 20
96.129044240866293
 30
0.0
 70
    32
  0
VERTEX
  5
91D6
  8
AM_0
 10
508.47486528833622
 20
96.126644240865176
 30
0.0
 70
    32
  0
VERTEX
  5
91D7
  8
AM_0
 10
508.47786528833649
 20
96.124144240866485
 30
0.0
 70
    32
  0
VERTEX
  5
91D8
  8
AM_0
 10
508.48186528833622
 20
96.121744240866306
 30
0.0
 70
    32
  0
VERTEX
  5
91D9
  8
AM_0
 10
508.48586528833567
 20
96.119244240866408
 30
0.0
 70
    32
  0
VERTEX
  5
91DA
  8
AM_0
 10
508.48886528833629
 20
96.116844240866513
 30
0.0
 70
    32
  0
VERTEX
  5
91DB
  8
AM_0
 10
508.4928652883363
 20
96.114444240866305
 30
0.0
 70
    32
  0
VERTEX
  5
91DC
  8
AM_0
 10
508.4958652883364
 20
96.111944240866407
 30
0.0
 70
    32
  0
VERTEX
  5
91DD
  8
AM_0
 10
508.49986528833631
 20
96.109544240866427
 30
0.0
 70
    32
  0
VERTEX
  5
91DE
  8
AM_0
 10
508.50386528833633
 20
96.107144240866376
 30
0.0
 70
    32
  0
VERTEX
  5
91DF
  8
AM_0
 10
508.50686528833631
 20
96.10474424086641
 30
0.0
 70
    32
  0
VERTEX
  5
91E0
  8
AM_0
 10
508.51086528833639
 20
96.102344240866373
 30
0.0
 70
    32
  0
VERTEX
  5
91E1
  8
AM_0
 10
508.51486528833573
 20
96.100044240866282
 30
0.0
 70
    32
  0
VERTEX
  5
91E2
  8
AM_0
 10
508.5178652883364
 20
96.097644240866487
 30
0.0
 70
    32
  0
VERTEX
  5
91E3
  8
AM_0
 10
508.5218652883363
 20
96.09524424086645
 30
0.0
 70
    32
  0
VERTEX
  5
91E4
  8
AM_0
 10
508.52586528833581
 20
96.092944240866416
 30
0.0
 70
    32
  0
VERTEX
  5
91E5
  8
AM_0
 10
508.52886528833642
 20
96.090544240866436
 30
0.0
 70
    32
  0
VERTEX
  5
91E6
  8
AM_0
 10
508.53286528833581
 20
96.088244240866274
 30
0.0
 70
    32
  0
VERTEX
  5
91E7
  8
AM_0
 10
508.53686528833572
 20
96.085944240866411
 30
0.0
 70
    32
  0
VERTEX
  5
91E8
  8
AM_0
 10
508.53986528833587
 20
96.083644240866306
 30
0.0
 70
    32
  0
VERTEX
  5
91E9
  8
AM_0
 10
508.54386528833618
 20
96.081344240866585
 30
0.0
 70
    32
  0
VERTEX
  5
91EA
  8
AM_0
 10
508.54786528833569
 20
96.078944240865155
 30
0.0
 70
    32
  0
VERTEX
  5
91EB
  8
AM_0
 10
508.5508652883363
 20
96.076744240866503
 30
0.0
 70
    32
  0
VERTEX
  5
91EC
  8
AM_0
 10
508.5548652883358
 20
96.074444240865205
 30
0.0
 70
    32
  0
VERTEX
  5
91ED
  8
AM_0
 10
508.55886528833571
 20
96.072144240866265
 30
0.0
 70
    32
  0
VERTEX
  5
91EE
  8
AM_0
 10
508.56186528833598
 20
96.069844240866487
 30
0.0
 70
    32
  0
VERTEX
  5
91EF
  8
AM_0
 10
508.56586528833623
 20
96.067544240866411
 30
0.0
 70
    32
  0
VERTEX
  5
91F0
  8
AM_0
 10
508.56986528833642
 20
96.065344240866466
 30
0.0
 70
    32
  0
VERTEX
  5
91F1
  8
AM_0
 10
508.57386528833649
 20
96.063044240866418
 30
0.0
 70
    32
  0
VERTEX
  5
91F2
  8
AM_0
 10
508.57686528833568
 20
96.060844240866416
 30
0.0
 70
    32
  0
VERTEX
  5
91F3
  8
AM_0
 10
508.5808652883365
 20
96.058644240866514
 30
0.0
 70
    32
  0
VERTEX
  5
91F4
  8
AM_0
 10
508.58486528833629
 20
96.056344240866409
 30
0.0
 70
    32
  0
VERTEX
  5
91F5
  8
AM_0
 10
508.58786528833571
 20
96.054144240866492
 30
0.0
 70
    32
  0
VERTEX
  5
91F6
  8
AM_0
 10
508.59186528833641
 20
96.05194424086649
 30
0.0
 70
    32
  0
VERTEX
  5
91F7
  8
AM_0
 10
508.59586528833643
 20
96.049744240866474
 30
0.0
 70
    32
  0
VERTEX
  5
91F8
  8
AM_0
 10
508.59986528833582
 20
96.047544240866273
 30
0.0
 70
    32
  0
VERTEX
  5
91F9
  8
AM_0
 10
508.60286528833637
 20
96.045344240866484
 30
0.0
 70
    32
  0
VERTEX
  5
91FA
  8
AM_0
 10
508.60686528833588
 20
96.043244240866585
 30
0.0
 70
    32
  0
VERTEX
  5
91FB
  8
AM_0
 10
508.61086528833607
 20
96.041044240866484
 30
0.0
 70
    32
  0
VERTEX
  5
91FC
  8
AM_0
 10
508.61486528833569
 20
96.038844240866453
 30
0.0
 70
    32
  0
VERTEX
  5
91FD
  8
AM_0
 10
508.61886528833651
 20
96.036744240866412
 30
0.0
 70
    32
  0
VERTEX
  5
91FE
  8
AM_0
 10
508.62186528833581
 20
96.034544240866452
 30
0.0
 70
    32
  0
VERTEX
  5
91FF
  8
AM_0
 10
508.62586528833572
 20
96.032444240866496
 30
0.0
 70
    32
  0
VERTEX
  5
9200
  8
AM_0
 10
508.62986528833642
 20
96.030244240866281
 30
0.0
 70
    32
  0
VERTEX
  5
9201
  8
AM_0
 10
508.63386528833638
 20
96.028144240865288
 30
0.0
 70
    32
  0
VERTEX
  5
9202
  8
AM_0
 10
508.63686528833648
 20
96.026044240866625
 30
0.0
 70
    32
  0
VERTEX
  5
9203
  8
AM_0
 10
508.64086528833627
 20
96.023944240866385
 30
0.0
 70
    32
  0
VERTEX
  5
9204
  8
AM_0
 10
508.64486528833589
 20
96.021844240865306
 30
0.0
 70
    32
  0
VERTEX
  5
9205
  8
AM_0
 10
508.64886528833631
 20
96.019744240866487
 30
0.0
 70
    32
  0
VERTEX
  5
9206
  8
AM_0
 10
508.6528652883357
 20
96.017644240866275
 30
0.0
 70
    32
  0
VERTEX
  5
9207
  8
AM_0
 10
508.65686528833641
 20
96.015544240866447
 30
0.0
 70
    32
  0
VERTEX
  5
9208
  8
AM_0
 10
508.65986528833452
 20
96.013444240866491
 30
0.0
 70
    32
  0
VERTEX
  5
9209
  8
AM_0
 10
508.66386528833573
 20
96.011444240866282
 30
0.0
 70
    32
  0
VERTEX
  5
920A
  8
AM_0
 10
508.66786528833649
 20
96.009344240866483
 30
0.0
 70
    32
  0
VERTEX
  5
920B
  8
AM_0
 10
508.67186528833628
 20
96.007244240866484
 30
0.0
 70
    32
  0
VERTEX
  5
920C
  8
AM_0
 10
508.6758652883359
 20
96.005244240866503
 30
0.0
 70
    32
  0
VERTEX
  5
920D
  8
AM_0
 10
508.67886528833651
 20
96.003144240866277
 30
0.0
 70
    32
  0
VERTEX
  5
920E
  8
AM_0
 10
508.6828652883359
 20
96.001144240866495
 30
0.0
 70
    32
  0
VERTEX
  5
920F
  8
AM_0
 10
508.68686528833632
 20
95.999144240866485
 30
0.0
 70
    32
  0
VERTEX
  5
9210
  8
AM_0
 10
508.69086528833571
 20
95.997144240866476
 30
0.0
 70
    32
  0
VERTEX
  5
9211
  8
AM_0
 10
508.69486528833642
 20
95.995144240866395
 30
0.0
 70
    32
  0
VERTEX
  5
9212
  8
AM_0
 10
508.69886528833558
 20
95.993144240866414
 30
0.0
 70
    32
  0
VERTEX
  5
9213
  8
AM_0
 10
508.7028652883364
 20
95.991144240866404
 30
0.0
 70
    32
  0
VERTEX
  5
9214
  8
AM_0
 10
508.7058652883365
 20
95.989144240866381
 30
0.0
 70
    32
  0
VERTEX
  5
9215
  8
AM_0
 10
508.7098652883364
 20
95.987144240866485
 30
0.0
 70
    32
  0
VERTEX
  5
9216
  8
AM_0
 10
508.71386528833602
 20
95.985144240866305
 30
0.0
 70
    32
  0
VERTEX
  5
9217
  8
AM_0
 10
508.71786528833582
 20
95.983144240866295
 30
0.0
 70
    32
  0
VERTEX
  5
9218
  8
AM_0
 10
508.72186528833572
 20
95.98124424086636
 30
0.0
 70
    32
  0
VERTEX
  5
9219
  8
AM_0
 10
508.72586528833642
 20
95.97924424086645
 30
0.0
 70
    32
  0
VERTEX
  5
921A
  8
AM_0
 10
508.72986528833542
 20
95.977344240866515
 30
0.0
 70
    32
  0
VERTEX
  5
921B
  8
AM_0
 10
508.73386528833572
 20
95.975344240865198
 30
0.0
 70
    32
  0
VERTEX
  5
921C
  8
AM_0
 10
508.7378652883358
 20
95.973444240866414
 30
0.0
 70
    32
  0
VERTEX
  5
921D
  8
AM_0
 10
508.74086528833641
 20
95.971544240866407
 30
0.0
 70
    32
  0
VERTEX
  5
921E
  8
AM_0
 10
508.74486528833597
 20
95.969544240866284
 30
0.0
 70
    32
  0
VERTEX
  5
921F
  8
AM_0
 10
508.74886528833571
 20
95.967644240866335
 30
0.0
 70
    32
  0
VERTEX
  5
9220
  8
AM_0
 10
508.75286528833641
 20
95.965744240866385
 30
0.0
 70
    32
  0
VERTEX
  5
9221
  8
AM_0
 10
508.75686528833648
 20
95.963844240866493
 30
0.0
 70
    32
  0
VERTEX
  5
9222
  8
AM_0
 10
508.76086528833588
 20
95.961944240866359
 30
0.0
 70
    32
  0
VERTEX
  5
9223
  8
AM_0
 10
508.76486528833573
 20
95.960044240865102
 30
0.0
 70
    32
  0
VERTEX
  5
9224
  8
AM_0
 10
508.76886528833569
 20
95.958244240866449
 30
0.0
 70
    32
  0
VERTEX
  5
9225
  8
AM_0
 10
508.7728652883365
 20
95.956344240866486
 30
0.0
 70
    32
  0
VERTEX
  5
9226
  8
AM_0
 10
508.7768652883363
 20
95.954444240866437
 30
0.0
 70
    32
  0
VERTEX
  5
9227
  8
AM_0
 10
508.78086528833592
 20
95.95264424086659
 30
0.0
 70
    32
  0
VERTEX
  5
9228
  8
AM_0
 10
508.78386528833641
 20
95.950744240866314
 30
0.0
 70
    32
  0
VERTEX
  5
9229
  8
AM_0
 10
508.78786528833592
 20
95.948944240866282
 30
0.0
 70
    32
  0
VERTEX
  5
922A
  8
AM_0
 10
508.79186528833588
 20
95.947044240866276
 30
0.0
 70
    32
  0
VERTEX
  5
922B
  8
AM_0
 10
508.79586528833568
 20
95.945244240865293
 30
0.0
 70
    32
  0
VERTEX
  5
922C
  8
AM_0
 10
508.79986528833558
 20
95.943444240866398
 30
0.0
 70
    32
  0
VERTEX
  5
922D
  8
AM_0
 10
508.8038652883356
 20
95.941544240866278
 30
0.0
 70
    32
  0
VERTEX
  5
922E
  8
AM_0
 10
508.80786528833642
 20
95.939744240866375
 30
0.0
 70
    32
  0
VERTEX
  5
922F
  8
AM_0
 10
508.81186528833581
 20
95.937944240866273
 30
0.0
 70
    32
  0
VERTEX
  5
9230
  8
AM_0
 10
508.81586528833571
 20
95.936144240866284
 30
0.0
 70
    32
  0
VERTEX
  5
9231
  8
AM_0
 10
508.81986528833562
 20
95.934344240866267
 30
0.0
 70
    32
  0
VERTEX
  5
9232
  8
AM_0
 10
508.82386528833638
 20
95.932544240866264
 30
0.0
 70
    32
  0
VERTEX
  5
9233
  8
AM_0
 10
508.82786528833589
 20
95.930844240866406
 30
0.0
 70
    32
  0
VERTEX
  5
9234
  8
AM_0
 10
508.83186528833568
 20
95.929044240866418
 30
0.0
 70
    32
  0
VERTEX
  5
9235
  8
AM_0
 10
508.83586528833558
 20
95.927244240865079
 30
0.0
 70
    32
  0
VERTEX
  5
9236
  8
AM_0
 10
508.8398652883364
 20
95.925444240866426
 30
0.0
 70
    32
  0
VERTEX
  5
9237
  8
AM_0
 10
508.84386528833551
 20
95.923744240866583
 30
0.0
 70
    32
  0
VERTEX
  5
9238
  8
AM_0
 10
508.84786528833592
 20
95.921944240866452
 30
0.0
 70
    32
  0
VERTEX
  5
9239
  8
AM_0
 10
508.85186528833572
 20
95.920244240866424
 30
0.0
 70
    32
  0
VERTEX
  5
923A
  8
AM_0
 10
508.85586528833568
 20
95.918544240866495
 30
0.0
 70
    32
  0
VERTEX
  5
923B
  8
AM_0
 10
508.85986528833649
 20
95.916744240866464
 30
0.0
 70
    32
  0
VERTEX
  5
923C
  8
AM_0
 10
508.86386528833538
 20
95.91504424086537
 30
0.0
 70
    32
  0
VERTEX
  5
923D
  8
AM_0
 10
508.86786528833568
 20
95.91334424086628
 30
0.0
 70
    32
  0
VERTEX
  5
923E
  8
AM_0
 10
508.87186528833581
 20
95.911644240866281
 30
0.0
 70
    32
  0
VERTEX
  5
923F
  8
AM_0
 10
508.87586528833572
 20
95.909944240866409
 30
0.0
 70
    32
  0
VERTEX
  5
9240
  8
AM_0
 10
508.87986528833551
 20
95.908244240866466
 30
0.0
 70
    32
  0
VERTEX
  5
9241
  8
AM_0
 10
508.88386528833638
 20
95.90654424086658
 30
0.0
 70
    32
  0
VERTEX
  5
9242
  8
AM_0
 10
508.88786528833589
 20
95.90484424086641
 30
0.0
 70
    32
  0
VERTEX
  5
9243
  8
AM_0
 10
508.89186528833568
 20
95.903144240866453
 30
0.0
 70
    32
  0
VERTEX
  5
9244
  8
AM_0
 10
508.8958652883357
 20
95.901444240866425
 30
0.0
 70
    32
  0
VERTEX
  5
9245
  8
AM_0
 10
508.89986528833651
 20
95.899744240866482
 30
0.0
 70
    32
  0
VERTEX
  5
9246
  8
AM_0
 10
508.90386528833591
 20
95.898144240866245
 30
0.0
 70
    32
  0
VERTEX
  5
9247
  8
AM_0
 10
508.9078652883357
 20
95.896444240866259
 30
0.0
 70
    32
  0
VERTEX
  5
9248
  8
AM_0
 10
508.91186528833572
 20
95.89484424086649
 30
0.0
 70
    32
  0
VERTEX
  5
9249
  8
AM_0
 10
508.91586528833659
 20
95.893144240866349
 30
0.0
 70
    32
  0
VERTEX
  5
924A
  8
AM_0
 10
508.91986528833542
 20
95.891544240866494
 30
0.0
 70
    32
  0
VERTEX
  5
924B
  8
AM_0
 10
508.92386528833589
 20
95.889844240866282
 30
0.0
 70
    32
  0
VERTEX
  5
924C
  8
AM_0
 10
508.92786528833568
 20
95.888244240866285
 30
0.0
 70
    32
  0
VERTEX
  5
924D
  8
AM_0
 10
508.93186528833621
 20
95.886644240866488
 30
0.0
 70
    32
  0
VERTEX
  5
924E
  8
AM_0
 10
508.9358652883364
 20
95.885044240866506
 30
0.0
 70
    32
  0
VERTEX
  5
924F
  8
AM_0
 10
508.93986528833551
 20
95.883344240866435
 30
0.0
 70
    32
  0
VERTEX
  5
9250
  8
AM_0
 10
508.94386528833593
 20
95.881744240866297
 30
0.0
 70
    32
  0
VERTEX
  5
9251
  8
AM_0
 10
508.94786528833561
 20
95.880144240866287
 30
0.0
 70
    32
  0
VERTEX
  5
9252
  8
AM_0
 10
508.95186528833619
 20
95.878544240866447
 30
0.0
 70
    32
  0
VERTEX
  5
9253
  8
AM_0
 10
508.95586528833559
 20
95.877044240866354
 30
0.0
 70
    32
  0
VERTEX
  5
9254
  8
AM_0
 10
508.95986528833629
 20
95.875444240866287
 30
0.0
 70
    32
  0
VERTEX
  5
9255
  8
AM_0
 10
508.96386528833568
 20
95.873844240866589
 30
0.0
 70
    32
  0
VERTEX
  5
9256
  8
AM_0
 10
508.9678652883361
 20
95.872244240866436
 30
0.0
 70
    32
  0
VERTEX
  5
9257
  8
AM_0
 10
508.97186528833572
 20
95.870744240866486
 30
0.0
 70
    32
  0
VERTEX
  5
9258
  8
AM_0
 10
508.97586528833642
 20
95.869144240866277
 30
0.0
 70
    32
  0
VERTEX
  5
9259
  8
AM_0
 10
508.98086528833619
 20
95.867544240866579
 30
0.0
 70
    32
  0
VERTEX
  5
925A
  8
AM_0
 10
508.98486528833558
 20
95.866044240865278
 30
0.0
 70
    32
  0
VERTEX
  5
925B
  8
AM_0
 10
508.98886528833538
 20
95.86454424086628
 30
0.0
 70
    32
  0
VERTEX
  5
925C
  8
AM_0
 10
508.99286528833591
 20
95.862944240866426
 30
0.0
 70
    32
  0
VERTEX
  5
925D
  8
AM_0
 10
508.99686528833632
 20
95.861444240866362
 30
0.0
 70
    32
  0
VERTEX
  5
925E
  8
AM_0
 10
509.00086528833572
 20
95.859944240866284
 30
0.0
 70
    32
  0
VERTEX
  5
925F
  8
AM_0
 10
509.00486528833642
 20
95.858344240866302
 30
0.0
 70
    32
  0
VERTEX
  5
9260
  8
AM_0
 10
509.00886528833593
 20
95.856844240866408
 30
0.0
 70
    32
  0
VERTEX
  5
9261
  8
AM_0
 10
509.01286528833629
 20
95.855344240866359
 30
0.0
 70
    32
  0
VERTEX
  5
9262
  8
AM_0
 10
509.01686528833568
 20
95.85384424086628
 30
0.0
 70
    32
  0
VERTEX
  5
9263
  8
AM_0
 10
509.0208652883361
 20
95.852344240866373
 30
0.0
 70
    32
  0
VERTEX
  5
9264
  8
AM_0
 10
509.02486528833572
 20
95.850844240866493
 30
0.0
 70
    32
  0
VERTEX
  5
9265
  8
AM_0
 10
509.02886528833591
 20
95.849344240866273
 30
0.0
 70
    32
  0
VERTEX
  5
9266
  8
AM_0
 10
509.03286528833632
 20
95.847944240866454
 30
0.0
 70
    32
  0
VERTEX
  5
9267
  8
AM_0
 10
509.03786528833598
 20
95.846444240866276
 30
0.0
 70
    32
  0
VERTEX
  5
9268
  8
AM_0
 10
509.04186528833628
 20
95.844944240866582
 30
0.0
 70
    32
  0
VERTEX
  5
9269
  8
AM_0
 10
509.04586528833619
 20
95.843444240866447
 30
0.0
 70
    32
  0
VERTEX
  5
926A
  8
AM_0
 10
509.04986528833598
 20
95.842044240866414
 30
0.0
 70
    32
  0
VERTEX
  5
926B
  8
AM_0
 10
509.05386528833458
 20
95.840544240866407
 30
0.0
 70
    32
  0
VERTEX
  5
926C
  8
AM_0
 10
509.05786528833642
 20
95.839144240866275
 30
0.0
 70
    32
  0
VERTEX
  5
926D
  8
AM_0
 10
509.06186528833632
 20
95.837644240866567
 30
0.0
 70
    32
  0
VERTEX
  5
926E
  8
AM_0
 10
509.06586528833611
 20
95.836244240866435
 30
0.0
 70
    32
  0
VERTEX
  5
926F
  8
AM_0
 10
509.06986528833551
 20
95.834844240866275
 30
0.0
 70
    32
  0
VERTEX
  5
9270
  8
AM_0
 10
509.07386528833558
 20
95.833444240866427
 30
0.0
 70
    32
  0
VERTEX
  5
9271
  8
AM_0
 10
509.07886528833569
 20
95.831944240866264
 30
0.0
 70
    32
  0
VERTEX
  5
9272
  8
AM_0
 10
509.0828652883356
 20
95.830544240866431
 30
0.0
 70
    32
  0
VERTEX
  5
9273
  8
AM_0
 10
509.08686528833641
 20
95.829144240866285
 30
0.0
 70
    32
  0
VERTEX
  5
9274
  8
AM_0
 10
509.09086528833632
 20
95.827744240866565
 30
0.0
 70
    32
  0
VERTEX
  5
9275
  8
AM_0
 10
509.09486528833611
 20
95.826344240866362
 30
0.0
 70
    32
  0
VERTEX
  5
9276
  8
AM_0
 10
509.09886528833562
 20
95.824944240865094
 30
0.0
 70
    32
  0
VERTEX
  5
9277
  8
AM_0
 10
509.10286528833637
 20
95.823544240866426
 30
0.0
 70
    32
  0
VERTEX
  5
9278
  8
AM_0
 10
509.10686528833639
 20
95.822144240866265
 30
0.0
 70
    32
  0
VERTEX
  5
9279
  8
AM_0
 10
509.11086528833607
 20
95.820844240866407
 30
0.0
 70
    32
  0
VERTEX
  5
927A
  8
AM_0
 10
509.11586528833641
 20
95.819444240866275
 30
0.0
 70
    32
  0
VERTEX
  5
927B
  8
AM_0
 10
509.11986528833609
 20
95.818044240866428
 30
0.0
 70
    32
  0
VERTEX
  5
927C
  8
AM_0
 10
509.12386528833559
 20
95.816744240866413
 30
0.0
 70
    32
  0
VERTEX
  5
927D
  8
AM_0
 10
509.12786528833573
 20
95.815344240866466
 30
0.0
 70
    32
  0
VERTEX
  5
927E
  8
AM_0
 10
509.13186528833648
 20
95.814044240866437
 30
0.0
 70
    32
  0
VERTEX
  5
927F
  8
AM_0
 10
509.13586528833622
 20
95.812644240866419
 30
0.0
 70
    32
  0
VERTEX
  5
9280
  8
AM_0
 10
509.1398652883363
 20
95.811344240866589
 30
0.0
 70
    32
  0
VERTEX
  5
9281
  8
AM_0
 10
509.1448652883364
 20
95.810044240866361
 30
0.0
 70
    32
  0
VERTEX
  5
9282
  8
AM_0
 10
509.14886528833631
 20
95.808644240866514
 30
0.0
 70
    32
  0
VERTEX
  5
9283
  8
AM_0
 10
509.1528652883357
 20
95.807344240866485
 30
0.0
 70
    32
  0
VERTEX
  5
9284
  8
AM_0
 10
509.15686528833641
 20
95.806044240866413
 30
0.0
 70
    32
  0
VERTEX
  5
9285
  8
AM_0
 10
509.16086528833648
 20
95.804744240866412
 30
0.0
 70
    32
  0
VERTEX
  5
9286
  8
AM_0
 10
509.16486528833622
 20
95.803444240866369
 30
0.0
 70
    32
  0
VERTEX
  5
9287
  8
AM_0
 10
509.16886528833572
 20
95.802144240866326
 30
0.0
 70
    32
  0
VERTEX
  5
9288
  8
AM_0
 10
509.17386528833617
 20
95.800844240866454
 30
0.0
 70
    32
  0
VERTEX
  5
9289
  8
AM_0
 10
509.17786528833631
 20
95.799544240866425
 30
0.0
 70
    32
  0
VERTEX
  5
928A
  8
AM_0
 10
509.1818652883357
 20
95.798244240866381
 30
0.0
 70
    32
  0
VERTEX
  5
928B
  8
AM_0
 10
509.18586528833657
 20
95.796944240866594
 30
0.0
 70
    32
  0
VERTEX
  5
928C
  8
AM_0
 10
509.18986528833642
 20
95.795644240866466
 30
0.0
 70
    32
  0
VERTEX
  5
928D
  8
AM_0
 10
509.19386528833638
 20
95.794444240866483
 30
0.0
 70
    32
  0
VERTEX
  5
928E
  8
AM_0
 10
509.19786528833572
 20
95.793144240866283
 30
0.0
 70
    32
  0
VERTEX
  5
928F
  8
AM_0
 10
509.2028652883364
 20
95.791844240866439
 30
0.0
 70
    32
  0
VERTEX
  5
9290
  8
AM_0
 10
509.20686528833568
 20
95.790644240866484
 30
0.0
 70
    32
  0
VERTEX
  5
9291
  8
AM_0
 10
509.21086528833621
 20
95.789344240866285
 30
0.0
 70
    32
  0
VERTEX
  5
9292
  8
AM_0
 10
509.21486528833651
 20
95.788144240866487
 30
0.0
 70
    32
  0
VERTEX
  5
9293
  8
AM_0
 10
509.21886528833642
 20
95.786844240866273
 30
0.0
 70
    32
  0
VERTEX
  5
9294
  8
AM_0
 10
509.22286528833621
 20
95.785644240866304
 30
0.0
 70
    32
  0
VERTEX
  5
9295
  8
AM_0
 10
509.22786528833637
 20
95.78444424086635
 30
0.0
 70
    32
  0
VERTEX
  5
9296
  8
AM_0
 10
509.23186528833628
 20
95.783144240865155
 30
0.0
 70
    32
  0
VERTEX
  5
9297
  8
AM_0
 10
509.23586528833567
 20
95.781944240866494
 30
0.0
 70
    32
  0
VERTEX
  5
9298
  8
AM_0
 10
509.23986528833598
 20
95.780744240866426
 30
0.0
 70
    32
  0
VERTEX
  5
9299
  8
AM_0
 10
509.24386528833651
 20
95.779544240866301
 30
0.0
 70
    32
  0
VERTEX
  5
929A
  8
AM_0
 10
509.24786528833641
 20
95.778344240866375
 30
0.0
 70
    32
  0
VERTEX
  5
929B
  8
AM_0
 10
509.25286528833641
 20
95.777144240866406
 30
0.0
 70
    32
  0
VERTEX
  5
929C
  8
AM_0
 10
509.25686528833648
 20
95.775944240866394
 30
0.0
 70
    32
  0
VERTEX
  5
929D
  8
AM_0
 10
509.26086528833622
 20
95.774744240866482
 30
0.0
 70
    32
  0
VERTEX
  5
929E
  8
AM_0
 10
509.26486528833618
 20
95.773544240866372
 30
0.0
 70
    32
  0
VERTEX
  5
929F
  8
AM_0
 10
509.26886528833569
 20
95.772344240866417
 30
0.0
 70
    32
  0
VERTEX
  5
92A0
  8
AM_0
 10
509.27386528833568
 20
95.771144240866505
 30
0.0
 70
    32
  0
VERTEX
  5
92A1
  8
AM_0
 10
509.2778652883361
 20
95.770044240866454
 30
0.0
 70
    32
  0
VERTEX
  5
92A2
  8
AM_0
 10
509.28186528833641
 20
95.768844240866486
 30
0.0
 70
    32
  0
VERTEX
  5
92A3
  8
AM_0
 10
509.28586528833631
 20
95.767644240866275
 30
0.0
 70
    32
  0
VERTEX
  5
92A4
  8
AM_0
 10
509.28986528833587
 20
95.766544240866395
 30
0.0
 70
    32
  0
VERTEX
  5
92A5
  8
AM_0
 10
509.29386528833612
 20
95.765344240866412
 30
0.0
 70
    32
  0
VERTEX
  5
92A6
  8
AM_0
 10
509.2988652883364
 20
95.764244240866574
 30
0.0
 70
    32
  0
VERTEX
  5
92A7
  8
AM_0
 10
509.30286528833608
 20
95.763044240866265
 30
0.0
 70
    32
  0
VERTEX
  5
92A8
  8
AM_0
 10
509.30686528833559
 20
95.761944240866427
 30
0.0
 70
    32
  0
VERTEX
  5
92A9
  8
AM_0
 10
509.31086528833657
 20
95.76074424086643
 30
0.0
 70
    32
  0
VERTEX
  5
92AA
  8
AM_0
 10
509.31486528833642
 20
95.759644240866393
 30
0.0
 70
    32
  0
VERTEX
  5
92AB
  8
AM_0
 10
509.31986528833659
 20
95.758544240866286
 30
0.0
 70
    32
  0
VERTEX
  5
92AC
  8
AM_0
 10
509.32386528833638
 20
95.757444240866405
 30
0.0
 70
    32
  0
VERTEX
  5
92AD
  8
AM_0
 10
509.32786528833589
 20
95.756244240866465
 30
0.0
 70
    32
  0
VERTEX
  5
92AE
  8
AM_0
 10
509.3318652883363
 20
95.755144240866287
 30
0.0
 70
    32
  0
VERTEX
  5
92AF
  8
AM_0
 10
509.3358652883357
 20
95.754044240866264
 30
0.0
 70
    32
  0
VERTEX
  5
92B0
  8
AM_0
 10
509.34086528833592
 20
95.75294424086637
 30
0.0
 70
    32
  0
VERTEX
  5
92B1
  8
AM_0
 10
509.34486528833571
 20
95.751844240866362
 30
0.0
 70
    32
  0
VERTEX
  5
92B2
  8
AM_0
 10
509.34886528833641
 20
95.750744240866496
 30
0.0
 70
    32
  0
VERTEX
  5
92B3
  8
AM_0
 10
509.35286528833649
 20
95.749644240866303
 30
0.0
 70
    32
  0
VERTEX
  5
92B4
  8
AM_0
 10
509.35786528833569
 20
95.748644240866255
 30
0.0
 70
    32
  0
VERTEX
  5
92B5
  8
AM_0
 10
509.3618652883365
 20
95.747544240866361
 30
0.0
 70
    32
  0
VERTEX
  5
92B6
  8
AM_0
 10
509.3658652883359
 20
95.746444240866452
 30
0.0
 70
    32
  0
VERTEX
  5
92B7
  8
AM_0
 10
509.36986528833631
 20
95.745344240866487
 30
0.0
 70
    32
  0
VERTEX
  5
92B8
  8
AM_0
 10
509.37386528833582
 20
95.744344240866596
 30
0.0
 70
    32
  0
VERTEX
  5
92B9
  8
AM_0
 10
509.37886528833582
 20
95.743244240866261
 30
0.0
 70
    32
  0
VERTEX
  5
92BA
  8
AM_0
 10
509.38286528833572
 20
95.742244240866285
 30
0.0
 70
    32
  0
VERTEX
  5
92BB
  8
AM_0
 10
509.38686528833642
 20
95.741144240866419
 30
0.0
 70
    32
  0
VERTEX
  5
92BC
  8
AM_0
 10
509.3908652883365
 20
95.740144240866428
 30
0.0
 70
    32
  0
VERTEX
  5
92BD
  8
AM_0
 10
509.39486528833589
 20
95.739044240866491
 30
0.0
 70
    32
  0
VERTEX
  5
92BE
  8
AM_0
 10
509.39986528833651
 20
95.738044240866486
 30
0.0
 70
    32
  0
VERTEX
  5
92BF
  8
AM_0
 10
509.40386528833602
 20
95.737044240866439
 30
0.0
 70
    32
  0
VERTEX
  5
92C0
  8
AM_0
 10
509.40786528833632
 20
95.735944240866274
 30
0.0
 70
    32
  0
VERTEX
  5
92C1
  8
AM_0
 10
509.41186528833572
 20
95.734944240866426
 30
0.0
 70
    32
  0
VERTEX
  5
92C2
  8
AM_0
 10
509.41686528833583
 20
95.733944240866506
 30
0.0
 70
    32
  0
VERTEX
  5
92C3
  8
AM_0
 10
509.42086528833568
 20
95.732944240866416
 30
0.0
 70
    32
  0
VERTEX
  5
92C4
  8
AM_0
 10
509.4248652883357
 20
95.731944240866497
 30
0.0
 70
    32
  0
VERTEX
  5
92C5
  8
AM_0
 10
509.42886528833628
 20
95.73094424086635
 30
0.0
 70
    32
  0
VERTEX
  5
92C6
  8
AM_0
 10
509.43286528833579
 20
95.729944240866487
 30
0.0
 70
    32
  0
VERTEX
  5
92C7
  8
AM_0
 10
509.43786528833641
 20
95.728944240866582
 30
0.0
 70
    32
  0
VERTEX
  5
92C8
  8
AM_0
 10
509.44186528833592
 20
95.727944240866407
 30
0.0
 70
    32
  0
VERTEX
  5
92C9
  8
AM_0
 10
509.44586528833622
 20
95.726944240866246
 30
0.0
 70
    32
  0
VERTEX
  5
92CA
  8
AM_0
 10
509.44986528833567
 20
95.726044240866244
 30
0.0
 70
    32
  0
VERTEX
  5
92CB
  8
AM_0
 10
509.4548652883359
 20
95.725044240866296
 30
0.0
 70
    32
  0
VERTEX
  5
92CC
  8
AM_0
 10
509.45886528833569
 20
95.72404424086649
 30
0.0
 70
    32
  0
VERTEX
  5
92CD
  8
AM_0
 10
509.46286528833571
 20
95.723144240866475
 30
0.0
 70
    32
  0
VERTEX
  5
92CE
  8
AM_0
 10
509.46686528833641
 20
95.722144240866356
 30
0.0
 70
    32
  0
VERTEX
  5
92CF
  8
AM_0
 10
509.47186528833572
 20
95.721144240866451
 30
0.0
 70
    32
  0
VERTEX
  5
92D0
  8
AM_0
 10
509.47586528833642
 20
95.720244240866407
 30
0.0
 70
    32
  0
VERTEX
  5
92D1
  8
AM_0
 10
509.47986528833542
 20
95.719244240866374
 30
0.0
 70
    32
  0
VERTEX
  5
92D2
  8
AM_0
 10
509.48386528833601
 20
95.718344240866486
 30
0.0
 70
    32
  0
VERTEX
  5
92D3
  8
AM_0
 10
509.4888652883364
 20
95.717444240865305
 30
0.0
 70
    32
  0
VERTEX
  5
92D4
  8
AM_0
 10
509.49286528833602
 20
95.716444240866394
 30
0.0
 70
    32
  0
VERTEX
  5
92D5
  8
AM_0
 10
509.49686528833581
 20
95.715544240866436
 30
0.0
 70
    32
  0
VERTEX
  5
92D6
  8
AM_0
 10
509.50086528833572
 20
95.714644240866591
 30
0.0
 70
    32
  0
VERTEX
  5
92D7
  8
AM_0
 10
509.50586528833583
 20
95.713744240866404
 30
0.0
 70
    32
  0
VERTEX
  5
92D8
  8
AM_0
 10
509.50986528833567
 20
95.712844240866417
 30
0.0
 70
    32
  0
VERTEX
  5
92D9
  8
AM_0
 10
509.51386528833638
 20
95.711944240866373
 30
0.0
 70
    32
  0
VERTEX
  5
92DA
  8
AM_0
 10
509.51786528833537
 20
95.711044240866372
 30
0.0
 70
    32
  0
VERTEX
  5
92DB
  8
AM_0
 10
509.52286528833639
 20
95.710144240866512
 30
0.0
 70
    32
  0
VERTEX
  5
92DC
  8
AM_0
 10
509.52686528833652
 20
95.709244240866411
 30
0.0
 70
    32
  0
VERTEX
  5
92DD
  8
AM_0
 10
509.53086528833592
 20
95.708344240866396
 30
0.0
 70
    32
  0
VERTEX
  5
92DE
  8
AM_0
 10
509.53486528833582
 20
95.707444240866394
 30
0.0
 70
    32
  0
VERTEX
  5
92DF
  8
AM_0
 10
509.53986528833587
 20
95.70654424086635
 30
0.0
 70
    32
  0
VERTEX
  5
92E0
  8
AM_0
 10
509.54386528833572
 20
95.705644240866363
 30
0.0
 70
    32
  0
VERTEX
  5
92E1
  8
AM_0
 10
509.54786528833569
 20
95.70484424086645
 30
0.0
 70
    32
  0
VERTEX
  5
92E2
  8
AM_0
 10
509.5518652883365
 20
95.703944240865269
 30
0.0
 70
    32
  0
VERTEX
  5
92E3
  8
AM_0
 10
509.5568652883357
 20
95.703044240866404
 30
0.0
 70
    32
  0
VERTEX
  5
92E4
  8
AM_0
 10
509.5608652883364
 20
95.702244240866349
 30
0.0
 70
    32
  0
VERTEX
  5
92E5
  8
AM_0
 10
509.56486528833631
 20
95.701344240866376
 30
0.0
 70
    32
  0
VERTEX
  5
92E6
  8
AM_0
 10
509.56886528833593
 20
95.700544240866407
 30
0.0
 70
    32
  0
VERTEX
  5
92E7
  8
AM_0
 10
509.57386528833649
 20
95.69964424086649
 30
0.0
 70
    32
  0
VERTEX
  5
92E8
  8
AM_0
 10
509.57786528833589
 20
95.698844240865199
 30
0.0
 70
    32
  0
VERTEX
  5
92E9
  8
AM_0
 10
509.58186528833568
 20
95.697944240866263
 30
0.0
 70
    32
  0
VERTEX
  5
92EA
  8
AM_0
 10
509.58586528833558
 20
95.697144240866393
 30
0.0
 70
    32
  0
VERTEX
  5
92EB
  8
AM_0
 10
509.59086528833581
 20
95.696344240866566
 30
0.0
 70
    32
  0
VERTEX
  5
92EC
  8
AM_0
 10
509.59486528833571
 20
95.695544240866425
 30
0.0
 70
    32
  0
VERTEX
  5
92ED
  8
AM_0
 10
509.59886528833658
 20
95.694644240866438
 30
0.0
 70
    32
  0
VERTEX
  5
92EE
  8
AM_0
 10
509.60386528833573
 20
95.693844240866369
 30
0.0
 70
    32
  0
VERTEX
  5
92EF
  8
AM_0
 10
509.60786528833557
 20
95.693044240866485
 30
0.0
 70
    32
  0
VERTEX
  5
92F0
  8
AM_0
 10
509.61186528833628
 20
95.692244240866373
 30
0.0
 70
    32
  0
VERTEX
  5
92F1
  8
AM_0
 10
509.61586528833578
 20
95.691444240866488
 30
0.0
 70
    32
  0
VERTEX
  5
92F2
  8
AM_0
 10
509.6208652883364
 20
95.690644240866277
 30
0.0
 70
    32
  0
VERTEX
  5
92F3
  8
AM_0
 10
509.62486528833591
 20
95.689844240866407
 30
0.0
 70
    32
  0
VERTEX
  5
92F4
  8
AM_0
 10
509.62886528833582
 20
95.689044240866437
 30
0.0
 70
    32
  0
VERTEX
  5
92F5
  8
AM_0
 10
509.63286528833561
 20
95.688244240866453
 30
0.0
 70
    32
  0
VERTEX
  5
92F6
  8
AM_0
 10
509.63786528833572
 20
95.687444240866412
 30
0.0
 70
    32
  0
VERTEX
  5
92F7
  8
AM_0
 10
509.64186528833568
 20
95.686744240866446
 30
0.0
 70
    32
  0
VERTEX
  5
92F8
  8
AM_0
 10
509.6458652883357
 20
95.685944240866363
 30
0.0
 70
    32
  0
VERTEX
  5
92F9
  8
AM_0
 10
509.65086528833581
 20
95.685144240866265
 30
0.0
 70
    32
  0
VERTEX
  5
92FA
  8
AM_0
 10
509.65486528833571
 20
95.684344240866267
 30
0.0
 70
    32
  0
VERTEX
  5
92FB
  8
AM_0
 10
509.65886528833641
 20
95.683644240866585
 30
0.0
 70
    32
  0
VERTEX
  5
92FC
  8
AM_0
 10
509.66286528833592
 20
95.68284424086643
 30
0.0
 70
    32
  0
VERTEX
  5
92FD
  8
AM_0
 10
509.66786528833558
 20
95.682144240866464
 30
0.0
 70
    32
  0
VERTEX
  5
92FE
  8
AM_0
 10
509.67186528833639
 20
95.681344240866423
 30
0.0
 70
    32
  0
VERTEX
  5
92FF
  8
AM_0
 10
509.6758652883359
 20
95.680644240866286
 30
0.0
 70
    32
  0
VERTEX
  5
9300
  8
AM_0
 10
509.68086528833538
 20
95.679844240866259
 30
0.0
 70
    32
  0
VERTEX
  5
9301
  8
AM_0
 10
509.68486528833591
 20
95.679144240866592
 30
0.0
 70
    32
  0
VERTEX
  5
9302
  8
AM_0
 10
509.68886528833571
 20
95.678444240866355
 30
0.0
 70
    32
  0
VERTEX
  5
9303
  8
AM_0
 10
509.6928652883359
 20
95.677644240866485
 30
0.0
 70
    32
  0
VERTEX
  5
9304
  8
AM_0
 10
509.69786528833572
 20
95.676944240866305
 30
0.0
 70
    32
  0
VERTEX
  5
9305
  8
AM_0
 10
509.70186528833602
 20
95.67624424086641
 30
0.0
 70
    32
  0
VERTEX
  5
9306
  8
AM_0
 10
509.70586528833559
 20
95.675544240866486
 30
0.0
 70
    32
  0
VERTEX
  5
9307
  8
AM_0
 10
509.71086528833621
 20
95.674744240866417
 30
0.0
 70
    32
  0
VERTEX
  5
9308
  8
AM_0
 10
509.7148652883356
 20
95.674044240866436
 30
0.0
 70
    32
  0
VERTEX
  5
9309
  8
AM_0
 10
509.71886528833551
 20
95.673344240866484
 30
0.0
 70
    32
  0
VERTEX
  5
930A
  8
AM_0
 10
509.72286528833592
 20
95.672644240866418
 30
0.0
 70
    32
  0
VERTEX
  5
930B
  8
AM_0
 10
509.72786528833552
 20
95.671944240866495
 30
0.0
 70
    32
  0
VERTEX
  5
930C
  8
AM_0
 10
509.73186528833588
 20
95.671244240866486
 30
0.0
 70
    32
  0
VERTEX
  5
930D
  8
AM_0
 10
509.73586528833562
 20
95.670544240866363
 30
0.0
 70
    32
  0
VERTEX
  5
930E
  8
AM_0
 10
509.74086528833578
 20
95.6699442408663
 30
0.0
 70
    32
  0
VERTEX
  5
930F
  8
AM_0
 10
509.7448652883358
 20
95.669244240866476
 30
0.0
 70
    32
  0
VERTEX
  5
9310
  8
AM_0
 10
509.74886528833611
 20
95.668544240866453
 30
0.0
 70
    32
  0
VERTEX
  5
9311
  8
AM_0
 10
509.75286528833561
 20
95.667844240866359
 30
0.0
 70
    32
  0
VERTEX
  5
9312
  8
AM_0
 10
509.75786528833612
 20
95.667144240866264
 30
0.0
 70
    32
  0
VERTEX
  5
9313
  8
AM_0
 10
509.76186528833642
 20
95.666544240866486
 30
0.0
 70
    32
  0
VERTEX
  5
9314
  8
AM_0
 10
509.76586528833451
 20
95.665844240866491
 30
0.0
 70
    32
  0
VERTEX
  5
9315
  8
AM_0
 10
509.7708652883361
 20
95.665244240866414
 30
0.0
 70
    32
  0
VERTEX
  5
9316
  8
AM_0
 10
509.7748652883356
 20
95.664544240866263
 30
0.0
 70
    32
  0
VERTEX
  5
9317
  8
AM_0
 10
509.77886528833591
 20
95.663844240866453
 30
0.0
 70
    32
  0
VERTEX
  5
9318
  8
AM_0
 10
509.78286528833632
 20
95.663244240866419
 30
0.0
 70
    32
  0
VERTEX
  5
9319
  8
AM_0
 10
509.78786528833592
 20
95.662644240866413
 30
0.0
 70
    32
  0
VERTEX
  5
931A
  8
AM_0
 10
509.79186528833628
 20
95.661944240866575
 30
0.0
 70
    32
  0
VERTEX
  5
931B
  8
AM_0
 10
509.79586528833607
 20
95.661344240866427
 30
0.0
 70
    32
  0
VERTEX
  5
931C
  8
AM_0
 10
509.8008652883363
 20
95.660644240866489
 30
0.0
 70
    32
  0
VERTEX
  5
931D
  8
AM_0
 10
509.80486528833609
 20
95.660044240866426
 30
0.0
 70
    32
  0
VERTEX
  5
931E
  8
AM_0
 10
509.80886528833599
 20
95.659444240866364
 30
0.0
 70
    32
  0
VERTEX
  5
931F
  8
AM_0
 10
509.81386528833622
 20
95.658844240866316
 30
0.0
 70
    32
  0
VERTEX
  5
9320
  8
AM_0
 10
509.81786528833601
 20
95.658244240866438
 30
0.0
 70
    32
  0
VERTEX
  5
9321
  8
AM_0
 10
509.82186528833557
 20
95.657544240866429
 30
0.0
 70
    32
  0
VERTEX
  5
9322
  8
AM_0
 10
509.82686528833568
 20
95.65694424086638
 30
0.0
 70
    32
  0
VERTEX
  5
9323
  8
AM_0
 10
509.8308652883365
 20
95.656344240866417
 30
0.0
 70
    32
  0
VERTEX
  5
9324
  8
AM_0
 10
509.83486528833458
 20
95.655744240866369
 30
0.0
 70
    32
  0
VERTEX
  5
9325
  8
AM_0
 10
509.83886528833642
 20
95.655144240866335
 30
0.0
 70
    32
  0
VERTEX
  5
9326
  8
AM_0
 10
509.84386528833562
 20
95.654544240866414
 30
0.0
 70
    32
  0
VERTEX
  5
9327
  8
AM_0
 10
509.84786528833638
 20
95.653944240866466
 30
0.0
 70
    32
  0
VERTEX
  5
9328
  8
AM_0
 10
509.85186528833611
 20
95.65334424086636
 30
0.0
 70
    32
  0
VERTEX
  5
9329
  8
AM_0
 10
509.85686528833639
 20
95.652844240866585
 30
0.0
 70
    32
  0
VERTEX
  5
932A
  8
AM_0
 10
509.86086528833619
 20
95.652244240866494
 30
0.0
 70
    32
  0
VERTEX
  5
932B
  8
AM_0
 10
509.86486528833569
 20
95.651644240866418
 30
0.0
 70
    32
  0
VERTEX
  5
932C
  8
AM_0
 10
509.86986528833631
 20
95.651044240866483
 30
0.0
 70
    32
  0
VERTEX
  5
932D
  8
AM_0
 10
509.87386528833582
 20
95.650544240866409
 30
0.0
 70
    32
  0
VERTEX
  5
932E
  8
AM_0
 10
509.87786528833561
 20
95.649944240866247
 30
0.0
 70
    32
  0
VERTEX
  5
932F
  8
AM_0
 10
509.88186528833643
 20
95.649344240865133
 30
0.0
 70
    32
  0
VERTEX
  5
9330
  8
AM_0
 10
509.88686528833563
 20
95.648844240866453
 30
0.0
 70
    32
  0
VERTEX
  5
9331
  8
AM_0
 10
509.89086528833639
 20
95.648244240866276
 30
0.0
 70
    32
  0
VERTEX
  5
9332
  8
AM_0
 10
509.8948652883364
 20
95.647744240866487
 30
0.0
 70
    32
  0
VERTEX
  5
9333
  8
AM_0
 10
509.89986528833651
 20
95.64714424086641
 30
0.0
 70
    32
  0
VERTEX
  5
9334
  8
AM_0
 10
509.90386528833642
 20
95.646644240865129
 30
0.0
 70
    32
  0
VERTEX
  5
9335
  8
AM_0
 10
509.90786528833621
 20
95.646144240866292
 30
0.0
 70
    32
  0
VERTEX
  5
9336
  8
AM_0
 10
509.91286528833638
 20
95.645544240866414
 30
0.0
 70
    32
  0
VERTEX
  5
9337
  8
AM_0
 10
509.91686528833628
 20
95.645044240866454
 30
0.0
 70
    32
  0
VERTEX
  5
9338
  8
AM_0
 10
509.92086528833607
 20
95.644544240866324
 30
0.0
 70
    32
  0
VERTEX
  5
9339
  8
AM_0
 10
509.9258652883363
 20
95.643944240866404
 30
0.0
 70
    32
  0
VERTEX
  5
933A
  8
AM_0
 10
509.92986528833609
 20
95.64344424086643
 30
0.0
 70
    32
  0
VERTEX
  5
933B
  8
AM_0
 10
509.93386528833571
 20
95.642944240866484
 30
0.0
 70
    32
  0
VERTEX
  5
933C
  8
AM_0
 10
509.9388652883361
 20
95.642444240866496
 30
0.0
 70
    32
  0
VERTEX
  5
933D
  8
AM_0
 10
509.94286528833572
 20
95.641944240866437
 30
0.0
 70
    32
  0
VERTEX
  5
933E
  8
AM_0
 10
509.94686528833648
 20
95.64144424086642
 30
0.0
 70
    32
  0
VERTEX
  5
933F
  8
AM_0
 10
509.95186528833619
 20
95.640944240866418
 30
0.0
 70
    32
  0
VERTEX
  5
9340
  8
AM_0
 10
509.95586528833661
 20
95.640444240866358
 30
0.0
 70
    32
  0
VERTEX
  5
9341
  8
AM_0
 10
509.9598652883364
 20
95.639944240866285
 30
0.0
 70
    32
  0
VERTEX
  5
9342
  8
AM_0
 10
509.96386528833631
 20
95.639444240866396
 30
0.0
 70
    32
  0
VERTEX
  5
9343
  8
AM_0
 10
509.96886528833642
 20
95.638944240866465
 30
0.0
 70
    32
  0
VERTEX
  5
9344
  8
AM_0
 10
509.97286528833638
 20
95.638544240866395
 30
0.0
 70
    32
  0
VERTEX
  5
9345
  8
AM_0
 10
509.97686528833611
 20
95.638044240866435
 30
0.0
 70
    32
  0
VERTEX
  5
9346
  8
AM_0
 10
509.98186528833639
 20
95.63754424086649
 30
0.0
 70
    32
  0
VERTEX
  5
9347
  8
AM_0
 10
509.98586528833567
 20
95.637144240866277
 30
0.0
 70
    32
  0
VERTEX
  5
9348
  8
AM_0
 10
509.9898652883362
 20
95.636644240866488
 30
0.0
 70
    32
  0
VERTEX
  5
9349
  8
AM_0
 10
509.9948652883358
 20
95.636144240866486
 30
0.0
 70
    32
  0
VERTEX
  5
934A
  8
AM_0
 10
509.99886528833611
 20
95.635744240866487
 30
0.0
 70
    32
  0
VERTEX
  5
934B
  8
AM_0
 10
510.00286528833658
 20
95.635344240866274
 30
0.0
 70
    32
  0
VERTEX
  5
934C
  8
AM_0
 10
510.00786528833572
 20
95.634844240866485
 30
0.0
 70
    32
  0
VERTEX
  5
934D
  8
AM_0
 10
510.01186528833648
 20
95.634444240866415
 30
0.0
 70
    32
  0
VERTEX
  5
934E
  8
AM_0
 10
510.01586528833627
 20
95.633944240866484
 30
0.0
 70
    32
  0
VERTEX
  5
934F
  8
AM_0
 10
510.0208652883361
 20
95.633544240866428
 30
0.0
 70
    32
  0
VERTEX
  5
9350
  8
AM_0
 10
510.02486528833629
 20
95.633144240866372
 30
0.0
 70
    32
  0
VERTEX
  5
9351
  8
AM_0
 10
510.02886528833642
 20
95.632744240866259
 30
0.0
 70
    32
  0
VERTEX
  5
9352
  8
AM_0
 10
510.03386528833641
 20
95.63224424086637
 30
0.0
 70
    32
  0
VERTEX
  5
9353
  8
AM_0
 10
510.03786528833638
 20
95.631844240866414
 30
0.0
 70
    32
  0
VERTEX
  5
9354
  8
AM_0
 10
510.04186528833623
 20
95.631444240866486
 30
0.0
 70
    32
  0
VERTEX
  5
9355
  8
AM_0
 10
510.04686528833628
 20
95.631044240866274
 30
0.0
 70
    32
  0
VERTEX
  5
9356
  8
AM_0
 10
510.0508652883363
 20
95.63064424086636
 30
0.0
 70
    32
  0
VERTEX
  5
9357
  8
AM_0
 10
510.05486528833569
 20
95.630244240866475
 30
0.0
 70
    32
  0
VERTEX
  5
9358
  8
AM_0
 10
510.05986528833643
 20
95.629844240866476
 30
0.0
 70
    32
  0
VERTEX
  5
9359
  8
AM_0
 10
510.06386528833582
 20
95.629544240866394
 30
0.0
 70
    32
  0
VERTEX
  5
935A
  8
AM_0
 10
510.06786528833572
 20
95.629144240866395
 30
0.0
 70
    32
  0
VERTEX
  5
935B
  8
AM_0
 10
510.07286528833612
 20
95.628744240866425
 30
0.0
 70
    32
  0
VERTEX
  5
935C
  8
AM_0
 10
510.07686528833568
 20
95.628344240866426
 30
0.0
 70
    32
  0
VERTEX
  5
935D
  8
AM_0
 10
510.08086528833638
 20
95.628044240866302
 30
0.0
 70
    32
  0
VERTEX
  5
935E
  8
AM_0
 10
510.08586528833558
 20
95.627644240866417
 30
0.0
 70
    32
  0
VERTEX
  5
935F
  8
AM_0
 10
510.08986528833651
 20
95.627244240866276
 30
0.0
 70
    32
  0
VERTEX
  5
9360
  8
AM_0
 10
510.09386528833642
 20
95.62694424086645
 30
0.0
 70
    32
  0
VERTEX
  5
9361
  8
AM_0
 10
510.09886528833658
 20
95.626544240866437
 30
0.0
 70
    32
  0
VERTEX
  5
9362
  8
AM_0
 10
510.10286528833637
 20
95.626244240866484
 30
0.0
 70
    32
  0
VERTEX
  5
9363
  8
AM_0
 10
510.10686528833628
 20
95.62594424086636
 30
0.0
 70
    32
  0
VERTEX
  5
9364
  8
AM_0
 10
510.11186528833628
 20
95.625544240866404
 30
0.0
 70
    32
  0
VERTEX
  5
9365
  8
AM_0
 10
510.11586528833578
 20
95.625244240866351
 30
0.0
 70
    32
  0
VERTEX
  5
9366
  8
AM_0
 10
510.11986528833631
 20
95.624944240866427
 30
0.0
 70
    32
  0
VERTEX
  5
9367
  8
AM_0
 10
510.12486528833642
 20
95.624644240866417
 30
0.0
 70
    32
  0
VERTEX
  5
9368
  8
AM_0
 10
510.12886528833633
 20
95.624244240866403
 30
0.0
 70
    32
  0
VERTEX
  5
9369
  8
AM_0
 10
510.13286528833572
 20
95.623944240866464
 30
0.0
 70
    32
  0
VERTEX
  5
936A
  8
AM_0
 10
510.13786528833589
 20
95.623644240866284
 30
0.0
 70
    32
  0
VERTEX
  5
936B
  8
AM_0
 10
510.14186528833619
 20
95.623344240866416
 30
0.0
 70
    32
  0
VERTEX
  5
936C
  8
AM_0
 10
510.1458652883357
 20
95.623044240866449
 30
0.0
 70
    32
  0
VERTEX
  5
936D
  8
AM_0
 10
510.15086528833569
 20
95.622744240866297
 30
0.0
 70
    32
  0
VERTEX
  5
936E
  8
AM_0
 10
510.15486528833571
 20
95.622444240866415
 30
0.0
 70
    32
  0
VERTEX
  5
936F
  8
AM_0
 10
510.15886528833641
 20
95.62214424086649
 30
0.0
 70
    32
  0
VERTEX
  5
9370
  8
AM_0
 10
510.16386528833573
 20
95.621844240866267
 30
0.0
 70
    32
  0
VERTEX
  5
9371
  8
AM_0
 10
510.16786528833637
 20
95.621644240866374
 30
0.0
 70
    32
  0
VERTEX
  5
9372
  8
AM_0
 10
510.17186528833639
 20
95.621344240866406
 30
0.0
 70
    32
  0
VERTEX
  5
9373
  8
AM_0
 10
510.1768652883365
 20
95.621044240866283
 30
0.0
 70
    32
  0
VERTEX
  5
9374
  8
AM_0
 10
510.18086528833737
 20
95.620744240866259
 30
0.0
 70
    32
  0
VERTEX
  5
9375
  8
AM_0
 10
510.18486528833603
 20
95.620544240866508
 30
0.0
 70
    32
  0
VERTEX
  5
9376
  8
AM_0
 10
510.18986528833642
 20
95.620244240866484
 30
0.0
 70
    32
  0
VERTEX
  5
9377
  8
AM_0
 10
510.19386528833633
 20
95.620044240866264
 30
0.0
 70
    32
  0
VERTEX
  5
9378
  8
AM_0
 10
510.19786528833572
 20
95.619744240866396
 30
0.0
 70
    32
  0
VERTEX
  5
9379
  8
AM_0
 10
510.2028652883364
 20
95.619544240866404
 30
0.0
 70
    32
  0
VERTEX
  5
937A
  8
AM_0
 10
510.20686528833568
 20
95.619244240866394
 30
0.0
 70
    32
  0
VERTEX
  5
937B
  8
AM_0
 10
510.2108652883357
 20
95.619044240866273
 30
0.0
 70
    32
  0
VERTEX
  5
937C
  8
AM_0
 10
510.21586528833598
 20
95.618744240866491
 30
0.0
 70
    32
  0
VERTEX
  5
937D
  8
AM_0
 10
510.21986528833571
 20
95.618544240866427
 30
0.0
 70
    32
  0
VERTEX
  5
937E
  8
AM_0
 10
510.22386528833641
 20
95.618344240866406
 30
0.0
 70
    32
  0
VERTEX
  5
937F
  8
AM_0
 10
510.22886528833573
 20
95.618144240866286
 30
0.0
 70
    32
  0
VERTEX
  5
9380
  8
AM_0
 10
510.23286528833569
 20
95.617844240866489
 30
0.0
 70
    32
  0
VERTEX
  5
9381
  8
AM_0
 10
510.23686528833542
 20
95.617644240866412
 30
0.0
 70
    32
  0
VERTEX
  5
9382
  8
AM_0
 10
510.2418652883357
 20
95.617444240866277
 30
0.0
 70
    32
  0
VERTEX
  5
9383
  8
AM_0
 10
510.2458652883364
 20
95.617244240866285
 30
0.0
 70
    32
  0
VERTEX
  5
9384
  8
AM_0
 10
510.24986528833642
 20
95.617044240866505
 30
0.0
 70
    32
  0
VERTEX
  5
9385
  8
AM_0
 10
510.25486528833642
 20
95.616844240866371
 30
0.0
 70
    32
  0
VERTEX
  5
9386
  8
AM_0
 10
510.25886528833593
 20
95.616644240866506
 30
0.0
 70
    32
  0
VERTEX
  5
9387
  8
AM_0
 10
510.26286528833617
 20
95.616444240866244
 30
0.0
 70
    32
  0
VERTEX
  5
9388
  8
AM_0
 10
510.26786528833537
 20
95.616244240866294
 30
0.0
 70
    32
  0
VERTEX
  5
9389
  8
AM_0
 10
510.2718652883363
 20
95.616044240866486
 30
0.0
 70
    32
  0
VERTEX
  5
938A
  8
AM_0
 10
510.27586528833581
 20
95.615844240866437
 30
0.0
 70
    32
  0
VERTEX
  5
938B
  8
AM_0
 10
510.28086528833597
 20
95.615644240866274
 30
0.0
 70
    32
  0
VERTEX
  5
938C
  8
AM_0
 10
510.28486528833582
 20
95.615444240866282
 30
0.0
 70
    32
  0
VERTEX
  5
938D
  8
AM_0
 10
510.28886528833573
 20
95.615344240866278
 30
0.0
 70
    32
  0
VERTEX
  5
938E
  8
AM_0
 10
510.29386528833572
 20
95.615144240865305
 30
0.0
 70
    32
  0
VERTEX
  5
938F
  8
AM_0
 10
510.29786528833569
 20
95.614944240866436
 30
0.0
 70
    32
  0
VERTEX
  5
9390
  8
AM_0
 10
510.30286528833591
 20
95.614844240866475
 30
0.0
 70
    32
  0
VERTEX
  5
9391
  8
AM_0
 10
510.3068652883357
 20
95.614644240866426
 30
0.0
 70
    32
  0
VERTEX
  5
9392
  8
AM_0
 10
510.3108652883364
 20
95.614444240866504
 30
0.0
 70
    32
  0
VERTEX
  5
9393
  8
AM_0
 10
510.31586528833571
 20
95.614344240866373
 30
0.0
 70
    32
  0
VERTEX
  5
9394
  8
AM_0
 10
510.31986528833647
 20
95.614144240866381
 30
0.0
 70
    32
  0
VERTEX
  5
9395
  8
AM_0
 10
510.32386528833649
 20
95.614044240866434
 30
0.0
 70
    32
  0
VERTEX
  5
9396
  8
AM_0
 10
510.32886528833569
 20
95.613844240866428
 30
0.0
 70
    32
  0
VERTEX
  5
9397
  8
AM_0
 10
510.33286528833651
 20
95.613744240866325
 30
0.0
 70
    32
  0
VERTEX
  5
9398
  8
AM_0
 10
510.3368652883359
 20
95.613644240866279
 30
0.0
 70
    32
  0
VERTEX
  5
9399
  8
AM_0
 10
510.34186528833641
 20
95.613444240866372
 30
0.0
 70
    32
  0
VERTEX
  5
939A
  8
AM_0
 10
510.34586528833643
 20
95.613344240865288
 30
0.0
 70
    32
  0
VERTEX
  5
939B
  8
AM_0
 10
510.34986528833588
 20
95.613244240866493
 30
0.0
 70
    32
  0
VERTEX
  5
939C
  8
AM_0
 10
510.35486528833638
 20
95.613144240866418
 30
0.0
 70
    32
  0
VERTEX
  5
939D
  8
AM_0
 10
510.35886528833589
 20
95.613044240866586
 30
0.0
 70
    32
  0
VERTEX
  5
939E
  8
AM_0
 10
510.36286528833568
 20
95.612944240866426
 30
0.0
 70
    32
  0
VERTEX
  5
939F
  8
AM_0
 10
510.36786528833591
 20
95.612744240866277
 30
0.0
 70
    32
  0
VERTEX
  5
93A0
  8
AM_0
 10
510.37186528833558
 20
95.612644240866487
 30
0.0
 70
    32
  0
VERTEX
  5
93A1
  8
AM_0
 10
510.37586528833572
 20
95.61254424086637
 30
0.0
 70
    32
  0
VERTEX
  5
93A2
  8
AM_0
 10
510.38086528833571
 20
95.612444240865287
 30
0.0
 70
    32
  0
VERTEX
  5
93A3
  8
AM_0
 10
510.38486528833567
 20
95.612444240865287
 30
0.0
 70
    32
  0
VERTEX
  5
93A4
  8
AM_0
 10
510.38886528833558
 20
95.612344240866335
 30
0.0
 70
    32
  0
VERTEX
  5
93A5
  8
AM_0
 10
510.39386528833569
 20
95.612244240866417
 30
0.0
 70
    32
  0
VERTEX
  5
93A6
  8
AM_0
 10
510.39786528833639
 20
95.612144240866485
 30
0.0
 70
    32
  0
VERTEX
  5
93A7
  8
AM_0
 10
510.4018652883355
 20
95.612044240865089
 30
0.0
 70
    32
  0
VERTEX
  5
93A8
  8
AM_0
 10
510.40686528833641
 20
95.612044240865089
 30
0.0
 70
    32
  0
VERTEX
  5
93A9
  8
AM_0
 10
510.41086528833551
 20
95.611944240866407
 30
0.0
 70
    32
  0
VERTEX
  5
93AA
  8
AM_0
 10
510.41486528833622
 20
95.611844240866276
 30
0.0
 70
    32
  0
VERTEX
  5
93AB
  8
AM_0
 10
510.4198652883353
 20
95.611844240866276
 30
0.0
 70
    32
  0
VERTEX
  5
93AC
  8
AM_0
 10
510.42386528833589
 20
95.611744240866301
 30
0.0
 70
    32
  0
VERTEX
  5
93AD
  8
AM_0
 10
510.42886528833651
 20
95.611644240866482
 30
0.0
 70
    32
  0
VERTEX
  5
93AE
  8
AM_0
 10
510.4328652883359
 20
95.611644240866482
 30
0.0
 70
    32
  0
VERTEX
  5
93AF
  8
AM_0
 10
510.43686528833581
 20
95.611544240866451
 30
0.0
 70
    32
  0
VERTEX
  5
93B0
  8
AM_0
 10
510.44186528833592
 20
95.611544240866451
 30
0.0
 70
    32
  0
VERTEX
  5
93B1
  8
AM_0
 10
510.44586528833588
 20
95.611444240866362
 30
0.0
 70
    32
  0
VERTEX
  5
93B2
  8
AM_0
 10
510.44986528833567
 20
95.611444240866362
 30
0.0
 70
    32
  0
VERTEX
  5
93B3
  8
AM_0
 10
510.4548652883359
 20
95.611344240866444
 30
0.0
 70
    32
  0
VERTEX
  5
93B4
  8
AM_0
 10
510.45886528833569
 20
95.611344240866444
 30
0.0
 70
    32
  0
VERTEX
  5
93B5
  8
AM_0
 10
510.4628652883361
 20
95.611244240866469
 30
0.0
 70
    32
  0
VERTEX
  5
93B6
  8
AM_0
 10
510.46786528833559
 20
95.611244240866469
 30
0.0
 70
    32
  0
VERTEX
  5
93B7
  8
AM_0
 10
510.47186528833572
 20
95.611244240866469
 30
0.0
 70
    32
  0
VERTEX
  5
93B8
  8
AM_0
 10
510.47586528833642
 20
95.611144240866437
 30
0.0
 70
    32
  0
VERTEX
  5
93B9
  8
AM_0
 10
510.48086528833602
 20
95.611144240866437
 30
0.0
 70
    32
  0
VERTEX
  5
93BA
  8
AM_0
 10
510.48486528833638
 20
95.611044240866406
 30
0.0
 70
    32
  0
VERTEX
  5
93BB
  8
AM_0
 10
510.48886528833538
 20
95.611044240866406
 30
0.0
 70
    32
  0
VERTEX
  5
93BC
  8
AM_0
 10
510.4938652883356
 20
95.611044240866406
 30
0.0
 70
    32
  0
VERTEX
  5
93BD
  8
AM_0
 10
510.49786528833653
 20
95.610944240866274
 30
0.0
 70
    32
  0
SEQEND
  5
93BE
  8
AM_0
  0
LINE
  5
93BF
  8
AM_0
 10
514.89478916806445
 20
95.610977918807507
 30
0.0
 11
510.49791235340928
 21
95.610977918806284
 31
0.0
  0
ARC
  5
93C0
  8
AM_0
 10
510.49791235340928
 20
87.841129437824307
 30
0.0
 40
2.5
 50
180.0
 51
270.0
  0
LINE
  5
93C1
  8
AM_0
 10
507.99791235341081
 20
83.741129437823204
 30
0.0
 11
507.99791235341081
 21
154.74112943782299
 31
0.0
  0
ARC
  5
93C2
  8
AM_0
 10
508.4979123534107
 20
83.741129437823204
 30
0.0
 40
0.5
 50
180.0
 51
270.0
  0
LINE
  5
93C3
  8
AM_0
 10
510.49791235340928
 20
85.341129437824307
 30
0.0
 11
513.36627446711145
 21
85.341129437824307
 31
0.0
  0
LINE
  5
93C4
  8
AM_0
 10
524.99791235341081
 20
151.94233411746421
 30
0.0
 11
524.99791235341081
 21
155.2411294378222
 31
0.0
  0
LINE
  5
93C5
  8
AM_0
 10
524.99791235341081
 20
155.24112943782319
 30
0.0
 11
524.99791235341081
 21
151.94233411746421
 31
0.0
  0
LINE
  5
93C7
  8
AM_0
 10
520.9979123534107
 20
136.3967408365622
 30
0.0
 11
520.9979123534107
 21
155.2411294378222
 31
0.0
  0
LINE
  5
93D9
  8
ﾁｭｳｼﾝｾﾝ
 10
520.54199361590895
 20
119.2411294378231
 30
0.0
 11
717.47358309090987
 21
119.2411294378231
 31
0.0
  0
LINE
  5
9611
  8
AM_0
 10
390.22996887599629
 20
442.58238870919848
 30
0.0
 11
435.22996887599618
 21
442.58238870919848
 31
0.0
  0
LINE
  5
9612
  8
AM_0
 10
390.22996887599629
 20
432.58244870919862
 30
0.0
 11
435.22996887599618
 21
432.58244870919862
 31
0.0
  0
LINE
  5
9613
  8
AM_0
 10
435.22996887599618
 20
421.5824487091985
 30
0.0
 11
377.22999887599639
 21
421.5824487091985
 31
0.0
  0
LINE
  5
9614
  8
AM_0
 10
435.22996887599618
 20
453.58238870919882
 30
0.0
 11
377.22999887599639
 21
453.58238870919882
 31
0.0
  0
LINE
  5
9615
  8
ﾁｭｳｼﾝｾﾝ
 10
4.776252292857178
 20
437.5823887091986
 30
0.0
 11
440.6128521995372
 21
437.5823887091986
 31
0.0
  0
ARC
  5
9713
  8
AM_0
 10
390.22996887599629
 20
437.5823887091986
 30
0.0
 40
4.9999924
 50
90.000003000000945
 51
270.0
  0
LINE
  5
9716
  8
AM_0
 10
345.22999887599627
 20
368.3756587091986
 30
0.0
 11
345.22999887599627
 21
506.78916870919841
 31
0.0
  0
LINE
  5
9717
  8
AM_0
 10
390.22999887599627
 20
432.58244870919862
 30
0.0
 11
390.22999887599627
 21
442.58238870919848
 31
0.0
  0
LINE
  5
9718
  8
AM_0
 10
377.22999887599639
 20
420.08244870919862
 30
0.0
 11
377.22999887599639
 21
455.0824487091985
 31
0.0
  0
LINE
  5
9719
  8
AM_0
 10
373.22996887599618
 20
410.31449870919852
 30
0.0
 11
373.22996887599618
 21
437.5823887091986
 31
0.0
  0
LINE
  5
971A
  8
AM_0
 10
222.72993887599651
 20
501.08238870919848
 30
0.0
 11
222.72993887599651
 21
374.08235870919862
 31
0.0
  0
LINE
  5
971B
  8
AM_0
 10
250.22993887599631
 20
340.3630287091986
 30
0.0
 11
250.22993887599631
 21
534.80180870919855
 31
0.0
  0
LINE
  5
971C
  8
AM_0
 10
235.22993887599631
 20
365.65348870919883
 30
0.0
 11
235.22993887599631
 21
509.51133870919818
 31
0.0
  0
LINE
  5
971D
  8
AM_0
 10
366.22999887599622
 20
376.47904870919882
 30
0.0
 11
366.22999887599622
 21
498.68577870919847
 31
0.0
  0
LINE
  5
971E
  8
AM_0
 10
260.22993887599631
 20
338.08241870919858
 30
0.0
 11
260.22993887599631
 21
537.08238870919865
 31
0.0
  0
POLYLINE
  5
971F
  8
AM_0
 66
     1
 10
0.0
 20
0.0
 30
0.0
  0
VERTEX
  5
9720
  8
AM_0
 10
260.22993887599631
 20
360.16563870919862
 30
0.0
 42
0.040442845
  0
VERTEX
  5
9721
  8
AM_0
 10
271.75812887599619
 20
360.38897870919862
 30
0.0
 42
0.04246989
  0
VERTEX
  5
9722
  8
AM_0
 10
283.0918388759963
 20
362.50245870919849
 30
0.0
 42
0.022672802
  0
VERTEX
  5
9723
  8
AM_0
 10
288.5763388759961
 20
364.29340870919862
 30
0.0
  0
VERTEX
  5
9724
  8
AM_0
 10
293.88194887599627
 20
366.56226870919852
 30
0.0
 42
-1.0
  0
SEQEND
  5
9725
  8
AM_0
  0
POLYLINE
  5
9726
  8
AM_0
 66
     1
 10
0.0
 20
0.0
 30
0.0
  0
VERTEX
  5
9727
  8
AM_0
 10
260.22993887599631
 20
407.30598870919852
 30
0.0
 42
-0.070055462
  0
VERTEX
  5
9728
  8
AM_0
 10
286.59060887599651
 20
387.10864870919852
 30
0.0
 42
-0.27110597
  0
VERTEX
  5
9729
  8
AM_0
 10
295.22996887599618
 20
367.22529870919863
 30
0.0
 42
-0.2130317
  0
VERTEX
  5
972A
  8
AM_0
 10
275.63950887599623
 20
349.09048870919861
 30
0.0
  0
VERTEX
  5
972B
  8
AM_0
 10
260.22993887599631
 20
342.79222870919858
 30
0.0
 42
-1.0
  0
SEQEND
  5
972C
  8
AM_0
  0
LINE
  5
972D
  8
AM_0
 10
266.22999887599627
 20
322.58238870919871
 30
0.0
 11
369.36955887599618
 21
326.18409870919862
 31
0.0
  0
CIRCLE
  5
972E
  8
AM_0
 10
230.22993887599631
 20
342.58241870919858
 30
0.0
 40
7.5
  0
LINE
  5
9731
  8
AM_0
 10
264.22993887599631
 20
338.08241870919858
 30
0.0
 11
264.22993887599631
 21
328.21391870919859
 31
0.0
  0
LINE
  5
9732
  8
AM_0
 10
212.22993887599651
 20
355.04386870919848
 30
0.0
 11
212.22993887599651
 21
330.97212870919878
 31
0.0
  0
LINE
  5
9734
  8
AM_0
 10
215.8813088759965
 20
326.98735870919859
 30
0.0
 11
266.22993887599631
 21
322.58241870919858
 31
0.0
  0
ARC
  5
9736
  8
AM_0
 10
216.22993887599651
 20
330.97212870919878
 30
0.0
 40
4.0
 50
180.00001000000091
 51
265.00001000000071
  0
ARC
  5
9737
  8
AM_0
 10
251.22993887599631
 20
326.90620870919878
 30
0.0
 40
3.0
 50
85.000004000001198
 51
265.00000000000028
  0
ARC
  5
9738
  8
AM_0
 10
259.22993887599631
 20
328.21391870919859
 30
0.0
 40
5.0
 50
265.00001000000071
 51
0.0000006832462478
  0
LINE
  5
9739
  8
AM_0
 10
251.4914188759962
 20
329.89479870919882
 30
0.0
 11
259.88136887599609
 21
329.16078870919858
 31
0.0
  0
ARC
  5
973A
  8
AM_0
 10
260.22993887599631
 20
333.14555870919878
 30
0.0
 40
4.0
 50
265.00001000000071
 51
0.0000006832462478
  0
LINE
  5
973F
  8
AM_0
 10
215.1947188759965
 20
358.90757870919862
 30
0.0
 11
235.40986887599621
 21
364.32420870919861
 31
0.0
  0
ARC
  5
9791
  8
AM_0
 10
216.22993887599651
 20
355.04386870919848
 30
0.0
 40
4.0
 50
105.00000000000161
 51
180.00001000000091
  0
ARC
  5
97B6
  8
AM_0
 10
247.22993887599631
 20
347.33976870919838
 30
0.0
 40
3.0
 50
0.0
 51
44.999998000001611
  0
ARC
  5
97B7
  8
AM_0
 10
252.22993887599631
 20
340.3630287091986
 30
0.0
 40
2.0
 50
179.99998999999889
 51
268.00000999999861
  0
LINE
  5
97B8
  8
AM_0
 10
236.69441887599629
 20
362.11796870919852
 30
0.0
 11
249.35127887599651
 21
349.46113870919862
 31
0.0
  0
ARC
  5
97B9
  8
AM_0
 10
230.22993887599631
 20
368.81745870919877
 30
0.0
 40
5.0
 50
0.0
 51
87.999999999999659
  0
LINE
  5
97BA
  8
AM_0
 10
222.72993887599651
 20
385.54240870919853
 30
0.0
 11
235.22993887599631
 21
385.54240870919853
 31
0.0
  0
LINE
  5
97BB
  8
AM_0
 10
222.72999887599639
 20
374.08235870919862
 30
0.0
 11
230.40449887599641
 21
373.81440870919852
 31
0.0
  0
ARC
  5
97BC
  8
AM_0
 10
240.2299388759964
 20
365.65348870919883
 30
0.0
 40
5.0
 50
179.99998999999889
 51
225.0
  0
LINE
  5
97BD
  8
AM_0
 10
260.22993887599631
 20
342.79222870919858
 30
0.0
 11
250.22993887599631
 21
342.79222870919858
 31
0.0
  0
LINE
  5
97BE
  8
AM_0
 10
252.16011887599629
 20
338.36424870919859
 30
0.0
 11
260.22993887599631
 21
338.08241870919858
 31
0.0
  0
LINE
  5
97BF
  8
AM_0
 10
260.22993887599631
 20
338.08241870919858
 30
0.0
 11
264.22993887599631
 21
338.08241870919858
 31
0.0
  0
LINE
  5
97C0
  8
AM_0
 10
260.22993887599631
 20
360.16563870919862
 30
0.0
 11
250.22993887599631
 21
360.16563870919862
 31
0.0
  0
LINE
  5
97C1
  8
AM_0
 10
222.72993887599651
 20
400.43241870919849
 30
0.0
 11
235.22993887599631
 21
400.43241870919849
 31
0.0
  0
LINE
  5
97C2
  8
AM_0
 10
260.22993887599631
 20
407.30598870919852
 30
0.0
 11
250.22993887599631
 21
407.30598870919852
 31
0.0
  0
CIRCLE
  5
97C3
  8
AM_0
 10
355.22999887599627
 20
342.58241870919858
 30
0.0
 40
7.5
  0
LINE
  5
97C4
  8
AM_0
 10
325.22996887599618
 20
332.9269887091985
 30
0.0
 11
325.22996887599618
 21
348.36882870919862
 31
0.0
  0
LINE
  5
97C5
  8
AM_0
 10
373.2299988759965
 20
368.58241870919852
 30
0.0
 11
373.2299988759965
 21
330.18168870919862
 31
0.0
  0
ARC
  5
97C7
  8
AM_0
 10
333.22996887599618
 20
332.9269887091985
 30
0.0
 40
8.0
 50
180.00001000000091
 51
271.99999000000139
  0
ARC
  5
97C8
  8
AM_0
 10
369.22999887599627
 20
330.18168870919862
 30
0.0
 40
4.0
 50
272.0000000000004
 51
0.0
  0
ARC
  5
97C9
  8
AM_0
 10
337.22999887599627
 20
368.3756587091986
 30
0.0
 40
8.0
 50
271.49999999999937
 51
0.0
  0
ARC
  5
97CB
  8
AM_0
 10
337.22996887599618
 20
348.36882870919862
 30
0.0
 40
12.0
 50
91.500001000001546
 51
180.00001000000091
  0
LINE
  5
97CC
  8
AM_0
 10
337.43940887599632
 20
360.37843870919852
 30
0.0
 11
336.91581887599631
 21
360.3647387091986
 31
0.0
  0
LINE
  5
97CD
  8
AM_0
 10
362.3346788759963
 20
372.48042870919852
 30
0.0
 11
352.47279887599632
 21
372.22218870919852
 31
0.0
  0
ARC
  5
97CE
  8
AM_0
 10
352.68220887599642
 20
364.22489870919878
 30
0.0
 40
8.0
 50
91.500001000001546
 51
164.96419999999981
  0
ARC
  5
97CF
  8
AM_0
 10
362.22999887599622
 20
376.47904870919882
 30
0.0
 40
4.0
 50
271.49999999999937
 51
0.0
  0
ARC
  5
97D0
  8
AM_0
 10
370.2299988759961
 20
376.51966870919853
 30
0.0
 40
4.0
 50
180.00001000000091
 51
262.8192499999995
  0
ARC
  5
97D1
  8
AM_0
 10
369.22999887599627
 20
368.58241870919852
 30
0.0
 40
4.0
 50
0.0
 51
82.819247000000175
  0
LINE
  5
97D2
  8
AM_0
 10
377.22999887599639
 20
420.08244870919862
 30
0.0
 11
373.22996887599618
 21
420.08244870919862
 31
0.0
  0
ARC
  5
97D3
  8
AM_0
 10
369.22999887599627
 20
402.80894870919872
 30
0.0
 40
3.0
 50
120.0000000000005
 51
180.00001000000091
  0
ARC
  5
97D4
  8
AM_0
 10
370.22996887599618
 20
410.31449870919852
 30
0.0
 40
3.0
 50
300.00001000000083
 51
0.0
  0
LINE
  5
97D5
  8
AM_0
 10
367.72993887599631
 20
405.40702870919853
 30
0.0
 11
371.72993887599631
 21
407.71641870919848
 31
0.0
  0
POLYLINE
  5
97D6
  8
AM_0
 66
     1
 10
0.0
 20
0.0
 30
0.0
  0
VERTEX
  5
97D7
  8
AM_0
 10
260.22993887599631
 20
467.85887870919839
 30
0.0
 42
0.070055443
  0
VERTEX
  5
97D8
  8
AM_0
 10
286.59060887599651
 20
488.05621870919839
 30
0.0
 42
0.27110593
  0
VERTEX
  5
97D9
  8
AM_0
 10
295.22996887599618
 20
507.93955870919831
 30
0.0
 42
0.21303199
  0
VERTEX
  5
97DA
  8
AM_0
 10
275.63950887599623
 20
526.07434870919883
 30
0.0
  0
VERTEX
  5
97DB
  8
AM_0
 10
260.22993887599631
 20
532.37260870919874
 30
0.0
 42
-1.0
  0
SEQEND
  5
97DC
  8
AM_0
  0
POLYLINE
  5
97DD
  8
AM_0
 66
     1
 10
0.0
 20
0.0
 30
0.0
  0
VERTEX
  5
97DE
  8
AM_0
 10
260.22993887599631
 20
514.99919870919882
 30
0.0
 42
-0.040442832
  0
VERTEX
  5
97DF
  8
AM_0
 10
271.75811887599627
 20
514.77584870919884
 30
0.0
 42
-0.042469875
  0
VERTEX
  5
97E0
  8
AM_0
 10
283.0918388759963
 20
512.6623687091984
 30
0.0
 42
-0.022671837
  0
VERTEX
  5
97E1
  8
AM_0
 10
288.57632887599618
 20
510.87142870919848
 30
0.0
  0
VERTEX
  5
97E2
  8
AM_0
 10
293.88194887599627
 20
508.60259870919862
 30
0.0
 42
-1.0
  0
SEQEND
  5
97E3
  8
AM_0
  0
LINE
  5
97E4
  8
AM_0
 10
266.22999887599627
 20
552.5824487091985
 30
0.0
 11
369.36958887599633
 21
548.98069870919846
 31
0.0
  0
CIRCLE
  5
97E5
  8
AM_0
 10
230.22993887599631
 20
532.58238870919865
 30
0.0
 40
7.5
  0
LINE
  5
97E7
  8
AM_0
 10
212.22993887599651
 20
520.12095870919859
 30
0.0
 11
212.22993887599651
 21
544.19267870919873
 31
0.0
  0
LINE
  5
97EB
  8
AM_0
 10
215.1947188759965
 20
516.25724870919851
 30
0.0
 11
235.40986887599621
 21
510.84062870919871
 31
0.0
  0
ARC
  5
9810
  8
AM_0
 10
216.22993887599651
 20
520.12095870919859
 30
0.0
 40
4.0
 50
180.00001000000091
 51
254.99999000000091
  0
LINE
  5
9811
  8
AM_0
 10
222.72993887599651
 20
474.73240870919852
 30
0.0
 11
235.22993887599631
 21
474.73240870919852
 31
0.0
  0
LINE
  5
9812
  8
AM_0
 10
260.22993887599631
 20
467.85887870919839
 30
0.0
 11
250.22993887599631
 21
467.85887870919839
 31
0.0
  0
ARC
  5
9813
  8
AM_0
 10
247.22993887599631
 20
527.82505870919852
 30
0.0
 40
3.0
 50
315.0
 51
0.0
  0
ARC
  5
9814
  8
AM_0
 10
230.22993887599631
 20
506.34739870919879
 30
0.0
 40
5.0
 50
272.0000000000004
 51
0.0
  0
LINE
  5
9815
  8
AM_0
 10
222.72993887599651
 20
489.6224287091984
 30
0.0
 11
235.22993887599631
 21
489.6224287091984
 31
0.0
  0
LINE
  5
9816
  8
AM_0
 10
222.72999887599639
 20
501.08238870919848
 30
0.0
 11
230.40443887599639
 21
501.35038870919828
 31
0.0
  0
LINE
  5
9817
  8
AM_0
 10
236.69441887599629
 20
513.04685870919866
 30
0.0
 11
249.35127887599651
 21
525.70372870919857
 31
0.0
  0
ARC
  5
9818
  8
AM_0
 10
240.2299388759964
 20
509.51133870919818
 30
0.0
 40
5.0
 50
135.0
 51
180.00001000000091
  0
LINE
  5
9819
  8
AM_0
 10
260.22993887599631
 20
514.99919870919882
 30
0.0
 11
250.22993887599631
 21
514.99919870919882
 31
0.0
  0
LINE
  5
981A
  8
AM_0
 10
260.22993887599631
 20
532.37260870919874
 30
0.0
 11
250.22993887599631
 21
532.37260870919874
 31
0.0
  0
LINE
  5
981B
  8
AM_0
 10
215.8813688759962
 20
548.17753870919876
 30
0.0
 11
266.22999887599627
 21
552.5824487091985
 31
0.0
  0
ARC
  5
981C
  8
AM_0
 10
216.22993887599651
 20
544.19267870919873
 30
0.0
 40
4.0
 50
95.00000199999856
 51
180.00001000000091
  0
ARC
  5
981D
  8
AM_0
 10
252.22993887599631
 20
534.80180870919855
 30
0.0
 40
2.0
 50
91.999998000000545
 51
180.00001000000091
  0
ARC
  5
981E
  8
AM_0
 10
251.22993887599631
 20
548.25865870919858
 30
0.0
 40
3.0
 50
95.00000199999856
 51
274.99999999999972
  0
ARC
  5
981F
  8
AM_0
 10
260.22993887599631
 20
542.0192787091986
 30
0.0
 40
4.0
 50
0.0
 51
95.00000199999856
  0
LINE
  5
9820
  8
AM_0
 10
264.22993887599631
 20
537.08238870919865
 30
0.0
 11
264.22993887599631
 21
546.95091870919839
 31
0.0
  0
LINE
  5
9821
  8
AM_0
 10
251.49147887599631
 20
545.27006870919865
 30
0.0
 11
259.88136887599609
 21
546.00407870919855
 31
0.0
  0
LINE
  5
9822
  8
AM_0
 10
252.16017887599619
 20
536.80064870919853
 30
0.0
 11
260.22993887599631
 21
537.08244870919896
 31
0.0
  0
LINE
  5
9823
  8
AM_0
 10
260.22993887599631
 20
537.08238870919865
 30
0.0
 11
264.22993887599631
 21
537.08238870919865
 31
0.0
  0
ARC
  5
9824
  8
AM_0
 10
259.22993887599631
 20
546.95091870919839
 30
0.0
 40
5.0
 50
0.0
 51
95.00000199999856
  0
CIRCLE
  5
9825
  8
AM_0
 10
355.22999887599627
 20
532.58238870919865
 30
0.0
 40
7.5
  0
LINE
  5
9826
  8
AM_0
 10
325.22996887599618
 20
526.79600870919842
 30
0.0
 11
325.22996887599618
 21
542.2378387091984
 31
0.0
  0
LINE
  5
9827
  8
ﾁｭｳｼﾝｾﾝ
 10
355.22999887599627
 20
519.08238870919843
 30
0.0
 11
355.22999887599627
 21
546.08238870919865
 31
0.0
  0
LINE
  5
9828
  8
AM_0
 10
373.2299988759965
 20
506.58238870919831
 30
0.0
 11
373.2299988759965
 21
544.98313870919856
 31
0.0
  0
ARC
  5
9829
  8
AM_0
 10
337.22999887599627
 20
506.78916870919841
 30
0.0
 40
8.0
 50
0.0
 51
88.499997000000747
  0
LINE
  5
982A
  8
ﾁｭｳｼﾝｾﾝ
 10
341.72999887599627
 20
532.58238870919865
 30
0.0
 11
368.72999887599622
 21
532.58238870919865
 31
0.0
  0
ARC
  5
982B
  8
AM_0
 10
337.22996887599618
 20
526.79600870919842
 30
0.0
 40
12.0
 50
180.00001000000091
 51
268.5000000000004
  0
LINE
  5
982C
  8
AM_0
 10
337.43937887599623
 20
514.7864287091985
 30
0.0
 11
336.91584887599618
 21
514.80009870919855
 31
0.0
  0
LINE
  5
982D
  8
AM_0
 10
377.22999887599639
 20
455.0824487091985
 30
0.0
 11
373.22996887599618
 21
455.0824487091985
 31
0.0
  0
LINE
  5
982E
  8
AM_0
 10
373.22996887599618
 20
437.5823887091986
 30
0.0
 11
373.22996887599618
 21
464.85038870919863
 31
0.0
  0
ARC
  5
982F
  8
AM_0
 10
369.22999887599627
 20
472.35594870919863
 30
0.0
 40
3.0
 50
179.99998999999889
 51
240.00000999999969
  0
ARC
  5
9830
  8
AM_0
 10
370.22996887599618
 20
464.85038870919863
 30
0.0
 40
3.0
 50
0.0
 51
60.000002000001302
  0
LINE
  5
9831
  8
AM_0
 10
367.72996887599618
 20
469.7578587091985
 30
0.0
 11
371.72993887599631
 21
467.44847870919853
 31
0.0
  0
LINE
  5
9832
  8
AM_0
 10
362.3346788759963
 20
502.6844387091985
 30
0.0
 11
352.47279887599632
 21
502.9426787091985
 31
0.0
  0
ARC
  5
9833
  8
AM_0
 10
352.68220887599642
 20
510.93992870919823
 30
0.0
 40
8.0
 50
195.03580000000011
 51
268.5000000000004
  0
ARC
  5
9834
  8
AM_0
 10
362.22999887599622
 20
498.68577870919847
 30
0.0
 40
4.0
 50
0.0
 51
88.499997000000747
  0
ARC
  5
9835
  8
AM_0
 10
370.2299988759961
 20
498.6451287091985
 30
0.0
 40
4.0
 50
97.180758000000424
 51
180.00001000000091
  0
ARC
  5
9836
  8
AM_0
 10
369.22999887599627
 20
506.58238870919831
 30
0.0
 40
4.0
 50
277.18075000000027
 51
0.0
  0
ARC
  5
9837
  8
AM_0
 10
333.22996887599618
 20
542.2378387091984
 30
0.0
 40
8.0
 50
87.999999999999659
 51
180.00001000000091
  0
ARC
  5
9838
  8
AM_0
 10
369.22999887599627
 20
544.98313870919856
 30
0.0
 40
4.0
 50
0.0
 51
87.999999999999659
  0
LINE
  5
9839
  8
AM_0
 10
435.22996887599618
 20
421.5824487091985
 30
0.0
 11
435.22996887599618
 21
453.58238870919882
 31
0.0
  0
LINE
  5
99D5
  8
AM_0
 10
193.70991887599621
 20
404.22239870919879
 30
0.0
 11
211.54994887599619
 21
404.22239870919879
 31
0.0
  0
LINE
  5
99D6
  8
AM_0
 10
193.7299388759964
 20
411.1024087091987
 30
0.0
 11
211.76417887599629
 21
411.1024087091987
 31
0.0
  0
LINE
  5
99D7
  8
AM_0
 10
208.06996887599621
 20
403.58238870919882
 30
0.0
 11
193.7299388759964
 21
403.58238870919882
 31
0.0
  0
LINE
  5
99D8
  8
AM_0
 10
208.0627688759962
 20
411.58238870919882
 30
0.0
 11
193.7299388759964
 21
411.58238870919882
 31
0.0
  0
LINE
  5
99D9
  8
AM_0
 10
208.06996887599621
 20
401.58238870919871
 30
0.0
 11
163.72993887599631
 21
401.58238870919871
 31
0.0
  0
LINE
  5
99DA
  8
AM_0
 10
163.72993887599631
 20
400.86241870919878
 30
0.0
 11
211.54994887599619
 21
400.86241870919878
 31
0.0
  0
LINE
  5
99DB
  8
AM_0
 10
81.189958875996297
 20
414.02232870919892
 30
0.0
 11
211.76417887599629
 21
414.02232870919892
 31
0.0
  0
LINE
  5
99DC
  8
AM_0
 10
208.0627688759962
 20
413.58238870919871
 30
0.0
 11
82.265588875996215
 21
413.58238870919871
 31
0.0
  0
LINE
  5
99DD
  8
AM_0
 10
81.189958875996297
 20
461.1523287091988
 30
0.0
 11
211.76417887599629
 21
461.1523287091988
 31
0.0
  0
LINE
  5
99DE
  8
AM_0
 10
81.399918875996335
 20
474.31236870919878
 30
0.0
 11
211.54994887599619
 21
474.31236870919878
 31
0.0
  0
LINE
  5
99DF
  8
AM_0
 10
208.0627688759962
 20
461.58238870919882
 30
0.0
 11
82.279928875996518
 21
461.58238870919882
 31
0.0
  0
LINE
  5
99E0
  8
AM_0
 10
208.06996887599621
 20
473.58238870919882
 30
0.0
 11
82.279928875996518
 21
473.58238870919882
 31
0.0
  0
LINE
  5
99E1
  8
AM_0
 10
90.729938875996424
 20
501.47239870919873
 30
0.0
 11
209.24989887599619
 21
501.47239870919873
 31
0.0
  0
LINE
  5
99E2
  8
AM_0
 10
90.729938875996424
 20
502.83238870919871
 30
0.0
 11
208.95759887599621
 21
502.83238870919871
 31
0.0
  0
LINE
  5
99E3
  8
AM_0
 10
90.729938875996424
 20
503.5024287091988
 30
0.0
 11
208.81361887599621
 21
503.5024287091988
 31
0.0
  0
LINE
  5
99E4
  8
AM_0
 10
90.729938875996424
 20
499.44236870919877
 30
0.0
 11
207.53993887599611
 21
499.44236870919877
 31
0.0
  0
LINE
  5
99E5
  8
AM_0
 10
108.7299388759964
 20
483.93235870919858
 30
0.0
 11
214.7299388759962
 21
483.93235870919858
 31
0.0
  0
LINE
  5
99E6
  8
AM_0
 10
90.729938875996424
 20
375.72239870919879
 30
0.0
 11
207.53993887599611
 21
375.72239870919879
 31
0.0
  0
LINE
  5
99E7
  8
AM_0
 10
108.7299388759964
 20
391.23240870919858
 30
0.0
 11
214.7299388759962
 21
391.23240870919858
 31
0.0
  0
LINE
  5
99E8
  8
AM_0
 10
193.7299388759964
 20
464.0723787091988
 30
0.0
 11
211.7756588759963
 21
464.0723787091988
 31
0.0
  0
LINE
  5
99E9
  8
AM_0
 10
193.70991887599621
 20
470.9523787091988
 30
0.0
 11
211.54994887599619
 21
470.9523787091988
 31
0.0
  0
LINE
  5
99EA
  8
AM_0
 10
208.07710887599649
 20
463.58238870919871
 30
0.0
 11
193.7299388759964
 21
463.58238870919871
 31
0.0
  0
LINE
  5
99EB
  8
AM_0
 10
208.06996887599621
 20
471.58238870919871
 30
0.0
 11
193.7299388759964
 21
471.58238870919871
 31
0.0
  0
LINE
  5
99EC
  8
AM_0
 10
195.24354887599631
 20
367.5823887091986
 30
0.0
 11
206.74611887599619
 21
367.5823887091986
 31
0.0
  0
ARC
  5
99ED
  8
AM_0
 10
77.463098875996081
 20
390.3223787091988
 30
0.0
 40
1.5
 50
10.237378999998841
 51
79.752109999998723
  0
LINE
  5
99EE
  8
AM_0
 10
77.729938875996297
 20
389.23240870919858
 30
0.0
 11
77.729938875996297
 21
403.28233870919883
 31
0.0
  0
LINE
  5
99EF
  8
AM_0
 10
62.729938875996432
 20
393.69139870919878
 30
0.0
 11
62.729938875996432
 21
384.83238870919882
 31
0.0
  0
LINE
  5
99F0
  8
AM_0
 10
17.729938875996421
 20
394.32945870919878
 30
0.0
 11
17.729938875996421
 21
386.83238870919888
 31
0.0
  0
LINE
  5
99F1
  8
AM_0
 10
20.229938875996432
 20
384.80039870919882
 30
0.0
 11
20.229938875996432
 21
490.33238870919848
 31
0.0
  0
LINE
  5
99F2
  8
AM_0
 10
12.228508775996371
 20
493.58238870919882
 30
0.0
 11
12.228508775996371
 21
381.58238870919882
 31
0.0
  0
LINE
  5
99F3
  8
AM_0
 10
67.729938875996424
 20
378.83238870919871
 30
0.0
 11
67.729938875996424
 21
437.58238870919882
 31
0.0
  0
LINE
  5
99F4
  8
AM_0
 10
17.228508775996371
 20
394.53886980490603
 30
0.0
 11
17.228508775996371
 21
382.58238870919882
 31
0.0
  0
LINE
  5
99F5
  8
AM_0
 10
67.729938875996424
 20
389.23240870919858
 30
0.0
 11
77.729938875996297
 21
389.23240870919858
 31
0.0
  0
LINE
  5
99F6
  8
AM_0
 10
69.539938875996256
 20
382.48240870919858
 30
0.0
 11
79.33271887599625
 21
382.48240870919858
 31
0.0
  0
LINE
  5
99F7
  8
AM_0
 10
73.43055887599651
 20
375.91233870919882
 30
0.0
 11
87.472678875996465
 21
375.91233870919882
 31
0.0
  0
ARC
  5
99F8
  8
AM_0
 10
21.228508775996371
 20
381.58238870919882
 30
0.0
 40
9.0
 50
179.99997999999781
 51
269.99995000000138
  0
LINE
  5
99F9
  8
AM_0
 10
19.729938875996421
 20
384.83238870919882
 30
0.0
 11
67.729938875996424
 21
384.83238870919882
 31
0.0
  0
LINE
  5
99FA
  8
AM_0
 10
21.228508775996371
 20
372.58238870919882
 30
0.0
 11
58.72993887599641
 21
372.58238870919882
 31
0.0
  0
LINE
  5
99FB
  8
AM_0
 10
22.228508775996371
 20
377.58238870919882
 30
0.0
 11
45.729938875996417
 21
377.58238870919882
 31
0.0
  0
LINE
  5
99FC
  8
AM_0
 10
42.72993887599641
 20
378.83238870919882
 30
0.0
 11
67.729938875996424
 21
378.83238870919882
 31
0.0
  0
ARC
  5
99FD
  8
AM_0
 10
22.228508775996371
 20
382.58238870919882
 30
0.0
 40
5.0
 50
179.99997999999781
 51
269.99995000000138
  0
ARC
  5
99FE
  8
AM_0
 10
19.729938875996421
 20
386.83238870919888
 30
0.0
 40
2.0
 50
179.99997999999781
 51
269.99995000000138
  0
LINE
  5
99FF
  8
AM_0
 10
42.72993887599641
 20
378.83238870919882
 30
0.0
 11
42.72993887599641
 21
384.83238870919882
 31
0.0
  0
LINE
  5
9A00
  8
AM_0
 10
45.729938875996417
 20
378.83238870919882
 30
0.0
 11
45.729938875996417
 21
372.58238870919882
 31
0.0
  0
LINE
  5
9A01
  8
AM_0
 10
58.72993887599641
 20
377.58238870919882
 30
0.0
 11
58.72993887599641
 21
372.58238870919882
 31
0.0
  0
LINE
  5
9A02
  8
AM_0
 10
55.729938875996417
 20
378.83238870919882
 30
0.0
 11
55.729938875996417
 21
372.58238870919882
 31
0.0
  0
LINE
  5
9A03
  8
AM_0
 10
55.729938875996417
 20
377.58238870919882
 30
0.0
 11
58.72993887599641
 21
377.58238870919882
 31
0.0
  0
ARC
  5
9A04
  8
AM_0
 10
69.557638875996247
 20
378.96409870919882
 30
0.0
 40
1.4982997
 50
14.229740000001581
 51
89.910950000001179
  0
LINE
  5
9A05
  8
AM_0
 10
71.919938875996252
 20
377.4523487091987
 30
0.0
 11
70.999958875996242
 21
381.33241870919858
 31
0.0
  0
LINE
  5
9A06
  8
AM_0
 10
71.491288875996403
 20
377.4234187091987
 30
0.0
 11
71.009968875996307
 21
379.3324487091985
 31
0.0
  0
ARC
  5
9A07
  8
AM_0
 10
73.43055887599651
 20
377.91233870919882
 30
0.0
 40
2.0
 50
194.1507499999995
 51
269.999989999999
  0
ARC
  5
9A08
  8
AM_0
 10
73.866778875996289
 20
377.91294870919882
 30
0.0
 40
2.0005671999999981
 50
193.30958999999871
 51
269.80430999999942
  0
LINE
  5
9A09
  8
AM_0
 10
69.559958875996287
 20
380.46238870919882
 30
0.0
 11
71.209918875996266
 21
380.46238870919882
 31
0.0
  0
ARC
  5
9A0A
  8
AM_0
 10
69.543168875996287
 20
380.98472870919892
 30
0.0
 40
1.497715799999999
 50
13.424378999999609
 51
90.122645000001114
  0
LINE
  5
9A0B
  8
AM_0
 10
67.729938875996424
 20
380.15241870919891
 30
0.0
 11
70.549948875996094
 21
380.09242870919883
 31
0.0
  0
LINE
  5
9A0C
  8
AM_0
 10
120.2548126101488
 20
360.58238870919939
 30
0.0
 11
200.72993887599591
 21
360.58238870919882
 31
0.0
  0
LINE
  5
9A0D
  8
AM_0
 10
117.0548126101484
 20
330.58238870919928
 30
0.0
 11
193.354812610149
 21
343.5823887091986
 31
0.0
  0
LINE
  5
9A0E
  8
AM_0
 10
117.0548126101484
 20
330.58238870919928
 30
0.0
 11
193.354812610149
 21
343.5823887091986
 31
0.0
  0
LINE
  5
9A0F
  8
AM_0
 10
193.68050774699029
 20
339.5823887091986
 30
0.0
 11
117.38050774698981
 21
326.58238870919928
 31
0.0
  0
LINE
  5
9A10
  8
AM_0
 10
116.973388825938
 20
331.58238870919928
 30
0.0
 11
148.95145856467019
 21
337.03081474594239
 31
0.0
  0
LINE
  5
9A11
  8
AM_0
 10
192.85481261014939
 20
326.58238870919888
 30
0.0
 11
117.38050774698981
 21
326.58238870919928
 31
0.0
  0
LINE
  5
9A12
  8
AM_0
 10
197.2299388759964
 20
363.08238870919922
 30
0.0
 11
130.2299388759964
 21
363.08238870919922
 31
0.0
  0
LINE
  5
9A13
  8
ﾁｭｳｼﾝｾﾝ
 10
118.5548126101489
 20
343.58238870919922
 30
0.0
 11
140.5548126101489
 21
343.58238870919922
 31
0.0
  0
LINE
  5
9A14
  8
AM_0
 10
138.8548126101486
 20
360.58238870919882
 30
0.0
 11
138.8548126101486
 21
343.58238870919888
 31
0.0
  0
LINE
  5
9A15
  8
AM_0
 10
120.2548126101488
 20
360.58238870919939
 30
0.0
 11
120.25481261014851
 21
343.58238870919922
 31
0.0
  0
LINE
  5
9A16
  8
AM_0
 10
114.45481261014849
 20
359.58238870919922
 30
0.0
 11
114.45481261014881
 21
331.58238870919928
 31
0.0
  0
CIRCLE
  5
9A17
  8
AM_0
 10
129.5548126101489
 20
343.58238870919922
 30
0.0
 40
6.2999999999996117
  0
LINE
  5
9A18
  8
ﾁｭｳｼﾝｾﾝ
 10
129.5548126101489
 20
354.58238870919922
 30
0.0
 11
129.5548126101489
 21
332.58238870919922
 31
0.0
  0
ARC
  5
9A19
  8
AM_0
 10
129.5548126101489
 20
343.58238870919922
 30
0.0
 40
9.2999999999997094
 50
180.0
 51
0.0
  0
LINE
  5
9A1A
  8
AM_0
 10
112.4548126101495
 20
335.58238870919928
 30
0.0
 11
112.4548126101497
 21
328.08238870919928
 31
0.0
  0
LINE
  5
9A1B
  8
AM_0
 10
112.95481261014849
 20
330.58238870919928
 30
0.0
 11
117.0548126101484
 21
330.58238870919928
 31
0.0
  0
LINE
  5
9A1C
  8
AM_0
 10
116.973388825938
 20
331.58238870919928
 30
0.0
 11
112.95481261014849
 21
331.58238870919928
 31
0.0
  0
LINE
  5
9A1D
  8
AM_0
 10
113.2548126101492
 20
330.58238870919928
 30
0.0
 11
117.0548126101484
 21
330.58238870919928
 31
0.0
  0
LINE
  5
9A1E
  8
AM_0
 10
114.45481261014901
 20
326.58238870919928
 30
0.0
 11
117.38050774698981
 21
326.58238870919928
 31
0.0
  0
LINE
  5
9A1F
  8
AM_0
 10
112.95481261014849
 20
331.58238870919928
 30
0.0
 11
112.95481261014849
 21
328.08238870919928
 31
0.0
  0
LINE
  5
9A20
  8
AM_0
 10
113.9548126101495
 20
326.58238870919928
 30
0.0
 11
114.25329850630639
 21
326.58238870919928
 31
0.0
  0
ARC
  5
9A21
  8
AM_0
 10
114.45481261014901
 20
328.08238870919928
 30
0.0
 40
1.499999999999998
 50
180.0
 51
270.0
  0
ARC
  5
9A22
  8
AM_0
 10
113.9548126101495
 20
328.08238870919928
 30
0.0
 40
1.5000000000001099
 50
180.0
 51
269.99999999999511
  0
LINE
  5
9A23
  8
AM_0
 10
114.45481261014869
 20
335.58238870919939
 30
0.0
 11
113.2548126101492
 21
335.58238870919939
 31
0.0
  0
LINE
  5
9A24
  8
AM_0
 10
113.2548126101492
 20
335.58238870919939
 30
0.0
 11
112.4548126101495
 21
335.58238870919928
 31
0.0
  0
LINE
  5
9A25
  8
AM_0
 10
90.729938875996424
 20
373.6923687091986
 30
0.0
 11
132.05635887599621
 21
373.6923687091986
 31
0.0
  0
ARC
  5
9A26
  8
AM_0
 10
87.226828875996304
 20
377.8191987091987
 30
0.0
 40
1.503128599999999
 50
0.1191296499989459
 51
89.880869999998822
  0
LINE
  5
9A27
  8
AM_0
 10
88.729938875996424
 20
375.69334870919892
 30
0.0
 11
88.729938875996424
 21
383.1024087091987
 31
0.0
  0
ARC
  5
9A28
  8
AM_0
 10
81.627278875996495
 20
381.30943870919862
 30
0.0
 40
1.997119399999999
 50
192.05523999999849
 51
270.19862999999867
  0
LINE
  5
9A29
  8
AM_0
 10
81.427568875996286
 20
379.32237870919892
 30
0.0
 11
87.229938875996424
 21
379.32237870919892
 31
0.0
  0
ARC
  5
9A2A
  8
AM_0
 10
90.730858875996262
 20
375.69334870919892
 30
0.0
 40
2.0009109999999981
 50
180.00001000000091
 51
269.97390999999971
  0
ARC
  5
9A2B
  8
AM_0
 10
87.472678875996465
 20
374.41233870919882
 30
0.0
 40
1.5
 50
21.46170900000077
 51
90.000003000000945
  0
ARC
  5
9A2C
  8
AM_0
 10
90.729998875996259
 20
377.72239870919879
 30
0.0
 40
2.0000371999999991
 50
180.0010599999992
 51
269.99892999999958
  0
LINE
  5
9A2D
  8
AM_0
 10
81.489768875996262
 20
384.6024087091987
 30
0.0
 11
87.229938875996424
 21
384.6024087091987
 31
0.0
  0
ARC
  5
9A2E
  8
AM_0
 10
81.689348875996245
 20
386.5876287091989
 30
0.0
 40
1.9952742999999991
 50
189.96478000000039
 51
269.85141999999968
  0
LINE
  5
9A2F
  8
AM_0
 10
79.674218875996232
 20
380.8924387091987
 30
0.0
 11
78.714258875996109
 21
385.36241870919849
 31
0.0
  0
LINE
  5
9A30
  8
AM_0
 10
77.244218875996296
 20
386.54234870919879
 30
0.0
 11
79.664208875996366
 21
386.54234870919879
 31
0.0
  0
LINE
  5
9A31
  8
AM_0
 10
78.939168875996231
 20
390.5890387091988
 30
0.0
 11
79.724198875996265
 21
386.2423587091987
 31
0.0
  0
ARC
  5
9A32
  8
AM_0
 10
77.246788875996288
 20
385.04002870919879
 30
0.0
 40
1.502416299999999
 50
12.391887000000411
 51
90.098616999999123
  0
ARC
  5
9A33
  8
AM_0
 10
87.227988875996232
 20
383.1004487091987
 30
0.0
 40
1.501982699999999
 50
0.075587202000581
 51
89.924413000001564
  0
LINE
  5
9A34
  8
AM_0
 10
133.79547237791661
 20
363.08238870919888
 30
0.0
 11
133.46443887599619
 21
375.72236870919869
 31
0.0
  0
ARC
  5
9A35
  8
AM_0
 10
115.45481261014839
 20
359.58238870919922
 30
0.0
 40
1.0
 50
90.0
 51
180.0
  0
LINE
  5
9A36
  8
AM_0
 10
115.45481261014839
 20
360.58238870919939
 30
0.0
 11
120.2548126101488
 21
360.58238870919939
 31
0.0
  0
LINE
  5
9A37
  8
AM_0
 10
130.2299388759964
 20
363.08238870919922
 30
0.0
 11
130.2299388759964
 21
360.58238870919882
 31
0.0
  0
ARC
  5
9A38
  8
AM_0
 10
132.05635887599621
 20
372.1923687091986
 30
0.0
 40
1.5
 50
1.5000026999989771
 51
90.000003000000945
  0
LINE
  5
9A39
  8
AM_0
 10
201.72993887599571
 20
343.58238870919888
 30
0.0
 11
201.72993887599591
 21
359.5823887091986
 31
0.0
  0
LINE
  5
9A3A
  8
AM_0
 10
186.72993887599591
 20
343.46751519217048
 30
0.0
 11
186.72993887599591
 21
360.58238870919882
 31
0.0
  0
LINE
  5
9A3B
  8
AM_0
 10
171.6648747465795
 20
355.58238870919882
 30
0.0
 11
171.66487474657939
 21
340.90072838113002
 31
0.0
  0
LINE
  5
9A3C
  8
AM_0
 10
173.1648747465795
 20
341.15629849908521
 30
0.0
 11
173.1648747465795
 21
355.58238870919882
 31
0.0
  0
LINE
  5
9A3D
  8
AM_0
 10
175.3682287920569
 20
355.58238870919882
 30
0.0
 11
175.3682287920569
 21
341.53170613461862
 31
0.0
  0
LINE
  5
9A3E
  8
AM_0
 10
176.8682287920569
 20
341.78727625257397
 30
0.0
 11
176.8682287920569
 21
355.58238870919882
 31
0.0
  0
LINE
  5
9A3F
  8
AM_0
 10
167.96152070110259
 20
355.58238870919882
 30
0.0
 11
167.96152070110239
 21
340.2697506276408
 31
0.0
  0
LINE
  5
9A40
  8
AM_0
 10
169.4615207011023
 20
340.52532074559622
 30
0.0
 11
169.4615207011023
 21
355.58238870919882
 31
0.0
  0
LINE
  5
9A41
  8
AM_0
 10
165.7581666556249
 20
339.89434299210723
 30
0.0
 11
165.75816665562499
 21
355.58238870919882
 31
0.0
  0
LINE
  5
9A42
  8
AM_0
 10
160.55481261014751
 20
355.58238870919882
 30
0.0
 11
160.55481261014751
 21
339.00779512066288
 31
0.0
  0
LINE
  5
9A43
  8
AM_0
 10
162.5548126101508
 20
339.34855527793741
 30
0.0
 11
162.55481261015109
 21
355.58238870920172
 31
0.0
  0
LINE
  5
9A44
  8
AM_0
 10
164.25816665562499
 20
355.58238870919882
 30
0.0
 11
164.2581666556249
 21
339.6387728741521
 31
0.0
  0
LINE
  5
9A45
  8
AM_0
 10
150.9514585646703
 20
337.37157490321641
 30
0.0
 11
150.9514585646703
 21
355.58238870919922
 31
0.0
  0
LINE
  5
9A46
  8
AM_0
 10
148.95145856467019
 20
355.58238870919882
 30
0.0
 11
148.95145856467019
 21
337.03081474594239
 31
0.0
  0
LINE
  5
9A47
  8
AM_0
 10
153.15145856467021
 20
355.58238870919882
 30
0.0
 11
153.15145856467021
 21
337.74641107621812
 31
0.0
  0
LINE
  5
9A48
  8
AM_0
 10
154.65145856467009
 20
338.0019811941732
 30
0.0
 11
154.65145856467009
 21
355.58238870919882
 31
0.0
  0
LINE
  5
9A49
  8
AM_0
 10
156.8514585646702
 20
355.58238870919882
 30
0.0
 11
156.8514585646702
 21
338.37681736717428
 31
0.0
  0
LINE
  5
9A4A
  8
AM_0
 10
158.35145856467011
 20
338.63238748512958
 30
0.0
 11
158.35145856467011
 21
355.58238870919882
 31
0.0
  0
LINE
  5
9A4B
  8
AM_0
 10
169.4615207011023
 20
340.52532074559622
 30
0.0
 11
171.66487474657939
 21
340.90072838113002
 31
0.0
  0
LINE
  5
9A4C
  8
AM_0
 10
154.65145856467009
 20
338.0019811941732
 30
0.0
 11
156.8514585646702
 21
338.37681736717428
 31
0.0
  0
LINE
  5
9A4D
  8
AM_0
 10
150.9514585646703
 20
337.37157490321641
 30
0.0
 11
153.15145856467021
 21
337.74641107621812
 31
0.0
  0
LINE
  5
9A4E
  8
AM_0
 10
162.5548126101508
 20
339.34855527793741
 30
0.0
 11
164.2581666556249
 21
339.6387728741521
 31
0.0
  0
LINE
  5
9A4F
  8
AM_0
 10
158.35145856467011
 20
338.63238748512958
 30
0.0
 11
160.55481261014751
 21
339.00779512066288
 31
0.0
  0
LINE
  5
9A50
  8
AM_0
 10
165.7581666556249
 20
339.89434299210723
 30
0.0
 11
167.96152070110239
 21
340.2697506276408
 31
0.0
  0
LINE
  5
9A51
  8
AM_0
 10
185.08496412916631
 20
326.58238870919888
 30
0.0
 11
185.08496412916631
 21
338.11787931166708
 31
0.0
  0
LINE
  5
9A52
  8
AM_0
 10
176.8682287920569
 20
341.78727625257397
 30
0.0
 11
186.72993887599591
 21
343.46751519217048
 31
0.0
  0
LINE
  5
9A53
  8
AM_0
 10
173.1648747465795
 20
341.15629849908521
 30
0.0
 11
175.3682287920569
 21
341.53170613461862
 31
0.0
  0
LINE
  5
9A54
  8
AM_0
 10
185.9548126101497
 20
338.26818348190142
 30
0.0
 11
185.95481261014959
 21
342.32157612728508
 31
0.0
  0
LINE
  5
9A55
  8
AM_0
 10
195.35481261014951
 20
339.08238870919888
 30
0.0
 11
195.35481261014951
 21
329.08238870919888
 31
0.0
  0
ARC
  5
9A56
  8
AM_0
 10
192.85481261014939
 20
329.08238870919888
 30
0.0
 40
2.5
 50
270.0
 51
0.0
  0
LINE
  5
9A57
  8
AM_0
 10
195.85481261014939
 20
339.5823887091986
 30
0.0
 11
193.68050774699029
 21
339.5823887091986
 31
0.0
  0
LINE
  5
9A58
  8
AM_0
 10
201.72993887599571
 20
343.58238870919888
 30
0.0
 11
193.354812610149
 21
343.5823887091986
 31
0.0
  0
LINE
  5
9A59
  8
AM_0
 10
201.72993887599571
 20
343.58238870919888
 30
0.0
 11
201.72993887599571
 21
340.08238870919882
 31
0.0
  0
LINE
  5
9A5A
  8
AM_0
 10
195.85481261014939
 20
339.5823887091986
 30
0.0
 11
201.22993887599591
 21
339.5823887091986
 31
0.0
  0
ARC
  5
9A5B
  8
AM_0
 10
195.85481261014939
 20
339.08238870919888
 30
0.0
 40
0.5
 50
90.0
 51
180.0
  0
ARC
  5
9A5C
  8
AM_0
 10
201.22993887599591
 20
340.08238870919882
 30
0.0
 40
0.5
 50
270.0
 51
0.0
  0
LINE
  5
9A5D
  8
AM_0
 10
150.9514585646703
 20
351.58238870919888
 30
0.0
 11
148.95145856467019
 21
351.58238870919888
 31
0.0
  0
LINE
  5
9A5E
  8
AM_0
 10
154.65145856467009
 20
351.5823887091986
 30
0.0
 11
153.15145856467021
 21
351.58238870919888
 31
0.0
  0
LINE
  5
9A5F
  8
AM_0
 10
150.9514585646703
 20
355.58238870919922
 30
0.0
 11
148.95145856467019
 21
355.58238870919882
 31
0.0
  0
LINE
  5
9A60
  8
AM_0
 10
154.65145856467009
 20
355.58238870919882
 30
0.0
 11
153.15145856467021
 21
355.58238870919882
 31
0.0
  0
LINE
  5
9A61
  8
AM_0
 10
158.35145856467011
 20
351.5823887091986
 30
0.0
 11
156.8514585646702
 21
351.5823887091986
 31
0.0
  0
LINE
  5
9A62
  8
AM_0
 10
162.55481261015109
 20
351.5823887091986
 30
0.0
 11
160.55481261014751
 21
351.5823887091986
 31
0.0
  0
LINE
  5
9A63
  8
AM_0
 10
158.35145856467011
 20
355.58238870919882
 30
0.0
 11
156.8514585646702
 21
355.58238870919882
 31
0.0
  0
LINE
  5
9A64
  8
AM_0
 10
162.55481261015109
 20
355.58238870919882
 30
0.0
 11
160.55481261014751
 21
355.58238870919882
 31
0.0
  0
LINE
  5
9A65
  8
AM_0
 10
165.7581666556253
 20
351.5823887091986
 30
0.0
 11
164.25816665562499
 21
351.5823887091986
 31
0.0
  0
LINE
  5
9A66
  8
AM_0
 10
169.4615207011023
 20
351.5823887091986
 30
0.0
 11
167.96152070110259
 21
351.5823887091986
 31
0.0
  0
LINE
  5
9A67
  8
AM_0
 10
165.75816665562499
 20
355.58238870919882
 30
0.0
 11
164.25816665562499
 21
355.58238870919882
 31
0.0
  0
LINE
  5
9A68
  8
AM_0
 10
169.4615207011023
 20
355.58238870919882
 30
0.0
 11
167.96152070110259
 21
355.58238870919882
 31
0.0
  0
LINE
  5
9A69
  8
AM_0
 10
193.6645008861303
 20
363.08238870919888
 30
0.0
 11
193.99550887599631
 21
375.72245870919858
 31
0.0
  0
LINE
  5
9A6A
  8
AM_0
 10
173.1648747465795
 20
351.5823887091986
 30
0.0
 11
171.6648747465795
 21
351.5823887091986
 31
0.0
  0
LINE
  5
9A6B
  8
AM_0
 10
176.8682287920569
 20
351.5823887091986
 30
0.0
 11
175.3682287920569
 21
351.5823887091986
 31
0.0
  0
LINE
  5
9A6C
  8
AM_0
 10
173.1648747465795
 20
355.58238870919882
 30
0.0
 11
171.6648747465795
 21
355.58238870919882
 31
0.0
  0
LINE
  5
9A6D
  8
AM_0
 10
176.8682287920569
 20
355.58238870919882
 30
0.0
 11
175.3682287920569
 21
355.58238870919882
 31
0.0
  0
ARC
  5
9A6E
  8
AM_0
 10
195.24354887599631
 20
366.0823887091986
 30
0.0
 40
1.5
 50
90.000003000000945
 51
178.50000000000051
  0
LINE
  5
9A6F
  8
AM_0
 10
197.2299388759964
 20
363.08238870919922
 30
0.0
 11
197.2299388759964
 21
360.58238870919882
 31
0.0
  0
ARC
  5
9A70
  8
AM_0
 10
200.72993887599591
 20
359.5823887091986
 30
0.0
 40
1.0
 50
0.0
 51
90.0
  0
LINE
  5
9A71
  8
AM_0
 10
67.729938875996424
 20
471.8924387091987
 30
0.0
 11
77.729938875996297
 21
471.8924387091987
 31
0.0
  0
LINE
  5
9A72
  8
AM_0
 10
67.729938875996424
 20
480.2723287091988
 30
0.0
 11
77.729938875996297
 21
480.2723287091988
 31
0.0
  0
LINE
  5
9A73
  8
AM_0
 10
69.539938875996256
 20
492.6823587091987
 30
0.0
 11
79.33271887599625
 21
492.6823587091987
 31
0.0
  0
LINE
  5
9A74
  8
AM_0
 10
67.729938875996424
 20
485.9323587091987
 30
0.0
 11
77.729938875996297
 21
485.9323587091987
 31
0.0
  0
LINE
  5
9A75
  8
AM_0
 10
72.059958875996415
 20
423.9023287091988
 30
0.0
 11
144.40120887599619
 21
423.9023287091988
 31
0.0
  0
LINE
  5
9A76
  8
AM_0
 10
143.1720188759962
 20
423.58238870919882
 30
0.0
 11
73.279928875996518
 21
423.58238870919882
 31
0.0
  0
LINE
  5
9A77
  8
AM_0
 10
71.999958875996242
 20
431.31236870919878
 30
0.0
 11
144.46504887599639
 21
431.31236870919878
 31
0.0
  0
LINE
  5
9A78
  8
AM_0
 10
143.1720188759962
 20
433.58238870919882
 30
0.0
 11
73.279928875996518
 21
433.58238870919882
 31
0.0
  0
LINE
  5
9A79
  8
AM_0
 10
143.1720188759962
 20
431.58238870919871
 30
0.0
 11
73.279928875996518
 21
431.58238870919871
 31
0.0
  0
LINE
  5
9A7A
  8
AM_0
 10
71.999958875996242
 20
433.8524087091987
 30
0.0
 11
144.46504887599639
 21
433.8524087091987
 31
0.0
  0
LINE
  5
9A7B
  8
AM_0
 10
71.999958875996242
 20
441.3223787091988
 30
0.0
 11
144.46504887599639
 21
441.3223787091988
 31
0.0
  0
LINE
  5
9A7C
  8
AM_0
 10
71.999958875996242
 20
443.86241870919878
 30
0.0
 11
144.46504887599639
 21
443.86241870919878
 31
0.0
  0
LINE
  5
9A7D
  8
AM_0
 10
72.059958875996415
 20
451.2624387091987
 30
0.0
 11
144.38862887599649
 21
451.2624387091987
 31
0.0
  0
LINE
  5
9A7E
  8
AM_0
 10
72.059958875996415
 20
453.93235870919881
 30
0.0
 11
144.40120887599619
 21
453.93235870919881
 31
0.0
  0
LINE
  5
9A7F
  8
AM_0
 10
143.1720188759962
 20
441.58238870919871
 30
0.0
 11
73.279928875996518
 21
441.58238870919871
 31
0.0
  0
LINE
  5
9A80
  8
AM_0
 10
143.1720188759962
 20
443.58238870919871
 30
0.0
 11
73.279928875996518
 21
443.58238870919871
 31
0.0
  0
LINE
  5
9A81
  8
AM_0
 10
143.1686588759963
 20
451.58238870919871
 30
0.0
 11
73.279928875996518
 21
451.58238870919871
 31
0.0
  0
LINE
  5
9A82
  8
AM_0
 10
143.1686588759963
 20
453.58238870919882
 30
0.0
 11
73.279928875996518
 21
453.58238870919882
 31
0.0
  0
LINE
  5
9A83
  8
AM_0
 10
73.839928875996449
 20
500.8824287091989
 30
0.0
 11
87.339928875996691
 21
500.8824287091989
 31
0.0
  0
LINE
  5
9A84
  8
AM_0
 10
73.859948875996295
 20
499.2524287091988
 30
0.0
 11
87.229938875996424
 21
499.2524287091988
 31
0.0
  0
LINE
  5
9A85
  8
AM_0
 10
67.729938875996424
 20
394.8924387091987
 30
0.0
 11
77.729938875996297
 21
394.8924387091987
 31
0.0
  0
LINE
  5
9A86
  8
AM_0
 10
67.729938875996424
 20
403.28233870919883
 30
0.0
 11
77.729938875996297
 21
403.28233870919883
 31
0.0
  0
LINE
  5
9A87
  8
AM_0
 10
72.059958875996415
 20
421.24241870919872
 30
0.0
 11
144.40120887599619
 21
421.24241870919872
 31
0.0
  0
LINE
  5
9A88
  8
AM_0
 10
143.1720188759962
 20
421.58238870919871
 30
0.0
 11
73.279928875996518
 21
421.58238870919871
 31
0.0
  0
ARC
  5
9A89
  8
AM_0
 10
18.629968875996319
 20
477.9733787091987
 30
0.0
 40
3.0
 50
90.000049999998538
 51
180.00002000000191
  0
LINE
  5
9A8A
  8
AM_0
 10
67.729938875996424
 20
496.33238870919882
 30
0.0
 11
67.729938875996424
 21
437.58238870919882
 31
0.0
  0
LINE
  5
9A8B
  8
AM_0
 10
18.92994887599632
 20
471.87340870919871
 30
0.0
 11
18.92994887599632
 21
481.0733587091986
 31
0.0
  0
LINE
  5
9A8C
  8
AM_0
 10
12.228508775996371
 20
432.58238870919882
 30
0.0
 11
11.2299688759964
 21
432.58238870919882
 31
0.0
  0
LINE
  5
9A8D
  8
AM_0
 10
12.228508775996371
 20
442.58238870919882
 30
0.0
 11
11.2299688759964
 21
442.58238870919882
 31
0.0
  0
LINE
  5
9A8E
  8
AM_0
 10
11.2299688759964
 20
432.58238870919882
 30
0.0
 11
11.2299688759964
 21
442.58238870919882
 31
0.0
  0
LINE
  5
9A8F
  8
AM_0
 10
62.729938875996432
 20
400.39732870919852
 30
0.0
 11
62.729938875996432
 21
474.7684187091985
 31
0.0
  0
LINE
  5
9A90
  8
AM_0
 10
17.729938875996421
 20
403.05332870919852
 30
0.0
 11
17.729938875996421
 21
472.11143870919881
 31
0.0
  0
LINE
  5
9A91
  8
AM_0
 10
17.228508775996371
 20
472.320849804906
 30
0.0
 11
17.228508775996371
 21
402.8439276134913
 31
0.0
  0
LINE
  5
9A92
  8
AM_0
 10
20.229938875996432
 20
393.69139870919878
 30
0.0
 11
62.729938875996432
 21
393.69139870919878
 31
0.0
  0
LINE
  5
9A93
  8
AM_0
 10
20.229938875996432
 20
403.94139870919878
 30
0.0
 11
62.729938875996432
 21
403.94139870919878
 31
0.0
  0
ARC
  5
9A94
  8
AM_0
 10
18.629968875996319
 20
400.19139870919849
 30
0.0
 40
3.0
 50
89.999988999997569
 51
179.99997999999781
  0
LINE
  5
9A95
  8
AM_0
 10
18.92994887599632
 20
403.29136870919882
 30
0.0
 11
18.92994887599632
 21
394.09141870919882
 31
0.0
  0
LINE
  5
9A96
  8
AM_0
 10
18.92994887599632
 20
394.09141870919882
 30
0.0
 11
20.229938875996432
 21
394.09141870919882
 31
0.0
  0
ARC
  5
9A97
  8
AM_0
 10
18.629968875996319
 20
397.19139870919878
 30
0.0
 40
3.0
 50
179.99997999999781
 51
269.99995000000138
  0
LINE
  5
9A98
  8
AM_0
 10
18.629968875996319
 20
394.19139870919878
 30
0.0
 11
18.92994887599632
 21
394.19139870919878
 31
0.0
  0
LINE
  5
9A99
  8
AM_0
 10
15.629968875996321
 20
400.19139870919849
 30
0.0
 11
15.629968875996321
 21
397.19139870919878
 31
0.0
  0
LINE
  5
9A9A
  8
AM_0
 10
18.92994887599632
 20
403.29136870919882
 30
0.0
 11
20.229938875996432
 21
403.29136870919882
 31
0.0
  0
LINE
  5
9A9B
  8
AM_0
 10
18.629968875996319
 20
403.19139870919878
 30
0.0
 11
18.92994887599632
 21
403.19139870919878
 31
0.0
  0
LINE
  5
9A9C
  8
AM_0
 10
17.729938875996421
 20
432.58238870919882
 30
0.0
 11
17.228508775996371
 21
432.58238870919882
 31
0.0
  0
ARC
  5
9A9D
  8
AM_0
 10
72.053668875996266
 20
422.5723787091988
 30
0.0
 40
1.3300148000000001
 50
89.729417999999541
 51
270.27058999999991
  0
ARC
  5
9A9E
  8
AM_0
 10
73.279928875996518
 20
422.58238870919871
 30
0.0
 40
1.0000056999999991
 50
90.000003000000945
 51
270.0
  0
ARC
  5
9A9F
  8
AM_0
 10
71.991718875996241
 20
432.58238870919882
 30
0.0
 40
1.2700266
 50
89.629320999999507
 51
270.3706899999986
  0
ARC
  5
9AA0
  8
AM_0
 10
73.279928875996518
 20
432.58238870919882
 30
0.0
 40
1.0000056999999991
 50
90.000003000000945
 51
270.0
  0
LINE
  5
9AA1
  8
AM_0
 10
20.229938875996432
 20
471.2233787091987
 30
0.0
 11
62.729938875996432
 21
471.2233787091987
 31
0.0
  0
LINE
  5
9AA2
  8
AM_0
 10
17.729938875996421
 20
442.58238870919882
 30
0.0
 11
17.228508775996371
 21
442.58238870919882
 31
0.0
  0
LINE
  5
9AA3
  8
AM_0
 10
18.92994887599632
 20
471.87340870919871
 30
0.0
 11
20.229938875996432
 21
471.87340870919871
 31
0.0
  0
ARC
  5
9AA4
  8
AM_0
 10
18.629968875996319
 20
474.9733787091987
 30
0.0
 40
3.0
 50
180.00002000000191
 51
270.00001100000242
  0
LINE
  5
9AA5
  8
AM_0
 10
18.629968875996319
 20
471.97337870919853
 30
0.0
 11
18.92994887599632
 21
471.97337870919853
 31
0.0
  0
LINE
  5
9AA6
  8
AM_0
 10
15.629968875996321
 20
474.9733787091987
 30
0.0
 11
15.629968875996321
 21
477.9733787091987
 31
0.0
  0
ARC
  5
9AA7
  8
AM_0
 10
71.991718875996241
 20
442.59239870919851
 30
0.0
 40
1.2700266
 50
89.629327999999504
 51
270.37065999999959
  0
ARC
  5
9AA8
  8
AM_0
 10
73.279928875996518
 20
442.58238870919871
 30
0.0
 40
1.0000056999999991
 50
90.000003000000945
 51
270.0
  0
ARC
  5
9AA9
  8
AM_0
 10
73.279928875996518
 20
452.58238870919871
 30
0.0
 40
1.0000056999999991
 50
90.000003000000945
 51
270.0
  0
ARC
  5
9AAA
  8
AM_0
 10
72.053668875996266
 20
452.59739870919879
 30
0.0
 40
1.3350147999999991
 50
89.730435000000341
 51
270.26956999999999
  0
ARC
  5
9AAB
  8
AM_0
 10
21.228508775996371
 20
493.58238870919882
 30
0.0
 40
9.0
 50
89.999988999997569
 51
179.99997999999781
  0
LINE
  5
9AAC
  8
AM_0
 10
22.228508775996371
 20
497.58238870919882
 30
0.0
 11
45.729938875996417
 21
497.58238870919882
 31
0.0
  0
LINE
  5
9AAD
  8
AM_0
 10
21.228508775996371
 20
502.58238870919882
 30
0.0
 11
58.72993887599641
 21
502.58238870919882
 31
0.0
  0
LINE
  5
9AAE
  8
AM_0
 10
19.729938875996421
 20
490.33238870919848
 30
0.0
 11
67.729938875996424
 21
490.33238870919848
 31
0.0
  0
LINE
  5
9AAF
  8
AM_0
 10
20.229938875996432
 20
481.4733787091987
 30
0.0
 11
62.729938875996432
 21
481.4733787091987
 31
0.0
  0
LINE
  5
9AB0
  8
AM_0
 10
42.72993887599641
 20
496.3323887091986
 30
0.0
 11
67.729938875996424
 21
496.3323887091986
 31
0.0
  0
ARC
  5
9AB1
  8
AM_0
 10
19.729938875996421
 20
488.3323887091986
 30
0.0
 40
2.0
 50
90.000049999998538
 51
180.00002000000191
  0
LINE
  5
9AB2
  8
AM_0
 10
17.228508775996371
 20
480.62590761349128
 30
0.0
 11
17.228508775996371
 21
492.58238870919848
 31
0.0
  0
LINE
  5
9AB3
  8
AM_0
 10
18.92994887599632
 20
481.0733587091986
 30
0.0
 11
20.229938875996432
 21
481.0733587091986
 31
0.0
  0
LINE
  5
9AB4
  8
AM_0
 10
17.729938875996421
 20
480.8353187091987
 30
0.0
 11
17.729938875996421
 21
488.3323887091986
 31
0.0
  0
LINE
  5
9AB5
  8
AM_0
 10
18.629968875996319
 20
480.97337870919841
 30
0.0
 11
18.92994887599632
 21
480.97337870919841
 31
0.0
  0
ARC
  5
9AB6
  8
AM_0
 10
22.228508775996371
 20
492.58238870919882
 30
0.0
 40
5.0
 50
89.999988999997569
 51
180.0
  0
LINE
  5
9AB7
  8
AM_0
 10
42.72993887599641
 20
496.3323887091986
 30
0.0
 11
42.72993887599641
 21
490.33238870919848
 31
0.0
  0
LINE
  5
9AB8
  8
AM_0
 10
55.729938875996417
 20
496.33238870919882
 30
0.0
 11
55.729938875996417
 21
502.58238870919882
 31
0.0
  0
LINE
  5
9AB9
  8
AM_0
 10
58.72993887599641
 20
497.58238870919882
 30
0.0
 11
58.72993887599641
 21
502.58238870919882
 31
0.0
  0
LINE
  5
9ABA
  8
AM_0
 10
45.729938875996417
 20
496.33238870919882
 30
0.0
 11
45.729938875996417
 21
502.58238870919882
 31
0.0
  0
LINE
  5
9ABB
  8
AM_0
 10
55.729938875996417
 20
497.58238870919882
 30
0.0
 11
58.72993887599641
 21
497.58238870919882
 31
0.0
  0
LINE
  5
9ABC
  8
AM_0
 10
62.729938875996432
 20
481.4733787091987
 30
0.0
 11
62.729938875996432
 21
490.33238870919848
 31
0.0
  0
LINE
  5
9ABD
  8
AM_0
 10
71.899918875996306
 20
499.37241870919871
 30
0.0
 11
71.009908875996246
 21
495.84239870919879
 31
0.0
  0
LINE
  5
9ABE
  8
AM_0
 10
71.919938875996252
 20
497.71238870919882
 30
0.0
 11
70.999898875996507
 21
493.84239870919879
 31
0.0
  0
LINE
  5
9ABF
  8
AM_0
 10
69.559958875996287
 20
494.70237870919851
 30
0.0
 11
71.209918875996266
 21
494.70237870919851
 31
0.0
  0
ARC
  5
9AC0
  8
AM_0
 10
69.549518875996498
 20
496.20774870919871
 30
0.0
 40
1.505448699999999
 50
270.39686999999981
 51
345.9524700000004
  0
ARC
  5
9AC1
  8
AM_0
 10
69.535118875996261
 20
494.18723870919882
 30
0.0
 40
1.5048382
 50
270.18264000000067
 51
346.75308000000121
  0
LINE
  5
9AC2
  8
AM_0
 10
67.729938875996424
 20
495.0123787091984
 30
0.0
 11
70.549948875996094
 21
495.08238870919882
 31
0.0
  0
ARC
  5
9AC3
  8
AM_0
 10
73.860188875996243
 20
497.26011870919882
 30
0.0
 40
1.9922863
 50
90.007721000000544
 51
166.87839000000031
  0
ARC
  5
9AC4
  8
AM_0
 10
73.834798875996213
 20
498.8878087091984
 30
0.0
 40
1.994612099999999
 50
89.851991999999015
 51
165.9388600000006
  0
ARC
  5
9AC5
  8
AM_0
 10
80.871848875996221
 20
478.80308870919879
 30
0.0
 40
1.002184699999999
 50
354.80385999999999
 51
45.047306999998277
  0
LINE
  5
9AC6
  8
AM_0
 10
77.729938875996297
 20
485.9323587091987
 30
0.0
 11
77.729938875996297
 21
471.8924387091987
 31
0.0
  0
LINE
  5
9AC7
  8
AM_0
 10
175.72993887599611
 20
463.58238870919871
 30
0.0
 11
82.279928875996518
 21
463.58238870919871
 31
0.0
  0
LINE
  5
9AC8
  8
AM_0
 10
175.72993887599611
 20
471.58238870919871
 30
0.0
 11
82.279928875996518
 21
471.58238870919871
 31
0.0
  0
LINE
  5
9AC9
  8
AM_0
 10
81.189958875996297
 20
464.0723787091988
 30
0.0
 11
175.72993887599611
 21
464.0723787091988
 31
0.0
  0
LINE
  5
9ACA
  8
AM_0
 10
81.399918875996335
 20
470.9523787091988
 30
0.0
 11
175.7499588759963
 21
470.9523787091988
 31
0.0
  0
LINE
  5
9ACB
  8
AM_0
 10
175.72993887599611
 20
411.58238870919882
 30
0.0
 11
82.265588875996215
 21
411.58238870919882
 31
0.0
  0
LINE
  5
9ACC
  8
AM_0
 10
81.189958875996297
 20
411.1024087091987
 30
0.0
 11
175.72993887599611
 21
411.1024087091987
 31
0.0
  0
LINE
  5
9ACD
  8
AM_0
 10
175.72993887599611
 20
403.58238870919882
 30
0.0
 11
82.265588875996215
 21
403.58238870919882
 31
0.0
  0
LINE
  5
9ACE
  8
AM_0
 10
81.399918875996335
 20
400.86241870919878
 30
0.0
 11
163.72993887599631
 21
400.86241870919878
 31
0.0
  0
LINE
  5
9ACF
  8
AM_0
 10
163.72993887599631
 20
401.58238870919871
 30
0.0
 11
82.265588875996215
 21
401.58238870919871
 31
0.0
  0
LINE
  5
9AD0
  8
AM_0
 10
81.399918875996335
 20
404.22239870919879
 30
0.0
 11
175.7499588759963
 21
404.22239870919879
 31
0.0
  0
LINE
  5
9AD1
  8
AM_0
 10
108.7299988759965
 20
391.23246870919883
 30
0.0
 11
77.729998875996259
 21
393.26246870919891
 31
0.0
  0
ARC
  5
9AD2
  8
AM_0
 10
89.72273887599664
 20
412.58238870919871
 30
0.0
 40
1.0000259
 50
89.587534000000232
 51
270.4124599999987
  0
ARC
  5
9AD3
  8
AM_0
 10
81.184228875996311
 20
412.55235870919859
 30
0.0
 40
1.460011199999999
 50
89.775248000001255
 51
270.22474000000028
  0
ARC
  5
9AD4
  8
AM_0
 10
82.272788875996241
 20
412.58238870919871
 30
0.0
 40
1.0000255999999981
 50
89.589474000000749
 51
270.41051999999962
  0
ARC
  5
9AD5
  8
AM_0
 10
89.72273887599664
 20
402.58238870919882
 30
0.0
 40
1.0000259
 50
89.587534000000232
 51
270.4124599999987
  0
ARC
  5
9AD6
  8
AM_0
 10
81.399918875996335
 20
402.53233870919883
 30
0.0
 40
1.6800002000000001
 50
90.000003000000945
 51
270.0
  0
ARC
  5
9AD7
  8
AM_0
 10
82.272788875996241
 20
402.58238870919882
 30
0.0
 40
1.0000255999999981
 50
89.589474000000749
 51
270.41051999999962
  0
ARC
  5
9AD8
  8
AM_0
 10
80.870748875996412
 20
396.37205870919882
 30
0.0
 40
1.0032491999999991
 50
314.98119000000088
 51
5.1676434000008573
  0
ARC
  5
9AD9
  8
AM_0
 10
77.349628875996416
 20
399.9277187091987
 30
0.0
 40
6.0073843
 50
273.6297400000006
 51
314.76384999999948
  0
ARC
  5
9ADA
  8
AM_0
 10
76.892778875996271
 20
395.99387870919878
 30
0.0
 40
4.9991421999999961
 50
5.3780268999994201
 51
80.360064999998514
  0
ARC
  5
9ADB
  8
AM_0
 10
89.72273887599664
 20
422.58238870919871
 30
0.0
 40
1.0000259
 50
89.587534000000232
 51
270.4124599999987
  0
ARC
  5
9ADC
  8
AM_0
 10
89.72273887599664
 20
432.58238870919882
 30
0.0
 40
1.0000259
 50
89.587534000000232
 51
270.4124599999987
  0
ARC
  5
9ADD
  8
AM_0
 10
89.72273887599664
 20
442.58238870919871
 30
0.0
 40
1.0000259
 50
89.587534000000232
 51
270.4124599999987
  0
ARC
  5
9ADE
  8
AM_0
 10
89.72273887599664
 20
452.58238870919871
 30
0.0
 40
1.0000259
 50
89.587534000000232
 51
270.4124599999987
  0
ARC
  5
9ADF
  8
AM_0
 10
82.272788875996241
 20
462.58238870919882
 30
0.0
 40
1.0000255999999981
 50
89.589474000000749
 51
270.41051999999962
  0
ARC
  5
9AE0
  8
AM_0
 10
81.184228875996311
 20
462.61241870919878
 30
0.0
 40
1.460011199999999
 50
89.775248000001255
 51
270.22474000000028
  0
ARC
  5
9AE1
  8
AM_0
 10
89.72273887599664
 20
462.58238870919882
 30
0.0
 40
1.0000259
 50
89.587534000000232
 51
270.4124599999987
  0
ARC
  5
9AE2
  8
AM_0
 10
82.272788875996241
 20
472.58238870919871
 30
0.0
 40
1.0000255999999981
 50
89.589474000000749
 51
270.41051999999962
  0
ARC
  5
9AE3
  8
AM_0
 10
76.88551887599651
 20
479.17661870919881
 30
0.0
 40
5.0059714
 50
279.71098000000097
 51
354.6788800000013
  0
ARC
  5
9AE4
  8
AM_0
 10
81.399918875996335
 20
472.63242870919879
 30
0.0
 40
1.6800002000000001
 50
90.000003000000945
 51
270.0
  0
ARC
  5
9AE5
  8
AM_0
 10
89.72273887599664
 20
472.58238870919871
 30
0.0
 40
1.0000259
 50
89.587534000000232
 51
270.4124599999987
  0
ARC
  5
9AE6
  8
AM_0
 10
143.1686588759963
 20
422.58238870919871
 30
0.0
 40
1.0000056999999991
 50
269.999989999999
 51
90.000003000000945
  0
ARC
  5
9AE7
  8
AM_0
 10
144.3949188759963
 20
422.5723787091988
 30
0.0
 40
1.3300148000000001
 50
269.72941999999853
 51
90.270567000000995
  0
ARC
  5
9AE8
  8
AM_0
 10
143.1686588759963
 20
432.58238870919882
 30
0.0
 40
1.0000056999999991
 50
269.999989999999
 51
90.000003000000945
  0
ARC
  5
9AE9
  8
AM_0
 10
144.45686887599621
 20
432.58238870919882
 30
0.0
 40
1.2700266
 50
269.62931999999989
 51
90.370670000001468
  0
CIRCLE
  5
9AEA
  8
AM_0
 10
187.22993887599611
 20
409.08238870919871
 30
0.0
 40
1.0
  0
LINE
  5
9AEB
  8
AM_0
 10
176.74995887599641
 20
410.08238870919871
 30
0.0
 11
176.74995887599641
 21
405.22239870919879
 31
0.0
  0
LINE
  5
9AEC
  8
AM_0
 10
177.22993887599611
 20
410.08238870919871
 30
0.0
 11
177.22993887599611
 21
405.08238870919871
 31
0.0
  0
ARC
  5
9AED
  8
AM_0
 10
175.7499588759963
 20
405.22239870919879
 30
0.0
 40
1.0
 50
269.999989999999
 51
0.0000006832462478
  0
ARC
  5
9AEE
  8
AM_0
 10
175.72993887599611
 20
405.08238870919871
 30
0.0
 40
1.5
 50
269.999989999999
 51
0.0000006832462478
  0
ARC
  5
9AEF
  8
AM_0
 10
175.72993887599611
 20
410.08238870919871
 30
0.0
 40
1.02
 50
0.0
 51
90.000003000000945
  0
ARC
  5
9AF0
  8
AM_0
 10
175.72993887599611
 20
410.08238870919871
 30
0.0
 40
1.5
 50
0.0
 51
90.000003000000945
  0
CIRCLE
  5
9AF1
  8
AM_0
 10
182.22993887599611
 20
409.08238870919871
 30
0.0
 40
1.149999999999999
  0
CIRCLE
  5
9AF2
  8
AM_0
 10
182.22993887599611
 20
409.08238870919871
 30
0.0
 40
1.1000000000000001
  0
LINE
  5
9AF3
  8
AM_0
 10
192.70991887599629
 20
410.08238870919871
 30
0.0
 11
192.70991887599629
 21
405.22239870919879
 31
0.0
  0
LINE
  5
9AF4
  8
AM_0
 10
192.22993887599611
 20
410.08238870919871
 30
0.0
 11
192.22993887599611
 21
405.08238870919871
 31
0.0
  0
ARC
  5
9AF5
  8
AM_0
 10
193.70991887599621
 20
405.22239870919879
 30
0.0
 40
1.0
 50
179.99998999999889
 51
270.0
  0
ARC
  5
9AF6
  8
AM_0
 10
193.7299388759964
 20
405.08238870919871
 30
0.0
 40
1.5
 50
179.99998999999889
 51
270.0
  0
ARC
  5
9AF7
  8
AM_0
 10
193.7299388759964
 20
410.08238870919871
 30
0.0
 40
1.02
 50
90.000003000000945
 51
180.00001000000091
  0
ARC
  5
9AF8
  8
AM_0
 10
193.7299388759964
 20
410.08238870919871
 30
0.0
 40
1.5
 50
90.000003000000945
 51
180.00001000000091
  0
ARC
  5
9AF9
  8
AM_0
 10
143.1686588759963
 20
442.58238870919871
 30
0.0
 40
1.0000056999999991
 50
269.999989999999
 51
90.000003000000945
  0
ARC
  5
9AFA
  8
AM_0
 10
144.45686887599621
 20
442.59239870919851
 30
0.0
 40
1.2700266
 50
269.62931999999989
 51
90.370670000001468
  0
ARC
  5
9AFB
  8
AM_0
 10
144.3949188759963
 20
452.59739870919879
 30
0.0
 40
1.3350147999999991
 50
269.73042999999973
 51
90.269556000001344
  0
ARC
  5
9AFC
  8
AM_0
 10
143.1686588759963
 20
452.58238870919871
 30
0.0
 40
1.0000056999999991
 50
269.999989999999
 51
90.000003000000945
  0
CIRCLE
  5
9AFD
  8
AM_0
 10
187.22993887599611
 20
466.08238870919882
 30
0.0
 40
1.0
  0
LINE
  5
9AFE
  8
AM_0
 10
177.22993887599611
 20
465.08238870919871
 30
0.0
 11
177.22993887599611
 21
470.08238870919882
 31
0.0
  0
LINE
  5
9AFF
  8
AM_0
 10
176.74995887599641
 20
465.08238870919871
 30
0.0
 11
176.74995887599641
 21
469.94236870919877
 31
0.0
  0
ARC
  5
9B00
  8
AM_0
 10
175.72993887599611
 20
465.08238870919871
 30
0.0
 40
1.02
 50
269.999989999999
 51
0.0000006832429909
  0
ARC
  5
9B01
  8
AM_0
 10
175.72993887599611
 20
465.08238870919871
 30
0.0
 40
1.5
 50
269.999989999999
 51
0.0000006832462478
  0
CIRCLE
  5
9B02
  8
AM_0
 10
182.22993887599611
 20
466.08238870919882
 30
0.0
 40
1.1000000000000001
  0
CIRCLE
  5
9B03
  8
AM_0
 10
182.22993887599611
 20
466.08238870919882
 30
0.0
 40
1.149999999999999
  0
ARC
  5
9B04
  8
AM_0
 10
175.72993887599611
 20
470.08238870919882
 30
0.0
 40
1.5
 50
0.0
 51
90.000003000000945
  0
ARC
  5
9B05
  8
AM_0
 10
175.7499588759963
 20
469.94236870919877
 30
0.0
 40
1.0
 50
0.0
 51
90.000003000000945
  0
LINE
  5
9B06
  8
AM_0
 10
192.70991887599629
 20
465.08238870919871
 30
0.0
 11
192.70991887599629
 21
469.94236870919877
 31
0.0
  0
LINE
  5
9B07
  8
AM_0
 10
192.22993887599611
 20
465.08238870919871
 30
0.0
 11
192.22993887599611
 21
470.08238870919882
 31
0.0
  0
ARC
  5
9B08
  8
AM_0
 10
193.7299388759964
 20
465.08238870919871
 30
0.0
 40
1.02
 50
179.99998999999889
 51
270.0
  0
ARC
  5
9B09
  8
AM_0
 10
193.7299388759964
 20
465.08238870919871
 30
0.0
 40
1.5
 50
179.99998999999889
 51
270.0
  0
ARC
  5
9B0A
  8
AM_0
 10
193.7299388759964
 20
470.08238870919882
 30
0.0
 40
1.5
 50
90.000003000000945
 51
180.00001000000091
  0
ARC
  5
9B0B
  8
AM_0
 10
193.70991887599621
 20
469.94236870919877
 30
0.0
 40
1.0
 50
90.000003000000945
 51
180.00001000000091
  0
LINE
  5
9B0C
  8
AM_0
 10
108.7299988759965
 20
483.93235870919858
 30
0.0
 11
77.729938875996297
 21
481.90235870919878
 31
0.0
  0
ARC
  5
9B0D
  8
AM_0
 10
90.726398875996225
 20
500.8359287091987
 30
0.0
 40
1.996488899999999
 50
89.899147999998391
 51
180.10084999999879
  0
ARC
  5
9B0E
  8
AM_0
 10
87.334858875996389
 20
502.38755870919852
 30
0.0
 40
1.505230099999999
 50
270.19421
 51
345.17177999999848
  0
ARC
  5
9B0F
  8
AM_0
 10
90.724078875996284
 20
499.47825870919883
 30
0.0
 40
1.994130499999996
 50
89.831105999999224
 51
180.16889000000049
  0
ARC
  5
9B10
  8
AM_0
 10
87.226218875996381
 20
492.07615870919858
 30
0.0
 40
1.5037541000000001
 50
270.14287000000093
 51
359.85713999999848
  0
ARC
  5
9B11
  8
AM_0
 10
81.689348875996245
 20
488.57713870919872
 30
0.0
 40
1.9952742999999991
 50
90.148580000000095
 51
170.03521999999941
  0
LINE
  5
9B12
  8
AM_0
 10
79.674218875996232
 20
494.27238870919871
 30
0.0
 11
78.714258875996109
 21
489.80241870919872
 31
0.0
  0
LINE
  5
9B13
  8
AM_0
 10
78.939228875996307
 20
484.57575870919851
 30
0.0
 11
79.724268875996415
 21
488.92243870919879
 31
0.0
  0
ARC
  5
9B14
  8
AM_0
 10
77.350908875996268
 20
475.24986870919878
 30
0.0
 40
6.0044340999999992
 50
45.225577999998769
 51
86.380821999999185
  0
ARC
  5
9B15
  8
AM_0
 10
77.463098875996081
 20
484.84239870919879
 30
0.0
 40
1.5
 50
280.24789000000118
 51
349.76261999999917
  0
LINE
  5
9B16
  8
AM_0
 10
77.244218875996296
 20
488.62241870919871
 30
0.0
 11
79.664208875996366
 21
488.62241870919871
 31
0.0
  0
ARC
  5
9B17
  8
AM_0
 10
77.246788875996288
 20
490.12473870919871
 30
0.0
 40
1.502416299999999
 50
269.90137999999871
 51
347.60813000000093
  0
LINE
  5
9B18
  8
AM_0
 10
81.620378875996295
 20
495.85240870919853
 30
0.0
 11
87.229938875996424
 21
495.85240870919853
 31
0.0
  0
LINE
  5
9B19
  8
AM_0
 10
81.684228875996297
 20
490.5723787091988
 30
0.0
 11
87.229938875996424
 21
490.5723787091988
 31
0.0
  0
ARC
  5
9B1A
  8
AM_0
 10
81.627278875996495
 20
493.85532870919877
 30
0.0
 40
1.997119399999999
 50
89.801366999998493
 51
167.94476000000131
  0
ARC
  5
9B1B
  8
AM_0
 10
87.225058875996226
 20
497.35728870919883
 30
0.0
 40
1.504891299999997
 50
270.1859300000005
 51
359.81406999999939
  0
LINE
  5
9B1C
  8
AM_0
 10
88.729938875996424
 20
499.47239870919879
 30
0.0
 11
88.729938875996424
 21
492.07237870919852
 31
0.0
  0
ARC
  5
9B1D
  8
AM_0
 10
87.22303887599611
 20
500.75926870919881
 30
0.0
 40
1.506942899999999
 50
270.2633699999991
 51
359.73663000000079
  0
ARC
  5
9B1E
  8
AM_0
 10
90.723228875996284
 20
497.44907870919872
 30
0.0
 40
1.9933081999999991
 50
89.807323000000935
 51
180.19266999999849
  0
ARC
  5
9B1F
  8
AM_0
 10
90.723718875996283
 20
501.5058487091988
 30
0.0
 40
1.9964978999999961
 50
89.821482000000245
 51
165.6006099999997
  0
ARC
  5
9B20
  8
AM_0
 10
214.3736188759961
 20
389.73863870919882
 30
0.0
 40
1.4937901
 50
89.756423999998475
 51
165.11292000000071
  0
LINE
  5
9B21
  8
AM_0
 10
214.7299388759962
 20
375.08238870919882
 30
0.0
 11
214.7299388759962
 21
500.08238870919882
 31
0.0
  0
LINE
  5
9B22
  8
AM_0
 10
213.7299388759962
 20
377.0824487091989
 30
0.0
 11
208.00413887599649
 21
368.26551870919877
 31
0.0
  0
ARC
  5
9B23
  8
AM_0
 10
206.74611887599619
 20
369.08238870919882
 30
0.0
 40
1.5
 50
269.999989999999
 51
326.99999999999801
  0
LINE
  5
9B24
  8
AM_0
 10
215.7299388759962
 20
385.5423487091989
 30
0.0
 11
222.72993887599651
 21
385.5423487091989
 31
0.0
  0
LINE
  5
9B25
  8
AM_0
 10
215.7299388759962
 20
374.08238870919882
 30
0.0
 11
222.72993887599651
 21
374.08238870919882
 31
0.0
  0
LINE
  5
9B26
  8
AM_0
 10
209.4699288759962
 20
377.21244870919878
 30
0.0
 11
212.92991887599629
 21
390.12241870919883
 31
0.0
  0
LINE
  5
9B27
  8
AM_0
 10
209.4399588759963
 20
377.08238870919882
 30
0.0
 11
214.7299388759962
 21
377.08238870919882
 31
0.0
  0
ARC
  5
9B28
  8
AM_0
 10
207.5312088759963
 20
377.7286287091988
 30
0.0
 40
2.0062942999999991
 50
270.24932999999891
 51
345.08844000000039
  0
ARC
  5
9B29
  8
AM_0
 10
215.7229788759962
 20
375.0754287091986
 30
0.0
 40
0.99304521
 50
179.5973099999994
 51
270.40267999999998
  0
ARC
  5
9B2A
  8
AM_0
 10
215.72230887599619
 20
386.53477870919892
 30
0.0
 40
0.99237448
 50
179.55802000000131
 51
270.4419699999998
  0
ARC
  5
9B2B
  8
AM_0
 10
208.06990887599619
 20
412.58238870919871
 30
0.0
 40
1.0000255999999981
 50
269.58946999999989
 51
90.410531000001029
  0
ARC
  5
9B2C
  8
AM_0
 10
211.7699188759963
 20
412.55235870919859
 30
0.0
 40
1.460011199999999
 50
269.77524999999991
 51
90.224750000000114
  0
LINE
  5
9B2D
  8
AM_0
 10
214.7299388759962
 20
400.43235870919858
 30
0.0
 11
222.72993887599651
 21
400.43235870919858
 31
0.0
  0
ARC
  5
9B2E
  8
AM_0
 10
208.06996887599621
 20
402.58238870919882
 30
0.0
 40
1.0000040999999991
 50
269.999989999999
 51
90.000003000000945
  0
ARC
  5
9B2F
  8
AM_0
 10
211.54994887599619
 20
402.54234870919879
 30
0.0
 40
1.6800077
 50
269.999989999999
 51
90.000003000000945
  0
LINE
  5
9B30
  8
AM_0
 10
214.7299388759962
 20
474.73240870919852
 30
0.0
 11
222.72993887599651
 21
474.73240870919852
 31
0.0
  0
ARC
  5
9B31
  8
AM_0
 10
211.7699188759963
 20
462.61241870919878
 30
0.0
 40
1.460011199999999
 50
269.77524999999991
 51
90.224750000000114
  0
ARC
  5
9B32
  8
AM_0
 10
208.06990887599619
 20
462.58238870919882
 30
0.0
 40
1.0000255999999981
 50
269.58946999999989
 51
90.410531000001029
  0
ARC
  5
9B33
  8
AM_0
 10
211.54994887599619
 20
472.63242870919879
 30
0.0
 40
1.6800077
 50
269.999989999999
 51
90.000003000000945
  0
ARC
  5
9B34
  8
AM_0
 10
208.06996887599621
 20
472.58238870919871
 30
0.0
 40
1.0000040999999991
 50
269.999989999999
 51
90.000003000000945
  0
ARC
  5
9B35
  8
AM_0
 10
209.24989887599619
 20
499.97239870919879
 30
0.0
 40
1.5
 50
12.12979199999887
 51
90.000003000000945
  0
LINE
  5
9B36
  8
AM_0
 10
210.2801388759963
 20
502.3175787091987
 30
0.0
 11
212.96998887599619
 21
489.80235870919859
 31
0.0
  0
LINE
  5
9B37
  8
AM_0
 10
215.7299388759962
 20
501.08238870919871
 30
0.0
 11
222.72993887599651
 21
501.08238870919871
 31
0.0
  0
LINE
  5
9B38
  8
AM_0
 10
215.7299388759962
 20
489.62241870919871
 30
0.0
 11
222.72993887599651
 21
489.62241870919871
 31
0.0
  0
LINE
  5
9B39
  8
AM_0
 10
209.46995887599621
 20
497.9623287091984
 30
0.0
 11
212.9299488759961
 21
485.04237870919877
 31
0.0
  0
ARC
  5
9B3A
  8
AM_0
 10
214.38008887599619
 20
485.43467870919881
 30
0.0
 40
1.5022733999999991
 50
195.1365099999997
 51
269.99412000000041
  0
ARC
  5
9B3B
  8
AM_0
 10
215.72902887599631
 20
488.62327870919859
 30
0.0
 40
0.9990923399999999
 50
89.947921999999295
 51
180.05208000000101
  0
LINE
  5
9B3C
  8
AM_0
 10
214.43995887599641
 20
488.62241870919871
 30
0.0
 11
212.01997887599629
 21
488.62241870919871
 31
0.0
  0
ARC
  5
9B3D
  8
AM_0
 10
214.4356288759964
 20
490.12266870919882
 30
0.0
 40
1.500286
 50
192.3263099999981
 51
270.16416999999848
  0
ARC
  5
9B3E
  8
AM_0
 10
207.53938887599631
 20
497.44322870919848
 30
0.0
 40
1.9991226
 50
15.05079100000003
 51
89.984388999999666
  0
ARC
  5
9B3F
  8
AM_0
 10
215.72975887599651
 20
500.08262870919862
 30
0.0
 40
0.99980682
 50
89.98893100000069
 51
180.0110700000007
  0
LINE
  5
9B40
  8
AM_0
 10
211.19038887599629
 20
498.08238870919871
 30
0.0
 11
214.7299388759962
 21
498.08238870919871
 31
0.0
  0
ARC
  5
9B41
  8
AM_0
 10
208.81361887599621
 20
502.00242870919851
 30
0.0
 40
1.5
 50
12.12979199999887
 51
90.000003000000945
  0
ARC
  5
9B42
  8
AM_0
 10
208.95759887599621
 20
501.33238870919882
 30
0.0
 40
1.5
 50
12.12979199999887
 51
90.000003000000945
  0
LINE
  5
9B50
  8
ﾁｭｳｼﾝｾﾝ
 10
355.22999887599627
 20
329.08241870919841
 30
0.0
 11
355.22999887599627
 21
356.08241870919869
 31
0.0
  0
LINE
  5
9B51
  8
ﾁｭｳｼﾝｾﾝ
 10
341.72999887599627
 20
342.58241870919858
 30
0.0
 11
368.72999887599622
 21
342.58241870919858
 31
0.0
  0
LINE
  5
9B58
  8
ﾁｭｳｼﾝｾﾝ
 10
230.22993887599631
 20
329.08241870919841
 30
0.0
 11
230.22993887599631
 21
356.08241870919869
 31
0.0
  0
LINE
  5
9B59
  8
ﾁｭｳｼﾝｾﾝ
 10
216.72993887599631
 20
342.58241870919858
 30
0.0
 11
243.72993887599631
 21
342.58241870919858
 31
0.0
  0
LINE
  5
9B60
  8
ﾁｭｳｼﾝｾﾝ
 10
230.22993887599631
 20
519.08238870919843
 30
0.0
 11
230.22993887599631
 21
546.08238870919865
 31
0.0
  0
LINE
  5
9B61
  8
ﾁｭｳｼﾝｾﾝ
 10
216.72993887599631
 20
532.58238870919865
 30
0.0
 11
243.72993887599631
 21
532.58238870919865
 31
0.0
  0
TEXT
  5
A0AE
  8
0
  6
CONTINUOUS
 62
     0
 10
526.53877469555539
 20
410.38216997054587
 30
0.0
 40
10.0
  1
VX04-120B~VX04-200B
  0
VIEWPORT
  5
89
 67
     1
  8
0
 10
210.0
 20
148.5
 30
0.0
 40
420.0
 41
297.0
 68
    -1
 69
     1
1001
ACAD
1000
MVIEW
1002
{
1070
    16
1010
0.0
1020
0.0
1030
0.0
1010
0.0
1020
0.0
1030
1.0
1040
0.0
1040
297.0
1040
221.70154043645701
1040
148.5
1040
50.0
1040
0.0
1040
0.0
1070
     0
1070
   100
1070
     1
1070
     1
1070
     0
1070
     0
1070
     0
1070
     0
1040
0.0
1040
0.0
1040
0.0
1040
10.0
1040
10.0
1040
10.0
1040
10.0
1070
     0
1002
{
1002
}
1002
}
1001
GENIUS_GENOREF_13
1005
1B94
1001
GENIUS_GENSCREG_15
1000
PF
1040
1.0
1000
DF
1040
1.0
1000
MIN
1011
0.0
1021
0.0
1031
0.0
1021
0.0
1031
0.0
1000
MAX
1011
420.0
1021
0.0
1031
0.0
1021
297.0
1031
0.0
1000
FLAGS
1070
     4
  0
ENDSEC
  0
EOF
