  0
SECTION
  2
HEADER
  9
$ACADVER
  1
AC1009
  9
$INSBASE
 10
0.0
 20
0.0
 30
0.0
  9
$EXTMIN
 10
13.067635479312001
 20
14.95115634540821
 30
-0.0000000000112498
  9
$EXTMAX
 10
1024.60784646002
 20
702.58368333810881
 30
0.0000000000002956
  9
$LIMMIN
 10
0.0
 20
0.0
  9
$LIMMAX
 10
408.0
 20
284.0
  9
$ORTHOMODE
 70
     0
  9
$REGENMODE
 70
     1
  9
$FILLMODE
 70
     1
  9
$QTEXTMODE
 70
     0
  9
$MIRRTEXT
 70
     1
  9
$DRAGMODE
 70
     2
  9
$LTSCALE
 40
1.0
  9
$OSMODE
 70
   551
  9
$ATTMODE
 70
     1
  9
$TEXTSIZE
 40
2.5
  9
$TRACEWID
 40
1.0
  9
$TEXTSTYLE
  7
STANDARD
  9
$CLAYER
  8
AM_0
  9
$CELTYPE
  6
BYLAYER
  9
$CECOLOR
 62
   256
  9
$DIMSCALE
 40
1.0
  9
$DIMASZ
 40
2.5
  9
$DIMEXO
 40
1.0
  9
$DIMDLI
 40
7.0
  9
$DIMRND
 40
0.0
  9
$DIMDLE
 40
0.0
  9
$DIMEXE
 40
1.0
  9
$DIMTP
 40
0.1
  9
$DIMTM
 40
0.1000000001
  9
$DIMTXT
 40
2.5
  9
$DIMCEN
 40
0.0
  9
$DIMTSZ
 40
0.0
  9
$DIMTOL
 70
     0
  9
$DIMLIM
 70
     0
  9
$DIMTIH
 70
     0
  9
$DIMTOH
 70
     0
  9
$DIMSE1
 70
     0
  9
$DIMSE2
 70
     0
  9
$DIMTAD
 70
     3
  9
$DIMZIN
 70
     8
  9
$DIMBLK
  1

  9
$DIMASO
 70
     1
  9
$DIMSHO
 70
     1
  9
$DIMPOST
  1

  9
$DIMAPOST
  1
"
  9
$DIMALT
 70
     0
  9
$DIMALTD
 70
     2
  9
$DIMALTF
 40
0.0393701
  9
$DIMLFAC
 40
1.0
  9
$DIMTOFL
 70
     1
  9
$DIMTVP
 40
0.0
  9
$DIMTIX
 70
     0
  9
$DIMSOXD
 70
     0
  9
$DIMSAH
 70
     0
  9
$DIMBLK1
  1

  9
$DIMBLK2
  1

  9
$DIMSTYLE
  2
AM_JIS
  9
$DIMCLRD
 70
   256
  9
$DIMCLRE
 70
   256
  9
$DIMCLRT
 70
     4
  9
$DIMTFAC
 40
0.71
  9
$DIMGAP
 40
1.0
  9
$LUNITS
 70
     2
  9
$LUPREC
 70
     2
  9
$SKETCHINC
 40
1.0
  9
$FILLETRAD
 40
2.5
  9
$AUNITS
 70
     0
  9
$AUPREC
 70
     3
  9
$MENU
  1
.
  9
$ELEVATION
 40
0.0
  9
$PELEVATION
 40
0.0
  9
$THICKNESS
 40
0.0
  9
$LIMCHECK
 70
     0
  9
$BLIPMODE
 70
     0
  9
$CHAMFERA
 40
2.5
  9
$CHAMFERB
 40
2.5
  9
$SKPOLY
 70
     0
  9
$TDCREATE
 40
2453061.7659935532
  9
$TDUPDATE
 40
2458540.7042354862
  9
$TDINDWG
 40
0.0562446991
  9
$TDUSRTIMER
 40
0.0562445023
  9
$USRTIMER
 70
     1
  9
$ANGBASE
 50
0.0
  9
$ANGDIR
 70
     0
  9
$PDMODE
 70
     0
  9
$PDSIZE
 40
0.0
  9
$PLINEWID
 40
0.0
  9
$COORDS
 70
     1
  9
$SPLFRAME
 70
     0
  9
$SPLINETYPE
 70
     6
  9
$SPLINESEGS
 70
     8
  9
$ATTDIA
 70
     1
  9
$ATTREQ
 70
     1
  9
$HANDLING
 70
     1
  9
$HANDSEED
  5
9745
  9
$SURFTAB1
 70
     6
  9
$SURFTAB2
 70
     6
  9
$SURFTYPE
 70
     6
  9
$SURFU
 70
     6
  9
$SURFV
 70
     6
  9
$UCSNAME
  2

  9
$UCSORG
 10
0.0
 20
0.0
 30
0.0
  9
$UCSXDIR
 10
1.0
 20
0.0
 30
0.0
  9
$UCSYDIR
 10
0.0
 20
1.0
 30
0.0
  9
$PUCSNAME
  2

  9
$PUCSORG
 10
0.0
 20
0.0
 30
0.0
  9
$PUCSXDIR
 10
1.0
 20
0.0
 30
0.0
  9
$PUCSYDIR
 10
0.0
 20
1.0
 30
0.0
  9
$USERI1
 70
     0
  9
$USERI2
 70
     0
  9
$USERI3
 70
     0
  9
$USERI4
 70
     0
  9
$USERI5
 70
     0
  9
$USERR1
 40
0.0
  9
$USERR2
 40
0.0
  9
$USERR3
 40
0.0
  9
$USERR4
 40
0.0
  9
$USERR5
 40
0.0
  9
$WORLDVIEW
 70
     1
  9
$SHADEDGE
 70
     3
  9
$SHADEDIF
 70
    70
  9
$TILEMODE
 70
     1
  9
$MAXACTVP
 70
    48
  9
$PLIMCHECK
 70
     0
  9
$PEXTMIN
 10
1.0000000000000000E+020
 20
1.0000000000000000E+020
 30
1.0000000000000000E+020
  9
$PEXTMAX
 10
-1.0000000000000000E+020
 20
-1.0000000000000000E+020
 30
-1.0000000000000000E+020
  9
$PLIMMIN
 10
0.0
 20
0.0
  9
$PLIMMAX
 10
420.0
 20
297.0
  9
$UNITMODE
 70
     0
  9
$VISRETAIN
 70
     1
  9
$PLINEGEN
 70
     0
  9
$PSLTSCALE
 70
     1
  0
ENDSEC
  0
SECTION
  2
TABLES
  0
TABLE
  2
VPORT
 70
     1
  0
VPORT
  2
*ACTIVE
 70
     0
 10
0.0
 20
0.0
 11
1.0
 21
1.0
 12
518.83774096966602
 22
358.7674198417584
 13
0.0
 23
0.0
 14
1.0
 24
1.0
 15
10.0
 25
10.0
 16
0.0
 26
0.0
 36
1.0
 17
0.0
 27
0.0
 37
0.0
 40
692.35311642285626
 41
1.7571592210767459
 42
50.0
 43
0.0
 44
0.0
 50
0.0
 51
0.0
 71
     0
 72
   100
 73
     1
 74
     1
 75
     0
 76
     0
 77
     0
 78
     0
  0
ENDTAB
  0
TABLE
  2
LTYPE
 70
    26
  0
LTYPE
  2
CONTINUOUS
 70
     0
  3
Solid line
 72
    65
 73
     0
 40
0.0
  0
LTYPE
  2
PHANTOM2
 70
     0
  3
Phantom (.5x) ___ _ _ ___ _ _ ___ _ _ ___ _ _
 72
    65
 73
     6
 40
31.75
 49
15.875
 49
-3.174999999999998
 49
3.174999999999998
 49
-3.174999999999998
 49
3.174999999999998
 49
-3.174999999999998
  0
LTYPE
  2
CENTER
 70
     0
  3
Center ____ _ ____ _ ____ _ ____ _ ____ _ ____
 72
    65
 73
     4
 40
50.799999999999997
 49
31.75
 49
-6.3499999999999979
 49
6.3499999999999979
 49
-6.3499999999999979
  0
LTYPE
  2
ACANSTGBM
 70
     0
  3
__ . . __ . .
 72
    65
 73
     6
 40
9.0
 49
4.0
 49
-1.0
 49
1.0
 49
-1.0
 49
1.0
 49
-1.0
  0
LTYPE
  2
ACANSTGLM
 70
     0
  3
_ _ _ _ _
 72
    65
 73
     2
 40
3.0
 49
2.0
 49
-1.0
  0
LTYPE
  2
GEN7
 70
     0
  3
____ . ____ . ____ . ____ . ____ . ____ . ____
 72
    65
 73
     4
 40
14.25
 49
9.75
 49
-1.5
 49
1.5
 49
-1.5
  0
LTYPE
  2
GEN3B
 70
     0
  3
 - - - - -
 72
    65
 73
     2
 40
1.0
 49
0.5
 49
-0.5
  0
LTYPE
  2
AM_ISO02W050
 70
     0
  3
__ __ __ __ __ __ __ __ __ __ __ __ __ __ __
 72
    65
 73
     2
 40
7.5
 49
6.0
 49
-1.5
  0
LTYPE
  2
AM_ISO08W050
 70
     0
  3
____ . ____ . ____ . ____ . ____ . ____ . ____
 72
    65
 73
     4
 40
18.0
 49
12.0
 49
-1.5
 49
3.0
 49
-1.5
  0
LTYPE
  2
AM_ISO09W050
 70
     0
  3
_____ . . _____ . . _____ . . ____ .. ____
 72
    65
 73
     6
 40
22.5
 49
12.0
 49
-1.5
 49
3.0
 49
-1.5
 49
3.0
 49
-1.5
  0
LTYPE
  2
AMCONSTR
 70
     0
  3
_______________________
 72
    65
 73
     2
 40
9999.0
 49
9999.0
 49
0.0
  0
LTYPE
  2
AM_ISO02W050X2
 70
     0
  3
 _ _ _ _ _ _ _ _ _ _ _ _
 72
    65
 73
     2
 40
3.75
 49
3.0
 49
-0.75
  0
LTYPE
  2
AM_ISO08W050X2
 70
     0
  3
__ . __ . __ . __ . __ . __
 72
    65
 73
     4
 40
9.0
 49
6.0
 49
-0.75
 49
1.5
 49
-0.75
  0
LTYPE
  2
AMZIGZAG
 70
     0
  3
/\/-/\/-/\/-/\/-/\/-/\/
 72
    65
 73
     2
 40
11.000099999999991
 49
0.0001
 49
-11.0
  0
LTYPE
  2
ACJISTGB
 70
     0
  3
__ . . __ . .
 72
    65
 73
     6
 40
9.0
 49
4.0
 49
-1.0
 49
1.0
 49
-1.0
 49
1.0
 49
-1.0
  0
LTYPE
  2
ACJISTGL
 70
     0
  3
_ _ _ _ _
 72
    65
 73
     2
 40
3.0
 49
2.0
 49
-1.0
  0
LTYPE
  2
ACISOWELD
 70
     0
  3
_ _ _ _ _
 72
    65
 73
     2
 40
2.0
 49
2.0
 49
-1.0
  0
LTYPE
  2
ACISOTGB
 70
     0
  3
__ . . __ . .
 72
    65
 73
     6
 40
9.0
 49
4.0
 49
-1.0
 49
1.0
 49
-1.0
 49
1.0
 49
-1.0
  0
LTYPE
  2
ACISOTGL
 70
     0
  3
_ _ _ _ _
 72
    65
 73
     2
 40
3.0
 49
2.0
 49
-1.0
  0
LTYPE
  2
HIDDEN
 70
     0
  3
Hidden __ __ __ __ __ __ __ __ __ __ __ __ __ _
 72
    65
 73
     2
 40
0.375
 49
0.25
 49
-0.125
  0
LTYPE
  2
CENTER2
 70
     0
  3
Center (.5x) ___ _ ___ _ ___ _ ___ _ ___ _ ___
 72
    65
 73
     4
 40
1.125
 49
0.75
 49
-0.125
 49
0.125
 49
-0.125
  0
LTYPE
  2
HIDDEN2
 70
     0
  3
Hidden (.5x) _ _ _ _ _ _ _ _ _ _ _ _ _ _ _ _ _
 72
    65
 73
     2
 40
0.1875
 49
0.125
 49
-0.0625
  0
LTYPE
  2
AMZIGZAG2
 70
     0
  3
/\/-/\/-/\/-/\/-/\/-/\/
 72
    65
 73
     2
 40
0.4401
 49
0.0001
 49
-0.4400000000000001
  0
LTYPE
  2
ACANSTGB
 70
     0
  3
__ . . __ . .
 72
    65
 73
     6
 40
0.35433070866
 49
0.15748031496
 49
-0.03937007874
 49
0.03937007874
 49
-0.03937007874
 49
0.03937007874
 49
-0.03937007874
  0
LTYPE
  2
ACANSTGL
 70
     0
  3
_ _ _ _ _
 72
    65
 73
     2
 40
0.11811023622
 49
0.07874015748
 49
-0.03937007874
  0
ENDTAB
  0
TABLE
  2
LAYER
 70
     7
  0
LAYER
  2
0
 70
     0
 62
     7
  6
CONTINUOUS
  0
LAYER
  2
AM_0
 70
     0
 62
     7
  6
CONTINUOUS
  0
LAYER
  2
DEFPOINTS
 70
     0
 62
     7
  6
CONTINUOUS
  0
LAYER
  2
ｶｸﾚｾﾝ2
 70
     0
 62
     3
  6
GEN3B
  0
LAYER
  2
ﾁｭｳｼﾝｾﾝ
 70
     0
 62
     1
  6
GEN7
  0
LAYER
  2
AM_0N
 70
     0
 62
     7
  6
CONTINUOUS
  0
LAYER
  2
AM_5
 70
     0
 62
     2
  6
CONTINUOUS
  0
ENDTAB
  0
TABLE
  2
STYLE
 70
    10
  0
STYLE
  2
STANDARD
 70
     0
 40
0.0
 41
0.8299999999999999
 50
0.0
 71
     0
 42
2.5
  3
txt.shx
  4
bigfont.shx
  0
STYLE
  2
ANNOTATIVE
 70
     0
 40
0.0
 41
1.0
 50
0.0
 71
     0
 42
0.2
  3
txt
  4

  0
STYLE
  2
ACANSTS
 70
     0
 40
1.0
 41
1.0
 50
0.0
 71
     0
 42
2.5
  3
romans.shx
  4
bigfont.shx
  0
STYLE
  2
ACANSGDT
 70
     0
 40
0.0
 41
1.0
 50
0.0
 71
     0
 42
2.5
  3
amgdt.shx
  4

  0
STYLE
  2

 70
     1
 40
0.0
 41
1.0
 50
0.0
 71
     0
 42
2.5
  3
ltypeshp.shx
  4

  0
STYLE
  2
ACJISTS
 70
     0
 40
1.0
 41
0.8299999999999999
 50
0.0
 71
     0
 42
2.5
  3
txt.shx
  4
bigfont.shx
  0
STYLE
  2
ACJISGDT
 70
     0
 40
0.0
 41
1.0
 50
0.0
 71
     0
 42
2.5
  3
amgdt.shx
  4

  0
STYLE
  2
ACISOTS
 70
     0
 40
1.0
 41
1.0
 50
0.0
 71
     0
 42
2.5
  3
isocp.shx
  4
extfont.shx
  0
STYLE
  2
ACISOGDT
 70
     0
 40
0.0
 41
1.0
 50
0.0
 71
     0
 42
2.5
  3
amgdt.shx
  4

  0
STYLE
  2

 70
     1
 40
0.0
 41
1.0
 50
0.0
 71
     0
 42
2.5
  3
genltshp.shx
  4

  0
ENDTAB
  0
TABLE
  2
VIEW
 70
    12
  0
VIEW
  2
GEN1
 70
     0
 40
95.824742268041234
 10
71.5
 20
137.08762886597941
 41
143.0
 11
0.0
 21
0.0
 31
1.0
 12
0.0
 22
0.0
 32
0.0
 42
50.0
 43
0.0
 44
0.0
 50
0.0
 71
     0
  0
VIEW
  2
GEN2
 70
     0
 40
95.824742268041234
 10
214.5
 20
137.08762886597941
 41
143.0
 11
0.0
 21
0.0
 31
1.0
 12
0.0
 22
0.0
 32
0.0
 42
50.0
 43
0.0
 44
0.0
 50
0.0
 71
     0
  0
VIEW
  2
GEN3
 70
     0
 40
95.824742268041234
 10
71.5
 20
47.912371134020603
 41
143.0
 11
0.0
 21
0.0
 31
1.0
 12
0.0
 22
0.0
 32
0.0
 42
50.0
 43
0.0
 44
0.0
 50
0.0
 71
     0
  0
VIEW
  2
GEN4
 70
     0
 40
95.824742268041234
 10
214.5
 20
47.912371134020603
 41
143.0
 11
0.0
 21
0.0
 31
1.0
 12
0.0
 22
0.0
 32
0.0
 42
50.0
 43
0.0
 44
0.0
 50
0.0
 71
     0
  0
VIEW
  2
GEN5
 70
     0
 40
95.824742268041234
 10
143.0
 20
92.500000000000057
 41
143.0
 11
0.0
 21
0.0
 31
1.0
 12
0.0
 22
0.0
 32
0.0
 42
50.0
 43
0.0
 44
0.0
 50
0.0
 71
     0
  0
VIEW
  2
GEN6
 70
     0
 40
191.64756804123709
 10
143.0
 20
92.5
 41
285.99713999999989
 11
0.0
 21
0.0
 31
1.0
 12
0.0
 22
0.0
 32
0.0
 42
50.0
 43
0.0
 44
0.0
 50
0.0
 71
     0
  0
VIEW
  2
AM_VIEW1
 70
     0
 40
142.0
 10
119.7777777777777
 20
213.0
 41
239.55555555555549
 11
0.0
 21
0.0
 31
1.0
 12
0.0
 22
0.0
 32
0.0
 42
50.0
 43
0.0
 44
0.0
 50
0.0
 71
     0
  0
VIEW
  2
AM_VIEW2
 70
     0
 40
142.0
 10
288.22222222222211
 20
213.0
 41
239.55555555555549
 11
0.0
 21
0.0
 31
1.0
 12
0.0
 22
0.0
 32
0.0
 42
50.0
 43
0.0
 44
0.0
 50
0.0
 71
     0
  0
VIEW
  2
AM_VIEW3
 70
     0
 40
142.0
 10
119.7777777777777
 20
71.0
 41
239.55555555555549
 11
0.0
 21
0.0
 31
1.0
 12
0.0
 22
0.0
 32
0.0
 42
50.0
 43
0.0
 44
0.0
 50
0.0
 71
     0
  0
VIEW
  2
AM_VIEW4
 70
     0
 40
142.0
 10
288.22222222222211
 20
71.0
 41
239.55555555555549
 11
0.0
 21
0.0
 31
1.0
 12
0.0
 22
0.0
 32
0.0
 42
50.0
 43
0.0
 44
0.0
 50
0.0
 71
     0
  0
VIEW
  2
AM_VIEW5
 70
     0
 40
142.0
 10
204.0
 20
142.0
 41
239.55555555555549
 11
0.0
 21
0.0
 31
1.0
 12
0.0
 22
0.0
 32
0.0
 42
50.0
 43
0.0
 44
0.0
 50
0.0
 71
     0
  0
VIEW
  2
AM_VIEW6
 70
     0
 40
283.99716000000001
 10
204.0
 20
142.0
 41
479.10631999999993
 11
0.0
 21
0.0
 31
1.0
 12
0.0
 22
0.0
 32
0.0
 42
50.0
 43
0.0
 44
0.0
 50
0.0
 71
     0
  0
ENDTAB
  0
TABLE
  2
UCS
 70
     0
  0
ENDTAB
  0
TABLE
  2
APPID
 70
   106
  0
APPID
  2
ACAD
 70
     0
  0
APPID
  2
ACADANNOTATIVE
 70
     0
  0
APPID
  2
MCAD_NO_VIS
 70
     0
  0
APPID
  2
ACAD_TEMP_GRAPHIC
 70
     0
  0
APPID
  2
AD_DRAW
 70
     0
  0
APPID
  2
DESIGNERASSEMBLIES
 70
     0
  0
APPID
  2
ASURF_PCURVE_APPNAME
 70
     0
  0
APPID
  2
GENIUS_GE3SECT_13
 70
     0
  0
APPID
  2
GENIUS_GENCFG_13
 70
     0
  0
APPID
  2
GENIUS_GE3CFG0_13
 70
     0
  0
APPID
  2
GENIUS_GENCFG0_13
 70
     0
  0
APPID
  2
GENIUS_GENCFG1_13
 70
     0
  0
APPID
  2
GENIUS_GENCFG2_13
 70
     0
  0
APPID
  2
GENIUS_GENCFG3_13
 70
     0
  0
APPID
  2
GENIUS_GENCFG4_13
 70
     0
  0
APPID
  2
GENIUS_GEVCFG0_13
 70
     0
  0
APPID
  2
GENIUS_GENOENT_13
 70
     0
  0
APPID
  2
GENIUS_GENREC_14
 70
     0
  0
APPID
  2
GENIUS_GENODEF_13
 70
     0
  0
APPID
  2
GENIUS_GENOBJ-N-REC_13
 70
     0
  0
APPID
  2
GENIUS_GENHINW_13
 70
     0
  0
APPID
  2
GENIUS_FIRSTVISTXT_14
 70
     0
  0
APPID
  2
GENIUS_GENOBJ-N-LEADER_13
 70
     0
  0
APPID
  2
GENIUS_GENOREF_13
 70
     0
  0
APPID
  2
GENIUS_GENOLIS_13
 70
     0
  0
APPID
  2
GEV_VCCNULL_SWITCH_OFF
 70
     0
  0
APPID
  2
GENIUS_GENDTOL_13
 70
     0
  0
APPID
  2
GENIUS_GEFCFG0_13
 70
     0
  0
APPID
  2
GENIUS_GENOBJ-N-TIT_13
 70
     0
  0
APPID
  2
GENIUS_GENTITLE_13
 70
     0
  0
APPID
  2
GENIUS_GENZVEED_13
 70
     0
  0
APPID
  2
GENIUS_GENOBJ-N-SDF_13
 70
     0
  0
APPID
  2
GENIUS_GENSCREG_13
 70
     0
  0
APPID
  2
GENIUS_DUMCFG0_13
 70
     0
  0
APPID
  2
GEVID936201362
 70
     0
  0
APPID
  2
GEVDC
 70
     0
  0
APPID
  2
GEVCON
 70
     0
  0
APPID
  2
VCC
 70
     0
  0
APPID
  2
GEVPT
 70
     0
  0
APPID
  2
GEVIT
 70
     0
  0
APPID
  2
GENBH
 70
     0
  0
APPID
  2
GEVMK
 70
     0
  0
APPID
  2
GENIUS_GENBH_13
 70
     0
  0
APPID
  2
GENIUS_GENOBJ-NBEHI-BHF_13
 70
     0
  0
APPID
  2
GENIUS_GENOBJ-NBEHI-BHB_13
 70
     0
  0
APPID
  2
GENIUS_GENOBJ-F-DESC_13
 70
     0
  0
APPID
  2
GENIUS_GEFDESC_14
 70
     0
  0
APPID
  2
GENIUS_GENOBJ-F-PART_13
 70
     0
  0
APPID
  2
GENIUS_GEFSTDP_13
 70
     0
  0
APPID
  2
GENIUS_GEFPARTINS_13
 70
     0
  0
APPID
  2
GENIUS_GENTRA_14
 70
     0
  0
APPID
  2
GENIUS_GENINF13_13
 70
     0
  0
APPID
  2
GENIUS_GENOBJ-N-INFOPT_13
 70
     0
  0
APPID
  2
GENIUS_GENOBJ-N-RSSYM_13
 70
     0
  0
APPID
  2
GENIUS_GENSYMENT_13
 70
     0
  0
APPID
  2
GENIUS_GENSCSYM_13
 70
     0
  0
APPID
  2
GENIUS_GEFINFNAM_13
 70
     0
  0
APPID
  2
GENIUS_GENSCREG_15
 70
     0
  0
APPID
  2
GENIUS_GENOBJ-N-CEN_13
 70
     0
  0
APPID
  2
GENIUS_GENOBJ-N-CRS_13
 70
     0
  0
APPID
  2
GENIUS_GENOBJ-N-CRC_13
 70
     0
  0
APPID
  2
GENIUS_GENCRC_14
 70
     0
  0
APPID
  2
GEVID942827039
 70
     0
  0
APPID
  2
GEVID942827040
 70
     0
  0
APPID
  2
GEVID942827041
 70
     0
  0
APPID
  2
GENIUS_GENOBJ-F-SCPASSM_13
 70
     0
  0
APPID
  2
GENIUS_GENDIMSH_14
 70
     0
  0
APPID
  2
GENIUS_GENFIL_13
 70
     0
  0
APPID
  2
GENIUS_GENOBJ-N-CHA_13
 70
     0
  0
APPID
  2
GENIUS_GENOBJ-N-FIL_13
 70
     0
  0
APPID
  2
GEVID942827042
 70
     0
  0
APPID
  2
GEVID946020473
 70
     0
  0
APPID
  2
GEVID946020474
 70
     0
  0
APPID
  2
GEVID946020475
 70
     0
  0
APPID
  2
GENIUS_GENOBJ-N-HTC_13
 70
     0
  0
APPID
  2
GENIUS_GENHATCH_13
 70
     0
  0
APPID
  2
GEVID948854295
 70
     0
  0
APPID
  2
GEVID939402019
 70
     0
  0
APPID
  2
GEVID952919491
 70
     0
  0
APPID
  2
GEVID952919492
 70
     0
  0
APPID
  2
GENIUS_GEFWELD_13
 70
     0
  0
APPID
  2
GENIUS_GENOBJ-F-WELS_13
 70
     0
  0
APPID
  2
GEVID952919493
 70
     0
  0
APPID
  2
GENIUS_GENOBJ-N-RSBK_13
 70
     0
  0
APPID
  2
GENIUS_GENOBJ-N-LIB_13
 70
     0
  0
APPID
  2
GENIUS_GENSCALE_13
 70
     0
  0
APPID
  2
GEVID986376691
 70
     0
  0
APPID
  2
ACATTRIBSERVICES
 70
     0
  0
APPID
  2
ACADM_DIM_EDIT
 70
     0
  0
APPID
  2
AMDT_DM_ADJ
 70
     0
  0
APPID
  2
GEVID1057795304
 70
     0
  0
APPID
  2
GENIUS_GEFSH_13
 70
     0
  0
APPID
  2
GENIUS_GENOBJ-F-SHS_13
 70
     0
  0
APPID
  2
GENIUS_GENOBJ-N-ADDLEAD_13
 70
     0
  0
APPID
  2
GENIUS_GENMAINADDLEADER_14
 70
     0
  0
APPID
  2
GENIUS_GENADDLEADER_14
 70
     0
  0
APPID
  2
GENIUS_GENDREL_13
 70
     0
  0
APPID
  2
GEVID1121934822
 70
     0
  0
APPID
  2
GEVID1121934823
 70
     0
  0
APPID
  2
GEVID1121934824
 70
     0
  0
APPID
  2
ACAD_DSTYLE_DIMJAG
 70
     0
  0
APPID
  2
ACAD_DSTYLE_DIMBREAK
 70
     0
  0
APPID
  2
ACAD_NAV_VCDISPLAY
 70
     0
  0
APPID
  2
ACADANNOPO
 70
     0
  0
APPID
  2
ACAD_EXEMPT_FROM_CAD_STANDARDS
 70
     0
  0
APPID
  2
ACAD_MLEADERVER
 70
     0
  0
ENDTAB
  0
TABLE
  2
DIMSTYLE
 70
    29
  0
DIMSTYLE
  2
STANDARD
 70
     0
  3

  4

  5

  6

  7

 40
1.0
 41
0.18
 42
0.0625
 43
0.38
 44
0.18
 45
0.0
 46
0.0
 47
0.0
 48
0.0
140
0.18
141
0.09
142
0.0
143
25.399999999999999
144
1.0
145
0.0
146
1.0
147
0.09
 71
     0
 72
     0
 73
     1
 74
     1
 75
     0
 76
     0
 77
     0
 78
     0
170
     0
171
     2
172
     0
173
     0
174
     0
175
     0
176
     0
177
     0
178
     0
  0
DIMSTYLE
  2
ANNOTATIVE
 70
     0
  3

  4

  5

  6

  7

 40
1.0
 41
0.18
 42
0.0625
 43
0.38
 44
0.18
 45
0.0
 46
0.0
 47
0.0
 48
0.0
140
0.18
141
0.09
142
0.0
143
25.399999999999999
144
1.0
145
0.0
146
1.0
147
0.09
 71
     0
 72
     0
 73
     1
 74
     1
 75
     0
 76
     0
 77
     0
 78
     0
170
     0
171
     2
172
     0
173
     0
174
     0
175
     0
176
     0
177
     0
178
     0
  0
DIMSTYLE
  2
AM_JIS
 70
     0
  3

  4
"
  5

  6

  7

 40
1.0
 41
2.0
 42
1.0
 43
8.0
 44
1.0
 45
0.0
 46
0.0
 47
0.1
 48
0.1
140
2.5
141
0.0
142
0.0
143
0.0393701
144
1.0
145
0.0
146
0.71
147
1.5
 71
     0
 72
     0
 73
     0
 74
     0
 75
     0
 76
     0
 77
     3
 78
     8
170
     0
171
     2
172
     1
173
     0
174
     0
175
     0
176
   256
177
   256
178
     4
  0
DIMSTYLE
  2
AM_JIS$3
 70
     0
  3

  4
"
  5

  6

  7

 40
1.0
 41
2.0
 42
1.0
 43
10.0
 44
1.0
 45
0.0
 46
0.0
 47
0.1
 48
0.1
140
2.5
141
0.0
142
0.0
143
0.0393701
144
1.0
145
0.0
146
0.71
147
1.5
 71
     0
 72
     0
 73
     0
 74
     1
 75
     0
 76
     0
 77
     3
 78
     8
170
     0
171
     2
172
     0
173
     0
174
     0
175
     0
176
   256
177
   256
178
     4
  0
DIMSTYLE
  2
AM_JIS$4
 70
     0
  3

  4
"
  5

  6

  7

 40
1.0
 41
2.0
 42
1.0
 43
10.0
 44
1.0
 45
0.0
 46
0.0
 47
0.1
 48
0.1
140
2.5
141
0.0
142
0.0
143
0.0393701
144
1.0
145
0.0
146
0.71
147
1.5
 71
     0
 72
     0
 73
     0
 74
     0
 75
     0
 76
     0
 77
     3
 78
     8
170
     0
171
     2
172
     0
173
     0
174
     0
175
     0
176
   256
177
   256
178
     4
  0
DIMSTYLE
  2
AM_JIS$6
 70
     0
  3

  4
"
  5

  6

  7

 40
1.0
 41
2.0
 42
1.0
 43
10.0
 44
1.0
 45
0.0
 46
0.0
 47
0.1
 48
0.1
140
2.5
141
0.0
142
0.0
143
0.0393701
144
1.0
145
0.0
146
0.71
147
1.5
 71
     0
 72
     0
 73
     0
 74
     0
 75
     0
 76
     0
 77
     0
 78
     8
170
     0
171
     2
172
     1
173
     0
174
     0
175
     0
176
   256
177
   256
178
     4
  0
DIMSTYLE
  2
AM_JIS$7
 70
     0
  3

  4
"
  5

  6

  7

 40
1.0
 41
2.0
 42
1.0
 43
10.0
 44
1.0
 45
0.0
 46
0.0
 47
0.1
 48
0.1
140
2.5
141
0.0
142
0.0
143
0.0393701
144
1.0
145
0.0
146
0.71
147
1.5
 71
     0
 72
     0
 73
     0
 74
     0
 75
     0
 76
     0
 77
     3
 78
     8
170
     0
171
     2
172
     1
173
     0
174
     0
175
     0
176
   256
177
   256
178
     4
  0
DIMSTYLE
  2
AM_JIS$SF
 70
     0
  3

  4
"
  5

  6

  7

 40
1.0
 41
2.0
 42
1.0
 43
10.0
 44
1.0
 45
0.0
 46
0.0
 47
0.1
 48
0.1
140
2.5
141
0.0
142
0.0
143
0.0393701
144
1.0
145
0.0
146
0.71
147
1.5
 71
     0
 72
     0
 73
     0
 74
     0
 75
     1
 76
     1
 77
     3
 78
     8
170
     0
171
     2
172
     1
173
     0
174
     0
175
     0
176
   256
177
   256
178
     4
  0
DIMSTYLE
  2
AM_JIS$SH
 70
     0
  3

  4
"
  5

  6

  7

 40
1.0
 41
2.0
 42
1.0
 43
10.0
 44
1.0
 45
0.0
 46
0.0
 47
0.1
 48
0.1
140
2.5
141
0.0
142
0.0
143
0.0393701
144
2.0
145
0.0
146
0.71
147
1.5
 71
     0
 72
     0
 73
     0
 74
     0
 75
     1
 76
     1
 77
     3
 78
     8
170
     0
171
     2
172
     1
173
     1
174
     0
175
     0
176
   256
177
   256
178
     4
  0
DIMSTYLE
  2
AM_ISO
 70
     0
  3

  4
"
  5

  6

  7

 40
1.0
 41
2.5
 42
1.0
 43
10.0
 44
1.0
 45
0.0
 46
0.0
 47
0.1
 48
0.1
140
3.5
141
0.0
142
0.0
143
0.0393701
144
1.0
145
0.0
146
0.71
147
1.5
 71
     0
 72
     0
 73
     0
 74
     0
 75
     0
 76
     0
 77
     1
 78
     8
170
     0
171
     2
172
     1
173
     0
174
     0
175
     0
176
   256
177
   256
178
     2
  0
DIMSTYLE
  2
AM_ISO$3
 70
     0
  3

  4
"
  5

  6

  7

 40
1.0
 41
2.5
 42
1.0
 43
10.0
 44
1.0
 45
0.0
 46
0.0
 47
0.1
 48
0.1
140
3.5
141
0.0
142
0.0
143
0.0393701
144
1.0
145
0.0
146
0.71
147
1.5
 71
     0
 72
     0
 73
     0
 74
     1
 75
     0
 76
     0
 77
     1
 78
     8
170
     0
171
     2
172
     0
173
     0
174
     0
175
     0
176
   256
177
   256
178
     2
  0
DIMSTYLE
  2
AM_ISO$4
 70
     0
  3

  4
"
  5

  6

  7

 40
1.0
 41
2.5
 42
1.0
 43
10.0
 44
1.0
 45
0.0
 46
0.0
 47
0.1
 48
0.1
140
3.5
141
0.0
142
0.0
143
0.0393701
144
1.0
145
0.0
146
0.71
147
1.5
 71
     0
 72
     0
 73
     0
 74
     1
 75
     0
 76
     0
 77
     1
 78
     8
170
     0
171
     2
172
     0
173
     0
174
     0
175
     0
176
   256
177
   256
178
     2
  0
DIMSTYLE
  2
AM_ISO$6
 70
     0
  3

  4
"
  5

  6

  7

 40
1.0
 41
2.5
 42
1.0
 43
10.0
 44
1.0
 45
0.0
 46
0.0
 47
0.1
 48
0.1
140
3.5
141
0.0
142
0.0
143
0.0393701
144
1.0
145
0.0
146
0.71
147
1.5
 71
     0
 72
     0
 73
     0
 74
     0
 75
     0
 76
     0
 77
     0
 78
     8
170
     0
171
     2
172
     1
173
     0
174
     0
175
     0
176
   256
177
   256
178
     2
  0
DIMSTYLE
  2
AM_ISO$7
 70
     0
  3

  4
"
  5

  6

  7

 40
1.0
 41
2.5
 42
1.0
 43
10.0
 44
1.0
 45
0.0
 46
0.0
 47
0.1
 48
0.1
140
5.0
141
0.0
142
0.0
143
0.0393701
144
1.0
145
0.0
146
0.71
147
1.5
 71
     0
 72
     0
 73
     0
 74
     0
 75
     0
 76
     0
 77
     1
 78
     8
170
     0
171
     2
172
     1
173
     0
174
     0
175
     0
176
   256
177
   256
178
     2
  0
DIMSTYLE
  2
AM_ISO$SF
 70
     0
  3

  4
"
  5

  6

  7

 40
1.0
 41
2.5
 42
1.0
 43
10.0
 44
1.0
 45
0.0
 46
0.0
 47
0.1
 48
0.1
140
3.5
141
0.0
142
0.0
143
0.0393701
144
1.0
145
0.0
146
0.71
147
1.5
 71
     0
 72
     0
 73
     0
 74
     0
 75
     1
 76
     1
 77
     1
 78
     8
170
     0
171
     2
172
     1
173
     0
174
     0
175
     0
176
   256
177
   256
178
     2
  0
DIMSTYLE
  2
AM_ISO$SH
 70
     0
  3

  4
"
  5

  6

  7

 40
1.0
 41
2.5
 42
1.0
 43
10.0
 44
1.0
 45
0.0
 46
0.0
 47
0.1
 48
0.1
140
3.5
141
0.0
142
0.0
143
0.0393701
144
2.0
145
0.0
146
0.71
147
1.5
 71
     0
 72
     0
 73
     0
 74
     0
 75
     1
 76
     1
 77
     1
 78
     8
170
     0
171
     2
172
     1
173
     1
174
     0
175
     0
176
   256
177
   256
178
     2
  0
DIMSTYLE
  2
GEN-ANSI
 70
     0
  3

  4
"
  5

  6

  7

 40
1.0
 41
2.0
 42
0.5
 43
10.0
 44
0.5
 45
0.0
 46
0.0
 47
0.1
 48
0.1
140
2.5
141
0.0
142
0.0
143
0.0393701
144
1.0
145
0.0
146
0.71
147
1.5
 71
     0
 72
     0
 73
     1
 74
     1
 75
     0
 76
     0
 77
     0
 78
     8
170
     0
171
     2
172
     0
173
     0
174
     0
175
     0
176
   256
177
   256
178
     4
  0
DIMSTYLE
  2
GEN-ANSI$3
 70
     0
  3

  4
"
  5

  6

  7

 40
1.0
 41
2.0
 42
0.5
 43
10.0
 44
0.5
 45
0.0
 46
0.0
 47
0.1
 48
0.1
140
2.5
141
0.0
142
0.0
143
0.0393701
144
1.0
145
0.0
146
0.71
147
1.5
 71
     0
 72
     0
 73
     1
 74
     1
 75
     0
 76
     0
 77
     0
 78
     8
170
     0
171
     2
172
     0
173
     0
174
     0
175
     0
176
   256
177
   256
178
     4
  0
DIMSTYLE
  2
GEN-ANSI$4
 70
     0
  3

  4
"
  5

  6

  7

 40
1.0
 41
2.0
 42
0.5
 43
10.0
 44
0.5
 45
0.0
 46
0.0
 47
0.1
 48
0.1
140
2.5
141
0.0
142
0.0
143
0.0393701
144
1.0
145
0.0
146
0.71
147
1.5
 71
     0
 72
     0
 73
     1
 74
     1
 75
     0
 76
     0
 77
     0
 78
     8
170
     0
171
     2
172
     0
173
     0
174
     0
175
     0
176
   256
177
   256
178
     4
  0
DIMSTYLE
  2
GEN-ANSI$6
 70
     0
  3

  4
"
  5

  6

  7

 40
1.0
 41
2.0
 42
0.5
 43
10.0
 44
0.5
 45
0.0
 46
0.0
 47
0.1
 48
0.1
140
2.5
141
0.0
142
0.0
143
0.0393701
144
1.0
145
0.0
146
0.71
147
1.5
 71
     0
 72
     0
 73
     1
 74
     1
 75
     0
 76
     0
 77
     0
 78
     8
170
     0
171
     2
172
     0
173
     0
174
     0
175
     0
176
   256
177
   256
178
     4
  0
DIMSTYLE
  2
GEN-ANSI-POS
 70
     0
  3

  4
"
  5

  6

  7

 40
1.0
 41
2.5
 42
0.5
 43
10.0
 44
0.5
 45
0.0
 46
0.0
 47
0.1
 48
0.1
140
5.0
141
0.0
142
0.0
143
0.0393701
144
1.0
145
0.0
146
0.71
147
1.5
 71
     0
 72
     0
 73
     0
 74
     0
 75
     0
 76
     0
 77
     0
 78
     8
170
     0
171
     2
172
     0
173
     0
174
     0
175
     0
176
   256
177
   256
178
     4
  0
DIMSTYLE
  2
GEN-ANSI-AXE-F
 70
     0
  3

  4
"
  5

  6

  7

 40
1.0
 41
2.0
 42
0.5
 43
10.0
 44
0.5
 45
0.0
 46
0.0
 47
0.1
 48
0.1
140
2.5
141
0.0
142
0.0
143
0.0393701
144
1.0
145
0.0
146
0.71
147
1.5
 71
     0
 72
     0
 73
     1
 74
     1
 75
     1
 76
     1
 77
     0
 78
     8
170
     0
171
     2
172
     0
173
     1
174
     0
175
     0
176
   256
177
   256
178
     4
  0
DIMSTYLE
  2
GEN-ANSI-AXE-H
 70
     0
  3

  4
"
  5

  6

  7

 40
1.0
 41
2.0
 42
0.5
 43
10.0
 44
0.5
 45
0.0
 46
0.0
 47
0.1
 48
0.1
140
2.5
141
0.0
142
0.0
143
0.0393701
144
2.0
145
0.0
146
0.71
147
1.5
 71
     0
 72
     0
 73
     0
 74
     0
 75
     1
 76
     1
 77
     0
 78
     8
170
     0
171
     2
172
     1
173
     1
174
     0
175
     0
176
   256
177
   256
178
     4
  0
DIMSTYLE
  2
AM_ANSI
 70
     0
  3

  4
mm
  5

  6

  7

 40
1.0
 41
0.12
 42
0.05
 43
0.5
 44
0.1
 45
0.0
 46
0.0
 47
0.1
 48
0.1
140
0.12
141
0.0
142
0.0
143
25.399999999999999
144
1.0
145
0.0
146
0.71
147
0.06
 71
     0
 72
     0
 73
     1
 74
     1
 75
     0
 76
     0
 77
     0
 78
     7
170
     0
171
     2
172
     0
173
     0
174
     0
175
     0
176
   256
177
   256
178
     2
  0
DIMSTYLE
  2
AM_ANSI$3
 70
     0
  3

  4
mm
  5

  6

  7

 40
1.0
 41
0.12
 42
0.05
 43
0.5
 44
0.1
 45
0.0
 46
0.0
 47
0.1
 48
0.1
140
0.12
141
0.0
142
0.0
143
25.399999999999999
144
1.0
145
0.0
146
0.71
147
0.06
 71
     0
 72
     0
 73
     1
 74
     1
 75
     0
 76
     0
 77
     0
 78
     7
170
     0
171
     2
172
     0
173
     0
174
     0
175
     0
176
   256
177
   256
178
     2
  0
DIMSTYLE
  2
AM_ANSI$4
 70
     0
  3

  4
mm
  5

  6

  7

 40
1.0
 41
0.12
 42
0.05
 43
0.5
 44
0.1
 45
0.0
 46
0.0
 47
0.1
 48
0.1
140
0.12
141
0.0
142
0.0
143
25.399999999999999
144
1.0
145
0.0
146
0.71
147
0.06
 71
     0
 72
     0
 73
     1
 74
     1
 75
     0
 76
     0
 77
     0
 78
     7
170
     0
171
     2
172
     0
173
     0
174
     0
175
     0
176
   256
177
   256
178
     2
  0
DIMSTYLE
  2
AM_ANSI$7
 70
     0
  3

  4
mm
  5

  6

  7

 40
1.0
 41
0.12
 42
0.05
 43
0.5
 44
0.1
 45
0.0
 46
0.0
 47
0.1
 48
0.1
140
0.12
141
0.0
142
0.0
143
25.399999999999999
144
1.0
145
0.0
146
0.71
147
0.06
 71
     0
 72
     0
 73
     1
 74
     1
 75
     0
 76
     0
 77
     0
 78
     7
170
     0
171
     2
172
     0
173
     0
174
     0
175
     0
176
   256
177
   256
178
     2
  0
DIMSTYLE
  2
AM_ANSI$SF
 70
     0
  3

  4
mm
  5

  6

  7

 40
1.0
 41
0.12
 42
0.05
 43
0.5
 44
0.1
 45
0.0
 46
0.0
 47
0.1
 48
0.1
140
0.12
141
0.0
142
0.0
143
25.399999999999999
144
1.0
145
0.0
146
0.71
147
0.06
 71
     0
 72
     0
 73
     1
 74
     1
 75
     1
 76
     1
 77
     0
 78
     7
170
     0
171
     2
172
     0
173
     0
174
     0
175
     0
176
   256
177
   256
178
     2
  0
DIMSTYLE
  2
AM_ANSI$SH
 70
     0
  3

  4
mm
  5

  6
GENAXEH
  7

 40
1.0
 41
0.12
 42
0.05
 43
0.5
 44
0.1
 45
0.0
 46
0.0
 47
0.1
 48
0.1
140
0.12
141
0.0
142
0.0
143
25.399999999999999
144
1.0
145
0.0
146
0.71
147
0.06
 71
     0
 72
     0
 73
     1
 74
     1
 75
     1
 76
     1
 77
     0
 78
     7
170
     0
171
     2
172
     0
173
     1
174
     0
175
     0
176
   256
177
   256
178
     2
  0
ENDTAB
  0
ENDSEC
  0
SECTION
  2
BLOCKS
  0
BLOCK
  8
0
  2
$MODEL_SPACE
 70
     0
 10
0.0
 20
0.0
 30
0.0
  3
$MODEL_SPACE
  1

  0
ENDBLK
  5
95AF
  8
0
  0
BLOCK
 67
     1
  8
0
  2
$PAPER_SPACE
 70
     0
 10
0.0
 20
0.0
 30
0.0
  3
$PAPER_SPACE
  1

  0
ENDBLK
  5
95AB
 67
     1
  8
0
  0
BLOCK
  8
0
  2
GENAXEH
 70
     0
 10
0.0
 20
0.0
 30
0.0
  3
GENAXEH
  1

  0
LINE
  5
94F8
  8
0
 10
-1.0
 20
0.0
 30
0.0
 11
1.0
 21
0.0
 31
0.0
  0
ENDBLK
  5
94FA
  8
0
  0
BLOCK
  8
0
  2
_ACMFILLEDHALF
 70
     0
 10
0.0
 20
0.0
 30
0.0
  3
_ACMFILLEDHALF
  1

  0
TRACE
  5
96BE
  8
AM_0
 62
     0
 10
-0.8
 20
0.0
 30
0.0
 11
-1.0
 21
0.166666666
 31
0.0
 12
0.0
 22
0.0
 32
0.0
 13
0.0
 23
0.0
 33
0.0
  0
LINE
  5
96BF
  8
AM_0
 62
     0
 10
-1.0
 20
0.0
 30
0.0
 11
-0.8
 21
0.0
 31
0.0
  0
ENDBLK
  5
96BD
  8
0
  0
ENDSEC
  0
SECTION
  2
ENTITIES
  0
POINT
  5
1B94
  8
0
 10
0.0
 20
0.0
 30
0.0
1001
GENIUS_GENODEF_13
1002
{
1000
HIER
1070
     1
1002
}
1002
{
1000
MANEDIT
1070
     0
1002
}
1002
{
1000
NOSEL
1070
     0
1002
}
1002
{
1000
BEHIND
1070
     0
1002
}
1002
{
1000
REACTOR
1002
}
1001
GENIUS_GENOBJ-N-SDF_13
1002
{
1000
OWNER
1000
GEN
1002
}
1001
GENIUS_GENOENT_13
1002
{
1000
MYREF
1005
1B94
1002
}
1002
{
1000
GRP
1005
0
1002
}
1001
GENIUS_GENOLIS_13
1002
{
1000
ENT
1005
89
1002
}
  0
LINE
  5
86F8
  8
ﾁｭｳｼﾝｾﾝ
 10
348.20712732100583
 20
194.96069065131749
 30
0.0
 11
595.36622732100557
 21
194.96069065131749
 31
0.0
  0
LINE
  5
86F9
  8
AM_0
 10
517.42177732100572
 20
215.9607206513175
 30
0.0
 11
587.42177732100549
 21
215.9607206513175
 31
0.0
  0
LINE
  5
86FA
  8
AM_0
 10
517.42177732100572
 20
173.96072065131739
 30
0.0
 11
587.42177732100549
 21
173.96072065131739
 31
0.0
  0
LINE
  5
86FC
  8
AM_0
 10
248.92182732100571
 20
218.73190065131749
 30
0.0
 11
248.92182732100571
 21
175.25073065131741
 31
0.0
  0
LINE
  5
86FD
  8
AM_0
 10
323.9218273210044
 20
86.038415651318005
 30
0.0
 11
323.9218273210044
 21
227.70706065131751
 31
0.0
  0
LINE
  5
86FE
  8
AM_0
 10
333.92182732100582
 20
82.960720651317516
 30
0.0
 11
333.92182732100582
 21
230.9607206513173
 31
0.0
  0
LINE
  5
86FF
  8
AM_0
 10
233.9218273210044
 20
56.750695651317528
 30
0.0
 11
233.9218273210044
 21
184.7507006513174
 31
0.0
  0
LINE
  5
8700
  8
AM_0
 10
302.80342732100593
 20
203.84231065131729
 30
0.0
 11
302.80342732100593
 21
172.25069565131739
 31
0.0
  0
LINE
  5
8701
  8
AM_0
 10
382.42177732100572
 20
61.734920651317672
 30
0.0
 11
382.42177732100572
 21
284.57533065131747
 31
0.0
  0
LINE
  5
8702
  8
AM_0
 10
368.42182732100582
 20
45.513115651317527
 30
0.0
 11
368.42182732100582
 21
284.96073065131759
 31
0.0
  0
LINE
  5
8703
  8
AM_0
 10
513.42182732100582
 20
194.96069065131749
 30
0.0
 11
513.42182732100582
 21
161.20333565131739
 31
0.0
  0
LINE
  5
8704
  8
AM_0
 10
485.4218273210044
 20
98.55856065131789
 30
0.0
 11
485.4218273210044
 21
270.80613065131769
 31
0.0
  0
LINE
  5
8705
  8
AM_0
 10
507.42177732100572
 20
194.96069065131749
 30
0.0
 11
507.42177732100572
 21
48.70666065131752
 31
0.0
  0
LINE
  5
8706
  8
AM_0
 10
465.4218273210044
 20
229.13357065131771
 30
0.0
 11
465.4218273210044
 21
52.960720651317502
 31
0.0
  0
LINE
  5
8707
  8
AM_0
 10
410.42182732100571
 20
174.9725006513176
 30
0.0
 11
410.42182732100571
 21
258.2849806513176
 31
0.0
  0
LINE
  5
8708
  8
AM_0
 10
395.4218273210044
 20
78.509090651317365
 30
0.0
 11
395.4218273210044
 21
286.96073065131748
 31
0.0
  0
LINE
  5
8709
  8
AM_0
 10
517.42177732100572
 20
172.46069065131749
 30
0.0
 11
517.42177732100572
 21
217.46069065131749
 31
0.0
  0
LINE
  5
870A
  8
ﾁｭｳｼﾝｾﾝ
 10
371.86083284566661
 20
120.75072565131759
 30
0.0
 11
19.917627321004598
 21
120.75072565131759
 31
0.0
  0
LINE
  5
870B
  8
AM_0
 10
259.09642732100559
 20
89.710260651317867
 30
0.0
 11
320.92692732100562
 21
87.551080651317534
 31
0.0
  0
LINE
  5
870C
  8
AM_0
 10
233.9218273210044
 20
158.74700565131749
 30
0.0
 11
309.81267732100463
 21
158.74700565131749
 31
0.0
  0
LINE
  5
870D
  8
AM_0
 10
233.9218273210044
 20
172.25069565131739
 30
0.0
 11
313.65952732100578
 21
172.25069565131739
 31
0.0
  0
LINE
  5
870E
  8
AM_0
 10
258.92182732100338
 20
127.75381065131749
 30
0.0
 11
323.9218273210044
 21
127.75381065131749
 31
0.0
  0
LINE
  5
870F
  8
AM_0
 10
256.15317732100442
 20
62.148310651317502
 30
0.0
 11
323.27127732100593
 21
83.106775651317534
 31
0.0
  0
LINE
  5
8710
  8
AM_0
 10
253.9218273210044
 20
122.75381065131739
 30
0.0
 11
253.9218273210044
 21
61.311855651317842
 31
0.0
  0
LINE
  5
8711
  8
AM_0
 10
233.9218273210044
 20
56.750665651317377
 30
0.0
 11
250.06142732100571
 21
57.314265651317911
 31
0.0
  0
LINE
  5
8712
  8
AM_0
 10
233.9218273210044
 20
69.250695651317528
 30
0.0
 11
253.9218273210044
 21
69.250695651317528
 31
0.0
  0
LINE
  5
8713
  8
AM_0
 10
233.9218273210044
 20
82.754390651317394
 30
0.0
 11
253.9218273210044
 21
82.754390651317394
 31
0.0
  0
LINE
  5
8714
  8
AM_0
 10
226.92182732100341
 20
57.250725651317673
 30
0.0
 11
233.9218273210044
 21
57.250725651317673
 31
0.0
  0
LINE
  5
8715
  8
AM_0
 10
226.92182732100341
 20
68.710750651317539
 30
0.0
 11
233.9218273210044
 21
68.710750651317539
 31
0.0
  0
LINE
  5
8716
  8
AM_0
 10
225.92177732100481
 20
83.600735651317905
 30
0.0
 11
233.9218273210044
 21
83.600735651317905
 31
0.0
  0
ARC
  5
8717
  8
AM_0
 10
249.92177732100481
 20
61.311855651317842
 30
0.0
 40
4.000000049999997
 50
272.00000000000369
 51
0.0
  0
ARC
  5
8718
  8
AM_0
 10
257.34537732100569
 20
58.330135651317498
 30
0.0
 40
4.000000049999997
 50
107.3416100000195
 51
158.11660999999989
  0
ARC
  5
8719
  8
AM_0
 10
258.92182732100338
 20
84.713345651317582
 30
0.0
 40
5.0
 50
87.999999999996248
 51
180.00001000000091
  0
POINT
  5
871A
  8
AM_0
 10
233.9218273210044
 20
120.75072565131759
 30
0.0
  0
LINE
  5
871B
  8
AM_0
 10
225.92177732100481
 20
157.9007206513175
 30
0.0
 11
233.9218273210044
 21
157.9007206513175
 31
0.0
  0
LINE
  5
871C
  8
AM_0
 10
226.92182732100341
 20
172.7907056513186
 30
0.0
 11
233.9218273210044
 21
172.7907056513186
 31
0.0
  0
ARC
  5
871D
  8
AM_0
 10
258.92182732100338
 20
122.75381065131739
 30
0.0
 40
5.0
 50
90.000002999984645
 51
180.00001000000091
  0
ARC
  5
871E
  8
AM_0
 10
245.9218273210044
 20
175.25073065131741
 30
0.0
 40
3.0000000500000001
 50
270.0
 51
0.0
  0
LINE
  5
871F
  8
ﾁｭｳｼﾝｾﾝ
 10
342.42177732100561
 20
49.960685651317362
 30
0.0
 11
342.42177732100561
 21
14.960685651317361
 31
0.0
  0
LINE
  5
8720
  8
ﾁｭｳｼﾝｾﾝ
 10
492.42177732100572
 20
49.960685651317362
 30
0.0
 11
492.42177732100572
 21
14.960685651317361
 31
0.0
  0
LINE
  5
8721
  8
ｶｸﾚｾﾝ2
 10
332.92182732100429
 20
44.960685651317348
 30
0.0
 11
332.92182732100429
 21
19.960685651317359
 31
0.0
  0
LINE
  5
8722
  8
ｶｸﾚｾﾝ2
 10
351.92182732100349
 20
44.960685651317348
 30
0.0
 11
351.92182732100349
 21
19.960685651317359
 31
0.0
  0
LINE
  5
8723
  8
AM_0
 10
321.42182732100349
 20
40.960685651317249
 30
0.0
 11
321.42182732100349
 21
19.960685651317359
 31
0.0
  0
LINE
  5
8724
  8
ｶｸﾚｾﾝ2
 10
501.92182732100571
 20
44.960685651317348
 30
0.0
 11
501.92182732100571
 21
19.960685651317359
 31
0.0
  0
LINE
  5
8725
  8
AM_0
 10
513.42182732100582
 20
40.960685651317249
 30
0.0
 11
513.42182732100582
 21
19.960685651317359
 31
0.0
  0
LINE
  5
8726
  8
ｶｸﾚｾﾝ2
 10
482.92182732100582
 20
44.960685651317348
 30
0.0
 11
482.92182732100582
 21
19.960685651317359
 31
0.0
  0
LINE
  5
8727
  8
AM_0
 10
321.42182732100349
 20
19.960685651317359
 30
0.0
 11
513.42182732100582
 21
19.960685651317359
 31
0.0
  0
ARC
  5
8728
  8
AM_0
 10
407.42177732100549
 20
174.9725006513176
 30
0.0
 40
3.0000000500000001
 50
270.0
 51
0.0
  0
ARC
  5
8729
  8
AM_0
 10
407.42177732100549
 20
137.3503656513175
 30
0.0
 40
3.0000000500000001
 50
0.0
 51
90.000002999984645
  0
LINE
  5
872A
  8
AM_0
 10
400.42182732100571
 20
130.7726106513179
 30
0.0
 11
410.42182732100571
 21
130.7726106513179
 31
0.0
  0
LINE
  5
872B
  8
AM_0
 10
400.42182732100571
 20
130.7726106513179
 30
0.0
 11
400.42182732100571
 21
84.960690651317648
 31
0.0
  0
LINE
  5
872C
  8
AM_0
 10
323.9218273210044
 20
93.960720651317374
 30
0.0
 11
368.42182732100582
 21
93.960720651317374
 31
0.0
  0
LINE
  5
872D
  8
AM_0
 10
341.6603773210058
 20
74.221125651317394
 30
0.0
 11
365.68327732100352
 21
72.119380651317542
 31
0.0
  0
LINE
  5
872E
  8
AM_0
 10
325.42182732100429
 20
44.960685651317348
 30
0.0
 11
365.50057732100578
 21
44.960685651317348
 31
0.0
  0
ARC
  5
872F
  8
AM_0
 10
325.42182732100429
 20
40.960685651317249
 30
0.0
 40
4.000000049999997
 50
90.000002999984645
 51
180.00001000000091
  0
ARC
  5
8730
  8
AM_0
 10
327.92182732100582
 20
87.17269565131754
 30
0.0
 40
4.000000049999997
 50
206.89694000000509
 51
267.99999999999631
  0
LINE
  5
8731
  8
AM_0
 10
324.60312732100601
 20
83.286095651317865
 30
0.0
 11
333.92192732100602
 21
82.960690651317705
 31
0.0
  0
ARC
  5
8732
  8
AM_0
 10
320.787277321006
 20
83.553585651317576
 30
0.0
 40
4.000000049999997
 50
26.896936999991841
 51
87.999999999996248
  0
ARC
  5
8733
  8
AM_0
 10
324.4634273210043
 20
79.288540651317362
 30
0.0
 40
4.000000049999997
 50
87.999999999996248
 51
107.3416100000195
  0
LINE
  5
8734
  8
AM_0
 10
338.92182732100429
 20
77.209680651317868
 30
0.0
 11
338.92182732100429
 21
93.960720651317374
 31
0.0
  0
ARC
  5
8735
  8
AM_0
 10
341.92182732100582
 20
77.209680651317868
 30
0.0
 40
3.0000000500000001
 50
179.99998999999889
 51
265.0
  0
ARC
  5
8736
  8
AM_0
 10
335.92182732100349
 20
80.389065651317864
 30
0.0
 40
3.0000000500000001
 50
0.0
 51
87.999999999996248
  0
LINE
  5
8737
  8
AM_0
 10
333.92182732100582
 20
83.460690651317705
 30
0.0
 11
336.02657732100568
 21
83.387200651317585
 31
0.0
  0
ARC
  5
8738
  8
AM_0
 10
365.42182732100582
 20
69.130825651317537
 30
0.0
 40
3.0000000500000001
 50
0.0
 51
84.99999699998591
  0
LINE
  5
8739
  8
AM_0
 10
399.37392732100568
 20
83.608515651317703
 30
0.0
 11
371.82392732100601
 21
48.060115651317581
 31
0.0
  0
ARC
  5
873A
  8
AM_0
 10
365.50057732100578
 20
52.960720651317502
 30
0.0
 40
8.0
 50
270.0
 51
322.22431999999191
  0
ARC
  5
873B
  8
AM_0
 10
395.4218273210044
 20
86.671410651317856
 30
0.0
 40
5.0
 50
322.22431999999191
 51
0.0
  0
LINE
  5
873C
  8
AM_0
 10
323.9218273210044
 20
118.14062065131751
 30
0.0
 11
368.42182732100582
 21
118.14062065131751
 31
0.0
  0
LINE
  5
873D
  8
AM_0
 10
309.81267732100463
 20
158.74700565131749
 30
0.0
 11
323.9218273210044
 21
131.56487565131721
 31
0.0
  0
LINE
  5
873E
  8
AM_0
 10
309.81272732100649
 20
158.74694565131759
 30
0.0
 11
316.48792732100583
 21
165.42223565131721
 31
0.0
  0
ARC
  5
873F
  8
AM_0
 10
313.65952732100578
 20
168.2507306513175
 30
0.0
 40
4.000000049999997
 50
314.99999999998158
 51
90.000002999984645
  0
LINE
  5
8740
  8
AM_0
 10
395.4218273210044
 20
140.35040065131739
 30
0.0
 11
407.42177732100549
 21
140.35040065131739
 31
0.0
  0
LINE
  5
8741
  8
AM_0
 10
382.42177732100572
 20
141.9489106513175
 30
0.0
 11
395.4218273210044
 21
141.9489106513175
 31
0.0
  0
LINE
  5
8742
  8
AM_0
 10
395.4218273210044
 20
171.9725006513176
 30
0.0
 11
407.42177732100549
 21
171.9725006513176
 31
0.0
  0
LINE
  5
8743
  8
AM_0
 10
382.42177732100572
 20
171.9725006513176
 30
0.0
 11
395.4218273210044
 21
171.9725006513176
 31
0.0
  0
ARC
  5
8744
  8
AM_0
 10
473.42182732100451
 20
52.960720651317502
 30
0.0
 40
8.0
 50
180.00001000000091
 51
270.0
  0
LINE
  5
8745
  8
AM_0
 10
473.42182732100451
 20
44.960685651317348
 30
0.0
 11
509.42182732100571
 21
44.960685651317348
 31
0.0
  0
ARC
  5
8746
  8
AM_0
 10
511.4218273210044
 20
48.70666065131752
 30
0.0
 40
4.000000049999997
 50
179.99998999999889
 51
255.52248999999071
  0
ARC
  5
8747
  8
AM_0
 10
509.42182732100571
 20
40.960685651317249
 30
0.0
 40
4.000000049999997
 50
0.0
 51
90.000002999984645
  0
ARC
  5
8748
  8
AM_0
 10
477.42177732100572
 20
98.55856065131789
 30
0.0
 40
8.0
 50
270.0
 51
0.0
  0
LINE
  5
8749
  8
AM_0
 10
477.42177732100572
 20
90.558590651317544
 30
0.0
 11
468.90512732100473
 21
90.558590651317544
 31
0.0
  0
LINE
  5
874A
  8
AM_0
 10
414.92177732100572
 20
169.4485456513174
 30
0.0
 11
414.92177732100572
 21
142.3363906513186
 31
0.0
  0
LINE
  5
874B
  8
AM_0
 10
413.17947732100441
 20
139.04580065131759
 30
0.0
 11
426.4153273210058
 21
148.9557456513175
 31
0.0
  0
LINE
  5
874C
  8
AM_0
 10
410.42182732100571
 20
137.3503656513175
 30
0.0
 11
410.42182732100571
 21
130.7726106513179
 31
0.0
  0
ARC
  5
874D
  8
AM_0
 10
420.42182732100582
 20
156.9607206513173
 30
0.0
 40
10.0
 50
306.82304000001437
 51
41.1028219999843
  0
LINE
  5
874E
  8
AM_0
 10
415.8185773210048
 20
177.44824065131749
 30
0.0
 11
427.95717732100462
 21
163.5348156513179
 31
0.0
  0
ARC
  5
874F
  8
AM_0
 10
413.55787732100572
 20
175.47598065131751
 30
0.0
 40
3.0000000500000001
 50
41.1028219999843
 51
90.000002999984645
  0
ARC
  5
8750
  8
AM_0
 10
510.4218273210044
 20
152.71807565131749
 30
0.0
 40
3.0000000500000001
 50
134.9999999999815
 51
180.00001000000091
  0
ARC
  5
8751
  8
AM_0
 10
510.4218273210044
 20
161.20333565131739
 30
0.0
 40
3.0000000500000001
 50
314.99999999998158
 51
0.0
  0
LINE
  5
8752
  8
AM_0
 10
508.30057732100471
 20
154.8393506513174
 30
0.0
 11
512.54322732100445
 21
159.0819656513176
 31
0.0
  0
LINE
  5
8753
  8
AM_0
 10
513.42182732100582
 20
172.46069065131749
 30
0.0
 11
517.42177732100572
 21
172.46069065131749
 31
0.0
  0
LINE
  5
875A
  8
AM_0
 10
251.81717732100461
 20
221.73004065131849
 30
0.0
 11
320.06137732100473
 21
224.11318565131751
 31
0.0
  0
LINE
  5
875B
  8
AM_0
 10
253.7473273210048
 20
202.12917565131741
 30
0.0
 11
301.2286773210048
 21
203.7872606513175
 31
0.0
  0
LINE
  5
875C
  8
AM_0
 10
233.92177732100481
 20
184.75066565131729
 30
0.0
 11
244.09627732100441
 21
185.10595565131749
 31
0.0
  0
LINE
  5
875D
  8
AM_0
 10
226.92182732100341
 20
184.2507006513174
 30
0.0
 11
233.9218273210044
 21
184.2507006513174
 31
0.0
  0
ARC
  5
875E
  8
AM_0
 10
253.9218273210044
 20
197.13226065131761
 30
0.0
 40
5.0
 50
91.999997999994008
 51
180.00001000000091
  0
ARC
  5
875F
  8
AM_0
 10
243.9218273210044
 20
190.10296065131749
 30
0.0
 40
5.0
 50
272.00000000000369
 51
0.0
  0
ARC
  5
8760
  8
AM_0
 10
251.92182732100571
 20
218.73190065131749
 30
0.0
 40
3.0000000500000001
 50
91.999997999994008
 51
180.00001000000091
  0
ARC
  5
8761
  8
AM_0
 10
379.4218273210044
 20
307.46073065131759
 30
0.0
 40
20.500000499999992
 50
304.61363999999321
 51
235.3863499999913
  0
ARC
  5
8762
  8
AM_0
 10
408.42182732100429
 20
284.50553065131868
 30
0.0
 40
2.0000000500000001
 50
0.0
 51
87.999999999996248
  0
ARC
  5
8763
  8
AM_0
 10
407.42177732100549
 20
258.2849806513176
 30
0.0
 40
3.0000000500000001
 50
0.0
 51
90.000002999984645
  0
LINE
  5
8764
  8
AM_0
 10
395.4218273210044
 20
279.54403065131731
 30
0.0
 11
414.11332732100482
 21
279.54403065131731
 31
0.0
  0
LINE
  5
8765
  8
AM_0
 10
383.67782732100568
 20
278.20423065131757
 30
0.0
 11
410.42182732100571
 21
278.20423065131757
 31
0.0
  0
LINE
  5
8766
  8
AM_0
 10
323.9218273210044
 20
195.7808206513177
 30
0.0
 11
368.42182732100582
 21
195.7808206513177
 31
0.0
  0
LINE
  5
8767
  8
AM_0
 10
323.9218273210044
 20
219.96069065131749
 30
0.0
 11
368.42182732100582
 21
219.96069065131749
 31
0.0
  0
LINE
  5
8768
  8
AM_0
 10
333.92177732100561
 20
230.46069065131749
 30
0.0
 11
363.59627732100569
 21
231.49694565131759
 31
0.0
  0
LINE
  5
8769
  8
AM_0
 10
303.91762732100591
 20
204.95641565131751
 30
0.0
 11
322.7502773210058
 21
223.7891206513176
 31
0.0
  0
ARC
  5
876A
  8
AM_0
 10
301.08907732100579
 20
207.78488065131751
 30
0.0
 40
4.000000049999997
 50
272.00000000000369
 51
314.99999999998158
  0
ARC
  5
876B
  8
AM_0
 10
327.80437732100557
 20
226.74465565131769
 30
0.0
 40
4.000000049999997
 50
91.999997999994008
 51
170.16761999999781
  0
ARC
  5
876C
  8
AM_0
 10
319.92177732100572
 20
228.11077565131751
 30
0.0
 40
4.000000049999997
 50
272.00000000000369
 51
350.16760999999559
  0
ARC
  5
876D
  8
AM_0
 10
319.92177732100572
 20
226.6175806513175
 30
0.0
 40
4.000000049999997
 50
314.99999999998158
 51
0.0
  0
LINE
  5
876E
  8
AM_0
 10
327.6647273210059
 20
230.7421856513175
 30
0.0
 11
333.92177732100561
 21
230.96066065131751
 31
0.0
  0
ARC
  5
876F
  8
AM_0
 10
363.4218273210044
 20
236.4939306513175
 30
0.0
 40
5.0
 50
272.00000000000369
 51
0.0
  0
ARC
  5
8770
  8
AM_0
 10
365.50487732100601
 20
287.29723065131759
 30
0.0
 40
4.000000049999997
 50
347.92933000000039
 51
55.386359000001512
  0
ARC
  5
8771
  8
AM_0
 10
393.33877732100473
 20
287.29723065131759
 30
0.0
 40
4.000000049999997
 50
124.6136499999871
 51
187.868250000004
  0
LINE
  5
8772
  8
AM_0
 10
369.42177732100572
 20
286.46073065131759
 30
0.0
 11
371.13402732100479
 21
292.85088065131771
 31
0.0
  0
LINE
  5
8773
  8
AM_0
 10
389.34477732100578
 20
286.74848065131749
 30
0.0
 11
387.70962732100628
 21
292.85078065131751
 31
0.0
  0
ARC
  5
8774
  8
AM_0
 10
379.4218273210044
 20
278.58843065131748
 30
0.0
 40
3.0000000500000001
 50
280.000000000005
 51
0.0
  0
ARC
  5
8775
  8
AM_0
 10
384.42182732100582
 20
284.57533065131747
 30
0.0
 40
2.0000000500000001
 50
91.999997999994008
 51
180.00001000000091
  0
LINE
  5
8776
  8
AM_0
 10
369.0989773210058
 20
286.46073065131759
 30
0.0
 11
383.75447732100469
 21
286.46073065131759
 31
0.0
  0
ARC
  5
8777
  8
AM_0
 10
370.4218273210044
 20
284.96073065131759
 30
0.0
 40
2.0000000500000001
 50
131.4096200000055
 51
180.00001000000091
  0
ARC
  5
8778
  8
AM_0
 10
371.42182732100582
 20
271.08528065131748
 30
0.0
 40
3.0000000500000001
 50
100.000000000005
 51
180.00001000000091
  0
LINE
  5
8779
  8
AM_0
 10
370.90092732100442
 20
274.03968065131761
 30
0.0
 11
379.94277732100448
 21
275.63398065131747
 31
0.0
  0
LINE
  5
877A
  8
AM_0
 10
395.4218273210044
 20
261.2849306513175
 30
0.0
 11
407.42177732100549
 21
261.2849306513175
 31
0.0
  0
LINE
  5
877B
  8
AM_0
 10
382.42177732100572
 20
261.2849306513175
 30
0.0
 11
395.4218273210044
 21
261.2849306513175
 31
0.0
  0
LINE
  5
877C
  8
AM_0
 10
395.42192732100602
 20
286.96068065131749
 30
0.0
 11
408.49172732100578
 21
286.50423065131741
 31
0.0
  0
LINE
  5
877D
  8
AM_0
 10
393.4218273210044
 20
286.89088065131767
 30
0.0
 11
393.4218273210044
 21
286.96073065131748
 31
0.0
  0
LINE
  5
877E
  8
AM_0
 10
393.4218273210044
 20
286.96073065131748
 30
0.0
 11
395.4218273210044
 21
286.96073065131748
 31
0.0
  0
LINE
  5
877F
  8
AM_0
 10
384.35202732100601
 20
286.57413065131772
 30
0.0
 11
395.42177732100572
 21
286.96068065131749
 31
0.0
  0
LINE
  5
8780
  8
AM_0
 10
382.42177732100572
 20
279.54403065131731
 30
0.0
 11
395.4218273210044
 21
279.54403065131731
 31
0.0
  0
CIRCLE
  5
8781
  8
AM_0
 10
379.4218273210044
 20
307.46073065131759
 30
0.0
 40
12.5
  0
LINE
  5
8782
  8
AM_0
 10
379.4218273210044
 20
294.96073065131759
 30
0.0
 11
386.92522732100582
 21
293.57533065131651
 31
0.0
  0
LINE
  5
8783
  8
AM_0
 10
371.6047273210047
 20
293.46078065131792
 30
0.0
 11
387.23892732100597
 21
293.46078065131792
 31
0.0
  0
ARC
  5
8784
  8
AM_0
 10
372.10002732100469
 20
292.59203065131771
 30
0.0
 40
1.0
 50
100.4607199999832
 51
164.99999000000039
  0
LINE
  5
8785
  8
AM_0
 10
371.91842732100571
 20
293.57543065131767
 30
0.0
 11
379.4218273210044
 21
294.96078065131752
 31
0.0
  0
ARC
  5
8786
  8
AM_0
 10
386.74367732100472
 20
292.59203065131771
 30
0.0
 40
1.0
 50
14.999999999994451
 51
79.539281000008401
  0
LINE
  5
8787
  8
AM_0
 10
507.42177732100572
 20
194.96069065131749
 30
0.0
 11
507.42177732100572
 21
251.9607306513175
 31
0.0
  0
LINE
  5
8788
  8
AM_0
 10
411.78832732100437
 20
251.35453065131739
 30
0.0
 11
423.58962732100463
 21
255.29593065131749
 31
0.0
  0
ARC
  5
8789
  8
AM_0
 10
475.42182732100429
 20
229.13357065131771
 30
0.0
 40
10.0
 50
90.000002999984645
 51
180.00001000000091
  0
LINE
  5
878A
  8
AM_0
 10
513.42182732100582
 20
194.96069065131749
 30
0.0
 11
513.42182732100582
 21
234.71807565131749
 31
0.0
  0
LINE
  5
878B
  8
AM_0
 10
480.48012732100591
 20
239.13358065131749
 30
0.0
 11
475.42182732100429
 21
239.13358065131749
 31
0.0
  0
LINE
  5
878C
  8
AM_0
 10
513.42182732100582
 20
217.46069065131749
 30
0.0
 11
517.42177732100572
 21
217.46069065131749
 31
0.0
  0
ARC
  5
878D
  8
AM_0
 10
510.4218273210044
 20
243.2033306513176
 30
0.0
 40
3.0000000500000001
 50
179.99998999999889
 51
225.00000000001839
  0
ARC
  5
878E
  8
AM_0
 10
510.4218273210044
 20
234.71807565131749
 30
0.0
 40
3.0000000500000001
 50
0.0
 51
45.000000999994569
  0
LINE
  5
878F
  8
AM_0
 10
508.30052732100597
 20
241.0820306513173
 30
0.0
 11
512.54322732100445
 21
236.83933065131751
 31
0.0
  0
LINE
  5
8790
  8
AM_0
 10
412.35212732100439
 20
281.08323065131748
 30
0.0
 11
477.7010773210057
 21
278.80123065131733
 31
0.0
  0
ARC
  5
8791
  8
AM_0
 10
420.42182732100582
 20
264.78083065131648
 30
0.0
 40
10.0
 50
288.46821000000551
 51
59.833878000007537
  0
LINE
  5
8792
  8
AM_0
 10
414.92177732100572
 20
256.43638065131751
 30
0.0
 11
414.92177732100572
 21
277.60958065131757
 31
0.0
  0
ARC
  5
8793
  8
AM_0
 10
414.43412732100649
 20
255.40103065131771
 30
0.0
 40
3.0000000500000001
 50
270.0
 51
288.46822000000628
  0
LINE
  5
8794
  8
AM_0
 10
415.62092732100467
 20
279.13768065131762
 30
0.0
 11
425.44697732100582
 21
273.42653065131748
 31
0.0
  0
ARC
  5
8795
  8
AM_0
 10
412.42177732100572
 20
283.08208065131748
 30
0.0
 40
2.0000000500000001
 50
179.99998999999889
 51
268.00001000001811
  0
ARC
  5
8796
  8
AM_0
 10
414.11332732100482
 20
276.5440306513176
 30
0.0
 40
3.0000000500000001
 50
59.833878000007537
 51
90.000002999984645
  0
LINE
  5
8797
  8
AM_0
 10
410.42182732100571
 20
279.54403065131731
 30
0.0
 11
410.42182732100571
 21
284.50553065131868
 31
0.0
  0
ARC
  5
8798
  8
AM_0
 10
493.42182732100571
 20
262.96073065131748
 30
0.0
 40
8.0
 50
180.00001000000091
 51
270.0
  0
ARC
  5
8799
  8
AM_0
 10
477.42177732100572
 20
270.80613065131769
 30
0.0
 40
8.0
 50
0.0
 51
87.999999999996248
  0
ARC
  5
879A
  8
AM_0
 10
504.42182732100429
 20
251.9607306513175
 30
0.0
 40
3.0000000500000001
 50
0.0
 51
90.000002999984645
  0
LINE
  5
879B
  8
AM_0
 10
493.42182732100571
 20
254.96073065131759
 30
0.0
 11
504.42182732100429
 21
254.96073065131759
 31
0.0
  0
LINE
  5
879D
  8
AM_0
 10
587.42177732100549
 20
173.96072065131739
 30
0.0
 11
587.42177732100549
 21
218.9607206513173
 31
0.0
  0
LINE
  5
879F
  8
AM_0
 10
531.42187732100444
 20
218.9607206513173
 30
0.0
 11
587.42177732100549
 21
218.9607206513173
 31
0.0
  0
LINE
  5
87A0
  8
AM_0
 10
531.42187732100444
 20
218.9607206513173
 30
0.0
 11
531.42187732100444
 21
215.9607206513175
 31
0.0
  0
ARC
  5
87A3
  8
AM_0
 10
1003.151412321004
 20
180.90719065131771
 30
0.0
 40
5.0
 50
190.65618000000171
 51
225.00000000001839
  0
ARC
  5
87A4
  8
AM_0
 10
748.61796232100573
 20
180.90719065131771
 30
0.0
 40
5.0
 50
314.99999999998158
 51
349.34381999999817
  0
ARC
  5
87A5
  8
AM_0
 10
875.88468732100444
 20
156.9607206513173
 30
0.0
 40
130.0
 50
7.3755072000038258
 51
52.624493999996417
  0
ARC
  5
87A6
  8
AM_0
 10
875.88468732100444
 20
166.9607206513173
 30
0.0
 40
88.0
 50
0.0
 51
186.5249800000052
  0
CIRCLE
  5
87A7
  8
AM_0
 10
875.88468732100444
 20
194.96069065131749
 30
0.0
 40
41.000000499999992
  0
ARC
  5
87A8
  8
AM_0
 10
875.88468732100444
 20
156.9607206513173
 30
0.0
 40
124.5
 50
7.1014839000006411
 51
172.89851999999951
  0
ARC
  5
87A9
  8
AM_0
 10
875.88468732100444
 20
156.9607206513173
 30
0.0
 40
130.0
 50
127.37549999999339
 51
172.62448999999489
  0
ARC
  5
87AA
  8
AM_0
 10
875.88468732100444
 20
194.96069065131749
 30
0.0
 40
20.9999985
 50
106.6015499999925
 51
73.398451999991579
  0
LINE
  5
87AB
  8
AM_0
 10
969.88468732100557
 20
238.59558065131739
 30
0.0
 11
969.88468732100557
 21
119.3460656513175
 31
0.0
  0
LINE
  5
87AC
  8
AM_0
 10
781.88465732100553
 20
238.59558065131739
 30
0.0
 11
781.88465732100553
 21
122.9508606513177
 31
0.0
  0
LINE
  5
87AD
  8
ﾁｭｳｼﾝｾﾝ
 10
875.88468732100444
 20
329.50338065131763
 30
0.0
 11
875.88468732100444
 21
18.991080651317571
 31
0.0
  0
ARC
  5
87AE
  8
AM_0
 10
875.88468732100444
 20
122.9508606513177
 30
0.0
 40
93.999994999999984
 50
339.95001999999772
 51
20.049976000002079
  0
ARC
  5
87AF
  8
AM_0
 10
971.88468732100614
 20
52.960720651317502
 30
0.0
 40
8.0
 50
180.00001000000091
 51
270.0
  0
ARC
  5
87B0
  8
AM_0
 10
968.58470232100444
 20
40.960685651317249
 30
0.0
 40
4.000000049999997
 50
90.000002999984645
 51
180.00001000000091
  0
LINE
  5
87B1
  8
AM_0
 10
960.88471732100618
 20
19.960685651317359
 30
0.0
 11
1015.884702321006
 21
19.960685651317359
 31
0.0
  0
LINE
  5
87B2
  8
AM_0
 10
752.33976232100554
 20
172.35229065131739
 30
0.0
 11
735.92302732100438
 21
40.578820651317521
 31
0.0
  0
LINE
  5
87B3
  8
AM_0
 10
740.88468732100444
 20
44.960685651317348
 30
0.0
 11
783.18467232100613
 21
44.960685651317348
 31
0.0
  0
LINE
  5
87B4
  8
AM_0
 10
738.81364232100555
 20
149.88958565131779
 30
0.0
 11
746.62461232100645
 21
142.07864065131659
 31
0.0
  0
LINE
  5
87B5
  8
AM_0
 10
735.88467732100469
 20
19.960685651317359
 30
0.0
 11
790.88468732100444
 21
19.960685651317359
 31
0.0
  0
LINE
  5
87B6
  8
AM_0
 10
738.81364232100555
 20
164.03173565131721
 30
0.0
 11
752.15354732100343
 21
177.37164065131901
 31
0.0
  0
LINE
  5
87B7
  8
AM_0
 10
735.88467732100469
 20
39.960685651317249
 30
0.0
 11
735.88467732100469
 21
19.960685651317359
 31
0.0
  0
ARC
  5
87B8
  8
AM_0
 10
740.88468732100444
 20
39.960685651317249
 30
0.0
 40
5.0
 50
90.000002999984645
 51
180.00001000000091
  0
ARC
  5
87B9
  8
AM_0
 10
745.88468732100591
 20
156.9607206513173
 30
0.0
 40
10.0
 50
134.9999999999815
 51
225.00000000001839
  0
ARC
  5
87BA
  8
AM_0
 10
946.23915232100353
 20
29.691370651317239
 30
0.0
 40
5.0
 50
13.8192169999997
 51
90.000002999984645
  0
ARC
  5
87BB
  8
AM_0
 10
805.53022232100591
 20
29.691370651317239
 30
0.0
 40
5.0
 50
90.000002999984645
 51
166.18078000000281
  0
ARC
  5
87BC
  8
AM_0
 10
942.88468732100637
 20
31.960685651317242
 30
0.0
 40
8.0
 50
2.994464400006823
 51
90.000002999984645
  0
ARC
  5
87BD
  8
AM_0
 10
808.88468732100364
 20
31.960685651317242
 30
0.0
 40
8.0
 50
90.000002999984645
 51
177.005539999999
  0
LINE
  5
87BE
  8
ｶｸﾚｾﾝ2
 10
770.38468732100444
 20
44.960685651317348
 30
0.0
 11
770.38468732100444
 21
19.960685651317359
 31
0.0
  0
LINE
  5
87BF
  8
AM_0
 10
787.18470232100572
 20
40.960685651317249
 30
0.0
 11
787.18470232100572
 21
19.960685651317359
 31
0.0
  0
LINE
  5
87C0
  8
ｶｸﾚｾﾝ2
 10
751.38468732100569
 20
44.960685651317348
 30
0.0
 11
751.38468732100569
 21
19.960685651317359
 31
0.0
  0
LINE
  5
87C1
  8
AM_0
 10
964.58470232100456
 20
40.960685651317249
 30
0.0
 11
964.58470232100456
 21
19.960685651317359
 31
0.0
  0
LINE
  5
87C2
  8
ﾁｭｳｼﾝｾﾝ
 10
760.88468732100614
 20
49.96068565131737
 30
0.0
 11
760.88468732100557
 21
14.960685651317361
 31
0.0
  0
LINE
  5
87C3
  8
AM_0
 10
805.53022232100591
 20
34.691370651317357
 30
0.0
 11
946.23915232100353
 21
34.691370651317357
 31
0.0
  0
LINE
  5
87C4
  8
AM_0
 10
794.88465732100553
 20
24.9606856513177
 30
0.0
 11
957.25047232100451
 21
24.9606856513177
 31
0.0
  0
ARC
  5
87C5
  8
AM_0
 10
792.90650732100426
 20
32.79653565131877
 30
0.0
 40
8.0
 50
279.4882999999972
 51
357.00553999999892
  0
ARC
  5
87C6
  8
AM_0
 10
794.88465732100553
 20
20.960685651317359
 30
0.0
 40
4.000000049999997
 50
99.488295999983904
 51
180.00001000000091
  0
LINE
  5
87C7
  8
AM_0
 10
790.88468732100444
 20
20.960685651317359
 30
0.0
 11
790.88468732100444
 21
19.960685651317359
 31
0.0
  0
ARC
  5
87C8
  8
AM_0
 10
958.86286732100439
 20
32.79653565131877
 30
0.0
 40
8.0
 50
182.99446000000091
 51
260.51170000000269
  0
ARC
  5
87C9
  8
AM_0
 10
956.88468732100614
 20
20.960685651317359
 30
0.0
 40
4.000000049999997
 50
0.0
 51
80.511701999996575
  0
LINE
  5
87CA
  8
AM_0
 10
960.88471732100618
 20
20.960685651317359
 30
0.0
 11
960.88471732100618
 21
19.960685651317359
 31
0.0
  0
LINE
  5
87CB
  8
AM_0
 10
808.88468732100364
 20
39.960685651317249
 30
0.0
 11
942.88468732100637
 21
39.960685651317249
 31
0.0
  0
ARC
  5
87CC
  8
AM_0
 10
875.88468732100444
 20
122.9508606513177
 30
0.0
 40
93.999994999999984
 50
179.99998999999889
 51
200.5819600000072
  0
LINE
  5
87CD
  8
AM_0
 10
787.88468732100591
 20
156.9607206513173
 30
0.0
 11
787.88468732100591
 21
52.960720651317502
 31
0.0
  0
ARC
  5
87CE
  8
AM_0
 10
779.88465732100553
 20
52.960720651317502
 30
0.0
 40
8.0
 50
270.0
 51
0.0
  0
ARC
  5
87CF
  8
AM_0
 10
783.18467232100613
 20
40.960685651317249
 30
0.0
 40
4.000000049999997
 50
0.0
 51
90.000002999984645
  0
ARC
  5
87D0
  8
AM_0
 10
742.00165732100618
 20
139.63055065131761
 30
0.0
 40
5.0
 50
7.3755081000061589
 51
45.000000999994569
  0
ARC
  5
87D1
  8
AM_0
 10
743.08903232100613
 20
138.5431156513186
 30
0.0
 40
5.0
 50
352.89851999999939
 51
45.000000999994569
  0
ARC
  5
87D2
  8
AM_0
 10
875.88468732100444
 20
156.9607206513173
 30
0.0
 40
130.0
 50
187.37551000000499
 51
189.624459999999
  0
ARC
  5
87D3
  8
AM_0
 10
742.00165732100618
 20
174.29089065131751
 30
0.0
 40
5.0
 50
314.99999999998158
 51
352.62448999999162
  0
LINE
  5
87D4
  8
AM_0
 10
963.88468732100614
 20
166.9607206513173
 30
0.0
 11
963.88468732100614
 21
52.960720651317502
 31
0.0
  0
ARC
  5
87D5
  8
AM_0
 10
968.88468732100444
 20
89.00973065131754
 30
0.0
 40
5.0
 50
159.9500299999963
 51
180.00001000000091
  0
ARC
  5
87D6
  8
AM_0
 10
968.88468732100444
 20
156.89196565131741
 30
0.0
 40
5.0
 50
179.99998999999889
 51
200.0499700000037
  0
LINE
  5
87D7
  8
AM_0
 10
1015.884702321006
 20
39.960685651317249
 30
0.0
 11
1015.884702321006
 21
19.960685651317359
 31
0.0
  0
LINE
  5
87D8
  8
ｶｸﾚｾﾝ2
 10
981.38468732100557
 20
44.960685651317348
 30
0.0
 11
981.38468732100557
 21
19.960685651317359
 31
0.0
  0
LINE
  5
87D9
  8
ｶｸﾚｾﾝ2
 10
1000.384687321006
 20
44.960685651317348
 30
0.0
 11
1000.384687321006
 21
19.960685651317359
 31
0.0
  0
LINE
  5
87DA
  8
ﾁｭｳｼﾝｾﾝ
 10
990.88470232100565
 20
49.960685651317362
 30
0.0
 11
990.88470232100588
 21
14.960685651317361
 31
0.0
  0
LINE
  5
87DC
  8
AM_0
 10
999.42962732100477
 20
172.35229065131739
 30
0.0
 11
1015.846342321006
 21
40.57885065131768
 31
0.0
  0
LINE
  5
87DD
  8
AM_0
 10
971.88468732100614
 20
44.960685651317348
 30
0.0
 11
1010.884702321006
 21
44.960685651317348
 31
0.0
  0
ARC
  5
87DE
  8
AM_0
 10
1010.884702321006
 20
39.960685651317249
 30
0.0
 40
5.0
 50
0.0
 51
90.000002999984645
  0
LINE
  5
87DF
  8
AM_0
 10
1012.955782321005
 20
149.8896156513174
 30
0.0
 11
1005.144792321005
 21
142.07864065131659
 31
0.0
  0
ARC
  5
87E0
  8
AM_0
 10
1009.767717321003
 20
139.63055065131761
 30
0.0
 40
5.0
 50
134.9999999999815
 51
172.62448999999489
  0
ARC
  5
87E1
  8
AM_0
 10
1008.680327321006
 20
138.5431156513186
 30
0.0
 40
5.0
 50
134.9999999999815
 51
187.10148999999689
  0
ARC
  5
87E2
  8
AM_0
 10
875.88468732100444
 20
156.9607206513173
 30
0.0
 40
130.0
 50
350.37555000000589
 51
352.62448999999162
  0
ARC
  5
87E3
  8
AM_0
 10
1005.884702321006
 20
156.9607206513173
 30
0.0
 40
10.0
 50
314.99999999998158
 51
45.000000999994569
  0
LINE
  5
87E4
  8
AM_0
 10
1012.955782321005
 20
164.0317656513175
 30
0.0
 11
999.61589232100459
 21
177.37164065131901
 31
0.0
  0
ARC
  5
87E5
  8
AM_0
 10
1009.767717321003
 20
174.29089065131751
 30
0.0
 40
5.0
 50
187.37551000000499
 51
225.00000000001839
  0
ARC
  5
87E6
  8
AM_0
 10
875.88468732100444
 20
323.96073065131759
 30
0.0
 40
4.000000049999997
 50
359.999989999999
 51
179.99998999999889
  0
ARC
  5
87E7
  8
AM_0
 10
875.88468732100444
 20
156.9607206513173
 30
0.0
 40
130.0
 50
67.375506000008571
 51
112.62448999998369
  0
LINE
  5
87E8
  8
ﾁｭｳｼﾝｾﾝ
 10
808.53335324205341
 20
194.96069065131749
 30
0.0
 11
943.23602139995546
 21
194.96069065131749
 31
0.0
  0
ARC
  5
87E9
  8
AM_0
 10
791.51304232100574
 20
255.2036306513177
 30
0.0
 40
5.0
 50
310.6561799999912
 51
345.00000000000551
  0
LINE
  5
87EA
  8
AM_0
 10
801.22547732100327
 20
272.13223065131751
 30
0.0
 11
796.34272232100614
 21
253.9095806513173
 31
0.0
  0
ARC
  5
87EB
  8
AM_0
 10
793.93479732100604
 20
264.24173065131748
 30
0.0
 40
5.0
 50
307.37551000000462
 51
345.00000000000551
  0
LINE
  5
87EC
  8
AM_0
 10
813.47291232100565
 20
279.20328065131758
 30
0.0
 11
831.69553732100576
 21
274.32053065131771
 31
0.0
  0
ARC
  5
87ED
  8
AM_0
 10
810.88468732100557
 20
269.54403065131731
 30
0.0
 40
10.0
 50
74.999999000016373
 51
164.99999000000039
  0
ARC
  5
87EE
  8
AM_0
 10
823.95155232100569
 20
281.5719306513173
 30
0.0
 40
5.0
 50
255.0000000000056
 51
292.62448999998361
  0
ARC
  5
87EF
  8
AM_0
 10
832.98960732100556
 20
279.1501806513175
 30
0.0
 40
5.0
 50
255.0000000000056
 51
289.34382000001312
  0
ARC
  5
87F0
  8
AM_0
 10
960.25633232100608
 20
255.2036306513177
 30
0.0
 40
5.0
 50
195.00000999999941
 51
229.34382000000869
  0
LINE
  5
87F1
  8
AM_0
 10
869.88465732100462
 20
218.9607206513173
 30
0.0
 11
869.88465732100462
 21
210.96072065131739
 31
0.0
  0
LINE
  5
87F2
  8
AM_0
 10
881.88465732100565
 20
218.9607206513173
 30
0.0
 11
881.88465732100565
 21
210.96072065131739
 31
0.0
  0
CIRCLE
  5
87F3
  8
AM_5
 10
875.88468732100444
 20
194.96069065131749
 30
0.0
 40
5.0
  0
CIRCLE
  5
87F4
  8
AM_0
 10
875.88468732100444
 20
194.96069065131749
 30
0.0
 40
3.5000000500000001
  0
LINE
  5
87F5
  8
AM_0
 10
869.88465732100462
 20
210.96072065131739
 30
0.0
 11
881.88465732100565
 21
210.96072065131739
 31
0.0
  0
LINE
  5
87F6
  8
AM_0
 10
869.88465732100462
 20
218.9607206513173
 30
0.0
 11
881.88465732100565
 21
218.9607206513173
 31
0.0
  0
LINE
  5
87F7
  8
AM_0
 10
885.85331732100553
 20
286.57793065131767
 30
0.0
 11
884.17249732100572
 21
292.85073065131752
 31
0.0
  0
LINE
  5
87F8
  8
AM_0
 10
865.91615232100446
 20
286.5779806513172
 30
0.0
 11
867.59693732100584
 21
292.85078065131751
 31
0.0
  0
LINE
  5
87F9
  8
AM_0
 10
879.88465732100576
 20
294.2221806513175
 30
0.0
 11
883.38807232100589
 21
293.57533065131651
 31
0.0
  0
LINE
  5
87FA
  8
AM_0
 10
879.88465732100576
 20
323.96073065131759
 30
0.0
 11
879.88465732100576
 21
290.4607306513177
 31
0.0
  0
LINE
  5
87FB
  8
AM_0
 10
871.88465732100576
 20
323.96073065131759
 30
0.0
 11
871.88465732100576
 21
290.4607306513177
 31
0.0
  0
LINE
  5
87FC
  8
AM_0
 10
871.88468732100432
 20
294.2221806513175
 30
0.0
 11
868.38126732100591
 21
293.57533065131651
 31
0.0
  0
ARC
  5
87FD
  8
AM_0
 10
868.5628173210057
 20
292.59193065131723
 30
0.0
 40
1.0
 50
100.4607199999832
 51
164.99999000000039
  0
ARC
  5
87FE
  8
AM_0
 10
881.88465732100565
 20
290.4607306513177
 30
0.0
 40
2.0000000500000001
 50
179.99998999999889
 51
270.0
  0
ARC
  5
87FF
  8
AM_0
 10
869.88465732100462
 20
290.4607306513177
 30
0.0
 40
2.0000000500000001
 50
270.0
 51
0.0
  0
ARC
  5
8800
  8
AM_0
 10
883.20652732100621
 20
292.59193065131723
 30
0.0
 40
1.0
 50
14.999999999994451
 51
79.539281000008401
  0
LINE
  5
8801
  8
AM_0
 10
938.29652232100568
 20
279.20323065131748
 30
0.0
 11
920.07389732100626
 21
274.32048065131761
 31
0.0
  0
ARC
  5
8802
  8
AM_0
 10
918.77979732100357
 20
279.1501806513175
 30
0.0
 40
5.0
 50
250.65617999998679
 51
284.99999999999437
  0
ARC
  5
8803
  8
AM_0
 10
927.81785232100617
 20
281.5719306513173
 30
0.0
 40
5.0
 50
247.37551000001619
 51
284.99999999999437
  0
LINE
  5
8804
  8
AM_0
 10
950.54395732100613
 20
272.13213065131771
 30
0.0
 11
955.42668232100618
 21
253.9095806513173
 31
0.0
  0
ARC
  5
8805
  8
AM_0
 10
957.83457732100453
 20
264.24173065131748
 30
0.0
 40
5.0
 50
195.00000999999941
 51
232.62450000000641
  0
ARC
  5
8806
  8
AM_0
 10
940.88471732100618
 20
269.54403065131731
 30
0.0
 40
10.0
 50
14.999999999994451
 51
104.9999999999944
  0
LINE
  5
8808
  8
AM_0
 10
225.92181732100471
 20
183.2507396513175
 30
0.0
 11
225.92181732100471
 21
58.250723651317678
 31
0.0
  0
LINE
  5
8809
  8
AM_0
 10
28.921867321004811
 20
89.07074965131801
 30
0.0
 11
28.921867321004811
 21
155.28072565131751
 31
0.0
  0
LINE
  5
880A
  8
AM_0
 10
31.421827321003551
 20
63.750740651317862
 30
0.0
 11
31.421827321003551
 21
80.58239483388968
 31
0.0
  0
LINE
  5
880B
  8
AM_0
 10
78.921817321005619
 20
178.18070965131739
 30
0.0
 11
78.921817321005619
 21
120.75072565131759
 31
0.0
  0
LINE
  5
880C
  8
AM_0
 10
215.6918473210049
 20
150.7507286513179
 30
0.0
 11
215.6918473210049
 21
90.750740651318665
 31
0.0
  0
LINE
  5
880D
  8
ﾁｭｳｼﾝｾﾝ
 10
174.9218173210065
 20
161.3757251513176
 30
0.0
 11
174.9218173210065
 21
80.125726151317693
 31
0.0
  0
ARC
  5
880E
  8
AM_0
 10
61.92255732100466
 20
120.7488356513185
 30
0.0
 40
8.0019083999999978
 50
90.005172999990876
 51
161.7801599999986
  0
ARC
  5
880F
  8
AM_0
 10
61.916797321004651
 20
120.7447466513176
 30
0.0
 40
7.9940046000000002
 50
198.1788399999985
 51
270.03581999999773
  0
LINE
  5
8810
  8
AM_0
 10
31.421827321003551
 20
76.860740651317428
 30
0.0
 11
78.921817321005619
 21
76.860740651317428
 31
0.0
  0
LINE
  5
8811
  8
AM_0
 10
46.561837321005441
 20
123.2507276513175
 30
0.0
 11
56.421817321005619
 21
123.2507276513175
 31
0.0
  0
LINE
  5
8812
  8
AM_0
 10
46.561837321005441
 20
118.25072665131751
 30
0.0
 11
56.421817321005619
 21
118.25072665131751
 31
0.0
  0
LINE
  5
8813
  8
AM_0
 10
30.921817321005619
 20
63.750740651317862
 30
0.0
 11
78.921817321005619
 21
63.750740651317862
 31
0.0
  0
LINE
  5
8814
  8
AM_0
 10
38.001817321004637
 20
117.0307256513174
 30
0.0
 11
23.5418173210055
 21
72.52073065131755
 31
0.0
  0
LINE
  5
8815
  8
AM_0
 10
42.761827321004603
 20
115.480736651318
 30
0.0
 11
28.301827321004559
 21
70.980734651317562
 31
0.0
  0
ARC
  5
8816
  8
AM_0
 10
25.921867321004811
 20
71.750726651317564
 30
0.0
 40
2.5014680099999991
 50
162.072079999999
 51
342.07206999999983
  0
ARC
  5
8817
  8
AM_0
 10
25.920967321004809
 20
71.745308651317373
 30
0.0
 40
3.0008441999999982
 50
185.05819000000051
 51
0.1035440000013547
  0
LINE
  5
8818
  8
AM_0
 10
28.921867321004811
 20
72.89073865131752
 30
0.0
 11
28.921867321004811
 21
65.750723651317571
 31
0.0
  0
ARC
  5
8819
  8
AM_0
 10
30.916567321005449
 20
65.74544665131782
 30
0.0
 40
1.994720039999998
 50
179.84812999999991
 51
270.15187999998409
  0
LINE
  5
881A
  8
AM_0
 10
31.421827321003551
 20
80.590736651317556
 30
0.0
 11
31.421827321003551
 21
76.860740651317428
 31
0.0
  0
ARC
  5
881B
  8
AM_0
 10
22.6294573210048
 20
71.446403651317851
 30
0.0
 40
0.304344
 50
6.477759099997817
 51
89.547816999989394
  0
ARC
  5
881C
  8
AM_0
 10
22.630237321005549
 20
71.445656651317691
 30
0.0
 40
0.8050760400000001
 50
5.3506319000004003
 51
89.888465999985428
  0
LINE
  5
881D
  8
AM_0
 10
22.42182732100445
 20
72.250739651317403
 30
0.0
 11
22.42182732100445
 21
71.750726651317564
 31
0.0
  0
LINE
  5
881E
  8
AM_0
 10
22.42182732100445
 20
72.250739651317403
 30
0.0
 11
22.63182732100449
 21
72.250739651317403
 31
0.0
  0
ARC
  5
881F
  8
AM_0
 10
28.969897321004741
 20
83.250848651317582
 30
0.0
 40
4.0504481999999991
 50
99.063520000000551
 51
224.9205999999968
  0
ARC
  5
8820
  8
AM_0
 10
46.564267321003641
 20
114.2472176513175
 30
0.0
 40
9.0035201999999952
 50
90.015528000017568
 51
161.99145000000081
  0
ARC
  5
8821
  8
AM_0
 10
46.568407321004543
 20
114.2502086513186
 30
0.0
 40
4.0005161999999981
 50
90.094088000021216
 51
162.0860700000022
  0
LINE
  5
8822
  8
AM_0
 10
123.92181732100561
 20
74.40074965131862
 30
0.0
 11
225.92181732100471
 21
74.40074965131862
 31
0.0
  0
LINE
  5
8823
  8
AM_0
 10
219.2718673210056
 20
84.750740651318651
 30
0.0
 11
84.47187732100474
 21
84.750740651318651
 31
0.0
  0
LINE
  5
8824
  8
AM_0
 10
101.92182732100351
 20
58.890725651317553
 30
0.0
 11
218.73180732100531
 21
58.890725651317553
 31
0.0
  0
LINE
  5
8825
  8
AM_0
 10
174.9218173210065
 20
84.030740651317501
 30
0.0
 11
222.7418173210053
 21
84.030740651317501
 31
0.0
  0
LINE
  5
8826
  8
AM_0
 10
123.92181732100561
 20
74.400734651317862
 30
0.0
 11
88.921807321005389
 21
76.43073265131784
 31
0.0
  0
LINE
  5
8827
  8
AM_0
 10
83.191837321005551
 20
114.4807076513175
 30
0.0
 11
123.92181732100561
 21
114.4807076513175
 31
0.0
  0
LINE
  5
8828
  8
AM_0
 10
123.42181732100561
 20
94.750739651317545
 30
0.0
 11
84.47187732100474
 21
94.750739651317545
 31
0.0
  0
LINE
  5
8829
  8
AM_0
 10
83.381827321005389
 20
97.190744651317559
 30
0.0
 11
123.42181732100561
 21
97.190744651317559
 31
0.0
  0
LINE
  5
882A
  8
AM_0
 10
123.42181732100561
 20
96.750740651318665
 30
0.0
 11
84.47187732100474
 21
96.750740651318665
 31
0.0
  0
LINE
  5
882B
  8
AM_0
 10
83.251837321004587
 20
104.41073065131739
 30
0.0
 11
123.92181732100561
 21
104.41073065131739
 31
0.0
  0
LINE
  5
882C
  8
AM_0
 10
123.92181732100561
 20
104.75072665131751
 30
0.0
 11
84.481807321004439
 21
104.75072665131751
 31
0.0
  0
LINE
  5
882D
  8
AM_0
 10
83.251837321004587
 20
107.0707496513179
 30
0.0
 11
123.92181732100561
 21
107.0707496513179
 31
0.0
  0
LINE
  5
882E
  8
AM_0
 10
123.92181732100561
 20
116.75072665131751
 30
0.0
 11
84.481807321004439
 21
116.75072665131751
 31
0.0
  0
LINE
  5
882F
  8
AM_0
 10
123.92181732100561
 20
114.75072565131759
 30
0.0
 11
84.481807321004439
 21
114.75072565131759
 31
0.0
  0
LINE
  5
8830
  8
AM_0
 10
83.191837321005551
 20
117.0207446513178
 30
0.0
 11
123.92181732100561
 21
117.0207446513178
 31
0.0
  0
LINE
  5
8831
  8
AM_0
 10
83.191837321005551
 20
124.49071765131769
 30
0.0
 11
123.92181732100561
 21
124.49071765131769
 31
0.0
  0
LINE
  5
8832
  8
AM_0
 10
83.191837321005551
 20
127.0207166513179
 30
0.0
 11
123.92181732100561
 21
127.0207166513179
 31
0.0
  0
LINE
  5
8833
  8
AM_0
 10
123.92181732100561
 20
86.750726651317564
 30
0.0
 11
84.911857321004831
 21
86.750726651317564
 31
0.0
  0
LINE
  5
8834
  8
AM_0
 10
83.381827321005389
 20
94.270730651317521
 30
0.0
 11
123.42181732100561
 21
94.270730651317521
 31
0.0
  0
LINE
  5
8835
  8
AM_0
 10
101.92182732100351
 20
56.860724651317362
 30
0.0
 11
154.92186732100481
 21
56.860724651317362
 31
0.0
  0
LINE
  5
8836
  8
AM_0
 10
101.92182732100351
 20
55.510733651317423
 30
0.0
 11
154.92186732100481
 21
55.510733651317423
 31
0.0
  0
LINE
  5
8837
  8
AM_0
 10
101.92182732100351
 20
54.840737651317902
 30
0.0
 11
154.92186732100481
 21
54.840737651317902
 31
0.0
  0
LINE
  5
8838
  8
AM_0
 10
123.92181732100561
 20
124.7507276513175
 30
0.0
 11
84.481807321004439
 21
124.7507276513175
 31
0.0
  0
LINE
  5
8839
  8
AM_0
 10
123.92181732100561
 20
126.75072565131759
 30
0.0
 11
84.481807321004439
 21
126.75072565131759
 31
0.0
  0
LINE
  5
883A
  8
AM_0
 10
123.92181732100561
 20
106.7507426513174
 30
0.0
 11
84.481807321004439
 21
106.7507426513174
 31
0.0
  0
LINE
  5
883B
  8
AM_0
 10
83.601817321004546
 20
84.030740651317501
 30
0.0
 11
174.9218173210065
 21
84.030740651317501
 31
0.0
  0
LINE
  5
883C
  8
AM_0
 10
83.601817321004546
 20
87.380729651317907
 30
0.0
 11
123.92181732100561
 21
87.380729651317907
 31
0.0
  0
LINE
  5
883D
  8
AM_0
 10
78.921817321005619
 20
63.320732651317613
 30
0.0
 11
78.921817321005619
 21
120.75072565131759
 31
0.0
  0
LINE
  5
883E
  8
AM_0
 10
78.921817321005619
 20
78.060722651317519
 30
0.0
 11
88.921867321004825
 21
78.060722651317519
 31
0.0
  0
LINE
  5
883F
  8
AM_0
 10
85.061827321004785
 20
59.080727651317389
 30
0.0
 11
98.421817321005648
 21
59.080727651317389
 31
0.0
  0
LINE
  5
8840
  8
AM_0
 10
78.921817321005619
 20
72.400733651317736
 30
0.0
 11
88.921867321004825
 21
72.400733651317736
 31
0.0
  0
LINE
  5
8841
  8
AM_0
 10
85.151857321006446
 20
67.770728651318649
 30
0.0
 11
98.421817321005648
 21
67.770728651318649
 31
0.0
  0
LINE
  5
8842
  8
AM_0
 10
85.031797321004433
 20
57.450737651317702
 30
0.0
 11
98.531797321005357
 21
57.450737651317702
 31
0.0
  0
LINE
  5
8843
  8
AM_0
 10
85.091857321004653
 20
62.490746651317863
 30
0.0
 11
98.421817321005648
 21
62.490746651317863
 31
0.0
  0
ARC
  5
8844
  8
AM_0
 10
80.711977321004696
 20
68.217932651317369
 30
0.0
 40
1.50278811
 50
12.013342000000099
 51
90.004668000016366
  0
ARC
  5
8845
  8
AM_0
 10
85.148857321004456
 20
69.770348651317363
 30
0.0
 40
1.9996281299999981
 50
190.36076000000389
 51
270.08532999998027
  0
ARC
  5
8846
  8
AM_0
 10
85.034227321004437
 20
59.455055651317821
 30
0.0
 40
2.004324029999998
 50
194.27804999999751
 51
269.93108999997929
  0
LINE
  5
8847
  8
AM_0
 10
78.921877321005468
 20
63.320732651317613
 30
0.0
 11
81.741817321005314
 21
63.250724651318023
 31
0.0
  0
ARC
  5
8848
  8
AM_0
 10
80.756827321004494
 20
62.128973651317651
 30
0.0
 40
1.5017800800000001
 50
14.332836000000739
 51
90.189383000005648
  0
ARC
  5
8849
  8
AM_0
 10
80.736157321005521
 20
64.154411651317901
 30
0.0
 40
1.4963320799999991
 50
13.382438000004029
 51
90.164589999994277
  0
ARC
  5
884A
  8
AM_0
 10
85.059757321004795
 20
61.082678651317572
 30
0.0
 40
2.0019479399999991
 50
193.3411400000015
 51
270.05947999999449
  0
ARC
  5
884B
  8
AM_0
 10
85.093747321005594
 20
64.486427651317854
 30
0.0
 40
1.995695999999995
 50
192.0225299999999
 51
269.94477999998969
  0
LINE
  5
884C
  8
AM_0
 10
83.141857321005787
 20
64.070717651317523
 30
0.0
 11
82.181827321005585
 21
68.530724651317541
 31
0.0
  0
LINE
  5
884D
  8
AM_0
 10
80.731807321005377
 20
65.650733651317864
 30
0.0
 11
82.791877321003525
 21
65.650733651317864
 31
0.0
  0
LINE
  5
884E
  8
AM_0
 10
80.751847321005727
 20
63.63072865131754
 30
0.0
 11
82.401847321004425
 21
63.63072865131754
 31
0.0
  0
LINE
  5
884F
  8
AM_0
 10
83.111827321005421
 20
60.620720651317683
 30
0.0
 11
82.191847321005739
 21
64.50072565131768
 31
0.0
  0
LINE
  5
8850
  8
AM_0
 10
83.091787321006464
 20
58.960730651317583
 30
0.0
 11
82.211797321004724
 21
62.500724651318023
 31
0.0
  0
LINE
  5
8851
  8
AM_0
 10
73.921867321004811
 20
76.860740651317428
 30
0.0
 11
73.921867321004811
 21
63.750740651317862
 31
0.0
  0
LINE
  5
8852
  8
AM_0
 10
80.71179732100471
 20
69.720725651317593
 30
0.0
 11
83.131837321005605
 21
69.720725651317593
 31
0.0
  0
LINE
  5
8853
  8
AM_0
 10
82.641847321004633
 20
72.400718651317902
 30
0.0
 11
83.181817321004459
 21
69.410714651317562
 31
0.0
  0
LINE
  5
8854
  8
AM_0
 10
78.921817321005619
 20
86.450738651317351
 30
0.0
 11
82.091857321005577
 21
86.450738651317351
 31
0.0
  0
ARC
  5
8855
  8
AM_0
 10
83.601817321004546
 20
85.705742651317564
 30
0.0
 40
1.67500812
 50
90.000002999984645
 51
270.0
  0
ARC
  5
8856
  8
AM_0
 10
84.47187732100474
 20
85.750739651317403
 30
0.0
 40
1.000004069999999
 50
90.000002999984645
 51
270.0
  0
ARC
  5
8857
  8
AM_0
 10
98.423287321004395
 20
57.582161651317499
 30
0.0
 40
1.498559999999999
 50
359.94488000000052
 51
90.055115000003084
  0
ARC
  5
8858
  8
AM_0
 10
101.9243773210064
 20
58.863242651317691
 30
0.0
 40
2.00251584
 50
180.0718999999998
 51
269.9281000000002
  0
ARC
  5
8859
  8
AM_0
 10
98.540527321005356
 20
55.950446651317861
 30
0.0
 40
1.500312029999999
 50
14.683033999999299
 51
90.331662999981404
  0
ARC
  5
885A
  8
AM_0
 10
101.92296732100471
 20
56.837150651317863
 30
0.0
 40
1.9964280599999991
 50
194.69463000000229
 51
269.96760999999151
  0
ARC
  5
885B
  8
AM_0
 10
101.9216473210053
 20
57.510551651317883
 30
0.0
 40
1.9998241199999991
 50
179.99493999999871
 51
270.00505999999473
  0
ARC
  5
885C
  8
AM_0
 10
98.420287321004693
 20
60.989234651317702
 30
0.0
 40
1.5015081599999991
 50
0.0575469979997975
 51
89.942451000003146
  0
ARC
  5
885D
  8
AM_0
 10
98.421457321005605
 20
66.270362651317555
 30
0.0
 40
1.500360179999999
 50
0.0138160000014509
 51
89.986184999986932
  0
ARC
  5
885E
  8
AM_0
 10
101.92347732100551
 20
60.892373651317612
 30
0.0
 40
2.0016401400000001
 50
180.04695999999811
 51
269.9530400000213
  0
LINE
  5
885F
  8
AM_0
 10
99.921817321005605
 20
58.860740651317542
 30
0.0
 11
99.921817321005605
 21
66.270728651318677
 31
0.0
  0
ARC
  5
8860
  8
AM_0
 10
88.092037321006501
 20
79.157843651317975
 30
0.0
 40
5.0021840999999991
 50
5.4245260000029294
 51
80.451425000001095
  0
LINE
  5
8861
  8
AM_0
 10
88.921867321004825
 20
72.400733651317736
 30
0.0
 11
88.921867321004825
 21
86.450738651317351
 31
0.0
  0
ARC
  5
8862
  8
AM_0
 10
88.552057321005549
 20
83.097251651317592
 30
0.0
 40
6.007896599999996
 50
273.5284499999853
 51
314.61726999999422
  0
ARC
  5
8863
  8
AM_0
 10
92.068357321004413
 20
79.541816651317845
 30
0.0
 40
1.007376
 50
314.2903200000024
 51
5.0634048999984609
  0
ARC
  5
8864
  8
AM_0
 10
100.92186732100571
 20
85.750739651317403
 30
0.0
 40
1.000004069999999
 50
90.000002999984645
 51
270.0
  0
LINE
  5
8865
  8
ﾁｭｳｼﾝｾﾝ
 10
61.921867321004811
 20
106.7332804514335
 30
0.0
 11
61.921867321004811
 21
134.7681708512018
 31
0.0
  0
ARC
  5
8866
  8
AM_0
 10
84.47187732100474
 20
95.750726651317564
 30
0.0
 40
1.000004069999999
 50
90.000002999984645
 51
270.0
  0
ARC
  5
8867
  8
AM_0
 10
83.381827321005389
 20
95.730722651317592
 30
0.0
 40
1.4600000699999991
 50
90.000002999984645
 51
270.0
  0
ARC
  5
8868
  8
AM_0
 10
84.473137321004728
 20
105.7507406513178
 30
0.0
 40
1.00003602
 50
89.500715999993631
 51
270.49928999999509
  0
ARC
  5
8869
  8
AM_0
 10
83.251837321004587
 20
105.7407326513175
 30
0.0
 40
1.33000008
 50
90.000002999984645
 51
270.0
  0
LINE
  5
886A
  8
AM_0
 10
61.921867321004811
 20
112.7507276513174
 30
0.0
 11
78.921817321005619
 21
112.7507276513174
 31
0.0
  0
LINE
  5
886B
  8
AM_0
 10
61.921867321004811
 20
128.75072665131751
 30
0.0
 11
78.921817321005619
 21
128.75072665131751
 31
0.0
  0
ARC
  5
886C
  8
AM_0
 10
61.921867321004811
 20
120.7447136513174
 30
0.0
 40
5.0000519999999984
 50
23.65323000000534
 51
156.34676999999459
  0
ARC
  5
886D
  8
AM_0
 10
61.921867321004811
 20
120.7447136513174
 30
0.0
 40
4.9952319000000003
 50
203.52670000000651
 51
336.47329000000281
  0
LINE
  5
886E
  8
AM_0
 10
56.421817321005619
 20
122.75072665131751
 30
0.0
 11
67.421827321005367
 21
122.75072665131751
 31
0.0
  0
LINE
  5
886F
  8
AM_0
 10
56.421817321005619
 20
118.7507276513175
 30
0.0
 11
67.421827321005367
 21
118.7507276513175
 31
0.0
  0
LINE
  5
8870
  8
AM_0
 10
56.421817321005619
 20
118.25072665131751
 30
0.0
 11
56.421817321005619
 21
123.2507276513175
 31
0.0
  0
LINE
  5
8871
  8
AM_0
 10
69.921817321005605
 20
118.25072665131751
 30
0.0
 11
69.921817321005605
 21
123.2507276513175
 31
0.0
  0
LINE
  5
8872
  8
AM_0
 10
67.421827321005367
 20
118.25072665131751
 30
0.0
 11
67.421827321005367
 21
123.2507276513175
 31
0.0
  0
LINE
  5
8873
  8
AM_0
 10
67.421827321005367
 20
123.2507276513175
 30
0.0
 11
69.921817321005605
 21
123.2507276513175
 31
0.0
  0
LINE
  5
8874
  8
AM_0
 10
67.421827321005367
 20
118.25072665131751
 30
0.0
 11
69.921817321005605
 21
118.25072665131751
 31
0.0
  0
ARC
  5
8875
  8
AM_0
 10
83.191837321005551
 20
115.7507276513175
 30
0.0
 40
1.270004069999999
 50
90.000002999984645
 51
270.0
  0
ARC
  5
8876
  8
AM_0
 10
84.473137321004728
 20
115.7507276513175
 30
0.0
 40
1.00003602
 50
89.500715999993631
 51
270.49928999999509
  0
ARC
  5
8877
  8
AM_0
 10
84.473137321004728
 20
125.75072665131751
 30
0.0
 40
1.00003602
 50
89.500715999993631
 51
270.49928999999509
  0
ARC
  5
8878
  8
AM_0
 10
83.191837321005551
 20
125.75573065131761
 30
0.0
 40
1.265004089999999
 50
90.000002999984645
 51
270.0
  0
ARC
  5
8879
  8
AM_0
 10
100.92186732100571
 20
95.750726651317564
 30
0.0
 40
1.000004069999999
 50
90.000002999984645
 51
270.0
  0
ARC
  5
887A
  8
AM_0
 10
100.92186732100571
 20
105.7507406513178
 30
0.0
 40
1.000004069999999
 50
90.000002999984645
 51
270.0
  0
ARC
  5
887B
  8
AM_0
 10
100.92186732100571
 20
115.7507276513175
 30
0.0
 40
1.000004069999999
 50
90.000002999984645
 51
270.0
  0
ARC
  5
887C
  8
AM_0
 10
100.92186732100571
 20
125.75072665131751
 30
0.0
 40
1.000004069999999
 50
90.000002999984645
 51
270.0
  0
ARC
  5
887D
  8
AM_0
 10
154.92096732100569
 20
56.841620651317719
 30
0.0
 40
2.000876009999998
 50
270.02510999999589
 51
359.97488999999757
  0
ARC
  5
887E
  8
AM_0
 10
154.9194973210046
 20
57.513068651317653
 30
0.0
 40
2.002332029999998
 50
270.06674000000118
 51
359.93325999999882
  0
ARC
  5
887F
  8
AM_0
 10
154.9168273210048
 20
58.865759651317603
 30
0.0
 40
2.00502402
 50
270.14341000000132
 51
359.85658999999868
  0
LINE
  5
8880
  8
AM_0
 10
156.92181732100559
 20
56.840720651317717
 30
0.0
 11
156.92181732100559
 21
58.890725651317553
 31
0.0
  0
ARC
  5
8881
  8
AM_0
 10
222.7418173210053
 20
85.705742651317564
 30
0.0
 40
1.6749999899999961
 50
270.0
 51
90.000002999984645
  0
ARC
  5
8882
  8
AM_0
 10
220.77117732100439
 20
62.257256651317682
 30
0.0
 40
2.0065319999999991
 50
270.01926999998381
 51
347.72687000000042
  0
LINE
  5
8883
  8
AM_0
 10
220.63182732100441
 20
60.250739651317417
 30
0.0
 11
225.92181732100471
 21
60.250739651317417
 31
0.0
  0
LINE
  5
8884
  8
AM_0
 10
220.66179732100451
 20
60.370718651317603
 30
0.0
 11
224.12181732100541
 21
73.290719651317431
 31
0.0
  0
LINE
  5
8885
  8
AM_0
 10
222.7418173210053
 20
87.380729651317907
 30
0.0
 11
212.92181732100559
 21
87.380729651317907
 31
0.0
  0
ARC
  5
8886
  8
AM_0
 10
218.72724732100451
 20
60.895133651317892
 30
0.0
 40
2.004416039999998
 50
270.13147999999228
 51
344.8333399999994
  0
LINE
  5
8887
  8
AM_0
 10
219.2718673210056
 20
86.750726651317564
 30
0.0
 11
212.92181732100559
 21
86.750726651317564
 31
0.0
  0
LINE
  5
8888
  8
AM_0
 10
212.92181732100559
 20
90.671987064748464
 30
0.0
 11
215.6918473210049
 21
90.750710651317846
 31
0.0
  0
ARC
  5
8889
  8
AM_0
 10
219.26367732100459
 20
85.750739651317403
 30
0.0
 40
1.0000319699999971
 50
270.4692999999848
 51
89.530700000015187
  0
ARC
  5
888A
  8
AM_0
 10
226.92132732100481
 20
69.710198651317569
 30
0.0
 40
0.99947604
 50
179.97008999999551
 51
270.02991999999381
  0
ARC
  5
888B
  8
AM_0
 10
225.6288973210049
 20
68.221412651317678
 30
0.0
 40
1.499328059999999
 50
89.888150999980539
 51
168.09384000000131
  0
ARC
  5
888C
  8
AM_0
 10
226.9220773210053
 20
58.250906651317571
 30
0.0
 40
1.0001800499999971
 50
180.0103099999989
 51
269.98967999999968
  0
LINE
  5
888D
  8
AM_0
 10
222.7318273210048
 20
61.830725651317721
 30
0.0
 11
224.17182732100531
 21
68.530724651317541
 31
0.0
  0
ARC
  5
888E
  8
AM_0
 10
225.56721732100451
 20
72.904748651317846
 30
0.0
 40
1.49599605
 50
89.821707000006256
 51
165.0476599999993
  0
LINE
  5
888F
  8
AM_0
 10
225.6318373210047
 20
69.720725651317593
 30
0.0
 11
223.22187732100559
 21
69.720725651317593
 31
0.0
  0
LINE
  5
8890
  8
AM_0
 10
31.421827321003551
 20
164.64071965131799
 30
0.0
 11
78.921817321005619
 21
164.64071965131799
 31
0.0
  0
LINE
  5
8891
  8
AM_0
 10
31.421827321003551
 20
154.39074265131751
 30
0.0
 11
73.921867321004811
 21
154.39074265131751
 31
0.0
  0
LINE
  5
8892
  8
AM_0
 10
30.921817321005619
 20
177.7507196513175
 30
0.0
 11
78.921817321005619
 21
177.7507196513175
 31
0.0
  0
ARC
  5
8893
  8
AM_0
 10
30.922357321004711
 20
175.75016965131761
 30
0.0
 40
2.000536019999998
 50
90.015328999985087
 51
179.98468000000159
  0
ARC
  5
8894
  8
AM_0
 10
29.81958732100475
 20
158.13323965131761
 30
0.0
 40
2.9977641899999981
 50
179.8564500000015
 51
275.78659000000278
  0
LINE
  5
8895
  8
AM_0
 10
30.12183732100538
 20
155.04073765131781
 30
0.0
 11
30.12183732100538
 21
164.24072965131751
 31
0.0
  0
LINE
  5
8896
  8
AM_0
 10
30.12183732100538
 20
155.04073765131781
 30
0.0
 11
31.421827321003551
 21
155.04073765131781
 31
0.0
  0
LINE
  5
8897
  8
AM_0
 10
28.921867321004811
 20
164.00072965131761
 30
0.0
 11
28.921867321004811
 21
175.75073965131739
 31
0.0
  0
ARC
  5
8898
  8
AM_0
 10
29.819647321004592
 20
161.1382196513178
 30
0.0
 40
2.99777994
 50
84.213883000010895
 51
179.95210999999989
  0
LINE
  5
8899
  8
AM_0
 10
26.82183732100475
 20
158.1407396513178
 30
0.0
 11
26.82183732100475
 21
161.1407396513178
 31
0.0
  0
LINE
  5
889A
  8
AM_0
 10
30.12183732100538
 20
164.24072965131751
 30
0.0
 11
31.421827321003551
 21
164.24072965131751
 31
0.0
  0
LINE
  5
889B
  8
AM_0
 10
123.92181732100561
 20
167.10071965131729
 30
0.0
 11
225.92181732100471
 21
167.10071965131729
 31
0.0
  0
LINE
  5
889C
  8
AM_0
 10
92.601817321004546
 20
157.47071965131769
 30
0.0
 11
222.7418173210053
 21
157.47071965131769
 31
0.0
  0
LINE
  5
889D
  8
AM_0
 10
219.2718673210056
 20
156.7507196513175
 30
0.0
 11
93.47187732100474
 21
156.7507196513175
 31
0.0
  0
LINE
  5
889E
  8
AM_0
 10
101.92182732100351
 20
182.6107496513176
 30
0.0
 11
218.73180732100531
 21
182.6107496513176
 31
0.0
  0
LINE
  5
889F
  8
AM_0
 10
123.92187732100309
 20
167.10071965131729
 30
0.0
 11
88.921807321005389
 21
165.07073965131761
 31
0.0
  0
LINE
  5
88A0
  8
AM_0
 10
83.251837321004587
 20
134.4307196513179
 30
0.0
 11
123.92181732100561
 21
134.4307196513179
 31
0.0
  0
LINE
  5
88A1
  8
AM_0
 10
83.251837321004587
 20
137.0907236513178
 30
0.0
 11
123.92181732100561
 21
137.0907236513178
 31
0.0
  0
LINE
  5
88A2
  8
AM_0
 10
92.381827321004465
 20
144.3107246513178
 30
0.0
 11
123.42181732100561
 21
144.3107246513178
 31
0.0
  0
LINE
  5
88A3
  8
AM_0
 10
92.381827321004465
 20
147.2407496513172
 30
0.0
 11
123.42181732100561
 21
147.2407496513172
 31
0.0
  0
LINE
  5
88A4
  8
AM_0
 10
92.601817321004546
 20
154.1207546513173
 30
0.0
 11
123.9218173210065
 21
154.1207546513173
 31
0.0
  0
LINE
  5
88A5
  8
AM_0
 10
123.92181732100561
 20
134.75072665131751
 30
0.0
 11
84.481807321004439
 21
134.75072665131751
 31
0.0
  0
LINE
  5
88A6
  8
AM_0
 10
123.92181732100561
 20
136.7507276513175
 30
0.0
 11
84.481807321004439
 21
136.7507276513175
 31
0.0
  0
LINE
  5
88A7
  8
AM_0
 10
123.42181732100561
 20
144.7507286513179
 30
0.0
 11
93.47187732100474
 21
144.7507286513179
 31
0.0
  0
LINE
  5
88A8
  8
AM_0
 10
123.42181732100561
 20
146.7507266513189
 30
0.0
 11
93.47187732100474
 21
146.7507266513189
 31
0.0
  0
LINE
  5
88A9
  8
AM_0
 10
123.9218173210065
 20
154.7507276513175
 30
0.0
 11
93.47187732100474
 21
154.7507276513175
 31
0.0
  0
LINE
  5
88AA
  8
AM_0
 10
101.92182732100351
 20
184.64072965131751
 30
0.0
 11
154.92186732100481
 21
184.64072965131751
 31
0.0
  0
LINE
  5
88AB
  8
AM_0
 10
101.92182732100351
 20
185.99072965131751
 30
0.0
 11
154.92186732100481
 21
185.99072965131751
 31
0.0
  0
LINE
  5
88AC
  8
AM_0
 10
101.92182732100351
 20
186.67073965131749
 30
0.0
 11
154.92186732100481
 21
186.67073965131749
 31
0.0
  0
ARC
  5
88AD
  8
AM_0
 10
85.093507321004836
 20
177.0253196513176
 30
0.0
 40
1.9953880799999959
 50
90.048066999991249
 51
167.98461999999969
  0
LINE
  5
88AE
  8
AM_0
 10
99.921817321005605
 20
182.64071965131791
 30
0.0
 11
99.921817321005605
 21
175.23074965131761
 31
0.0
  0
LINE
  5
88AF
  8
AM_0
 10
83.111887321004815
 20
180.8807396513175
 30
0.0
 11
82.191847321005739
 21
177.0007196513175
 31
0.0
  0
LINE
  5
88B0
  8
AM_0
 10
85.151857321006446
 20
173.73074965131761
 30
0.0
 11
98.421817321005648
 21
173.73074965131761
 31
0.0
  0
LINE
  5
88B1
  8
AM_0
 10
78.921817321005619
 20
169.10072965131741
 30
0.0
 11
88.921867321004825
 21
169.10072965131741
 31
0.0
  0
LINE
  5
88B2
  8
AM_0
 10
78.921817321005619
 20
163.44071965131749
 30
0.0
 11
88.921867321004825
 21
163.44071965131749
 31
0.0
  0
LINE
  5
88B3
  8
AM_0
 10
78.921817321005619
 20
155.06072665131751
 30
0.0
 11
88.921867321004825
 21
155.06072665131751
 31
0.0
  0
ARC
  5
88B4
  8
AM_0
 10
83.251837321004587
 20
135.7607366513175
 30
0.0
 40
1.33000008
 50
90.000002999984645
 51
270.0
  0
ARC
  5
88B5
  8
AM_0
 10
84.473137321004728
 20
135.75072565131759
 30
0.0
 40
1.00003602
 50
89.500715999993631
 51
270.49928999999509
  0
LINE
  5
88B6
  8
AM_0
 10
73.921867321004811
 20
128.75072665131751
 30
0.0
 11
73.921867321004811
 21
177.7507196513175
 31
0.0
  0
ARC
  5
88B7
  8
AM_0
 10
80.731027321004603
 20
177.35354965131771
 30
0.0
 40
1.502808149999999
 50
270.03078999999502
 51
346.4221800000019
  0
ARC
  5
88B8
  8
AM_0
 10
80.713087321004423
 20
173.29484965131749
 30
0.0
 40
1.504140059999999
 50
269.95424999999199
 51
347.55525000000432
  0
ARC
  5
88B9
  8
AM_0
 10
85.143667321005509
 20
171.7373396513176
 30
0.0
 40
1.993432109999999
 50
89.765883999979707
 51
169.78803000000019
  0
LINE
  5
88BA
  8
AM_0
 10
80.731807321005377
 20
175.85072965131749
 30
0.0
 11
82.791877321003525
 21
175.85072965131749
 31
0.0
  0
LINE
  5
88BB
  8
AM_0
 10
83.14179732100456
 20
177.44072965131761
 30
0.0
 11
82.181767321004813
 21
172.9707296513165
 31
0.0
  0
LINE
  5
88BC
  8
AM_0
 10
80.71179732100471
 20
171.7907396513173
 30
0.0
 11
83.131837321005605
 21
171.7907396513173
 31
0.0
  0
LINE
  5
88BD
  8
AM_0
 10
82.641787321006618
 20
169.10072965131741
 30
0.0
 11
83.181817321004459
 21
172.09076965131749
 31
0.0
  0
ARC
  5
88BE
  8
AM_0
 10
93.47187732100474
 20
155.75072965131761
 30
0.0
 40
1.000004069999999
 50
90.000002999984645
 51
270.0
  0
ARC
  5
88BF
  8
AM_0
 10
92.601817321004546
 20
155.79569965131779
 30
0.0
 40
1.67500812
 50
90.000002999984645
 51
270.0
  0
ARC
  5
88C0
  8
AM_0
 10
100.92186732100571
 20
155.75072965131761
 30
0.0
 40
1.000004069999999
 50
90.000002999984645
 51
270.0
  0
LINE
  5
88C1
  8
AM_0
 10
88.921867321004825
 20
169.10072965131741
 30
0.0
 11
88.921867321004825
 21
155.06072665131751
 31
0.0
  0
ARC
  5
88C2
  8
AM_0
 10
93.47187732100474
 20
145.7507276513175
 30
0.0
 40
1.000004069999999
 50
90.000002999984645
 51
270.0
  0
ARC
  5
88C3
  8
AM_0
 10
92.381827321004465
 20
145.7757206513175
 30
0.0
 40
1.46500008
 50
90.000002999984645
 51
270.0
  0
ARC
  5
88C4
  8
AM_0
 10
100.92186732100571
 20
145.7507276513175
 30
0.0
 40
1.000004069999999
 50
90.000002999984645
 51
270.0
  0
ARC
  5
88C5
  8
AM_0
 10
100.92186732100571
 20
135.75072565131759
 30
0.0
 40
1.000004069999999
 50
90.000002999984645
 51
270.0
  0
ARC
  5
88C6
  8
AM_0
 10
92.071777321004433
 20
161.9608796513175
 30
0.0
 40
1.004135999999999
 50
354.8488400000013
 51
45.797435999992487
  0
ARC
  5
88C7
  8
AM_0
 10
88.543027321004502
 20
158.41877965131741
 30
0.0
 40
6.0039084000000011
 50
45.223692999997049
 51
86.382714000002196
  0
ARC
  5
88C8
  8
AM_0
 10
88.086787321004508
 20
162.34850965131849
 30
0.0
 40
5.0078918999999971
 50
279.5987199999941
 51
354.52532000000048
  0
ARC
  5
88C9
  8
AM_0
 10
98.416207321004563
 20
175.23638965131761
 30
0.0
 40
1.5056760899999959
 50
270.2155199999923
 51
359.78447000000108
  0
LINE
  5
88CA
  8
AM_0
 10
85.031797321004433
 20
184.05071965131759
 30
0.0
 11
98.531797321005357
 21
184.05071965131759
 31
0.0
  0
LINE
  5
88CB
  8
AM_0
 10
85.061827321004785
 20
182.42069965131759
 30
0.0
 11
98.421817321005648
 21
182.42069965131759
 31
0.0
  0
LINE
  5
88CC
  8
AM_0
 10
85.091857321004653
 20
179.0207096513175
 30
0.0
 11
98.421817321005648
 21
179.0207096513175
 31
0.0
  0
LINE
  5
88CD
  8
AM_0
 10
78.921817321005619
 20
178.18070965131739
 30
0.0
 11
81.741817321005314
 21
178.25069965131749
 31
0.0
  0
ARC
  5
88CE
  8
AM_0
 10
85.029187321003519
 20
182.0529296513177
 30
0.0
 40
1.9977801299999991
 50
89.923080999997794
 51
165.86777000000001
  0
ARC
  5
88CF
  8
AM_0
 10
80.750137321004786
 20
179.37782965131731
 30
0.0
 40
1.5070961099999991
 50
270.0648200000017
 51
345.90218000000368
  0
ARC
  5
88D0
  8
AM_0
 10
85.054687321004636
 20
180.4252496513175
 30
0.0
 40
1.995484169999999
 50
89.79345799999912
 51
166.8059200000024
  0
LINE
  5
88D1
  8
AM_0
 10
83.091847321005375
 20
182.5407296513176
 30
0.0
 11
82.211857321005496
 21
179.0107496513173
 31
0.0
  0
LINE
  5
88D2
  8
AM_0
 10
80.751847321005727
 20
177.8707196513173
 30
0.0
 11
82.401847321004425
 21
177.8707196513173
 31
0.0
  0
ARC
  5
88D3
  8
AM_0
 10
98.535457321004728
 20
185.55761965131751
 30
0.0
 40
1.506888089999999
 50
269.86222999998643
 51
345.12306999999907
  0
ARC
  5
88D4
  8
AM_0
 10
98.417977321004855
 20
183.9245696513176
 30
0.0
 40
1.5038481299999991
 50
270.14639999998991
 51
359.85359999999702
  0
ARC
  5
88D5
  8
AM_0
 10
98.420047321004844
 20
180.5225396513174
 30
0.0
 40
1.501796039999995
 50
270.06854999998592
 51
359.93145000000101
  0
ARC
  5
88D6
  8
AM_0
 10
101.92431732100469
 20
184.67588965131739
 30
0.0
 40
1.99484415
 50
90.071657999978328
 51
165.63720000000311
  0
ARC
  5
88D7
  8
AM_0
 10
101.91639732100469
 20
183.99614965131741
 30
0.0
 40
1.99457616
 50
89.844008000013062
 51
180.15598999999611
  0
ARC
  5
88D8
  8
AM_0
 10
101.9190673210045
 20
182.64350965131749
 30
0.0
 40
1.9972080599999991
 50
89.919857000000462
 51
180.08013999999881
  0
ARC
  5
88D9
  8
AM_0
 10
101.91822732100439
 20
180.61433965131749
 30
0.0
 40
1.996384079999995
 50
89.896162999993464
 51
180.10383999999601
  0
ARC
  5
88DA
  8
AM_0
 10
154.92120732100551
 20
184.67009965131771
 30
0.0
 40
2.0006240100000001
 50
0.0178240009987588
 51
89.98217599999785
  0
ARC
  5
88DB
  8
AM_0
 10
154.92474732100479
 20
183.99365965131739
 30
0.0
 40
1.997088119999999
 50
359.91637999999853
 51
90.083624999987734
  0
ARC
  5
88DC
  8
AM_0
 10
154.92213732100481
 20
182.64101965131761
 30
0.0
 40
1.999720049999999
 50
359.99193999999602
 51
90.008061999993785
  0
LINE
  5
88DD
  8
AM_0
 10
156.92181732100559
 20
184.67069965131751
 30
0.0
 11
156.92181732100559
 21
182.6107496513176
 31
0.0
  0
LINE
  5
88DE
  8
AM_0
 10
220.66179732100451
 20
181.1307596513175
 30
0.0
 11
224.12181732100541
 21
168.2107796513173
 31
0.0
  0
LINE
  5
88DF
  8
AM_0
 10
222.7318273210048
 20
179.67074965131781
 30
0.0
 11
224.17182732100531
 21
172.9707296513165
 31
0.0
  0
ARC
  5
88E0
  8
AM_0
 10
222.7418173210053
 20
155.79569965131779
 30
0.0
 40
1.6749999899999961
 50
270.0
 51
90.000002999984645
  0
LINE
  5
88E1
  8
AM_0
 10
222.7418173210053
 20
154.1207546513173
 30
0.0
 11
212.92181732100559
 21
154.1207546513173
 31
0.0
  0
ARC
  5
88E2
  8
AM_0
 10
219.26367732100459
 20
155.75072965131761
 30
0.0
 40
1.0000319699999971
 50
270.4692999999848
 51
89.530700000015187
  0
LINE
  5
88E3
  8
AM_0
 10
212.92181732100559
 20
154.6507526513173
 30
0.0
 11
219.2718673210056
 21
154.6507526513173
 31
0.0
  0
LINE
  5
88E4
  8
AM_0
 10
212.92181732100559
 20
150.82945223788701
 30
0.0
 11
215.6918473210049
 21
150.7507286513179
 31
0.0
  0
ARC
  5
88E5
  8
AM_0
 10
225.57207732100639
 20
168.6031196513176
 30
0.0
 40
1.50239199
 50
195.14000999999971
 51
269.99063999998032
  0
ARC
  5
88E6
  8
AM_0
 10
226.9161973210048
 20
171.79634965131751
 30
0.0
 40
0.99440004
 50
89.67649099999349
 51
180.32350999999761
  0
ARC
  5
88E7
  8
AM_0
 10
225.62769732100551
 20
173.2911896513173
 30
0.0
 40
1.500476039999995
 50
192.33222999999589
 51
270.15827999999971
  0
LINE
  5
88E8
  8
AM_0
 10
225.6318373210047
 20
171.7907396513173
 30
0.0
 11
223.22187732100559
 21
171.7907396513173
 31
0.0
  0
ARC
  5
88E9
  8
AM_0
 10
220.7763073210044
 20
179.2505396513175
 30
0.0
 40
2.0001800699999981
 50
12.126352000006319
 51
90.127514999991448
  0
LINE
  5
88EA
  8
AM_0
 10
220.63182732100441
 20
181.25072965131761
 30
0.0
 11
225.92181732100471
 21
181.25072965131761
 31
0.0
  0
ARC
  5
88EB
  8
AM_0
 10
218.73231732100561
 20
180.6129296513179
 30
0.0
 40
1.997795999999999
 50
15.021596999998801
 51
90.013580999977563
  0
ARC
  5
88EC
  8
AM_0
 10
226.91694732100541
 20
183.2556596513179
 30
0.0
 40
0.9950640599999999
 50
89.71493799999395
 51
180.285059999998
  0
LINE
  5
88F3
  8
AM_0
 10
208.4218173210065
 20
143.25072565131759
 30
0.0
 11
208.42181732100559
 21
98.250725651317694
 31
0.0
  0
LINE
  5
88F4
  8
AM_0
 10
206.3218173210048
 20
143.80097818301141
 30
0.0
 11
206.3218173210048
 21
97.700473119623993
 31
0.0
  0
LINE
  5
88F5
  8
AM_0
 10
123.42181732100561
 20
102.75072565131789
 30
0.0
 11
123.42181732100561
 21
92.750715651317563
 31
0.0
  0
LINE
  5
88F6
  8
AM_0
 10
123.92181732100561
 20
88.250719651317709
 30
0.0
 11
123.92181732100561
 21
153.25071565131759
 31
0.0
  0
LINE
  5
88F7
  8
AM_0
 10
195.47206185269849
 20
86.850717651317709
 30
0.0
 11
128.3417973210048
 21
86.850717651317709
 31
0.0
  0
LINE
  5
88F8
  8
AM_0
 10
128.3417973210048
 20
86.850717651317709
 30
0.0
 11
128.3417973210048
 21
84.750726651317564
 31
0.0
  0
ARC
  5
88F9
  8
AM_0
 10
127.41443732100559
 20
88.243372651317713
 30
0.0
 40
3.492651899999998
 50
179.8793300000022
 51
270.12067999999482
  0
ARC
  5
88FA
  8
AM_0
 10
123.9144973210045
 20
92.743375651317365
 30
0.0
 40
0.4927000100000001
 50
179.14455999999711
 51
270.8554399999897
  0
ARC
  5
88FB
  8
AM_0
 10
210.42181732100559
 20
98.250725651317694
 30
0.0
 40
2.0
 50
180.0
 51
270.0
  0
LINE
  5
88FC
  8
AM_0
 10
205.91176681466681
 20
96.710523625961741
 30
0.0
 11
196.46201134636149
 21
87.260768157656557
 31
0.0
  0
LINE
  5
88FD
  8
AM_0
 10
196.4620193463615
 20
87.260776157656991
 30
0.0
 11
205.91176681466681
 21
96.710523625962637
 31
0.0
  0
ARC
  5
88FE
  8
AM_0
 10
195.47206185269849
 20
88.250717651317785
 30
0.0
 40
1.399999999999999
 50
270.0
 51
315.00000000000921
1001
GENIUS_GENODEF_13
1002
{
1000
HIER
1070
     0
1002
}
1002
{
1000
MANEDIT
1070
     0
1002
}
1002
{
1000
NOSEL
1070
     0
1002
}
1002
{
1000
BEHIND
1070
     0
1002
}
1002
{
1000
OTHER
1070
     0
1002
}
1002
{
1000
REACTOR
1002
}
1001
GENIUS_GENOBJ-N-FIL_13
1002
{
1000
OWNER
1000
GEN
1002
}
  0
ARC
  5
88FF
  8
AM_0
 10
204.92181732100559
 20
97.700473119623993
 30
0.0
 40
1.4000000000006301
 50
314.99999999997232
 51
0.0
  0
ARC
  5
8900
  8
AM_0
 10
210.92181732100559
 20
86.750725651317694
 30
0.0
 40
2.0
 50
270.0
 51
0.0
  0
ARC
  5
8901
  8
AM_0
 10
210.92181732100559
 20
94.250725651317879
 30
0.0
 40
2.0
 50
0.0
 51
90.0
  0
LINE
  5
8902
  8
AM_0
 10
210.92181732100559
 20
96.250725651317694
 30
0.0
 11
210.42181732100559
 21
96.250725651317694
 31
0.0
  0
LINE
  5
8903
  8
AM_0
 10
212.92181732100559
 20
86.750725651317694
 30
0.0
 11
212.92181732100559
 21
94.250725651317879
 31
0.0
  0
LINE
  5
8904
  8
AM_0
 10
128.3417973210048
 20
154.65070565131751
 30
0.0
 11
195.4795531408808
 21
154.65070565131751
 31
0.0
  0
ARC
  5
8905
  8
AM_0
 10
123.9223673210053
 20
102.75017565131751
 30
0.0
 40
0.5005480100000002
 50
90.062622000000005
 51
179.93736999999041
  0
ARC
  5
8906
  8
AM_0
 10
123.9223673210053
 20
148.75017565131751
 30
0.0
 40
0.5005480100000002
 50
90.062622000000005
 51
179.93736999999041
  0
ARC
  5
8907
  8
AM_0
 10
123.9143073210047
 20
138.74321565131791
 30
0.0
 40
0.49254802
 50
179.12656000000169
 51
270.8734499999884
  0
LINE
  5
8908
  8
AM_0
 10
123.42181732100561
 20
148.75071565131751
 30
0.0
 11
123.42181732100561
 21
138.75072565131759
 31
0.0
  0
LINE
  5
8909
  8
AM_0
 10
128.3417973210048
 20
154.65070565131751
 30
0.0
 11
128.3417973210048
 21
156.7457056513191
 31
0.0
  0
ARC
  5
890A
  8
AM_0
 10
127.4223073210055
 20
153.25022565131741
 30
0.0
 40
3.5005001999999981
 50
90.008164999989489
 51
179.99183999999781
  0
LINE
  5
890B
  8
AM_0
 10
210.42181732100559
 20
126.25072565131759
 30
0.0
 11
208.42181732100559
 21
126.25072565131759
 31
0.0
  0
LINE
  5
890C
  8
AM_0
 10
208.42181732100559
 20
115.25072565131789
 30
0.0
 11
210.4218173210065
 21
115.25072565131789
 31
0.0
  0
LINE
  5
890D
  8
AM_0
 10
210.4218173210065
 20
115.25072565131789
 30
0.0
 11
210.42181732100559
 21
126.25072565131759
 31
0.0
  0
ARC
  5
890E
  8
AM_0
 10
210.42181732100559
 20
143.25072565131759
 30
0.0
 40
2.0
 50
90.0
 51
180.0
  0
CIRCLE
  5
890F
  8
AM_0
 10
207.42181732100559
 20
151.75072565131759
 30
0.0
 40
3.4999999999999631
  0
LINE
  5
8910
  8
AM_0
 10
196.46201934636241
 20
154.24067514497901
 30
0.0
 11
205.91176681466681
 21
144.79092767667379
 31
0.0
  0
LINE
  5
8911
  8
AM_0
 10
204.3218173210056
 20
146.38087717033389
 30
0.0
 11
205.91176681466681
 21
144.79092767667379
 31
0.0
  0
ARC
  5
8912
  8
AM_0
 10
204.92181732100559
 20
143.80097818301141
 30
0.0
 40
1.400000000000118
 50
0.0
 51
45.000000000027619
  0
ARC
  5
8913
  8
AM_0
 10
195.47206985269941
 20
153.25072565131791
 30
0.0
 40
1.40000000000077
 50
44.999999999981569
 51
89.999999999947889
  0
LINE
  5
8914
  8
AM_0
 10
212.92181732100559
 20
147.25072565131759
 30
0.0
 11
212.92181732100559
 21
154.75072565131759
 31
0.0
  0
LINE
  5
8915
  8
AM_0
 10
212.92181732100559
 20
147.25072565131759
 30
0.0
 11
212.92181732100559
 21
154.75072565131759
 31
0.0
  0
ARC
  5
8916
  8
AM_0
 10
210.92181732100559
 20
147.25072565131759
 30
0.0
 40
2.0
 50
270.0
 51
0.0
  0
LINE
  5
8917
  8
AM_0
 10
210.42181732100559
 20
145.25072565131759
 30
0.0
 11
210.92181732100559
 21
145.25072565131759
 31
0.0
  0
ARC
  5
8918
  8
AM_0
 10
210.92181732100559
 20
154.75072565131759
 30
0.0
 40
2.0
 50
0.0
 51
90.0
  0
LINE
  5
8919
  8
AM_0
 10
204.78324563979851
 20
151.7507256513185
 30
0.0
 11
210.06038900221159
 21
151.7507256513185
 31
0.0
  0
LINE
  5
891A
  8
AM_0
 10
207.42181732100559
 20
154.38929733252371
 30
0.0
 11
207.42181732100559
 21
149.11215397011071
 31
0.0
  0
CIRCLE
  5
891B
  8
AM_0
 10
207.42181732100559
 20
89.750725651317666
 30
0.0
 40
3.4999999999999631
  0
LINE
  5
891C
  8
AM_0
 10
204.78324563979851
 20
89.750725651318575
 30
0.0
 11
210.06038900221159
 21
89.750725651318575
 31
0.0
  0
LINE
  5
891D
  8
AM_0
 10
207.42181732100559
 20
92.389297332524507
 30
0.0
 11
207.42181732100559
 21
87.112153970111621
 31
0.0
  0
LINE
  5
891F
  8
AM_0
 10
31.421827321003551
 20
96.776554005393791
 30
0.0
 11
31.421827321003551
 21
177.7507196513175
 31
0.0
  0
LINE
  5
8950
  8
ﾁｭｳｼﾝｾﾝ
 10
754.12509967198935
 20
120.75072565131759
 30
0.0
 11
997.64427497001952
 21
120.75072565131759
 31
0.0
  0
LINE
  5
8BD8
  8
AM_0
 10
531.42180732100564
 20
568.5723763762353
 30
0.0
 11
587.42177732100549
 21
568.5723763762353
 31
0.0
  0
LINE
  5
8BD9
  8
AM_0
 10
531.42180732100564
 20
556.57237637623518
 30
0.0
 11
587.42177732100549
 21
556.57237637623518
 31
0.0
  0
LINE
  5
8BDA
  8
AM_0
 10
517.42180732100564
 20
541.57243637623515
 30
0.0
 11
587.42177732100549
 21
541.57243637623515
 31
0.0
  0
LINE
  5
8BDB
  8
AM_0
 10
517.42180732100564
 20
583.57243637623515
 30
0.0
 11
587.42177732100549
 21
583.57243637623515
 31
0.0
  0
LINE
  5
8BDC
  8
ﾁｭｳｼﾝｾﾝ
 10
13.08174162730597
 20
562.57243637623515
 30
0.0
 11
598.93574732100558
 21
562.57243637623515
 31
0.0
  0
ARC
  5
8D6E
  8
AM_0
 10
251.9218073210059
 20
550.46947637623498
 30
0.0
 40
3.0
 50
180.00001000000091
 51
267.99999999999631
  0
LINE
  5
8D70
  8
AM_0
 10
248.92180732100601
 20
520.24968637623522
 30
0.0
 11
248.92180732100601
 21
605.43101637623465
 31
0.0
  0
LINE
  5
8D71
  8
AM_0
 10
233.92180732100559
 20
498.57243637623509
 30
0.0
 11
233.92180732100559
 21
626.57243637623492
 31
0.0
  0
LINE
  5
8D72
  8
AM_0
 10
323.92180732100559
 20
492.3186563762352
 30
0.0
 11
323.92180732100559
 21
632.82616637623516
 31
0.0
  0
LINE
  5
8D74
  8
AM_0
 10
333.92167732100557
 20
489.07237637623513
 30
0.0
 11
333.92167732100557
 21
636.07243637623492
 31
0.0
  0
LINE
  5
8D75
  8
AM_0
 10
410.4218073210057
 20
513.00786637623514
 30
0.0
 11
410.4218073210057
 21
612.13695637623505
 31
0.0
  0
LINE
  5
8D76
  8
AM_0
 10
485.4218073210057
 20
471.57243637623509
 30
0.0
 11
485.4218073210057
 21
653.57243637623492
 31
0.0
  0
LINE
  5
8D77
  8
AM_0
 10
513.42180732100564
 20
602.32976637623517
 30
0.0
 11
513.42180732100564
 21
528.81505637623536
 31
0.0
  0
LINE
  5
8D78
  8
AM_0
 10
395.4218073210057
 20
422.83440637623499
 30
0.0
 11
395.4218073210057
 21
558.57237637623496
 31
0.0
  0
LINE
  5
8D79
  8
AM_0
 10
507.42180732100559
 20
648.45299637623509
 30
0.0
 11
507.42180732100559
 21
476.6918263762351
 31
0.0
  0
LINE
  5
8D7A
  8
AM_0
 10
517.42180732100564
 20
540.07243637623515
 30
0.0
 11
517.42180732100564
 21
585.07243637623515
 31
0.0
  0
LINE
  5
8D7B
  8
AM_0
 10
382.4216773210054
 20
426.3625963762351
 30
0.0
 11
382.4216773210054
 21
553.03300637623499
 31
0.0
  0
LINE
  5
8D7C
  8
AM_0
 10
368.4218073210057
 20
448.46440637623522
 30
0.0
 11
368.4218073210057
 21
558.57237637623496
 31
0.0
  0
LINE
  5
8D7D
  8
AM_0
 10
384.35197732100568
 20
433.82866637623499
 30
0.0
 11
395.4218073210057
 21
433.44206637623512
 31
0.0
  0
LINE
  5
8D7E
  8
AM_0
 10
382.4216773210054
 20
511.00786637623509
 30
0.0
 11
408.4218073210057
 21
511.00786637623509
 31
0.0
  0
LINE
  5
8D7F
  8
AM_0
 10
382.4216773210054
 20
485.00664637623521
 30
0.0
 11
408.4218073210057
 21
485.00664637623521
 31
0.0
  0
LINE
  5
8D80
  8
AM_0
 10
325.21238732100602
 20
426.5139663762352
 30
0.0
 11
400.42173732100542
 21
422.57243637623509
 31
0.0
  0
POLYLINE
  5
8D81
  8
AM_0
 66
     1
 10
0.0
 20
0.0
 30
0.0
  0
VERTEX
  5
8D82
  8
AM_0
 10
323.92180732100559
 20
494.57243637623509
 30
0.0
  0
VERTEX
  5
8D83
  8
AM_0
 10
304.18537732100572
 20
545.64242637623522
 30
0.0
 42
-1.0
  0
SEQEND
  5
8D84
  8
AM_0
  0
LINE
  5
8D85
  8
AM_0
 10
233.92180732100559
 20
510.53239637623511
 30
0.0
 11
315.24821732100588
 21
510.53239637623511
 31
0.0
  0
LINE
  5
8D86
  8
AM_0
 10
248.92180732100601
 20
520.24968637623522
 30
0.0
 11
311.10881732100592
 21
520.24968637623522
 31
0.0
  0
LINE
  5
8D87
  8
AM_0
 10
321.02647732100559
 20
545.05449637623519
 30
0.0
 11
251.81712732100601
 21
547.47136637623521
 31
0.0
  0
LINE
  5
8D88
  8
AM_0
 10
321.02647732100559
 20
495.53068637623488
 30
0.0
 11
233.92180732100559
 21
498.57243637623509
 31
0.0
  0
LINE
  5
8D8E
  8
AM_0
 10
233.92180732100559
 20
525.42241637623499
 30
0.0
 11
248.92180732100601
 21
525.42241637623499
 31
0.0
  0
CIRCLE
  5
8D90
  8
AM_0
 10
342.42180732100559
 20
447.57243637623509
 30
0.0
 40
9.5
  0
LINE
  5
8D92
  8
AM_0
 10
325.07316732100583
 20
470.98027637623522
 30
0.0
 11
368.4218073210057
 21
474.7727563762349
 31
0.0
  0
LINE
  5
8D94
  8
AM_0
 10
321.42180732100559
 20
430.50847637623508
 30
0.0
 11
321.42180732100559
 21
466.99547637623488
 31
0.0
  0
ARC
  5
8D95
  8
AM_0
 10
325.42180732100559
 20
430.50847637623508
 30
0.0
 40
4.0
 50
180.00001000000091
 51
266.9999900000002
  0
ARC
  5
8D96
  8
AM_0
 10
325.42180732100559
 20
466.99547637623488
 30
0.0
 40
4.0
 50
95.00000199999856
 51
180.00001000000091
  0
ARC
  5
8D97
  8
AM_0
 10
374.4218073210057
 20
436.86247637623512
 30
0.0
 40
5.0
 50
180.00001000000091
 51
277.13983000000007
  0
LINE
  5
8D98
  8
AM_0
 10
370.9008073210058
 20
445.49339637623518
 30
0.0
 11
379.94273732100572
 21
443.89903637623502
 31
0.0
  0
LINE
  5
8D99
  8
AM_0
 10
369.42180732100559
 20
425.17717637623508
 30
0.0
 11
369.42180732100559
 21
433.02592637623519
 31
0.0
  0
ARC
  5
8D9A
  8
AM_0
 10
371.42180732100559
 20
448.44780637623518
 30
0.0
 40
3.0
 50
179.99998999999889
 51
260.00000000000131
  0
ARC
  5
8D9B
  8
AM_0
 10
384.4218073210057
 20
435.82744637623512
 30
0.0
 40
2.0
 50
179.99998999999889
 51
268.00000999999861
  0
LINE
  5
8D9C
  8
AM_0
 10
382.42173732100571
 20
432.82542637623521
 30
0.0
 11
375.04319732100572
 21
431.9011763762349
 31
0.0
  0
ARC
  5
8D9D
  8
AM_0
 10
385.42167732100552
 20
426.3625963762351
 30
0.0
 40
3.0
 50
180.00001000000091
 51
266.9999900000002
  0
ARC
  5
8D9E
  8
AM_0
 10
379.42180732100559
 20
440.94469637623507
 30
0.0
 40
3.0
 50
0.0
 51
79.999998000001099
  0
LINE
  5
8D9F
  8
AM_0
 10
333.92173732100542
 20
489.07237637623513
 30
0.0
 11
363.59630732100578
 21
488.03612637623519
 31
0.0
  0
LINE
  5
8DA0
  8
AM_0
 10
333.92180732100559
 20
523.09770637623524
 30
0.0
 11
368.4218073210057
 21
523.09770637623524
 31
0.0
  0
LINE
  5
8DA1
  8
AM_0
 10
333.92180732100559
 20
500.99376637623487
 30
0.0
 11
368.4218073210057
 21
500.99376637623487
 31
0.0
  0
LINE
  5
8DA2
  8
AM_0
 10
333.92180732100559
 20
500.99376637623487
 30
0.0
 11
323.92180732100559
 21
500.99376637623487
 31
0.0
  0
LINE
  5
8DA3
  8
AM_0
 10
333.92173732100542
 20
489.07237637623513
 30
0.0
 11
326.81712732100578
 21
489.32048637623518
 31
0.0
  0
ARC
  5
8DA4
  8
AM_0
 10
320.9218073210057
 20
492.5324563762353
 30
0.0
 40
3.0
 50
0.0
 51
87.999999999996248
  0
ARC
  5
8DA5
  8
AM_0
 10
326.9218073210057
 20
492.3186563762352
 30
0.0
 40
3.0
 50
180.00001000000091
 51
267.99999999999631
  0
LINE
  5
8DA6
  8
AM_0
 10
333.92180732100559
 20
523.09770637623524
 30
0.0
 11
323.92180732100559
 21
523.09770637623524
 31
0.0
  0
ARC
  5
8DA7
  8
AM_0
 10
320.9218073210057
 20
542.05626637623516
 30
0.0
 40
3.0
 50
0.0
 51
87.999999999996248
  0
ARC
  5
8DA8
  8
AM_0
 10
363.4218073210057
 20
483.03917637623522
 30
0.0
 40
5.0
 50
0.0
 51
87.999999999996248
  0
LINE
  5
8DA9
  8
AM_0
 10
475.4218073210057
 20
463.57243637623509
 30
0.0
 11
477.42180732100559
 21
463.57243637623509
 31
0.0
  0
LINE
  5
8DAB
  8
AM_0
 10
400.42173732100542
 20
422.57237637623513
 30
0.0
 11
509.56132732100571
 21
426.38365637623502
 31
0.0
  0
POLYLINE
  5
8DAC
  8
AM_0
 66
     1
 10
0.0
 20
0.0
 30
0.0
  0
VERTEX
  5
8DAD
  8
AM_0
 10
415.35149732100592
 20
482.84088637623489
 30
0.0
 42
0.11075717
  0
VERTEX
  5
8DAE
  8
AM_0
 10
428.2324373210057
 20
492.74866637623501
 30
0.0
 42
0.20375769
  0
VERTEX
  5
8DAF
  8
AM_0
 10
430.4901673210054
 20
500.41413637623521
 30
0.0
  0
VERTEX
  5
8DB0
  8
AM_0
 10
415.72036732100571
 20
519.32928637623502
 30
0.0
 42
-1.0
  0
SEQEND
  5
8DB1
  8
AM_0
  0
LINE
  5
8DB2
  8
AM_0
 10
410.4218073210057
 20
435.89726637623511
 30
0.0
 11
410.4218073210057
 21
483.00664637623498
 31
0.0
  0
ARC
  5
8DB3
  8
AM_0
 10
439.86113732100569
 20
429.4043463762352
 30
0.0
 40
10.0
 50
91.999998000000545
 51
136.5170399999985
  0
LINE
  5
8DB4
  8
AM_0
 10
412.35203732100598
 20
440.01292637623521
 30
0.0
 11
436.95500732100572
 21
440.8721263762352
 31
0.0
  0
ARC
  5
8DB5
  8
AM_0
 10
408.4218073210057
 20
435.89726637623511
 30
0.0
 40
2.0
 50
272.00000000000369
 51
0.0
  0
LINE
  5
8DB6
  8
AM_0
 10
395.42173732100571
 20
433.44206637623512
 30
0.0
 11
408.49162732100569
 21
433.89848637623493
 31
0.0
  0
ARC
  5
8DB7
  8
AM_0
 10
412.4218073210057
 20
438.0142163762352
 30
0.0
 40
2.0
 50
91.999998000000545
 51
180.00001000000091
  0
LINE
  5
8DB8
  8
AM_0
 10
414.92180732100559
 20
426.3352563762349
 30
0.0
 11
414.92180732100559
 21
438.36760637623519
 31
0.0
  0
LINE
  5
8DB9
  8
AM_0
 10
423.23820732100558
 20
426.40898637623508
 30
0.0
 11
432.6053973210058
 21
436.28575637623521
 31
0.0
  0
ARC
  5
8DBA
  8
AM_0
 10
415.98246732100557
 20
433.29039637623521
 30
0.0
 40
10.0
 50
272.00000000000369
 51
316.51703999999847
  0
ARC
  5
8DBB
  8
AM_0
 10
414.44987732100577
 20
484.62614637623528
 30
0.0
 40
2.0
 50
270.0
 51
296.80019999999712
  0
LINE
  5
8DBC
  8
AM_0
 10
465.42180732100559
 20
453.57243637623509
 30
0.0
 11
465.42180732100559
 21
448.02861637623488
 31
0.0
  0
LINE
  5
8DBD
  8
AM_0
 10
439.51213732100558
 20
439.39830637623493
 30
0.0
 11
457.70097732100572
 21
440.03349637623512
 31
0.0
  0
LINE
  5
8DBE
  8
AM_0
 10
465.42180732100559
 20
430.01994637623523
 30
0.0
 11
465.42180732100559
 21
448.02861637623488
 31
0.0
  0
ARC
  5
8DBF
  8
AM_0
 10
470.42180732100559
 20
430.01994637623523
 30
0.0
 40
5.0
 50
180.00001000000091
 51
271.99999000000139
  0
ARC
  5
8DC0
  8
AM_0
 10
457.42180732100559
 20
448.02861637623488
 30
0.0
 40
8.0
 50
272.00000000000369
 51
0.0
  0
ARC
  5
8DC1
  8
AM_0
 10
475.4218073210057
 20
453.57243637623509
 30
0.0
 40
10.0
 50
90.00000299999769
 51
180.00001000000091
  0
ARC
  5
8DC2
  8
AM_0
 10
408.4218073210057
 20
483.00664637623498
 30
0.0
 40
2.0
 50
0.0
 51
90.00000299999769
  0
ARC
  5
8DC3
  8
AM_0
 10
408.4218073210057
 20
513.00786637623514
 30
0.0
 40
2.0
 50
270.0
 51
0.0
  0
LINE
  5
8DC4
  8
AM_0
 10
414.92180732100559
 20
485.00664637623521
 30
0.0
 11
414.92180732100559
 21
511.00786637623509
 31
0.0
  0
ARC
  5
8DC5
  8
AM_0
 10
413.97136732100569
 20
516.89183637623523
 30
0.0
 40
3.0
 50
54.348324000004709
 51
90.00000299999769
  0
CIRCLE
  5
8DC6
  8
AM_0
 10
492.4218073210057
 20
447.57243637623509
 30
0.0
 40
9.5
  0
LINE
  5
8DC8
  8
AM_0
 10
513.42180732100564
 20
430.38121637623499
 30
0.0
 11
513.42180732100564
 21
469.76360637623509
 31
0.0
  0
ARC
  5
8DC9
  8
AM_0
 10
509.4218073210057
 20
430.38121637623499
 30
0.0
 40
4.0
 50
272.00000000000369
 51
0.0
  0
LINE
  5
8DCA
  8
AM_0
 10
492.74681732100578
 20
476.03075637623522
 30
0.0
 11
502.59623732100567
 21
476.37468637623522
 31
0.0
  0
ARC
  5
8DCB
  8
AM_0
 10
477.42180732100559
 20
471.57243637623509
 30
0.0
 40
8.0
 50
270.0
 51
0.0
  0
ARC
  5
8DCC
  8
AM_0
 10
493.02592732100578
 20
468.03557637623521
 30
0.0
 40
8.0
 50
91.999998000000545
 51
167.22924999999881
  0
ARC
  5
8DCD
  8
AM_0
 10
510.4218073210057
 20
476.6918263762351
 30
0.0
 40
3.0
 50
180.00001000000091
 51
261.78677999999701
  0
ARC
  5
8DCE
  8
AM_0
 10
502.42180732100559
 20
481.37163637623519
 30
0.0
 40
5.0
 50
272.00000000000369
 51
0.0
  0
ARC
  5
8DCF
  8
AM_0
 10
509.4218073210057
 20
469.76360637623509
 30
0.0
 40
4.0
 50
0.0
 51
81.786789000000198
  0
LINE
  5
8DD0
  8
AM_0
 10
508.30058732100571
 20
522.4511063762352
 30
0.0
 11
512.54319732100555
 21
526.69371637623522
 31
0.0
  0
ARC
  5
8DD1
  8
AM_0
 10
510.4218073210057
 20
520.32976637623494
 30
0.0
 40
3.0
 50
135.0
 51
180.00001000000091
  0
ARC
  5
8DD2
  8
AM_0
 10
510.4218073210057
 20
520.32976637623494
 30
0.0
 40
3.0
 50
135.0
 51
180.00001000000091
  0
ARC
  5
8DD3
  8
AM_0
 10
510.4218073210057
 20
528.81505637623536
 30
0.0
 40
3.0
 50
315.0
 51
0.0
  0
ARC
  5
8DD4
  8
AM_0
 10
510.4218073210057
 20
528.81505637623536
 30
0.0
 40
3.0
 50
315.0
 51
0.0
  0
LINE
  5
8DD5
  8
AM_0
 10
513.42180732100564
 20
540.07243637623515
 30
0.0
 11
517.42180732100564
 21
540.07243637623515
 31
0.0
  0
ARC
  5
8DD6
  8
AM_0
 10
395.92180732100559
 20
562.57237637623496
 30
0.0
 40
3.9999962
 50
270.0
 51
90.00000299999769
  0
LINE
  5
8DD7
  8
AM_0
 10
362.92180732100559
 20
566.57237637623484
 30
0.0
 11
395.92180732100559
 21
566.57237637623484
 31
0.0
  0
LINE
  5
8DD8
  8
AM_0
 10
362.92180732100559
 20
558.57237637623496
 30
0.0
 11
395.92180732100559
 21
558.57237637623496
 31
0.0
  0
LINE
  5
8DD9
  8
AM_0
 10
382.4216773210054
 20
640.13817637623492
 30
0.0
 11
408.4218073210057
 21
640.13817637623492
 31
0.0
  0
LINE
  5
8DDA
  8
AM_0
 10
382.4216773210054
 20
614.13695637623505
 30
0.0
 11
408.4218073210057
 21
614.13695637623505
 31
0.0
  0
LINE
  5
8DDB
  8
AM_0
 10
325.21238732100602
 20
698.63084637623524
 30
0.0
 11
400.42173732100542
 21
702.57243637623503
 31
0.0
  0
LINE
  5
8DDC
  8
AM_0
 10
384.3520373210057
 20
691.31621637623505
 30
0.0
 11
395.4218073210057
 21
691.702806376235
 31
0.0
  0
CIRCLE
  5
8DDD
  8
AM_0
 10
342.42180732100559
 20
677.57243637623492
 30
0.0
 40
9.5
  0
ARC
  5
8DDE
  8
AM_0
 10
371.42180732100559
 20
676.69694637623525
 30
0.0
 40
3.0
 50
99.999999999998593
 51
180.00001000000091
  0
LINE
  5
8DDF
  8
AM_0
 10
382.4216773210054
 20
572.11180637623522
 30
0.0
 11
382.4216773210054
 21
698.78215637623521
 31
0.0
  0
LINE
  5
8DE1
  8
AM_0
 10
321.42180732100559
 20
694.63634637623522
 30
0.0
 11
321.42180732100559
 21
658.14934637623492
 31
0.0
  0
POLYLINE
  5
8DE2
  8
AM_0
 66
     1
 10
0.0
 20
0.0
 30
0.0
  0
VERTEX
  5
8DE3
  8
AM_0
 10
304.18533732100559
 20
579.5021663762351
 30
0.0
 42
-0.037107926
  0
VERTEX
  5
8DE4
  8
AM_0
 10
308.46353732100567
 20
597.34837637623525
 30
0.0
 42
-0.032389855
  0
VERTEX
  5
8DE5
  8
AM_0
 10
315.166017321006
 20
614.43689637623493
 30
0.0
 42
-0.029578605
  0
VERTEX
  5
8DE6
  8
AM_0
 10
323.92180732100559
 20
630.57243637623492
 30
0.0
  0
SEQEND
  5
8DE7
  8
AM_0
  0
LINE
  5
8DE8
  8
AM_0
 10
233.92180732100559
 20
614.61247637623524
 30
0.0
 11
315.24821732100588
 21
614.61247637623524
 31
0.0
  0
LINE
  5
8DE9
  8
AM_0
 10
248.92180732100601
 20
605.43101637623465
 30
0.0
 11
311.31535732100559
 21
605.43101637623465
 31
0.0
  0
LINE
  5
8DEA
  8
AM_0
 10
321.02647732100559
 20
580.0903863762353
 30
0.0
 11
251.81706732100591
 21
577.67351637623494
 31
0.0
  0
LINE
  5
8DEB
  8
AM_0
 10
321.02653732100572
 20
629.61418637623501
 30
0.0
 11
233.92186732100589
 21
626.57243637623492
 31
0.0
  0
ARC
  5
8DEC
  8
AM_0
 10
251.9218073210059
 20
574.67534637623521
 30
0.0
 40
3.0
 50
91.999998000000545
 51
180.00001000000091
  0
LINE
  5
8DED
  8
AM_0
 10
233.92180732100559
 20
599.72246637623505
 30
0.0
 11
248.92180732100601
 21
599.72246637623505
 31
0.0
  0
LINE
  5
8DF6
  8
AM_0
 10
368.4218073210057
 20
566.57237637623484
 30
0.0
 11
368.4218073210057
 21
676.71355637623492
 31
0.0
  0
LINE
  5
8DF7
  8
AM_0
 10
333.92180732100559
 20
602.04704637623524
 30
0.0
 11
368.4218073210057
 21
602.04704637623524
 31
0.0
  0
ARC
  5
8DF8
  8
AM_0
 10
320.9218073210057
 20
583.08855637623515
 30
0.0
 40
3.0
 50
272.00000000000369
 51
0.0
  0
LINE
  5
8DF9
  8
AM_0
 10
333.92180732100559
 20
602.04704637623524
 30
0.0
 11
323.92180732100559
 21
602.04704637623524
 31
0.0
  0
ARC
  5
8DFA
  8
AM_0
 10
379.42180732100559
 20
562.57243637623515
 30
0.0
 40
10.0
 50
203.5782699999985
 51
336.4217200000013
  0
ARC
  5
8DFB
  8
AM_0
 10
379.42180732100559
 20
562.57243637623515
 30
0.0
 40
10.0
 50
23.57803699999776
 51
156.42196000000081
  0
ARC
  5
8DFC
  8
AM_0
 10
362.92180732100559
 20
562.57237637623496
 30
0.0
 40
3.9999962
 50
90.00000299999769
 51
270.0
  0
LINE
  5
8DFD
  8
AM_0
 10
325.07310732100569
 20
654.16454637623519
 30
0.0
 11
368.42173732100542
 21
650.37199637623507
 31
0.0
  0
LINE
  5
8DFE
  8
AM_0
 10
333.92180732100559
 20
636.07243637623492
 30
0.0
 11
363.59623732100567
 21
637.10869637623523
 31
0.0
  0
LINE
  5
8DFF
  8
AM_0
 10
333.92180732100559
 20
624.15105637623492
 30
0.0
 11
368.4218073210057
 21
624.15105637623492
 31
0.0
  0
LINE
  5
8E00
  8
AM_0
 10
333.92180732100559
 20
624.15105637623492
 30
0.0
 11
323.92180732100559
 21
624.15105637623492
 31
0.0
  0
LINE
  5
8E01
  8
AM_0
 10
333.92173732100542
 20
636.07243637623492
 30
0.0
 11
326.81712732100578
 21
635.82433637623478
 31
0.0
  0
ARC
  5
8E02
  8
AM_0
 10
320.9218073210057
 20
632.61235637623531
 30
0.0
 40
3.0
 50
272.00000000000369
 51
0.0
  0
ARC
  5
8E03
  8
AM_0
 10
326.9218073210057
 20
632.82616637623516
 30
0.0
 40
3.0
 50
91.999998000000545
 51
180.00001000000091
  0
ARC
  5
8E04
  8
AM_0
 10
325.42180732100559
 20
658.14934637623492
 30
0.0
 40
4.0
 50
180.00001000000091
 51
265.00001000000032
  0
ARC
  5
8E05
  8
AM_0
 10
363.4218073210057
 20
642.10564637623531
 30
0.0
 40
5.0
 50
272.00000000000369
 51
0.0
  0
ARC
  5
8E07
  8
AM_0
 10
325.42180732100559
 20
694.63634637623522
 30
0.0
 40
4.0
 50
92.999999000001679
 51
180.00001000000091
  0
ARC
  5
8E08
  8
AM_0
 10
374.4218073210057
 20
688.2823963762354
 30
0.0
 40
5.0
 50
82.860167000000104
 51
180.00001000000091
  0
LINE
  5
8E09
  8
AM_0
 10
370.90086732100582
 20
679.65141637623492
 30
0.0
 11
379.94273732100572
 21
681.24577637623531
 31
0.0
  0
LINE
  5
8E0A
  8
AM_0
 10
369.42180732100559
 20
699.96764637623517
 30
0.0
 11
369.42180732100559
 21
692.1188863762352
 31
0.0
  0
LINE
  5
8E0B
  8
AM_0
 10
382.42173732100571
 20
692.319386376235
 30
0.0
 11
375.04319732100572
 21
693.24364637623523
 31
0.0
  0
ARC
  5
8E0C
  8
AM_0
 10
379.42180732100559
 20
684.20012637623529
 30
0.0
 40
3.0
 50
280.00001000000128
 51
0.0
  0
ARC
  5
8E0D
  8
AM_0
 10
384.4218073210057
 20
689.31737637623519
 30
0.0
 40
2.0
 50
91.999998000000545
 51
180.00001000000091
  0
ARC
  5
8E0E
  8
AM_0
 10
385.42167732100552
 20
698.78215637623521
 30
0.0
 40
3.0
 50
92.999999000001679
 51
180.00001000000091
  0
CIRCLE
  5
8E0F
  8
AM_0
 10
492.4218073210057
 20
677.57243637623492
 30
0.0
 40
9.5
  0
LINE
  5
8E10
  8
AM_0
 10
395.4218073210057
 20
566.57237637623484
 30
0.0
 11
395.4218073210057
 21
702.31035637623495
 31
0.0
  0
LINE
  5
8E11
  8
AM_0
 10
410.4218073210057
 20
689.24754637623516
 30
0.0
 11
410.4218073210057
 21
642.13817637623492
 31
0.0
  0
LINE
  5
8E12
  8
AM_0
 10
465.42180732100559
 20
671.5724363762348
 30
0.0
 11
465.42180732100559
 21
677.11626637623533
 31
0.0
  0
LINE
  5
8E13
  8
ﾁｭｳｼﾝｾﾝ
 10
492.4218073210057
 20
694.07243637623503
 30
0.0
 11
492.4218073210057
 21
661.07243637623492
 31
0.0
  0
LINE
  5
8E14
  8
AM_0
 10
513.42180732100564
 20
694.76360637623509
 30
0.0
 11
513.42180732100564
 21
655.38121637623499
 31
0.0
  0
LINE
  5
8E15
  8
AM_0
 10
475.4218073210057
 20
661.57243637623492
 30
0.0
 11
477.42180732100559
 21
661.57243637623492
 31
0.0
  0
POLYLINE
  5
8E16
  8
AM_0
 66
     1
 10
0.0
 20
0.0
 30
0.0
  0
VERTEX
  5
8E17
  8
AM_0
 10
415.35149732100592
 20
642.30386637623496
 30
0.0
 42
-0.11075703
  0
VERTEX
  5
8E18
  8
AM_0
 10
428.2324673210054
 20
632.39615637623524
 30
0.0
 42
-0.20375918
  0
VERTEX
  5
8E19
  8
AM_0
 10
430.4901673210054
 20
624.73067637623524
 30
0.0
  0
VERTEX
  5
8E1A
  8
AM_0
 10
415.72036732100571
 20
605.81553637623506
 30
0.0
 42
-1.0
  0
SEQEND
  5
8E1B
  8
AM_0
  0
ARC
  5
8E1C
  8
AM_0
 10
408.4218073210057
 20
612.13695637623505
 30
0.0
 40
2.0
 50
0.0
 51
90.00000299999769
  0
ARC
  5
8E1D
  8
AM_0
 10
413.97136732100569
 20
608.2529863762353
 30
0.0
 40
3.0
 50
270.0
 51
305.65166999999718
  0
ARC
  5
8E1E
  8
AM_0
 10
408.4218073210057
 20
642.13817637623492
 30
0.0
 40
2.0
 50
270.0
 51
0.0
  0
LINE
  5
8E1F
  8
AM_0
 10
414.92180732100559
 20
640.13817637623492
 30
0.0
 11
414.92180732100559
 21
614.13695637623505
 31
0.0
  0
ARC
  5
8E20
  8
AM_0
 10
414.44987732100577
 20
640.51860637623531
 30
0.0
 40
2.0
 50
63.199809000002318
 51
90.00000299999769
  0
ARC
  5
8E21
  8
AM_0
 10
475.4218073210057
 20
671.5724363762348
 30
0.0
 40
10.0
 50
180.00001000000091
 51
270.0
  0
LINE
  5
8E22
  8
AM_0
 10
513.42180732100564
 20
585.07243637623515
 30
0.0
 11
517.42180732100564
 21
585.07243637623515
 31
0.0
  0
LINE
  5
8E23
  8
AM_0
 10
508.30052732100569
 20
608.6937163762351
 30
0.0
 11
512.54319732100555
 21
604.45103637623481
 31
0.0
  0
ARC
  5
8E24
  8
AM_0
 10
510.4218073210057
 20
610.81505637623525
 30
0.0
 40
3.0
 50
180.00001000000091
 51
225.0
  0
ARC
  5
8E25
  8
AM_0
 10
510.4218073210057
 20
610.81505637623525
 30
0.0
 40
3.0
 50
179.99998999999889
 51
225.0
  0
ARC
  5
8E26
  8
AM_0
 10
510.4218073210057
 20
602.32976637623517
 30
0.0
 40
3.0
 50
0.0
 51
44.999998000001611
  0
ARC
  5
8E27
  8
AM_0
 10
510.4218073210057
 20
602.32976637623517
 30
0.0
 40
3.0
 50
0.0
 51
45.000001000003799
  0
ARC
  5
8E28
  8
AM_0
 10
531.42180732100564
 20
562.57237637623496
 30
0.0
 40
6.0000037999999991
 50
90.00000299999769
 51
270.0
  0
LINE
  5
8E29
  8
AM_0
 10
531.42180732100564
 20
568.5723763762353
 30
0.0
 11
531.42180732100564
 21
556.57237637623518
 31
0.0
  0
ARC
  5
8E2A
  8
AM_0
 10
502.42180732100559
 20
643.77318637623523
 30
0.0
 40
5.0
 50
0.0
 51
87.999999999996248
  0
LINE
  5
8E2B
  8
AM_0
 10
492.74681732100578
 20
649.11412637623505
 30
0.0
 11
502.59630732100578
 21
648.77019637623516
 31
0.0
  0
ARC
  5
8E2C
  8
AM_0
 10
477.42180732100559
 20
653.57243637623492
 30
0.0
 40
8.0
 50
0.0
 51
90.00000299999769
  0
ARC
  5
8E2D
  8
AM_0
 10
493.02592732100578
 20
657.10924637623532
 30
0.0
 40
8.0
 50
192.7707500000011
 51
267.99999999999631
  0
ARC
  5
8E2E
  8
AM_0
 10
510.4218073210057
 20
648.45299637623509
 30
0.0
 40
3.0
 50
98.213209000002095
 51
180.00001000000091
  0
ARC
  5
8E2F
  8
AM_0
 10
509.4218073210057
 20
655.38121637623499
 30
0.0
 40
4.0
 50
278.2132199999964
 51
0.0
  0
LINE
  5
8E30
  8
ﾁｭｳｼﾝｾﾝ
 10
475.9218073210057
 20
677.57243637623492
 30
0.0
 11
509.4218073210057
 21
677.57243637623492
 31
0.0
  0
LINE
  5
8E31
  8
AM_0
 10
400.4218073210057
 20
702.57237637623518
 30
0.0
 11
509.56138732100572
 21
698.76115637623525
 31
0.0
  0
ARC
  5
8E32
  8
AM_0
 10
439.86113732100569
 20
695.74040637623523
 30
0.0
 40
10.0
 50
223.48296000000141
 51
267.99999999999631
  0
LINE
  5
8E33
  8
AM_0
 10
412.35197732100568
 20
685.13188637623534
 30
0.0
 11
436.95506732100557
 21
684.27269637623533
 31
0.0
  0
LINE
  5
8E34
  8
AM_0
 10
395.42173732100571
 20
691.70274637623504
 30
0.0
 11
408.49162732100569
 21
691.24632637623495
 31
0.0
  0
ARC
  5
8E35
  8
AM_0
 10
412.4218073210057
 20
687.13060637623505
 30
0.0
 40
2.0
 50
180.00001000000091
 51
267.99999999999631
  0
ARC
  5
8E36
  8
AM_0
 10
408.4218073210057
 20
689.24754637623516
 30
0.0
 40
2.0
 50
0.0
 51
87.999999999996248
  0
LINE
  5
8E37
  8
AM_0
 10
414.92180732100559
 20
686.85228637623493
 30
0.0
 11
414.92180732100559
 21
698.80571637623507
 31
0.0
  0
LINE
  5
8E38
  8
AM_0
 10
423.23826732100611
 20
698.73576637623501
 30
0.0
 11
432.60533732100572
 21
688.85905637623523
 31
0.0
  0
ARC
  5
8E39
  8
AM_0
 10
415.98246732100557
 20
691.85442637623521
 30
0.0
 40
10.0
 50
43.482964999999631
 51
87.999999999996248
  0
LINE
  5
8E3A
  8
AM_0
 10
439.51213732100558
 20
685.74651637623481
 30
0.0
 11
457.70097732100572
 21
685.1113163762351
 31
0.0
  0
LINE
  5
8E3B
  8
AM_0
 10
465.42180732100559
 20
695.12492637623495
 30
0.0
 11
465.42180732100559
 21
677.11626637623533
 31
0.0
  0
ARC
  5
8E3C
  8
AM_0
 10
457.42180732100559
 20
677.11626637623533
 30
0.0
 40
8.0
 50
0.0
 51
87.999999999996248
  0
ARC
  5
8E3D
  8
AM_0
 10
470.42180732100559
 20
695.12492637623495
 30
0.0
 40
5.0
 50
87.999999999996248
 51
180.00001000000091
  0
ARC
  5
8E3E
  8
AM_0
 10
509.4218073210057
 20
694.76360637623509
 30
0.0
 40
4.0
 50
0.0
 51
87.999999999996248
  0
LINE
  5
8E3F
  8
AM_0
 10
587.42177732100549
 20
541.57243637623515
 30
0.0
 11
587.42177732100549
 21
583.57243637623515
 31
0.0
  0
LINE
  5
8FB7
  8
AM_0
 10
204.93717395080469
 20
529.21244637623522
 30
0.0
 11
222.7772039508047
 21
529.21244637623522
 31
0.0
  0
LINE
  5
8FB8
  8
AM_0
 10
204.95719395080479
 20
536.09245637623519
 30
0.0
 11
222.9914339508048
 21
536.09245637623519
 31
0.0
  0
LINE
  5
8FB9
  8
AM_0
 10
219.29722395080469
 20
528.57243637623515
 30
0.0
 11
204.95719395080479
 21
528.57243637623515
 31
0.0
  0
LINE
  5
8FBA
  8
AM_0
 10
219.29002395080471
 20
536.57243637623515
 30
0.0
 11
204.95719395080479
 21
536.57243637623515
 31
0.0
  0
LINE
  5
8FBB
  8
AM_0
 10
219.29722395080469
 20
526.57243637623515
 30
0.0
 11
174.95719395080479
 21
526.57243637623515
 31
0.0
  0
LINE
  5
8FBC
  8
AM_0
 10
174.95719395080479
 20
525.85246637623527
 30
0.0
 11
222.7772039508047
 21
525.85246637623527
 31
0.0
  0
LINE
  5
8FBD
  8
AM_0
 10
92.417213950804793
 20
539.01237637623535
 30
0.0
 11
222.9914339508048
 21
539.01237637623535
 31
0.0
  0
LINE
  5
8FBE
  8
AM_0
 10
219.29002395080471
 20
538.57243637623515
 30
0.0
 11
93.492843950804726
 21
538.57243637623515
 31
0.0
  0
LINE
  5
8FBF
  8
AM_0
 10
92.417213950804793
 20
586.14237637623523
 30
0.0
 11
222.9914339508048
 21
586.14237637623523
 31
0.0
  0
LINE
  5
8FC0
  8
AM_0
 10
92.627173950804846
 20
599.30241637623533
 30
0.0
 11
222.7772039508047
 21
599.30241637623533
 31
0.0
  0
LINE
  5
8FC1
  8
AM_0
 10
219.29002395080471
 20
586.57243637623515
 30
0.0
 11
93.507183950805043
 21
586.57243637623515
 31
0.0
  0
LINE
  5
8FC2
  8
AM_0
 10
219.29722395080469
 20
598.57243637623515
 30
0.0
 11
93.507183950805043
 21
598.57243637623515
 31
0.0
  0
LINE
  5
8FC3
  8
AM_0
 10
101.95719395080491
 20
626.46244637623522
 30
0.0
 11
220.47715395080479
 21
626.46244637623522
 31
0.0
  0
LINE
  5
8FC4
  8
AM_0
 10
101.95719395080491
 20
627.82243637623515
 30
0.0
 11
220.18485395080469
 21
627.82243637623515
 31
0.0
  0
LINE
  5
8FC5
  8
AM_0
 10
101.95719395080491
 20
628.49247637623535
 30
0.0
 11
220.04087395080481
 21
628.49247637623535
 31
0.0
  0
LINE
  5
8FC6
  8
AM_0
 10
101.95719395080491
 20
624.43241637623532
 30
0.0
 11
218.76719395080471
 21
624.43241637623532
 31
0.0
  0
LINE
  5
8FC7
  8
AM_0
 10
119.95719395080491
 20
608.92240637623513
 30
0.0
 11
225.95719395080471
 21
608.92240637623513
 31
0.0
  0
LINE
  5
8FC8
  8
AM_0
 10
101.95719395080491
 20
500.71244637623528
 30
0.0
 11
218.76719395080471
 21
500.71244637623528
 31
0.0
  0
LINE
  5
8FC9
  8
AM_0
 10
119.95719395080491
 20
516.22245637623496
 30
0.0
 11
225.95719395080471
 21
516.22245637623496
 31
0.0
  0
LINE
  5
8FCA
  8
AM_0
 10
204.95719395080479
 20
589.06242637623529
 30
0.0
 11
223.00291395080481
 21
589.06242637623529
 31
0.0
  0
LINE
  5
8FCB
  8
AM_0
 10
204.93717395080469
 20
595.94242637623518
 30
0.0
 11
222.7772039508047
 21
595.94242637623518
 31
0.0
  0
LINE
  5
8FCC
  8
AM_0
 10
219.30436395080491
 20
588.57243637623515
 30
0.0
 11
204.95719395080479
 21
588.57243637623515
 31
0.0
  0
LINE
  5
8FCD
  8
AM_0
 10
219.29722395080469
 20
596.57243637623515
 30
0.0
 11
204.95719395080479
 21
596.57243637623515
 31
0.0
  0
LINE
  5
8FCE
  8
AM_0
 10
206.47080395080479
 20
492.57243637623492
 30
0.0
 11
217.9733739508047
 21
492.57243637623492
 31
0.0
  0
ARC
  5
8FCF
  8
AM_0
 10
98.452313950804765
 20
622.34733637623515
 30
0.0
 40
1.504891299999997
 50
270.1859300000005
 51
359.81406999999621
  0
LINE
  5
8FD0
  8
AM_0
 10
99.957193950804921
 20
624.46244637623522
 30
0.0
 11
99.957193950804921
 21
617.06242637623495
 31
0.0
  0
LINE
  5
8FD1
  8
AM_0
 10
83.127173950804831
 20
624.36246637623526
 30
0.0
 11
82.237163950804742
 21
620.83244637623534
 31
0.0
  0
LINE
  5
8FD2
  8
AM_0
 10
83.147193950804763
 20
622.70243637623526
 30
0.0
 11
82.227153950805018
 21
618.83244637623534
 31
0.0
  0
LINE
  5
8FD3
  8
AM_0
 10
66.957193950804935
 20
621.32243637623515
 30
0.0
 11
66.957193950804935
 21
627.57243637623515
 31
0.0
  0
LINE
  5
8FD4
  8
AM_0
 10
56.957193950804943
 20
621.32243637623515
 30
0.0
 11
56.957193950804943
 21
627.57243637623515
 31
0.0
  0
ARC
  5
8FD5
  8
AM_0
 10
33.455763850804878
 20
617.57243637623537
 30
0.0
 40
5.0
 50
89.999988999997569
 51
180.0
  0
ARC
  5
8FD6
  8
AM_0
 10
32.455763850804878
 20
618.57243637623537
 30
0.0
 40
9.0
 50
89.999988999997569
 51
179.99997999999781
  0
LINE
  5
8FD7
  8
AM_0
 10
78.957193950804935
 20
605.26237637623535
 30
0.0
 11
88.957193950804808
 21
605.26237637623535
 31
0.0
  0
LINE
  5
8FD8
  8
AM_0
 10
80.767193950804767
 20
617.67240637623513
 30
0.0
 11
90.559973950804761
 21
617.67240637623513
 31
0.0
  0
LINE
  5
8FD9
  8
AM_0
 10
78.957193950804935
 20
610.92240637623513
 30
0.0
 11
88.957193950804808
 21
610.92240637623513
 31
0.0
  0
LINE
  5
8FDA
  8
AM_0
 10
78.957193950804935
 20
514.22245637623519
 30
0.0
 11
88.957193950804808
 21
514.22245637623519
 31
0.0
  0
LINE
  5
8FDB
  8
AM_0
 10
80.767193950804767
 20
507.47245637623519
 30
0.0
 11
90.559973950804761
 21
507.47245637623519
 31
0.0
  0
LINE
  5
8FDC
  8
AM_0
 10
84.657813950804993
 20
500.9023863762352
 30
0.0
 11
98.699933950804976
 21
500.9023863762352
 31
0.0
  0
LINE
  5
8FDD
  8
AM_0
 10
78.957193950804935
 20
596.88248637623508
 30
0.0
 11
88.957193950804808
 21
596.88248637623508
 31
0.0
  0
LINE
  5
8FDE
  8
AM_0
 10
83.28721395080494
 20
548.89237637623523
 30
0.0
 11
155.6284639508047
 21
548.89237637623523
 31
0.0
  0
LINE
  5
8FDF
  8
AM_0
 10
154.39927395080471
 20
548.57243637623515
 30
0.0
 11
84.507183950805043
 21
548.57243637623515
 31
0.0
  0
LINE
  5
8FE0
  8
AM_0
 10
83.227213950804753
 20
556.30241637623521
 30
0.0
 11
155.6923039508049
 21
556.30241637623521
 31
0.0
  0
LINE
  5
8FE1
  8
AM_0
 10
154.39927395080471
 20
558.57243637623515
 30
0.0
 11
84.507183950805043
 21
558.57243637623515
 31
0.0
  0
LINE
  5
8FE2
  8
AM_0
 10
154.39927395080471
 20
556.57243637623515
 30
0.0
 11
84.507183950805043
 21
556.57243637623515
 31
0.0
  0
LINE
  5
8FE3
  8
AM_0
 10
83.227213950804753
 20
558.84245637623519
 30
0.0
 11
155.6923039508049
 21
558.84245637623519
 31
0.0
  0
LINE
  5
8FE4
  8
AM_0
 10
83.227213950804753
 20
566.31242637623529
 30
0.0
 11
155.6923039508049
 21
566.31242637623529
 31
0.0
  0
LINE
  5
8FE5
  8
AM_0
 10
83.227213950804753
 20
568.85246637623516
 30
0.0
 11
155.6923039508049
 21
568.85246637623516
 31
0.0
  0
LINE
  5
8FE6
  8
AM_0
 10
83.28721395080494
 20
576.25248637623486
 30
0.0
 11
155.615883950805
 21
576.25248637623486
 31
0.0
  0
LINE
  5
8FE7
  8
AM_0
 10
83.28721395080494
 20
578.92240637623524
 30
0.0
 11
155.6284639508047
 21
578.92240637623524
 31
0.0
  0
LINE
  5
8FE8
  8
AM_0
 10
154.39927395080471
 20
566.57243637623515
 30
0.0
 11
84.507183950805043
 21
566.57243637623515
 31
0.0
  0
LINE
  5
8FE9
  8
AM_0
 10
154.39927395080471
 20
568.57243637623526
 30
0.0
 11
84.507183950805043
 21
568.57243637623526
 31
0.0
  0
LINE
  5
8FEA
  8
AM_0
 10
154.39591395080481
 20
576.57243637623515
 30
0.0
 11
84.507183950805043
 21
576.57243637623515
 31
0.0
  0
LINE
  5
8FEB
  8
AM_0
 10
154.39591395080481
 20
578.57243637623515
 30
0.0
 11
84.507183950805043
 21
578.57243637623515
 31
0.0
  0
LINE
  5
8FEC
  8
AM_0
 10
78.957193950804935
 20
519.88248637623519
 30
0.0
 11
88.957193950804808
 21
519.88248637623519
 31
0.0
  0
LINE
  5
8FED
  8
AM_0
 10
78.957193950804935
 20
528.27238637623532
 30
0.0
 11
88.957193950804808
 21
528.27238637623532
 31
0.0
  0
LINE
  5
8FEE
  8
AM_0
 10
83.28721395080494
 20
546.23246637623515
 30
0.0
 11
155.6284639508047
 21
546.23246637623515
 31
0.0
  0
LINE
  5
8FEF
  8
AM_0
 10
154.39927395080471
 20
546.57243637623515
 30
0.0
 11
84.507183950805043
 21
546.57243637623515
 31
0.0
  0
LINE
  5
8FF0
  8
AM_0
 10
73.957193950804935
 20
525.38737637623524
 30
0.0
 11
73.957193950804935
 21
599.75846637623511
 31
0.0
  0
LINE
  5
8FF1
  8
AM_0
 10
28.957193950804928
 20
528.04337637623519
 30
0.0
 11
28.957193950804928
 21
597.10148637623524
 31
0.0
  0
LINE
  5
8FF2
  8
AM_0
 10
28.455763850804878
 20
597.31089747194233
 30
0.0
 11
28.455763850804878
 21
527.83397528052785
 31
0.0
  0
LINE
  5
8FF3
  8
AM_0
 10
78.957193950804935
 20
503.82243637623509
 30
0.0
 11
78.957193950804935
 21
562.57243637623515
 31
0.0
  0
LINE
  5
8FF4
  8
AM_0
 10
31.457193950804928
 20
509.7904463762352
 30
0.0
 11
31.457193950804928
 21
615.3224363762348
 31
0.0
  0
LINE
  5
8FF5
  8
AM_0
 10
23.455763850804878
 20
618.57243637623537
 30
0.0
 11
23.455763850804878
 21
506.57243637623532
 31
0.0
  0
ARC
  5
8FF6
  8
AM_0
 10
32.455763850804878
 20
506.57243637623532
 30
0.0
 40
9.0
 50
179.99997999999781
 51
269.99995000000138
  0
LINE
  5
8FF7
  8
AM_0
 10
31.457193950804928
 20
518.68144637623516
 30
0.0
 11
73.957193950804935
 21
518.68144637623516
 31
0.0
  0
LINE
  5
8FF8
  8
AM_0
 10
31.457193950804928
 20
528.93144637623504
 30
0.0
 11
73.957193950804935
 21
528.93144637623504
 31
0.0
  0
LINE
  5
8FF9
  8
AM_0
 10
30.957193950804928
 20
509.82243637623509
 30
0.0
 11
78.957193950804935
 21
509.82243637623509
 31
0.0
  0
LINE
  5
8FFA
  8
AM_0
 10
32.455763850804878
 20
497.5724363762352
 30
0.0
 11
69.957193950804935
 21
497.5724363762352
 31
0.0
  0
LINE
  5
8FFB
  8
AM_0
 10
33.455763850804878
 20
502.5724363762352
 30
0.0
 11
56.957193950804943
 21
502.5724363762352
 31
0.0
  0
LINE
  5
8FFC
  8
AM_0
 10
53.957193950804943
 20
503.8224363762352
 30
0.0
 11
78.957193950804935
 21
503.8224363762352
 31
0.0
  0
ARC
  5
8FFD
  8
AM_0
 10
30.957193950804928
 20
511.8224363762352
 30
0.0
 40
2.0
 50
179.99997999999781
 51
269.99995000000138
  0
LINE
  5
8FFE
  8
AM_0
 10
28.455763850804878
 20
519.52891747194235
 30
0.0
 11
28.455763850804878
 21
507.57243637623509
 31
0.0
  0
ARC
  5
8FFF
  8
AM_0
 10
33.455763850804878
 20
507.57243637623509
 30
0.0
 40
5.0
 50
179.99997999999781
 51
269.99995000000138
  0
LINE
  5
9000
  8
AM_0
 10
53.957193950804943
 20
503.8224363762352
 30
0.0
 11
53.957193950804943
 21
509.82243637623509
 31
0.0
  0
ARC
  5
9001
  8
AM_0
 10
29.85722395080483
 20
522.18144637623504
 30
0.0
 40
3.0
 50
179.99997999999781
 51
269.99995000000138
  0
LINE
  5
9002
  8
AM_0
 10
30.157203950804838
 20
528.28141637623526
 30
0.0
 11
30.157203950804838
 21
519.0814663762352
 31
0.0
  0
LINE
  5
9003
  8
AM_0
 10
28.957193950804928
 20
519.31950637623515
 30
0.0
 11
28.957193950804928
 21
511.8224363762352
 31
0.0
  0
LINE
  5
9004
  8
AM_0
 10
29.85722395080483
 20
519.18144637623516
 30
0.0
 11
30.157203950804838
 21
519.18144637623516
 31
0.0
  0
LINE
  5
9005
  8
AM_0
 10
30.157203950804838
 20
519.0814663762352
 30
0.0
 11
31.457193950804928
 21
519.0814663762352
 31
0.0
  0
ARC
  5
9006
  8
AM_0
 10
29.85722395080483
 20
525.18144637623504
 30
0.0
 40
3.0
 50
89.999988999997569
 51
179.99997999999781
  0
LINE
  5
9007
  8
AM_0
 10
26.85722395080484
 20
525.18144637623504
 30
0.0
 11
26.85722395080484
 21
522.18144637623504
 31
0.0
  0
LINE
  5
9008
  8
AM_0
 10
30.157203950804838
 20
528.28141637623526
 30
0.0
 11
31.457193950804928
 21
528.28141637623526
 31
0.0
  0
LINE
  5
9009
  8
AM_0
 10
29.85722395080483
 20
528.18144637623504
 30
0.0
 11
30.157203950804838
 21
528.18144637623504
 31
0.0
  0
LINE
  5
900A
  8
AM_0
 10
73.957193950804935
 20
518.68144637623516
 30
0.0
 11
73.957193950804935
 21
509.82243637623509
 31
0.0
  0
LINE
  5
900B
  8
AM_0
 10
56.957193950804943
 20
503.8224363762352
 30
0.0
 11
56.957193950804943
 21
497.5724363762352
 31
0.0
  0
LINE
  5
900C
  8
AM_0
 10
69.957193950804935
 20
502.5724363762352
 30
0.0
 11
69.957193950804935
 21
497.5724363762352
 31
0.0
  0
LINE
  5
900D
  8
AM_0
 10
66.957193950804935
 20
503.8224363762352
 30
0.0
 11
66.957193950804935
 21
497.5724363762352
 31
0.0
  0
LINE
  5
900E
  8
AM_0
 10
66.957193950804935
 20
502.5724363762352
 30
0.0
 11
69.957193950804935
 21
502.5724363762352
 31
0.0
  0
LINE
  5
900F
  8
AM_0
 10
78.957193950804935
 20
505.14246637623529
 30
0.0
 11
81.777203950804605
 21
505.08247637623509
 31
0.0
  0
ARC
  5
9010
  8
AM_0
 10
80.784893950804772
 20
503.95414637623509
 30
0.0
 40
1.4982997
 50
14.229740000004741
 51
89.910950000001222
  0
LINE
  5
9011
  8
AM_0
 10
83.147193950804763
 20
502.44239637623519
 30
0.0
 11
82.227213950804739
 21
506.32246637623513
 31
0.0
  0
ARC
  5
9012
  8
AM_0
 10
84.657813950804993
 20
502.90238637623509
 30
0.0
 40
2.0
 50
194.15074999999959
 51
269.999989999999
  0
ARC
  5
9013
  8
AM_0
 10
85.094033950804814
 20
502.90299637623531
 30
0.0
 40
2.0005671999999981
 50
193.30958999999561
 51
269.80430999999942
  0
LINE
  5
9014
  8
AM_0
 10
80.787213950804812
 20
505.4524363762352
 30
0.0
 11
82.437173950804763
 21
505.4524363762352
 31
0.0
  0
LINE
  5
9015
  8
AM_0
 10
82.718543950804928
 20
502.41346637623508
 30
0.0
 11
82.237223950804818
 21
504.32249637623499
 31
0.0
  0
ARC
  5
9016
  8
AM_0
 10
80.770423950804798
 20
505.97477637623513
 30
0.0
 40
1.497715799999999
 50
13.42437900000278
 51
90.122645000001114
  0
LINE
  5
9017
  8
AM_0
 10
22.457223950804909
 20
557.57243637623515
 30
0.0
 11
22.457223950804909
 21
567.57243637623515
 31
0.0
  0
LINE
  5
9018
  8
AM_0
 10
23.455763850804878
 20
557.57243637623515
 30
0.0
 11
22.457223950804909
 21
557.57243637623515
 31
0.0
  0
LINE
  5
9019
  8
AM_0
 10
23.455763850804878
 20
567.57243637623515
 30
0.0
 11
22.457223950804909
 21
567.57243637623515
 31
0.0
  0
ARC
  5
901A
  8
AM_0
 10
84.507183950805043
 20
577.57243637623515
 30
0.0
 40
1.0000056999999991
 50
90.000003000000945
 51
270.0
  0
ARC
  5
901B
  8
AM_0
 10
83.280923950804763
 20
577.58744637623522
 30
0.0
 40
1.3350147999999991
 50
89.730435000000341
 51
270.26956999999999
  0
LINE
  5
901C
  8
AM_0
 10
78.957193950804935
 20
621.32243637623515
 30
0.0
 11
78.957193950804935
 21
562.57243637623515
 31
0.0
  0
LINE
  5
901D
  8
AM_0
 10
28.957193950804928
 20
557.57243637623515
 30
0.0
 11
28.455763850804878
 21
557.57243637623515
 31
0.0
  0
LINE
  5
901E
  8
AM_0
 10
28.957193950804928
 20
567.57243637623515
 30
0.0
 11
28.455763850804878
 21
567.57243637623515
 31
0.0
  0
ARC
  5
901F
  8
AM_0
 10
83.280923950804763
 20
547.56242637623529
 30
0.0
 40
1.3300148000000001
 50
89.729417999999583
 51
270.27058999999991
  0
ARC
  5
9020
  8
AM_0
 10
84.507183950805043
 20
547.57243637623515
 30
0.0
 40
1.0000056999999991
 50
90.000003000000945
 51
270.0
  0
ARC
  5
9021
  8
AM_0
 10
83.218973950804738
 20
567.58244637623523
 30
0.0
 40
1.2700266
 50
89.629327999999504
 51
270.37065999999959
  0
ARC
  5
9022
  8
AM_0
 10
83.218973950804738
 20
557.57243637623515
 30
0.0
 40
1.2700266
 50
89.629320999999507
 51
270.3706899999986
  0
ARC
  5
9023
  8
AM_0
 10
84.507183950805043
 20
557.57243637623515
 30
0.0
 40
1.0000056999999991
 50
90.000003000000945
 51
270.0
  0
ARC
  5
9024
  8
AM_0
 10
84.507183950805043
 20
567.57243637623515
 30
0.0
 40
1.0000056999999991
 50
90.000003000000945
 51
270.0
  0
LINE
  5
9025
  8
AM_0
 10
30.957193950804928
 20
615.3224363762348
 30
0.0
 11
78.957193950804935
 21
615.3224363762348
 31
0.0
  0
LINE
  5
9026
  8
AM_0
 10
31.457193950804928
 20
606.46342637623513
 30
0.0
 11
73.957193950804935
 21
606.46342637623513
 31
0.0
  0
LINE
  5
9027
  8
AM_0
 10
53.957193950804943
 20
621.32243637623515
 30
0.0
 11
78.957193950804935
 21
621.32243637623515
 31
0.0
  0
LINE
  5
9028
  8
AM_0
 10
31.457193950804928
 20
596.21342637623513
 30
0.0
 11
73.957193950804935
 21
596.21342637623513
 31
0.0
  0
ARC
  5
9029
  8
AM_0
 10
29.85722395080483
 20
599.96342637623513
 30
0.0
 40
3.0
 50
180.00002000000191
 51
270.00001100000242
  0
LINE
  5
902A
  8
AM_0
 10
30.157203950804838
 20
596.86345637623526
 30
0.0
 11
30.157203950804838
 21
606.06340637623509
 31
0.0
  0
LINE
  5
902B
  8
AM_0
 10
30.157203950804838
 20
596.86345637623526
 30
0.0
 11
31.457193950804928
 21
596.86345637623526
 31
0.0
  0
LINE
  5
902C
  8
AM_0
 10
29.85722395080483
 20
596.96342637623513
 30
0.0
 11
30.157203950804838
 21
596.96342637623513
 31
0.0
  0
LINE
  5
902D
  8
AM_0
 10
28.957193950804928
 20
605.82536637623525
 30
0.0
 11
28.957193950804928
 21
613.32243637623492
 31
0.0
  0
LINE
  5
902E
  8
AM_0
 10
28.455763850804878
 20
605.61595528052783
 30
0.0
 11
28.455763850804878
 21
617.57243637623515
 31
0.0
  0
ARC
  5
902F
  8
AM_0
 10
29.85722395080483
 20
602.96342637623513
 30
0.0
 40
3.0
 50
90.000049999998538
 51
180.00002000000191
  0
LINE
  5
9030
  8
AM_0
 10
26.85722395080484
 20
599.96342637623513
 30
0.0
 11
26.85722395080484
 21
602.96342637623513
 31
0.0
  0
LINE
  5
9031
  8
AM_0
 10
30.157203950804838
 20
606.06340637623509
 30
0.0
 11
31.457193950804928
 21
606.06340637623509
 31
0.0
  0
LINE
  5
9032
  8
AM_0
 10
29.85722395080483
 20
605.96342637623513
 30
0.0
 11
30.157203950804838
 21
605.96342637623513
 31
0.0
  0
ARC
  5
9033
  8
AM_0
 10
30.957193950804928
 20
613.32243637623492
 30
0.0
 40
2.0
 50
90.000049999998538
 51
180.00002000000191
  0
LINE
  5
9034
  8
AM_0
 10
53.957193950804943
 20
621.32243637623515
 30
0.0
 11
53.957193950804943
 21
615.3224363762348
 31
0.0
  0
LINE
  5
9035
  8
AM_0
 10
73.957193950804935
 20
606.46342637623513
 30
0.0
 11
73.957193950804935
 21
615.3224363762348
 31
0.0
  0
LINE
  5
9036
  8
AM_0
 10
78.957193950804935
 20
620.00242637623501
 30
0.0
 11
81.777203950804605
 21
620.07243637623515
 31
0.0
  0
LINE
  5
9037
  8
AM_0
 10
80.787213950804812
 20
619.69242637623495
 30
0.0
 11
82.437173950804763
 21
619.69242637623495
 31
0.0
  0
ARC
  5
9038
  8
AM_0
 10
80.776773950805023
 20
621.19779637623515
 30
0.0
 40
1.505448699999999
 50
270.39686999999981
 51
345.9524700000004
  0
ARC
  5
9039
  8
AM_0
 10
80.762373950804772
 20
619.17728637623532
 30
0.0
 40
1.5048382
 50
270.18264000000067
 51
346.75308000000121
  0
LINE
  5
903A
  8
AM_0
 10
203.93717395080481
 20
535.07243637623515
 30
0.0
 11
203.93717395080481
 21
530.21244637623522
 31
0.0
  0
LINE
  5
903B
  8
AM_0
 10
203.45719395080471
 20
535.07243637623515
 30
0.0
 11
203.45719395080471
 21
530.07243637623515
 31
0.0
  0
CIRCLE
  5
903C
  8
AM_0
 10
193.45719395080471
 20
534.07243637623515
 30
0.0
 40
1.149999999999999
  0
CIRCLE
  5
903D
  8
AM_0
 10
193.45719395080471
 20
534.07243637623515
 30
0.0
 40
1.1000000000000001
  0
LINE
  5
903E
  8
AM_0
 10
187.9772139508049
 20
535.07243637623515
 30
0.0
 11
187.9772139508049
 21
530.21244637623522
 31
0.0
  0
LINE
  5
903F
  8
AM_0
 10
188.45719395080471
 20
535.07243637623515
 30
0.0
 11
188.45719395080471
 21
530.07243637623515
 31
0.0
  0
CIRCLE
  5
9040
  8
AM_0
 10
198.45719395080471
 20
534.07243637623515
 30
0.0
 40
1.0
  0
LINE
  5
9041
  8
AM_0
 10
186.95719395080471
 20
528.57243637623515
 30
0.0
 11
93.492843950804726
 21
528.57243637623515
 31
0.0
  0
LINE
  5
9042
  8
AM_0
 10
92.627173950804846
 20
525.85246637623527
 30
0.0
 11
174.95719395080479
 21
525.85246637623527
 31
0.0
  0
LINE
  5
9043
  8
AM_0
 10
174.95719395080479
 20
526.57243637623515
 30
0.0
 11
93.492843950804726
 21
526.57243637623515
 31
0.0
  0
LINE
  5
9044
  8
AM_0
 10
92.627173950804846
 20
529.21244637623522
 30
0.0
 11
186.97721395080481
 21
529.21244637623522
 31
0.0
  0
LINE
  5
9045
  8
AM_0
 10
208.45719395080491
 20
488.07243637623537
 30
0.0
 11
141.45719395080491
 21
488.07243637623537
 31
0.0
  0
LINE
  5
9046
  8
AM_0
 10
145.02272745272509
 20
488.07243637623537
 30
0.0
 11
144.69169395080471
 21
500.71241637623518
 31
0.0
  0
LINE
  5
9047
  8
AM_0
 10
141.45719395080491
 20
488.07243637623537
 30
0.0
 11
141.45719395080491
 21
485.57243637623532
 31
0.0
  0
LINE
  5
9048
  8
AM_0
 10
119.957253950805
 20
516.22251637623515
 30
0.0
 11
88.957253950804784
 21
518.25251637623523
 31
0.0
  0
LINE
  5
9049
  8
AM_0
 10
101.95719395080491
 20
498.68241637623493
 30
0.0
 11
143.28361395080469
 21
498.68241637623493
 31
0.0
  0
ARC
  5
904A
  8
AM_0
 10
88.474043950804784
 20
510.03007637623512
 30
0.0
 40
1.502416299999999
 50
12.391887000000411
 51
90.098616999999123
  0
ARC
  5
904B
  8
AM_0
 10
92.91660395080477
 20
511.57767637623527
 30
0.0
 40
1.9952742999999991
 50
189.96478000000039
 51
269.85141999999968
  0
ARC
  5
904C
  8
AM_0
 10
101.9581139508047
 20
500.68339637623518
 30
0.0
 40
2.0009109999999981
 50
180.00001000000091
 51
269.97390999999971
  0
ARC
  5
904D
  8
AM_0
 10
98.699933950804976
 20
499.40238637623509
 30
0.0
 40
1.5
 50
21.461709000003811
 51
90.000003000000945
  0
LINE
  5
904E
  8
AM_0
 10
92.654823950804797
 20
504.31242637623529
 30
0.0
 11
98.457193950804935
 21
504.31242637623529
 31
0.0
  0
LINE
  5
904F
  8
AM_0
 10
92.717023950804787
 20
509.59245637623508
 30
0.0
 11
98.457193950804935
 21
509.59245637623508
 31
0.0
  0
ARC
  5
9050
  8
AM_0
 10
92.854533950805049
 20
506.299486376235
 30
0.0
 40
1.997119399999999
 50
192.05524000000159
 51
270.19862999999867
  0
LINE
  5
9051
  8
AM_0
 10
90.901473950804757
 20
505.88248637623508
 30
0.0
 11
89.941513950804634
 21
510.3524663762351
 31
0.0
  0
LINE
  5
9052
  8
AM_0
 10
99.957193950804921
 20
500.68339637623518
 30
0.0
 11
99.957193950804921
 21
508.09245637623508
 31
0.0
  0
ARC
  5
9053
  8
AM_0
 10
98.454083950804815
 20
502.80924637623519
 30
0.0
 40
1.503128599999999
 50
0.119129649995689
 51
89.880869999998822
  0
ARC
  5
9054
  8
AM_0
 10
101.9572539508047
 20
502.71244637623522
 30
0.0
 40
2.0000371999999991
 50
180.0010599999959
 51
269.99892999999958
  0
ARC
  5
9055
  8
AM_0
 10
98.455243950804743
 20
508.09049637623519
 30
0.0
 40
1.501982699999999
 50
0.075587202000581
 51
89.924413000001564
  0
LINE
  5
9056
  8
AM_0
 10
88.957193950804808
 20
514.22245637623519
 30
0.0
 11
88.957193950804808
 21
528.27238637623532
 31
0.0
  0
ARC
  5
9057
  8
AM_0
 10
88.120033950804796
 20
520.98392637623522
 30
0.0
 40
4.9991421999999961
 50
5.3780268999994201
 51
80.360064999999054
  0
ARC
  5
9058
  8
AM_0
 10
88.690353950804592
 20
515.31242637623529
 30
0.0
 40
1.5
 50
10.237378999998841
 51
79.752109999998723
  0
LINE
  5
9059
  8
AM_0
 10
88.471473950804807
 20
511.53239637623523
 30
0.0
 11
90.891463950804905
 21
511.53239637623523
 31
0.0
  0
LINE
  5
905A
  8
AM_0
 10
90.16642395080477
 20
515.57908637623507
 30
0.0
 11
90.951453950804776
 21
511.23240637623508
 31
0.0
  0
ARC
  5
905B
  8
AM_0
 10
88.576883950804941
 20
524.91776637623525
 30
0.0
 40
6.0073843
 50
273.6297400000006
 51
314.76385000000192
  0
ARC
  5
905C
  8
AM_0
 10
92.098003950804923
 20
521.36210637623515
 30
0.0
 40
1.0032491999999991
 50
314.98118999999872
 51
5.1676434000008573
  0
ARC
  5
905D
  8
AM_0
 10
93.500043950804766
 20
527.57243637623515
 30
0.0
 40
1.0000255999999981
 50
89.589474000000749
 51
270.41051999999962
  0
ARC
  5
905E
  8
AM_0
 10
92.627173950804846
 20
527.52238637623498
 30
0.0
 40
1.6800002000000001
 50
90.000003000000945
 51
270.0
  0
ARC
  5
905F
  8
AM_0
 10
100.94999395080499
 20
527.57243637623515
 30
0.0
 40
1.0000259
 50
89.587534000000232
 51
270.4124599999987
  0
ARC
  5
9060
  8
AM_0
 10
143.28361395080469
 20
497.1824163762351
 30
0.0
 40
1.5
 50
1.5000027000022329
 51
90.000003000000945
  0
LINE
  5
9061
  8
AM_0
 10
204.89175596093881
 20
488.07243637623537
 30
0.0
 11
205.22276395080479
 21
500.71250637623518
 31
0.0
  0
LINE
  5
9062
  8
AM_0
 10
208.45719395080491
 20
488.07243637623537
 30
0.0
 11
208.45719395080491
 21
485.57243637623532
 31
0.0
  0
ARC
  5
9063
  8
AM_0
 10
206.47080395080479
 20
491.07243637623498
 30
0.0
 40
1.5
 50
90.000003000000945
 51
178.49999999999719
  0
ARC
  5
9064
  8
AM_0
 10
186.95719395080471
 20
530.07243637623515
 30
0.0
 40
1.5
 50
269.999989999999
 51
0.0000006832495047
  0
ARC
  5
9065
  8
AM_0
 10
186.97721395080481
 20
530.21244637623522
 30
0.0
 40
1.0
 50
269.999989999999
 51
0.0000006832495047
  0
ARC
  5
9066
  8
AM_0
 10
204.95719395080479
 20
530.07243637623515
 30
0.0
 40
1.5
 50
179.99998999999889
 51
270.0
  0
ARC
  5
9067
  8
AM_0
 10
204.93717395080469
 20
530.21244637623522
 30
0.0
 40
1.0
 50
179.99998999999889
 51
270.0
  0
LINE
  5
9068
  8
AM_0
 10
186.95719395080471
 20
588.57243637623515
 30
0.0
 11
93.507183950805043
 21
588.57243637623515
 31
0.0
  0
LINE
  5
9069
  8
AM_0
 10
186.95719395080471
 20
596.57243637623515
 30
0.0
 11
93.507183950805043
 21
596.57243637623515
 31
0.0
  0
LINE
  5
906A
  8
AM_0
 10
92.417213950804793
 20
589.06242637623529
 30
0.0
 11
186.95719395080471
 21
589.06242637623529
 31
0.0
  0
LINE
  5
906B
  8
AM_0
 10
92.627173950804846
 20
595.94242637623518
 30
0.0
 11
186.97721395080481
 21
595.94242637623518
 31
0.0
  0
LINE
  5
906C
  8
AM_0
 10
186.95719395080471
 20
536.57243637623515
 30
0.0
 11
93.492843950804726
 21
536.57243637623515
 31
0.0
  0
LINE
  5
906D
  8
AM_0
 10
92.417213950804793
 20
536.09245637623519
 30
0.0
 11
186.95719395080471
 21
536.09245637623519
 31
0.0
  0
ARC
  5
906E
  8
AM_0
 10
100.94999395080499
 20
577.57243637623515
 30
0.0
 40
1.0000259
 50
89.587534000000232
 51
270.4124599999987
  0
ARC
  5
906F
  8
AM_0
 10
92.411483950804836
 20
537.54240637623525
 30
0.0
 40
1.460011199999999
 50
89.775248000001227
 51
270.22474000000028
  0
ARC
  5
9070
  8
AM_0
 10
93.500043950804766
 20
537.57243637623515
 30
0.0
 40
1.0000255999999981
 50
89.589474000000749
 51
270.41051999999962
  0
ARC
  5
9071
  8
AM_0
 10
100.94999395080499
 20
537.57243637623515
 30
0.0
 40
1.0000259
 50
89.587534000000232
 51
270.4124599999987
  0
ARC
  5
9072
  8
AM_0
 10
100.94999395080499
 20
547.57243637623515
 30
0.0
 40
1.0000259
 50
89.587534000000232
 51
270.4124599999987
  0
ARC
  5
9073
  8
AM_0
 10
100.94999395080499
 20
557.57243637623515
 30
0.0
 40
1.0000259
 50
89.587534000000232
 51
270.4124599999987
  0
ARC
  5
9074
  8
AM_0
 10
100.94999395080499
 20
567.57243637623515
 30
0.0
 40
1.0000259
 50
89.587534000000232
 51
270.4124599999987
  0
LINE
  5
9075
  8
AM_0
 10
119.957253950805
 20
608.92240637623513
 30
0.0
 11
88.957193950804808
 21
606.89240637623516
 31
0.0
  0
LINE
  5
9076
  8
AM_0
 10
88.957193950804808
 20
610.92240637623513
 30
0.0
 11
88.957193950804808
 21
596.88248637623508
 31
0.0
  0
ARC
  5
9077
  8
AM_0
 10
88.112773950805021
 20
604.16666637623518
 30
0.0
 40
5.0059714
 50
279.7109800000016
 51
354.67887999999812
  0
ARC
  5
9078
  8
AM_0
 10
92.411483950804836
 20
587.60246637623516
 30
0.0
 40
1.460011199999999
 50
89.775248000001227
 51
270.22474000000028
  0
ARC
  5
9079
  8
AM_0
 10
93.500043950804766
 20
587.57243637623515
 30
0.0
 40
1.0000255999999981
 50
89.589474000000749
 51
270.41051999999962
  0
ARC
  5
907A
  8
AM_0
 10
100.94999395080499
 20
587.57243637623515
 30
0.0
 40
1.0000259
 50
89.587534000000232
 51
270.4124599999987
  0
ARC
  5
907B
  8
AM_0
 10
92.627173950804846
 20
597.62247637623523
 30
0.0
 40
1.6800002000000001
 50
90.000003000000945
 51
270.0
  0
ARC
  5
907C
  8
AM_0
 10
93.500043950804766
 20
597.57243637623526
 30
0.0
 40
1.0000255999999981
 50
89.589474000000749
 51
270.41051999999962
  0
ARC
  5
907D
  8
AM_0
 10
100.94999395080499
 20
597.57243637623526
 30
0.0
 40
1.0000259
 50
89.587534000000232
 51
270.4124599999987
  0
LINE
  5
907E
  8
AM_0
 10
90.166483950804846
 20
609.56580637623495
 30
0.0
 11
90.951523950804926
 21
613.91248637623528
 31
0.0
  0
ARC
  5
907F
  8
AM_0
 10
88.578163950804765
 20
600.23991637623533
 30
0.0
 40
6.0044340999999992
 50
45.225578000001079
 51
86.380821999999384
  0
ARC
  5
9080
  8
AM_0
 10
92.099103950804732
 20
603.79313637623522
 30
0.0
 40
1.002184699999999
 50
354.80386000000328
 51
45.047306999998277
  0
ARC
  5
9081
  8
AM_0
 10
88.690353950804592
 20
609.83244637623534
 30
0.0
 40
1.5
 50
280.24789000000118
 51
349.76261999999917
  0
LINE
  5
9082
  8
AM_0
 10
92.847633950804848
 20
620.84245637623485
 30
0.0
 11
98.457193950804935
 21
620.84245637623485
 31
0.0
  0
LINE
  5
9083
  8
AM_0
 10
92.91148395080485
 20
615.56242637623518
 30
0.0
 11
98.457193950804935
 21
615.56242637623518
 31
0.0
  0
LINE
  5
9084
  8
AM_0
 10
90.901473950804757
 20
619.26243637623531
 30
0.0
 11
89.941513950804634
 21
614.79246637623532
 31
0.0
  0
ARC
  5
9085
  8
AM_0
 10
92.91660395080477
 20
613.56718637623533
 30
0.0
 40
1.9952742999999991
 50
90.148580000000095
 51
170.03521999999941
  0
LINE
  5
9086
  8
AM_0
 10
88.471473950804807
 20
613.61246637623515
 30
0.0
 11
90.891463950804905
 21
613.61246637623515
 31
0.0
  0
ARC
  5
9087
  8
AM_0
 10
88.474043950804784
 20
615.11478637623532
 30
0.0
 40
1.502416299999999
 50
269.90137999999871
 51
347.60813000000093
  0
ARC
  5
9088
  8
AM_0
 10
92.854533950805049
 20
618.84537637623532
 30
0.0
 40
1.997119399999999
 50
89.801366999998493
 51
167.9447599999981
  0
ARC
  5
9089
  8
AM_0
 10
98.453473950804863
 20
617.06620637623507
 30
0.0
 40
1.5037541000000001
 50
270.14287000000093
 51
359.85713999999848
  0
ARC
  5
908A
  8
AM_0
 10
154.39591395080481
 20
577.57243637623515
 30
0.0
 40
1.0000056999999991
 50
269.999989999999
 51
90.000003000000945
  0
ARC
  5
908B
  8
AM_0
 10
155.62217395080481
 20
577.58744637623522
 30
0.0
 40
1.3350147999999991
 50
269.73042999999973
 51
90.269556000001344
  0
ARC
  5
908C
  8
AM_0
 10
155.62217395080481
 20
547.56242637623529
 30
0.0
 40
1.3300148000000001
 50
269.72941999999853
 51
90.270567000000995
  0
ARC
  5
908D
  8
AM_0
 10
154.39591395080481
 20
547.57243637623515
 30
0.0
 40
1.0000056999999991
 50
269.999989999999
 51
90.000003000000945
  0
ARC
  5
908E
  8
AM_0
 10
155.68412395080469
 20
567.58244637623523
 30
0.0
 40
1.2700266
 50
269.62931999999989
 51
90.370670000001468
  0
ARC
  5
908F
  8
AM_0
 10
155.68412395080469
 20
557.57243637623515
 30
0.0
 40
1.2700266
 50
269.62931999999989
 51
90.370670000001468
  0
ARC
  5
9090
  8
AM_0
 10
154.39591395080481
 20
557.57243637623515
 30
0.0
 40
1.0000056999999991
 50
269.999989999999
 51
90.000003000000945
  0
ARC
  5
9091
  8
AM_0
 10
154.39591395080481
 20
567.57243637623515
 30
0.0
 40
1.0000056999999991
 50
269.999989999999
 51
90.000003000000945
  0
ARC
  5
9092
  8
AM_0
 10
186.95719395080471
 20
535.07243637623515
 30
0.0
 40
1.02
 50
0.0
 51
90.000003000000945
  0
ARC
  5
9093
  8
AM_0
 10
186.95719395080471
 20
535.07243637623515
 30
0.0
 40
1.5
 50
0.0
 51
90.000003000000945
  0
ARC
  5
9094
  8
AM_0
 10
204.95719395080479
 20
535.07243637623515
 30
0.0
 40
1.5
 50
90.000003000000945
 51
180.00001000000091
  0
ARC
  5
9095
  8
AM_0
 10
204.95719395080479
 20
535.07243637623515
 30
0.0
 40
1.02
 50
90.000003000000945
 51
180.00001000000091
  0
CIRCLE
  5
9096
  8
AM_0
 10
198.45719395080471
 20
591.07243637623515
 30
0.0
 40
1.0
  0
ARC
  5
9097
  8
AM_0
 10
186.95719395080471
 20
590.07243637623515
 30
0.0
 40
1.5
 50
269.999989999999
 51
0.0000006832495047
  0
LINE
  5
9098
  8
AM_0
 10
188.45719395080471
 20
590.07243637623515
 30
0.0
 11
188.45719395080471
 21
595.07243637623515
 31
0.0
  0
LINE
  5
9099
  8
AM_0
 10
187.9772139508049
 20
590.07243637623515
 30
0.0
 11
187.9772139508049
 21
594.93241637623532
 31
0.0
  0
ARC
  5
909A
  8
AM_0
 10
186.95719395080471
 20
590.07243637623515
 30
0.0
 40
1.02
 50
269.999989999999
 51
0.0000006832429909
  0
ARC
  5
909B
  8
AM_0
 10
186.97721395080481
 20
594.93241637623532
 30
0.0
 40
1.0
 50
0.0
 51
90.000003000000945
  0
ARC
  5
909C
  8
AM_0
 10
186.95719395080471
 20
595.07243637623515
 30
0.0
 40
1.5
 50
0.0
 51
90.000003000000945
  0
CIRCLE
  5
909D
  8
AM_0
 10
193.45719395080471
 20
591.07243637623515
 30
0.0
 40
1.1000000000000001
  0
CIRCLE
  5
909E
  8
AM_0
 10
193.45719395080471
 20
591.07243637623515
 30
0.0
 40
1.149999999999999
  0
ARC
  5
909F
  8
AM_0
 10
204.95719395080479
 20
590.07243637623515
 30
0.0
 40
1.5
 50
179.99998999999889
 51
270.0
  0
LINE
  5
90A0
  8
AM_0
 10
203.93717395080481
 20
590.07243637623515
 30
0.0
 11
203.93717395080481
 21
594.93241637623532
 31
0.0
  0
LINE
  5
90A1
  8
AM_0
 10
203.45719395080471
 20
590.07243637623515
 30
0.0
 11
203.45719395080471
 21
595.07243637623515
 31
0.0
  0
ARC
  5
90A2
  8
AM_0
 10
204.95719395080479
 20
590.07243637623515
 30
0.0
 40
1.02
 50
179.99998999999889
 51
270.0
  0
ARC
  5
90A3
  8
AM_0
 10
204.95719395080479
 20
595.07243637623515
 30
0.0
 40
1.5
 50
90.000003000000945
 51
180.00001000000091
  0
ARC
  5
90A4
  8
AM_0
 10
204.93717395080469
 20
594.93241637623532
 30
0.0
 40
1.0
 50
90.000003000000945
 51
180.00001000000091
  0
LINE
  5
90A5
  8
AM_0
 10
85.067183950804989
 20
625.87247637623511
 30
0.0
 11
98.567183950805202
 21
625.87247637623511
 31
0.0
  0
LINE
  5
90A6
  8
AM_0
 10
85.087203950804764
 20
624.24247637623535
 30
0.0
 11
98.457193950804935
 21
624.24247637623535
 31
0.0
  0
LINE
  5
90A7
  8
AM_0
 10
33.455763850804878
 20
622.57243637623537
 30
0.0
 11
56.957193950804943
 21
622.57243637623537
 31
0.0
  0
LINE
  5
90A8
  8
AM_0
 10
32.455763850804878
 20
627.57243637623515
 30
0.0
 11
69.957193950804935
 21
627.57243637623515
 31
0.0
  0
LINE
  5
90A9
  8
AM_0
 10
69.957193950804935
 20
622.57243637623537
 30
0.0
 11
69.957193950804935
 21
627.57243637623515
 31
0.0
  0
LINE
  5
90AA
  8
AM_0
 10
66.957193950804935
 20
622.57243637623537
 30
0.0
 11
69.957193950804935
 21
622.57243637623537
 31
0.0
  0
ARC
  5
90AB
  8
AM_0
 10
85.087443950804754
 20
622.25016637623526
 30
0.0
 40
1.9922863
 50
90.007721000000544
 51
166.8783899999971
  0
ARC
  5
90AC
  8
AM_0
 10
85.062053950804767
 20
623.87785637623494
 30
0.0
 40
1.994612099999999
 50
89.851991999999015
 51
165.93886000000381
  0
ARC
  5
90AD
  8
AM_0
 10
101.95097395080479
 20
626.49589637623535
 30
0.0
 40
1.9964978999999961
 50
89.821482000000245
 51
165.6006099999997
  0
ARC
  5
90AE
  8
AM_0
 10
101.95365395080471
 20
625.8259763762353
 30
0.0
 40
1.996488899999999
 50
89.899147999998391
 51
180.10084999999879
  0
ARC
  5
90AF
  8
AM_0
 10
98.562113950804914
 20
627.37760637623478
 30
0.0
 40
1.505230099999999
 50
270.19421
 51
345.17177999999848
  0
ARC
  5
90B0
  8
AM_0
 10
101.95133395080479
 20
624.4683063762352
 30
0.0
 40
1.994130499999996
 50
89.831105999999224
 51
180.16889000000049
  0
ARC
  5
90B1
  8
AM_0
 10
98.450293950804635
 20
625.74931637623536
 30
0.0
 40
1.506942899999999
 50
270.26336999999899
 51
359.73663000000079
  0
ARC
  5
90B2
  8
AM_0
 10
101.9504839508048
 20
622.43912637623532
 30
0.0
 40
1.9933081999999991
 50
89.807323000000935
 51
180.19266999999849
  0
LINE
  5
90B3
  8
AM_0
 10
220.6972139508047
 20
622.95237637623507
 30
0.0
 11
224.1572039508047
 21
610.03242637623521
 31
0.0
  0
LINE
  5
90B4
  8
AM_0
 10
221.50739395080481
 20
627.30762637623525
 30
0.0
 11
224.1972439508047
 21
614.79240637623525
 31
0.0
  0
LINE
  5
90B5
  8
AM_0
 10
225.95719395080471
 20
500.07243637623509
 30
0.0
 11
225.95719395080471
 21
625.07243637623515
 31
0.0
  0
ARC
  5
90B6
  8
AM_0
 10
226.9495639508047
 20
511.52482637623513
 30
0.0
 40
0.99237448
 50
179.55801999999801
 51
270.4419699999998
  0
LINE
  5
90B7
  8
AM_0
 10
220.6971839508048
 20
502.20249637623522
 30
0.0
 11
224.1571739508048
 21
515.11246637623515
 31
0.0
  0
LINE
  5
90B8
  8
AM_0
 10
226.95719395080471
 20
510.53239637623511
 30
0.0
 11
233.95719395080479
 21
510.53239637623511
 31
0.0
  0
LINE
  5
90B9
  8
AM_0
 10
226.95719395080471
 20
499.07243637623509
 30
0.0
 11
233.95719395080479
 21
499.07243637623509
 31
0.0
  0
ARC
  5
90BA
  8
AM_0
 10
226.95023395080469
 20
500.0654763762351
 30
0.0
 40
0.99304521
 50
179.5973099999994
 51
270.40267999999998
  0
LINE
  5
90BB
  8
AM_0
 10
224.95719395080471
 20
502.07249637623522
 30
0.0
 11
219.23139395080489
 21
493.25556637623498
 31
0.0
  0
ARC
  5
90BC
  8
AM_0
 10
217.9733739508047
 20
494.07243637623532
 30
0.0
 40
1.5
 50
269.999989999999
 51
326.99999999999801
  0
LINE
  5
90BD
  8
AM_0
 10
220.66721395080481
 20
502.07243637623532
 30
0.0
 11
225.95719395080471
 21
502.07243637623532
 31
0.0
  0
ARC
  5
90BE
  8
AM_0
 10
218.75846395080481
 20
502.71867637623529
 30
0.0
 40
2.0062942999999991
 50
270.24932999999891
 51
345.08843999999721
  0
LINE
  5
90BF
  8
AM_0
 10
225.95719395080471
 20
525.42240637623513
 30
0.0
 11
233.95719395080479
 21
525.42240637623513
 31
0.0
  0
ARC
  5
90C0
  8
AM_0
 10
225.6008739508047
 20
514.72868637623515
 30
0.0
 40
1.4937901
 50
89.756423999998432
 51
165.11292000000071
  0
ARC
  5
90C1
  8
AM_0
 10
222.7772039508047
 20
527.53239637623506
 30
0.0
 40
1.6800077
 50
269.999989999999
 51
90.000003000000945
  0
ARC
  5
90C2
  8
AM_0
 10
219.29722395080469
 20
527.57243637623515
 30
0.0
 40
1.0000040999999991
 50
269.999989999999
 51
90.000003000000945
  0
ARC
  5
90C3
  8
AM_0
 10
222.99717395080481
 20
537.54240637623525
 30
0.0
 40
1.460011199999999
 50
269.77524999999991
 51
90.224750000000085
  0
ARC
  5
90C4
  8
AM_0
 10
219.2971639508047
 20
537.57243637623515
 30
0.0
 40
1.0000255999999981
 50
269.58946999999989
 51
90.410531000001029
  0
LINE
  5
90C5
  8
AM_0
 10
225.95719395080471
 20
599.72245637623496
 30
0.0
 11
233.95719395080479
 21
599.72245637623496
 31
0.0
  0
ARC
  5
90C6
  8
AM_0
 10
222.99717395080481
 20
587.60246637623516
 30
0.0
 40
1.460011199999999
 50
269.77524999999991
 51
90.224750000000085
  0
ARC
  5
90C7
  8
AM_0
 10
219.2971639508047
 20
587.57243637623515
 30
0.0
 40
1.0000255999999981
 50
269.58946999999989
 51
90.410531000001029
  0
ARC
  5
90C8
  8
AM_0
 10
222.7772039508047
 20
597.62247637623523
 30
0.0
 40
1.6800077
 50
269.999989999999
 51
90.000003000000945
  0
ARC
  5
90C9
  8
AM_0
 10
219.29722395080469
 20
597.57243637623526
 30
0.0
 40
1.0000040999999991
 50
269.999989999999
 51
90.000003000000945
  0
LINE
  5
90CA
  8
AM_0
 10
226.95719395080471
 20
614.61246637623526
 30
0.0
 11
233.95719395080479
 21
614.61246637623526
 31
0.0
  0
ARC
  5
90CB
  8
AM_0
 10
225.6073439508047
 20
610.4247263762353
 30
0.0
 40
1.5022733999999991
 50
195.1365099999966
 51
269.99412000000041
  0
ARC
  5
90CC
  8
AM_0
 10
226.95628395080479
 20
613.61332637623525
 30
0.0
 40
0.9990923399999999
 50
89.947921999999295
 51
180.05208000000431
  0
LINE
  5
90CD
  8
AM_0
 10
225.66721395080489
 20
613.61246637623515
 30
0.0
 11
223.2472339508048
 21
613.61246637623515
 31
0.0
  0
ARC
  5
90CE
  8
AM_0
 10
225.6628839508048
 20
615.11271637623531
 30
0.0
 40
1.500286
 50
192.326309999995
 51
270.16416999999848
  0
LINE
  5
90CF
  8
AM_0
 10
226.95719395080471
 20
626.07243637623515
 30
0.0
 11
233.95719395080479
 21
626.07243637623515
 31
0.0
  0
LINE
  5
90D0
  8
AM_0
 10
222.4176439508048
 20
623.07243637623526
 30
0.0
 11
225.95719395080471
 21
623.07243637623526
 31
0.0
  0
ARC
  5
90D1
  8
AM_0
 10
220.04087395080481
 20
626.99247637623512
 30
0.0
 40
1.5
 50
12.12979200000205
 51
90.000003000000945
  0
ARC
  5
90D2
  8
AM_0
 10
220.18485395080469
 20
626.32243637623515
 30
0.0
 40
1.5
 50
12.12979200000205
 51
90.000003000000945
  0
ARC
  5
90D3
  8
AM_0
 10
218.76664395080479
 20
622.43327637623531
 30
0.0
 40
1.9991226
 50
15.05079100000003
 51
89.984388999999666
  0
ARC
  5
90D4
  8
AM_0
 10
220.47715395080479
 20
624.96244637623511
 30
0.0
 40
1.5
 50
12.12979200000205
 51
90.000003000000945
  0
ARC
  5
90D5
  8
AM_0
 10
226.95701395080479
 20
625.07267637623522
 30
0.0
 40
0.99980682
 50
89.98893100000069
 51
180.0110699999974
  0
LINE
  5
90D6
  8
AM_0
 10
131.48206768495729
 20
485.57243637623583
 30
0.0
 11
211.9571939508044
 21
485.57243637623532
 31
0.0
  0
LINE
  5
90D7
  8
AM_0
 10
128.2820676849569
 20
455.57243637623583
 30
0.0
 11
204.58206768495751
 21
468.57243637623492
 31
0.0
  0
LINE
  5
90D8
  8
AM_0
 10
128.2820676849569
 20
455.57243637623583
 30
0.0
 11
204.58206768495751
 21
468.57243637623492
 31
0.0
  0
LINE
  5
90D9
  8
AM_0
 10
204.9077628217988
 20
464.57243637623509
 30
0.0
 11
128.6077628217983
 21
451.5724363762356
 31
0.0
  0
LINE
  5
90DA
  8
AM_0
 10
128.20064390074651
 20
456.5724363762356
 30
0.0
 11
160.1787136394787
 21
462.02086241297877
 31
0.0
  0
LINE
  5
90DB
  8
AM_0
 10
204.08206768495799
 20
451.57243637623537
 30
0.0
 11
128.6077628217983
 21
451.5724363762356
 31
0.0
  0
LINE
  5
90DC
  8
ﾁｭｳｼﾝｾﾝ
 10
129.78206768495741
 20
468.5724363762356
 30
0.0
 11
151.78206768495741
 21
468.5724363762356
 31
0.0
  0
ARC
  5
90DD
  8
AM_0
 10
140.78206768495741
 20
468.5724363762356
 30
0.0
 40
9.2999999999997094
 50
180.0
 51
0.0
  0
LINE
  5
90DE
  8
AM_0
 10
125.682067684957
 20
484.5724363762356
 30
0.0
 11
125.6820676849573
 21
456.5724363762356
 31
0.0
  0
CIRCLE
  5
90DF
  8
AM_0
 10
140.78206768495741
 20
468.5724363762356
 30
0.0
 40
6.2999999999996117
  0
LINE
  5
90E0
  8
ﾁｭｳｼﾝｾﾝ
 10
140.78206768495741
 20
479.57243637623571
 30
0.0
 11
140.78206768495741
 21
457.5724363762356
 31
0.0
  0
LINE
  5
90E1
  8
AM_0
 10
124.182067684957
 20
456.5724363762356
 30
0.0
 11
124.182067684957
 21
453.07243637623583
 31
0.0
  0
LINE
  5
90E2
  8
AM_0
 10
123.682067684958
 20
460.5724363762356
 30
0.0
 11
123.6820676849582
 21
453.07243637623583
 31
0.0
  0
LINE
  5
90E3
  8
AM_0
 10
124.182067684957
 20
455.57243637623583
 30
0.0
 11
128.2820676849569
 21
455.57243637623583
 31
0.0
  0
LINE
  5
90E4
  8
AM_0
 10
124.4820676849577
 20
455.57243637623583
 30
0.0
 11
128.2820676849569
 21
455.57243637623583
 31
0.0
  0
LINE
  5
90E5
  8
AM_0
 10
125.6820676849575
 20
451.5724363762356
 30
0.0
 11
128.6077628217983
 21
451.5724363762356
 31
0.0
  0
ARC
  5
90E6
  8
AM_0
 10
125.182067684958
 20
453.07243637623583
 30
0.0
 40
1.5000000000001099
 50
180.0
 51
269.99999999999511
  0
LINE
  5
90E7
  8
AM_0
 10
125.182067684958
 20
451.5724363762356
 30
0.0
 11
125.4805535811149
 21
451.5724363762356
 31
0.0
  0
ARC
  5
90E8
  8
AM_0
 10
125.6820676849575
 20
453.07243637623583
 30
0.0
 40
1.499999999999998
 50
180.0
 51
270.0
  0
LINE
  5
90E9
  8
AM_0
 10
128.20064390074651
 20
456.5724363762356
 30
0.0
 11
124.182067684957
 21
456.5724363762356
 31
0.0
  0
LINE
  5
90EA
  8
AM_0
 10
125.6820676849572
 20
460.57243637623583
 30
0.0
 11
124.4820676849577
 21
460.57243637623583
 31
0.0
  0
LINE
  5
90EB
  8
AM_0
 10
124.4820676849577
 20
460.57243637623583
 30
0.0
 11
123.682067684958
 21
460.5724363762356
 31
0.0
  0
LINE
  5
90EC
  8
AM_0
 10
131.48206768495729
 20
485.57243637623583
 30
0.0
 11
131.482067684957
 21
468.5724363762356
 31
0.0
  0
LINE
  5
90ED
  8
AM_0
 10
126.68206768495691
 20
485.57243637623583
 30
0.0
 11
131.48206768495729
 21
485.57243637623583
 31
0.0
  0
ARC
  5
90EE
  8
AM_0
 10
126.68206768495691
 20
484.5724363762356
 30
0.0
 40
1.0
 50
90.0
 51
180.0
  0
LINE
  5
90EF
  8
AM_0
 10
150.08206768495711
 20
485.57243637623532
 30
0.0
 11
150.08206768495711
 21
468.57243637623537
 31
0.0
  0
LINE
  5
90F0
  8
AM_0
 10
184.3921298213881
 20
476.57243637623492
 30
0.0
 11
182.89212982138801
 21
476.57243637623492
 31
0.0
  0
LINE
  5
90F1
  8
AM_0
 10
184.3921298213881
 20
480.57243637623537
 30
0.0
 11
182.89212982138801
 21
480.57243637623537
 31
0.0
  0
LINE
  5
90F2
  8
AM_0
 10
182.89212982138801
 20
480.57243637623537
 30
0.0
 11
182.8921298213879
 21
465.89077604816617
 31
0.0
  0
LINE
  5
90F3
  8
AM_0
 10
179.1887757759111
 20
480.57243637623537
 30
0.0
 11
179.1887757759109
 21
465.25979829467718
 31
0.0
  0
LINE
  5
90F4
  8
AM_0
 10
180.68877577591081
 20
465.51536841263271
 30
0.0
 11
180.68877577591081
 21
480.57243637623537
 31
0.0
  0
LINE
  5
90F5
  8
AM_0
 10
176.98542173043339
 20
464.88439065914349
 30
0.0
 11
176.9854217304335
 21
480.57243637623537
 31
0.0
  0
LINE
  5
90F6
  8
AM_0
 10
171.78206768495599
 20
480.57243637623537
 30
0.0
 11
171.78206768495599
 21
463.99784278769943
 31
0.0
  0
LINE
  5
90F7
  8
AM_0
 10
173.78206768495929
 20
464.33860294497367
 30
0.0
 11
173.7820676849596
 21
480.57243637623822
 31
0.0
  0
LINE
  5
90F8
  8
AM_0
 10
175.48542173043359
 20
480.57243637623537
 30
0.0
 11
175.48542173043339
 21
464.62882054118847
 31
0.0
  0
LINE
  5
90F9
  8
AM_0
 10
162.17871363947879
 20
462.36162257025279
 30
0.0
 11
162.17871363947879
 21
480.57243637623583
 31
0.0
  0
LINE
  5
90FA
  8
AM_0
 10
160.1787136394787
 20
480.57243637623537
 30
0.0
 11
160.1787136394787
 21
462.02086241297877
 31
0.0
  0
LINE
  5
90FB
  8
AM_0
 10
164.3787136394788
 20
480.57243637623537
 30
0.0
 11
164.3787136394788
 21
462.73645874325439
 31
0.0
  0
LINE
  5
90FC
  8
AM_0
 10
165.87871363947869
 20
462.99202886120969
 30
0.0
 11
165.87871363947869
 21
480.57243637623537
 31
0.0
  0
LINE
  5
90FD
  8
AM_0
 10
168.07871363947871
 20
480.57243637623537
 30
0.0
 11
168.07871363947871
 21
463.36686503421072
 31
0.0
  0
LINE
  5
90FE
  8
AM_0
 10
169.57871363947871
 20
463.62243515216608
 30
0.0
 11
169.57871363947871
 21
480.57243637623537
 31
0.0
  0
LINE
  5
90FF
  8
AM_0
 10
165.87871363947869
 20
462.99202886120969
 30
0.0
 11
168.07871363947871
 21
463.36686503421072
 31
0.0
  0
LINE
  5
9100
  8
AM_0
 10
162.17871363947879
 20
462.36162257025279
 30
0.0
 11
164.3787136394788
 21
462.73645874325439
 31
0.0
  0
LINE
  5
9101
  8
AM_0
 10
173.78206768495929
 20
464.33860294497367
 30
0.0
 11
175.48542173043339
 21
464.62882054118847
 31
0.0
  0
LINE
  5
9102
  8
AM_0
 10
169.57871363947871
 20
463.62243515216608
 30
0.0
 11
171.78206768495599
 21
463.99784278769943
 31
0.0
  0
LINE
  5
9103
  8
AM_0
 10
176.98542173043339
 20
464.88439065914349
 30
0.0
 11
179.1887757759109
 21
465.25979829467718
 31
0.0
  0
LINE
  5
9104
  8
AM_0
 10
180.68877577591081
 20
465.51536841263271
 30
0.0
 11
182.8921298213879
 21
465.89077604816617
 31
0.0
  0
LINE
  5
9105
  8
AM_0
 10
162.17871363947879
 20
476.57243637623537
 30
0.0
 11
160.1787136394787
 21
476.57243637623537
 31
0.0
  0
LINE
  5
9106
  8
AM_0
 10
165.87871363947869
 20
476.57243637623492
 30
0.0
 11
164.3787136394788
 21
476.57243637623537
 31
0.0
  0
LINE
  5
9107
  8
AM_0
 10
162.17871363947879
 20
480.57243637623583
 30
0.0
 11
160.1787136394787
 21
480.57243637623537
 31
0.0
  0
LINE
  5
9108
  8
AM_0
 10
165.87871363947869
 20
480.57243637623537
 30
0.0
 11
164.3787136394788
 21
480.57243637623537
 31
0.0
  0
LINE
  5
9109
  8
AM_0
 10
169.57871363947871
 20
476.57243637623492
 30
0.0
 11
168.07871363947871
 21
476.57243637623492
 31
0.0
  0
LINE
  5
910A
  8
AM_0
 10
173.7820676849596
 20
476.57243637623492
 30
0.0
 11
171.78206768495599
 21
476.57243637623492
 31
0.0
  0
LINE
  5
910B
  8
AM_0
 10
180.68877577591081
 20
476.57243637623492
 30
0.0
 11
179.1887757759111
 21
476.57243637623492
 31
0.0
  0
LINE
  5
910C
  8
AM_0
 10
176.98542173043381
 20
476.57243637623492
 30
0.0
 11
175.48542173043359
 21
476.57243637623492
 31
0.0
  0
LINE
  5
910D
  8
AM_0
 10
169.57871363947871
 20
480.57243637623537
 30
0.0
 11
168.07871363947871
 21
480.57243637623537
 31
0.0
  0
LINE
  5
910E
  8
AM_0
 10
173.7820676849596
 20
480.57243637623537
 30
0.0
 11
171.78206768495599
 21
480.57243637623537
 31
0.0
  0
LINE
  5
910F
  8
AM_0
 10
180.68877577591081
 20
480.57243637623537
 30
0.0
 11
179.1887757759111
 21
480.57243637623537
 31
0.0
  0
LINE
  5
9110
  8
AM_0
 10
176.9854217304335
 20
480.57243637623537
 30
0.0
 11
175.48542173043359
 21
480.57243637623537
 31
0.0
  0
LINE
  5
9111
  8
AM_0
 10
212.95719395080431
 20
468.57243637623537
 30
0.0
 11
212.95719395080431
 21
465.0724363762352
 31
0.0
  0
LINE
  5
9112
  8
AM_0
 10
197.18206768495821
 20
463.25823114893791
 30
0.0
 11
197.18206768495801
 21
467.31162379432152
 31
0.0
  0
LINE
  5
9113
  8
AM_0
 10
184.3921298213881
 20
466.14634616612159
 30
0.0
 11
184.3921298213881
 21
480.57243637623537
 31
0.0
  0
LINE
  5
9114
  8
AM_0
 10
186.59548386686541
 20
480.57243637623537
 30
0.0
 11
186.59548386686541
 21
466.52175380165488
 31
0.0
  0
LINE
  5
9115
  8
AM_0
 10
196.31221920397479
 20
451.57243637623537
 30
0.0
 11
196.31221920397479
 21
463.10792697870352
 31
0.0
  0
LINE
  5
9116
  8
AM_0
 10
184.3921298213881
 20
466.14634616612159
 30
0.0
 11
186.59548386686541
 21
466.52175380165488
 31
0.0
  0
LINE
  5
9117
  8
AM_0
 10
206.58206768495799
 20
464.07243637623537
 30
0.0
 11
206.58206768495799
 21
454.0724363762352
 31
0.0
  0
ARC
  5
9118
  8
AM_0
 10
204.08206768495799
 20
454.0724363762352
 30
0.0
 40
2.5
 50
270.0
 51
0.0
  0
LINE
  5
9119
  8
AM_0
 10
207.08206768495791
 20
464.57243637623509
 30
0.0
 11
212.4571939508044
 21
464.57243637623509
 31
0.0
  0
LINE
  5
911A
  8
AM_0
 10
207.08206768495791
 20
464.57243637623509
 30
0.0
 11
204.9077628217988
 21
464.57243637623509
 31
0.0
  0
ARC
  5
911B
  8
AM_0
 10
207.08206768495791
 20
464.07243637623537
 30
0.0
 40
0.5
 50
90.0
 51
180.0
  0
ARC
  5
911C
  8
AM_0
 10
212.4571939508044
 20
465.0724363762352
 30
0.0
 40
0.5
 50
270.0
 51
0.0
  0
LINE
  5
911D
  8
AM_0
 10
197.9571939508044
 20
468.45756285920692
 30
0.0
 11
197.9571939508044
 21
485.57243637623532
 31
0.0
  0
LINE
  5
911E
  8
AM_0
 10
188.09548386686549
 20
466.77732391961052
 30
0.0
 11
188.09548386686549
 21
480.57243637623537
 31
0.0
  0
LINE
  5
911F
  8
AM_0
 10
188.09548386686549
 20
466.77732391961052
 30
0.0
 11
197.9571939508044
 21
468.45756285920692
 31
0.0
  0
LINE
  5
9120
  8
AM_0
 10
188.09548386686549
 20
476.57243637623492
 30
0.0
 11
186.59548386686541
 21
476.57243637623492
 31
0.0
  0
LINE
  5
9121
  8
AM_0
 10
188.09548386686549
 20
480.57243637623537
 30
0.0
 11
186.59548386686541
 21
480.57243637623537
 31
0.0
  0
LINE
  5
9122
  8
AM_0
 10
212.95719395080431
 20
468.57243637623537
 30
0.0
 11
212.9571939508044
 21
484.57243637623492
 31
0.0
  0
LINE
  5
9123
  8
AM_0
 10
212.95719395080431
 20
468.57243637623537
 30
0.0
 11
204.58206768495751
 21
468.57243637623492
 31
0.0
  0
ARC
  5
9124
  8
AM_0
 10
211.9571939508044
 20
484.57243637623492
 30
0.0
 40
1.0
 50
0.0
 51
90.0
  0
LINE
  5
9131
  8
ﾁｭｳｼﾝｾﾝ
 10
492.4218073210057
 20
464.07243637623509
 30
0.0
 11
492.4218073210057
 21
431.07243637623509
 31
0.0
  0
LINE
  5
9132
  8
ﾁｭｳｼﾝｾﾝ
 10
475.9218073210057
 20
447.57243637623509
 30
0.0
 11
509.4218073210057
 21
447.57243637623509
 31
0.0
  0
LINE
  5
9139
  8
ﾁｭｳｼﾝｾﾝ
 10
342.42180732100559
 20
464.07243637623509
 30
0.0
 11
342.42180732100559
 21
431.07243637623509
 31
0.0
  0
LINE
  5
913A
  8
ﾁｭｳｼﾝｾﾝ
 10
325.92180732100559
 20
447.57243637623509
 30
0.0
 11
359.4218073210057
 21
447.57243637623509
 31
0.0
  0
LINE
  5
9141
  8
ﾁｭｳｼﾝｾﾝ
 10
342.42180732100559
 20
694.07243637623503
 30
0.0
 11
342.42180732100559
 21
661.07243637623492
 31
0.0
  0
LINE
  5
9142
  8
ﾁｭｳｼﾝｾﾝ
 10
325.92180732100559
 20
677.57243637623492
 30
0.0
 11
359.4218073210057
 21
677.57243637623492
 31
0.0
  0
TEXT
  5
96E4
  8
0
  6
CONTINUOUS
 62
     0
 10
747.03670345047226
 20
553.23971600617267
 30
0.0
 40
15.0
  1
VX04-240B~VX04-600B
  0
VIEWPORT
  5
89
 67
     1
  8
0
 10
210.0
 20
148.5
 30
0.0
 40
420.0
 41
297.0
 68
    -1
 69
     1
1001
ACAD
1000
MVIEW
1002
{
1070
    16
1010
0.0
1020
0.0
1030
0.0
1010
0.0
1020
0.0
1030
1.0
1040
0.0
1040
297.0
1040
221.70154043645701
1040
148.5
1040
50.0
1040
0.0
1040
0.0
1070
     0
1070
   100
1070
     1
1070
     1
1070
     0
1070
     0
1070
     0
1070
     0
1040
0.0
1040
0.0
1040
0.0
1040
10.0
1040
10.0
1040
10.0
1040
10.0
1070
     0
1002
{
1002
}
1002
}
1001
GENIUS_GENOREF_13
1005
1B94
1001
GENIUS_GENSCREG_15
1000
PF
1040
1.0
1000
DF
1040
1.0
1000
MIN
1011
0.0
1021
0.0
1031
0.0
1021
0.0
1031
0.0
1000
MAX
1011
420.0
1021
0.0
1031
0.0
1021
297.0
1031
0.0
1000
FLAGS
1070
     4
  0
ENDSEC
  0
EOF
