  0
SECTION
  2
HEADER
  9
$ACADVER
  1
AC1009
  9
$INSBASE
 10
0.0
 20
0.0
 30
0.0
  9
$EXTMIN
 10
9.0270982387455661
 20
11.17976848160288
 30
-0.0015258207003583
  9
$EXTMAX
 10
1079.594526143371
 20
803.26780970181585
 30
0.0000000349246037
  9
$LIMMIN
 10
0.0
 20
0.0
  9
$LIMMAX
 10
408.0
 20
284.0
  9
$ORTHOMODE
 70
     0
  9
$REGENMODE
 70
     1
  9
$FILLMODE
 70
     1
  9
$QTEXTMODE
 70
     0
  9
$MIRRTEXT
 70
     1
  9
$DRAGMODE
 70
     2
  9
$LTSCALE
 40
1.0
  9
$OSMODE
 70
   551
  9
$ATTMODE
 70
     1
  9
$TEXTSIZE
 40
2.5
  9
$TRACEWID
 40
1.0
  9
$TEXTSTYLE
  7
STANDARD
  9
$CLAYER
  8
AM_0
  9
$CELTYPE
  6
BYLAYER
  9
$CECOLOR
 62
   256
  9
$DIMSCALE
 40
1.0
  9
$DIMASZ
 40
2.5
  9
$DIMEXO
 40
1.0
  9
$DIMDLI
 40
7.0
  9
$DIMRND
 40
0.0
  9
$DIMDLE
 40
0.0
  9
$DIMEXE
 40
1.0
  9
$DIMTP
 40
0.1
  9
$DIMTM
 40
0.1000000001
  9
$DIMTXT
 40
2.5
  9
$DIMCEN
 40
0.0
  9
$DIMTSZ
 40
0.0
  9
$DIMTOL
 70
     0
  9
$DIMLIM
 70
     0
  9
$DIMTIH
 70
     0
  9
$DIMTOH
 70
     0
  9
$DIMSE1
 70
     0
  9
$DIMSE2
 70
     0
  9
$DIMTAD
 70
     3
  9
$DIMZIN
 70
     8
  9
$DIMBLK
  1

  9
$DIMASO
 70
     1
  9
$DIMSHO
 70
     1
  9
$DIMPOST
  1

  9
$DIMAPOST
  1
"
  9
$DIMALT
 70
     0
  9
$DIMALTD
 70
     2
  9
$DIMALTF
 40
0.0393701
  9
$DIMLFAC
 40
1.0
  9
$DIMTOFL
 70
     1
  9
$DIMTVP
 40
0.0
  9
$DIMTIX
 70
     0
  9
$DIMSOXD
 70
     0
  9
$DIMSAH
 70
     0
  9
$DIMBLK1
  1

  9
$DIMBLK2
  1

  9
$DIMSTYLE
  2
AM_JIS
  9
$DIMCLRD
 70
   256
  9
$DIMCLRE
 70
   256
  9
$DIMCLRT
 70
     4
  9
$DIMTFAC
 40
0.71
  9
$DIMGAP
 40
1.0
  9
$LUNITS
 70
     2
  9
$LUPREC
 70
     2
  9
$SKETCHINC
 40
1.0
  9
$FILLETRAD
 40
2.5
  9
$AUNITS
 70
     0
  9
$AUPREC
 70
     3
  9
$MENU
  1
.
  9
$ELEVATION
 40
0.0
  9
$PELEVATION
 40
0.0
  9
$THICKNESS
 40
0.0
  9
$LIMCHECK
 70
     0
  9
$BLIPMODE
 70
     0
  9
$CHAMFERA
 40
2.5
  9
$CHAMFERB
 40
2.5
  9
$SKPOLY
 70
     0
  9
$TDCREATE
 40
2453061.7785121868
  9
$TDUPDATE
 40
2458540.7047441318
  9
$TDINDWG
 40
0.0229763194
  9
$TDUSRTIMER
 40
0.0229761111
  9
$USRTIMER
 70
     1
  9
$ANGBASE
 50
0.0
  9
$ANGDIR
 70
     0
  9
$PDMODE
 70
     0
  9
$PDSIZE
 40
0.0
  9
$PLINEWID
 40
0.0
  9
$COORDS
 70
     1
  9
$SPLFRAME
 70
     0
  9
$SPLINETYPE
 70
     6
  9
$SPLINESEGS
 70
     8
  9
$ATTDIA
 70
     1
  9
$ATTREQ
 70
     1
  9
$HANDLING
 70
     1
  9
$HANDSEED
  5
9627
  9
$SURFTAB1
 70
     6
  9
$SURFTAB2
 70
     6
  9
$SURFTYPE
 70
     6
  9
$SURFU
 70
     6
  9
$SURFV
 70
     6
  9
$UCSNAME
  2

  9
$UCSORG
 10
0.0
 20
0.0
 30
0.0
  9
$UCSXDIR
 10
1.0
 20
0.0
 30
0.0
  9
$UCSYDIR
 10
0.0
 20
1.0
 30
0.0
  9
$PUCSNAME
  2

  9
$PUCSORG
 10
0.0
 20
0.0
 30
0.0
  9
$PUCSXDIR
 10
1.0
 20
0.0
 30
0.0
  9
$PUCSYDIR
 10
0.0
 20
1.0
 30
0.0
  9
$USERI1
 70
     0
  9
$USERI2
 70
     0
  9
$USERI3
 70
     0
  9
$USERI4
 70
     0
  9
$USERI5
 70
     0
  9
$USERR1
 40
0.0
  9
$USERR2
 40
0.0
  9
$USERR3
 40
0.0
  9
$USERR4
 40
0.0
  9
$USERR5
 40
0.0
  9
$WORLDVIEW
 70
     1
  9
$SHADEDGE
 70
     3
  9
$SHADEDIF
 70
    70
  9
$TILEMODE
 70
     1
  9
$MAXACTVP
 70
    48
  9
$PLIMCHECK
 70
     0
  9
$PEXTMIN
 10
1.0000000000000000E+020
 20
1.0000000000000000E+020
 30
1.0000000000000000E+020
  9
$PEXTMAX
 10
-1.0000000000000000E+020
 20
-1.0000000000000000E+020
 30
-1.0000000000000000E+020
  9
$PLIMMIN
 10
0.0
 20
0.0
  9
$PLIMMAX
 10
420.0
 20
297.0
  9
$UNITMODE
 70
     0
  9
$VISRETAIN
 70
     1
  9
$PLINEGEN
 70
     0
  9
$PSLTSCALE
 70
     1
  0
ENDSEC
  0
SECTION
  2
TABLES
  0
TABLE
  2
VPORT
 70
     1
  0
VPORT
  2
*ACTIVE
 70
     0
 10
0.0
 20
0.0
 11
1.0
 21
1.0
 12
544.31081219105852
 22
407.22378909170931
 13
0.0
 23
0.0
 14
1.0
 24
1.0
 15
10.0
 25
10.0
 16
0.0
 26
0.0
 36
1.0
 17
0.0
 27
0.0
 37
0.0
 40
797.52571656039754
 41
1.7571592210767459
 42
50.0
 43
0.0
 44
0.0
 50
0.0
 51
0.0
 71
     0
 72
   100
 73
     1
 74
     1
 75
     0
 76
     0
 77
     0
 78
     0
  0
ENDTAB
  0
TABLE
  2
LTYPE
 70
    26
  0
LTYPE
  2
CONTINUOUS
 70
     0
  3
Solid line
 72
    65
 73
     0
 40
0.0
  0
LTYPE
  2
PHANTOM2
 70
     0
  3
Phantom (.5x) ___ _ _ ___ _ _ ___ _ _ ___ _ _
 72
    65
 73
     6
 40
31.75
 49
15.875
 49
-3.174999999999998
 49
3.174999999999998
 49
-3.174999999999998
 49
3.174999999999998
 49
-3.174999999999998
  0
LTYPE
  2
CENTER
 70
     0
  3
Center ____ _ ____ _ ____ _ ____ _ ____ _ ____
 72
    65
 73
     4
 40
50.799999999999997
 49
31.75
 49
-6.3499999999999979
 49
6.3499999999999979
 49
-6.3499999999999979
  0
LTYPE
  2
ACANSTGBM
 70
     0
  3
__ . . __ . .
 72
    65
 73
     6
 40
9.0
 49
4.0
 49
-1.0
 49
1.0
 49
-1.0
 49
1.0
 49
-1.0
  0
LTYPE
  2
ACANSTGLM
 70
     0
  3
_ _ _ _ _
 72
    65
 73
     2
 40
3.0
 49
2.0
 49
-1.0
  0
LTYPE
  2
GEN7
 70
     0
  3
____ . ____ . ____ . ____ . ____ . ____ . ____
 72
    65
 73
     4
 40
14.25
 49
9.75
 49
-1.5
 49
1.5
 49
-1.5
  0
LTYPE
  2
GEN3B
 70
     0
  3
 - - - - -
 72
    65
 73
     2
 40
1.0
 49
0.5
 49
-0.5
  0
LTYPE
  2
AM_ISO02W050
 70
     0
  3
__ __ __ __ __ __ __ __ __ __ __ __ __ __ __
 72
    65
 73
     2
 40
7.5
 49
6.0
 49
-1.5
  0
LTYPE
  2
AM_ISO08W050
 70
     0
  3
____ . ____ . ____ . ____ . ____ . ____ . ____
 72
    65
 73
     4
 40
18.0
 49
12.0
 49
-1.5
 49
3.0
 49
-1.5
  0
LTYPE
  2
AM_ISO09W050
 70
     0
  3
_____ . . _____ . . _____ . . ____ .. ____
 72
    65
 73
     6
 40
22.5
 49
12.0
 49
-1.5
 49
3.0
 49
-1.5
 49
3.0
 49
-1.5
  0
LTYPE
  2
AMCONSTR
 70
     0
  3
_______________________
 72
    65
 73
     2
 40
9999.0
 49
9999.0
 49
0.0
  0
LTYPE
  2
AM_ISO02W050X2
 70
     0
  3
 _ _ _ _ _ _ _ _ _ _ _ _
 72
    65
 73
     2
 40
3.75
 49
3.0
 49
-0.75
  0
LTYPE
  2
AM_ISO08W050X2
 70
     0
  3
__ . __ . __ . __ . __ . __
 72
    65
 73
     4
 40
9.0
 49
6.0
 49
-0.75
 49
1.5
 49
-0.75
  0
LTYPE
  2
AMZIGZAG
 70
     0
  3
/\/-/\/-/\/-/\/-/\/-/\/
 72
    65
 73
     2
 40
11.000099999999991
 49
0.0001
 49
-11.0
  0
LTYPE
  2
ACJISTGB
 70
     0
  3
__ . . __ . .
 72
    65
 73
     6
 40
9.0
 49
4.0
 49
-1.0
 49
1.0
 49
-1.0
 49
1.0
 49
-1.0
  0
LTYPE
  2
ACJISTGL
 70
     0
  3
_ _ _ _ _
 72
    65
 73
     2
 40
3.0
 49
2.0
 49
-1.0
  0
LTYPE
  2
ACISOWELD
 70
     0
  3
_ _ _ _ _
 72
    65
 73
     2
 40
2.0
 49
2.0
 49
-1.0
  0
LTYPE
  2
ACISOTGB
 70
     0
  3
__ . . __ . .
 72
    65
 73
     6
 40
9.0
 49
4.0
 49
-1.0
 49
1.0
 49
-1.0
 49
1.0
 49
-1.0
  0
LTYPE
  2
ACISOTGL
 70
     0
  3
_ _ _ _ _
 72
    65
 73
     2
 40
3.0
 49
2.0
 49
-1.0
  0
LTYPE
  2
HIDDEN
 70
     0
  3
Hidden __ __ __ __ __ __ __ __ __ __ __ __ __ _
 72
    65
 73
     2
 40
0.375
 49
0.25
 49
-0.125
  0
LTYPE
  2
CENTER2
 70
     0
  3
Center (.5x) ___ _ ___ _ ___ _ ___ _ ___ _ ___
 72
    65
 73
     4
 40
1.125
 49
0.75
 49
-0.125
 49
0.125
 49
-0.125
  0
LTYPE
  2
HIDDEN2
 70
     0
  3
Hidden (.5x) _ _ _ _ _ _ _ _ _ _ _ _ _ _ _ _ _
 72
    65
 73
     2
 40
0.1875
 49
0.125
 49
-0.0625
  0
LTYPE
  2
AMZIGZAG2
 70
     0
  3
/\/-/\/-/\/-/\/-/\/-/\/
 72
    65
 73
     2
 40
0.4401
 49
0.0001
 49
-0.4400000000000001
  0
LTYPE
  2
ACANSTGB
 70
     0
  3
__ . . __ . .
 72
    65
 73
     6
 40
0.35433070866
 49
0.15748031496
 49
-0.03937007874
 49
0.03937007874
 49
-0.03937007874
 49
0.03937007874
 49
-0.03937007874
  0
LTYPE
  2
ACANSTGL
 70
     0
  3
_ _ _ _ _
 72
    65
 73
     2
 40
0.11811023622
 49
0.07874015748
 49
-0.03937007874
  0
ENDTAB
  0
TABLE
  2
LAYER
 70
     7
  0
LAYER
  2
0
 70
     0
 62
     7
  6
CONTINUOUS
  0
LAYER
  2
AM_0
 70
     0
 62
     7
  6
CONTINUOUS
  0
LAYER
  2
DEFPOINTS
 70
     0
 62
     7
  6
CONTINUOUS
  0
LAYER
  2
ｶｸﾚｾﾝ2
 70
     0
 62
     3
  6
GEN3B
  0
LAYER
  2
ﾁｭｳｼﾝｾﾝ
 70
     0
 62
     1
  6
GEN7
  0
LAYER
  2
AM_0N
 70
     0
 62
     7
  6
CONTINUOUS
  0
LAYER
  2
AM_5
 70
     0
 62
     2
  6
CONTINUOUS
  0
ENDTAB
  0
TABLE
  2
STYLE
 70
    10
  0
STYLE
  2
STANDARD
 70
     0
 40
0.0
 41
0.8299999999999999
 50
0.0
 71
     0
 42
2.5
  3
txt.shx
  4
bigfont.shx
  0
STYLE
  2
ANNOTATIVE
 70
     0
 40
0.0
 41
1.0
 50
0.0
 71
     0
 42
0.2
  3
txt
  4

  0
STYLE
  2
ACANSTS
 70
     0
 40
1.0
 41
1.0
 50
0.0
 71
     0
 42
2.5
  3
romans.shx
  4
bigfont.shx
  0
STYLE
  2
ACANSGDT
 70
     0
 40
0.0
 41
1.0
 50
0.0
 71
     0
 42
2.5
  3
amgdt.shx
  4

  0
STYLE
  2

 70
     1
 40
0.0
 41
1.0
 50
0.0
 71
     0
 42
2.5
  3
ltypeshp.shx
  4

  0
STYLE
  2
ACJISTS
 70
     0
 40
1.0
 41
0.8299999999999999
 50
0.0
 71
     0
 42
2.5
  3
txt.shx
  4
bigfont.shx
  0
STYLE
  2
ACJISGDT
 70
     0
 40
0.0
 41
1.0
 50
0.0
 71
     0
 42
2.5
  3
amgdt.shx
  4

  0
STYLE
  2
ACISOTS
 70
     0
 40
1.0
 41
1.0
 50
0.0
 71
     0
 42
2.5
  3
isocp.shx
  4
extfont.shx
  0
STYLE
  2
ACISOGDT
 70
     0
 40
0.0
 41
1.0
 50
0.0
 71
     0
 42
2.5
  3
amgdt.shx
  4

  0
STYLE
  2

 70
     1
 40
0.0
 41
1.0
 50
0.0
 71
     0
 42
2.5
  3
genltshp.shx
  4

  0
ENDTAB
  0
TABLE
  2
VIEW
 70
    12
  0
VIEW
  2
GEN1
 70
     0
 40
95.824742268041234
 10
71.5
 20
137.08762886597941
 41
143.0
 11
0.0
 21
0.0
 31
1.0
 12
0.0
 22
0.0
 32
0.0
 42
50.0
 43
0.0
 44
0.0
 50
0.0
 71
     0
  0
VIEW
  2
GEN2
 70
     0
 40
95.824742268041234
 10
214.5
 20
137.08762886597941
 41
143.0
 11
0.0
 21
0.0
 31
1.0
 12
0.0
 22
0.0
 32
0.0
 42
50.0
 43
0.0
 44
0.0
 50
0.0
 71
     0
  0
VIEW
  2
GEN3
 70
     0
 40
95.824742268041234
 10
71.5
 20
47.912371134020603
 41
143.0
 11
0.0
 21
0.0
 31
1.0
 12
0.0
 22
0.0
 32
0.0
 42
50.0
 43
0.0
 44
0.0
 50
0.0
 71
     0
  0
VIEW
  2
GEN4
 70
     0
 40
95.824742268041234
 10
214.5
 20
47.912371134020603
 41
143.0
 11
0.0
 21
0.0
 31
1.0
 12
0.0
 22
0.0
 32
0.0
 42
50.0
 43
0.0
 44
0.0
 50
0.0
 71
     0
  0
VIEW
  2
GEN5
 70
     0
 40
95.824742268041234
 10
143.0
 20
92.500000000000057
 41
143.0
 11
0.0
 21
0.0
 31
1.0
 12
0.0
 22
0.0
 32
0.0
 42
50.0
 43
0.0
 44
0.0
 50
0.0
 71
     0
  0
VIEW
  2
GEN6
 70
     0
 40
191.64756804123709
 10
143.0
 20
92.5
 41
285.99713999999989
 11
0.0
 21
0.0
 31
1.0
 12
0.0
 22
0.0
 32
0.0
 42
50.0
 43
0.0
 44
0.0
 50
0.0
 71
     0
  0
VIEW
  2
AM_VIEW1
 70
     0
 40
142.0
 10
119.7777777777777
 20
213.0
 41
239.55555555555549
 11
0.0
 21
0.0
 31
1.0
 12
0.0
 22
0.0
 32
0.0
 42
50.0
 43
0.0
 44
0.0
 50
0.0
 71
     0
  0
VIEW
  2
AM_VIEW2
 70
     0
 40
142.0
 10
288.22222222222211
 20
213.0
 41
239.55555555555549
 11
0.0
 21
0.0
 31
1.0
 12
0.0
 22
0.0
 32
0.0
 42
50.0
 43
0.0
 44
0.0
 50
0.0
 71
     0
  0
VIEW
  2
AM_VIEW3
 70
     0
 40
142.0
 10
119.7777777777777
 20
71.0
 41
239.55555555555549
 11
0.0
 21
0.0
 31
1.0
 12
0.0
 22
0.0
 32
0.0
 42
50.0
 43
0.0
 44
0.0
 50
0.0
 71
     0
  0
VIEW
  2
AM_VIEW4
 70
     0
 40
142.0
 10
288.22222222222211
 20
71.0
 41
239.55555555555549
 11
0.0
 21
0.0
 31
1.0
 12
0.0
 22
0.0
 32
0.0
 42
50.0
 43
0.0
 44
0.0
 50
0.0
 71
     0
  0
VIEW
  2
AM_VIEW5
 70
     0
 40
142.0
 10
204.0
 20
142.0
 41
239.55555555555549
 11
0.0
 21
0.0
 31
1.0
 12
0.0
 22
0.0
 32
0.0
 42
50.0
 43
0.0
 44
0.0
 50
0.0
 71
     0
  0
VIEW
  2
AM_VIEW6
 70
     0
 40
283.99716000000001
 10
204.0
 20
142.0
 41
479.10631999999993
 11
0.0
 21
0.0
 31
1.0
 12
0.0
 22
0.0
 32
0.0
 42
50.0
 43
0.0
 44
0.0
 50
0.0
 71
     0
  0
ENDTAB
  0
TABLE
  2
UCS
 70
     0
  0
ENDTAB
  0
TABLE
  2
APPID
 70
   106
  0
APPID
  2
ACAD
 70
     0
  0
APPID
  2
ACADANNOTATIVE
 70
     0
  0
APPID
  2
MCAD_NO_VIS
 70
     0
  0
APPID
  2
ACAD_TEMP_GRAPHIC
 70
     0
  0
APPID
  2
AD_DRAW
 70
     0
  0
APPID
  2
DESIGNERASSEMBLIES
 70
     0
  0
APPID
  2
ASURF_PCURVE_APPNAME
 70
     0
  0
APPID
  2
GENIUS_GE3SECT_13
 70
     0
  0
APPID
  2
GENIUS_GENCFG_13
 70
     0
  0
APPID
  2
GENIUS_GE3CFG0_13
 70
     0
  0
APPID
  2
GENIUS_GENCFG0_13
 70
     0
  0
APPID
  2
GENIUS_GENCFG1_13
 70
     0
  0
APPID
  2
GENIUS_GENCFG2_13
 70
     0
  0
APPID
  2
GENIUS_GENCFG3_13
 70
     0
  0
APPID
  2
GENIUS_GENCFG4_13
 70
     0
  0
APPID
  2
GENIUS_GEVCFG0_13
 70
     0
  0
APPID
  2
GENIUS_GENOENT_13
 70
     0
  0
APPID
  2
GENIUS_GENREC_14
 70
     0
  0
APPID
  2
GENIUS_GENODEF_13
 70
     0
  0
APPID
  2
GENIUS_GENOBJ-N-REC_13
 70
     0
  0
APPID
  2
GENIUS_GENHINW_13
 70
     0
  0
APPID
  2
GENIUS_FIRSTVISTXT_14
 70
     0
  0
APPID
  2
GENIUS_GENOBJ-N-LEADER_13
 70
     0
  0
APPID
  2
GENIUS_GENOREF_13
 70
     0
  0
APPID
  2
GENIUS_GENOLIS_13
 70
     0
  0
APPID
  2
GEV_VCCNULL_SWITCH_OFF
 70
     0
  0
APPID
  2
GENIUS_GENDTOL_13
 70
     0
  0
APPID
  2
GENIUS_GEFCFG0_13
 70
     0
  0
APPID
  2
GENIUS_GENOBJ-N-TIT_13
 70
     0
  0
APPID
  2
GENIUS_GENTITLE_13
 70
     0
  0
APPID
  2
GENIUS_GENZVEED_13
 70
     0
  0
APPID
  2
GENIUS_GENOBJ-N-SDF_13
 70
     0
  0
APPID
  2
GENIUS_GENSCREG_13
 70
     0
  0
APPID
  2
GENIUS_DUMCFG0_13
 70
     0
  0
APPID
  2
GEVID936201362
 70
     0
  0
APPID
  2
GEVDC
 70
     0
  0
APPID
  2
GEVCON
 70
     0
  0
APPID
  2
VCC
 70
     0
  0
APPID
  2
GEVPT
 70
     0
  0
APPID
  2
GEVIT
 70
     0
  0
APPID
  2
GENBH
 70
     0
  0
APPID
  2
GEVMK
 70
     0
  0
APPID
  2
GENIUS_GENBH_13
 70
     0
  0
APPID
  2
GENIUS_GENOBJ-NBEHI-BHF_13
 70
     0
  0
APPID
  2
GENIUS_GENOBJ-NBEHI-BHB_13
 70
     0
  0
APPID
  2
GENIUS_GENOBJ-F-DESC_13
 70
     0
  0
APPID
  2
GENIUS_GEFDESC_14
 70
     0
  0
APPID
  2
GENIUS_GENOBJ-F-PART_13
 70
     0
  0
APPID
  2
GENIUS_GEFSTDP_13
 70
     0
  0
APPID
  2
GENIUS_GEFPARTINS_13
 70
     0
  0
APPID
  2
GENIUS_GENTRA_14
 70
     0
  0
APPID
  2
GENIUS_GENINF13_13
 70
     0
  0
APPID
  2
GENIUS_GENOBJ-N-INFOPT_13
 70
     0
  0
APPID
  2
GENIUS_GENOBJ-N-RSSYM_13
 70
     0
  0
APPID
  2
GENIUS_GENSYMENT_13
 70
     0
  0
APPID
  2
GENIUS_GENSCSYM_13
 70
     0
  0
APPID
  2
GENIUS_GEFINFNAM_13
 70
     0
  0
APPID
  2
GENIUS_GENSCREG_15
 70
     0
  0
APPID
  2
GENIUS_GENOBJ-N-CEN_13
 70
     0
  0
APPID
  2
GENIUS_GENOBJ-N-CRS_13
 70
     0
  0
APPID
  2
GENIUS_GENOBJ-N-CRC_13
 70
     0
  0
APPID
  2
GENIUS_GENCRC_14
 70
     0
  0
APPID
  2
GEVID942827039
 70
     0
  0
APPID
  2
GEVID942827040
 70
     0
  0
APPID
  2
GEVID942827041
 70
     0
  0
APPID
  2
GENIUS_GENOBJ-F-SCPASSM_13
 70
     0
  0
APPID
  2
GENIUS_GENDIMSH_14
 70
     0
  0
APPID
  2
GENIUS_GENFIL_13
 70
     0
  0
APPID
  2
GENIUS_GENOBJ-N-CHA_13
 70
     0
  0
APPID
  2
GENIUS_GENOBJ-N-FIL_13
 70
     0
  0
APPID
  2
GEVID942827042
 70
     0
  0
APPID
  2
GEVID946020473
 70
     0
  0
APPID
  2
GEVID946020474
 70
     0
  0
APPID
  2
GEVID946020475
 70
     0
  0
APPID
  2
GENIUS_GENOBJ-N-HTC_13
 70
     0
  0
APPID
  2
GENIUS_GENHATCH_13
 70
     0
  0
APPID
  2
GEVID948854295
 70
     0
  0
APPID
  2
GEVID939402019
 70
     0
  0
APPID
  2
GEVID952919491
 70
     0
  0
APPID
  2
GEVID952919492
 70
     0
  0
APPID
  2
GENIUS_GEFWELD_13
 70
     0
  0
APPID
  2
GENIUS_GENOBJ-F-WELS_13
 70
     0
  0
APPID
  2
GEVID952919493
 70
     0
  0
APPID
  2
GENIUS_GENOBJ-N-RSBK_13
 70
     0
  0
APPID
  2
GENIUS_GENOBJ-N-LIB_13
 70
     0
  0
APPID
  2
GENIUS_GENSCALE_13
 70
     0
  0
APPID
  2
GEVID986376691
 70
     0
  0
APPID
  2
ACATTRIBSERVICES
 70
     0
  0
APPID
  2
ACADM_DIM_EDIT
 70
     0
  0
APPID
  2
AMDT_DM_ADJ
 70
     0
  0
APPID
  2
GEVID1057795304
 70
     0
  0
APPID
  2
GENIUS_GEFSH_13
 70
     0
  0
APPID
  2
GENIUS_GENOBJ-F-SHS_13
 70
     0
  0
APPID
  2
GENIUS_GENOBJ-N-ADDLEAD_13
 70
     0
  0
APPID
  2
GENIUS_GENMAINADDLEADER_14
 70
     0
  0
APPID
  2
GENIUS_GENADDLEADER_14
 70
     0
  0
APPID
  2
GENIUS_GENDREL_13
 70
     0
  0
APPID
  2
GEVID1121934822
 70
     0
  0
APPID
  2
GEVID1121934823
 70
     0
  0
APPID
  2
GEVID1121934824
 70
     0
  0
APPID
  2
ACAD_DSTYLE_DIMJAG
 70
     0
  0
APPID
  2
ACAD_DSTYLE_DIMBREAK
 70
     0
  0
APPID
  2
ACAD_NAV_VCDISPLAY
 70
     0
  0
APPID
  2
ACADANNOPO
 70
     0
  0
APPID
  2
ACAD_EXEMPT_FROM_CAD_STANDARDS
 70
     0
  0
APPID
  2
ACAD_MLEADERVER
 70
     0
  0
ENDTAB
  0
TABLE
  2
DIMSTYLE
 70
    29
  0
DIMSTYLE
  2
STANDARD
 70
     0
  3

  4

  5

  6

  7

 40
1.0
 41
0.18
 42
0.0625
 43
0.38
 44
0.18
 45
0.0
 46
0.0
 47
0.0
 48
0.0
140
0.18
141
0.09
142
0.0
143
25.399999999999999
144
1.0
145
0.0
146
1.0
147
0.09
 71
     0
 72
     0
 73
     1
 74
     1
 75
     0
 76
     0
 77
     0
 78
     0
170
     0
171
     2
172
     0
173
     0
174
     0
175
     0
176
     0
177
     0
178
     0
  0
DIMSTYLE
  2
ANNOTATIVE
 70
     0
  3

  4

  5

  6

  7

 40
1.0
 41
0.18
 42
0.0625
 43
0.38
 44
0.18
 45
0.0
 46
0.0
 47
0.0
 48
0.0
140
0.18
141
0.09
142
0.0
143
25.399999999999999
144
1.0
145
0.0
146
1.0
147
0.09
 71
     0
 72
     0
 73
     1
 74
     1
 75
     0
 76
     0
 77
     0
 78
     0
170
     0
171
     2
172
     0
173
     0
174
     0
175
     0
176
     0
177
     0
178
     0
  0
DIMSTYLE
  2
AM_JIS
 70
     0
  3

  4
"
  5

  6

  7

 40
1.0
 41
2.0
 42
1.0
 43
8.0
 44
1.0
 45
0.0
 46
0.0
 47
0.1
 48
0.1
140
2.5
141
0.0
142
0.0
143
0.0393701
144
1.0
145
0.0
146
0.71
147
1.5
 71
     0
 72
     0
 73
     0
 74
     0
 75
     0
 76
     0
 77
     3
 78
     8
170
     0
171
     2
172
     1
173
     0
174
     0
175
     0
176
   256
177
   256
178
     4
  0
DIMSTYLE
  2
AM_JIS$3
 70
     0
  3

  4
"
  5

  6

  7

 40
1.0
 41
2.0
 42
1.0
 43
10.0
 44
1.0
 45
0.0
 46
0.0
 47
0.1
 48
0.1
140
2.5
141
0.0
142
0.0
143
0.0393701
144
1.0
145
0.0
146
0.71
147
1.5
 71
     0
 72
     0
 73
     0
 74
     1
 75
     0
 76
     0
 77
     3
 78
     8
170
     0
171
     2
172
     0
173
     0
174
     0
175
     0
176
   256
177
   256
178
     4
  0
DIMSTYLE
  2
AM_JIS$4
 70
     0
  3

  4
"
  5

  6

  7

 40
1.0
 41
2.0
 42
1.0
 43
10.0
 44
1.0
 45
0.0
 46
0.0
 47
0.1
 48
0.1
140
2.5
141
0.0
142
0.0
143
0.0393701
144
1.0
145
0.0
146
0.71
147
1.5
 71
     0
 72
     0
 73
     0
 74
     0
 75
     0
 76
     0
 77
     3
 78
     8
170
     0
171
     2
172
     0
173
     0
174
     0
175
     0
176
   256
177
   256
178
     4
  0
DIMSTYLE
  2
AM_JIS$6
 70
     0
  3

  4
"
  5

  6

  7

 40
1.0
 41
2.0
 42
1.0
 43
10.0
 44
1.0
 45
0.0
 46
0.0
 47
0.1
 48
0.1
140
2.5
141
0.0
142
0.0
143
0.0393701
144
1.0
145
0.0
146
0.71
147
1.5
 71
     0
 72
     0
 73
     0
 74
     0
 75
     0
 76
     0
 77
     0
 78
     8
170
     0
171
     2
172
     1
173
     0
174
     0
175
     0
176
   256
177
   256
178
     4
  0
DIMSTYLE
  2
AM_JIS$7
 70
     0
  3

  4
"
  5

  6

  7

 40
1.0
 41
2.0
 42
1.0
 43
10.0
 44
1.0
 45
0.0
 46
0.0
 47
0.1
 48
0.1
140
2.5
141
0.0
142
0.0
143
0.0393701
144
1.0
145
0.0
146
0.71
147
1.5
 71
     0
 72
     0
 73
     0
 74
     0
 75
     0
 76
     0
 77
     3
 78
     8
170
     0
171
     2
172
     1
173
     0
174
     0
175
     0
176
   256
177
   256
178
     4
  0
DIMSTYLE
  2
AM_JIS$SF
 70
     0
  3

  4
"
  5

  6

  7

 40
1.0
 41
2.0
 42
1.0
 43
10.0
 44
1.0
 45
0.0
 46
0.0
 47
0.1
 48
0.1
140
2.5
141
0.0
142
0.0
143
0.0393701
144
1.0
145
0.0
146
0.71
147
1.5
 71
     0
 72
     0
 73
     0
 74
     0
 75
     1
 76
     1
 77
     3
 78
     8
170
     0
171
     2
172
     1
173
     0
174
     0
175
     0
176
   256
177
   256
178
     4
  0
DIMSTYLE
  2
AM_JIS$SH
 70
     0
  3

  4
"
  5

  6

  7

 40
1.0
 41
2.0
 42
1.0
 43
10.0
 44
1.0
 45
0.0
 46
0.0
 47
0.1
 48
0.1
140
2.5
141
0.0
142
0.0
143
0.0393701
144
2.0
145
0.0
146
0.71
147
1.5
 71
     0
 72
     0
 73
     0
 74
     0
 75
     1
 76
     1
 77
     3
 78
     8
170
     0
171
     2
172
     1
173
     1
174
     0
175
     0
176
   256
177
   256
178
     4
  0
DIMSTYLE
  2
AM_ISO
 70
     0
  3

  4
"
  5

  6

  7

 40
1.0
 41
2.5
 42
1.0
 43
10.0
 44
1.0
 45
0.0
 46
0.0
 47
0.1
 48
0.1
140
3.5
141
0.0
142
0.0
143
0.0393701
144
1.0
145
0.0
146
0.71
147
1.5
 71
     0
 72
     0
 73
     0
 74
     0
 75
     0
 76
     0
 77
     1
 78
     8
170
     0
171
     2
172
     1
173
     0
174
     0
175
     0
176
   256
177
   256
178
     2
  0
DIMSTYLE
  2
AM_ISO$3
 70
     0
  3

  4
"
  5

  6

  7

 40
1.0
 41
2.5
 42
1.0
 43
10.0
 44
1.0
 45
0.0
 46
0.0
 47
0.1
 48
0.1
140
3.5
141
0.0
142
0.0
143
0.0393701
144
1.0
145
0.0
146
0.71
147
1.5
 71
     0
 72
     0
 73
     0
 74
     1
 75
     0
 76
     0
 77
     1
 78
     8
170
     0
171
     2
172
     0
173
     0
174
     0
175
     0
176
   256
177
   256
178
     2
  0
DIMSTYLE
  2
AM_ISO$4
 70
     0
  3

  4
"
  5

  6

  7

 40
1.0
 41
2.5
 42
1.0
 43
10.0
 44
1.0
 45
0.0
 46
0.0
 47
0.1
 48
0.1
140
3.5
141
0.0
142
0.0
143
0.0393701
144
1.0
145
0.0
146
0.71
147
1.5
 71
     0
 72
     0
 73
     0
 74
     1
 75
     0
 76
     0
 77
     1
 78
     8
170
     0
171
     2
172
     0
173
     0
174
     0
175
     0
176
   256
177
   256
178
     2
  0
DIMSTYLE
  2
AM_ISO$6
 70
     0
  3

  4
"
  5

  6

  7

 40
1.0
 41
2.5
 42
1.0
 43
10.0
 44
1.0
 45
0.0
 46
0.0
 47
0.1
 48
0.1
140
3.5
141
0.0
142
0.0
143
0.0393701
144
1.0
145
0.0
146
0.71
147
1.5
 71
     0
 72
     0
 73
     0
 74
     0
 75
     0
 76
     0
 77
     0
 78
     8
170
     0
171
     2
172
     1
173
     0
174
     0
175
     0
176
   256
177
   256
178
     2
  0
DIMSTYLE
  2
AM_ISO$7
 70
     0
  3

  4
"
  5

  6

  7

 40
1.0
 41
2.5
 42
1.0
 43
10.0
 44
1.0
 45
0.0
 46
0.0
 47
0.1
 48
0.1
140
5.0
141
0.0
142
0.0
143
0.0393701
144
1.0
145
0.0
146
0.71
147
1.5
 71
     0
 72
     0
 73
     0
 74
     0
 75
     0
 76
     0
 77
     1
 78
     8
170
     0
171
     2
172
     1
173
     0
174
     0
175
     0
176
   256
177
   256
178
     2
  0
DIMSTYLE
  2
AM_ISO$SF
 70
     0
  3

  4
"
  5

  6

  7

 40
1.0
 41
2.5
 42
1.0
 43
10.0
 44
1.0
 45
0.0
 46
0.0
 47
0.1
 48
0.1
140
3.5
141
0.0
142
0.0
143
0.0393701
144
1.0
145
0.0
146
0.71
147
1.5
 71
     0
 72
     0
 73
     0
 74
     0
 75
     1
 76
     1
 77
     1
 78
     8
170
     0
171
     2
172
     1
173
     0
174
     0
175
     0
176
   256
177
   256
178
     2
  0
DIMSTYLE
  2
AM_ISO$SH
 70
     0
  3

  4
"
  5

  6

  7

 40
1.0
 41
2.5
 42
1.0
 43
10.0
 44
1.0
 45
0.0
 46
0.0
 47
0.1
 48
0.1
140
3.5
141
0.0
142
0.0
143
0.0393701
144
2.0
145
0.0
146
0.71
147
1.5
 71
     0
 72
     0
 73
     0
 74
     0
 75
     1
 76
     1
 77
     1
 78
     8
170
     0
171
     2
172
     1
173
     1
174
     0
175
     0
176
   256
177
   256
178
     2
  0
DIMSTYLE
  2
GEN-ANSI
 70
     0
  3

  4
"
  5

  6

  7

 40
1.0
 41
2.0
 42
0.5
 43
10.0
 44
0.5
 45
0.0
 46
0.0
 47
0.1
 48
0.1
140
2.5
141
0.0
142
0.0
143
0.0393701
144
1.0
145
0.0
146
0.71
147
1.5
 71
     0
 72
     0
 73
     1
 74
     1
 75
     0
 76
     0
 77
     0
 78
     8
170
     0
171
     2
172
     0
173
     0
174
     0
175
     0
176
   256
177
   256
178
     4
  0
DIMSTYLE
  2
GEN-ANSI$3
 70
     0
  3

  4
"
  5

  6

  7

 40
1.0
 41
2.0
 42
0.5
 43
10.0
 44
0.5
 45
0.0
 46
0.0
 47
0.1
 48
0.1
140
2.5
141
0.0
142
0.0
143
0.0393701
144
1.0
145
0.0
146
0.71
147
1.5
 71
     0
 72
     0
 73
     1
 74
     1
 75
     0
 76
     0
 77
     0
 78
     8
170
     0
171
     2
172
     0
173
     0
174
     0
175
     0
176
   256
177
   256
178
     4
  0
DIMSTYLE
  2
GEN-ANSI$4
 70
     0
  3

  4
"
  5

  6

  7

 40
1.0
 41
2.0
 42
0.5
 43
10.0
 44
0.5
 45
0.0
 46
0.0
 47
0.1
 48
0.1
140
2.5
141
0.0
142
0.0
143
0.0393701
144
1.0
145
0.0
146
0.71
147
1.5
 71
     0
 72
     0
 73
     1
 74
     1
 75
     0
 76
     0
 77
     0
 78
     8
170
     0
171
     2
172
     0
173
     0
174
     0
175
     0
176
   256
177
   256
178
     4
  0
DIMSTYLE
  2
GEN-ANSI$6
 70
     0
  3

  4
"
  5

  6

  7

 40
1.0
 41
2.0
 42
0.5
 43
10.0
 44
0.5
 45
0.0
 46
0.0
 47
0.1
 48
0.1
140
2.5
141
0.0
142
0.0
143
0.0393701
144
1.0
145
0.0
146
0.71
147
1.5
 71
     0
 72
     0
 73
     1
 74
     1
 75
     0
 76
     0
 77
     0
 78
     8
170
     0
171
     2
172
     0
173
     0
174
     0
175
     0
176
   256
177
   256
178
     4
  0
DIMSTYLE
  2
GEN-ANSI-POS
 70
     0
  3

  4
"
  5

  6

  7

 40
1.0
 41
2.5
 42
0.5
 43
10.0
 44
0.5
 45
0.0
 46
0.0
 47
0.1
 48
0.1
140
5.0
141
0.0
142
0.0
143
0.0393701
144
1.0
145
0.0
146
0.71
147
1.5
 71
     0
 72
     0
 73
     0
 74
     0
 75
     0
 76
     0
 77
     0
 78
     8
170
     0
171
     2
172
     0
173
     0
174
     0
175
     0
176
   256
177
   256
178
     4
  0
DIMSTYLE
  2
GEN-ANSI-AXE-F
 70
     0
  3

  4
"
  5

  6

  7

 40
1.0
 41
2.0
 42
0.5
 43
10.0
 44
0.5
 45
0.0
 46
0.0
 47
0.1
 48
0.1
140
2.5
141
0.0
142
0.0
143
0.0393701
144
1.0
145
0.0
146
0.71
147
1.5
 71
     0
 72
     0
 73
     1
 74
     1
 75
     1
 76
     1
 77
     0
 78
     8
170
     0
171
     2
172
     0
173
     1
174
     0
175
     0
176
   256
177
   256
178
     4
  0
DIMSTYLE
  2
GEN-ANSI-AXE-H
 70
     0
  3

  4
"
  5

  6

  7

 40
1.0
 41
2.0
 42
0.5
 43
10.0
 44
0.5
 45
0.0
 46
0.0
 47
0.1
 48
0.1
140
2.5
141
0.0
142
0.0
143
0.0393701
144
2.0
145
0.0
146
0.71
147
1.5
 71
     0
 72
     0
 73
     0
 74
     0
 75
     1
 76
     1
 77
     0
 78
     8
170
     0
171
     2
172
     1
173
     1
174
     0
175
     0
176
   256
177
   256
178
     4
  0
DIMSTYLE
  2
AM_ANSI
 70
     0
  3

  4
mm
  5

  6

  7

 40
1.0
 41
0.12
 42
0.05
 43
0.5
 44
0.1
 45
0.0
 46
0.0
 47
0.1
 48
0.1
140
0.12
141
0.0
142
0.0
143
25.399999999999999
144
1.0
145
0.0
146
0.71
147
0.06
 71
     0
 72
     0
 73
     1
 74
     1
 75
     0
 76
     0
 77
     0
 78
     7
170
     0
171
     2
172
     0
173
     0
174
     0
175
     0
176
   256
177
   256
178
     2
  0
DIMSTYLE
  2
AM_ANSI$3
 70
     0
  3

  4
mm
  5

  6

  7

 40
1.0
 41
0.12
 42
0.05
 43
0.5
 44
0.1
 45
0.0
 46
0.0
 47
0.1
 48
0.1
140
0.12
141
0.0
142
0.0
143
25.399999999999999
144
1.0
145
0.0
146
0.71
147
0.06
 71
     0
 72
     0
 73
     1
 74
     1
 75
     0
 76
     0
 77
     0
 78
     7
170
     0
171
     2
172
     0
173
     0
174
     0
175
     0
176
   256
177
   256
178
     2
  0
DIMSTYLE
  2
AM_ANSI$4
 70
     0
  3

  4
mm
  5

  6

  7

 40
1.0
 41
0.12
 42
0.05
 43
0.5
 44
0.1
 45
0.0
 46
0.0
 47
0.1
 48
0.1
140
0.12
141
0.0
142
0.0
143
25.399999999999999
144
1.0
145
0.0
146
0.71
147
0.06
 71
     0
 72
     0
 73
     1
 74
     1
 75
     0
 76
     0
 77
     0
 78
     7
170
     0
171
     2
172
     0
173
     0
174
     0
175
     0
176
   256
177
   256
178
     2
  0
DIMSTYLE
  2
AM_ANSI$7
 70
     0
  3

  4
mm
  5

  6

  7

 40
1.0
 41
0.12
 42
0.05
 43
0.5
 44
0.1
 45
0.0
 46
0.0
 47
0.1
 48
0.1
140
0.12
141
0.0
142
0.0
143
25.399999999999999
144
1.0
145
0.0
146
0.71
147
0.06
 71
     0
 72
     0
 73
     1
 74
     1
 75
     0
 76
     0
 77
     0
 78
     7
170
     0
171
     2
172
     0
173
     0
174
     0
175
     0
176
   256
177
   256
178
     2
  0
DIMSTYLE
  2
AM_ANSI$SF
 70
     0
  3

  4
mm
  5

  6

  7

 40
1.0
 41
0.12
 42
0.05
 43
0.5
 44
0.1
 45
0.0
 46
0.0
 47
0.1
 48
0.1
140
0.12
141
0.0
142
0.0
143
25.399999999999999
144
1.0
145
0.0
146
0.71
147
0.06
 71
     0
 72
     0
 73
     1
 74
     1
 75
     1
 76
     1
 77
     0
 78
     7
170
     0
171
     2
172
     0
173
     0
174
     0
175
     0
176
   256
177
   256
178
     2
  0
DIMSTYLE
  2
AM_ANSI$SH
 70
     0
  3

  4
mm
  5

  6
GENAXEH
  7

 40
1.0
 41
0.12
 42
0.05
 43
0.5
 44
0.1
 45
0.0
 46
0.0
 47
0.1
 48
0.1
140
0.12
141
0.0
142
0.0
143
25.399999999999999
144
1.0
145
0.0
146
0.71
147
0.06
 71
     0
 72
     0
 73
     1
 74
     1
 75
     1
 76
     1
 77
     0
 78
     7
170
     0
171
     2
172
     0
173
     1
174
     0
175
     0
176
   256
177
   256
178
     2
  0
ENDTAB
  0
ENDSEC
  0
SECTION
  2
BLOCKS
  0
BLOCK
  8
0
  2
$MODEL_SPACE
 70
     0
 10
0.0
 20
0.0
 30
0.0
  3
$MODEL_SPACE
  1

  0
ENDBLK
  5
9491
  8
0
  0
BLOCK
 67
     1
  8
0
  2
$PAPER_SPACE
 70
     0
 10
0.0
 20
0.0
 30
0.0
  3
$PAPER_SPACE
  1

  0
ENDBLK
  5
948D
 67
     1
  8
0
  0
BLOCK
  8
0
  2
GENAXEH
 70
     0
 10
0.0
 20
0.0
 30
0.0
  3
GENAXEH
  1

  0
LINE
  5
93DA
  8
0
 10
-1.0
 20
0.0
 30
0.0
 11
1.0
 21
0.0
 31
0.0
  0
ENDBLK
  5
93DC
  8
0
  0
BLOCK
  8
0
  2
_ACMFILLEDHALF
 70
     0
 10
0.0
 20
0.0
 30
0.0
  3
_ACMFILLEDHALF
  1

  0
TRACE
  5
95A0
  8
AM_0
 62
     0
 10
-0.8
 20
0.0
 30
0.0
 11
-1.0
 21
0.166666666
 31
0.0
 12
0.0
 22
0.0
 32
0.0
 13
0.0
 23
0.0
 33
0.0
  0
LINE
  5
95A1
  8
AM_0
 62
     0
 10
-1.0
 20
0.0
 30
0.0
 11
-0.8
 21
0.0
 31
0.0
  0
ENDBLK
  5
959F
  8
0
  0
ENDSEC
  0
SECTION
  2
ENTITIES
  0
POINT
  5
1B94
  8
0
 10
0.0
 20
0.0
 30
0.0
1001
GENIUS_GENODEF_13
1002
{
1000
HIER
1070
     1
1002
}
1002
{
1000
MANEDIT
1070
     0
1002
}
1002
{
1000
NOSEL
1070
     0
1002
}
1002
{
1000
BEHIND
1070
     0
1002
}
1002
{
1000
REACTOR
1002
}
1001
GENIUS_GENOBJ-N-SDF_13
1002
{
1000
OWNER
1000
GEN
1002
}
1001
GENIUS_GENOENT_13
1002
{
1000
MYREF
1005
1B94
1002
}
1002
{
1000
GRP
1005
0
1002
}
1001
GENIUS_GENOLIS_13
1002
{
1000
ENT
1005
89
1002
}
  0
LINE
  5
86BF
  8
AM_0
 10
544.43833302498558
 20
244.70676597232909
 30
0.0
 11
626.4383330249857
 21
244.70676597232909
 31
0.0
  0
LINE
  5
86C0
  8
AM_0
 10
544.43833302498558
 20
189.70676597232901
 30
0.0
 11
626.4383330249857
 21
189.70676597232901
 31
0.0
  0
LINE
  5
86C1
  8
AM_0
 10
564.43833302498342
 20
248.70675097232919
 30
0.0
 11
626.4383330249857
 21
248.70675097232919
 31
0.0
  0
LINE
  5
86C2
  8
ﾁｭｳｼﾝｾﾝ
 10
375.7634831571836
 20
217.20676597232901
 30
0.0
 11
639.76767154273875
 21
217.20676597232901
 31
0.0
  0
LINE
  5
86C5
  8
AM_0
 10
242.4383830249844
 20
233.97794597233019
 30
0.0
 11
242.4383830249844
 21
190.4967709723291
 31
0.0
  0
LINE
  5
86C6
  8
AM_0
 10
317.43838302498568
 20
101.2844609723292
 30
0.0
 11
317.43838302498568
 21
242.95313097232901
 31
0.0
  0
LINE
  5
86C7
  8
AM_0
 10
327.4383830249858
 20
98.206760972329221
 30
0.0
 11
327.4383830249858
 21
246.20676597232901
 31
0.0
  0
LINE
  5
86C8
  8
AM_0
 10
296.3199330249858
 20
219.0883259723291
 30
0.0
 11
296.3199330249858
 21
187.4967709723291
 31
0.0
  0
LINE
  5
86C9
  8
AM_0
 10
363.43833302498427
 20
336.308050972329
 30
0.0
 11
363.43833302498427
 21
48.340610972329159
 31
0.0
  0
LINE
  5
86CA
  8
AM_0
 10
342.93833302498558
 20
276.87255097232918
 30
0.0
 11
342.93833302498558
 21
68.312535972330139
 31
0.0
  0
LINE
  5
86CB
  8
AM_0
 10
391.43833302498427
 20
339.20675097233021
 30
0.0
 11
391.43833302498427
 21
106.600685972329
 31
0.0
  0
LINE
  5
86CC
  8
AM_0
 10
473.43833302498558
 20
254.16440097232899
 30
0.0
 11
473.43833302498558
 21
57.206760972329207
 31
0.0
  0
LINE
  5
86CD
  8
AM_0
 10
506.43833302498558
 20
321.53395097232919
 30
0.0
 11
506.43833302498558
 21
73.513770972329212
 31
0.0
  0
LINE
  5
86CE
  8
AM_0
 10
416.43833302498558
 20
333.50530097232922
 30
0.0
 11
416.43833302498558
 21
209.31275097233009
 31
0.0
  0
LINE
  5
86CF
  8
AM_0
 10
538.4383330249857
 20
275.27540097232912
 30
0.0
 11
538.4383330249857
 21
159.1381609723291
 31
0.0
  0
LINE
  5
86D0
  8
AM_0
 10
533.43833302498558
 20
297.62505097232901
 30
0.0
 11
533.43833302498558
 21
50.867010972328217
 31
0.0
  0
LINE
  5
86D1
  8
AM_0
 10
544.43833302498558
 20
247.2067659723302
 30
0.0
 11
544.43833302498558
 21
187.20676597232901
 31
0.0
  0
LINE
  5
86D2
  8
ﾁｭｳｼﾝｾﾝ
 10
401.1252840345382
 20
135.99674097232921
 30
0.0
 11
13.961683024984261
 21
135.99674097232921
 31
0.0
  0
LINE
  5
86D3
  8
AM_0
 10
356.64438302498542
 20
47.206790972329131
 30
0.0
 11
345.03433302498428
 21
62.186620972329138
 31
0.0
  0
LINE
  5
86D4
  8
AM_0
 10
313.43833302498422
 20
47.206760972329207
 30
0.0
 11
360.26773302498572
 21
47.206760972329207
 31
0.0
  0
LINE
  5
86D5
  8
AM_0
 10
308.4383330249857
 20
17.206760972329221
 30
0.0
 11
538.4383330249857
 21
17.206760972329221
 31
0.0
  0
ARC
  5
86D6
  8
AM_0
 10
352.93833302498558
 20
68.312535972330139
 30
0.0
 40
10.0
 50
179.99998999999889
 51
217.77722999999639
  0
LINE
  5
86D7
  8
ｶｸﾚｾﾝ2
 10
347.93833302498427
 20
47.206760972329207
 30
0.0
 11
347.93833302498427
 21
17.206760972329221
 31
0.0
  0
LINE
  5
86D8
  8
AM_0
 10
308.4383330249857
 20
42.206760972329221
 30
0.0
 11
308.4383330249857
 21
17.206760972329221
 31
0.0
  0
LINE
  5
86D9
  8
ｶｸﾚｾﾝ2
 10
328.93833302498422
 20
47.206760972329207
 30
0.0
 11
328.93833302498422
 21
17.206760972329221
 31
0.0
  0
LINE
  5
86DA
  8
ﾁｭｳｼﾝｾﾝ
 10
338.43833302498342
 20
52.206760972329207
 30
0.0
 11
338.43833302498342
 21
12.206760972329221
 31
0.0
  0
ARC
  5
86DB
  8
AM_0
 10
313.43833302498422
 20
42.206760972329221
 30
0.0
 40
5.0
 50
90.000002999984645
 51
180.00001000000091
  0
LINE
  5
86DC
  8
AM_0
 10
227.4382830249846
 20
71.996710972329083
 30
0.0
 11
243.5779330249843
 21
72.560340972329186
 31
0.0
  0
LINE
  5
86DD
  8
AM_0
 10
227.4382830249846
 20
199.996710972329
 30
0.0
 11
237.61283302498441
 21
200.35202597232899
 31
0.0
  0
LINE
  5
86DE
  8
AM_0
 10
227.43838302498531
 20
173.9930809723291
 30
0.0
 11
303.32918302498541
 21
173.9930809723291
 31
0.0
  0
LINE
  5
86DF
  8
AM_0
 10
227.43838302498531
 20
84.496770972329173
 30
0.0
 11
247.43838302498531
 21
84.496770972329173
 31
0.0
  0
LINE
  5
86E0
  8
AM_0
 10
227.43838302498531
 20
98.00046597232928
 30
0.0
 11
247.43838302498531
 21
98.00046597232928
 31
0.0
  0
LINE
  5
86E1
  8
AM_0
 10
227.43838302498531
 20
187.4967709723291
 30
0.0
 11
307.17598302498573
 21
187.4967709723291
 31
0.0
  0
LINE
  5
86E2
  8
AM_0
 10
227.43838302498531
 20
71.996770972329159
 30
0.0
 11
227.43838302498531
 21
199.9967709723291
 31
0.0
  0
LINE
  5
86E3
  8
AM_0
 10
220.43838302498531
 20
72.496770972329173
 30
0.0
 11
227.43838302498531
 21
72.496770972329173
 31
0.0
  0
LINE
  5
86E4
  8
AM_0
 10
220.43838302498531
 20
83.956760972329221
 30
0.0
 11
227.43838302498531
 21
83.956760972329221
 31
0.0
  0
LINE
  5
86E5
  8
AM_0
 10
219.4383830249844
 20
98.846745972329231
 30
0.0
 11
227.43838302498531
 21
98.846745972329231
 31
0.0
  0
POINT
  5
86E6
  8
AM_0
 10
227.43838302498531
 20
135.99674097232921
 30
0.0
  0
LINE
  5
86E7
  8
AM_0
 10
219.4383830249844
 20
173.14676597232909
 30
0.0
 11
227.43838302498531
 21
173.14676597232909
 31
0.0
  0
LINE
  5
86E8
  8
AM_0
 10
220.43838302498531
 20
188.036750972329
 30
0.0
 11
227.43838302498531
 21
188.036750972329
 31
0.0
  0
LINE
  5
86E9
  8
AM_0
 10
220.43838302498531
 20
199.49674097233009
 30
0.0
 11
227.43838302498531
 21
199.49674097233009
 31
0.0
  0
ARC
  5
86EA
  8
AM_0
 10
252.43838302498531
 20
137.99985597232919
 30
0.0
 40
5.0
 50
90.000002999984645
 51
180.00001000000091
  0
LINE
  5
86EB
  8
AM_0
 10
252.61283302498441
 20
104.95633597233
 30
0.0
 11
314.44338302498591
 21
102.79715597232909
 31
0.0
  0
LINE
  5
86EC
  8
AM_0
 10
249.6695830249846
 20
77.39441597232917
 30
0.0
 11
316.7876830249856
 21
98.352850972329193
 31
0.0
  0
ARC
  5
86ED
  8
AM_0
 10
252.43838302498531
 20
99.959415972329211
 30
0.0
 40
5.0
 50
87.999999999996476
 51
180.00001000000091
  0
LINE
  5
86EE
  8
AM_0
 10
247.43838302498531
 20
137.99985597232919
 30
0.0
 11
247.43838302498531
 21
76.557925972329258
 31
0.0
  0
ARC
  5
86EF
  8
AM_0
 10
243.43833302498521
 20
76.557925972329258
 30
0.0
 40
4.000000049999997
 50
272.00000000000341
 51
0.0
  0
ARC
  5
86F0
  8
AM_0
 10
250.86193302498441
 20
73.576175972329096
 30
0.0
 40
4.000000049999997
 50
107.3416099999947
 51
158.11660999999989
  0
ARC
  5
86F1
  8
AM_0
 10
314.30373302498572
 20
98.799625972329068
 30
0.0
 40
4.000000049999997
 50
26.896937000015249
 51
87.999999999996476
  0
ARC
  5
86F2
  8
AM_0
 10
321.43833302498422
 20
102.41870597232921
 30
0.0
 40
4.000000049999997
 50
206.89693999998181
 51
267.99999999999642
  0
LINE
  5
86F3
  8
AM_0
 10
318.11953302498569
 20
98.532170972329141
 30
0.0
 11
327.43833302498422
 21
98.206760972329221
 31
0.0
  0
ARC
  5
86F4
  8
AM_0
 10
317.97998302498581
 20
94.534610972329133
 30
0.0
 40
4.000000049999997
 50
87.999999999996476
 51
107.3416099999947
  0
LINE
  5
86F5
  8
AM_0
 10
327.43833302498422
 20
98.706730972329083
 30
0.0
 11
338.11283302498572
 21
98.333990972329275
 31
0.0
  0
ARC
  5
86F6
  8
AM_0
 10
337.9383330249857
 20
93.337040972329078
 30
0.0
 40
5.0
 50
0.0
 51
87.999999999996476
  0
LINE
  5
86F7
  8
AM_0
 10
317.43838302498568
 20
109.206730972329
 30
0.0
 11
342.93833302498558
 21
109.206730972329
 31
0.0
  0
LINE
  5
86F8
  8
AM_0
 10
317.43838302498568
 20
133.3866659723291
 30
0.0
 11
342.93833302498558
 21
133.3866659723291
 31
0.0
  0
LINE
  5
86F9
  8
AM_0
 10
252.43838302498531
 20
142.99985597232919
 30
0.0
 11
317.43838302498568
 21
142.99985597232919
 31
0.0
  0
ARC
  5
86FA
  8
AM_0
 10
239.43833302498521
 20
190.4967709723291
 30
0.0
 40
3.0000000500000001
 50
270.0
 51
0.0
  0
ARC
  5
86FB
  8
AM_0
 10
237.43838302498531
 20
205.34900597232919
 30
0.0
 40
5.0
 50
272.00000000000341
 51
0.0
  0
LINE
  5
86FC
  8
AM_0
 10
303.3291330249844
 20
173.99302097232811
 30
0.0
 11
310.00443302498422
 21
180.66831097232921
 31
0.0
  0
LINE
  5
86FD
  8
AM_0
 10
303.32918302498541
 20
173.9930509723292
 30
0.0
 11
317.43833302498422
 21
146.811010972329
 31
0.0
  0
ARC
  5
86FE
  8
AM_0
 10
307.17598302498573
 20
183.49674097233009
 30
0.0
 40
4.000000049999997
 50
314.99999999998158
 51
90.000002999984645
  0
ARC
  5
86FF
  8
AM_0
 10
496.43833302498558
 20
73.513770972329212
 30
0.0
 40
10.0
 50
270.0
 51
0.0
  0
LINE
  5
8700
  8
AM_0
 10
364.7903330249855
 20
50.074650972329209
 30
0.0
 11
395.48358302498571
 21
115.18155597232899
 31
0.0
  0
ARC
  5
8701
  8
AM_0
 10
360.26773302498572
 20
52.206760972329207
 30
0.0
 40
5.0
 50
270.0
 51
334.75946999998678
  0
LINE
  5
8702
  8
AM_0
 10
483.43833302498558
 20
47.206760972329207
 30
0.0
 11
533.43833302498558
 21
47.206760972329207
 31
0.0
  0
LINE
  5
8703
  8
ｶｸﾚｾﾝ2
 10
498.93833302498422
 20
47.206760972329207
 30
0.0
 11
498.93833302498422
 21
17.206760972329221
 31
0.0
  0
LINE
  5
8704
  8
ﾁｭｳｼﾝｾﾝ
 10
508.43833302498558
 20
52.206760972329242
 30
0.0
 11
508.43833302498558
 21
12.206760972329221
 31
0.0
  0
LINE
  5
8705
  8
AM_0
 10
473.43833302498558
 20
63.513770972329198
 30
0.0
 11
496.43833302498558
 21
63.513770972329198
 31
0.0
  0
ARC
  5
8706
  8
AM_0
 10
483.43833302498558
 20
57.206760972329207
 30
0.0
 40
10.0
 50
179.99998999999889
 51
270.0
  0
LINE
  5
8707
  8
ｶｸﾚｾﾝ2
 10
517.93833302498342
 20
47.206760972329207
 30
0.0
 11
517.93833302498342
 21
17.206760972329221
 31
0.0
  0
LINE
  5
8708
  8
AM_0
 10
538.4383330249857
 20
42.206760972329221
 30
0.0
 11
538.4383330249857
 21
17.206760972329221
 31
0.0
  0
ARC
  5
8709
  8
AM_0
 10
538.4383330249857
 20
50.867010972328217
 30
0.0
 40
5.0
 50
179.99998999999889
 51
240.0000100000199
  0
ARC
  5
870A
  8
AM_0
 10
533.43833302498558
 20
42.206760972329221
 30
0.0
 40
5.0
 50
0.0
 51
90.000002999984645
  0
LINE
  5
870B
  8
AM_0
 10
396.4383330249857
 20
209.31275097233009
 30
0.0
 11
396.4383330249857
 21
119.44574597232911
 31
0.0
  0
ARC
  5
870C
  8
AM_0
 10
386.43833302498427
 20
119.44574597232911
 30
0.0
 40
10.0
 50
334.75946999998678
 51
0.0
  0
LINE
  5
870D
  8
AM_0
 10
396.4383330249857
 20
209.31275097233009
 30
0.0
 11
416.43833302498558
 21
209.31275097233009
 31
0.0
  0
ARC
  5
870E
  8
AM_0
 10
536.43833302498433
 20
159.1381609723291
 30
0.0
 40
2.0000000500000001
 50
272.00000000000341
 51
0.0
  0
ARC
  5
870F
  8
AM_0
 10
535.43833302498433
 20
155.1008059723292
 30
0.0
 40
2.0000000500000001
 50
91.999997999994264
 51
180.00001000000091
  0
LINE
  5
8710
  8
AM_0
 10
535.36853302498434
 20
157.0995259723301
 30
0.0
 11
536.50808302498569
 21
157.1393209723291
 31
0.0
  0
LINE
  5
8711
  8
AM_0
 10
538.4383330249857
 20
187.20676597232901
 30
0.0
 11
544.43833302498558
 21
187.20676597232901
 31
0.0
  0
LINE
  5
8712
  8
AM_0
 10
344.33548302498542
 20
281.97055097232908
 30
0.0
 11
357.73983302498431
 21
304.59040097232918
 31
0.0
  0
LINE
  5
8713
  8
AM_0
 10
245.33358302498519
 20
236.9761109723301
 30
0.0
 11
313.57793302498419
 21
239.35926097232911
 31
0.0
  0
LINE
  5
8714
  8
AM_0
 10
247.26383302498419
 20
217.37522097232809
 30
0.0
 11
294.74528302498578
 21
219.03330097232919
 31
0.0
  0
ARC
  5
8715
  8
AM_0
 10
247.43838302498531
 20
212.37833597232901
 30
0.0
 40
5.0
 50
91.999997999994264
 51
180.00001000000091
  0
ARC
  5
8716
  8
AM_0
 10
245.4383330249843
 20
233.97794597233019
 30
0.0
 40
3.0000000500000001
 50
91.999997999994264
 51
180.00001000000091
  0
ARC
  5
8717
  8
AM_0
 10
337.9383330249857
 20
251.076500972329
 30
0.0
 40
5.0
 50
272.00000000000341
 51
0.0
  0
ARC
  5
8718
  8
AM_0
 10
321.32083302498449
 20
241.99070097232919
 30
0.0
 40
4.000000049999997
 50
91.999997999994264
 51
170.1676200000106
  0
LINE
  5
8719
  8
AM_0
 10
317.43838302498568
 20
211.0268609723291
 30
0.0
 11
342.93833302498558
 21
211.0268609723291
 31
0.0
  0
LINE
  5
871A
  8
AM_0
 10
317.43838302498568
 20
235.2067659723302
 30
0.0
 11
342.93833302498558
 21
235.2067659723302
 31
0.0
  0
LINE
  5
871B
  8
AM_0
 10
297.43413302498573
 20
220.20243097233009
 30
0.0
 11
316.26683302498571
 21
239.03513597232919
 31
0.0
  0
ARC
  5
871C
  8
AM_0
 10
294.60563302498571
 20
223.03095097232921
 30
0.0
 40
4.000000049999997
 50
272.00000000000341
 51
314.99999999998158
  0
ARC
  5
871D
  8
AM_0
 10
313.43833302498422
 20
243.35682097233021
 30
0.0
 40
4.000000049999997
 50
272.00000000000341
 51
350.16760999999559
  0
ARC
  5
871E
  8
AM_0
 10
313.43833302498422
 20
241.86359597232919
 30
0.0
 40
4.000000049999997
 50
314.99999999998158
 51
0.0
  0
LINE
  5
871F
  8
AM_0
 10
327.43833302498422
 20
245.70673597232911
 30
0.0
 11
338.11283302498572
 21
246.07950597232909
 31
0.0
  0
LINE
  5
8720
  8
AM_0
 10
321.18118302498573
 20
245.98822597232919
 30
0.0
 11
327.43833302498422
 21
246.20673597232911
 31
0.0
  0
ARC
  5
8721
  8
AM_0
 10
352.93833302498558
 20
276.87255097232918
 30
0.0
 40
10.0
 50
149.3493299999954
 51
180.00001000000091
  0
ARC
  5
8722
  8
AM_0
 10
373.4383330249857
 20
365.2067509723301
 30
0.0
 40
25.000000499999999
 50
306.46672000000018
 51
233.53328999999289
  0
CIRCLE
  5
8723
  8
AM_0
 10
373.4383330249857
 20
365.2067509723301
 30
0.0
 40
15.0
  0
LINE
  5
8724
  8
AM_0
 10
419.46663302498558
 20
334.22795097232921
 30
0.0
 11
496.7873830249855
 21
331.52790097232918
 31
0.0
  0
LINE
  5
8725
  8
AM_0
 10
391.43833302498427
 20
339.20675097233021
 30
0.0
 11
411.6128330249856
 21
338.50220097232892
 31
0.0
  0
LINE
  5
8726
  8
AM_0
 10
358.4383330249857
 20
337.20680097232912
 30
0.0
 11
358.4383330249857
 21
307.13945097232897
 31
0.0
  0
LINE
  5
8727
  8
AM_0
 10
357.73983302498431
 20
304.59040097232918
 30
0.0
 11
362.73993302498542
 21
313.02790097232997
 31
0.0
  0
ARC
  5
8728
  8
AM_0
 10
353.43833302498427
 20
307.13945097232897
 30
0.0
 40
5.0
 50
329.34932999999552
 51
0.0
  0
ARC
  5
8729
  8
AM_0
 10
358.4383330249857
 20
315.57695097232897
 30
0.0
 40
5.0
 50
329.34932999999552
 51
0.0
  0
LINE
  5
872A
  8
AM_0
 10
373.43828302498463
 20
350.20680097232912
 30
0.0
 11
382.9164330249846
 21
348.32775097232911
 31
0.0
  0
LINE
  5
872B
  8
AM_0
 10
363.64428302498573
 20
348.20675097232919
 30
0.0
 11
383.23233302498551
 21
348.20675097232919
 31
0.0
  0
LINE
  5
872C
  8
AM_0
 10
365.36853302498542
 20
338.30685097233118
 30
0.0
 11
391.1382830249845
 21
339.20675097233021
 31
0.0
  0
LINE
  5
872D
  8
AM_0
 10
360.43833302498558
 20
339.20675097233021
 30
0.0
 11
391.43833302498427
 21
339.20675097233021
 31
0.0
  0
ARC
  5
872E
  8
AM_0
 10
365.43833302498558
 20
336.308050972329
 30
0.0
 40
2.0000000500000001
 50
91.999997999994264
 51
180.00001000000091
  0
ARC
  5
872F
  8
AM_0
 10
360.43833302498558
 20
337.20680097232912
 30
0.0
 40
2.0000000500000001
 50
90.000002999984645
 51
180.00001000000091
  0
LINE
  5
8730
  8
AM_0
 10
360.93838302498568
 20
339.20675097233021
 30
0.0
 11
363.1888830249863
 21
347.6056509723291
 31
0.0
  0
ARC
  5
8731
  8
AM_0
 10
355.01328302498439
 20
340.2764509723292
 30
0.0
 40
6.0
 50
349.72994999998832
 51
53.533291000004859
  0
ARC
  5
8732
  8
AM_0
 10
364.15478302498559
 20
347.34685097233017
 30
0.0
 40
1.0
 50
101.2132899999923
 51
164.9999900000129
  0
LINE
  5
8733
  8
AM_0
 10
363.96023302498583
 20
348.32775097232911
 30
0.0
 11
373.43828302498463
 21
350.20675097232919
 31
0.0
  0
ARC
  5
8734
  8
AM_0
 10
391.86333302498451
 20
340.2764509723292
 30
0.0
 40
6.0
 50
126.4667000000006
 51
190.2700599999938
  0
ARC
  5
8735
  8
AM_0
 10
382.72198302498458
 20
347.34685097233017
 30
0.0
 40
1.0
 50
14.999999999994451
 51
78.786710000007588
  0
LINE
  5
8736
  8
AM_0
 10
385.93838302498568
 20
339.20675097233021
 30
0.0
 11
383.68788302498558
 21
347.6057009723292
 31
0.0
  0
ARC
  5
8737
  8
AM_0
 10
411.43833302498422
 20
333.50530097232922
 30
0.0
 40
5.0
 50
34.887349999988068
 51
87.999999999996476
  0
ARC
  5
8738
  8
AM_0
 10
419.64113302498572
 20
339.22500097232921
 30
0.0
 40
5.0
 50
214.88733999999911
 51
267.99999999999642
  0
ARC
  5
8739
  8
AM_0
 10
488.43833302498427
 20
254.16440097232899
 30
0.0
 40
15.0
 50
90.000002999984645
 51
180.00001000000091
  0
LINE
  5
873A
  8
AM_0
 10
488.43833302498427
 20
269.16440097232902
 30
0.0
 11
506.43833302498558
 21
269.16440097232902
 31
0.0
  0
LINE
  5
873B
  8
AM_0
 10
564.43833302498342
 20
248.70675097232919
 30
0.0
 11
564.43833302498342
 21
244.70676597232909
 31
0.0
  0
LINE
  5
873C
  8
AM_0
 10
538.4383330249857
 20
247.2067659723302
 30
0.0
 11
544.43833302498558
 21
247.2067659723302
 31
0.0
  0
ARC
  5
873D
  8
AM_0
 10
536.43833302498433
 20
275.27540097232912
 30
0.0
 40
2.0000000500000001
 50
0.0
 51
87.999999999996476
  0
ARC
  5
873E
  8
AM_0
 10
535.43833302498433
 20
279.31275097232918
 30
0.0
 40
2.0000000500000001
 50
179.99998999999889
 51
268.00001000001828
  0
LINE
  5
873F
  8
AM_0
 10
535.36858302498558
 20
277.31395097232922
 30
0.0
 11
536.50818302498556
 21
277.27420097233011
 31
0.0
  0
ARC
  5
8740
  8
AM_0
 10
516.43833302498433
 20
313.73225097232921
 30
0.0
 40
10.0
 50
179.99998999999889
 51
265.00000000000051
  0
ARC
  5
8741
  8
AM_0
 10
496.43833302498558
 20
321.53395097232919
 30
0.0
 40
10.0
 50
0.0
 51
87.999999999996476
  0
ARC
  5
8742
  8
AM_0
 10
528.43833302498558
 20
297.62505097232901
 30
0.0
 40
5.0
 50
0.0
 51
84.999996999985342
  0
LINE
  5
8743
  8
AM_0
 10
515.56668302498565
 20
303.7703509723292
 30
0.0
 11
528.87408302498568
 21
302.60610097232922
 31
0.0
  0
LINE
  5
8744
  8
AM_0
 10
626.4383330249857
 20
248.70675097232919
 30
0.0
 11
626.4383330249857
 21
189.70676597232901
 31
0.0
  0
ARC
  5
8745
  8
AM_0
 10
914.56160302498415
 20
217.20862597232909
 30
0.0
 40
60.0
 50
270.0
 51
90.000002999984645
  0
ARC
  5
8746
  8
AM_0
 10
914.56160302498415
 20
202.20862597232909
 30
0.0
 40
100.0
 50
0.0
 51
90.000002999984645
  0
ARC
  5
8747
  8
AM_0
 10
914.56160302498415
 20
217.20862597232909
 30
0.0
 40
60.0
 50
90.000002999984645
 51
270.0
  0
ARC
  5
8748
  8
AM_0
 10
914.56160302498415
 20
202.20862597232909
 30
0.0
 40
100.0
 50
90.000002999984645
 51
180.00001000000091
  0
ARC
  5
8749
  8
AM_0
 10
914.56160302498415
 20
217.20862597232909
 30
0.0
 40
27.500000499999999
 50
106.91239000000471
 51
73.08759699998545
  0
LINE
  5
874A
  8
AM_0
 10
1079.561578024985
 20
47.208620972329072
 30
0.0
 11
1041.3642330249861
 21
243.716955972329
 31
0.0
  0
LINE
  5
874B
  8
AM_0
 10
1031.561573024984
 20
124.1725209723292
 30
0.0
 11
1031.561573024984
 21
268.14241097232912
 31
0.0
  0
LINE
  5
874C
  8
AM_0
 10
749.56163302498305
 20
47.208620972329072
 30
0.0
 11
787.75895802498462
 21
243.71692597232911
 31
0.0
  0
LINE
  5
874D
  8
AM_0
 10
797.56157302498571
 20
124.1725209723292
 30
0.0
 11
797.56157302498571
 21
268.14241097232912
 31
0.0
  0
LINE
  5
874E
  8
ﾁｭｳｼﾝｾﾝ
 10
914.56160302498415
 20
11.20862097232907
 30
0.0
 11
914.56160302498415
 21
393.20791097232927
 31
0.0
  0
ARC
  5
874F
  8
AM_0
 10
1026.561573024984
 20
59.208590972329141
 30
0.0
 40
12.0
 50
180.00001000000091
 51
270.0
  0
ARC
  5
8750
  8
AM_0
 10
914.56160302498415
 20
124.20859097232911
 30
0.0
 40
117.0
 50
328.72669999998959
 51
0.0
  0
LINE
  5
8751
  8
AM_0
 10
1009.561573024984
 20
17.208620972329069
 30
0.0
 11
1079.561578024985
 21
17.208620972329069
 31
0.0
  0
LINE
  5
8752
  8
AM_0
 10
1014.561573024984
 20
47.208620972329072
 30
0.0
 11
1074.561578024985
 21
47.208620972329072
 31
0.0
  0
LINE
  5
8753
  8
AM_0
 10
819.56160302498586
 20
17.208620972329069
 30
0.0
 11
749.56158302498579
 21
17.208620972329069
 31
0.0
  0
LINE
  5
8754
  8
AM_0
 10
814.56160302498415
 20
47.208620972329072
 30
0.0
 11
754.56158302498568
 21
47.208620972329072
 31
0.0
  0
LINE
  5
8755
  8
ﾁｭｳｼﾝｾﾝ
 10
782.06158302498579
 20
52.206760972329242
 30
0.0
 11
782.06158302498579
 21
12.206760972329221
 31
0.0
  0
LINE
  5
8756
  8
AM_0
 10
749.56158302498579
 20
47.208620972329072
 30
0.0
 11
749.56158302498579
 21
17.208620972329069
 31
0.0
  0
LINE
  5
8757
  8
ｶｸﾚｾﾝ2
 10
791.56157302498559
 20
47.208620972329072
 30
0.0
 11
791.56157302498559
 21
17.208620972329069
 31
0.0
  0
LINE
  5
8758
  8
ｶｸﾚｾﾝ2
 10
772.56158302498579
 20
47.208620972329072
 30
0.0
 11
772.56158302498579
 21
17.208620972329069
 31
0.0
  0
ARC
  5
8759
  8
AM_0
 10
754.56158302498568
 20
42.208620972329058
 30
0.0
 40
5.0
 50
90.000002999984645
 51
180.00001000000091
  0
ARC
  5
875A
  8
AM_0
 10
914.56160302498415
 20
124.20859097232911
 30
0.0
 40
117.0
 50
179.99998999999889
 51
211.27330000001029
  0
LINE
  5
875B
  8
AM_0
 10
1014.561573024984
 20
59.208590972329141
 30
0.0
 11
1014.561573024984
 21
202.20862597232909
 31
0.0
  0
LINE
  5
875C
  8
AM_0
 10
814.56160302498415
 20
59.208590972329141
 30
0.0
 11
814.56160302498415
 21
202.20862597232909
 31
0.0
  0
LINE
  5
875D
  8
AM_0
 10
914.56160302498415
 20
33.208620972329072
 30
0.0
 11
855.55226302498454
 21
33.208620972329072
 31
0.0
  0
LINE
  5
875E
  8
AM_0
 10
914.56160302498415
 20
24.208590972329151
 30
0.0
 11
824.56160302498586
 21
24.208590972329151
 31
0.0
  0
LINE
  5
875F
  8
AM_0
 10
849.81648802498455
 20
35.017090972329243
 30
0.0
 11
843.48784302498541
 21
39.448460972329251
 31
0.0
  0
ARC
  5
8760
  8
AM_0
 10
829.56160302498438
 20
23.066470972329181
 30
0.0
 40
10.0
 50
134.9999999999815
 51
180.00001000000091
  0
LINE
  5
8761
  8
AM_0
 10
822.49049802498439
 20
30.137575972329159
 30
0.0
 11
830.6809880249856
 21
38.328035972330092
 31
0.0
  0
LINE
  5
8762
  8
AM_0
 10
819.56160302498586
 20
42.208620972329058
 30
0.0
 11
819.56160302498586
 21
17.208620972329069
 31
0.0
  0
ARC
  5
8763
  8
AM_0
 10
824.56160302498586
 20
19.208590972329141
 30
0.0
 40
5.0
 50
90.000002999984645
 51
180.00001000000091
  0
ARC
  5
8764
  8
AM_0
 10
802.56157302498571
 20
59.208590972329141
 30
0.0
 40
12.0
 50
270.0
 51
0.0
  0
ARC
  5
8765
  8
AM_0
 10
814.56160302498415
 20
42.208620972329058
 30
0.0
 40
5.0
 50
0.0
 51
90.000002999984645
  0
ARC
  5
8766
  8
AM_0
 10
837.75206302498555
 20
31.256930972329201
 30
0.0
 40
10.0
 50
54.99999899998874
 51
134.9999999999815
  0
ARC
  5
8767
  8
AM_0
 10
855.55226302498454
 20
43.208620972329072
 30
0.0
 40
10.0
 50
235.0000000000133
 51
270.0
  0
LINE
  5
8768
  8
AM_0
 10
914.56160302498415
 20
33.208620972329072
 30
0.0
 11
973.57091302498395
 21
33.208620972329072
 31
0.0
  0
LINE
  5
8769
  8
AM_0
 10
914.56160302498415
 20
24.208590972329151
 30
0.0
 11
1004.561573024985
 21
24.208590972329151
 31
0.0
  0
ARC
  5
876A
  8
AM_0
 10
999.56157302498445
 20
23.066470972329181
 30
0.0
 40
10.0
 50
0.0
 51
45.000000999994569
  0
LINE
  5
876B
  8
AM_0
 10
1006.632648024984
 20
30.137545972329232
 30
0.0
 11
998.44215802498525
 21
38.328035972330092
 31
0.0
  0
LINE
  5
876C
  8
AM_0
 10
1009.561573024984
 20
42.208620972329058
 30
0.0
 11
1009.561573024984
 21
17.208620972329069
 31
0.0
  0
ARC
  5
876D
  8
AM_0
 10
1004.561573024985
 20
19.208590972329141
 30
0.0
 40
5.0
 50
0.0
 51
90.000002999984645
  0
ARC
  5
876E
  8
AM_0
 10
991.37108302498564
 20
31.256930972329201
 30
0.0
 40
10.0
 50
45.000000999994569
 51
124.9999999999865
  0
ARC
  5
876F
  8
AM_0
 10
973.57091302498395
 20
43.208620972329072
 30
0.0
 40
10.0
 50
270.0
 51
304.9999999999867
  0
LINE
  5
8770
  8
AM_0
 10
979.30666302498662
 20
35.017125972329268
 30
0.0
 11
985.63530302498555
 21
39.448520972329092
 31
0.0
  0
ARC
  5
8771
  8
AM_0
 10
1014.561573024984
 20
42.208620972329058
 30
0.0
 40
5.0
 50
90.000002999984645
 51
180.00001000000091
  0
LINE
  5
8773
  8
ﾁｭｳｼﾝｾﾝ
 10
1047.061573024984
 20
52.206760972329242
 30
0.0
 11
1047.061573024984
 21
12.206760972329221
 31
0.0
  0
LINE
  5
8774
  8
ｶｸﾚｾﾝ2
 10
1037.561588024982
 20
47.208620972329072
 30
0.0
 11
1037.561588024982
 21
17.208620972329069
 31
0.0
  0
LINE
  5
8775
  8
ｶｸﾚｾﾝ2
 10
1056.561573024984
 20
47.208620972329072
 30
0.0
 11
1056.561573024984
 21
17.208620972329069
 31
0.0
  0
LINE
  5
8776
  8
AM_0
 10
1079.561578024985
 20
47.208620972329072
 30
0.0
 11
1079.561578024985
 21
17.208620972329069
 31
0.0
  0
ARC
  5
8777
  8
AM_0
 10
1074.561578024985
 20
42.208620972329058
 30
0.0
 40
5.0
 50
0.0
 51
90.000002999984645
  0
ARC
  5
8778
  8
AM_0
 10
914.56160302498415
 20
192.20862597232909
 30
0.0
 40
142.0
 50
43.554364000007077
 51
90.000002999984645
  0
ARC
  5
8779
  8
AM_0
 10
914.56160302498415
 20
192.20862597232909
 30
0.0
 40
147.0
 50
45.402042999998883
 51
90.000002999984645
  0
LINE
  5
877A
  8
ﾁｭｳｼﾝｾﾝ
 10
1005.482534400449
 20
217.20862597232909
 30
0.0
 11
823.64067164951939
 21
217.20862597232909
 31
0.0
  0
ARC
  5
877B
  8
AM_0
 10
881.56157302498582
 20
225.67502597232919
 30
0.0
 40
100.0
 50
134.59796000000341
 51
180.00001000000091
  0
ARC
  5
877C
  8
AM_0
 10
879.05028302498556
 20
225.97171597232901
 30
0.0
 40
93.0
 50
136.4456400000098
 51
169.0000000000166
  0
LINE
  5
877D
  8
AM_0
 10
781.56158302498579
 20
225.67502597232919
 30
0.0
 11
781.56158302498579
 21
211.8343259723292
 31
0.0
  0
LINE
  5
877E
  8
AM_0
 10
909.56160302498552
 20
385.20861097233018
 30
0.0
 11
909.56160302498552
 21
343.20861097232893
 31
0.0
  0
LINE
  5
877F
  8
AM_0
 10
919.56160302498574
 20
385.20861097233018
 30
0.0
 11
919.56160302498574
 21
343.20861097232893
 31
0.0
  0
ARC
  5
8780
  8
AM_0
 10
914.56160302498415
 20
192.20862597232909
 30
0.0
 40
142.0
 50
90.000002999984645
 51
136.4456400000098
  0
ARC
  5
8781
  8
AM_0
 10
914.56160302498415
 20
192.20862597232909
 30
0.0
 40
147.0
 50
90.000002999984645
 51
134.59796000000341
  0
LINE
  5
8782
  8
AM_0
 10
901.91554802498547
 20
338.66366097232918
 30
0.0
 11
904.31206302498322
 21
347.60751097233009
 31
0.0
  0
ARC
  5
8783
  8
AM_0
 10
807.56157302498571
 20
268.14241097232912
 30
0.0
 40
10.0
 50
149.46392000000469
 51
180.00001000000091
  0
LINE
  5
8784
  8
AM_0
 10
922.56157302498582
 20
238.70862597232909
 30
0.0
 11
922.56157302498582
 21
248.7086109723291
 31
0.0
  0
LINE
  5
8785
  8
AM_0
 10
906.56157302498582
 20
238.70862597232909
 30
0.0
 11
906.56157302498582
 21
248.7086109723291
 31
0.0
  0
CIRCLE
  5
8786
  8
AM_0
 10
914.56160302498415
 20
217.20862597232909
 30
0.0
 40
4.500000049999997
  0
CIRCLE
  5
8787
  8
AM_5
 10
914.56160302498415
 20
217.20862597232909
 30
0.0
 40
6.0
  0
LINE
  5
8788
  8
AM_0
 10
906.56157302498582
 20
238.70862597232909
 30
0.0
 11
922.56157302498582
 21
238.70862597232909
 31
0.0
  0
LINE
  5
8789
  8
AM_0
 10
906.56157302498582
 20
248.7086109723291
 30
0.0
 11
922.56157302498582
 21
248.7086109723291
 31
0.0
  0
ARC
  5
878A
  8
AM_0
 10
905.27800302498565
 20
347.34871097232912
 30
0.0
 40
1.0
 50
101.2132899999923
 51
164.9999900000129
  0
ARC
  5
878B
  8
AM_0
 10
907.56157302498571
 20
343.20861097232893
 30
0.0
 40
2.0000000500000001
 50
270.0
 51
0.0
  0
LINE
  5
878C
  8
AM_0
 10
905.08351302498556
 20
348.32961097232902
 30
0.0
 11
909.56157302498571
 21
349.217360972329
 31
0.0
  0
ARC
  5
878D
  8
AM_0
 10
923.84514302498383
 20
347.34871097232912
 30
0.0
 40
1.0
 50
14.999999999994451
 51
78.786710000007588
  0
ARC
  5
878E
  8
AM_0
 10
921.56157302498582
 20
343.20861097232893
 30
0.0
 40
2.0000000500000001
 50
179.99998999999889
 51
270.0
  0
LINE
  5
878F
  8
AM_0
 10
927.20759802498549
 20
338.66366097232918
 30
0.0
 11
924.81108302498558
 21
347.60756097232911
 31
0.0
  0
LINE
  5
8790
  8
AM_0
 10
919.56160302498574
 20
349.217360972329
 30
0.0
 11
924.03963302498448
 21
348.32961097232902
 31
0.0
  0
ARC
  5
8791
  8
AM_0
 10
914.56160302498415
 20
385.20861097233018
 30
0.0
 40
5.0
 50
359.999989999999
 51
179.99998999999889
  0
ARC
  5
8792
  8
AM_0
 10
947.56157302498582
 20
225.67502597232919
 30
0.0
 40
100.0
 50
0.0
 51
45.402042999998883
  0
ARC
  5
8793
  8
AM_0
 10
950.07286302498335
 20
225.97171597232901
 30
0.0
 40
93.0
 50
10.999999999983411
 51
43.554364000007077
  0
LINE
  5
8794
  8
AM_0
 10
1047.5615930249839
 20
225.67502597232919
 30
0.0
 11
1047.5615930249839
 21
211.8343259723292
 31
0.0
  0
ARC
  5
8795
  8
AM_0
 10
1021.561573024984
 20
268.14241097232912
 30
0.0
 40
10.0
 50
0.0
 51
30.536084999989829
  0
LINE
  5
8797
  8
AM_0
 10
219.43837302498471
 20
198.49675497232909
 30
0.0
 11
219.43837302498471
 21
73.49673897232924
 31
0.0
  0
LINE
  5
8798
  8
AM_0
 10
22.438423024984331
 20
104.3167649723291
 30
0.0
 11
22.438423024984331
 21
170.52674097232921
 31
0.0
  0
LINE
  5
8799
  8
AM_0
 10
24.938383024984429
 20
78.996755972329098
 30
0.0
 11
24.938383024985342
 21
95.828410154900212
 31
0.0
  0
LINE
  5
879A
  8
AM_0
 10
72.43837302498558
 20
193.42672497232911
 30
0.0
 11
72.43837302498558
 21
135.99674097232921
 31
0.0
  0
LINE
  5
879B
  8
AM_0
 10
209.20840302498431
 20
165.99674397232911
 30
0.0
 11
209.20840302498431
 21
105.996755972329
 31
0.0
  0
LINE
  5
879C
  8
ﾁｭｳｼﾝｾﾝ
 10
168.43837302498551
 20
176.62174047232909
 30
0.0
 11
168.43837302498551
 21
95.371741472329305
 31
0.0
  0
ARC
  5
879D
  8
AM_0
 10
55.439113024985538
 20
135.9948509723292
 30
0.0
 40
8.0019083999999978
 50
90.005172999990876
 51
161.7801600000048
  0
ARC
  5
879E
  8
AM_0
 10
55.433353024984619
 20
135.99076197232921
 30
0.0
 40
7.9940046000000002
 50
198.17884000000481
 51
270.03581999999773
  0
LINE
  5
879F
  8
AM_0
 10
24.938383024985342
 20
92.106755972329196
 30
0.0
 11
72.43837302498558
 21
92.106755972329196
 31
0.0
  0
LINE
  5
87A0
  8
AM_0
 10
40.078393024985402
 20
138.4967429723292
 30
0.0
 11
49.938373024984692
 21
138.4967429723292
 31
0.0
  0
LINE
  5
87A1
  8
AM_0
 10
40.078393024985402
 20
133.49674197232909
 30
0.0
 11
49.938373024984692
 21
133.49674197232909
 31
0.0
  0
LINE
  5
87A2
  8
AM_0
 10
24.438373024985591
 20
78.996755972329098
 30
0.0
 11
72.43837302498558
 21
78.996755972329098
 31
0.0
  0
LINE
  5
87A3
  8
AM_0
 10
31.518373024984609
 20
132.27674097232921
 30
0.0
 11
17.058373024985482
 21
87.766745972329105
 31
0.0
  0
LINE
  5
87A4
  8
AM_0
 10
36.278383024984571
 20
130.72675197232911
 30
0.0
 11
21.818383024985451
 21
86.226749972329117
 31
0.0
  0
ARC
  5
87A5
  8
AM_0
 10
19.438423024985241
 20
86.996741972329119
 30
0.0
 40
2.5014680099999991
 50
162.0720800000052
 51
342.07206999999983
  0
ARC
  5
87A6
  8
AM_0
 10
19.43752302498433
 20
86.991323972329155
 30
0.0
 40
3.0008441999999982
 50
185.05818999999411
 51
0.1035440000078684
  0
LINE
  5
87A7
  8
AM_0
 10
22.438423024984331
 20
88.136753972329174
 30
0.0
 11
22.438423024984331
 21
80.996738972330164
 31
0.0
  0
ARC
  5
87A8
  8
AM_0
 10
24.433123024984521
 20
80.991461972329262
 30
0.0
 40
1.994720039999998
 50
179.84812999999991
 51
270.15187999998409
  0
LINE
  5
87A9
  8
AM_0
 10
24.938383024985342
 20
95.836751972329253
 30
0.0
 11
24.938383024984429
 21
92.106755972329196
 31
0.0
  0
ARC
  5
87AA
  8
AM_0
 10
16.146013024985219
 20
86.692418972329264
 30
0.0
 40
0.304344
 50
6.47775910000429
 51
89.547816999989394
  0
ARC
  5
87AB
  8
AM_0
 10
16.146793024984611
 20
86.691671972329232
 30
0.0
 40
0.8050760400000001
 50
5.3506318999939149
 51
89.888465999985428
  0
LINE
  5
87AC
  8
AM_0
 10
15.93838302498443
 20
87.496754972329185
 30
0.0
 11
15.93838302498443
 21
86.996741972329119
 31
0.0
  0
LINE
  5
87AD
  8
AM_0
 10
15.93838302498443
 20
87.496754972329185
 30
0.0
 11
16.148383024985371
 21
87.496754972329185
 31
0.0
  0
ARC
  5
87AE
  8
AM_0
 10
22.486453024983351
 20
98.496863972329294
 30
0.0
 40
4.0504481999999991
 50
99.063520000000551
 51
224.92059999999211
  0
ARC
  5
87AF
  8
AM_0
 10
40.080823024984511
 20
129.4932329723292
 30
0.0
 40
9.0035201999999952
 50
90.015528000017568
 51
161.99145000000701
  0
ARC
  5
87B0
  8
AM_0
 10
40.084963024984532
 20
129.49622397232901
 30
0.0
 40
4.0005161999999981
 50
90.094088000021216
 51
162.0860700000022
  0
LINE
  5
87B1
  8
AM_0
 10
117.4383730249854
 20
89.646764972329265
 30
0.0
 11
219.43837302498471
 21
89.646764972329265
 31
0.0
  0
LINE
  5
87B2
  8
AM_0
 10
212.78842302498421
 20
99.996755972329083
 30
0.0
 11
77.988433024984261
 21
99.996755972329083
 31
0.0
  0
LINE
  5
87B3
  8
AM_0
 10
95.438383024985313
 20
74.136740972329093
 30
0.0
 11
212.24836302498531
 21
74.136740972329093
 31
0.0
  0
LINE
  5
87B4
  8
AM_0
 10
168.43837302498551
 20
99.276755972329056
 30
0.0
 11
216.2583730249853
 21
99.276755972329056
 31
0.0
  0
LINE
  5
87B5
  8
AM_0
 10
117.4383730249854
 20
89.646749972329175
 30
0.0
 11
82.438363024984497
 21
91.676747972329153
 31
0.0
  0
LINE
  5
87B6
  8
AM_0
 10
76.708393024984602
 20
129.72672297232899
 30
0.0
 11
117.4383730249854
 21
129.72672297232899
 31
0.0
  0
LINE
  5
87B7
  8
AM_0
 10
116.9383730249846
 20
109.9967549723291
 30
0.0
 11
77.988433024984261
 21
109.9967549723291
 31
0.0
  0
LINE
  5
87B8
  8
AM_0
 10
76.898383024984483
 20
112.4367599723291
 30
0.0
 11
116.9383730249846
 21
112.4367599723291
 31
0.0
  0
LINE
  5
87B9
  8
AM_0
 10
116.9383730249846
 20
111.996755972329
 30
0.0
 11
77.988433024984261
 21
111.996755972329
 31
0.0
  0
LINE
  5
87BA
  8
AM_0
 10
76.768393024984562
 20
119.6567459723292
 30
0.0
 11
117.4383730249854
 21
119.6567459723292
 31
0.0
  0
LINE
  5
87BB
  8
AM_0
 10
117.4383730249854
 20
119.9967419723302
 30
0.0
 11
77.998363024985309
 21
119.9967419723302
 31
0.0
  0
LINE
  5
87BC
  8
AM_0
 10
76.768393024984562
 20
122.3167649723291
 30
0.0
 11
117.4383730249854
 21
122.3167649723291
 31
0.0
  0
LINE
  5
87BD
  8
AM_0
 10
117.4383730249854
 20
131.99674197232909
 30
0.0
 11
77.998363024985309
 21
131.99674197232909
 31
0.0
  0
LINE
  5
87BE
  8
AM_0
 10
117.4383730249854
 20
129.99674097233009
 30
0.0
 11
77.998363024985309
 21
129.99674097233009
 31
0.0
  0
LINE
  5
87BF
  8
AM_0
 10
76.708393024984602
 20
132.266759972329
 30
0.0
 11
117.4383730249854
 21
132.266759972329
 31
0.0
  0
LINE
  5
87C0
  8
AM_0
 10
76.708393024984602
 20
139.73673297232921
 30
0.0
 11
117.4383730249854
 21
139.73673297232921
 31
0.0
  0
LINE
  5
87C1
  8
AM_0
 10
76.708393024984602
 20
142.2667319723291
 30
0.0
 11
117.4383730249854
 21
142.2667319723291
 31
0.0
  0
LINE
  5
87C2
  8
AM_0
 10
117.4383730249854
 20
101.9967419723291
 30
0.0
 11
78.428413024984337
 21
101.9967419723291
 31
0.0
  0
LINE
  5
87C3
  8
AM_0
 10
76.898383024984483
 20
109.51674597232901
 30
0.0
 11
116.9383730249846
 21
109.51674597232901
 31
0.0
  0
LINE
  5
87C4
  8
AM_0
 10
95.438383024985313
 20
72.106739972329251
 30
0.0
 11
148.43842302498339
 21
72.106739972329251
 31
0.0
  0
LINE
  5
87C5
  8
AM_0
 10
95.438383024985313
 20
70.756748972329206
 30
0.0
 11
148.43842302498339
 21
70.756748972329206
 31
0.0
  0
LINE
  5
87C6
  8
AM_0
 10
95.438383024985313
 20
70.086752972329123
 30
0.0
 11
148.43842302498339
 21
70.086752972329123
 31
0.0
  0
LINE
  5
87C7
  8
AM_0
 10
117.4383730249854
 20
139.9967429723292
 30
0.0
 11
77.998363024985309
 21
139.9967429723292
 31
0.0
  0
LINE
  5
87C8
  8
AM_0
 10
117.4383730249854
 20
141.99674097232921
 30
0.0
 11
77.998363024985309
 21
141.99674097232921
 31
0.0
  0
LINE
  5
87C9
  8
AM_0
 10
117.4383730249854
 20
121.99675797232899
 30
0.0
 11
77.998363024985309
 21
121.99675797232899
 31
0.0
  0
LINE
  5
87CA
  8
AM_0
 10
77.118373024984507
 20
99.276755972329056
 30
0.0
 11
168.43837302498551
 21
99.276755972329056
 31
0.0
  0
LINE
  5
87CB
  8
AM_0
 10
77.118373024984507
 20
102.62674497232911
 30
0.0
 11
117.4383730249854
 21
102.62674497232911
 31
0.0
  0
LINE
  5
87CC
  8
AM_0
 10
72.43837302498558
 20
78.566747972329253
 30
0.0
 11
72.43837302498558
 21
135.99674097232921
 31
0.0
  0
LINE
  5
87CD
  8
AM_0
 10
72.43837302498558
 20
93.306737972330211
 30
0.0
 11
82.438423024985241
 21
93.306737972330211
 31
0.0
  0
LINE
  5
87CE
  8
AM_0
 10
78.578383024983381
 20
74.326742972329157
 30
0.0
 11
91.938373024984685
 21
74.326742972329157
 31
0.0
  0
LINE
  5
87CF
  8
AM_0
 10
72.43837302498558
 20
87.646748972329064
 30
0.0
 11
82.438423024985241
 21
87.646748972329064
 31
0.0
  0
LINE
  5
87D0
  8
AM_0
 10
78.668413024984602
 20
83.016743972329095
 30
0.0
 11
91.938373024984685
 21
83.016743972329095
 31
0.0
  0
LINE
  5
87D1
  8
AM_0
 10
78.54835302498438
 20
72.69675297232925
 30
0.0
 11
92.048353024983044
 21
72.69675297232925
 31
0.0
  0
LINE
  5
87D2
  8
AM_0
 10
78.608413024984657
 20
77.736761972329063
 30
0.0
 11
91.938373024984685
 21
77.736761972329063
 31
0.0
  0
ARC
  5
87D3
  8
AM_0
 10
74.22853302498423
 20
83.463947972329166
 30
0.0
 40
1.50278811
 50
12.013342000000099
 51
90.004668000016366
  0
ARC
  5
87D4
  8
AM_0
 10
78.665413024985341
 20
85.016363972329145
 30
0.0
 40
1.9996281299999981
 50
190.36075999999741
 51
270.08532999998027
  0
ARC
  5
87D5
  8
AM_0
 10
78.550783024985293
 20
74.701070972329262
 30
0.0
 40
2.004324029999998
 50
194.2780500000037
 51
269.93108999997929
  0
LINE
  5
87D6
  8
AM_0
 10
72.438433024984533
 20
78.566747972329253
 30
0.0
 11
75.258373024985289
 21
78.496739972329124
 31
0.0
  0
ARC
  5
87D7
  8
AM_0
 10
74.273383024985364
 20
77.37498897232922
 30
0.0
 40
1.5017800800000001
 50
14.332836000000739
 51
90.189383000005648
  0
ARC
  5
87D8
  8
AM_0
 10
74.252713024984573
 20
79.400426972329086
 30
0.0
 40
1.4963320799999991
 50
13.382437999997689
 51
90.164589999994277
  0
ARC
  5
87D9
  8
AM_0
 10
78.576313024984287
 20
76.32869397232912
 30
0.0
 40
2.0019479399999991
 50
193.3411400000015
 51
270.05947999999449
  0
ARC
  5
87DA
  8
AM_0
 10
78.61030302498466
 20
79.732442972329181
 30
0.0
 40
1.995695999999995
 50
192.0225299999999
 51
269.94477999998969
  0
LINE
  5
87DB
  8
AM_0
 10
76.658413024984384
 20
79.316732972329191
 30
0.0
 11
75.69838302498556
 21
83.776739972329096
 31
0.0
  0
LINE
  5
87DC
  8
AM_0
 10
74.248363024985309
 20
80.896748972329078
 30
0.0
 11
76.308433024984424
 21
80.896748972329078
 31
0.0
  0
LINE
  5
87DD
  8
AM_0
 10
74.268403024984309
 20
78.876743972329223
 30
0.0
 11
75.918403024985309
 21
78.876743972329223
 31
0.0
  0
LINE
  5
87DE
  8
AM_0
 10
76.628383024984487
 20
75.866735972329252
 30
0.0
 11
75.708403024984335
 21
79.746740972329235
 31
0.0
  0
LINE
  5
87DF
  8
AM_0
 10
76.608343024985501
 20
74.206745972329145
 30
0.0
 11
75.72835302498423
 21
77.746739972329124
 31
0.0
  0
LINE
  5
87E0
  8
AM_0
 10
67.438423024985241
 20
92.106755972329196
 30
0.0
 11
67.438423024983422
 21
78.996755972329098
 31
0.0
  0
LINE
  5
87E1
  8
AM_0
 10
74.22835302498423
 20
84.966740972330143
 30
0.0
 11
76.648393024984671
 21
84.966740972330143
 31
0.0
  0
LINE
  5
87E2
  8
AM_0
 10
76.158403024984622
 20
87.646733972329244
 30
0.0
 11
76.698373024984448
 21
84.656729972329231
 31
0.0
  0
LINE
  5
87E3
  8
AM_0
 10
72.43837302498558
 20
101.69675397232911
 30
0.0
 11
75.608413024984657
 21
101.69675397232911
 31
0.0
  0
ARC
  5
87E4
  8
AM_0
 10
77.118373024984507
 20
100.9517579723292
 30
0.0
 40
1.67500812
 50
90.000002999984645
 51
270.0
  0
ARC
  5
87E5
  8
AM_0
 10
77.988433024984261
 20
100.9967549723292
 30
0.0
 40
1.000004069999999
 50
90.000002999984645
 51
270.0
  0
ARC
  5
87E6
  8
AM_0
 10
91.93984302498302
 20
72.828176972329175
 30
0.0
 40
1.498559999999999
 50
359.94487999999399
 51
90.055115000003084
  0
ARC
  5
87E7
  8
AM_0
 10
95.440933024984574
 20
74.10925797232926
 30
0.0
 40
2.00251584
 50
180.0718999999998
 51
269.9281000000002
  0
ARC
  5
87E8
  8
AM_0
 10
92.057083024985346
 20
71.196461972329189
 30
0.0
 40
1.500312029999999
 50
14.683033999993
 51
90.331662999981447
  0
ARC
  5
87E9
  8
AM_0
 10
95.439523024983373
 20
72.083165972330335
 30
0.0
 40
1.9964280599999991
 50
194.69463000000229
 51
269.96760999999151
  0
ARC
  5
87EA
  8
AM_0
 10
95.438203024985356
 20
72.75656697232921
 30
0.0
 40
1.9998241199999991
 50
179.99493999999211
 51
270.00505999999473
  0
ARC
  5
87EB
  8
AM_0
 10
91.936843024984682
 20
76.235249972330166
 30
0.0
 40
1.5015081599999991
 50
0.0575469979997975
 51
89.94245100000316
  0
ARC
  5
87EC
  8
AM_0
 10
91.938013024984684
 20
81.516377972330233
 30
0.0
 40
1.500360179999999
 50
0.0138159999949371
 51
89.986184999986932
  0
ARC
  5
87ED
  8
AM_0
 10
95.440033024984587
 20
76.138388972329267
 30
0.0
 40
2.0016401400000001
 50
180.04696000000459
 51
269.9530400000213
  0
LINE
  5
87EE
  8
AM_0
 10
93.438373024984685
 20
74.106755972329211
 30
0.0
 11
93.438373024984685
 21
81.516743972329095
 31
0.0
  0
ARC
  5
87EF
  8
AM_0
 10
81.608593024985566
 20
94.403858972329076
 30
0.0
 40
5.0021840999999991
 50
5.424525999996443
 51
80.451425000001095
  0
LINE
  5
87F0
  8
AM_0
 10
82.438423024985241
 20
87.646748972329064
 30
0.0
 11
82.438423024985241
 21
101.69675397232911
 31
0.0
  0
ARC
  5
87F1
  8
AM_0
 10
82.068613024984657
 20
98.343266972330184
 30
0.0
 40
6.007896599999996
 50
273.5284499999849
 51
314.61726999999422
  0
ARC
  5
87F2
  8
AM_0
 10
85.584913024984445
 20
94.787831972329045
 30
0.0
 40
1.007376
 50
314.2903200000024
 51
5.0634048999984609
  0
ARC
  5
87F3
  8
AM_0
 10
94.438423024985241
 20
100.9967549723292
 30
0.0
 40
1.000004069999999
 50
90.000002999984645
 51
270.0
  0
LINE
  5
87F4
  8
ﾁｭｳｼﾝｾﾝ
 10
55.438423024983422
 20
121.22941981061901
 30
0.0
 11
55.438423024983422
 21
150.76406213403931
 31
0.0
  0
ARC
  5
87F5
  8
AM_0
 10
77.988433024984261
 20
110.9967419723291
 30
0.0
 40
1.000004069999999
 50
90.000002999984645
 51
270.0
  0
ARC
  5
87F6
  8
AM_0
 10
76.898383024984483
 20
110.9767379723302
 30
0.0
 40
1.4600000699999991
 50
90.000002999984645
 51
270.0
  0
ARC
  5
87F7
  8
AM_0
 10
77.989693024984263
 20
120.996755972329
 30
0.0
 40
1.00003602
 50
89.500715999993631
 51
270.49928999999503
  0
ARC
  5
87F8
  8
AM_0
 10
76.768393024984562
 20
120.9867479723313
 30
0.0
 40
1.33000008
 50
90.000002999984645
 51
270.0
  0
LINE
  5
87F9
  8
AM_0
 10
55.438423024983422
 20
127.9967429723292
 30
0.0
 11
72.43837302498558
 21
127.9967429723292
 31
0.0
  0
LINE
  5
87FA
  8
AM_0
 10
55.438423024983422
 20
143.99674197232909
 30
0.0
 11
72.43837302498558
 21
143.99674197232909
 31
0.0
  0
ARC
  5
87FB
  8
AM_0
 10
55.438423024983422
 20
135.99072897232909
 30
0.0
 40
5.0000519999999984
 50
23.65323000000534
 51
156.34676999999459
  0
ARC
  5
87FC
  8
AM_0
 10
55.438423024983422
 20
135.99072897232909
 30
0.0
 40
4.9952319000000003
 50
203.52670000000049
 51
336.47329000000877
  0
LINE
  5
87FD
  8
AM_0
 10
49.938373024984692
 20
137.99674197232909
 30
0.0
 11
60.938383024985342
 21
137.99674197232909
 31
0.0
  0
LINE
  5
87FE
  8
AM_0
 10
49.938373024984692
 20
133.9967429723292
 30
0.0
 11
60.938383024985342
 21
133.9967429723292
 31
0.0
  0
LINE
  5
87FF
  8
AM_0
 10
49.938373024984692
 20
133.49674197232909
 30
0.0
 11
49.938373024984692
 21
138.4967429723292
 31
0.0
  0
LINE
  5
8800
  8
AM_0
 10
63.438373024985601
 20
133.49674197232909
 30
0.0
 11
63.438373024985601
 21
138.4967429723292
 31
0.0
  0
LINE
  5
8801
  8
AM_0
 10
60.938383024985342
 20
133.49674197232909
 30
0.0
 11
60.938383024985342
 21
138.4967429723292
 31
0.0
  0
LINE
  5
8802
  8
AM_0
 10
60.938383024985342
 20
138.4967429723292
 30
0.0
 11
63.438373024985601
 21
138.4967429723292
 31
0.0
  0
LINE
  5
8803
  8
AM_0
 10
60.938383024985342
 20
133.49674197232909
 30
0.0
 11
63.438373024985601
 21
133.49674197232909
 31
0.0
  0
ARC
  5
8804
  8
AM_0
 10
76.708393024984602
 20
130.99674297233011
 30
0.0
 40
1.270004069999999
 50
90.000002999984645
 51
270.0
  0
ARC
  5
8805
  8
AM_0
 10
77.989693024984263
 20
130.99674297233011
 30
0.0
 40
1.00003602
 50
89.500715999993631
 51
270.49928999999503
  0
ARC
  5
8806
  8
AM_0
 10
77.989693024984263
 20
140.99674197232909
 30
0.0
 40
1.00003602
 50
89.500715999993631
 51
270.49928999999503
  0
ARC
  5
8807
  8
AM_0
 10
76.708393024984602
 20
141.00174597232919
 30
0.0
 40
1.265004089999999
 50
90.000002999984645
 51
270.0
  0
ARC
  5
8808
  8
AM_0
 10
94.438423024985241
 20
110.9967419723291
 30
0.0
 40
1.000004069999999
 50
90.000002999984645
 51
270.0
  0
ARC
  5
8809
  8
AM_0
 10
94.438423024985241
 20
120.996755972329
 30
0.0
 40
1.000004069999999
 50
90.000002999984645
 51
270.0
  0
ARC
  5
880A
  8
AM_0
 10
94.438423024985241
 20
130.99674297233011
 30
0.0
 40
1.000004069999999
 50
90.000002999984645
 51
270.0
  0
ARC
  5
880B
  8
AM_0
 10
94.438423024985241
 20
140.99674197232909
 30
0.0
 40
1.000004069999999
 50
90.000002999984645
 51
270.0
  0
ARC
  5
880C
  8
AM_0
 10
148.4375230249843
 20
72.087635972329281
 30
0.0
 40
2.000876009999998
 50
270.02510999999589
 51
359.97489000000411
  0
ARC
  5
880D
  8
AM_0
 10
148.43605302498551
 20
72.759083972330231
 30
0.0
 40
2.002332029999998
 50
270.06674000000118
 51
359.93325999999882
  0
ARC
  5
880E
  8
AM_0
 10
148.4333830249852
 20
74.111774972329158
 30
0.0
 40
2.00502402
 50
270.14341000000132
 51
359.85658999999868
  0
LINE
  5
880F
  8
AM_0
 10
150.4383730249846
 20
72.086735972329279
 30
0.0
 11
150.4383730249846
 21
74.136740972329093
 31
0.0
  0
ARC
  5
8810
  8
AM_0
 10
216.2583730249853
 20
100.9517579723292
 30
0.0
 40
1.6749999899999961
 50
270.0
 51
90.000002999984645
  0
ARC
  5
8811
  8
AM_0
 10
214.287733024983
 20
77.50327197232923
 30
0.0
 40
2.0065319999999991
 50
270.01926999998381
 51
347.72687000000042
  0
LINE
  5
8812
  8
AM_0
 10
214.14838302498529
 20
75.4967549723292
 30
0.0
 11
219.43837302498471
 21
75.4967549723292
 31
0.0
  0
LINE
  5
8813
  8
AM_0
 10
214.17835302498449
 20
75.616733972329257
 30
0.0
 11
217.63837302498541
 21
88.536734972329214
 31
0.0
  0
LINE
  5
8814
  8
AM_0
 10
216.2583730249853
 20
102.62674497232911
 30
0.0
 11
206.4383730249846
 21
102.62674497232911
 31
0.0
  0
ARC
  5
8815
  8
AM_0
 10
212.24380302498449
 20
76.14114897232912
 30
0.0
 40
2.004416039999998
 50
270.13147999999228
 51
344.8333399999994
  0
LINE
  5
8816
  8
AM_0
 10
212.78842302498421
 20
101.9967419723291
 30
0.0
 11
206.4383730249846
 21
101.9967419723291
 31
0.0
  0
LINE
  5
8817
  8
AM_0
 10
206.4383730249846
 20
105.9180023857591
 30
0.0
 11
209.20840302498431
 21
105.99672597233121
 31
0.0
  0
ARC
  5
8818
  8
AM_0
 10
212.78023302498551
 20
100.9967549723292
 30
0.0
 40
1.0000319699999971
 50
270.46929999998491
 51
89.530700000015145
  0
ARC
  5
8819
  8
AM_0
 10
220.43788302498521
 20
84.956213972329124
 30
0.0
 40
0.99947604
 50
179.97008999999551
 51
270.02991999999381
  0
ARC
  5
881A
  8
AM_0
 10
219.14545302498431
 20
83.467427972329233
 30
0.0
 40
1.499328059999999
 50
89.888150999980539
 51
168.09384000000131
  0
ARC
  5
881B
  8
AM_0
 10
220.43863302498539
 20
73.496921972329091
 30
0.0
 40
1.0001800499999971
 50
180.0103099999989
 51
269.98967999999968
  0
LINE
  5
881C
  8
AM_0
 10
216.24838302498429
 20
77.076740972329162
 30
0.0
 11
217.68838302498531
 21
83.776739972329096
 31
0.0
  0
ARC
  5
881D
  8
AM_0
 10
219.08377302498451
 20
88.150763972329045
 30
0.0
 40
1.49599605
 50
89.821707000006256
 51
165.04766000000561
  0
LINE
  5
881E
  8
AM_0
 10
219.1483930249855
 20
84.966740972330143
 30
0.0
 11
216.73843302498511
 21
84.966740972330143
 31
0.0
  0
LINE
  5
881F
  8
AM_0
 10
24.938383024985342
 20
179.88673497232909
 30
0.0
 11
72.43837302498558
 21
179.88673497232909
 31
0.0
  0
LINE
  5
8820
  8
AM_0
 10
24.938383024985342
 20
169.63675797232909
 30
0.0
 11
67.438423024985241
 21
169.63675797232909
 31
0.0
  0
LINE
  5
8821
  8
AM_0
 10
24.438373024985591
 20
192.99673497232911
 30
0.0
 11
72.43837302498558
 21
192.99673497232911
 31
0.0
  0
ARC
  5
8822
  8
AM_0
 10
24.438913024984679
 20
190.99618497232919
 30
0.0
 40
2.000536019999998
 50
90.015328999985087
 51
179.98467999999519
  0
ARC
  5
8823
  8
AM_0
 10
23.33614302498426
 20
173.37925497232911
 30
0.0
 40
2.9977641899999981
 50
179.8564500000015
 51
275.78659000000278
  0
LINE
  5
8824
  8
AM_0
 10
23.638393024984449
 20
170.28675297232911
 30
0.0
 11
23.638393024984449
 21
179.48674497232909
 31
0.0
  0
LINE
  5
8825
  8
AM_0
 10
23.638393024984449
 20
170.28675297232911
 30
0.0
 11
24.938383024985342
 21
170.28675297232911
 31
0.0
  0
LINE
  5
8826
  8
AM_0
 10
22.438423024984331
 20
179.24674497232911
 30
0.0
 11
22.438423024984331
 21
190.99675497232909
 31
0.0
  0
ARC
  5
8827
  8
AM_0
 10
23.33620302498548
 20
176.3842349723289
 30
0.0
 40
2.99777994
 50
84.213883000011535
 51
179.95210999999989
  0
LINE
  5
8828
  8
AM_0
 10
20.33839302498518
 20
173.38675497232899
 30
0.0
 11
20.33839302498518
 21
176.38675497232899
 31
0.0
  0
LINE
  5
8829
  8
AM_0
 10
23.638393024984449
 20
179.48674497232909
 30
0.0
 11
24.938383024985342
 21
179.48674497232909
 31
0.0
  0
LINE
  5
882A
  8
AM_0
 10
117.4383730249854
 20
182.3467349723291
 30
0.0
 11
219.43837302498471
 21
182.3467349723291
 31
0.0
  0
LINE
  5
882B
  8
AM_0
 10
86.118373024984507
 20
172.71673497232919
 30
0.0
 11
216.2583730249853
 21
172.71673497232919
 31
0.0
  0
LINE
  5
882C
  8
AM_0
 10
212.78842302498421
 20
171.99673497232911
 30
0.0
 11
86.988433024984261
 21
171.99673497232911
 31
0.0
  0
LINE
  5
882D
  8
AM_0
 10
95.438383024985313
 20
197.85676497232899
 30
0.0
 11
212.24836302498531
 21
197.85676497232899
 31
0.0
  0
LINE
  5
882E
  8
AM_0
 10
117.4384330249854
 20
182.3467349723291
 30
0.0
 11
82.438363024984497
 21
180.31675497232911
 31
0.0
  0
LINE
  5
882F
  8
AM_0
 10
76.768393024984562
 20
149.676734972329
 30
0.0
 11
117.4383730249854
 21
149.676734972329
 31
0.0
  0
LINE
  5
8830
  8
AM_0
 10
76.768393024984562
 20
152.3367389723291
 30
0.0
 11
117.4383730249854
 21
152.3367389723291
 31
0.0
  0
LINE
  5
8831
  8
AM_0
 10
85.898383024984469
 20
159.55673997232901
 30
0.0
 11
116.9383730249846
 21
159.55673997232901
 31
0.0
  0
LINE
  5
8832
  8
AM_0
 10
85.898383024984469
 20
162.4867649723291
 30
0.0
 11
116.9383730249846
 21
162.4867649723291
 31
0.0
  0
LINE
  5
8833
  8
AM_0
 10
86.118373024984507
 20
169.36676997232911
 30
0.0
 11
117.4383730249854
 21
169.36676997232911
 31
0.0
  0
LINE
  5
8834
  8
AM_0
 10
117.4383730249854
 20
149.9967419723302
 30
0.0
 11
77.998363024985309
 21
149.9967419723302
 31
0.0
  0
LINE
  5
8835
  8
AM_0
 10
117.4383730249854
 20
151.9967429723292
 30
0.0
 11
77.998363024985309
 21
151.9967429723292
 31
0.0
  0
LINE
  5
8836
  8
AM_0
 10
116.9383730249846
 20
159.99674397232911
 30
0.0
 11
86.988433024984261
 21
159.99674397232911
 31
0.0
  0
LINE
  5
8837
  8
AM_0
 10
116.9383730249846
 20
161.99674197232909
 30
0.0
 11
86.988433024984261
 21
161.99674197232909
 31
0.0
  0
LINE
  5
8838
  8
AM_0
 10
117.4383730249854
 20
169.9967429723292
 30
0.0
 11
86.988433024984261
 21
169.9967429723292
 31
0.0
  0
LINE
  5
8839
  8
AM_0
 10
95.438383024985313
 20
199.8867449723291
 30
0.0
 11
148.43842302498339
 21
199.8867449723291
 31
0.0
  0
LINE
  5
883A
  8
AM_0
 10
95.438383024985313
 20
201.23674497232921
 30
0.0
 11
148.43842302498339
 21
201.23674497232921
 31
0.0
  0
LINE
  5
883B
  8
AM_0
 10
95.438383024985313
 20
201.91675497232919
 30
0.0
 11
148.43842302498339
 21
201.91675497232919
 31
0.0
  0
ARC
  5
883C
  8
AM_0
 10
78.610063024984342
 20
192.27133497232921
 30
0.0
 40
1.9953880799999959
 50
90.048066999991249
 51
167.98461999999341
  0
LINE
  5
883D
  8
AM_0
 10
93.438373024984685
 20
197.88673497232909
 30
0.0
 11
93.438373024984685
 21
190.4767649723282
 31
0.0
  0
LINE
  5
883E
  8
AM_0
 10
76.628443024985245
 20
196.1267549723301
 30
0.0
 11
75.708403024984335
 21
192.24673497232911
 31
0.0
  0
LINE
  5
883F
  8
AM_0
 10
78.668413024984602
 20
188.97676497232911
 30
0.0
 11
91.938373024984685
 21
188.97676497232911
 31
0.0
  0
LINE
  5
8840
  8
AM_0
 10
72.43837302498558
 20
184.34674497232911
 30
0.0
 11
82.438423024985241
 21
184.34674497232911
 31
0.0
  0
LINE
  5
8841
  8
AM_0
 10
72.43837302498558
 20
178.68673497232899
 30
0.0
 11
82.438423024985241
 21
178.68673497232899
 31
0.0
  0
LINE
  5
8842
  8
AM_0
 10
72.43837302498558
 20
170.30674197232901
 30
0.0
 11
82.438423024985241
 21
170.30674197232901
 31
0.0
  0
ARC
  5
8843
  8
AM_0
 10
76.768393024984562
 20
151.006751972329
 30
0.0
 40
1.33000008
 50
90.000002999984645
 51
270.0
  0
ARC
  5
8844
  8
AM_0
 10
77.989693024984263
 20
150.99674097232921
 30
0.0
 40
1.00003602
 50
89.500715999993631
 51
270.49928999999503
  0
LINE
  5
8845
  8
AM_0
 10
67.438423024985241
 20
143.99674197232909
 30
0.0
 11
67.438423024985241
 21
192.99673497232911
 31
0.0
  0
ARC
  5
8846
  8
AM_0
 10
74.247583024984593
 20
192.59956497232889
 30
0.0
 40
1.502808149999999
 50
270.03078999999502
 51
346.42217999999571
  0
ARC
  5
8847
  8
AM_0
 10
74.229643024985293
 20
188.54086497232919
 30
0.0
 40
1.504140059999999
 50
269.95424999999199
 51
347.55525000000432
  0
ARC
  5
8848
  8
AM_0
 10
78.660223024984603
 20
186.9833549723291
 30
0.0
 40
1.993432109999999
 50
89.765883999979707
 51
169.7880299999938
  0
LINE
  5
8849
  8
AM_0
 10
74.248363024985309
 20
191.09674497232911
 30
0.0
 11
76.308433024984424
 21
191.09674497232911
 31
0.0
  0
LINE
  5
884A
  8
AM_0
 10
76.658353024985431
 20
192.68674497232911
 30
0.0
 11
75.698323024984347
 21
188.21674497232911
 31
0.0
  0
LINE
  5
884B
  8
AM_0
 10
74.22835302498423
 20
187.03675497232911
 30
0.0
 11
76.648393024984671
 21
187.03675497232911
 31
0.0
  0
LINE
  5
884C
  8
AM_0
 10
76.158343024985243
 20
184.34674497232911
 30
0.0
 11
76.698373024984448
 21
187.3367849723283
 31
0.0
  0
ARC
  5
884D
  8
AM_0
 10
86.988433024984261
 20
170.9967449723292
 30
0.0
 40
1.000004069999999
 50
90.000002999984645
 51
270.0
  0
ARC
  5
884E
  8
AM_0
 10
86.118373024984507
 20
171.0417149723302
 30
0.0
 40
1.67500812
 50
90.000002999984645
 51
270.0
  0
ARC
  5
884F
  8
AM_0
 10
94.438423024985241
 20
170.9967449723292
 30
0.0
 40
1.000004069999999
 50
90.000002999984645
 51
270.0
  0
LINE
  5
8850
  8
AM_0
 10
82.438423024985241
 20
184.34674497232911
 30
0.0
 11
82.438423024985241
 21
170.30674197232901
 31
0.0
  0
ARC
  5
8851
  8
AM_0
 10
86.988433024984261
 20
160.9967429723292
 30
0.0
 40
1.000004069999999
 50
90.000002999984645
 51
270.0
  0
ARC
  5
8852
  8
AM_0
 10
85.898383024984469
 20
161.0217359723292
 30
0.0
 40
1.46500008
 50
90.000002999984645
 51
270.0
  0
ARC
  5
8853
  8
AM_0
 10
94.438423024985241
 20
160.9967429723292
 30
0.0
 40
1.000004069999999
 50
90.000002999984645
 51
270.0
  0
ARC
  5
8854
  8
AM_0
 10
94.438423024985241
 20
150.99674097232921
 30
0.0
 40
1.000004069999999
 50
90.000002999984645
 51
270.0
  0
ARC
  5
8855
  8
AM_0
 10
85.588333024985317
 20
177.2068949723301
 30
0.0
 40
1.004135999999999
 50
354.84883999999488
 51
45.797435999992487
  0
ARC
  5
8856
  8
AM_0
 10
82.059583024984434
 20
173.6647949723301
 30
0.0
 40
6.0039084000000011
 50
45.223692999992473
 51
86.382714000002196
  0
ARC
  5
8857
  8
AM_0
 10
81.603343024985406
 20
177.59452497232911
 30
0.0
 40
5.0078918999999971
 50
279.59871999999518
 51
354.525319999994
  0
ARC
  5
8858
  8
AM_0
 10
91.932763024985434
 20
190.48240497232911
 30
0.0
 40
1.5056760899999959
 50
270.2155199999923
 51
359.78447000000108
  0
LINE
  5
8859
  8
AM_0
 10
78.54835302498438
 20
199.29673497233119
 30
0.0
 11
92.048353024983044
 21
199.29673497233119
 31
0.0
  0
LINE
  5
885A
  8
AM_0
 10
78.578383024983381
 20
197.666714972329
 30
0.0
 11
91.938373024984685
 21
197.666714972329
 31
0.0
  0
LINE
  5
885B
  8
AM_0
 10
78.608413024984657
 20
194.26672497232909
 30
0.0
 11
91.938373024984685
 21
194.26672497232909
 31
0.0
  0
LINE
  5
885C
  8
AM_0
 10
72.43837302498558
 20
193.42672497232911
 30
0.0
 11
75.258373024985289
 21
193.49671497232899
 31
0.0
  0
ARC
  5
885D
  8
AM_0
 10
78.545743024985313
 20
197.298944972329
 30
0.0
 40
1.9977801299999991
 50
89.923080999997794
 51
165.86777000000629
  0
ARC
  5
885E
  8
AM_0
 10
74.266693024985216
 20
194.6238449723291
 30
0.0
 40
1.5070961099999991
 50
270.0648200000017
 51
345.90217999999732
  0
ARC
  5
885F
  8
AM_0
 10
78.571243024984597
 20
195.67126497233011
 30
0.0
 40
1.995484169999999
 50
89.79345799999912
 51
166.8059200000088
  0
LINE
  5
8860
  8
AM_0
 10
76.608403024984455
 20
197.78674497232919
 30
0.0
 11
75.728413024985457
 21
194.25676497232911
 31
0.0
  0
LINE
  5
8861
  8
AM_0
 10
74.268403024984309
 20
193.11673497232911
 30
0.0
 11
75.918403024985309
 21
193.11673497232911
 31
0.0
  0
ARC
  5
8862
  8
AM_0
 10
92.052013024983367
 20
200.80363497232901
 30
0.0
 40
1.506888089999999
 50
269.86222999998643
 51
345.12306999999282
  0
ARC
  5
8863
  8
AM_0
 10
91.934533024984361
 20
199.1705849723291
 30
0.0
 40
1.5038481299999991
 50
270.14639999998991
 51
359.85359999999702
  0
ARC
  5
8864
  8
AM_0
 10
91.936603024984365
 20
195.7685549723291
 30
0.0
 40
1.501796039999995
 50
270.06854999998592
 51
359.93145000000101
  0
ARC
  5
8865
  8
AM_0
 10
95.440873024985194
 20
199.9219049723292
 30
0.0
 40
1.99484415
 50
90.071657999978328
 51
165.6371999999968
  0
ARC
  5
8866
  8
AM_0
 10
95.432953024984258
 20
199.24216497232911
 30
0.0
 40
1.99457616
 50
89.844008000013062
 51
180.1559900000027
  0
ARC
  5
8867
  8
AM_0
 10
95.435623024985475
 20
197.8895249723291
 30
0.0
 40
1.9972080599999991
 50
89.919857000000462
 51
180.08013999999881
  0
ARC
  5
8868
  8
AM_0
 10
95.434783024984398
 20
195.86035497232911
 30
0.0
 40
1.996384079999995
 50
89.896162999993464
 51
180.10383999999601
  0
ARC
  5
8869
  8
AM_0
 10
148.43776302498449
 20
199.91611497232901
 30
0.0
 40
2.0006240100000001
 50
0.017824000992245
 51
89.98217599999785
  0
ARC
  5
886A
  8
AM_0
 10
148.44130302498519
 20
199.23967497232911
 30
0.0
 40
1.997088119999999
 50
359.91637999999188
 51
90.083624999987734
  0
ARC
  5
886B
  8
AM_0
 10
148.4386930249843
 20
197.88703497232919
 30
0.0
 40
1.999720049999999
 50
359.99193999999602
 51
90.008061999993785
  0
LINE
  5
886C
  8
AM_0
 10
150.4383730249846
 20
199.91671497232909
 30
0.0
 11
150.4383730249846
 21
197.85676497232899
 31
0.0
  0
LINE
  5
886D
  8
AM_0
 10
214.17835302498449
 20
196.37677497232909
 30
0.0
 11
217.63837302498541
 21
183.45679497232911
 31
0.0
  0
LINE
  5
886E
  8
AM_0
 10
216.24838302498429
 20
194.91676497232919
 30
0.0
 11
217.68838302498531
 21
188.21674497232911
 31
0.0
  0
ARC
  5
886F
  8
AM_0
 10
216.2583730249853
 20
171.0417149723302
 30
0.0
 40
1.6749999899999961
 50
270.0
 51
90.000002999984645
  0
LINE
  5
8870
  8
AM_0
 10
216.2583730249853
 20
169.36676997232911
 30
0.0
 11
206.4383730249846
 21
169.36676997232911
 31
0.0
  0
ARC
  5
8871
  8
AM_0
 10
212.78023302498551
 20
170.9967449723292
 30
0.0
 40
1.0000319699999971
 50
270.46929999998491
 51
89.530700000015145
  0
LINE
  5
8872
  8
AM_0
 10
206.4383730249846
 20
169.89676797232909
 30
0.0
 11
212.78842302498421
 21
169.89676797232909
 31
0.0
  0
LINE
  5
8873
  8
AM_0
 10
206.4383730249846
 20
166.07546755889811
 30
0.0
 11
209.20840302498431
 21
165.99674397232911
 31
0.0
  0
ARC
  5
8874
  8
AM_0
 10
219.08863302498449
 20
183.8491349723291
 30
0.0
 40
1.50239199
 50
195.14000999999971
 51
269.99063999998032
  0
ARC
  5
8875
  8
AM_0
 10
220.4327530249852
 20
187.04236497233009
 30
0.0
 40
0.99440004
 50
89.676490999993547
 51
180.32351000000421
  0
ARC
  5
8876
  8
AM_0
 10
219.14425302498461
 20
188.53720497232911
 30
0.0
 40
1.500476039999995
 50
192.33222999999589
 51
270.15827999999971
  0
LINE
  5
8877
  8
AM_0
 10
219.1483930249855
 20
187.03675497232911
 30
0.0
 11
216.73843302498511
 21
187.03675497232911
 31
0.0
  0
ARC
  5
8878
  8
AM_0
 10
214.29286302498531
 20
194.49655497232911
 30
0.0
 40
2.0001800699999981
 50
12.126352000006319
 51
90.127514999991448
  0
LINE
  5
8879
  8
AM_0
 10
214.14838302498529
 20
196.49674497232911
 30
0.0
 11
219.43837302498471
 21
196.49674497232911
 31
0.0
  0
ARC
  5
887A
  8
AM_0
 10
212.24887302498419
 20
195.85894497232911
 30
0.0
 40
1.997795999999999
 50
15.021596999998801
 51
90.013580999977563
  0
ARC
  5
887B
  8
AM_0
 10
220.43350302498439
 20
198.501674972329
 30
0.0
 40
0.9950640599999999
 50
89.71493799999395
 51
180.28506000000439
  0
LINE
  5
8882
  8
AM_0
 10
201.9383730249846
 20
158.49674097232921
 30
0.0
 11
201.9383730249846
 21
113.49674097232921
 31
0.0
  0
LINE
  5
8883
  8
AM_0
 10
199.8383730249852
 20
159.04699350402231
 30
0.0
 11
199.8383730249852
 21
112.94648844063521
 31
0.0
  0
LINE
  5
8884
  8
AM_0
 10
116.9383730249846
 20
117.99674097232921
 30
0.0
 11
116.9383730249846
 21
107.9967309723292
 31
0.0
  0
LINE
  5
8885
  8
AM_0
 10
117.4383730249854
 20
103.49673497232919
 30
0.0
 11
117.4383730249854
 21
168.49673097232721
 31
0.0
  0
LINE
  5
8886
  8
AM_0
 10
188.98861755667829
 20
102.09673297232909
 30
0.0
 11
121.85835302498521
 21
102.09673297232909
 31
0.0
  0
LINE
  5
8887
  8
AM_0
 10
121.85835302498521
 20
102.09673297232909
 30
0.0
 11
121.85835302498521
 21
99.996741972329133
 31
0.0
  0
ARC
  5
8888
  8
AM_0
 10
120.9309930249846
 20
103.4893879723292
 30
0.0
 40
3.492651899999998
 50
179.8793300000022
 51
270.12067999999482
  0
ARC
  5
8889
  8
AM_0
 10
117.43105302498449
 20
107.9893909723291
 30
0.0
 40
0.4927000100000001
 50
179.14455999999711
 51
270.85543999998958
  0
ARC
  5
888A
  8
AM_0
 10
203.9383730249846
 20
113.49674097232921
 30
0.0
 40
2.0
 50
180.0
 51
270.0
  0
LINE
  5
888B
  8
AM_0
 10
199.42832251864451
 20
111.956538946973
 30
0.0
 11
189.97856705033919
 21
102.5067834786682
 31
0.0
  0
LINE
  5
888C
  8
AM_0
 10
189.97857505034011
 20
102.5067914786673
 30
0.0
 11
199.42832251864641
 21
111.956538946973
 31
0.0
  0
ARC
  5
888D
  8
AM_0
 10
188.98861755667829
 20
103.4967329723292
 30
0.0
 40
1.399999999999999
 50
270.0
 51
315.00000000000921
1001
GENIUS_GENODEF_13
1002
{
1000
HIER
1070
     0
1002
}
1002
{
1000
MANEDIT
1070
     0
1002
}
1002
{
1000
NOSEL
1070
     0
1002
}
1002
{
1000
BEHIND
1070
     0
1002
}
1002
{
1000
OTHER
1070
     0
1002
}
1002
{
1000
REACTOR
1002
}
1001
GENIUS_GENOBJ-N-FIL_13
1002
{
1000
OWNER
1000
GEN
1002
}
  0
ARC
  5
888E
  8
AM_0
 10
198.4383730249846
 20
112.94648844063521
 30
0.0
 40
1.4000000000006301
 50
314.99999999997232
 51
0.0
  0
ARC
  5
888F
  8
AM_0
 10
204.43837302498551
 20
101.99674097232921
 30
0.0
 40
2.0
 50
270.0
 51
0.0
  0
ARC
  5
8890
  8
AM_0
 10
204.43837302498551
 20
109.49674097232921
 30
0.0
 40
2.0
 50
0.0
 51
90.0
  0
LINE
  5
8891
  8
AM_0
 10
204.43837302498551
 20
111.49674097232921
 30
0.0
 11
203.9383730249846
 21
111.49674097232921
 31
0.0
  0
LINE
  5
8892
  8
AM_0
 10
206.4383730249846
 20
101.99674097232921
 30
0.0
 11
206.4383730249846
 21
109.49674097232921
 31
0.0
  0
LINE
  5
8893
  8
AM_0
 10
121.85835302498521
 20
169.89672097232909
 30
0.0
 11
188.99610884485929
 21
169.89672097232909
 31
0.0
  0
ARC
  5
8894
  8
AM_0
 10
117.4389230249853
 20
117.9961909723292
 30
0.0
 40
0.5005480100000002
 50
90.062622000000005
 51
179.9373699999839
  0
ARC
  5
8895
  8
AM_0
 10
117.4389230249853
 20
163.9961909723292
 30
0.0
 40
0.5005480100000002
 50
90.062622000000005
 51
179.9373699999839
  0
ARC
  5
8896
  8
AM_0
 10
117.4308630249843
 20
153.9892309723291
 30
0.0
 40
0.49254802
 50
179.12656000000169
 51
270.8734499999884
  0
LINE
  5
8897
  8
AM_0
 10
116.9383730249846
 20
163.99673097232829
 30
0.0
 11
116.9383730249846
 21
153.99674097232921
 31
0.0
  0
LINE
  5
8898
  8
AM_0
 10
121.85835302498521
 20
169.89672097232909
 30
0.0
 11
121.85835302498521
 21
171.99172097232909
 31
0.0
  0
ARC
  5
8899
  8
AM_0
 10
120.9388630249845
 20
168.4962409723291
 30
0.0
 40
3.5005001999999981
 50
90.008164999989489
 51
179.99183999999781
  0
LINE
  5
889A
  8
AM_0
 10
203.9383730249846
 20
141.49674097232921
 30
0.0
 11
201.9383730249846
 21
141.49674097232921
 31
0.0
  0
LINE
  5
889B
  8
AM_0
 10
201.9383730249846
 20
130.49674097232921
 30
0.0
 11
203.9383730249846
 21
130.49674097232921
 31
0.0
  0
LINE
  5
889C
  8
AM_0
 10
203.9383730249846
 20
130.49674097232921
 30
0.0
 11
203.9383730249846
 21
141.49674097232921
 31
0.0
  0
ARC
  5
889D
  8
AM_0
 10
203.9383730249846
 20
158.49674097232921
 30
0.0
 40
2.0
 50
90.0
 51
180.0
  0
CIRCLE
  5
889E
  8
AM_0
 10
200.9383730249846
 20
166.99674097232921
 30
0.0
 40
3.4999999999999631
  0
LINE
  5
889F
  8
AM_0
 10
189.97857505034011
 20
169.48669046599019
 30
0.0
 11
199.42832251864451
 21
160.03694299768509
 31
0.0
  0
LINE
  5
88A0
  8
AM_0
 10
197.8383730249852
 20
161.6268924913451
 30
0.0
 11
199.42832251864641
 21
160.03694299768509
 31
0.0
  0
ARC
  5
88A1
  8
AM_0
 10
198.4383730249846
 20
159.04699350402231
 30
0.0
 40
1.400000000000118
 50
0.0
 51
45.000000000027619
  0
ARC
  5
88A2
  8
AM_0
 10
188.9886255566793
 20
168.49674097232921
 30
0.0
 40
1.40000000000077
 50
44.999999999981569
 51
89.999999999947889
  0
LINE
  5
88A3
  8
AM_0
 10
206.4383730249846
 20
162.49674097232921
 30
0.0
 11
206.4383730249846
 21
169.99674097232921
 31
0.0
  0
LINE
  5
88A4
  8
AM_0
 10
206.4383730249846
 20
162.49674097232921
 30
0.0
 11
206.4383730249846
 21
169.99674097232921
 31
0.0
  0
ARC
  5
88A5
  8
AM_0
 10
204.43837302498551
 20
162.49674097232921
 30
0.0
 40
2.0
 50
270.0
 51
0.0
  0
LINE
  5
88A6
  8
AM_0
 10
203.9383730249846
 20
160.49674097232921
 30
0.0
 11
204.43837302498551
 21
160.49674097232921
 31
0.0
  0
ARC
  5
88A7
  8
AM_0
 10
204.43837302498551
 20
169.99674097232921
 30
0.0
 40
2.0
 50
0.0
 51
90.0
  0
LINE
  5
88A8
  8
AM_0
 10
198.2998013437772
 20
166.99674097233009
 30
0.0
 11
203.57694470619069
 21
166.99674097233009
 31
0.0
  0
LINE
  5
88A9
  8
AM_0
 10
200.9383730249846
 20
169.63531265353521
 30
0.0
 11
200.9383730249846
 21
164.35816929112221
 31
0.0
  0
CIRCLE
  5
88AA
  8
AM_0
 10
200.9383730249846
 20
104.9967409723301
 30
0.0
 40
3.4999999999999631
  0
LINE
  5
88AB
  8
AM_0
 10
198.2998013437772
 20
104.9967409723301
 30
0.0
 11
203.57694470619069
 21
104.9967409723301
 31
0.0
  0
LINE
  5
88AC
  8
AM_0
 10
200.9383730249846
 20
107.6353126535364
 30
0.0
 11
200.9383730249846
 21
102.3581692911232
 31
0.0
  0
LINE
  5
88AE
  8
AM_0
 10
24.938383024985342
 20
112.0225693264042
 30
0.0
 11
24.938383024985342
 21
192.99673497232911
 31
0.0
  0
LINE
  5
88DF
  8
ﾁｭｳｼﾝｾﾝ
 10
1046.516928024982
 20
135.99674254311751
 30
0.0
 11
776.1119330249843
 21
135.99674254311751
 31
0.0
  0
LINE
  5
8B3F
  8
AM_0
 10
564.43839302498566
 20
646.24200892097645
 30
0.0
 11
626.4383330249857
 21
646.24200892097645
 31
0.0
  0
LINE
  5
8B40
  8
AM_0
 10
564.43839302498566
 20
630.24194892097626
 30
0.0
 11
626.4383330249857
 21
630.24194892097626
 31
0.0
  0
LINE
  5
8B41
  8
AM_0
 10
544.43833302498592
 20
665.74200892097645
 30
0.0
 11
626.4383330249857
 21
665.74200892097645
 31
0.0
  0
LINE
  5
8B42
  8
AM_0
 10
544.43833302498592
 20
610.74200892097645
 30
0.0
 11
626.4383330249857
 21
610.74200892097645
 31
0.0
  0
LINE
  5
8B43
  8
ﾁｭｳｼﾝｾﾝ
 10
9.0970530249855983
 20
638.24200892097645
 30
0.0
 11
636.7141477060926
 21
638.2420089209761
 31
0.0
  0
ARC
  5
8CE4
  8
AM_0
 10
245.43845302498559
 20
626.13903892097653
 30
0.0
 40
3.0
 50
180.00001000000091
 51
268.00000000000267
  0
ARC
  5
8CE5
  8
AM_0
 10
358.43839302498571
 20
625.01324892097637
 30
0.0
 40
5.0
 50
0.0
 51
41.409624000000257
  0
LINE
  5
8CE6
  8
AM_0
 10
317.43845302498562
 20
567.98821892097612
 30
0.0
 11
317.43845302498562
 21
708.49572892097626
 31
0.0
  0
LINE
  5
8CE7
  8
AM_0
 10
242.43845302498559
 20
595.91924892097643
 30
0.0
 11
242.43845302498559
 21
681.10058892097652
 31
0.0
  0
LINE
  5
8CE8
  8
AM_0
 10
227.43845302498559
 20
574.24200892097645
 30
0.0
 11
227.43845302498559
 21
702.24200892097645
 31
0.0
  0
LINE
  5
8CE9
  8
AM_0
 10
391.43839302498588
 20
633.24200892097645
 30
0.0
 11
391.43839302498588
 21
505.24200892097622
 31
0.0
  0
LINE
  5
8CEB
  8
AM_0
 10
342.93833302498592
 20
531.78631892097633
 30
0.0
 11
342.93833302498592
 21
744.69769892097645
 31
0.0
  0
LINE
  5
8CEC
  8
AM_0
 10
416.43833302498598
 20
506.11498892097637
 30
0.0
 11
416.43833302498598
 21
770.36895892097652
 31
0.0
  0
LINE
  5
8CED
  8
AM_0
 10
506.43839302498571
 20
530.11987892097625
 30
0.0
 11
506.43839302498571
 21
746.36407892097645
 31
0.0
  0
LINE
  5
8CEE
  8
AM_0
 10
533.43839302498554
 20
735.61297892097605
 30
0.0
 11
533.43839302498554
 21
540.87103892097639
 31
0.0
  0
LINE
  5
8CEF
  8
AM_0
 10
538.43839302498554
 20
696.31060892097605
 30
0.0
 11
538.43839302498554
 21
580.1733989209763
 31
0.0
  0
LINE
  5
8CF0
  8
AM_0
 10
544.43833302498592
 20
668.24200892097645
 30
0.0
 11
544.43833302498592
 21
608.24200892097645
 31
0.0
  0
LINE
  5
8CF1
  8
AM_0
 10
327.43839302498571
 20
564.74200892097645
 30
0.0
 11
327.43839302498571
 21
711.74200892097645
 31
0.0
  0
LINE
  5
8CF2
  8
AM_0
 10
391.43833302498598
 20
505.24200892097622
 30
0.0
 11
416.43839302498588
 21
506.11498892097637
 31
0.0
  0
LINE
  5
8CF3
  8
AM_0
 10
396.43839302498571
 20
473.24194892097648
 30
0.0
 11
533.61289302498585
 21
478.03222892097648
 31
0.0
  0
ARC
  5
8CF4
  8
AM_0
 10
313.4383930249856
 20
481.14349892097641
 30
0.0
 40
5.0
 50
180.00001000000091
 51
268.00000000000267
  0
LINE
  5
8CF5
  8
AM_0
 10
363.97464302498571
 20
474.58404892097622
 30
0.0
 11
394.4383930249856
 21
485.35503892097643
 31
0.0
  0
LINE
  5
8CF6
  8
AM_0
 10
396.43839302498571
 20
473.24200892097662
 30
0.0
 11
313.26389302498592
 21
476.14654892097622
 31
0.0
  0
POLYLINE
  5
8CF7
  8
AM_0
 66
     1
 10
0.0
 20
0.0
 30
0.0
  0
VERTEX
  5
8CF8
  8
AM_0
 10
317.43845302498562
 20
570.24200892097645
 30
0.0
  0
VERTEX
  5
8CF9
  8
AM_0
 10
297.70208302498571
 20
621.31199892097607
 30
0.0
 42
-1.0
  0
SEQEND
  5
8CFA
  8
AM_0
  0
ARC
  5
8CFB
  8
AM_0
 10
320.43845302498568
 20
567.98821892097612
 30
0.0
 40
3.0
 50
180.00001000000091
 51
268.00000000000267
  0
ARC
  5
8CFC
  8
AM_0
 10
314.43845302498562
 20
617.72588892097644
 30
0.0
 40
3.0
 50
0.0
 51
88.000000000002785
  0
ARC
  5
8CFD
  8
AM_0
 10
314.43845302498562
 20
568.20202892097643
 30
0.0
 40
3.0
 50
0.0
 51
88.000000000002785
  0
LINE
  5
8CFE
  8
AM_0
 10
312.5701030249856
 20
528.45379892097651
 30
0.0
 11
342.93827302498568
 21
533.80846892097588
 31
0.0
  0
LINE
  5
8CFF
  8
AM_0
 10
308.4383930249856
 20
481.14349892097641
 30
0.0
 11
308.4383930249856
 21
523.52972892097625
 31
0.0
  0
ARC
  5
8D00
  8
AM_0
 10
313.4383930249856
 20
523.52972892097625
 30
0.0
 40
5.0
 50
99.999999999998593
 51
180.00001000000091
  0
LINE
  5
8D01
  8
AM_0
 10
242.43845302498559
 20
595.91924892097643
 30
0.0
 11
304.62546302498572
 21
595.91924892097643
 31
0.0
  0
LINE
  5
8D02
  8
AM_0
 10
227.43845302498559
 20
586.74169892097643
 30
0.0
 11
308.51303302498582
 21
586.74169892097643
 31
0.0
  0
LINE
  5
8D03
  8
AM_0
 10
314.54318302498581
 20
571.20025892097613
 30
0.0
 11
227.43845302498559
 21
574.24200892097645
 31
0.0
  0
LINE
  5
8D04
  8
AM_0
 10
314.54318302498581
 20
620.72405892097652
 30
0.0
 11
245.3337730249857
 21
623.14092892097642
 31
0.0
  0
LINE
  5
8D05
  8
AM_0
 10
227.43845302498559
 20
600.18713892097651
 30
0.0
 11
242.43845302498559
 21
600.18713892097651
 31
0.0
  0
LINE
  5
8D06
  8
AM_0
 10
363.43839302498571
 20
511.04821892097641
 30
0.0
 11
363.43839302498571
 21
625.01324892097637
 31
0.0
  0
ARC
  5
8D07
  8
AM_0
 10
358.43839302498571
 20
521.41351892097634
 30
0.0
 40
5.0
 50
0.0
 51
88.000000000002785
  0
ARC
  5
8D08
  8
AM_0
 10
368.43839302498571
 20
511.04821892097641
 30
0.0
 40
5.0
 50
180.00001000000091
 51
268.00000000000267
  0
ARC
  5
8D09
  8
AM_0
 10
366.43839302498588
 20
489.24371892097622
 30
0.0
 40
3.0
 50
180.00001000000091
 51
289.47202999999718
  0
CIRCLE
  5
8D0A
  8
AM_0
 10
338.4383930249856
 20
505.74200892097622
 30
0.0
 40
9.5
  0
LINE
  5
8D0D
  8
AM_0
 10
358.61289302498579
 20
526.41051892097664
 30
0.0
 11
347.76383302498567
 21
526.78936892097624
 31
0.0
  0
ARC
  5
8D0E
  8
AM_0
 10
347.93833302498581
 20
531.78631892097633
 30
0.0
 40
5.0
 50
180.00001000000091
 51
268.00000000000267
  0
LINE
  5
8D0F
  8
AM_0
 10
391.43845302498568
 20
505.24200892097622
 30
0.0
 11
368.2638930249858
 21
506.05126892097633
 31
0.0
  0
LINE
  5
8D10
  8
AM_0
 10
367.4383330249857
 20
486.4153489209765
 30
0.0
 11
394.4383930249856
 21
495.9617289209765
 31
0.0
  0
ARC
  5
8D11
  8
AM_0
 10
393.43839302498571
 20
498.79009892097622
 30
0.0
 40
3.0
 50
289.47202000000181
 51
0.0
  0
LINE
  5
8D12
  8
AM_0
 10
396.43839302498571
 20
488.18340892097649
 30
0.0
 11
396.43839302498571
 21
505.41656892097649
 31
0.0
  0
ARC
  5
8D13
  8
AM_0
 10
393.43839302498571
 20
488.18340892097649
 30
0.0
 40
3.0
 50
289.47202000000181
 51
0.0
  0
ARC
  5
8D14
  8
AM_0
 10
337.93833302498581
 20
559.37225892097649
 30
0.0
 40
5.0
 50
0.0
 51
88.000000000002785
  0
LINE
  5
8D15
  8
AM_0
 10
327.43839302498571
 20
576.6620489209763
 30
0.0
 11
342.93833302498592
 21
576.6620489209763
 31
0.0
  0
LINE
  5
8D16
  8
AM_0
 10
327.4383330249857
 20
564.74194892097648
 30
0.0
 11
338.11289302498591
 21
564.36919892097649
 31
0.0
  0
LINE
  5
8D17
  8
AM_0
 10
327.43839302498571
 20
564.74194892097648
 30
0.0
 11
320.33377302498582
 21
564.99004892097628
 31
0.0
  0
LINE
  5
8D18
  8
AM_0
 10
327.43845302498562
 20
576.66332892097648
 30
0.0
 11
317.43845302498562
 21
576.66332892097648
 31
0.0
  0
LINE
  5
8D19
  8
AM_0
 10
327.43839302498571
 20
598.76727892097642
 30
0.0
 11
342.93833302498592
 21
598.76727892097642
 31
0.0
  0
LINE
  5
8D1A
  8
AM_0
 10
327.43845302498562
 20
598.76733892097627
 30
0.0
 11
317.43845302498562
 21
598.76733892097627
 31
0.0
  0
ARC
  5
8D1B
  8
AM_0
 10
478.4383930249856
 20
481.10851892097651
 30
0.0
 40
5.0
 50
180.00001000000091
 51
271.99999000000139
  0
ARC
  5
8D1C
  8
AM_0
 10
533.43839302498554
 20
483.02917892097628
 30
0.0
 40
5.0
 50
271.99999999999721
 51
0.0
  0
ARC
  5
8D1D
  8
AM_0
 10
498.4383930249856
 20
530.11987892097625
 30
0.0
 40
8.0
 50
271.99999999999721
 51
0.0
  0
LINE
  5
8D1F
  8
AM_0
 10
420.58310302498592
 20
510.25976892097651
 30
0.0
 11
470.2783530249859
 21
511.99511892097632
 31
0.0
  0
LINE
  5
8D20
  8
AM_0
 10
416.43839302498588
 20
506.11498892097637
 30
0.0
 11
420.58316302498559
 21
510.25976892097651
 31
0.0
  0
ARC
  5
8D21
  8
AM_0
 10
470.10379302498569
 20
516.99212892097648
 30
0.0
 40
5.0
 50
271.99999999999721
 51
334.42648000000293
  0
ARC
  5
8D22
  8
AM_0
 10
485.43839302498571
 20
509.65374892097628
 30
0.0
 40
12.0
 50
91.999998000000545
 51
180.00001000000091
  0
LINE
  5
8D23
  8
AM_0
 10
473.4383930249856
 20
481.10851892097651
 30
0.0
 11
473.4383930249856
 21
509.65374892097628
 31
0.0
  0
LINE
  5
8D24
  8
AM_0
 10
485.01956302498547
 20
521.64642892097629
 30
0.0
 11
498.71762302498558
 21
522.12475892097643
 31
0.0
  0
CIRCLE
  5
8D25
  8
AM_0
 10
508.4383930249856
 20
505.74200892097622
 30
0.0
 40
9.5
  0
LINE
  5
8D26
  8
AM_0
 10
538.43839302498554
 20
483.02917892097628
 30
0.0
 11
538.43839302498554
 21
533.45477892097665
 31
0.0
  0
LINE
  5
8D28
  8
AM_0
 10
514.15921302498555
 20
538.51159892097633
 30
0.0
 11
525.71756302498591
 21
538.91521892097649
 31
0.0
  0
ARC
  5
8D29
  8
AM_0
 10
514.43839302498566
 20
530.51647892097606
 30
0.0
 40
8.0
 50
91.999998000000545
 51
180.00001000000091
  0
ARC
  5
8D2A
  8
AM_0
 10
525.43839302498554
 20
546.91033892097664
 30
0.0
 40
8.0
 50
271.99999999999721
 51
0.0
  0
ARC
  5
8D2B
  8
AM_0
 10
536.43839302498554
 20
540.87103892097639
 30
0.0
 40
3.0
 50
180.00001000000091
 51
247.97569000000061
  0
ARC
  5
8D2C
  8
AM_0
 10
533.43839302498554
 20
533.45477892097665
 30
0.0
 40
5.0
 50
0.0
 51
67.975688999996393
  0
LINE
  5
8D2D
  8
AM_0
 10
538.43839302498554
 20
608.24200892097645
 30
0.0
 11
544.43833302498592
 21
608.24200892097645
 31
0.0
  0
ARC
  5
8D2E
  8
AM_0
 10
536.43839302498554
 20
580.1733989209763
 30
0.0
 40
2.0
 50
271.99999999999721
 51
0.0
  0
ARC
  5
8D2F
  8
AM_0
 10
535.43839302498566
 20
576.13604892097635
 30
0.0
 40
2.0
 50
91.999998000000545
 51
180.00001000000091
  0
LINE
  5
8D30
  8
AM_0
 10
535.36856302498563
 20
578.13482892097636
 30
0.0
 11
536.50821302498525
 21
578.17461892097651
 31
0.0
  0
LINE
  5
8D31
  8
AM_0
 10
396.43839302498571
 20
803.24200892097645
 30
0.0
 11
533.61289302498585
 21
798.45171892097653
 31
0.0
  0
LINE
  5
8D32
  8
AM_0
 10
391.43845302498568
 20
771.24194892097626
 30
0.0
 11
416.43839302498588
 21
770.36895892097652
 31
0.0
  0
CIRCLE
  5
8D33
  8
AM_0
 10
338.4383930249856
 20
770.74200892097645
 30
0.0
 40
9.5
  0
LINE
  5
8D35
  8
AM_0
 10
308.4383930249856
 20
795.34051892097625
 30
0.0
 11
308.4383930249856
 21
752.95428892097641
 31
0.0
  0
LINE
  5
8D36
  8
AM_0
 10
396.43839302498571
 20
788.30053892097635
 30
0.0
 11
396.43839302498571
 21
771.06738892097644
 31
0.0
  0
POLYLINE
  5
8D37
  8
AM_0
 66
     1
 10
0.0
 20
0.0
 30
0.0
  0
VERTEX
  5
8D38
  8
AM_0
 10
297.70203302498612
 20
655.17172892097608
 30
0.0
 42
-0.03710785
  0
VERTEX
  5
8D39
  8
AM_0
 10
301.98021302498609
 20
673.01794892097644
 30
0.0
 42
-0.032389942
  0
VERTEX
  5
8D3A
  8
AM_0
 10
308.68267302498549
 20
690.10646892097611
 30
0.0
 42
-0.029578822
  0
VERTEX
  5
8D3B
  8
AM_0
 10
317.43845302498562
 20
706.24200892097645
 30
0.0
  0
SEQEND
  5
8D3C
  8
AM_0
  0
ARC
  5
8D3D
  8
AM_0
 10
320.43845302498568
 20
708.49572892097626
 30
0.0
 40
3.0
 50
91.999998000000545
 51
180.00001000000091
  0
ARC
  5
8D3E
  8
AM_0
 10
314.43845302498562
 20
708.28191892097641
 30
0.0
 40
3.0
 50
271.99999999999721
 51
0.0
  0
ARC
  5
8D3F
  8
AM_0
 10
314.43845302498562
 20
658.75811892097624
 30
0.0
 40
3.0
 50
271.99999999999721
 51
0.0
  0
LINE
  5
8D40
  8
AM_0
 10
312.57016302498562
 20
748.03020892097641
 30
0.0
 11
342.9383930249856
 21
742.67547892097605
 31
0.0
  0
LINE
  5
8D41
  8
AM_0
 10
242.43845302498559
 20
681.10058892097652
 30
0.0
 11
304.8320630249857
 21
681.10058892097652
 31
0.0
  0
LINE
  5
8D42
  8
AM_0
 10
227.43845302498559
 20
689.74200892097645
 30
0.0
 11
308.51285302498582
 21
689.74200892097645
 31
0.0
  0
LINE
  5
8D43
  8
AM_0
 10
314.54318302498581
 20
655.75994892097629
 30
0.0
 11
245.3337730249857
 21
653.3430789209765
 31
0.0
  0
ARC
  5
8D44
  8
AM_0
 10
245.43845302498559
 20
650.34490892097654
 30
0.0
 40
3.0
 50
91.999998000000545
 51
180.00001000000091
  0
LINE
  5
8D45
  8
AM_0
 10
227.43845302498559
 20
677.10125892097653
 30
0.0
 11
242.43845302498559
 21
677.10125892097653
 31
0.0
  0
LINE
  5
8D46
  8
AM_0
 10
314.54318302498581
 20
705.28374892097645
 30
0.0
 11
227.43851302498541
 21
702.24200892097645
 31
0.0
  0
ARC
  5
8D47
  8
AM_0
 10
313.4383930249856
 20
752.95428892097641
 30
0.0
 40
5.0
 50
180.00001000000091
 51
259.99998999999872
  0
LINE
  5
8D48
  8
AM_0
 10
363.43839302498571
 20
651.47076892097652
 30
0.0
 11
363.43839302498571
 21
765.43572892097643
 31
0.0
  0
LINE
  5
8D49
  8
AM_0
 10
391.43839302498588
 20
771.24200892097645
 30
0.0
 11
391.43839302498588
 21
643.24200892097645
 31
0.0
  0
ARC
  5
8D4A
  8
AM_0
 10
373.4383930249856
 20
638.24200892097645
 30
0.0
 40
12.5
 50
203.57817999999739
 51
336.42183000000068
  0
ARC
  5
8D4B
  8
AM_0
 10
373.4383930249856
 20
638.24200892097645
 30
0.0
 40
12.5
 50
23.578179999997531
 51
156.42182000000241
  0
ARC
  5
8D4C
  8
AM_0
 10
358.43839302498571
 20
651.47076892097652
 30
0.0
 40
5.0
 50
318.59037000000109
 51
0.0
  0
LINE
  5
8D4D
  8
AM_0
 10
353.43839302498571
 20
643.24200892097645
 30
0.0
 11
393.43839302498571
 21
643.24200892097645
 31
0.0
  0
LINE
  5
8D4E
  8
AM_0
 10
353.43839302498571
 20
633.24200892097645
 30
0.0
 11
393.43839302498571
 21
633.24200892097645
 31
0.0
  0
ARC
  5
8D4F
  8
AM_0
 10
373.4383930249856
 20
638.24200892097645
 30
0.0
 40
15.0
 50
138.59037000000109
 51
160.52876999999921
  0
ARC
  5
8D50
  8
AM_0
 10
353.43839302498571
 20
638.24200892097645
 30
0.0
 40
5.0
 50
90.00000299999769
 51
270.0
  0
ARC
  5
8D51
  8
AM_0
 10
373.4383930249856
 20
638.24200892097645
 30
0.0
 40
15.0
 50
199.4712300000007
 51
221.4096299999988
  0
LINE
  5
8D52
  8
AM_0
 10
327.43839302498571
 20
677.71667892097605
 30
0.0
 11
342.93833302498592
 21
677.71667892097605
 31
0.0
  0
LINE
  5
8D53
  8
AM_0
 10
327.43845302498562
 20
677.71667892097605
 30
0.0
 11
317.43845302498562
 21
677.71667892097605
 31
0.0
  0
ARC
  5
8D54
  8
AM_0
 10
393.43839302498571
 20
638.24200892097645
 30
0.0
 40
5.0
 50
270.0
 51
90.00000299999769
  0
ARC
  5
8D55
  8
AM_0
 10
358.43839302498571
 20
755.07043892097624
 30
0.0
 40
5.0
 50
271.99999999999721
 51
0.0
  0
ARC
  5
8D56
  8
AM_0
 10
368.43839302498571
 20
765.43572892097643
 30
0.0
 40
5.0
 50
91.999998000000545
 51
180.00001000000091
  0
ARC
  5
8D57
  8
AM_0
 10
337.93833302498581
 20
717.11169892097644
 30
0.0
 40
5.0
 50
271.99999999999721
 51
0.0
  0
LINE
  5
8D58
  8
AM_0
 10
327.43839302498571
 20
699.82201892097646
 30
0.0
 11
342.93833302498592
 21
699.82201892097646
 31
0.0
  0
LINE
  5
8D59
  8
AM_0
 10
327.4383330249857
 20
711.74200892097645
 30
0.0
 11
338.11289302498591
 21
712.11474892097647
 31
0.0
  0
LINE
  5
8D5A
  8
AM_0
 10
327.43839302498571
 20
711.74200892097645
 30
0.0
 11
320.33377302498582
 21
711.49389892097645
 31
0.0
  0
LINE
  5
8D5B
  8
AM_0
 10
327.43845302498562
 20
699.82061892097636
 30
0.0
 11
317.43845302498562
 21
699.82061892097636
 31
0.0
  0
LINE
  5
8D5D
  8
AM_0
 10
358.61289302498579
 20
750.07348892097605
 30
0.0
 11
347.76383302498567
 21
749.69463892097644
 31
0.0
  0
ARC
  5
8D5E
  8
AM_0
 10
347.93833302498581
 20
744.69769892097645
 30
0.0
 40
5.0
 50
91.999998000000545
 51
180.00001000000091
  0
LINE
  5
8D5F
  8
AM_0
 10
391.43833302498598
 20
771.24200892097645
 30
0.0
 11
368.2638930249858
 21
770.43273892097636
 31
0.0
  0
LINE
  5
8D60
  8
AM_0
 10
396.43839302498571
 20
803.24200892097645
 30
0.0
 11
313.2638330249859
 21
800.33746892097633
 31
0.0
  0
ARC
  5
8D61
  8
AM_0
 10
313.4383930249856
 20
795.34051892097625
 30
0.0
 40
5.0
 50
91.999998000000545
 51
180.00001000000091
  0
ARC
  5
8D62
  8
AM_0
 10
366.43839302498588
 20
787.24023892097637
 30
0.0
 40
3.0
 50
70.527972999999633
 51
180.00001000000091
  0
LINE
  5
8D63
  8
AM_0
 10
363.97464302498571
 20
801.89996892097633
 30
0.0
 11
394.43845302498568
 21
791.12890892097653
 31
0.0
  0
LINE
  5
8D64
  8
AM_0
 10
367.43845302498568
 20
790.06860892097643
 30
0.0
 11
394.4383930249856
 21
780.52227892097653
 31
0.0
  0
ARC
  5
8D65
  8
AM_0
 10
393.43839302498571
 20
788.30053892097635
 30
0.0
 40
3.0
 50
0.0
 51
70.527972999999633
  0
ARC
  5
8D66
  8
AM_0
 10
393.43839302498571
 20
777.69384892097651
 30
0.0
 40
3.0
 50
0.0
 51
70.527972999999633
  0
CIRCLE
  5
8D67
  8
AM_0
 10
508.4383930249856
 20
770.74200892097645
 30
0.0
 40
9.5
  0
LINE
  5
8D68
  8
ﾁｭｳｼﾝｾﾝ
 10
508.4383930249856
 20
789.74200892097645
 30
0.0
 11
508.4383930249856
 21
751.74200892097645
 31
0.0
  0
LINE
  5
8D69
  8
AM_0
 10
538.43839302498554
 20
793.45477892097654
 30
0.0
 11
538.43839302498554
 21
743.02917892097594
 31
0.0
  0
LINE
  5
8D6A
  8
AM_0
 10
473.4383930249856
 20
795.37542892097645
 30
0.0
 11
473.4383930249856
 21
766.83025892097646
 31
0.0
  0
ARC
  5
8D6B
  8
AM_0
 10
498.4383930249856
 20
746.36407892097645
 30
0.0
 40
8.0
 50
0.0
 51
88.000000000002785
  0
LINE
  5
8D6C
  8
ﾁｭｳｼﾝｾﾝ
 10
489.43839302498571
 20
770.74200892097645
 30
0.0
 11
527.43839302498554
 21
770.74200892097645
 31
0.0
  0
LINE
  5
8D6D
  8
AM_0
 10
420.58310302498592
 20
766.22417892097644
 30
0.0
 11
470.2783530249859
 21
764.4888289209764
 31
0.0
  0
LINE
  5
8D6E
  8
AM_0
 10
416.43839302498588
 20
770.36895892097652
 30
0.0
 11
420.58316302498559
 21
766.22417892097644
 31
0.0
  0
ARC
  5
8D6F
  8
AM_0
 10
485.43839302498571
 20
766.83025892097646
 30
0.0
 40
12.0
 50
180.00001000000091
 51
268.00000000000267
  0
ARC
  5
8D70
  8
AM_0
 10
470.10379302498569
 20
759.49187892097643
 30
0.0
 40
5.0
 50
25.5735169999985
 51
88.000000000002785
  0
LINE
  5
8D71
  8
AM_0
 10
485.01963302498558
 20
754.83752892097641
 30
0.0
 11
498.71762302498558
 21
754.35918892097641
 31
0.0
  0
ARC
  5
8D72
  8
AM_0
 10
535.43839302498566
 20
700.34795892097657
 30
0.0
 40
2.0
 50
180.00001000000091
 51
268.00000000000267
  0
LINE
  5
8D73
  8
AM_0
 10
538.43839302498554
 20
668.24200892097645
 30
0.0
 11
544.43833302498592
 21
668.24200892097645
 31
0.0
  0
ARC
  5
8D74
  8
AM_0
 10
536.43839302498554
 20
696.31060892097605
 30
0.0
 40
2.0
 50
0.0
 51
88.000000000002785
  0
LINE
  5
8D75
  8
AM_0
 10
535.36856302498563
 20
698.34917892097644
 30
0.0
 11
536.50821302498525
 21
698.30938892097606
 31
0.0
  0
ARC
  5
8D76
  8
AM_0
 10
564.43839302498566
 20
638.24194892097626
 30
0.0
 40
8.0000113999999982
 50
90.00000299999769
 51
270.0
  0
LINE
  5
8D77
  8
AM_0
 10
564.4383330249857
 20
646.24200892097645
 30
0.0
 11
564.4383330249857
 21
630.24194892097626
 31
0.0
  0
ARC
  5
8D78
  8
AM_0
 10
536.43839302498554
 20
735.61297892097605
 30
0.0
 40
3.0
 50
112.0243099999993
 51
180.00001000000091
  0
ARC
  5
8D79
  8
AM_0
 10
525.43839302498554
 20
729.5736089209762
 30
0.0
 40
8.0
 50
0.0
 51
88.000000000002785
  0
ARC
  5
8D7A
  8
AM_0
 10
514.43839302498566
 20
745.96746892097599
 30
0.0
 40
8.0
 50
180.00001000000091
 51
268.00000000000267
  0
LINE
  5
8D7B
  8
AM_0
 10
514.15921302498555
 20
737.97234892097595
 30
0.0
 11
525.71762302498564
 21
737.56872892097613
 31
0.0
  0
ARC
  5
8D7C
  8
AM_0
 10
533.43839302498554
 20
743.02917892097594
 30
0.0
 40
5.0
 50
292.02430999999922
 51
0.0
  0
ARC
  5
8D7D
  8
AM_0
 10
478.4383930249856
 20
795.37542892097645
 30
0.0
 40
5.0
 50
88.000000000002785
 51
180.00001000000091
  0
ARC
  5
8D7E
  8
AM_0
 10
533.43839302498554
 20
793.45477892097654
 30
0.0
 40
5.0
 50
0.0
 51
88.000000000002785
  0
LINE
  5
8D7F
  8
AM_0
 10
626.4383330249857
 20
665.74200892097645
 30
0.0
 11
626.4383330249857
 21
610.74200892097645
 31
0.0
  0
LINE
  5
8D90
  8
ﾁｭｳｼﾝｾﾝ
 10
489.43839302498571
 20
505.74200892097622
 30
0.0
 11
527.43839302498554
 21
505.74200892097622
 31
0.0
  0
LINE
  5
8D91
  8
ﾁｭｳｼﾝｾﾝ
 10
508.4383930249856
 20
524.74200892097633
 30
0.0
 11
508.4383930249856
 21
486.74200892097628
 31
0.0
  0
LINE
  5
8D98
  8
ﾁｭｳｼﾝｾﾝ
 10
319.4383930249856
 20
505.74200892097622
 30
0.0
 11
357.43839302498571
 21
505.74200892097622
 31
0.0
  0
LINE
  5
8D99
  8
ﾁｭｳｼﾝｾﾝ
 10
338.4383930249856
 20
524.74200892097633
 30
0.0
 11
338.4383930249856
 21
486.74200892097628
 31
0.0
  0
LINE
  5
8DA0
  8
ﾁｭｳｼﾝｾﾝ
 10
319.4383930249856
 20
770.74200892097645
 30
0.0
 11
357.43839302498571
 21
770.74200892097645
 31
0.0
  0
LINE
  5
8DA1
  8
ﾁｭｳｼﾝｾﾝ
 10
338.4383930249856
 20
789.74200892097645
 30
0.0
 11
338.4383930249856
 21
751.74200892097645
 31
0.0
  0
LINE
  5
8F1C
  8
AM_0
 10
197.5987133889378
 20
527.24200892097667
 30
0.0
 11
122.12440852577819
 21
527.24200892097724
 31
0.0
  0
LINE
  5
8F1D
  8
AM_0
 10
198.42440852577869
 20
540.24200892097656
 30
0.0
 11
122.12440852577819
 21
527.24200892097724
 31
0.0
  0
LINE
  5
8F1E
  8
AM_0
 10
121.7987133889368
 20
531.24200892097724
 30
0.0
 11
198.0987133889374
 21
544.24200892097645
 31
0.0
  0
LINE
  5
8F1F
  8
AM_0
 10
121.7987133889368
 20
531.24200892097724
 30
0.0
 11
198.0987133889374
 21
544.24200892097645
 31
0.0
  0
LINE
  5
8F20
  8
AM_0
 10
124.9987133889372
 20
561.24200892097724
 30
0.0
 11
205.47383965478431
 21
561.24200892097656
 31
0.0
  0
ARC
  5
8F21
  8
AM_0
 10
198.4538196547847
 20
670.60198892097674
 30
0.0
 40
1.0
 50
90.000003000000945
 51
180.00001000000091
  0
ARC
  5
8F22
  8
AM_0
 10
198.47383965478491
 20
670.74200892097645
 30
0.0
 40
1.5
 50
90.000003000000945
 51
180.00001000000091
  0
ARC
  5
8F23
  8
AM_0
 10
198.47383965478491
 20
665.74200892097645
 30
0.0
 40
1.02
 50
179.99998999999889
 51
270.0
  0
ARC
  5
8F24
  8
AM_0
 10
198.47383965478491
 20
665.74200892097645
 30
0.0
 40
1.5
 50
179.99998999999889
 51
270.0
  0
ARC
  5
8F25
  8
AM_0
 10
198.47383965478491
 20
610.74200892097645
 30
0.0
 40
1.02
 50
90.000003000000945
 51
180.00001000000091
  0
ARC
  5
8F26
  8
AM_0
 10
198.47383965478491
 20
610.74200892097645
 30
0.0
 40
1.5
 50
90.000003000000945
 51
180.00001000000091
  0
ARC
  5
8F27
  8
AM_0
 10
198.4538196547847
 20
605.88201892097663
 30
0.0
 40
1.0
 50
179.99998999999889
 51
270.0
  0
ARC
  5
8F28
  8
AM_0
 10
198.47383965478491
 20
605.74200892097645
 30
0.0
 40
1.5
 50
179.99998999999889
 51
270.0
  0
LINE
  5
8F29
  8
AM_0
 10
201.97383965478491
 20
563.7420089209769
 30
0.0
 11
134.9738396547848
 21
563.7420089209769
 31
0.0
  0
LINE
  5
8F2A
  8
AM_0
 10
113.4738396547848
 20
591.8920289209766
 30
0.0
 11
219.47383965478471
 21
591.8920289209766
 31
0.0
  0
LINE
  5
8F2B
  8
AM_0
 10
95.473839654784854
 20
576.38201892097663
 30
0.0
 11
212.2838396547846
 21
576.38201892097663
 31
0.0
  0
LINE
  5
8F2C
  8
AM_0
 10
113.4738396547848
 20
684.59197892097643
 30
0.0
 11
219.47383965478471
 21
684.59197892097643
 31
0.0
  0
LINE
  5
8F2D
  8
AM_0
 10
95.473839654784854
 20
700.10198892097674
 30
0.0
 11
212.2838396547846
 21
700.10198892097674
 31
0.0
  0
LINE
  5
8F2E
  8
AM_0
 10
95.473839654784854
 20
704.16204892097653
 30
0.0
 11
213.5575196547847
 21
704.16204892097653
 31
0.0
  0
LINE
  5
8F2F
  8
AM_0
 10
95.473839654784854
 20
703.49200892097645
 30
0.0
 11
213.70149965478461
 21
703.49200892097645
 31
0.0
  0
LINE
  5
8F30
  8
AM_0
 10
95.473839654784854
 20
702.13201892097652
 30
0.0
 11
213.99379965478471
 21
702.13201892097652
 31
0.0
  0
LINE
  5
8F31
  8
AM_0
 10
212.81386965478461
 20
674.24200892097645
 30
0.0
 11
87.023829654784947
 21
674.24200892097645
 31
0.0
  0
LINE
  5
8F32
  8
AM_0
 10
212.8066696547846
 20
662.24200892097645
 30
0.0
 11
87.023829654784947
 21
662.24200892097645
 31
0.0
  0
LINE
  5
8F33
  8
AM_0
 10
86.14381965478475
 20
674.97198892097674
 30
0.0
 11
216.29384965478471
 21
674.97198892097674
 31
0.0
  0
LINE
  5
8F34
  8
AM_0
 10
85.933859654784712
 20
661.81194892097665
 30
0.0
 11
216.50807965478469
 21
661.81194892097665
 31
0.0
  0
LINE
  5
8F35
  8
AM_0
 10
212.8066696547846
 20
614.24200892097645
 30
0.0
 11
87.009489654784645
 21
614.24200892097645
 31
0.0
  0
LINE
  5
8F36
  8
AM_0
 10
85.933859654784712
 20
614.68194892097665
 30
0.0
 11
216.50807965478469
 21
614.68194892097665
 31
0.0
  0
LINE
  5
8F37
  8
AM_0
 10
168.47383965478471
 20
601.52203892097646
 30
0.0
 11
216.29384965478471
 21
601.52203892097646
 31
0.0
  0
LINE
  5
8F38
  8
AM_0
 10
212.81386965478461
 20
602.24200892097645
 30
0.0
 11
168.47383965478471
 21
602.24200892097645
 31
0.0
  0
LINE
  5
8F39
  8
AM_0
 10
138.53937315670501
 20
563.7420089209769
 30
0.0
 11
138.2083396547846
 21
576.3819889209766
 31
0.0
  0
ARC
  5
8F3A
  8
AM_0
 10
25.9724095547848
 20
582.24200892097645
 30
0.0
 40
9.0
 50
179.99997999999781
 51
269.99995000000138
  0
CIRCLE
  5
8F3B
  8
AM_0
 10
134.2987133889373
 20
544.24200892097713
 30
0.0
 40
6.2999999999996117
  0
ARC
  5
8F3C
  8
AM_0
 10
134.2987133889373
 20
544.24200892097713
 30
0.0
 40
9.2999999999997094
 50
180.0
 51
0.0
  0
LINE
  5
8F3D
  8
ﾁｭｳｼﾝｾﾝ
 10
123.2987133889373
 20
544.24200892097713
 30
0.0
 11
145.2987133889373
 21
544.24200892097713
 31
0.0
  0
LINE
  5
8F3E
  8
AM_0
 10
121.7172896047264
 20
532.24200892097724
 30
0.0
 11
153.69535934345859
 21
537.6904349577203
 31
0.0
  0
ARC
  5
8F3F
  8
AM_0
 10
119.19871338893741
 20
528.74200892097724
 30
0.0
 40
1.499999999999998
 50
180.0
 51
270.0
  0
ARC
  5
8F40
  8
AM_0
 10
118.698713388938
 20
528.74200892097724
 30
0.0
 40
1.5000000000001099
 50
180.0
 51
269.99999999999511
  0
LINE
  5
8F41
  8
AM_0
 10
119.19871338893741
 20
527.24200892097724
 30
0.0
 11
122.12440852577819
 21
527.24200892097724
 31
0.0
  0
LINE
  5
8F42
  8
AM_0
 10
118.698713388938
 20
527.24200892097724
 30
0.0
 11
118.99719928509479
 21
527.24200892097724
 31
0.0
  0
LINE
  5
8F43
  8
AM_0
 10
124.9987133889372
 20
561.24200892097724
 30
0.0
 11
124.99871338893691
 21
544.24200892097713
 31
0.0
  0
LINE
  5
8F44
  8
AM_0
 10
119.19871338893689
 20
560.24200892097713
 30
0.0
 11
119.19871338893719
 21
532.24200892097724
 31
0.0
  0
LINE
  5
8F45
  8
AM_0
 10
117.9987133889376
 20
536.24200892097724
 30
0.0
 11
117.1987133889379
 21
536.24200892097724
 31
0.0
  0
LINE
  5
8F46
  8
AM_0
 10
121.7172896047264
 20
532.24200892097724
 30
0.0
 11
117.69871338893689
 21
532.24200892097724
 31
0.0
  0
LINE
  5
8F47
  8
AM_0
 10
117.69871338893689
 20
531.24200892097724
 30
0.0
 11
121.7987133889368
 21
531.24200892097724
 31
0.0
  0
LINE
  5
8F48
  8
AM_0
 10
117.1987133889379
 20
536.24200892097724
 30
0.0
 11
117.1987133889381
 21
528.74200892097724
 31
0.0
  0
LINE
  5
8F49
  8
AM_0
 10
117.69871338893689
 20
532.24200892097724
 30
0.0
 11
117.69871338893689
 21
528.74200892097724
 31
0.0
  0
LINE
  5
8F4A
  8
AM_0
 10
117.9987133889376
 20
531.24200892097724
 30
0.0
 11
121.7987133889368
 21
531.24200892097724
 31
0.0
  0
LINE
  5
8F4B
  8
AM_0
 10
119.19871338893709
 20
536.24200892097724
 30
0.0
 11
117.9987133889376
 21
536.24200892097724
 31
0.0
  0
LINE
  5
8F4C
  8
AM_0
 10
120.1987133889368
 20
561.24200892097724
 30
0.0
 11
124.9987133889372
 21
561.24200892097724
 31
0.0
  0
ARC
  5
8F4D
  8
AM_0
 10
120.1987133889368
 20
560.24200892097713
 30
0.0
 40
1.0
 50
90.0
 51
180.0
  0
LINE
  5
8F4E
  8
AM_0
 10
189.82886490795471
 20
527.24200892097667
 30
0.0
 11
189.82886490795471
 21
538.77749952344493
 31
0.0
  0
LINE
  5
8F4F
  8
AM_0
 10
167.2987133889396
 20
556.24200892097667
 30
0.0
 11
165.29871338893599
 21
556.24200892097667
 31
0.0
  0
LINE
  5
8F50
  8
AM_0
 10
167.2987133889396
 20
552.24200892097645
 30
0.0
 11
165.29871338893599
 21
552.24200892097645
 31
0.0
  0
LINE
  5
8F51
  8
AM_0
 10
163.0953593434586
 20
539.29200769690726
 30
0.0
 11
163.0953593434586
 21
556.24200892097667
 31
0.0
  0
LINE
  5
8F52
  8
AM_0
 10
161.59535934345871
 20
556.24200892097667
 30
0.0
 11
161.5953593434586
 21
539.03643757895202
 31
0.0
  0
LINE
  5
8F53
  8
AM_0
 10
159.39535934345861
 20
538.66160140595105
 30
0.0
 11
159.39535934345861
 21
556.24200892097667
 31
0.0
  0
LINE
  5
8F54
  8
AM_0
 10
157.89535934345869
 20
556.24200892097667
 30
0.0
 11
157.89535934345869
 21
538.40603128799603
 31
0.0
  0
LINE
  5
8F55
  8
AM_0
 10
153.69535934345859
 20
556.24200892097667
 30
0.0
 11
153.69535934345859
 21
537.6904349577203
 31
0.0
  0
LINE
  5
8F56
  8
AM_0
 10
155.6953593434587
 20
538.03119511499415
 30
0.0
 11
155.6953593434587
 21
556.24200892097724
 31
0.0
  0
LINE
  5
8F57
  8
AM_0
 10
165.29871338893599
 20
556.24200892097667
 30
0.0
 11
165.29871338893599
 21
539.6674153324409
 31
0.0
  0
LINE
  5
8F58
  8
AM_0
 10
143.59871338893711
 20
561.24200892097656
 30
0.0
 11
143.59871338893711
 21
544.24200892097656
 31
0.0
  0
LINE
  5
8F59
  8
ﾁｭｳｼﾝｾﾝ
 10
134.2987133889373
 20
555.24200892097713
 30
0.0
 11
134.2987133889373
 21
533.24200892097713
 31
0.0
  0
LINE
  5
8F5A
  8
AM_0
 10
163.0953593434586
 20
539.29200769690726
 30
0.0
 11
165.29871338893599
 21
539.6674153324409
 31
0.0
  0
LINE
  5
8F5B
  8
AM_0
 10
155.6953593434587
 20
538.03119511499415
 30
0.0
 11
157.89535934345869
 21
538.40603128799603
 31
0.0
  0
LINE
  5
8F5C
  8
AM_0
 10
159.39535934345861
 20
538.66160140595105
 30
0.0
 11
161.5953593434586
 21
539.03643757895202
 31
0.0
  0
LINE
  5
8F5D
  8
AM_0
 10
134.9738396547848
 20
563.7420089209769
 30
0.0
 11
134.9738396547848
 21
561.24200892097656
 31
0.0
  0
LINE
  5
8F5E
  8
AM_0
 10
155.6953593434587
 20
552.24200892097667
 30
0.0
 11
153.69535934345859
 21
552.24200892097667
 31
0.0
  0
LINE
  5
8F5F
  8
AM_0
 10
155.6953593434587
 20
556.24200892097724
 30
0.0
 11
153.69535934345859
 21
556.24200892097667
 31
0.0
  0
LINE
  5
8F60
  8
AM_0
 10
163.0953593434586
 20
552.24200892097645
 30
0.0
 11
161.59535934345871
 21
552.24200892097645
 31
0.0
  0
LINE
  5
8F61
  8
AM_0
 10
159.39535934345861
 20
552.24200892097645
 30
0.0
 11
157.89535934345869
 21
552.24200892097667
 31
0.0
  0
LINE
  5
8F62
  8
AM_0
 10
163.0953593434586
 20
556.24200892097667
 30
0.0
 11
161.59535934345871
 21
556.24200892097667
 31
0.0
  0
LINE
  5
8F63
  8
AM_0
 10
159.39535934345861
 20
556.24200892097667
 30
0.0
 11
157.89535934345869
 21
556.24200892097667
 31
0.0
  0
LINE
  5
8F64
  8
AM_0
 10
181.61212957084541
 20
542.44689646435177
 30
0.0
 11
181.61212957084541
 21
556.24200892097667
 31
0.0
  0
LINE
  5
8F65
  8
AM_0
 10
191.47383965478431
 20
544.12713540394839
 30
0.0
 11
191.47383965478431
 21
561.24200892097656
 31
0.0
  0
LINE
  5
8F66
  8
AM_0
 10
180.1121295708453
 20
556.24200892097667
 30
0.0
 11
180.1121295708453
 21
542.19132634639641
 31
0.0
  0
LINE
  5
8F67
  8
AM_0
 10
177.90877552536799
 20
541.815918710863
 30
0.0
 11
177.90877552536799
 21
556.24200892097667
 31
0.0
  0
LINE
  5
8F68
  8
AM_0
 10
169.0020674344135
 20
556.24200892097667
 30
0.0
 11
169.00206743441331
 21
540.29839308592966
 31
0.0
  0
LINE
  5
8F69
  8
AM_0
 10
167.29871338893921
 20
540.0081754897152
 30
0.0
 11
167.2987133889396
 21
556.24200892097963
 31
0.0
  0
LINE
  5
8F6A
  8
AM_0
 10
170.50206743441331
 20
540.55396320388513
 30
0.0
 11
170.5020674344135
 21
556.24200892097667
 31
0.0
  0
LINE
  5
8F6B
  8
AM_0
 10
174.2054214798907
 20
541.18494095737424
 30
0.0
 11
174.2054214798907
 21
556.24200892097667
 31
0.0
  0
LINE
  5
8F6C
  8
AM_0
 10
172.70542147989099
 20
556.24200892097667
 30
0.0
 11
172.70542147989079
 21
540.92937083941865
 31
0.0
  0
LINE
  5
8F6D
  8
AM_0
 10
176.40877552536799
 20
556.24200892097667
 30
0.0
 11
176.40877552536779
 21
541.56034859290764
 31
0.0
  0
LINE
  5
8F6E
  8
AM_0
 10
167.29871338893921
 20
540.0081754897152
 30
0.0
 11
169.00206743441331
 21
540.29839308592966
 31
0.0
  0
LINE
  5
8F6F
  8
AM_0
 10
170.50206743441331
 20
540.55396320388513
 30
0.0
 11
172.70542147989079
 21
540.92937083941865
 31
0.0
  0
LINE
  5
8F70
  8
AM_0
 10
174.2054214798907
 20
541.18494095737424
 30
0.0
 11
176.40877552536779
 21
541.56034859290764
 31
0.0
  0
LINE
  5
8F71
  8
AM_0
 10
177.90877552536799
 20
541.815918710863
 30
0.0
 11
180.1121295708453
 21
542.19132634639641
 31
0.0
  0
LINE
  5
8F72
  8
AM_0
 10
190.6987133889381
 20
538.92780369367938
 30
0.0
 11
190.6987133889381
 21
542.98119633906299
 31
0.0
  0
LINE
  5
8F73
  8
AM_0
 10
181.61212957084541
 20
542.44689646435177
 30
0.0
 11
191.47383965478431
 21
544.12713540394839
 31
0.0
  0
LINE
  5
8F74
  8
AM_0
 10
181.61212957084541
 20
556.24200892097667
 30
0.0
 11
180.1121295708453
 21
556.24200892097667
 31
0.0
  0
LINE
  5
8F75
  8
AM_0
 10
181.61212957084541
 20
552.24200892097645
 30
0.0
 11
180.1121295708453
 21
552.24200892097645
 31
0.0
  0
LINE
  5
8F76
  8
AM_0
 10
174.2054214798907
 20
556.24200892097667
 30
0.0
 11
172.70542147989099
 21
556.24200892097667
 31
0.0
  0
LINE
  5
8F77
  8
AM_0
 10
174.2054214798907
 20
552.24200892097645
 30
0.0
 11
172.70542147989099
 21
552.24200892097645
 31
0.0
  0
LINE
  5
8F78
  8
AM_0
 10
170.50206743441359
 20
552.24200892097645
 30
0.0
 11
169.0020674344135
 21
552.24200892097645
 31
0.0
  0
LINE
  5
8F79
  8
AM_0
 10
170.5020674344135
 20
556.24200892097667
 30
0.0
 11
169.0020674344135
 21
556.24200892097667
 31
0.0
  0
LINE
  5
8F7A
  8
AM_0
 10
177.90877552536799
 20
552.24200892097645
 30
0.0
 11
176.40877552536799
 21
552.24200892097645
 31
0.0
  0
LINE
  5
8F7B
  8
AM_0
 10
177.90877552536799
 20
556.24200892097667
 30
0.0
 11
176.40877552536799
 21
556.24200892097667
 31
0.0
  0
LINE
  5
8F7C
  8
AM_0
 10
47.473839654784847
 20
696.99200892097645
 30
0.0
 11
72.473839654784825
 21
696.99200892097645
 31
0.0
  0
LINE
  5
8F7D
  8
AM_0
 10
24.47383965478485
 20
690.99200892097645
 30
0.0
 11
72.473839654784825
 21
690.99200892097645
 31
0.0
  0
LINE
  5
8F7E
  8
AM_0
 10
47.473839654784847
 20
579.49200892097645
 30
0.0
 11
72.473839654784825
 21
579.49200892097645
 31
0.0
  0
LINE
  5
8F7F
  8
AM_0
 10
24.47383965478485
 20
585.49200892097645
 30
0.0
 11
72.473839654784825
 21
585.49200892097645
 31
0.0
  0
LINE
  5
8F80
  8
AM_0
 10
16.9724095547848
 20
694.24200892097656
 30
0.0
 11
16.9724095547848
 21
582.24200892097645
 31
0.0
  0
LINE
  5
8F81
  8
AM_0
 10
24.97383965478485
 20
585.46001892097672
 30
0.0
 11
24.97383965478485
 21
690.99200892097645
 31
0.0
  0
LINE
  5
8F82
  8
AM_0
 10
21.9724095547848
 20
672.98047001668385
 30
0.0
 11
21.9724095547848
 21
603.50354782526927
 31
0.0
  0
LINE
  5
8F83
  8
AM_0
 10
22.47383965478485
 20
603.7129489209766
 30
0.0
 11
22.47383965478485
 21
672.77105892097677
 31
0.0
  0
LINE
  5
8F84
  8
AM_0
 10
67.473839654784854
 20
601.05694892097677
 30
0.0
 11
67.473839654784854
 21
675.42803892097652
 31
0.0
  0
LINE
  5
8F85
  8
AM_0
 10
26.9724095547848
 20
578.24200892097645
 30
0.0
 11
50.473839654784847
 21
578.24200892097645
 31
0.0
  0
LINE
  5
8F86
  8
AM_0
 10
25.9724095547848
 20
573.24200892097645
 30
0.0
 11
63.473839654784847
 21
573.24200892097645
 31
0.0
  0
LINE
  5
8F87
  8
AM_0
 10
24.97383965478485
 20
604.60101892097646
 30
0.0
 11
67.473839654784854
 21
604.60101892097646
 31
0.0
  0
LINE
  5
8F88
  8
AM_0
 10
24.97383965478485
 20
594.35101892097646
 30
0.0
 11
67.473839654784854
 21
594.35101892097646
 31
0.0
  0
LINE
  5
8F89
  8
AM_0
 10
22.47383965478485
 20
594.98907892097645
 30
0.0
 11
22.47383965478485
 21
587.49200892097667
 31
0.0
  0
LINE
  5
8F8A
  8
AM_0
 10
23.67384965478476
 20
603.95098892097644
 30
0.0
 11
23.67384965478476
 21
594.75103892097661
 31
0.0
  0
ARC
  5
8F8B
  8
AM_0
 10
23.373869654784752
 20
597.85101892097634
 30
0.0
 40
3.0
 50
179.99997999999781
 51
269.99995000000138
  0
LINE
  5
8F8C
  8
AM_0
 10
21.9724095547848
 20
595.19849001668388
 30
0.0
 11
21.9724095547848
 21
583.24200892097645
 31
0.0
  0
ARC
  5
8F8D
  8
AM_0
 10
26.9724095547848
 20
583.24200892097645
 30
0.0
 40
5.0
 50
179.99997999999781
 51
269.99995000000138
  0
ARC
  5
8F8E
  8
AM_0
 10
24.47383965478485
 20
587.49200892097667
 30
0.0
 40
2.0
 50
179.99997999999781
 51
269.99995000000138
  0
LINE
  5
8F8F
  8
AM_0
 10
23.67384965478476
 20
594.75103892097661
 30
0.0
 11
24.97383965478485
 21
594.75103892097661
 31
0.0
  0
LINE
  5
8F90
  8
AM_0
 10
23.373869654784752
 20
594.85101892097634
 30
0.0
 11
23.67384965478476
 21
594.85101892097634
 31
0.0
  0
ARC
  5
8F91
  8
AM_0
 10
23.373869654784752
 20
600.85101892097634
 30
0.0
 40
3.0
 50
89.999988999997569
 51
179.99997999999781
  0
LINE
  5
8F92
  8
AM_0
 10
20.373869654784752
 20
600.85101892097634
 30
0.0
 11
20.373869654784752
 21
597.85101892097634
 31
0.0
  0
LINE
  5
8F93
  8
AM_0
 10
23.373869654784752
 20
603.85101892097634
 30
0.0
 11
23.67384965478476
 21
603.85101892097634
 31
0.0
  0
LINE
  5
8F94
  8
AM_0
 10
23.67384965478476
 20
603.95098892097644
 30
0.0
 11
24.97383965478485
 21
603.95098892097644
 31
0.0
  0
LINE
  5
8F95
  8
AM_0
 10
47.473839654784847
 20
579.49200892097645
 30
0.0
 11
47.473839654784847
 21
585.49200892097645
 31
0.0
  0
LINE
  5
8F96
  8
AM_0
 10
50.473839654784847
 20
579.49200892097645
 30
0.0
 11
50.473839654784847
 21
573.24200892097645
 31
0.0
  0
LINE
  5
8F97
  8
AM_0
 10
60.473839654784847
 20
578.24200892097645
 30
0.0
 11
63.473839654784847
 21
578.24200892097645
 31
0.0
  0
LINE
  5
8F98
  8
AM_0
 10
60.473839654784847
 20
579.49200892097645
 30
0.0
 11
60.473839654784847
 21
573.24200892097645
 31
0.0
  0
LINE
  5
8F99
  8
AM_0
 10
63.473839654784847
 20
578.24200892097645
 30
0.0
 11
63.473839654784847
 21
573.24200892097645
 31
0.0
  0
LINE
  5
8F9A
  8
AM_0
 10
67.473839654784854
 20
594.35101892097646
 30
0.0
 11
67.473839654784854
 21
585.49200892097645
 31
0.0
  0
LINE
  5
8F9B
  8
AM_0
 10
15.97386965478483
 20
633.24200892097645
 30
0.0
 11
15.97386965478483
 21
643.24200892097667
 31
0.0
  0
LINE
  5
8F9C
  8
AM_0
 10
22.47383965478485
 20
633.24200892097645
 30
0.0
 11
21.9724095547848
 21
633.24200892097645
 31
0.0
  0
LINE
  5
8F9D
  8
AM_0
 10
16.9724095547848
 20
633.24200892097645
 30
0.0
 11
15.97386965478483
 21
633.24200892097645
 31
0.0
  0
LINE
  5
8F9E
  8
AM_0
 10
22.47383965478485
 20
643.24200892097667
 30
0.0
 11
21.9724095547848
 21
643.24200892097667
 31
0.0
  0
LINE
  5
8F9F
  8
AM_0
 10
16.9724095547848
 20
643.24200892097667
 30
0.0
 11
15.97386965478483
 21
643.24200892097667
 31
0.0
  0
LINE
  5
8FA0
  8
AM_0
 10
25.9724095547848
 20
703.24200892097656
 30
0.0
 11
63.473839654784847
 21
703.24200892097656
 31
0.0
  0
LINE
  5
8FA1
  8
AM_0
 10
26.9724095547848
 20
698.24200892097656
 30
0.0
 11
50.473839654784847
 21
698.24200892097656
 31
0.0
  0
LINE
  5
8FA2
  8
AM_0
 10
24.97383965478485
 20
671.88299892097643
 30
0.0
 11
67.473839654784854
 21
671.88299892097643
 31
0.0
  0
LINE
  5
8FA3
  8
AM_0
 10
24.97383965478485
 20
682.13299892097643
 30
0.0
 11
67.473839654784854
 21
682.13299892097643
 31
0.0
  0
LINE
  5
8FA4
  8
AM_0
 10
21.9724095547848
 20
681.28552782526924
 30
0.0
 11
21.9724095547848
 21
693.24200892097645
 31
0.0
  0
LINE
  5
8FA5
  8
AM_0
 10
22.47383965478485
 20
681.49493892097644
 30
0.0
 11
22.47383965478485
 21
688.99200892097645
 31
0.0
  0
ARC
  5
8FA6
  8
AM_0
 10
23.373869654784752
 20
678.63299892097643
 30
0.0
 40
3.0
 50
90.000049999998538
 51
180.00002000000191
  0
ARC
  5
8FA7
  8
AM_0
 10
23.373869654784752
 20
675.63299892097643
 30
0.0
 40
3.0
 50
180.00002000000191
 51
270.00001100000242
  0
LINE
  5
8FA8
  8
AM_0
 10
20.373869654784752
 20
675.63299892097643
 30
0.0
 11
20.373869654784752
 21
678.63299892097643
 31
0.0
  0
LINE
  5
8FA9
  8
AM_0
 10
23.67384965478476
 20
672.53302892097645
 30
0.0
 11
23.67384965478476
 21
681.73297892097651
 31
0.0
  0
LINE
  5
8FAA
  8
AM_0
 10
23.373869654784752
 20
672.63299892097643
 30
0.0
 11
23.67384965478476
 21
672.63299892097643
 31
0.0
  0
LINE
  5
8FAB
  8
AM_0
 10
23.67384965478476
 20
672.53302892097645
 30
0.0
 11
24.97383965478485
 21
672.53302892097645
 31
0.0
  0
LINE
  5
8FAC
  8
AM_0
 10
23.373869654784752
 20
681.63299892097643
 30
0.0
 11
23.67384965478476
 21
681.63299892097643
 31
0.0
  0
LINE
  5
8FAD
  8
AM_0
 10
23.67384965478476
 20
681.73297892097651
 30
0.0
 11
24.97383965478485
 21
681.73297892097651
 31
0.0
  0
ARC
  5
8FAE
  8
AM_0
 10
24.47383965478485
 20
688.99200892097645
 30
0.0
 40
2.0
 50
90.000049999998538
 51
180.00002000000191
  0
ARC
  5
8FAF
  8
AM_0
 10
25.9724095547848
 20
694.24200892097656
 30
0.0
 40
9.0
 50
89.999988999997569
 51
179.99997999999781
  0
ARC
  5
8FB0
  8
AM_0
 10
26.9724095547848
 20
693.24200892097667
 30
0.0
 40
5.0
 50
89.999988999997569
 51
180.0
  0
LINE
  5
8FB1
  8
AM_0
 10
67.473839654784854
 20
682.13299892097643
 30
0.0
 11
67.473839654784854
 21
690.99200892097645
 31
0.0
  0
LINE
  5
8FB2
  8
AM_0
 10
47.473839654784847
 20
696.99200892097645
 30
0.0
 11
47.473839654784847
 21
690.99200892097645
 31
0.0
  0
LINE
  5
8FB3
  8
AM_0
 10
50.473839654784847
 20
696.99200892097656
 30
0.0
 11
50.473839654784847
 21
703.24200892097656
 31
0.0
  0
LINE
  5
8FB4
  8
AM_0
 10
60.473839654784847
 20
698.24200892097656
 30
0.0
 11
63.473839654784847
 21
698.24200892097656
 31
0.0
  0
LINE
  5
8FB5
  8
AM_0
 10
60.473839654784847
 20
696.99200892097656
 30
0.0
 11
60.473839654784847
 21
703.24200892097656
 31
0.0
  0
LINE
  5
8FB6
  8
AM_0
 10
63.473839654784847
 20
698.24200892097656
 30
0.0
 11
63.473839654784847
 21
703.24200892097656
 31
0.0
  0
LINE
  5
8FB7
  8
AM_0
 10
72.473839654784825
 20
696.99200892097656
 30
0.0
 11
72.473839654784825
 21
638.24200892097645
 31
0.0
  0
LINE
  5
8FB8
  8
AM_0
 10
85.933859654784712
 20
611.76202892097649
 30
0.0
 11
180.47383965478471
 21
611.76202892097649
 31
0.0
  0
LINE
  5
8FB9
  8
AM_0
 10
180.47383965478471
 20
612.24200892097645
 30
0.0
 11
87.009489654784645
 21
612.24200892097645
 31
0.0
  0
LINE
  5
8FBA
  8
AM_0
 10
95.473839654784854
 20
574.35198892097651
 30
0.0
 11
136.8002596547847
 21
574.35198892097651
 31
0.0
  0
LINE
  5
8FBB
  8
AM_0
 10
86.14381965478475
 20
604.88201892097663
 30
0.0
 11
180.4938596547847
 21
604.88201892097663
 31
0.0
  0
LINE
  5
8FBC
  8
AM_0
 10
168.47383965478471
 20
602.24200892097645
 30
0.0
 11
87.009489654784645
 21
602.24200892097645
 31
0.0
  0
LINE
  5
8FBD
  8
AM_0
 10
86.14381965478475
 20
601.52203892097646
 30
0.0
 11
168.47383965478471
 21
601.52203892097646
 31
0.0
  0
LINE
  5
8FBE
  8
AM_0
 10
180.47383965478471
 20
604.24200892097645
 30
0.0
 11
87.009489654784645
 21
604.24200892097645
 31
0.0
  0
LINE
  5
8FBF
  8
AM_0
 10
147.9159196547846
 20
622.24200892097645
 30
0.0
 11
78.023829654784933
 21
622.24200892097645
 31
0.0
  0
LINE
  5
8FC0
  8
AM_0
 10
76.80385965478483
 20
621.90203892097645
 30
0.0
 11
149.14510965478459
 21
621.90203892097645
 31
0.0
  0
LINE
  5
8FC1
  8
AM_0
 10
147.91255965478459
 20
654.24200892097645
 30
0.0
 11
78.023829654784933
 21
654.24200892097645
 31
0.0
  0
LINE
  5
8FC2
  8
AM_0
 10
147.91255965478459
 20
652.24200892097645
 30
0.0
 11
78.023829654784933
 21
652.24200892097645
 31
0.0
  0
LINE
  5
8FC3
  8
AM_0
 10
147.9159196547846
 20
644.24200892097645
 30
0.0
 11
78.023829654784933
 21
644.24200892097645
 31
0.0
  0
LINE
  5
8FC4
  8
AM_0
 10
147.9159196547846
 20
642.24200892097645
 30
0.0
 11
78.023829654784933
 21
642.24200892097645
 31
0.0
  0
LINE
  5
8FC5
  8
AM_0
 10
76.80385965478483
 20
654.59197892097677
 30
0.0
 11
149.14510965478459
 21
654.59197892097677
 31
0.0
  0
LINE
  5
8FC6
  8
AM_0
 10
76.80385965478483
 20
651.9220589209765
 30
0.0
 11
149.1325296547848
 21
651.9220589209765
 31
0.0
  0
LINE
  5
8FC7
  8
AM_0
 10
76.743859654784671
 20
644.52203892097646
 30
0.0
 11
149.2089496547849
 21
644.52203892097646
 31
0.0
  0
LINE
  5
8FC8
  8
AM_0
 10
76.743859654784671
 20
641.98199892097648
 30
0.0
 11
149.2089496547849
 21
641.98199892097648
 31
0.0
  0
LINE
  5
8FC9
  8
AM_0
 10
76.743859654784671
 20
634.5120289209766
 30
0.0
 11
149.2089496547849
 21
634.5120289209766
 31
0.0
  0
LINE
  5
8FCA
  8
AM_0
 10
147.9159196547846
 20
632.24200892097645
 30
0.0
 11
78.023829654784933
 21
632.24200892097645
 31
0.0
  0
LINE
  5
8FCB
  8
AM_0
 10
147.9159196547846
 20
634.24200892097667
 30
0.0
 11
78.023829654784933
 21
634.24200892097667
 31
0.0
  0
LINE
  5
8FCC
  8
AM_0
 10
76.743859654784671
 20
631.97198892097663
 30
0.0
 11
149.2089496547849
 21
631.97198892097663
 31
0.0
  0
LINE
  5
8FCD
  8
AM_0
 10
147.9159196547846
 20
624.24200892097645
 30
0.0
 11
78.023829654784933
 21
624.24200892097645
 31
0.0
  0
LINE
  5
8FCE
  8
AM_0
 10
76.80385965478483
 20
624.56194892097665
 30
0.0
 11
149.14510965478459
 21
624.56194892097665
 31
0.0
  0
LINE
  5
8FCF
  8
AM_0
 10
72.473839654784825
 20
579.49200892097645
 30
0.0
 11
72.473839654784825
 21
638.24200892097645
 31
0.0
  0
LINE
  5
8FD0
  8
AM_0
 10
113.4738996547849
 20
591.89208892097668
 30
0.0
 11
82.473899654784702
 21
593.92208892097665
 31
0.0
  0
ARC
  5
8FD1
  8
AM_0
 10
82.093529654784831
 20
600.58733892097644
 30
0.0
 40
6.0073843
 50
273.6297400000006
 51
314.76385000000278
  0
LINE
  5
8FD2
  8
AM_0
 10
82.473839654784754
 20
589.89202892097637
 30
0.0
 11
82.473839654784754
 21
603.94195892097673
 31
0.0
  0
ARC
  5
8FD3
  8
AM_0
 10
86.371179654784953
 20
581.96905892097652
 30
0.0
 40
1.997119399999999
 50
192.05524000000159
 51
270.19862999999867
  0
ARC
  5
8FD4
  8
AM_0
 10
86.433249654784674
 20
587.24724892097674
 30
0.0
 40
1.9952742999999991
 50
189.96478000000039
 51
269.85141999999968
  0
LINE
  5
8FD5
  8
AM_0
 10
78.17445965478494
 20
576.57195892097661
 30
0.0
 11
92.216579654784866
 21
576.57195892097661
 31
0.0
  0
LINE
  5
8FD6
  8
AM_0
 10
84.418119654784675
 20
581.55205892097661
 30
0.0
 11
83.458159654784566
 21
586.02203892097646
 31
0.0
  0
ARC
  5
8FD7
  8
AM_0
 10
78.610679654784732
 20
578.57256892097644
 30
0.0
 40
2.0005671999999981
 50
193.3095899999955
 51
269.80430999999942
  0
ARC
  5
8FD8
  8
AM_0
 10
78.17445965478494
 20
578.57195892097661
 30
0.0
 40
2.0
 50
194.1507499999995
 51
269.999989999999
  0
LINE
  5
8FD9
  8
AM_0
 10
74.283839654784671
 20
583.14202892097649
 30
0.0
 11
84.076619654784665
 21
583.14202892097649
 31
0.0
  0
LINE
  5
8FDA
  8
AM_0
 10
76.235189654784833
 20
578.08303892097661
 30
0.0
 11
75.753869654784751
 21
579.99206892097641
 31
0.0
  0
LINE
  5
8FDB
  8
AM_0
 10
76.663839654784667
 20
578.11196892097644
 30
0.0
 11
75.743859654784671
 21
581.9920389209766
 31
0.0
  0
LINE
  5
8FDC
  8
AM_0
 10
72.473839654784825
 20
580.81203892097676
 30
0.0
 11
75.293849654784523
 21
580.75204892097645
 31
0.0
  0
ARC
  5
8FDD
  8
AM_0
 10
74.287069654784702
 20
581.64434892097665
 30
0.0
 40
1.497715799999999
 50
13.42437900000278
 51
90.122645000001114
  0
LINE
  5
8FDE
  8
AM_0
 10
74.303859654784731
 20
581.12200892097667
 30
0.0
 11
75.953819654784695
 21
581.12200892097667
 31
0.0
  0
ARC
  5
8FDF
  8
AM_0
 10
74.301539654784676
 20
579.62371892097644
 30
0.0
 40
1.4982997
 50
14.229740000004741
 51
89.910950000001222
  0
LINE
  5
8FE0
  8
AM_0
 10
72.473839654784825
 20
589.89202892097637
 30
0.0
 11
82.473839654784754
 21
589.89202892097637
 31
0.0
  0
LINE
  5
8FE1
  8
AM_0
 10
83.683069654784674
 20
591.24865892097671
 30
0.0
 11
84.468099654784695
 21
586.90197892097638
 31
0.0
  0
LINE
  5
8FE2
  8
AM_0
 10
81.988119654784711
 20
587.2019689209767
 30
0.0
 11
84.408109654784809
 21
587.2019689209767
 31
0.0
  0
ARC
  5
8FE3
  8
AM_0
 10
81.990689654784703
 20
585.69964892097664
 30
0.0
 40
1.502416299999999
 50
12.391887000000411
 51
90.098616999999123
  0
ARC
  5
8FE4
  8
AM_0
 10
82.206999654784497
 20
590.98199892097671
 30
0.0
 40
1.5
 50
10.237378999998841
 51
79.752109999998723
  0
ARC
  5
8FE5
  8
AM_0
 10
91.971889654784647
 20
583.76006892097644
 30
0.0
 40
1.501982699999999
 50
0.075587202000581
 51
89.924413000001564
  0
ARC
  5
8FE6
  8
AM_0
 10
95.473899654784717
 20
578.38201892097663
 30
0.0
 40
2.0000371999999991
 50
180.0010599999959
 51
269.99892999999958
  0
ARC
  5
8FE7
  8
AM_0
 10
95.474759654784677
 20
576.35296892097665
 30
0.0
 40
2.0009109999999981
 50
180.00001000000091
 51
269.97390999999971
  0
LINE
  5
8FE8
  8
AM_0
 10
93.473839654784854
 20
576.35296892097665
 30
0.0
 11
93.473839654784854
 21
583.76202892097638
 31
0.0
  0
ARC
  5
8FE9
  8
AM_0
 10
92.216579654784866
 20
575.07195892097661
 30
0.0
 40
1.5
 50
21.461709000003811
 51
90.000003000000945
  0
LINE
  5
8FEA
  8
AM_0
 10
86.171469654784744
 20
579.98199892097648
 30
0.0
 11
91.973839654784854
 21
579.98199892097648
 31
0.0
  0
ARC
  5
8FEB
  8
AM_0
 10
91.970729654784719
 20
578.47881892097644
 30
0.0
 40
1.503128599999999
 50
0.119129649995689
 51
89.880869999998822
  0
LINE
  5
8FEC
  8
AM_0
 10
86.233669654784705
 20
585.2620289209766
 30
0.0
 11
91.973839654784854
 21
585.2620289209766
 31
0.0
  0
ARC
  5
8FED
  8
AM_0
 10
85.928129654784755
 20
613.21197892097666
 30
0.0
 40
1.460011199999999
 50
89.775248000001227
 51
270.22474000000028
  0
ARC
  5
8FEE
  8
AM_0
 10
86.14381965478475
 20
603.19195892097662
 30
0.0
 40
1.6800002000000001
 50
90.000003000000945
 51
270.0
  0
ARC
  5
8FEF
  8
AM_0
 10
81.6366796547847
 20
596.65349892097663
 30
0.0
 40
4.9991421999999961
 50
5.3780268999994201
 51
80.360064999999054
  0
LINE
  5
8FF0
  8
AM_0
 10
72.473839654784825
 20
603.94195892097673
 30
0.0
 11
82.473839654784754
 21
603.94195892097673
 31
0.0
  0
LINE
  5
8FF1
  8
AM_0
 10
72.473839654784825
 20
595.55205892097661
 30
0.0
 11
82.473839654784754
 21
595.55205892097661
 31
0.0
  0
ARC
  5
8FF2
  8
AM_0
 10
94.466639654785055
 20
603.24200892097645
 30
0.0
 40
1.0000259
 50
89.587534000000232
 51
270.4124599999987
  0
ARC
  5
8FF3
  8
AM_0
 10
85.614649654784813
 20
597.03167892097667
 30
0.0
 40
1.0032491999999991
 50
314.98118999999758
 51
5.1676434000008573
  0
ARC
  5
8FF4
  8
AM_0
 10
87.016689654784656
 20
603.24200892097645
 30
0.0
 40
1.0000255999999981
 50
89.589474000000749
 51
270.41051999999962
  0
ARC
  5
8FF5
  8
AM_0
 10
94.466639654785055
 20
613.24200892097645
 30
0.0
 40
1.0000259
 50
89.587534000000232
 51
270.4124599999987
  0
ARC
  5
8FF6
  8
AM_0
 10
87.016689654784656
 20
613.24200892097645
 30
0.0
 40
1.0000255999999981
 50
89.589474000000749
 51
270.41051999999962
  0
ARC
  5
8FF7
  8
AM_0
 10
78.023829654784933
 20
623.24200892097645
 30
0.0
 40
1.0000056999999991
 50
90.000003000000945
 51
270.0
  0
ARC
  5
8FF8
  8
AM_0
 10
76.797569654784695
 20
623.23199892097648
 30
0.0
 40
1.3300148000000001
 50
89.729417999999583
 51
270.27058999999991
  0
ARC
  5
8FF9
  8
AM_0
 10
78.023829654784933
 20
633.24200892097645
 30
0.0
 40
1.0000056999999991
 50
90.000003000000945
 51
270.0
  0
ARC
  5
8FFA
  8
AM_0
 10
76.735619654784671
 20
633.24200892097645
 30
0.0
 40
1.2700266
 50
89.629320999999507
 51
270.3706899999986
  0
ARC
  5
8FFB
  8
AM_0
 10
94.466639654785055
 20
623.24200892097645
 30
0.0
 40
1.0000259
 50
89.587534000000232
 51
270.4124599999987
  0
ARC
  5
8FFC
  8
AM_0
 10
94.466639654785055
 20
633.24200892097645
 30
0.0
 40
1.0000259
 50
89.587534000000232
 51
270.4124599999987
  0
ARC
  5
8FFD
  8
AM_0
 10
78.023829654784933
 20
643.24200892097645
 30
0.0
 40
1.0000056999999991
 50
90.000003000000945
 51
270.0
  0
ARC
  5
8FFE
  8
AM_0
 10
76.735619654784671
 20
643.25201892097664
 30
0.0
 40
1.2700266
 50
89.629327999999504
 51
270.37065999999959
  0
ARC
  5
8FFF
  8
AM_0
 10
76.797569654784695
 20
653.25701892097663
 30
0.0
 40
1.3350147999999991
 50
89.730435000000341
 51
270.26956999999999
  0
ARC
  5
9000
  8
AM_0
 10
78.023829654784933
 20
653.24200892097645
 30
0.0
 40
1.0000056999999991
 50
90.000003000000945
 51
270.0
  0
ARC
  5
9001
  8
AM_0
 10
94.466639654785055
 20
643.24200892097645
 30
0.0
 40
1.0000259
 50
89.587534000000232
 51
270.4124599999987
  0
ARC
  5
9002
  8
AM_0
 10
94.466639654785055
 20
653.24200892097645
 30
0.0
 40
1.0000259
 50
89.587534000000232
 51
270.4124599999987
  0
ARC
  5
9003
  8
AM_0
 10
136.8002596547847
 20
572.85198892097628
 30
0.0
 40
1.5
 50
1.5000027000022329
 51
90.000003000000945
  0
ARC
  5
9004
  8
AM_0
 10
180.47383965478471
 20
610.74200892097645
 30
0.0
 40
1.5
 50
0.0
 51
90.000003000000945
  0
ARC
  5
9005
  8
AM_0
 10
180.47383965478471
 20
610.74200892097645
 30
0.0
 40
1.02
 50
0.0
 51
90.000003000000945
  0
ARC
  5
9006
  8
AM_0
 10
180.4938596547847
 20
605.88201892097663
 30
0.0
 40
1.0
 50
269.999989999999
 51
0.0000006832495047
  0
ARC
  5
9007
  8
AM_0
 10
180.47383965478471
 20
605.74200892097645
 30
0.0
 40
1.5
 50
269.999989999999
 51
0.0000006832495047
  0
LINE
  5
9008
  8
AM_0
 10
181.49385965478481
 20
610.74200892097645
 30
0.0
 11
181.49385965478481
 21
605.88201892097663
 31
0.0
  0
LINE
  5
9009
  8
AM_0
 10
181.9738396547846
 20
610.74200892097645
 30
0.0
 11
181.9738396547846
 21
605.74200892097645
 31
0.0
  0
LINE
  5
900A
  8
AM_0
 10
196.9738396547846
 20
610.74200892097645
 30
0.0
 11
196.9738396547846
 21
605.74200892097645
 31
0.0
  0
LINE
  5
900B
  8
AM_0
 10
197.4538196547847
 20
610.74200892097645
 30
0.0
 11
197.4538196547847
 21
605.88201892097663
 31
0.0
  0
CIRCLE
  5
900C
  8
AM_0
 10
186.9738396547846
 20
609.74200892097645
 30
0.0
 40
1.1000000000000001
  0
CIRCLE
  5
900D
  8
AM_0
 10
186.9738396547846
 20
609.74200892097645
 30
0.0
 40
1.149999999999999
  0
CIRCLE
  5
900E
  8
AM_0
 10
191.9738396547846
 20
609.74200892097645
 30
0.0
 40
1.0
  0
ARC
  5
900F
  8
AM_0
 10
149.20076965478461
 20
633.24200892097645
 30
0.0
 40
1.2700266
 50
269.62931999999989
 51
90.370670000001468
  0
ARC
  5
9010
  8
AM_0
 10
149.1388196547847
 20
623.23199892097648
 30
0.0
 40
1.3300148000000001
 50
269.72941999999853
 51
90.270567000000995
  0
ARC
  5
9011
  8
AM_0
 10
147.91255965478459
 20
623.24200892097645
 30
0.0
 40
1.0000056999999991
 50
269.999989999999
 51
90.000003000000945
  0
ARC
  5
9012
  8
AM_0
 10
147.91255965478459
 20
633.24200892097645
 30
0.0
 40
1.0000056999999991
 50
269.999989999999
 51
90.000003000000945
  0
ARC
  5
9013
  8
AM_0
 10
149.20076965478461
 20
643.25201892097664
 30
0.0
 40
1.2700266
 50
269.62931999999989
 51
90.370670000001468
  0
ARC
  5
9014
  8
AM_0
 10
149.1388196547847
 20
653.25701892097663
 30
0.0
 40
1.3350147999999991
 50
269.73042999999973
 51
90.269556000001344
  0
ARC
  5
9015
  8
AM_0
 10
147.91255965478459
 20
643.24200892097645
 30
0.0
 40
1.0000056999999991
 50
269.999989999999
 51
90.000003000000945
  0
ARC
  5
9016
  8
AM_0
 10
147.91255965478459
 20
653.24200892097645
 30
0.0
 40
1.0000056999999991
 50
269.999989999999
 51
90.000003000000945
  0
LINE
  5
9017
  8
AM_0
 10
86.14381965478475
 20
671.6119989209767
 30
0.0
 11
180.4938596547847
 21
671.6119989209767
 31
0.0
  0
LINE
  5
9018
  8
AM_0
 10
85.933859654784712
 20
664.73199892097648
 30
0.0
 11
180.47383965478471
 21
664.73199892097648
 31
0.0
  0
LINE
  5
9019
  8
AM_0
 10
180.47383965478471
 20
672.24200892097645
 30
0.0
 11
87.023829654784947
 21
672.24200892097645
 31
0.0
  0
LINE
  5
901A
  8
AM_0
 10
180.47383965478471
 20
664.24200892097645
 30
0.0
 11
87.023829654784947
 21
664.24200892097645
 31
0.0
  0
LINE
  5
901B
  8
AM_0
 10
113.4738996547849
 20
684.59197892097643
 30
0.0
 11
82.473839654784754
 21
682.56197892097669
 31
0.0
  0
LINE
  5
901C
  8
AM_0
 10
82.473839654784754
 20
686.59197892097643
 30
0.0
 11
82.473839654784754
 21
672.55205892097638
 31
0.0
  0
ARC
  5
901D
  8
AM_0
 10
82.094809654784669
 20
675.90948892097674
 30
0.0
 40
6.0044340999999992
 50
45.225578000002209
 51
86.380821999999384
  0
ARC
  5
901E
  8
AM_0
 10
86.14381965478475
 20
673.29204892097664
 30
0.0
 40
1.6800002000000001
 50
90.000003000000945
 51
270.0
  0
ARC
  5
901F
  8
AM_0
 10
85.928129654784755
 20
663.27203892097646
 30
0.0
 40
1.460011199999999
 50
89.775248000001227
 51
270.22474000000028
  0
ARC
  5
9020
  8
AM_0
 10
81.629419654784925
 20
679.83623892097671
 30
0.0
 40
5.0059714
 50
279.7109800000016
 51
354.67887999999812
  0
LINE
  5
9021
  8
AM_0
 10
72.473839654784825
 20
672.55205892097638
 30
0.0
 11
82.473839654784754
 21
672.55205892097638
 31
0.0
  0
LINE
  5
9022
  8
AM_0
 10
72.473839654784825
 20
680.93194892097677
 30
0.0
 11
82.473839654784754
 21
680.93194892097677
 31
0.0
  0
ARC
  5
9023
  8
AM_0
 10
94.466639654785055
 20
673.24200892097645
 30
0.0
 40
1.0000259
 50
89.587534000000232
 51
270.4124599999987
  0
ARC
  5
9024
  8
AM_0
 10
87.016689654784656
 20
673.24200892097645
 30
0.0
 40
1.0000255999999981
 50
89.589474000000749
 51
270.41051999999962
  0
ARC
  5
9025
  8
AM_0
 10
94.466639654785055
 20
663.24200892097645
 30
0.0
 40
1.0000259
 50
89.587534000000232
 51
270.4124599999987
  0
ARC
  5
9026
  8
AM_0
 10
87.016689654784656
 20
663.24200892097645
 30
0.0
 40
1.0000255999999981
 50
89.589474000000749
 51
270.41051999999962
  0
ARC
  5
9027
  8
AM_0
 10
85.615749654784679
 20
679.46270892097664
 30
0.0
 40
1.002184699999999
 50
354.80386000000328
 51
45.047306999998277
  0
LINE
  5
9028
  8
AM_0
 10
78.603849654784696
 20
699.91204892097653
 30
0.0
 11
91.973839654784854
 21
699.91204892097653
 31
0.0
  0
LINE
  5
9029
  8
AM_0
 10
78.583829654784907
 20
701.54204892097653
 30
0.0
 11
92.083829654785106
 21
701.54204892097653
 31
0.0
  0
ARC
  5
902A
  8
AM_0
 10
86.371179654784953
 20
694.51494892097639
 30
0.0
 40
1.997119399999999
 50
89.801366999998493
 51
167.9447599999981
  0
ARC
  5
902B
  8
AM_0
 10
86.433249654784674
 20
689.23675892097651
 30
0.0
 40
1.9952742999999991
 50
90.148580000000095
 51
170.03521999999941
  0
LINE
  5
902C
  8
AM_0
 10
84.418119654784675
 20
694.9320089209765
 30
0.0
 11
83.458159654784566
 21
690.46203892097651
 31
0.0
  0
LINE
  5
902D
  8
AM_0
 10
76.663839654784667
 20
698.37200892097655
 30
0.0
 11
75.743799654784937
 21
694.50201892097675
 31
0.0
  0
LINE
  5
902E
  8
AM_0
 10
72.473839654784825
 20
686.59197892097643
 30
0.0
 11
82.473839654784754
 21
686.59197892097643
 31
0.0
  0
LINE
  5
902F
  8
AM_0
 10
74.283839654784671
 20
693.34197892097654
 30
0.0
 11
84.076619654784665
 21
693.34197892097654
 31
0.0
  0
ARC
  5
9030
  8
AM_0
 10
74.27901965478469
 20
694.84685892097673
 30
0.0
 40
1.5048382
 50
270.18264000000067
 51
346.75308000000121
  0
ARC
  5
9031
  8
AM_0
 10
81.990689654784703
 20
690.78435892097662
 30
0.0
 40
1.502416299999999
 50
269.90137999999871
 51
347.60813000000093
  0
LINE
  5
9032
  8
AM_0
 10
83.68312965478475
 20
685.23537892097647
 30
0.0
 11
84.46816965478483
 21
689.58205892097646
 31
0.0
  0
ARC
  5
9033
  8
AM_0
 10
82.206999654784497
 20
685.50201892097675
 30
0.0
 40
1.5
 50
280.24789000000118
 51
349.76261999999917
  0
LINE
  5
9034
  8
AM_0
 10
81.988119654784711
 20
689.28203892097667
 30
0.0
 11
84.408109654784809
 21
689.28203892097667
 31
0.0
  0
ARC
  5
9035
  8
AM_0
 10
78.578699654784657
 20
699.54742892097659
 30
0.0
 40
1.994612099999999
 50
89.851991999999015
 51
165.93886000000381
  0
ARC
  5
9036
  8
AM_0
 10
78.604089654784673
 20
697.91973892097656
 30
0.0
 40
1.9922863
 50
90.007721000000544
 51
166.8783899999971
  0
LINE
  5
9037
  8
AM_0
 10
72.473839654784825
 20
695.67199892097642
 30
0.0
 11
75.293849654784523
 21
695.74200892097656
 31
0.0
  0
ARC
  5
9038
  8
AM_0
 10
74.293419654784941
 20
696.86736892097656
 30
0.0
 40
1.505448699999999
 50
270.39686999999981
 51
345.9524700000004
  0
LINE
  5
9039
  8
AM_0
 10
74.303859654784731
 20
695.36199892097625
 30
0.0
 11
75.953819654784695
 21
695.36199892097625
 31
0.0
  0
LINE
  5
903A
  8
AM_0
 10
76.64381965478475
 20
700.03203892097656
 30
0.0
 11
75.753809654784675
 21
696.50201892097675
 31
0.0
  0
LINE
  5
903B
  8
AM_0
 10
93.473839654784854
 20
700.13201892097641
 30
0.0
 11
93.473839654784854
 21
692.73199892097659
 31
0.0
  0
LINE
  5
903C
  8
AM_0
 10
86.428129654784755
 20
691.23199892097671
 30
0.0
 11
91.973839654784854
 21
691.23199892097671
 31
0.0
  0
ARC
  5
903D
  8
AM_0
 10
91.970119654784796
 20
692.73577892097649
 30
0.0
 40
1.5037541000000001
 50
270.14287000000093
 51
359.85713999999848
  0
ARC
  5
903E
  8
AM_0
 10
95.46712965478477
 20
698.10869892097651
 30
0.0
 40
1.9933081999999991
 50
89.807323000000935
 51
180.19266999999849
  0
ARC
  5
903F
  8
AM_0
 10
95.46797965478477
 20
700.13787892097662
 30
0.0
 40
1.994130499999996
 50
89.831105999999224
 51
180.16889000000049
  0
ARC
  5
9040
  8
AM_0
 10
95.470299654784682
 20
701.49554892097672
 30
0.0
 40
1.996488899999999
 50
89.899147999998391
 51
180.10084999999879
  0
ARC
  5
9041
  8
AM_0
 10
95.46761965478477
 20
702.16546892097676
 30
0.0
 40
1.9964978999999961
 50
89.821482000000245
 51
165.6006099999997
  0
ARC
  5
9042
  8
AM_0
 10
91.966939654784497
 20
701.41888892097666
 30
0.0
 40
1.506942899999999
 50
270.26336999999899
 51
359.73663000000079
  0
LINE
  5
9043
  8
AM_0
 10
86.364279654784752
 20
696.5120289209766
 30
0.0
 11
91.973839654784854
 21
696.5120289209766
 31
0.0
  0
ARC
  5
9044
  8
AM_0
 10
91.968959654784641
 20
698.01690892097645
 30
0.0
 40
1.504891299999997
 50
270.1859300000005
 51
359.81406999999621
  0
ARC
  5
9045
  8
AM_0
 10
92.078759654784847
 20
703.04717892097642
 30
0.0
 40
1.505230099999999
 50
270.19421
 51
345.17177999999848
  0
ARC
  5
9046
  8
AM_0
 10
180.47383965478471
 20
670.74200892097645
 30
0.0
 40
1.5
 50
0.0
 51
90.000003000000945
  0
ARC
  5
9047
  8
AM_0
 10
180.4938596547847
 20
670.60198892097674
 30
0.0
 40
1.0
 50
0.0
 51
90.000003000000945
  0
ARC
  5
9048
  8
AM_0
 10
180.47383965478471
 20
665.74200892097645
 30
0.0
 40
1.02
 50
269.999989999999
 51
0.0000006832429909
  0
ARC
  5
9049
  8
AM_0
 10
180.47383965478471
 20
665.74200892097645
 30
0.0
 40
1.5
 50
269.999989999999
 51
0.0000006832495047
  0
LINE
  5
904A
  8
AM_0
 10
181.49385965478481
 20
665.74200892097645
 30
0.0
 11
181.49385965478481
 21
670.60198892097674
 31
0.0
  0
CIRCLE
  5
904B
  8
AM_0
 10
186.9738396547846
 20
666.74200892097645
 30
0.0
 40
1.149999999999999
  0
CIRCLE
  5
904C
  8
AM_0
 10
186.9738396547846
 20
666.74200892097645
 30
0.0
 40
1.1000000000000001
  0
LINE
  5
904D
  8
AM_0
 10
181.9738396547846
 20
665.74200892097645
 30
0.0
 11
181.9738396547846
 21
670.74200892097645
 31
0.0
  0
LINE
  5
904E
  8
AM_0
 10
196.9738396547846
 20
665.74200892097645
 30
0.0
 11
196.9738396547846
 21
670.74200892097645
 31
0.0
  0
LINE
  5
904F
  8
AM_0
 10
197.4538196547847
 20
665.74200892097645
 30
0.0
 11
197.4538196547847
 21
670.60198892097674
 31
0.0
  0
CIRCLE
  5
9050
  8
AM_0
 10
191.9738396547846
 20
666.74200892097645
 30
0.0
 40
1.0
  0
LINE
  5
9051
  8
AM_0
 10
218.4738396547846
 20
577.74206892097664
 30
0.0
 11
212.74803965478489
 21
568.92513892097645
 31
0.0
  0
LINE
  5
9052
  8
AM_0
 10
198.40840166491861
 20
563.7420089209769
 30
0.0
 11
198.73940965478471
 21
576.38207892097648
 31
0.0
  0
ARC
  5
9053
  8
AM_0
 10
197.5987133889378
 20
529.74200892097679
 30
0.0
 40
2.5
 50
270.0
 51
0.0
  0
LINE
  5
9054
  8
AM_0
 10
206.4738396547842
 20
544.24200892097656
 30
0.0
 11
206.47383965478431
 21
560.24200892097645
 31
0.0
  0
LINE
  5
9055
  8
AM_0
 10
200.09871338893791
 20
539.74200892097667
 30
0.0
 11
200.09871338893791
 21
529.74200892097679
 31
0.0
  0
LINE
  5
9056
  8
AM_0
 10
200.5987133889378
 20
540.24200892097656
 30
0.0
 11
205.9738396547844
 21
540.24200892097656
 31
0.0
  0
LINE
  5
9057
  8
AM_0
 10
206.4738396547842
 20
544.24200892097656
 30
0.0
 11
198.0987133889374
 21
544.24200892097645
 31
0.0
  0
ARC
  5
9058
  8
AM_0
 10
200.5987133889378
 20
539.74200892097667
 30
0.0
 40
0.5
 50
90.0
 51
180.0
  0
LINE
  5
9059
  8
AM_0
 10
200.5987133889378
 20
540.24200892097656
 30
0.0
 11
198.42440852577869
 21
540.24200892097656
 31
0.0
  0
ARC
  5
905A
  8
AM_0
 10
205.9738396547844
 20
540.74200892097645
 30
0.0
 40
0.5
 50
270.0
 51
0.0
  0
LINE
  5
905B
  8
AM_0
 10
206.4738396547842
 20
544.24200892097656
 30
0.0
 11
206.4738396547842
 21
540.74200892097645
 31
0.0
  0
LINE
  5
905C
  8
AM_0
 10
201.97383965478491
 20
563.7420089209769
 30
0.0
 11
201.97383965478491
 21
561.24200892097656
 31
0.0
  0
ARC
  5
905D
  8
AM_0
 10
205.47383965478431
 20
560.24200892097645
 30
0.0
 40
1.0
 50
0.0
 51
90.0
  0
LINE
  5
905E
  8
AM_0
 10
199.98744965478471
 20
568.24200892097645
 30
0.0
 11
211.49001965478459
 21
568.24200892097645
 31
0.0
  0
ARC
  5
905F
  8
AM_0
 10
199.98744965478471
 20
566.74200892097645
 30
0.0
 40
1.5
 50
90.000003000000945
 51
178.49999999999719
  0
ARC
  5
9060
  8
AM_0
 10
211.49001965478459
 20
569.74200892097645
 30
0.0
 40
1.5
 50
269.999989999999
 51
326.99999999999801
  0
LINE
  5
9061
  8
AM_0
 10
219.47383965478471
 20
575.74200892097645
 30
0.0
 11
219.47383965478471
 21
700.74200892097656
 31
0.0
  0
ARC
  5
9062
  8
AM_0
 10
212.2751096547847
 20
578.38824892097671
 30
0.0
 40
2.0062942999999991
 50
270.24932999999891
 51
345.08843999999721
  0
LINE
  5
9063
  8
AM_0
 10
214.21382965478469
 20
577.87206892097674
 30
0.0
 11
217.67381965478481
 21
590.78203892097645
 31
0.0
  0
LINE
  5
9064
  8
AM_0
 10
220.4738396547846
 20
574.74200892097645
 30
0.0
 11
227.47383965478491
 21
574.74200892097645
 31
0.0
  0
LINE
  5
9065
  8
AM_0
 10
214.1838596547847
 20
577.74200892097645
 30
0.0
 11
219.47383965478471
 21
577.74200892097645
 31
0.0
  0
ARC
  5
9066
  8
AM_0
 10
220.46687965478469
 20
575.73504892097628
 30
0.0
 40
0.99304521
 50
179.5973099999994
 51
270.40267999999998
  0
LINE
  5
9067
  8
AM_0
 10
220.4738396547846
 20
586.20196892097636
 30
0.0
 11
227.47383965478491
 21
586.20196892097636
 31
0.0
  0
ARC
  5
9068
  8
AM_0
 10
220.46620965478459
 20
587.19439892097671
 30
0.0
 40
0.99237448
 50
179.55801999999801
 51
270.4419699999998
  0
ARC
  5
9069
  8
AM_0
 10
219.1175196547847
 20
590.39825892097667
 30
0.0
 40
1.4937901
 50
89.756423999998432
 51
165.11292000000071
  0
ARC
  5
906A
  8
AM_0
 10
212.81380965478459
 20
613.24200892097645
 30
0.0
 40
1.0000255999999981
 50
269.58946999999989
 51
90.410531000001029
  0
ARC
  5
906B
  8
AM_0
 10
212.81386965478461
 20
603.24200892097645
 30
0.0
 40
1.0000040999999991
 50
269.999989999999
 51
90.000003000000945
  0
LINE
  5
906C
  8
AM_0
 10
198.47383965478491
 20
611.76202892097649
 30
0.0
 11
216.50807965478469
 21
611.76202892097649
 31
0.0
  0
LINE
  5
906D
  8
AM_0
 10
198.4538196547847
 20
604.88201892097663
 30
0.0
 11
216.29384965478471
 21
604.88201892097663
 31
0.0
  0
LINE
  5
906E
  8
AM_0
 10
212.81386965478461
 20
604.24200892097645
 30
0.0
 11
198.47383965478491
 21
604.24200892097645
 31
0.0
  0
LINE
  5
906F
  8
AM_0
 10
212.8066696547846
 20
612.24200892097645
 30
0.0
 11
198.47383965478491
 21
612.24200892097645
 31
0.0
  0
LINE
  5
9070
  8
AM_0
 10
219.47383965478471
 20
601.09197892097643
 30
0.0
 11
227.47383965478491
 21
601.09197892097643
 31
0.0
  0
ARC
  5
9071
  8
AM_0
 10
216.29384965478471
 20
603.2019689209767
 30
0.0
 40
1.6800077
 50
269.999989999999
 51
90.000003000000945
  0
ARC
  5
9072
  8
AM_0
 10
216.5138196547847
 20
613.21197892097666
 30
0.0
 40
1.460011199999999
 50
269.77524999999991
 51
90.224750000000085
  0
ARC
  5
9073
  8
AM_0
 10
212.81386965478461
 20
673.24200892097645
 30
0.0
 40
1.0000040999999991
 50
269.999989999999
 51
90.000003000000945
  0
ARC
  5
9074
  8
AM_0
 10
212.81380965478459
 20
663.24200892097645
 30
0.0
 40
1.0000255999999981
 50
269.58946999999989
 51
90.410531000001029
  0
LINE
  5
9075
  8
AM_0
 10
198.4538196547847
 20
671.6119989209767
 30
0.0
 11
216.29384965478471
 21
671.6119989209767
 31
0.0
  0
LINE
  5
9076
  8
AM_0
 10
198.47383965478491
 20
664.73199892097648
 30
0.0
 11
216.5195596547847
 21
664.73199892097648
 31
0.0
  0
LINE
  5
9077
  8
AM_0
 10
212.81386965478461
 20
672.24200892097645
 30
0.0
 11
198.47383965478491
 21
672.24200892097645
 31
0.0
  0
LINE
  5
9078
  8
AM_0
 10
212.8210096547848
 20
664.24200892097645
 30
0.0
 11
198.47383965478491
 21
664.24200892097645
 31
0.0
  0
ARC
  5
9079
  8
AM_0
 10
216.29384965478471
 20
673.29204892097664
 30
0.0
 40
1.6800077
 50
269.999989999999
 51
90.000003000000945
  0
ARC
  5
907A
  8
AM_0
 10
216.5138196547847
 20
663.27203892097646
 30
0.0
 40
1.460011199999999
 50
269.77524999999991
 51
90.224750000000085
  0
LINE
  5
907B
  8
AM_0
 10
219.47383965478471
 20
675.3920289209766
 30
0.0
 11
227.47383965478491
 21
675.3920289209766
 31
0.0
  0
ARC
  5
907C
  8
AM_0
 10
212.28328965478471
 20
698.10284892097661
 30
0.0
 40
1.9991226
 50
15.05079100000003
 51
89.984388999999666
  0
LINE
  5
907D
  8
AM_0
 10
215.0240396547847
 20
702.97719892097655
 30
0.0
 11
217.71388965478451
 21
690.46197892097666
 31
0.0
  0
LINE
  5
907E
  8
AM_0
 10
214.2138596547847
 20
698.62194892097659
 30
0.0
 11
217.6738496547845
 21
685.70199892097662
 31
0.0
  0
LINE
  5
907F
  8
AM_0
 10
220.4738396547846
 20
690.28203892097645
 30
0.0
 11
227.47383965478491
 21
690.28203892097645
 31
0.0
  0
ARC
  5
9080
  8
AM_0
 10
219.17952965478489
 20
690.78228892097673
 30
0.0
 40
1.500286
 50
192.326309999995
 51
270.16416999999848
  0
ARC
  5
9081
  8
AM_0
 10
219.12398965478471
 20
686.09429892097671
 30
0.0
 40
1.5022733999999991
 50
195.13650999999649
 51
269.99412000000041
  0
LINE
  5
9082
  8
AM_0
 10
219.18385965478481
 20
689.28203892097667
 30
0.0
 11
216.76387965478469
 21
689.28203892097667
 31
0.0
  0
ARC
  5
9083
  8
AM_0
 10
220.47292965478471
 20
689.28289892097655
 30
0.0
 40
0.9990923399999999
 50
89.947921999999295
 51
180.05208000000431
  0
LINE
  5
9084
  8
AM_0
 10
220.4738396547846
 20
701.74200892097645
 30
0.0
 11
227.47383965478491
 21
701.74200892097645
 31
0.0
  0
LINE
  5
9085
  8
AM_0
 10
215.93428965478469
 20
698.74200892097645
 30
0.0
 11
219.47383965478471
 21
698.74200892097645
 31
0.0
  0
ARC
  5
9086
  8
AM_0
 10
213.99379965478471
 20
700.63201892097652
 30
0.0
 40
1.5
 50
12.12979200000205
 51
90.000003000000945
  0
ARC
  5
9087
  8
AM_0
 10
213.70149965478461
 20
701.99200892097656
 30
0.0
 40
1.5
 50
12.12979200000205
 51
90.000003000000945
  0
ARC
  5
9088
  8
AM_0
 10
213.5575196547847
 20
702.66204892097653
 30
0.0
 40
1.5
 50
12.12979200000205
 51
90.000003000000945
  0
ARC
  5
9089
  8
AM_0
 10
220.47365965478491
 20
700.74224892097652
 30
0.0
 40
0.99980682
 50
89.98893100000069
 51
180.0110699999974
  0
TEXT
  5
95C6
  8
0
  6
CONTINUOUS
 62
     0
 10
795.65715673187765
 20
605.05545025849824
 30
0.0
 40
15.0
  1
VX04-800B~VX04-K20B
  0
VIEWPORT
  5
89
 67
     1
  8
0
 10
210.0
 20
148.5
 30
0.0
 40
420.0
 41
297.0
 68
    -1
 69
     1
1001
ACAD
1000
MVIEW
1002
{
1070
    16
1010
0.0
1020
0.0
1030
0.0
1010
0.0
1020
0.0
1030
1.0
1040
0.0
1040
297.0
1040
221.70154043645701
1040
148.5
1040
50.0
1040
0.0
1040
0.0
1070
     0
1070
   100
1070
     1
1070
     1
1070
     0
1070
     0
1070
     0
1070
     0
1040
0.0
1040
0.0
1040
0.0
1040
10.0
1040
10.0
1040
10.0
1040
10.0
1070
     0
1002
{
1002
}
1002
}
1001
GENIUS_GENOREF_13
1005
1B94
1001
GENIUS_GENSCREG_15
1000
PF
1040
1.0
1000
DF
1040
1.0
1000
MIN
1011
0.0
1021
0.0
1031
0.0
1021
0.0
1031
0.0
1000
MAX
1011
420.0
1021
0.0
1031
0.0
1021
297.0
1031
0.0
1000
FLAGS
1070
     4
  0
ENDSEC
  0
EOF
