  0
SECTION
  2
HEADER
  9
$ACADVER
  1
AC1009
  9
$INSBASE
 10
0.0
 20
0.0
 30
0.0
  9
$EXTMIN
 10
106.8437838915679
 20
290.4932652137577
 30
-0.0000000000000052
  9
$EXTMAX
 10
973.59289856602436
 20
793.33059177696464
 30
0.00000000000001
  9
$LIMMIN
 10
0.0000005999945643
 20
-0.0000005963913736
  9
$LIMMAX
 10
1138.0000005999941
 20
739.99999940360874
  9
$ORTHOMODE
 70
     1
  9
$REGENMODE
 70
     1
  9
$FILLMODE
 70
     1
  9
$QTEXTMODE
 70
     0
  9
$MIRRTEXT
 70
     0
  9
$DRAGMODE
 70
     2
  9
$LTSCALE
 40
1.0
  9
$OSMODE
 70
   551
  9
$ATTMODE
 70
     1
  9
$TEXTSIZE
 40
2.5
  9
$TRACEWID
 40
1.0
  9
$TEXTSTYLE
  7
STANDARD
  9
$CLAYER
  8
0
  9
$CELTYPE
  6
BYLAYER
  9
$CECOLOR
 62
   256
  9
$DIMSCALE
 40
1.0
  9
$DIMASZ
 40
2.0
  9
$DIMEXO
 40
1.0
  9
$DIMDLI
 40
8.0
  9
$DIMRND
 40
0.0
  9
$DIMDLE
 40
0.0
  9
$DIMEXE
 40
1.0
  9
$DIMTP
 40
-0.025
  9
$DIMTM
 40
0.043
  9
$DIMTXT
 40
2.5
  9
$DIMCEN
 40
0.0
  9
$DIMTSZ
 40
0.0
  9
$DIMTOL
 70
     0
  9
$DIMLIM
 70
     0
  9
$DIMTIH
 70
     0
  9
$DIMTOH
 70
     0
  9
$DIMSE1
 70
     0
  9
$DIMSE2
 70
     0
  9
$DIMTAD
 70
     3
  9
$DIMZIN
 70
     8
  9
$DIMBLK
  1

  9
$DIMASO
 70
     1
  9
$DIMSHO
 70
     1
  9
$DIMPOST
  1

  9
$DIMAPOST
  1
"
  9
$DIMALT
 70
     0
  9
$DIMALTD
 70
     2
  9
$DIMALTF
 40
0.0393701
  9
$DIMLFAC
 40
1.0
  9
$DIMTOFL
 70
     1
  9
$DIMTVP
 40
0.0
  9
$DIMTIX
 70
     0
  9
$DIMSOXD
 70
     0
  9
$DIMSAH
 70
     0
  9
$DIMBLK1
  1

  9
$DIMBLK2
  1

  9
$DIMSTYLE
  2
AM_JIS
  9
$DIMCLRD
 70
     2
  9
$DIMCLRE
 70
     2
  9
$DIMCLRT
 70
     4
  9
$DIMTFAC
 40
0.71
  9
$DIMGAP
 40
1.5
  9
$LUNITS
 70
     2
  9
$LUPREC
 70
     2
  9
$SKETCHINC
 40
1.0
  9
$FILLETRAD
 40
0.0
  9
$AUNITS
 70
     0
  9
$AUPREC
 70
     0
  9
$MENU
  1
.
  9
$ELEVATION
 40
0.0
  9
$PELEVATION
 40
0.0
  9
$THICKNESS
 40
0.0
  9
$LIMCHECK
 70
     0
  9
$BLIPMODE
 70
     0
  9
$CHAMFERA
 40
2.0
  9
$CHAMFERB
 40
2.0
  9
$SKPOLY
 70
     0
  9
$TDCREATE
 40
2456829.3841110538
  9
$TDUPDATE
 40
2458540.7205552319
  9
$TDINDWG
 40
0.5926344444
  9
$TDUSRTIMER
 40
0.5926340509
  9
$USRTIMER
 70
     1
  9
$ANGBASE
 50
0.0
  9
$ANGDIR
 70
     0
  9
$PDMODE
 70
     0
  9
$PDSIZE
 40
0.0
  9
$PLINEWID
 40
0.0
  9
$COORDS
 70
     1
  9
$SPLFRAME
 70
     0
  9
$SPLINETYPE
 70
     6
  9
$SPLINESEGS
 70
     8
  9
$ATTDIA
 70
     1
  9
$ATTREQ
 70
     1
  9
$HANDLING
 70
     1
  9
$HANDSEED
  5
913F
  9
$SURFTAB1
 70
     6
  9
$SURFTAB2
 70
     6
  9
$SURFTYPE
 70
     6
  9
$SURFU
 70
     6
  9
$SURFV
 70
     6
  9
$UCSNAME
  2

  9
$UCSORG
 10
0.0
 20
0.0
 30
0.0
  9
$UCSXDIR
 10
1.0
 20
0.0
 30
0.0
  9
$UCSYDIR
 10
0.0
 20
1.0
 30
0.0
  9
$PUCSNAME
  2

  9
$PUCSORG
 10
0.0
 20
0.0
 30
0.0
  9
$PUCSXDIR
 10
1.0
 20
0.0
 30
0.0
  9
$PUCSYDIR
 10
0.0
 20
1.0
 30
0.0
  9
$USERI1
 70
     0
  9
$USERI2
 70
     0
  9
$USERI3
 70
     0
  9
$USERI4
 70
     0
  9
$USERI5
 70
     0
  9
$USERR1
 40
0.0
  9
$USERR2
 40
0.0
  9
$USERR3
 40
0.0
  9
$USERR4
 40
0.0
  9
$USERR5
 40
0.0
  9
$WORLDVIEW
 70
     1
  9
$SHADEDGE
 70
     3
  9
$SHADEDIF
 70
    70
  9
$TILEMODE
 70
     1
  9
$MAXACTVP
 70
    64
  9
$PLIMCHECK
 70
     0
  9
$PEXTMIN
 10
1.0000000000000000E+020
 20
1.0000000000000000E+020
 30
1.0000000000000000E+020
  9
$PEXTMAX
 10
-1.0000000000000000E+020
 20
-1.0000000000000000E+020
 30
-1.0000000000000000E+020
  9
$PLIMMIN
 10
0.0
 20
0.0
  9
$PLIMMAX
 10
420.0
 20
297.0
  9
$UNITMODE
 70
     0
  9
$VISRETAIN
 70
     1
  9
$PLINEGEN
 70
     0
  9
$PSLTSCALE
 70
     1
  0
ENDSEC
  0
SECTION
  2
TABLES
  0
TABLE
  2
VPORT
 70
     1
  0
VPORT
  2
*ACTIVE
 70
     0
 10
0.0
 20
0.0
 11
1.0
 21
1.0
 12
540.21834122879625
 22
541.91192849536117
 13
0.0
 23
0.0
 14
10.0
 24
10.0
 15
40.0
 25
40.0
 16
0.0
 26
0.0
 36
1.0
 17
0.0
 27
0.0
 37
0.0
 40
506.28929905677592
 41
1.757159221076747
 42
50.0
 43
0.0
 44
0.0
 50
0.0
 51
0.0
 71
     0
 72
  1000
 73
     1
 74
     3
 75
     0
 76
     0
 77
     0
 78
     0
  0
ENDTAB
  0
TABLE
  2
LTYPE
 70
    25
  0
LTYPE
  2
CONTINUOUS
 70
     0
  3
Solid line
 72
    65
 73
     0
 40
0.0
  0
LTYPE
  2
AM_ISO02W050
 70
     0
  3
__ __ __ __ __ __ __ __ __ __ __ __ __ __ __
 72
    65
 73
     2
 40
7.5
 49
6.0
 49
-1.5
  0
LTYPE
  2
AM_ISO08W050
 70
     0
  3
____ . ____ . ____ . ____ . ____ . ____ . ____
 72
    65
 73
     4
 40
18.0
 49
12.0
 49
-1.5
 49
3.0
 49
-1.5
  0
LTYPE
  2
AM_ISO09W050
 70
     0
  3
_____ . . _____ . . _____ . . ____ .. ____
 72
    65
 73
     6
 40
22.5
 49
12.0
 49
-1.5
 49
3.0
 49
-1.5
 49
3.0
 49
-1.5
  0
LTYPE
  2
AMCONSTR
 70
     0
  3
_______________________
 72
    65
 73
     2
 40
9999.0
 49
9999.0
 49
0.0
  0
LTYPE
  2
AM_ISO08W050X2
 70
     0
  3
__ . __ . __ . __ . __ . __
 72
    65
 73
     4
 40
9.0
 49
6.0
 49
-0.75
 49
1.5
 49
-0.75
  0
LTYPE
  2
AM_ISO02W050X2
 70
     0
  3
 _ _ _ _ _ _ _ _ _ _ _ _
 72
    65
 73
     2
 40
3.75
 49
3.0
 49
-0.75
  0
LTYPE
  2
AMZIGZAG
 70
     0
  3
/\/-/\/-/\/-/\/-/\/-/\/
 72
    65
 73
     2
 40
11.0001
 49
0.0001
 49
-11.0
  0
LTYPE
  2
ACANSTGBM
 70
     0
  3
__ . . __ . .
 72
    65
 73
     6
 40
9.0
 49
4.0
 49
-1.0
 49
1.0
 49
-1.0
 49
1.0
 49
-1.0
  0
LTYPE
  2
ACANSTGLM
 70
     0
  3
_ _ _ _ _
 72
    65
 73
     2
 40
3.0
 49
2.0
 49
-1.0
  0
LTYPE
  2
ACISOWELD
 70
     0
  3
_ _ _ _ _
 72
    65
 73
     2
 40
2.0
 49
2.0
 49
-1.0
  0
LTYPE
  2
ACISOTGB
 70
     0
  3
__ . . __ . .
 72
    65
 73
     6
 40
9.0
 49
4.0
 49
-1.0
 49
1.0
 49
-1.0
 49
1.0
 49
-1.0
  0
LTYPE
  2
ACISOTGL
 70
     0
  3
_ _ _ _ _
 72
    65
 73
     2
 40
3.0
 49
2.0
 49
-1.0
  0
LTYPE
  2
ACJISTGB
 70
     0
  3
__ . . __ . .
 72
    65
 73
     6
 40
9.0
 49
4.0
 49
-1.0
 49
1.0
 49
-1.0
 49
1.0
 49
-1.0
  0
LTYPE
  2
ACJISTGL
 70
     0
  3
_ _ _ _ _
 72
    65
 73
     2
 40
3.0
 49
2.0
 49
-1.0
  0
LTYPE
  2
CENTER
 70
     0
  3
Center ____ _ ____ _ ____ _ ____ _ ____ _ ____
 72
    65
 73
     4
 40
50.799999999999997
 49
31.75
 49
-6.3499999999999979
 49
6.3499999999999979
 49
-6.3499999999999979
  0
LTYPE
  2
ACJISWELD
 70
     0
  3
_ _ _ _ _
 72
    65
 73
     2
 40
2.0
 49
2.0
 49
-1.0
  0
LTYPE
  2
HIDDEN
 70
     0
  3
Hidden __ __ __ __ __ __ __ __ __ __ __ __ __ _
 72
    65
 73
     2
 40
9.5249999999999968
 49
6.349999999999997
 49
-3.174999999999998
  0
LTYPE
  2
PHANTOM2
 70
     0
  3
Phantom (.5x) ___ _ _ ___ _ _ ___ _ _ ___ _ _
 72
    65
 73
     6
 40
31.75
 49
15.875
 49
-3.174999999999998
 49
3.174999999999998
 49
-3.174999999999998
 49
3.174999999999998
 49
-3.174999999999998
  0
LTYPE
  2
CENTER2
 70
     0
  3
Center (.5x) ___ _ ___ _ ___ _ ___ _ ___ _ ___
 72
    65
 73
     4
 40
1.125
 49
0.75
 49
-0.125
 49
0.125
 49
-0.125
  0
LTYPE
  2
HIDDEN2
 70
     0
  3
Hidden (.5x) _ _ _ _ _ _ _ _ _ _ _ _ _ _ _ _ _
 72
    65
 73
     2
 40
0.1875
 49
0.125
 49
-0.0625
  0
LTYPE
  2
AMZIGZAG2
 70
     0
  3
/\/-/\/-/\/-/\/-/\/-/\/
 72
    65
 73
     2
 40
0.4401
 49
0.0001
 49
-0.4400000000000003
  0
LTYPE
  2
ACANSTGB
 70
     0
  3
__ . . __ . .
 72
    65
 73
     6
 40
0.35433070866
 49
0.15748031496
 49
-0.03937007874
 49
0.03937007874
 49
-0.03937007874
 49
0.03937007874
 49
-0.03937007874
  0
LTYPE
  2
ACANSTGL
 70
     0
  3
_ _ _ _ _
 72
    65
 73
     2
 40
0.11811023622
 49
0.07874015748
 49
-0.03937007874
  0
ENDTAB
  0
TABLE
  2
LAYER
 70
     6
  0
LAYER
  2
0
 70
     0
 62
     7
  6
CONTINUOUS
  0
LAYER
  2
DEFPOINTS
 70
     0
 62
     7
  6
CONTINUOUS
  0
LAYER
  2
AM_7
 70
     0
 62
     1
  6
AM_ISO08W050
  0
LAYER
  2
AM_5
 70
     0
 62
     2
  6
CONTINUOUS
  0
LAYER
  2
1
 70
     0
 62
     7
  6
CONTINUOUS
  0
LAYER
  2
AM_CL
 70
     0
 62
     1
  6
AMCONSTR
  0
ENDTAB
  0
TABLE
  2
STYLE
 70
     8
  0
STYLE
  2
STANDARD
 70
     0
 40
0.0
 41
0.7400000000000003
 50
0.0
 71
     0
 42
2.5
  3
txt.shx
  4
bigfont.shx
  0
STYLE
  2

 70
     1
 40
0.0
 41
1.0
 50
0.0
 71
     0
 42
2.5
  3
ltypeshp.shx
  4

  0
STYLE
  2
ACANSTS
 70
     0
 40
1.0
 41
1.0
 50
0.0
 71
     0
 42
2.5
  3
romans.shx
  4
bigfont.shx
  0
STYLE
  2
ACANSGDT
 70
     0
 40
0.0
 41
1.0
 50
0.0
 71
     0
 42
2.5
  3
amgdtans.shx
  4

  0
STYLE
  2
ACISOTS
 70
     0
 40
1.0
 41
1.0
 50
0.0
 71
     0
 42
2.5
  3
isocp.shx
  4
extfont.shx
  0
STYLE
  2
ACISOGDT
 70
     0
 40
0.0
 41
1.0
 50
0.0
 71
     0
 42
2.5
  3
amgdt.shx
  4

  0
STYLE
  2
ACJISGDT
 70
     0
 40
0.0
 41
1.0
 50
0.0
 71
     0
 42
2.5
  3
amgdt.shx
  4

  0
STYLE
  2
ACJISTS
 70
     0
 40
1.0
 41
1.0
 50
0.0
 71
     0
 42
2.5
  3
isocp.shx
  4
extfont.shx
  0
ENDTAB
  0
TABLE
  2
VIEW
 70
     6
  0
VIEW
  2
AM_VIEW1
 70
     0
 40
370.00000000000023
 10
391.06761625835759
 20
554.99999940360874
 41
782.13523131672605
 11
0.0
 21
0.0
 31
1.0
 12
0.0
 22
0.0
 32
0.0
 42
50.0
 43
0.0
 44
0.0
 50
0.0
 71
     0
  0
VIEW
  2
AM_VIEW2
 70
     0
 40
370.00000000000023
 10
746.93238494163131
 20
554.99999940360874
 41
782.13523131672605
 11
0.0
 21
0.0
 31
1.0
 12
0.0
 22
0.0
 32
0.0
 42
50.0
 43
0.0
 44
0.0
 50
0.0
 71
     0
  0
VIEW
  2
AM_VIEW3
 70
     0
 40
370.00000000000023
 10
391.06761625835759
 20
184.9999994036086
 41
782.13523131672605
 11
0.0
 21
0.0
 31
1.0
 12
0.0
 22
0.0
 32
0.0
 42
50.0
 43
0.0
 44
0.0
 50
0.0
 71
     0
  0
VIEW
  2
AM_VIEW4
 70
     0
 40
370.00000000000023
 10
746.93238494163131
 20
184.9999994036086
 41
782.13523131672605
 11
0.0
 21
0.0
 31
1.0
 12
0.0
 22
0.0
 32
0.0
 42
50.0
 43
0.0
 44
0.0
 50
0.0
 71
     0
  0
VIEW
  2
AM_VIEW5
 70
     0
 40
370.00000000000023
 10
569.00000059999422
 20
369.99999940360868
 41
782.13523131672616
 11
0.0
 21
0.0
 31
1.0
 12
0.0
 22
0.0
 32
0.0
 42
50.0
 43
0.0
 44
0.0
 50
0.0
 71
     0
  0
VIEW
  2
AM_VIEW6
 70
     0
 40
739.99260000000015
 10
569.00000059999422
 20
369.99999940360868
 41
1564.254819928826
 11
0.0
 21
0.0
 31
1.0
 12
0.0
 22
0.0
 32
0.0
 42
50.0
 43
0.0
 44
0.0
 50
0.0
 71
     0
  0
ENDTAB
  0
TABLE
  2
UCS
 70
     0
  0
ENDTAB
  0
TABLE
  2
APPID
 70
   157
  0
APPID
  2
ACAD
 70
     0
  0
APPID
  2
ACADANNOTATIVE
 70
     0
  0
APPID
  2
ACAD_MLEADERVER
 70
     0
  0
APPID
  2
MCAD_NO_VIS
 70
     0
  0
APPID
  2
ACAD_TEMP_GRAPHIC
 70
     0
  0
APPID
  2
AD_DRAW
 70
     0
  0
APPID
  2
ACATTRIBSERVICES
 70
     0
  0
APPID
  2
DESIGNERASSEMBLIES
 70
     0
  0
APPID
  2
ACADM_DIM_EDIT
 70
     0
  0
APPID
  2
AMDT_DM_ADJ
 70
     0
  0
APPID
  2
GENIUS_GENDIMSH_14
 70
     0
  0
APPID
  2
GEVID1057795304
 70
     0
  0
APPID
  2
GEVDC
 70
     0
  0
APPID
  2
GEVCON
 70
     0
  0
APPID
  2
GENIUS_GENBH_13
 70
     0
  0
APPID
  2
GENIUS_GENOENT_13
 70
     0
  0
APPID
  2
GENIUS_GENOBJ-NBEHI-BHF_13
 70
     0
  0
APPID
  2
GENIUS_GENOLIS_13
 70
     0
  0
APPID
  2
GENIUS_GENODEF_13
 70
     0
  0
APPID
  2
GENIUS_GENOREF_13
 70
     0
  0
APPID
  2
GENIUS_GENOBJ-NBEHI-BHB_13
 70
     0
  0
APPID
  2
GENIUS_GENOBJ-F-SCPASSM_13
 70
     0
  0
APPID
  2
GENIUS_GENDTOL_13
 70
     0
  0
APPID
  2
GENIUS_GENTRA_14
 70
     0
  0
APPID
  2
ASURF_PCURVE_APPNAME
 70
     0
  0
APPID
  2
GENIUS_GENCFG_13
 70
     0
  0
APPID
  2
GENIUS_GE3CFG0_13
 70
     0
  0
APPID
  2
GENIUS_GENCFG0_13
 70
     0
  0
APPID
  2
GENIUS_GENCFG1_13
 70
     0
  0
APPID
  2
GENIUS_GENCFG2_13
 70
     0
  0
APPID
  2
GENIUS_GENCFG3_13
 70
     0
  0
APPID
  2
GENIUS_GENCFG4_13
 70
     0
  0
APPID
  2
GENIUS_GEVCFG0_13
 70
     0
  0
APPID
  2
GENIUS_GENOBJ-N-TIT_13
 70
     0
  0
APPID
  2
GENIUS_GENTITLE_13
 70
     0
  0
APPID
  2
GENIUS_GENSCREG_15
 70
     0
  0
APPID
  2
GENIUS_GENOBJ-N-SDF_13
 70
     0
  0
APPID
  2
GENIUS_GENFIL_13
 70
     0
  0
APPID
  2
GENIUS_GENOBJ-N-CHA_13
 70
     0
  0
APPID
  2
GENIUS_GEFSH_13
 70
     0
  0
APPID
  2
GENIUS_GENOBJ-F-SHS_13
 70
     0
  0
APPID
  2
GENIUS_GENOBJ-N-CEN_13
 70
     0
  0
APPID
  2
GENIUS_GENREC_14
 70
     0
  0
APPID
  2
GENIUS_GENOBJ-N-REC_13
 70
     0
  0
APPID
  2
GENIUS_GENOBJ-N-HTC_13
 70
     0
  0
APPID
  2
GENIUS_GENHATCH_13
 70
     0
  0
APPID
  2
ACAD_PSEXT
 70
     0
  0
APPID
  2
ACAD_EXEMPT_FROM_CAD_STANDARDS
 70
     0
  0
APPID
  2
ACAECLAYERSTANDARD
 70
     0
  0
APPID
  2
GENIUS_GENCEN_19
 70
     0
  0
APPID
  2
ACAD_DSTYLE_DIMINSPECT
 70
     0
  0
APPID
  2
ACAD_DSTYLE_DIMANGULAR_EXT
 70
     0
  0
APPID
  2
ACADANNOPO
 70
     0
  0
APPID
  2
ACAD_NAV_VCDISPLAY
 70
     0
  0
APPID
  2
GENIUS_GENOBJ-N-FIL_13
 70
     0
  0
APPID
  2
ACAD_DSTYLE_DIMBREAK
 70
     0
  0
APPID
  2
ACAD_DSTYLE_DIMJAG
 70
     0
  0
APPID
  2
ACAD_DSTYLE_DIMRADIAL_EXTENSION
 70
     0
  0
APPID
  2
GENIUS_DUMCFG0_13
 70
     0
  0
APPID
  2
ACAD_DSTYLE_DIMTEXT_FILL
 70
     0
  0
APPID
  2
AMG_2DHIDE
 70
     0
  0
APPID
  2
GENIUS_GEFSHEP_13
 70
     0
  0
APPID
  2
GENIUS_GENOBJ-F-SHE_13
 70
     0
  0
APPID
  2
GENIUS_GEFSHE_13
 70
     0
  0
APPID
  2
ACAD_DIMASSOC_DIMLFAC
 70
     0
  0
APPID
  2
ACAD_DIMASSOC_CALC_DIMLFAC
 70
     0
  0
APPID
  2
ACAD_DIMASSOC_OVERRIDDEN_D
 70
     0
  0
APPID
  2
GENIUS_GENOBJ-F-SHSV_13
 70
     0
  0
APPID
  2
GENIUS_GEFWELD_13
 70
     0
  0
APPID
  2
GENIUS_GENOBJ-N-CRS_13
 70
     0
  0
APPID
  2
GENIUS_GENOBJ-N-RSBK_13
 70
     0
  0
APPID
  2
GENIUS_GENOBJ-N-LIB_13
 70
     0
  0
APPID
  2
GENIUS_GENSCALE_13
 70
     0
  0
APPID
  2
GENIUS_GENHINW_13
 70
     0
  0
APPID
  2
GENIUS_FIRSTVISTXT_14
 70
     0
  0
APPID
  2
GENIUS_GENOBJ-N-LEADER_13
 70
     0
  0
APPID
  2
GENIUS_GENDREL_13
 70
     0
  0
APPID
  2
GEVPT
 70
     0
  0
APPID
  2
GEVIT
 70
     0
  0
APPID
  2
VCC
 70
     0
  0
APPID
  2
GENBH
 70
     0
  0
APPID
  2
GEVMK
 70
     0
  0
APPID
  2
GENIUS_GENOBJ-F-DESC_13
 70
     0
  0
APPID
  2
GENIUS_GEFDESC_14
 70
     0
  0
APPID
  2
GENIUS_GENOBJ-F-FEAT_13
 70
     0
  0
APPID
  2
GENIUS_GEFFEAT_14
 70
     0
  0
APPID
  2
GENIUS_GEFPARTINS_13
 70
     0
  0
APPID
  2
GENIUS_GENSCREG_13
 70
     0
  0
APPID
  2
GENIUS_GEFSHP_13
 70
     0
  0
APPID
  2
GEVID1025574798
 70
     0
  0
APPID
  2
GEVID1025574769
 70
     0
  0
APPID
  2
GEVID1025757451
 70
     0
  0
APPID
  2
GEVID1240528327
 70
     0
  0
APPID
  2
AMG_2DSTRUCT_BTR
 70
     0
  0
APPID
  2
ACADM_2DVIEW_IGN_NOTIFY
 70
     0
  0
APPID
  2
GEVID1240528328
 70
     0
  0
APPID
  2
GEVID1240528329
 70
     0
  0
APPID
  2
GEVRADREF
 70
     0
  0
APPID
  2
GEVID1240528330
 70
     0
  0
APPID
  2
GEVID1240528331
 70
     0
  0
APPID
  2
GEVID1240528332
 70
     0
  0
APPID
  2
GEVID1240791080
 70
     0
  0
APPID
  2
GEVID1240791081
 70
     0
  0
APPID
  2
GEVID1240791082
 70
     0
  0
APPID
  2
GEVID1240791083
 70
     0
  0
APPID
  2
GEVID1240791084
 70
     0
  0
APPID
  2
GEVID1240791085
 70
     0
  0
APPID
  2
GEVID1240791086
 70
     0
  0
APPID
  2
GEVID1240791087
 70
     0
  0
APPID
  2
GEVID1240791088
 70
     0
  0
APPID
  2
GEVID1240791089
 70
     0
  0
APPID
  2
GEVID1240791090
 70
     0
  0
APPID
  2
GEVID1240791091
 70
     0
  0
APPID
  2
GEVID1240791092
 70
     0
  0
APPID
  2
GEVID1240791093
 70
     0
  0
APPID
  2
GEVID1240791094
 70
     0
  0
APPID
  2
GEVID1240791095
 70
     0
  0
APPID
  2
GEVID1240791096
 70
     0
  0
APPID
  2
GEVID1240791097
 70
     0
  0
APPID
  2
GEVID1240791098
 70
     0
  0
APPID
  2
GEVID1240791099
 70
     0
  0
APPID
  2
GEVID1240791100
 70
     0
  0
APPID
  2
GEVID1240791101
 70
     0
  0
APPID
  2
GEVID1240791102
 70
     0
  0
APPID
  2
GEVID1240791103
 70
     0
  0
APPID
  2
GEVID1240791104
 70
     0
  0
APPID
  2
GEVID1240791105
 70
     0
  0
APPID
  2
GEVID1240875381
 70
     0
  0
APPID
  2
GEVID1240875382
 70
     0
  0
APPID
  2
GEVID1240875383
 70
     0
  0
APPID
  2
GEVID1240875384
 70
     0
  0
APPID
  2
GEVID1240875385
 70
     0
  0
APPID
  2
GEVID1240875386
 70
     0
  0
APPID
  2
GEVID1240875387
 70
     0
  0
APPID
  2
GEVID1240875388
 70
     0
  0
APPID
  2
GEVID1240875389
 70
     0
  0
APPID
  2
GEVID1240875390
 70
     0
  0
APPID
  2
GEVID1240875391
 70
     0
  0
APPID
  2
GEVID1240875392
 70
     0
  0
APPID
  2
GEVID1240875393
 70
     0
  0
APPID
  2
GEVID1240875394
 70
     0
  0
APPID
  2
GEVID1240875395
 70
     0
  0
APPID
  2
GEVID1240875396
 70
     0
  0
APPID
  2
GEVID1240875397
 70
     0
  0
APPID
  2
GEVID1240875398
 70
     0
  0
APPID
  2
GEVID1240875399
 70
     0
  0
APPID
  2
GEVID1240908996
 70
     0
  0
APPID
  2
GEVID1240908997
 70
     0
  0
APPID
  2
GEVID1240908998
 70
     0
  0
APPID
  2
GEVID1240908999
 70
     0
  0
APPID
  2
GEVID1240909000
 70
     0
  0
APPID
  2
GENIUS_GENOBJ-N-ZOO_13
 70
     0
  0
APPID
  2
GENIUS_GENZOO_17
 70
     0
  0
APPID
  2
GENIUS_GE3SECT_13
 70
     0
  0
APPID
  2
GEV_VCCNULL_SWITCH_OFF
 70
     0
  0
APPID
  2
ACAD_DSTYLE_DIMTALN
 70
     0
  0
APPID
  2
DCO15
 70
     0
  0
ENDTAB
  0
TABLE
  2
DIMSTYLE
 70
    21
  0
DIMSTYLE
  2
AM_ANSI
 70
     0
  3

  4
"
  5

  6

  7

 40
1.0
 41
2.5
 42
1.0
 43
10.0
 44
1.0
 45
0.0
 46
0.0
 47
0.1
 48
0.1
140
3.5
141
0.0
142
0.0
143
0.0393701
144
1.0
145
0.0
146
0.71
147
1.5
 71
     0
 72
     0
 73
     1
 74
     1
 75
     0
 76
     0
 77
     0
 78
     8
170
     0
171
     2
172
     0
173
     0
174
     0
175
     0
176
     2
177
     2
178
     4
  0
DIMSTYLE
  2
AM_ANSI$3
 70
     0
  3

  4
"
  5

  6

  7

 40
1.0
 41
2.5
 42
1.0
 43
10.0
 44
1.0
 45
0.0
 46
0.0
 47
0.1
 48
0.1
140
3.5
141
0.0
142
0.0
143
0.0393701
144
1.0
145
0.0
146
0.71
147
1.5
 71
     0
 72
     0
 73
     1
 74
     1
 75
     0
 76
     0
 77
     0
 78
     8
170
     0
171
     2
172
     0
173
     0
174
     0
175
     0
176
     2
177
     2
178
     4
  0
DIMSTYLE
  2
AM_ANSI$4
 70
     0
  3

  4
"
  5

  6

  7

 40
1.0
 41
2.5
 42
1.0
 43
10.0
 44
1.0
 45
0.0
 46
0.0
 47
0.1
 48
0.1
140
3.5
141
0.0
142
0.0
143
0.0393701
144
1.0
145
0.0
146
0.71
147
1.5
 71
     0
 72
     0
 73
     1
 74
     1
 75
     0
 76
     0
 77
     0
 78
     8
170
     0
171
     2
172
     0
173
     0
174
     0
175
     0
176
     2
177
     2
178
     4
  0
DIMSTYLE
  2
AM_ANSI$7
 70
     0
  3

  4
"
  5

  6

  7

 40
1.0
 41
2.5
 42
1.0
 43
10.0
 44
1.0
 45
0.0
 46
0.0
 47
0.1
 48
0.1
140
5.0
141
0.0
142
0.0
143
0.0393701
144
1.0
145
0.0
146
0.71
147
1.5
 71
     0
 72
     0
 73
     1
 74
     1
 75
     0
 76
     0
 77
     0
 78
     8
170
     0
171
     2
172
     0
173
     0
174
     0
175
     0
176
     2
177
     2
178
     4
  0
DIMSTYLE
  2
AM_ANSI$SF
 70
     0
  3

  4
"
  5

  6

  7

 40
1.0
 41
2.5
 42
1.0
 43
10.0
 44
1.0
 45
0.0
 46
0.0
 47
0.1
 48
0.1
140
3.5
141
0.0
142
0.0
143
0.0393701
144
1.0
145
0.0
146
0.71
147
1.5
 71
     0
 72
     0
 73
     1
 74
     1
 75
     1
 76
     1
 77
     0
 78
     8
170
     0
171
     2
172
     0
173
     0
174
     0
175
     0
176
     2
177
     2
178
     4
  0
DIMSTYLE
  2
AM_ANSI$SH
 70
     0
  3

  4
"
  5

  6
GENAXEH
  7

 40
1.0
 41
2.5
 42
1.0
 43
10.0
 44
1.0
 45
0.0
 46
0.0
 47
0.1
 48
0.1
140
3.5
141
0.0
142
0.0
143
0.0393701
144
1.0
145
0.0
146
0.71
147
1.5
 71
     0
 72
     0
 73
     1
 74
     1
 75
     1
 76
     1
 77
     0
 78
     8
170
     0
171
     2
172
     0
173
     1
174
     0
175
     0
176
     2
177
     2
178
     4
  0
DIMSTYLE
  2
AM_ISO
 70
     0
  3

  4
"
  5

  6

  7

 40
1.0
 41
2.5
 42
1.0
 43
10.0
 44
1.0
 45
0.0
 46
0.0
 47
0.1
 48
0.1
140
3.5
141
0.0
142
0.0
143
0.0393701
144
1.0
145
0.0
146
0.71
147
1.5
 71
     0
 72
     0
 73
     0
 74
     0
 75
     0
 76
     0
 77
     1
 78
     8
170
     0
171
     2
172
     1
173
     0
174
     0
175
     0
176
   256
177
   256
178
     2
  0
DIMSTYLE
  2
AM_ISO$3
 70
     0
  3

  4
"
  5

  6

  7

 40
1.0
 41
2.5
 42
1.0
 43
10.0
 44
1.0
 45
0.0
 46
0.0
 47
0.1
 48
0.1
140
3.5
141
0.0
142
0.0
143
0.0393701
144
1.0
145
0.0
146
0.71
147
1.5
 71
     0
 72
     0
 73
     0
 74
     1
 75
     0
 76
     0
 77
     1
 78
     8
170
     0
171
     2
172
     0
173
     0
174
     0
175
     0
176
   256
177
   256
178
     2
  0
DIMSTYLE
  2
AM_ISO$4
 70
     0
  3

  4
"
  5

  6

  7

 40
1.0
 41
2.5
 42
1.0
 43
10.0
 44
1.0
 45
0.0
 46
0.0
 47
0.1
 48
0.1
140
3.5
141
0.0
142
0.0
143
0.0393701
144
1.0
145
0.0
146
0.71
147
1.5
 71
     0
 72
     0
 73
     0
 74
     1
 75
     0
 76
     0
 77
     1
 78
     8
170
     0
171
     2
172
     0
173
     0
174
     0
175
     0
176
   256
177
   256
178
     2
  0
DIMSTYLE
  2
AM_ISO$6
 70
     0
  3

  4
"
  5

  6

  7

 40
1.0
 41
2.5
 42
1.0
 43
10.0
 44
1.0
 45
0.0
 46
0.0
 47
0.1
 48
0.1
140
3.5
141
0.0
142
0.0
143
0.0393701
144
1.0
145
0.0
146
0.71
147
1.5
 71
     0
 72
     0
 73
     0
 74
     0
 75
     0
 76
     0
 77
     0
 78
     8
170
     0
171
     2
172
     1
173
     0
174
     0
175
     0
176
   256
177
   256
178
     2
  0
DIMSTYLE
  2
AM_ISO$7
 70
     0
  3

  4
"
  5

  6

  7

 40
1.0
 41
2.5
 42
1.0
 43
10.0
 44
1.0
 45
0.0
 46
0.0
 47
0.1
 48
0.1
140
5.0
141
0.0
142
0.0
143
0.0393701
144
1.0
145
0.0
146
0.71
147
1.5
 71
     0
 72
     0
 73
     0
 74
     0
 75
     0
 76
     0
 77
     1
 78
     8
170
     0
171
     2
172
     1
173
     0
174
     0
175
     0
176
   256
177
   256
178
     2
  0
DIMSTYLE
  2
AM_ISO$SF
 70
     0
  3

  4
"
  5

  6

  7

 40
1.0
 41
2.5
 42
1.0
 43
10.0
 44
1.0
 45
0.0
 46
0.0
 47
0.1
 48
0.1
140
3.5
141
0.0
142
0.0
143
0.0393701
144
1.0
145
0.0
146
0.71
147
1.5
 71
     0
 72
     0
 73
     0
 74
     0
 75
     1
 76
     1
 77
     1
 78
     8
170
     0
171
     2
172
     1
173
     0
174
     0
175
     0
176
   256
177
   256
178
     2
  0
DIMSTYLE
  2
AM_ISO$SH
 70
     0
  3

  4
"
  5

  6
GENAXEH
  7

 40
1.0
 41
2.5
 42
1.0
 43
10.0
 44
1.0
 45
0.0
 46
0.0
 47
0.1
 48
0.1
140
3.5
141
0.0
142
0.0
143
0.0393701
144
2.0
145
0.0
146
0.71
147
1.5
 71
     0
 72
     0
 73
     0
 74
     0
 75
     1
 76
     1
 77
     1
 78
     8
170
     0
171
     2
172
     1
173
     1
174
     0
175
     0
176
   256
177
   256
178
     2
  0
DIMSTYLE
  2
AM_JIS
 70
     0
  3

  4
"
  5

  6

  7

 40
1.0
 41
2.0
 42
1.0
 43
8.0
 44
1.0
 45
0.0
 46
0.0
 47
0.1
 48
0.1
140
2.5
141
0.0
142
0.0
143
0.0393701
144
1.0
145
0.0
146
0.71
147
1.5
 71
     0
 72
     0
 73
     0
 74
     0
 75
     0
 76
     0
 77
     3
 78
     8
170
     0
171
     2
172
     1
173
     0
174
     0
175
     0
176
     2
177
     2
178
     4
  0
DIMSTYLE
  2
AM_JIS$3
 70
     0
  3

  4
"
  5

  6

  7

 40
1.0
 41
2.0
 42
1.0
 43
10.0
 44
1.0
 45
0.0
 46
0.0
 47
0.1
 48
0.1
140
2.5
141
0.0
142
0.0
143
0.0393701
144
1.0
145
0.0
146
0.71
147
1.5
 71
     0
 72
     0
 73
     0
 74
     1
 75
     0
 76
     0
 77
     3
 78
     8
170
     0
171
     2
172
     0
173
     0
174
     0
175
     0
176
     2
177
     2
178
     4
  0
DIMSTYLE
  2
AM_JIS$4
 70
     0
  3

  4
"
  5

  6

  7

 40
1.0
 41
2.0
 42
1.0
 43
10.0
 44
1.0
 45
0.0
 46
0.0
 47
0.1
 48
0.1
140
2.5
141
0.0
142
0.0
143
0.0393701
144
1.0
145
0.0
146
0.71
147
1.5
 71
     0
 72
     0
 73
     0
 74
     0
 75
     0
 76
     0
 77
     3
 78
     8
170
     0
171
     2
172
     0
173
     0
174
     0
175
     0
176
     2
177
     2
178
     4
  0
DIMSTYLE
  2
AM_JIS$6
 70
     0
  3

  4
"
  5

  6

  7

 40
1.0
 41
2.0
 42
1.0
 43
10.0
 44
1.0
 45
0.0
 46
0.0
 47
0.1
 48
0.1
140
2.5
141
0.0
142
0.0
143
0.0393701
144
1.0
145
0.0
146
0.71
147
1.5
 71
     0
 72
     0
 73
     0
 74
     0
 75
     0
 76
     0
 77
     0
 78
     8
170
     0
171
     2
172
     1
173
     0
174
     0
175
     0
176
     2
177
     2
178
     4
  0
DIMSTYLE
  2
AM_JIS$7
 70
     0
  3

  4
"
  5

  6
OPEN30
  7
OPEN30
 40
1.0
 41
2.0
 42
1.0
 43
10.0
 44
1.0
 45
0.0
 46
0.0
 47
0.1
 48
0.1
140
2.5
141
0.0
142
0.0
143
0.0393701
144
1.0
145
0.0
146
0.71
147
1.5
 71
     0
 72
     0
 73
     0
 74
     0
 75
     0
 76
     0
 77
     3
 78
     8
170
     0
171
     2
172
     1
173
     0
174
     0
175
     0
176
     2
177
     2
178
     4
  0
DIMSTYLE
  2
AM_JIS$SF
 70
     0
  3

  4
"
  5

  6

  7

 40
1.0
 41
2.0
 42
1.0
 43
10.0
 44
1.0
 45
0.0
 46
0.0
 47
0.1
 48
0.1
140
2.5
141
0.0
142
0.0
143
0.0393701
144
1.0
145
0.0
146
0.71
147
1.5
 71
     0
 72
     0
 73
     0
 74
     0
 75
     1
 76
     1
 77
     3
 78
     8
170
     0
171
     2
172
     1
173
     0
174
     0
175
     0
176
     2
177
     2
178
     4
  0
DIMSTYLE
  2
AM_JIS$SH
 70
     0
  3

  4
"
  5

  6
GENAXEH
  7

 40
1.0
 41
2.0
 42
1.0
 43
10.0
 44
1.0
 45
0.0
 46
0.0
 47
0.1
 48
0.1
140
2.5
141
0.0
142
0.0
143
0.0393701
144
2.0
145
0.0
146
0.71
147
1.5
 71
     0
 72
     0
 73
     0
 74
     0
 75
     1
 76
     1
 77
     3
 78
     8
170
     0
171
     2
172
     1
173
     1
174
     0
175
     0
176
     2
177
     2
178
     4
  0
DIMSTYLE
  2
AM_JIS$0
 70
     0
  3

  4
"
  5

  6

  7

 40
1.0
 41
2.0
 42
1.0
 43
8.0
 44
1.0
 45
0.0
 46
0.0
 47
0.1
 48
0.1
140
2.5
141
0.0
142
0.0
143
0.0393701
144
1.0
145
0.0
146
0.71
147
1.5
 71
     0
 72
     0
 73
     0
 74
     0
 75
     0
 76
     0
 77
     3
 78
     8
170
     0
171
     2
172
     1
173
     0
174
     0
175
     0
176
     2
177
     2
178
     4
  0
ENDTAB
  0
ENDSEC
  0
SECTION
  2
BLOCKS
  0
BLOCK
  8
0
  2
$MODEL_SPACE
 70
     0
 10
0.0
 20
0.0
 30
0.0
  3
$MODEL_SPACE
  1

  0
ENDBLK
  5
77
  8
0
  0
BLOCK
 67
     1
  8
0
  2
$PAPER_SPACE
 70
     0
 10
0.0
 20
0.0
 30
0.0
  3
$PAPER_SPACE
  1

  0
ENDBLK
  5
73
 67
     1
  8
0
  0
BLOCK
  8
0
  2
GENAXEH
 70
     0
 10
0.0
 20
0.0
 30
0.0
  3
GENAXEH
  1

  0
LINE
  5
8FAD
  8
0
 10
-1.0
 20
0.0
 30
0.0
 11
1.0
 21
0.0
 31
0.0
  0
ENDBLK
  5
8FAE
  8
0
  0
BLOCK
  8
0
  2
A$C51A57548
 70
     0
 10
0.0
 20
0.0
 30
0.0
  3
A$C51A57548
  1

  0
POINT
  5
74EC
  8
1
  6
CONTINUOUS
 10
0.0
 20
0.0
 30
0.0
  0
POINT
  5
74ED
  8
1
  6
CONTINUOUS
 10
0.0
 20
-0.0000581098202019
 30
0.0
  0
LINE
  5
74EE
  8
1
  6
CONTINUOUS
 10
0.0
 20
73.499941890179798
 30
0.0
 11
0.0
 21
-73.5
 31
0.0
  0
ARC
  5
74EF
  8
0
 10
-9.0
 20
-62.000029054910087
 30
0.0
 40
1.0
 50
180.0
 51
270.0
  0
ARC
  5
74F0
  8
0
 10
-9.0
 20
61.999970945089899
 30
0.0
 40
1.0
 50
90.0
 51
180.0
  0
ARC
  5
74F1
  8
0
 10
-11.008374999999999
 20
-66.500029054910101
 30
0.0
 40
2.0
 50
270.0
 51
344.99999999999221
  0
LINE
  5
74F2
  8
0
 10
-8.0
 20
-63.000029054910087
 30
0.0
 11
-9.0765230000000638
 21
-67.017667054910149
 31
0.0
  0
ARC
  5
74F3
  8
0
 10
-12.82361900000001
 20
-74.896194054910183
 30
0.0
 40
2.0
 50
270.0
 51
345.0000029999984
  0
LINE
  5
74F4
  8
0
 10
-8.0
 20
-64.621610054909965
 30
0.0
 11
-10.89176700000001
 21
-75.413832054910003
 31
0.0
  0
ARC
  5
74F5
  8
0
 10
-79.0
 20
-77.862227054910122
 30
0.0
 40
2.0
 50
270.0
 51
0.0
  0
ARC
  5
74F6
  8
0
 10
-79.0
 20
-77.434949054910248
 30
0.0
 40
2.0
 50
270.0
 51
0.0
  0
ARC
  5
74F7
  8
0
 10
-79.0
 20
-76.429598054910002
 30
0.0
 40
2.0
 50
270.0
 51
346.50868899999841
  0
LINE
  5
74F8
  8
0
 10
-77.0
 20
-77.862227054910122
 30
0.0
 11
-77.0
 21
-76.896194054910183
 31
0.0
  0
LINE
  5
74F9
  8
0
 10
-164.0
 20
-69.52839605490999
 30
0.0
 11
-172.0
 21
-69.52839605490999
 31
0.0
  0
LINE
  5
74FA
  8
0
 10
-164.0
 20
-73.884385054910126
 30
0.0
 11
-172.0
 21
-73.884385054910126
 31
0.0
  0
LINE
  5
74FB
  8
0
 10
-164.0
 20
-76.522024054910133
 30
0.0
 11
-172.0
 21
-76.522024054910133
 31
0.0
  0
ARC
  5
74FC
  8
0
 10
-160.0
 20
-77.862227054910122
 30
0.0
 40
2.0
 50
180.0
 51
270.0
  0
LINE
  5
74FD
  8
0
 10
-162.0
 20
-75.884385054910126
 30
0.0
 11
-162.0
 21
-76.429598054910002
 31
0.0
  0
ARC
  5
74FE
  8
0
 10
-160.1505499999999
 20
-77.434949054910248
 30
0.0
 40
2.0
 50
195.7695469999999
 51
270.0
  0
ARC
  5
74FF
  8
0
 10
-160.0
 20
-76.429598054910002
 30
0.0
 40
2.0
 50
180.0
 51
270.0
  0
ARC
  5
7500
  8
0
 10
-160.0
 20
-74.896194054910183
 30
0.0
 40
2.0
 50
180.0
 51
270.0
  0
LINE
  5
7501
  8
0
 10
-162.0
 20
-71.528396054909976
 30
0.0
 11
-162.0
 21
-74.896194054910183
 31
0.0
  0
ARC
  5
7502
  8
0
 10
-164.0
 20
-71.528396054909976
 30
0.0
 40
2.0
 50
0.0
 51
90.0
  0
ARC
  5
7503
  8
0
 10
-164.0
 20
-75.884385054910126
 30
0.0
 40
2.0
 50
0.0
 51
90.0
  0
ARC
  5
7504
  8
0
 10
-164.0
 20
-78.522024054910148
 30
0.0
 40
2.0
 50
15.7695469999999
 51
90.0
  0
LINE
  5
7505
  8
0
 10
-160.0
 20
-76.896194054910183
 30
0.0
 11
-12.82361900000001
 21
-76.896194054910183
 31
0.0
  0
LINE
  5
7506
  8
0
 10
-160.0
 20
-78.429598054910002
 30
0.0
 11
-79.0
 21
-78.429598054910002
 31
0.0
  0
LINE
  5
7507
  8
0
 10
-160.1505499999999
 20
-79.434949054910248
 30
0.0
 11
-79.0
 21
-79.434949054910248
 31
0.0
  0
LINE
  5
7508
  8
0
 10
-160.0
 20
-79.862227054910122
 30
0.0
 11
-79.0
 21
-79.862227054910122
 31
0.0
  0
ARC
  5
7509
  8
0
 10
-12.82361900000001
 20
74.896135945090023
 30
0.0
 40
2.0
 50
14.999997000001709
 51
90.0
  0
ARC
  5
750A
  8
0
 10
-11.008374999999999
 20
66.499970945089885
 30
0.0
 40
2.0
 50
15.000000000007869
 51
90.0
  0
LINE
  5
750B
  8
0
 10
-8.0
 20
64.621551945089763
 30
0.0
 11
-10.89176700000001
 21
75.413773945089815
 31
0.0
  0
LINE
  5
750C
  8
0
 10
-8.0
 20
62.999970945089913
 30
0.0
 11
-9.0765230000000638
 21
67.017608945089933
 31
0.0
  0
LINE
  5
750D
  8
0
 10
-10.0
 20
-43.830029054910028
 30
0.0
 11
-10.0
 21
-35.893384054910257
 31
0.0
  0
LINE
  5
750E
  8
0
 10
-10.0
 20
46.169970945089972
 30
0.0
 11
-10.0
 21
61.999970945089899
 31
0.0
  0
ARC
  5
750F
  8
0
 10
-9.0006389999999765
 20
-47.041560054909951
 30
0.0
 40
1.0026319999999971
 50
0.054084999991942
 51
81.243759000000509
  0
LINE
  5
7510
  8
0
 10
-8.8480070000000524
 20
-46.050613054910173
 30
0.0
 11
-10.606805999999951
 21
-45.780029054910067
 31
0.0
  0
LINE
  5
7511
  8
0
 10
-8.8580070000000433
 20
-43.960613054910013
 30
0.0
 11
-10.46069500000004
 21
-44.180029054910143
 31
0.0
  0
ARC
  5
7512
  8
0
 10
-9.0049750000000017
 20
-42.964409054909993
 30
0.0
 40
1.0069859999999999
 50
278.39216300000191
 51
359.64700200000118
  0
LINE
  5
7513
  8
0
 10
-7.998007000000027
 20
-42.970613054910217
 30
0.0
 11
-7.998007000000027
 21
-47.040613054909947
 31
0.0
  0
ARC
  5
7514
  8
0
 10
-10.54136299999999
 20
-44.993969054909918
 30
0.0
 40
0.8033630000000001
 50
0.2393300000044313
 51
89.760670000002094
  0
ARC
  5
7515
  8
0
 10
-10.54306900000006
 20
-44.98555105491004
 30
0.0
 40
0.8050779999999997
 50
270.3602510000016
 51
359.63974900000488
  0
ARC
  5
7516
  8
0
 10
-9.0049750000000017
 20
42.964350945089791
 30
0.0
 40
1.0069859999999999
 50
0.3529979999987895
 51
81.607836999998227
  0
LINE
  5
7517
  8
0
 10
-8.8580070000000433
 20
43.960554945089811
 30
0.0
 11
-10.46069500000004
 21
44.179970945089963
 31
0.0
  0
ARC
  5
7518
  8
0
 10
-9.0006389999999765
 20
47.041501945089749
 30
0.0
 40
1.0026319999999971
 50
278.75624099999948
 51
359.94591499999501
  0
LINE
  5
7519
  8
0
 10
-7.998007000000027
 20
42.970554945090022
 30
0.0
 11
-7.998007000000027
 21
47.040554945089752
 31
0.0
  0
LINE
  5
751A
  8
0
 10
-8.8480070000000524
 20
46.050554945089971
 30
0.0
 11
-10.606805999999951
 21
45.779970945089858
 31
0.0
  0
ARC
  5
751B
  8
0
 10
-10.54136299999999
 20
44.993910945089738
 30
0.0
 40
0.8033630000000001
 50
270.23932999999789
 51
359.7606700000087
  0
ARC
  5
751C
  8
0
 10
-10.54306900000006
 20
44.985492945089838
 30
0.0
 40
0.8050779999999997
 50
0.3602509999951178
 51
89.639748999998375
  0
LINE
  5
751D
  8
0
 10
-10.0
 20
37.863915945089957
 30
0.0
 11
0.0
 21
37.863915945089957
 31
0.0
  0
LINE
  5
751E
  8
0
 10
-10.0
 20
-37.853974054909941
 30
0.0
 11
0.0
 21
-37.853974054909941
 31
0.0
  0
LINE
  5
751F
  8
0
 10
-18.0
 20
-26.10002905491001
 30
0.0
 11
-8.5899999999999732
 21
-26.10002905491001
 31
0.0
  0
LINE
  5
7520
  8
0
 10
-21.908403000000021
 20
-23.92002905491017
 30
0.0
 11
-8.4947829999999822
 21
-23.92002905491017
 31
0.0
  0
LINE
  5
7521
  8
0
 10
-22.0
 20
-3.9900290549101092
 30
0.0
 11
-9.0060870000000364
 21
-3.9900290549101092
 31
0.0
  0
LINE
  5
7522
  8
0
 10
-18.0
 20
-33.85002905491001
 30
0.0
 11
-8.4947829999999822
 21
-33.85002905491001
 31
0.0
  0
LINE
  5
7523
  8
0
 10
-91.850000000000023
 20
-43.830029054910028
 30
0.0
 11
-8.4904610000000371
 21
-43.830029054910028
 31
0.0
  0
LINE
  5
7524
  8
0
 10
-172.0
 20
46.169970945089972
 30
0.0
 11
-8.5049519999999461
 21
46.169970945089972
 31
0.0
  0
LINE
  5
7525
  8
0
 10
-18.0
 20
33.849970945089808
 30
0.0
 11
-8.4947829999999822
 21
33.849970945089808
 31
0.0
  0
LINE
  5
7526
  8
0
 10
-22.0
 20
3.9899709450899081
 30
0.0
 11
-9.0060870000000364
 21
3.9899709450899081
 31
0.0
  0
LINE
  5
7527
  8
0
 10
-21.908403000000021
 20
23.919970945089968
 30
0.0
 11
-8.4947829999999822
 21
23.919970945089968
 31
0.0
  0
LINE
  5
7528
  8
0
 10
-18.0
 20
26.099970945089812
 30
0.0
 11
-8.5899999999999732
 21
26.099970945089812
 31
0.0
  0
ARC
  5
7529
  8
0
 10
-12.399991
 20
54.308944945089941
 30
0.0
 40
2.2000009999999981
 50
180.00000299999761
 51
269.99997799999852
  0
ARC
  5
752A
  8
0
 10
-12.399991
 20
58.908950945089828
 30
0.0
 40
2.1999970000000002
 50
90.0
 51
179.99998200000081
  0
LINE
  5
752B
  8
0
 10
-10.0
 20
56.559502945089903
 30
0.0
 11
-11.30000000000001
 21
55.80894794509004
 31
0.0
  0
LINE
  5
752C
  8
0
 10
-10.0
 20
57.559502945089889
 30
0.0
 11
-11.30000000000001
 21
56.80894794509004
 31
0.0
  0
LINE
  5
752D
  8
0
 10
-11.30000000000001
 20
61.208947945089903
 30
0.0
 11
-10.0
 21
61.208947945089903
 31
0.0
  0
LINE
  5
752E
  8
0
 10
-11.30000000000001
 20
52.008947945089858
 30
0.0
 11
-10.0
 21
52.008947945089858
 31
0.0
  0
LINE
  5
752F
  8
0
 10
-10.0
 20
61.208947945089903
 30
0.0
 11
-10.0
 21
52.008947945089858
 31
0.0
  0
LINE
  5
7530
  8
0
 10
-14.60000300000001
 20
58.908950945089828
 30
0.0
 11
-14.60000300000001
 21
54.308944945089941
 31
0.0
  0
LINE
  5
7531
  8
0
 10
-11.30000000000001
 20
61.208947945089903
 30
0.0
 11
-11.30000000000001
 21
52.008947945089858
 31
0.0
  0
LINE
  5
7532
  8
0
 10
-11.30000000000001
 20
52.108947945089767
 30
0.0
 11
-12.399991
 21
52.108947945089767
 31
0.0
  0
LINE
  5
7533
  8
0
 10
-11.30000000000001
 20
61.108947945089753
 30
0.0
 11
-12.399991
 21
61.108947945089753
 31
0.0
  0
LINE
  5
7534
  8
0
 10
0.0
 20
-73.500029054910101
 30
0.0
 11
0.0
 21
73.499912945089804
 31
0.0
  0
LINE
  5
7535
  8
0
 10
-9.0
 20
-63.000029054910087
 30
0.0
 11
0.0
 21
-63.000029054910087
 31
0.0
  0
LINE
  5
7536
  8
0
 10
-9.0
 20
-73.500029054910101
 30
0.0
 11
0.0
 21
-73.500029054910101
 31
0.0
  0
LINE
  5
7537
  8
0
 10
-9.0
 20
62.999970945089913
 30
0.0
 11
0.0
 21
62.999970945089913
 31
0.0
  0
LINE
  5
7538
  8
0
 10
-9.0
 20
73.499970945089899
 30
0.0
 11
0.0
 21
73.499970945089899
 31
0.0
  0
LINE
  5
7539
  8
0
 10
-299.69999999999999
 20
-76.543217054910201
 30
0.0
 11
-299.34644700000001
 21
-76.189664054910054
 31
0.0
  0
LINE
  5
753A
  8
0
 10
-297.12132000000003
 20
-79.12189705491005
 30
0.0
 11
-299.69999999999999
 21
-76.543217054910201
 31
0.0
  0
LINE
  5
753B
  8
0
 10
-296.76776699999999
 20
-78.768344054910131
 30
0.0
 11
-299.34644700000001
 21
-76.189664054910054
 31
0.0
  0
ARC
  5
753C
  8
0
 10
-295.0
 20
-77.000577054910082
 30
0.0
 40
3.0
 50
220.00000000000469
 51
33.557310000003177
  0
ARC
  5
753D
  8
0
 10
-290.05014999999997
 20
-62.804485054909918
 30
0.0
 40
2.249854
 50
179.8865100000088
 51
261.61639199999888
  0
ARC
  5
753E
  8
0
 10
-202.0
 20
-0.000029054910101
 30
0.0
 40
7.0
 50
16.601550000005041
 51
163.39844999999491
  0
ARC
  5
753F
  8
0
 10
-202.0
 20
-0.000029054910101
 30
0.0
 40
6.0
 50
19.47121999999958
 51
160.52877899999211
  0
LINE
  5
7540
  8
0
 10
-209.0
 20
1.999970945089899
 30
0.0
 11
-209.0
 21
2.499970945089899
 31
0.0
  0
LINE
  5
7541
  8
0
 10
-193.0
 20
1.999970945089899
 30
0.0
 11
-193.0
 21
2.499970945089899
 31
0.0
  0
LINE
  5
7542
  8
0
 10
-193.0
 20
2.499970945089899
 30
0.0
 11
-188.0
 21
2.499970945089899
 31
0.0
  0
LINE
  5
7543
  8
0
 10
-193.0
 20
1.999970945089899
 30
0.0
 11
-209.0
 21
1.999970945089899
 31
0.0
  0
LINE
  5
7544
  8
0
 10
-188.0
 20
-2.5000290549101001
 30
0.0
 11
-188.0
 21
2.499970945089899
 31
0.0
  0
LINE
  5
7545
  8
0
 62
     2
 10
-284.23000000000002
 20
2.399873945089892
 30
0.0
 11
-284.23000000000002
 21
74.019970945089881
 31
0.0
  0
LINE
  5
7546
  8
0
 62
     2
 10
-288.30000000000001
 20
-4.3538640549099901
 30
0.0
 11
-288.30000000000001
 21
-63.370669054910202
 31
0.0
  0
ARC
  5
7547
  8
0
 10
-290.81572000000011
 20
-67.999198054910039
 30
0.0
 40
3.0009689999999982
 50
9.9623180000057001
 51
81.616391999998939
  0
LINE
  5
7548
  8
0
 10
-193.0
 20
-2.0000290549101001
 30
0.0
 11
-209.0
 21
-2.0000290549101001
 31
0.0
  0
LINE
  5
7549
  8
0
 10
-193.0
 20
-2.5000290549101001
 30
0.0
 11
-188.0
 21
-2.5000290549101001
 31
0.0
  0
LINE
  5
754A
  8
0
 10
-193.0
 20
-2.0000290549101001
 30
0.0
 11
-193.0
 21
-2.5000290549101001
 31
0.0
  0
ARC
  5
754B
  8
0
 10
-202.0
 20
-0.000029054910101
 30
0.0
 40
7.0
 50
196.60154999999159
 51
343.39844999999502
  0
LINE
  5
754C
  8
0
 10
-209.0
 20
-2.0000290549101001
 30
0.0
 11
-209.0
 21
-2.5000290549101001
 31
0.0
  0
ARC
  5
754D
  8
0
 10
-202.0
 20
-0.000029054910101
 30
0.0
 40
6.0
 50
199.4712209999945
 51
340.52878000000038
  0
LINE
  5
754E
  8
0
 10
-209.0
 20
2.499970945089899
 30
0.0
 11
-282.5
 21
2.499970945089899
 31
0.0
  0
LINE
  5
754F
  8
0
 10
-209.0
 20
-2.5000290549101001
 30
0.0
 11
-282.5
 21
-2.5000290549101001
 31
0.0
  0
ARC
  5
7550
  8
0
 10
-282.5
 20
-12.500029054910099
 30
0.0
 40
10.0
 50
90.0
 51
180.0
  0
ARC
  5
7551
  8
0
 10
-282.5
 20
-12.500029054910099
 30
0.0
 40
15.0
 50
90.0
 51
180.0
  0
ARC
  5
7552
  8
0
 10
-295.0
 20
-77.000577054910082
 30
0.0
 40
2.5
 50
180.0
 51
0.0
  0
LINE
  5
7553
  8
0
 10
-297.5
 20
-77.000577054910082
 30
0.0
 11
-297.5
 21
-12.500029054910099
 31
0.0
  0
LINE
  5
7554
  8
0
 10
-292.5
 20
-77.000577054910082
 30
0.0
 11
-292.5
 21
-12.500029054910099
 31
0.0
  0
LINE
  5
7555
  8
0
 10
-8.8600000000000119
 20
3.9699709450899259
 30
0.0
 11
-10.30000000000001
 21
4.167113945090021
 31
0.0
  0
LINE
  5
7556
  8
0
 10
-8.8500000000000245
 20
6.0599709450898427
 30
0.0
 11
-10.30000000000001
 21
5.8368939450897397
 31
0.0
  0
LINE
  5
7557
  8
0
 10
-8.0
 20
2.9799709450899168
 30
0.0
 11
-8.0
 21
7.0499709450898518
 31
0.0
  0
LINE
  5
7558
  8
0
 10
-8.8600000000000119
 20
13.969970945089919
 30
0.0
 11
-10.30000000000001
 21
14.167113945090019
 31
0.0
  0
LINE
  5
7559
  8
0
 10
-8.8500000000000245
 20
16.059970945089841
 30
0.0
 11
-10.30000000000001
 21
15.83689394508974
 31
0.0
  0
LINE
  5
755A
  8
0
 10
-8.0
 20
12.979970945089921
 30
0.0
 11
-8.0
 21
17.04997094508985
 31
0.0
  0
LINE
  5
755B
  8
0
 10
-8.8500000000000245
 20
26.059970945089841
 30
0.0
 11
-10.30000000000001
 21
25.836893945089741
 31
0.0
  0
LINE
  5
755C
  8
0
 10
-8.8600000000000119
 20
23.96997094508993
 30
0.0
 11
-10.30000000000001
 21
24.16711394509003
 31
0.0
  0
LINE
  5
755D
  8
0
 10
-8.0
 20
22.979970945089921
 30
0.0
 11
-8.0
 21
27.049970945089861
 31
0.0
  0
ARC
  5
755E
  8
0
 10
-10.548395000000029
 20
4.999970945089899
 30
0.0
 40
0.8000439999999999
 50
288.0879409999975
 51
71.912059000002486
  0
ARC
  5
755F
  8
0
 10
-9.0026320000000055
 20
7.0509169450899662
 30
0.0
 40
1.0026319999999971
 50
278.75624099999948
 51
359.94591499999501
  0
ARC
  5
7560
  8
0
 10
-9.0069669999999746
 20
2.973766945089892
 30
0.0
 40
1.0069859999999999
 50
0.3529979999987895
 51
81.607836999998227
  0
ARC
  5
7561
  8
0
 10
-10.54506200000003
 20
14.994908945089939
 30
0.0
 40
0.8050779999999997
 50
0.3602509999951178
 51
72.278209999997259
  0
ARC
  5
7562
  8
0
 10
-9.0026320000000055
 20
17.050916945089959
 30
0.0
 40
1.0026319999999971
 50
278.75624099999948
 51
359.94591499999501
  0
ARC
  5
7563
  8
0
 10
-9.0069669999999746
 20
12.97376694508989
 30
0.0
 40
1.0069859999999999
 50
0.3529979999987895
 51
81.607836999998227
  0
ARC
  5
7564
  8
0
 10
-10.54335599999996
 20
25.003326945089839
 30
0.0
 40
0.8033630000000001
 50
287.63315000000222
 51
359.7606700000087
  0
ARC
  5
7565
  8
0
 10
-10.54506200000003
 20
24.99490894508995
 30
0.0
 40
0.8050779999999997
 50
0.3602509999951178
 51
72.278209999997259
  0
ARC
  5
7566
  8
0
 10
-9.0069669999999746
 20
22.973766945089888
 30
0.0
 40
1.0069859999999999
 50
0.3529979999987895
 51
81.607836999998227
  0
ARC
  5
7567
  8
0
 10
-9.0026320000000055
 20
27.05091694508997
 30
0.0
 40
1.0026319999999971
 50
278.75624099999948
 51
359.94591499999501
  0
ARC
  5
7568
  8
0
 10
-10.54335599999996
 20
15.003326945089841
 30
0.0
 40
0.8033630000000001
 50
287.63315000000222
 51
359.7606700000087
  0
ARC
  5
7569
  8
0
 10
-9.0049750000000017
 20
32.984350945089773
 30
0.0
 40
1.0069859999999999
 50
0.3529979999987895
 51
81.607836999998227
  0
ARC
  5
756A
  8
0
 10
-9.0006389999999765
 20
37.061501945089958
 30
0.0
 40
1.0026319999999971
 50
278.75624099999948
 51
359.94591499999501
  0
LINE
  5
756B
  8
0
 10
-7.998007000000027
 20
32.990554945090039
 30
0.0
 11
-7.998007000000027
 21
37.060554945089962
 31
0.0
  0
ARC
  5
756C
  8
0
 10
-10.54306900000006
 20
35.005492945089827
 30
0.0
 40
0.8050779999999997
 50
0.3602509999951178
 51
72.278209999997259
  0
LINE
  5
756D
  8
0
 10
-8.8480070000000524
 20
36.070554945089953
 30
0.0
 11
-10.298007000000039
 21
35.84747794508985
 31
0.0
  0
ARC
  5
756E
  8
0
 10
-10.54136299999999
 20
35.013910945089961
 30
0.0
 40
0.8033630000000001
 50
287.63315000000222
 51
359.7606700000087
  0
LINE
  5
756F
  8
0
 10
-8.8580070000000433
 20
33.980554945089807
 30
0.0
 11
-10.298007000000039
 21
34.177697945089903
 31
0.0
  0
LINE
  5
7570
  8
0
 10
-10.30000000000001
 20
4.1999709450899427
 30
0.0
 11
-22.0
 21
4.1999709450899427
 31
0.0
  0
LINE
  5
7571
  8
0
 10
-10.30000000000001
 20
5.7999709450898518
 30
0.0
 11
-22.5
 21
5.7999709450898518
 31
0.0
  0
LINE
  5
7572
  8
0
 10
-8.8500000000000245
 20
6.0199709450898791
 30
0.0
 11
-22.5
 21
6.0199709450898791
 31
0.0
  0
LINE
  5
7573
  8
0
 10
-10.30000000000001
 20
14.199970945089939
 30
0.0
 11
-22.5
 21
14.199970945089939
 31
0.0
  0
LINE
  5
7574
  8
0
 10
-10.30000000000001
 20
15.79997094508985
 30
0.0
 11
-22.5
 21
15.79997094508985
 31
0.0
  0
LINE
  5
7575
  8
0
 10
-8.8600000000000119
 20
13.969970945089919
 30
0.0
 11
-22.5
 21
13.969970945089919
 31
0.0
  0
LINE
  5
7576
  8
0
 10
-8.9445150000000222
 20
16.04997094508985
 30
0.0
 11
-22.5
 21
16.04997094508985
 31
0.0
  0
LINE
  5
7577
  8
0
 10
-10.30000000000001
 20
35.799970945089861
 30
0.0
 11
-19.128220000000049
 21
35.799970945089861
 31
0.0
  0
LINE
  5
7578
  8
0
 10
-10.30000000000001
 20
34.199970945089952
 30
0.0
 11
-18.010025000000041
 21
34.199970945089952
 31
0.0
  0
LINE
  5
7579
  8
0
 10
-10.30000000000001
 20
25.799970945089861
 30
0.0
 11
-18.0
 21
25.799970945089861
 31
0.0
  0
LINE
  5
757A
  8
0
 10
-10.30000000000001
 20
24.199970945089952
 30
0.0
 11
-21.553565000000049
 21
24.199970945089952
 31
0.0
  0
LINE
  5
757B
  8
0
 10
-10.08755599999995
 20
72.412414945089949
 30
0.0
 11
-10.0
 21
72.499970945089899
 31
0.0
  0
LINE
  5
757C
  8
0
 10
-10.0
 20
72.504964945089796
 30
0.0
 11
-10.0
 21
72.499970945089899
 31
0.0
  0
ARC
  5
757D
  8
0
 10
-9.0024969999999431
 20
72.502467945089847
 30
0.0
 40
0.9975059999999999
 50
89.856577999996375
 51
180.14342199999061
  0
LINE
  5
757E
  8
0
 10
-10.0
 20
72.499970945089899
 30
0.0
 11
-10.0
 21
72.085653945089902
 31
0.0
  0
LINE
  5
757F
  8
0
 10
-11.5
 20
50.901020945089847
 30
0.0
 11
-11.5
 21
46.169970945089972
 31
0.0
  0
LINE
  5
7580
  8
0
 10
-10.0
 20
35.893325945090062
 30
0.0
 11
-10.0
 21
43.829970945089819
 31
0.0
  0
LINE
  5
7581
  8
0
 10
-11.5
 20
50.901020945089847
 30
0.0
 11
-11.38384500000001
 21
52.108947945089767
 31
0.0
  0
LINE
  5
7582
  8
0
 10
-11.5
 20
43.829970945089819
 30
0.0
 11
-11.5
 21
36.189970945089946
 31
0.0
  0
LINE
  5
7583
  8
0
 10
-162.0
 20
44.179970945089963
 30
0.0
 11
-10.46069500000004
 21
44.179970945089963
 31
0.0
  0
LINE
  5
7584
  8
0
 10
-172.0
 20
50.901020945089847
 30
0.0
 11
-11.5
 21
50.901020945089847
 31
0.0
  0
LINE
  5
7585
  8
0
 10
-160.0
 20
68.499970945089899
 30
0.0
 11
-11.008374999999999
 21
68.499970945089899
 31
0.0
  0
LINE
  5
7586
  8
0
 10
-77.0
 20
77.862168945089948
 30
0.0
 11
-77.0
 21
76.896135945090023
 31
0.0
  0
ARC
  5
7587
  8
0
 10
-79.0
 20
76.4295399450898
 30
0.0
 40
2.0
 50
13.49131100000157
 51
90.0
  0
ARC
  5
7588
  8
0
 10
-79.0
 20
77.434890945090046
 30
0.0
 40
2.0
 50
0.0
 51
90.0
  0
ARC
  5
7589
  8
0
 10
-79.0
 20
77.862168945089948
 30
0.0
 40
2.0
 50
0.0
 51
90.0
  0
LINE
  5
758A
  8
0
 10
-91.850000000000023
 20
43.829970945089819
 30
0.0
 11
-8.4904610000000371
 21
43.829970945089819
 31
0.0
  0
LINE
  5
758B
  8
0
 10
-129.34
 20
25.799970945089861
 30
0.0
 11
-107.5
 21
25.799970945089861
 31
0.0
  0
LINE
  5
758C
  8
0
 10
-129.90999999999991
 20
24.199970945089952
 30
0.0
 11
-107.5
 21
24.199970945089952
 31
0.0
  0
LINE
  5
758D
  8
0
 10
-132.87
 20
14.199970945089939
 30
0.0
 11
-107.0
 21
14.199970945089939
 31
0.0
  0
LINE
  5
758E
  8
0
 10
-132.50999999999999
 20
15.79997094508985
 30
0.0
 11
-107.0
 21
15.79997094508985
 31
0.0
  0
LINE
  5
758F
  8
0
 10
-133.34999999999999
 20
4.1999709450899427
 30
0.0
 11
-107.0
 21
4.1999709450899427
 31
0.0
  0
LINE
  5
7590
  8
0
 10
-133.46000000000001
 20
5.7999709450898518
 30
0.0
 11
-107.0
 21
5.7999709450898518
 31
0.0
  0
LINE
  5
7591
  8
0
 10
-133.33000000000001
 20
3.9899709450899081
 30
0.0
 11
-107.0
 21
3.9899709450899081
 31
0.0
  0
LINE
  5
7592
  8
0
 10
-133.47
 20
6.0199709450898791
 30
0.0
 11
-107.0
 21
6.0199709450898791
 31
0.0
  0
LINE
  5
7593
  8
0
 10
-132.9199999999999
 20
13.969970945089919
 30
0.0
 11
-107.0
 21
13.969970945089919
 31
0.0
  0
LINE
  5
7594
  8
0
 10
-132.44999999999999
 20
16.04997094508985
 30
0.0
 11
-107.0
 21
16.04997094508985
 31
0.0
  0
LINE
  5
7595
  8
0
 10
-130.00999999999999
 20
23.919970945089968
 30
0.0
 11
-107.5
 21
23.919970945089968
 31
0.0
  0
LINE
  5
7596
  8
0
 10
-129.22999999999999
 20
26.099970945089812
 30
0.0
 11
-107.5
 21
26.099970945089812
 31
0.0
  0
LINE
  5
7597
  8
0
 10
-162.0
 20
65.355889945089984
 30
0.0
 11
-162.0
 21
66.499970945089885
 31
0.0
  0
ARC
  5
7598
  8
0
 10
-164.0
 20
65.355889945089984
 30
0.0
 40
2.0
 50
270.0
 51
0.0
  0
ARC
  5
7599
  8
0
 10
-160.0
 20
66.499970945089885
 30
0.0
 40
2.0
 50
90.0
 51
180.0
  0
LINE
  5
759A
  8
0
 10
-162.0
 20
65.355889945089984
 30
0.0
 11
-162.0
 21
52.90102094508984
 31
0.0
  0
ARC
  5
759B
  8
0
 10
-164.0
 20
52.90102094508984
 30
0.0
 40
2.0
 50
270.0
 51
0.0
  0
LINE
  5
759C
  8
0
 10
-162.0
 20
71.528337945089774
 30
0.0
 11
-162.0
 21
74.896135945090023
 31
0.0
  0
ARC
  5
759D
  8
0
 10
-164.0
 20
71.528337945089774
 30
0.0
 40
2.0
 50
270.0
 51
0.0
  0
ARC
  5
759E
  8
0
 10
-160.0
 20
74.896135945090023
 30
0.0
 40
2.0
 50
90.0
 51
180.0
  0
ARC
  5
759F
  8
0
 10
-164.0
 20
75.884326945089924
 30
0.0
 40
2.0
 50
270.0
 51
0.0
  0
ARC
  5
75A0
  8
0
 10
-160.0
 20
76.4295399450898
 30
0.0
 40
2.0
 50
90.0
 51
180.0
  0
ARC
  5
75A1
  8
0
 10
-164.0
 20
78.521965945089946
 30
0.0
 40
2.0
 50
270.0
 51
344.23045300000013
  0
ARC
  5
75A2
  8
0
 10
-160.1505499999999
 20
77.434890945090046
 30
0.0
 40
2.0
 50
90.0
 51
164.2304530000001
  0
LINE
  5
75A3
  8
0
 10
-162.0
 20
75.884326945089924
 30
0.0
 11
-162.0
 21
76.4295399450898
 31
0.0
  0
ARC
  5
75A4
  8
0
 10
-160.0
 20
77.862168945089948
 30
0.0
 40
2.0
 50
90.0
 51
180.0
  0
LINE
  5
75A5
  8
0
 10
-162.0
 20
45.93130294509001
 30
0.0
 11
-162.0
 21
29.28152794508993
 31
0.0
  0
LINE
  5
75A6
  8
0
 10
-162.0
 20
35.799970945089861
 30
0.0
 11
-104.672308
 21
35.799970945089861
 31
0.0
  0
LINE
  5
75A7
  8
0
 10
-162.0
 20
34.199970945089952
 30
0.0
 11
-106.56244599999999
 21
34.199970945089952
 31
0.0
  0
LINE
  5
75A8
  8
0
 10
-162.0
 20
33.849970945089808
 30
0.0
 11
-106.731627
 21
33.849970945089808
 31
0.0
  0
LINE
  5
75A9
  8
0
 10
-162.0
 20
36.189970945089946
 30
0.0
 11
-10.0
 21
36.189970945089946
 31
0.0
  0
LINE
  5
75AA
  8
0
 10
-129.22999999999999
 20
26.099970945089812
 30
0.0
 11
-172.0
 21
26.099970945089812
 31
0.0
  0
LINE
  5
75AB
  8
0
 10
-130.00999999999999
 20
23.919970945089968
 30
0.0
 11
-172.0
 21
23.919970945089968
 31
0.0
  0
LINE
  5
75AC
  8
0
 10
-132.44999999999999
 20
16.04997094508985
 30
0.0
 11
-172.0
 21
16.04997094508985
 31
0.0
  0
LINE
  5
75AD
  8
0
 10
-132.9199999999999
 20
13.969970945089919
 30
0.0
 11
-172.0
 21
13.969970945089919
 31
0.0
  0
LINE
  5
75AE
  8
0
 10
-133.47
 20
6.0199709450898791
 30
0.0
 11
-172.0
 21
6.0199709450898791
 31
0.0
  0
LINE
  5
75AF
  8
0
 10
-133.33000000000001
 20
3.9899709450899081
 30
0.0
 11
-172.0
 21
3.9899709450899081
 31
0.0
  0
LINE
  5
75B0
  8
0
 10
-129.34
 20
25.799970945089861
 30
0.0
 11
-172.0
 21
25.799970945089861
 31
0.0
  0
LINE
  5
75B1
  8
0
 10
-129.90999999999991
 20
24.199970945089952
 30
0.0
 11
-172.0
 21
24.199970945089952
 31
0.0
  0
LINE
  5
75B2
  8
0
 10
-132.50999999999999
 20
15.79997094508985
 30
0.0
 11
-172.0
 21
15.79997094508985
 31
0.0
  0
LINE
  5
75B3
  8
0
 10
-132.87
 20
14.199970945089939
 30
0.0
 11
-172.0
 21
14.199970945089939
 31
0.0
  0
LINE
  5
75B4
  8
0
 10
-133.46000000000001
 20
5.7999709450898518
 30
0.0
 11
-172.0
 21
5.7999709450898518
 31
0.0
  0
LINE
  5
75B5
  8
0
 10
-133.34999999999999
 20
4.1999709450899427
 30
0.0
 11
-172.0
 21
4.1999709450899427
 31
0.0
  0
LINE
  5
75B6
  8
0
 10
-162.0
 20
45.779970945089858
 30
0.0
 11
-10.606805999999951
 21
45.779970945089858
 31
0.0
  0
LINE
  5
75B7
  8
0
 10
-162.0
 20
43.829970945089819
 30
0.0
 11
-91.850000000000023
 21
43.829970945089819
 31
0.0
  0
LINE
  5
75B8
  8
0
 10
-160.0
 20
76.896135945090023
 30
0.0
 11
-12.82361900000001
 21
76.896135945090023
 31
0.0
  0
LINE
  5
75B9
  8
0
 10
-160.0
 20
78.4295399450898
 30
0.0
 11
-79.0
 21
78.4295399450898
 31
0.0
  0
LINE
  5
75BA
  8
0
 10
-160.1505499999999
 20
79.434890945090046
 30
0.0
 11
-79.0
 21
79.434890945090046
 31
0.0
  0
LINE
  5
75BB
  8
0
 10
-160.0
 20
79.862168945089948
 30
0.0
 11
-79.0
 21
79.862168945089948
 31
0.0
  0
LINE
  5
75BC
  8
0
 10
-172.0
 20
29.28152794508993
 30
0.0
 11
-162.0
 21
29.28152794508993
 31
0.0
  0
LINE
  5
75BD
  8
0
 10
-172.0
 20
34.999970945089899
 30
0.0
 11
-162.0
 21
34.999970945089899
 31
0.0
  0
LINE
  5
75BE
  8
0
 10
-172.0
 20
45.519970945089881
 30
0.0
 11
-162.0
 21
45.519970945089881
 31
0.0
  0
LINE
  5
75BF
  8
0
 10
-172.0
 20
45.93130294509001
 30
0.0
 11
-162.0
 21
45.93130294509001
 31
0.0
  0
LINE
  5
75C0
  8
0
 10
-164.0
 20
63.355889945089991
 30
0.0
 11
-172.0
 21
63.355889945089991
 31
0.0
  0
LINE
  5
75C1
  8
0
 10
-164.0
 20
69.528337945089788
 30
0.0
 11
-172.0
 21
69.528337945089788
 31
0.0
  0
LINE
  5
75C2
  8
0
 10
-164.0
 20
73.884326945089924
 30
0.0
 11
-172.0
 21
73.884326945089924
 31
0.0
  0
LINE
  5
75C3
  8
0
 10
-164.0
 20
76.521965945089946
 30
0.0
 11
-172.0
 21
76.521965945089946
 31
0.0
  0
LINE
  5
75C4
  8
0
 10
-129.34
 20
-25.800029054910059
 30
0.0
 11
-107.5
 21
-25.800029054910059
 31
0.0
  0
LINE
  5
75C5
  8
0
 10
-129.90999999999991
 20
-24.20002905491015
 30
0.0
 11
-107.5
 21
-24.20002905491015
 31
0.0
  0
LINE
  5
75C6
  8
0
 10
-132.87
 20
-14.200029054910139
 30
0.0
 11
-107.0
 21
-14.200029054910139
 31
0.0
  0
LINE
  5
75C7
  8
0
 10
-132.50999999999999
 20
-15.80002905491005
 30
0.0
 11
-107.0
 21
-15.80002905491005
 31
0.0
  0
LINE
  5
75C8
  8
0
 10
-133.34999999999999
 20
-4.2000290549101464
 30
0.0
 11
-107.0
 21
-4.2000290549101464
 31
0.0
  0
LINE
  5
75C9
  8
0
 10
-133.46000000000001
 20
-5.8000290549100537
 30
0.0
 11
-107.0
 21
-5.8000290549100537
 31
0.0
  0
LINE
  5
75CA
  8
0
 10
-133.33000000000001
 20
-3.9900290549101092
 30
0.0
 11
-107.0
 21
-3.9900290549101092
 31
0.0
  0
LINE
  5
75CB
  8
0
 10
-133.47
 20
-6.020029054910081
 30
0.0
 11
-107.0
 21
-6.020029054910081
 31
0.0
  0
LINE
  5
75CC
  8
0
 10
-132.9199999999999
 20
-13.97002905491013
 30
0.0
 11
-107.0
 21
-13.97002905491013
 31
0.0
  0
LINE
  5
75CD
  8
0
 10
-132.44999999999999
 20
-16.050029054910048
 30
0.0
 11
-107.0
 21
-16.050029054910048
 31
0.0
  0
LINE
  5
75CE
  8
0
 10
-130.00999999999999
 20
-23.92002905491017
 30
0.0
 11
-107.5
 21
-23.92002905491017
 31
0.0
  0
LINE
  5
75CF
  8
0
 10
-129.22999999999999
 20
-26.10002905491001
 30
0.0
 11
-107.5
 21
-26.10002905491001
 31
0.0
  0
LINE
  5
75D0
  8
0
 10
-10.0
 20
-62.000029054910087
 30
0.0
 11
-10.0
 21
-46.170029054910167
 31
0.0
  0
LINE
  5
75D1
  8
0
 10
-8.8580070000000433
 20
-33.980613054910009
 30
0.0
 11
-10.298007000000039
 21
-34.177756054910112
 31
0.0
  0
ARC
  5
75D2
  8
0
 10
-10.54136299999999
 20
-35.013969054910149
 30
0.0
 40
0.8033630000000001
 50
0.2393300000044313
 51
72.366849999997839
  0
LINE
  5
75D3
  8
0
 10
-8.8480070000000524
 20
-36.070613054910147
 30
0.0
 11
-10.298007000000039
 21
-35.847536054910037
 31
0.0
  0
ARC
  5
75D4
  8
0
 10
-10.54306900000006
 20
-35.005551054910029
 30
0.0
 40
0.8050779999999997
 50
287.7217900000029
 51
359.63974900000488
  0
LINE
  5
75D5
  8
0
 10
-7.998007000000027
 20
-32.990613054910227
 30
0.0
 11
-7.998007000000027
 21
-37.060613054910156
 31
0.0
  0
ARC
  5
75D6
  8
0
 10
-9.0006389999999765
 20
-37.06156005491016
 30
0.0
 40
1.0026319999999971
 50
0.054084999991942
 51
81.243759000000509
  0
ARC
  5
75D7
  8
0
 10
-9.0049750000000017
 20
-32.984409054909968
 30
0.0
 40
1.0069859999999999
 50
278.39216300000191
 51
359.64700200000118
  0
LINE
  5
75D8
  8
0
 10
-11.5
 20
-50.901079054910042
 30
0.0
 11
-11.38384500000001
 21
-52.109005054910071
 31
0.0
  0
LINE
  5
75D9
  8
0
 10
-11.5
 20
-50.901079054910042
 30
0.0
 11
-11.5
 21
-46.170029054910167
 31
0.0
  0
LINE
  5
75DA
  8
0
 10
-11.5
 20
-43.830029054910028
 30
0.0
 11
-11.5
 21
-36.190029054910148
 31
0.0
  0
LINE
  5
75DB
  8
0
 10
-10.0
 20
-72.500029054910101
 30
0.0
 11
-10.0
 21
-72.085712054910104
 31
0.0
  0
ARC
  5
75DC
  8
0
 10
-9.0024969999999431
 20
-72.502526054910049
 30
0.0
 40
0.9975059999999999
 50
179.85657799999629
 51
270.14342199999709
  0
ARC
  5
75DD
  8
0
 10
-10.54335599999996
 20
-15.003385054910041
 30
0.0
 40
0.8033630000000001
 50
0.2393300000044313
 51
72.366849999997839
  0
ARC
  5
75DE
  8
0
 10
-9.0026320000000055
 20
-27.050975054909941
 30
0.0
 40
1.0026319999999971
 50
0.054084999991942
 51
81.243759000000509
  0
ARC
  5
75DF
  8
0
 10
-9.0069669999999746
 20
-22.97382505491009
 30
0.0
 40
1.0069859999999999
 50
278.39216300000191
 51
359.64700200000118
  0
ARC
  5
75E0
  8
0
 10
-10.54506200000003
 20
-24.994967054910148
 30
0.0
 40
0.8050779999999997
 50
287.7217900000029
 51
359.63974900000488
  0
ARC
  5
75E1
  8
0
 10
-10.54335599999996
 20
-25.003385054910272
 30
0.0
 40
0.8033630000000001
 50
0.2393300000044313
 51
72.366849999997839
  0
ARC
  5
75E2
  8
0
 10
-9.0069669999999746
 20
-12.97382505491009
 30
0.0
 40
1.0069859999999999
 50
278.39216300000191
 51
359.64700200000118
  0
ARC
  5
75E3
  8
0
 10
-9.0026320000000055
 20
-17.050975054910172
 30
0.0
 40
1.0026319999999971
 50
0.054084999991942
 51
81.243759000000509
  0
ARC
  5
75E4
  8
0
 10
-10.54506200000003
 20
-14.99496705491015
 30
0.0
 40
0.8050779999999997
 50
287.7217900000029
 51
359.63974900000488
  0
ARC
  5
75E5
  8
0
 10
-9.0069669999999746
 20
-2.9738250549100931
 30
0.0
 40
1.0069859999999999
 50
278.39216300000191
 51
359.64700200000118
  0
ARC
  5
75E6
  8
0
 10
-9.0026320000000055
 20
-7.0509750549101673
 30
0.0
 40
1.0026319999999971
 50
0.054084999991942
 51
81.243759000000509
  0
ARC
  5
75E7
  8
0
 10
-10.548395000000029
 20
-5.0000290549100992
 30
0.0
 40
0.8000439999999999
 50
288.0879409999975
 51
71.912059000002486
  0
LINE
  5
75E8
  8
0
 10
-8.0
 20
-22.980029054910119
 30
0.0
 11
-8.0
 21
-27.050029054910059
 31
0.0
  0
LINE
  5
75E9
  8
0
 10
-8.8600000000000119
 20
-23.970029054910128
 30
0.0
 11
-10.30000000000001
 21
-24.167172054910228
 31
0.0
  0
LINE
  5
75EA
  8
0
 10
-8.8500000000000245
 20
-26.06002905491005
 30
0.0
 11
-10.30000000000001
 21
-25.83695205490994
 31
0.0
  0
LINE
  5
75EB
  8
0
 10
-8.0
 20
-12.980029054910119
 30
0.0
 11
-8.0
 21
-17.050029054910048
 31
0.0
  0
LINE
  5
75EC
  8
0
 10
-8.8500000000000245
 20
-16.060029054910039
 30
0.0
 11
-10.30000000000001
 21
-15.83695205490994
 31
0.0
  0
LINE
  5
75ED
  8
0
 10
-8.8600000000000119
 20
-13.97002905491013
 30
0.0
 11
-10.30000000000001
 21
-14.167172054910219
 31
0.0
  0
LINE
  5
75EE
  8
0
 10
-8.0
 20
-2.9800290549101169
 30
0.0
 11
-8.0
 21
-7.0500290549100537
 31
0.0
  0
LINE
  5
75EF
  8
0
 10
-8.8500000000000245
 20
-6.0600290549100428
 30
0.0
 11
-10.30000000000001
 21
-5.8369520549099416
 31
0.0
  0
LINE
  5
75F0
  8
0
 10
-8.8600000000000119
 20
-3.9700290549101278
 30
0.0
 11
-10.30000000000001
 21
-4.167172054910222
 31
0.0
  0
LINE
  5
75F1
  8
0
 10
-10.0
 20
-72.505023054909998
 30
0.0
 11
-10.0
 21
-72.500029054910101
 31
0.0
  0
LINE
  5
75F2
  8
0
 10
-10.08755599999995
 20
-72.412473054910151
 30
0.0
 11
-10.0
 21
-72.500029054910101
 31
0.0
  0
LINE
  5
75F3
  8
0
 10
-10.30000000000001
 20
-4.2000290549101464
 30
0.0
 11
-22.0
 21
-4.2000290549101464
 31
0.0
  0
LINE
  5
75F4
  8
0
 10
-10.30000000000001
 20
-5.8000290549100537
 30
0.0
 11
-22.5
 21
-5.8000290549100537
 31
0.0
  0
LINE
  5
75F5
  8
0
 10
-8.8500000000000245
 20
-6.020029054910081
 30
0.0
 11
-22.5
 21
-6.020029054910081
 31
0.0
  0
LINE
  5
75F6
  8
0
 10
-10.30000000000001
 20
-14.200029054910139
 30
0.0
 11
-22.5
 21
-14.200029054910139
 31
0.0
  0
LINE
  5
75F7
  8
0
 10
-10.30000000000001
 20
-15.80002905491005
 30
0.0
 11
-22.5
 21
-15.80002905491005
 31
0.0
  0
LINE
  5
75F8
  8
0
 10
-8.8600000000000119
 20
-13.97002905491013
 30
0.0
 11
-22.5
 21
-13.97002905491013
 31
0.0
  0
LINE
  5
75F9
  8
0
 10
-8.9445150000000222
 20
-16.050029054910048
 30
0.0
 11
-22.5
 21
-16.050029054910048
 31
0.0
  0
LINE
  5
75FA
  8
0
 10
-10.30000000000001
 20
-35.800029054910063
 30
0.0
 11
-19.128220000000049
 21
-35.800029054910063
 31
0.0
  0
LINE
  5
75FB
  8
0
 10
-10.30000000000001
 20
-34.200029054910154
 30
0.0
 11
-18.010025000000041
 21
-34.200029054910154
 31
0.0
  0
LINE
  5
75FC
  8
0
 10
-10.30000000000001
 20
-25.800029054910059
 30
0.0
 11
-18.0
 21
-25.800029054910059
 31
0.0
  0
LINE
  5
75FD
  8
0
 10
-10.30000000000001
 20
-24.20002905491015
 30
0.0
 11
-21.553565000000049
 21
-24.20002905491015
 31
0.0
  0
LINE
  5
75FE
  8
0
 10
-162.0
 20
-45.780029054910067
 30
0.0
 11
-10.606805999999951
 21
-45.780029054910067
 31
0.0
  0
LINE
  5
75FF
  8
0
 10
-172.0
 20
-50.901079054910042
 30
0.0
 11
-11.5
 21
-50.901079054910042
 31
0.0
  0
LINE
  5
7600
  8
0
 10
-162.0
 20
-45.931361054910212
 30
0.0
 11
-162.0
 21
-29.281586054910122
 31
0.0
  0
ARC
  5
7601
  8
0
 10
-164.0
 20
-52.901079054910042
 30
0.0
 40
2.0
 50
0.0
 51
90.0
  0
LINE
  5
7602
  8
0
 10
-162.0
 20
-65.355948054910186
 30
0.0
 11
-162.0
 21
-52.901079054910042
 31
0.0
  0
ARC
  5
7603
  8
0
 10
-160.0
 20
-66.500029054910101
 30
0.0
 40
2.0
 50
180.0
 51
270.0
  0
ARC
  5
7604
  8
0
 10
-164.0
 20
-65.355948054910186
 30
0.0
 40
2.0
 50
0.0
 51
90.0
  0
LINE
  5
7605
  8
0
 10
-162.0
 20
-65.355948054910186
 30
0.0
 11
-162.0
 21
-66.500029054910101
 31
0.0
  0
LINE
  5
7606
  8
0
 10
-162.0
 20
-35.800029054910063
 30
0.0
 11
-104.672308
 21
-35.800029054910063
 31
0.0
  0
LINE
  5
7607
  8
0
 10
-162.0
 20
-34.200029054910154
 30
0.0
 11
-106.56244599999999
 21
-34.200029054910154
 31
0.0
  0
LINE
  5
7608
  8
0
 10
-162.0
 20
-33.85002905491001
 30
0.0
 11
-106.731627
 21
-33.85002905491001
 31
0.0
  0
LINE
  5
7609
  8
0
 10
-162.0
 20
-36.190029054910148
 30
0.0
 11
-10.0
 21
-36.190029054910148
 31
0.0
  0
LINE
  5
760A
  8
0
 10
-129.22999999999999
 20
-26.10002905491001
 30
0.0
 11
-172.0
 21
-26.10002905491001
 31
0.0
  0
LINE
  5
760B
  8
0
 10
-130.00999999999999
 20
-23.92002905491017
 30
0.0
 11
-172.0
 21
-23.92002905491017
 31
0.0
  0
LINE
  5
760C
  8
0
 10
-132.44999999999999
 20
-16.050029054910048
 30
0.0
 11
-172.0
 21
-16.050029054910048
 31
0.0
  0
LINE
  5
760D
  8
0
 10
-132.9199999999999
 20
-13.97002905491013
 30
0.0
 11
-172.0
 21
-13.97002905491013
 31
0.0
  0
LINE
  5
760E
  8
0
 10
-133.47
 20
-6.020029054910081
 30
0.0
 11
-172.0
 21
-6.020029054910081
 31
0.0
  0
LINE
  5
760F
  8
0
 10
-133.33000000000001
 20
-3.9900290549101092
 30
0.0
 11
-172.0
 21
-3.9900290549101092
 31
0.0
  0
LINE
  5
7610
  8
0
 10
-129.34
 20
-25.800029054910059
 30
0.0
 11
-172.0
 21
-25.800029054910059
 31
0.0
  0
LINE
  5
7611
  8
0
 10
-129.90999999999991
 20
-24.20002905491015
 30
0.0
 11
-172.0
 21
-24.20002905491015
 31
0.0
  0
LINE
  5
7612
  8
0
 10
-132.50999999999999
 20
-15.80002905491005
 30
0.0
 11
-172.0
 21
-15.80002905491005
 31
0.0
  0
LINE
  5
7613
  8
0
 10
-132.87
 20
-14.200029054910139
 30
0.0
 11
-172.0
 21
-14.200029054910139
 31
0.0
  0
LINE
  5
7614
  8
0
 10
-133.46000000000001
 20
-5.8000290549100537
 30
0.0
 11
-172.0
 21
-5.8000290549100537
 31
0.0
  0
LINE
  5
7615
  8
0
 10
-133.34999999999999
 20
-4.2000290549101464
 30
0.0
 11
-172.0
 21
-4.2000290549101464
 31
0.0
  0
LINE
  5
7616
  8
0
 10
-162.0
 20
-44.180029054910143
 30
0.0
 11
-10.46069500000004
 21
-44.180029054910143
 31
0.0
  0
LINE
  5
7617
  8
0
 10
-162.0
 20
-43.830029054910028
 30
0.0
 11
-91.850000000000023
 21
-43.830029054910028
 31
0.0
  0
LINE
  5
7618
  8
0
 10
-172.0
 20
-46.170029054910167
 30
0.0
 11
-8.5049519999999461
 21
-46.170029054910167
 31
0.0
  0
LINE
  5
7619
  8
0
 10
-160.0
 20
-68.500029054910101
 30
0.0
 11
-11.008374999999999
 21
-68.500029054910101
 31
0.0
  0
LINE
  5
761A
  8
0
 10
-172.0
 20
-29.281586054910122
 30
0.0
 11
-162.0
 21
-29.281586054910122
 31
0.0
  0
LINE
  5
761B
  8
0
 10
-172.0
 20
-35.000029054910101
 30
0.0
 11
-162.0
 21
-35.000029054910101
 31
0.0
  0
LINE
  5
761C
  8
0
 10
-172.0
 20
-45.520029054910069
 30
0.0
 11
-162.0
 21
-45.520029054910069
 31
0.0
  0
LINE
  5
761D
  8
0
 10
-172.0
 20
-45.931361054910212
 30
0.0
 11
-162.0
 21
-45.931361054910212
 31
0.0
  0
LINE
  5
761E
  8
0
 10
-164.0
 20
-63.355948054910193
 30
0.0
 11
-172.0
 21
-63.355948054910193
 31
0.0
  0
LINE
  5
761F
  8
0
 10
-247.0
 20
2.499970945089899
 30
0.0
 11
-247.0
 21
81.999970945089899
 31
0.0
  0
LINE
  5
7620
  8
0
 10
-247.0
 20
-82.000029054910087
 30
0.0
 11
-172.0
 21
-82.000029054910087
 31
0.0
  0
LINE
  5
7621
  8
0
 10
-247.0
 20
81.999970945089899
 30
0.0
 11
-172.0
 21
81.999970945089899
 31
0.0
  0
LINE
  5
7622
  8
0
 10
-247.0
 20
-82.000029054910087
 30
0.0
 11
-247.0
 21
-2.5000290549101001
 31
0.0
  0
LINE
  5
7623
  8
0
 10
-172.0
 20
81.999970945089899
 30
0.0
 11
-172.0
 21
-82.000029054910087
 31
0.0
  0
ARC
  5
7624
  8
0
 10
-103.499501
 20
32.49947194508993
 30
0.0
 40
3.5004989999999978
 50
90.008164000001173
 51
179.9918359999923
  0
ARC
  5
7625
  8
0
 10
-106.999453
 20
27.999423945089799
 30
0.0
 40
0.5005470000000001
 50
90.0626249999995
 51
179.93737500000049
  0
ARC
  5
7626
  8
0
 10
-107.007508
 20
17.992462945089748
 30
0.0
 40
0.492549
 50
179.12656199998949
 51
270.87343799999729
  0
ARC
  5
7627
  8
0
 10
-106.999453
 20
-18.000576054910191
 30
0.0
 40
0.5005470000000001
 50
90.0626249999995
 51
179.93737500000049
  0
ARC
  5
7628
  8
0
 10
-107.0073559999999
 20
-28.00738505491017
 30
0.0
 40
0.492699
 50
179.1445600000103
 51
270.85544000000289
  0
ARC
  5
7629
  8
0
 10
-35.462044999999989
 20
32.494482945089892
 30
0.0
 40
3.5055079999999998
 50
44.924208999998719
 51
89.803122999998919
  0
LINE
  5
762A
  8
0
 10
-107.0
 20
-32.500029054910101
 30
0.0
 11
-107.0
 21
32.499970945089899
 31
0.0
  0
LINE
  5
762B
  8
0
 10
-23.529999999999969
 20
-25.530029054910081
 30
0.0
 11
-32.980000000000018
 21
-34.980029054910119
 31
0.0
  0
LINE
  5
762C
  8
0
 10
-24.60000000000003
 20
-23.63002905491021
 30
0.0
 11
-34.869999999999997
 21
-33.900029054910192
 31
0.0
  0
LINE
  5
762D
  8
0
 10
-34.869999999999997
 20
33.89997094508999
 30
0.0
 11
-24.60000000000003
 21
23.629970945090012
 31
0.0
  0
LINE
  5
762E
  8
0
 10
-24.60000000000003
 20
23.629970945090012
 30
0.0
 11
-24.60000000000003
 21
-23.63002905491021
 31
0.0
  0
LINE
  5
762F
  8
0
 10
-32.980000000000018
 20
34.969970945089933
 30
0.0
 11
-23.529999999999969
 21
25.519970945089881
 31
0.0
  0
LINE
  5
7630
  8
0
 10
-22.5
 20
23.04997094508985
 30
0.0
 11
-22.5
 21
-23.050029054910059
 31
0.0
  0
LINE
  5
7631
  8
0
 10
-22.0
 20
4.999970945089899
 30
0.0
 11
-22.0
 21
-5.0000290549100992
 31
0.0
  0
ARC
  5
7632
  8
0
 10
-22.507509000000031
 20
4.9924619450898691
 30
0.0
 40
0.507564
 50
0.8476510000084919
 51
89.152348999997997
  0
ARC
  5
7633
  8
0
 10
-22.499565999999959
 20
-5.0004630549101421
 30
0.0
 40
0.499566
 50
269.95018499999878
 51
0.049814999994649
  0
ARC
  5
7634
  8
0
 10
-26.005003999999989
 20
23.038126945089971
 30
0.0
 40
3.5050239999999979
 50
0.193606000005437
 51
45.079061999997109
  0
ARC
  5
7635
  8
0
 10
-26.003254999999971
 20
-23.048939054910079
 30
0.0
 40
3.5032559999999981
 50
314.9093959999982
 51
359.98217399999498
  0
LINE
  5
7636
  8
0
 10
-107.5
 20
27.999970945089899
 30
0.0
 11
-107.5
 21
17.999970945089899
 31
0.0
  0
LINE
  5
7637
  8
0
 10
-107.5
 20
-18.000029054910101
 30
0.0
 11
-107.5
 21
-28.000029054910101
 31
0.0
  0
LINE
  5
7638
  8
0
 10
-34.869999999999997
 20
-33.900029054910192
 30
0.0
 11
-102.58
 21
-33.900029054910192
 31
0.0
  0
LINE
  5
7639
  8
0
 10
-102.58
 20
-33.900029054910192
 30
0.0
 11
-102.58
 21
-36.000029054910101
 31
0.0
  0
ARC
  5
763A
  8
0
 10
-35.447940000000031
 20
-32.504381054910027
 30
0.0
 40
3.495648999999998
 50
269.96623299999862
 51
314.91065800000371
  0
LINE
  5
763B
  8
0
 10
-103.5
 20
-36.000029054910101
 30
0.0
 11
-20.0
 21
-36.000029054910101
 31
0.0
  0
ARC
  5
763C
  8
0
 10
-103.5073559999999
 20
-32.507385054910181
 30
0.0
 40
3.4926519999999979
 50
179.87932799999501
 51
270.12067199999842
  0
LINE
  5
763D
  8
0
 10
-102.58
 20
33.89997094508999
 30
0.0
 11
-34.869999999999997
 21
33.89997094508999
 31
0.0
  0
LINE
  5
763E
  8
0
 10
-102.58
 20
33.89997094508999
 30
0.0
 11
-102.58
 21
35.99497094508979
 31
0.0
  0
LINE
  5
763F
  8
0
 10
-103.5
 20
35.999970945089899
 30
0.0
 11
-20.0
 21
35.999970945089899
 31
0.0
  0
LINE
  5
7640
  8
0
 10
-254.05000000000001
 20
-80.750029054910087
 30
0.0
 11
-247.0
 21
-80.750029054910087
 31
0.0
  0
LINE
  5
7641
  8
0
 10
-254.05000000000001
 20
80.749970945089899
 30
0.0
 11
-247.0
 21
80.749970945089899
 31
0.0
  0
LINE
  5
7642
  8
0
  6
AM_ISO08W050
 62
     1
 10
-202.0
 20
-12.71991105490997
 30
0.0
 11
-202.0
 21
13.60773094508977
 31
0.0
  0
LINE
  5
7643
  8
0
 10
-292.30000000000001
 20
62.799970945089846
 30
0.0
 11
-292.30000000000001
 21
-1.1439730549100191
 31
0.0
  0
LINE
  5
7644
  8
0
 10
-287.86000000000001
 20
67.479970945089917
 30
0.0
 11
-286.77999999999997
 21
73.639970945089772
 31
0.0
  0
LINE
  5
7645
  8
0
 10
-255.2999999999999
 20
-79.979468054910058
 30
0.0
 11
-255.2999999999999
 21
-2.5000290549101001
 31
0.0
  0
LINE
  5
7646
  8
0
 10
-256.00999999999999
 20
79.709970945089935
 30
0.0
 11
-281.41000000000003
 21
78.379970945090022
 31
0.0
  0
LINE
  5
7647
  8
0
 10
-287.85999900000002
 20
-67.480029054910119
 30
0.0
 11
-286.77999999999997
 21
-73.640029054909974
 31
0.0
  0
LINE
  5
7648
  8
0
 10
-256.00999999999999
 20
-79.710029054910152
 30
0.0
 11
-281.41000000000003
 21
-78.380029054910196
 31
0.0
  0
LINE
  5
7649
  8
0
 62
     2
 10
-288.30000000000001
 20
63.64997094508999
 30
0.0
 11
-288.30000000000001
 21
1.3332639450900381
 31
0.0
  0
LINE
  5
764A
  8
0
 62
     2
 10
-284.23000000000002
 20
-73.500029054910101
 30
0.0
 11
-284.23000000000002
 21
-2.6508110549100361
 31
0.0
  0
ARC
  5
764B
  8
0
 10
-290.81572000000011
 20
67.999139945089823
 30
0.0
 40
3.0009689999999982
 50
278.34845900000391
 51
350.03768199999428
  0
ARC
  5
764C
  8
0
 10
-290.05014999999997
 20
62.804426945089972
 30
0.0
 40
2.249854
 50
98.430493000000325
 51
180.11348999999109
  0
ARC
  5
764D
  8
0
 10
-254.04466300000001
 20
79.498739945089937
 30
0.0
 40
1.2512430000000001
 50
90.244380000000078
 51
144.2391030000033
  0
ARC
  5
764E
  8
0
 10
-256.07620600000001
 20
80.958712945089928
 30
0.0
 40
1.2504959999999981
 50
273.03488699999701
 51
324.3549220000051
  0
ARC
  5
764F
  8
0
 10
-281.11586199999999
 20
72.634871945089799
 30
0.0
 40
5.7526239999999991
 50
92.930875000003141
 51
169.9376259999998
  0
ARC
  5
7650
  8
0
 10
-254.04963600000011
 20
-79.508456054910084
 30
0.0
 40
1.241573
 50
215.5333329999973
 51
269.98318399999948
  0
ARC
  5
7651
  8
0
 10
-256.081277
 20
-80.968035054910146
 30
0.0
 40
1.260022999999999
 50
35.853017999994627
 51
86.757172999999426
  0
ARC
  5
7652
  8
0
 10
-281.12205
 20
-72.641940054910023
 30
0.0
 40
5.745309999999999
 50
190.00432199999841
 51
267.12717799999689
  0
LINE
  5
7653
  8
0
 10
-255.2999999999999
 20
2.499970945089899
 30
0.0
 11
-255.2999999999999
 21
79.979970945089917
 31
0.0
  0
ARC
  5
7654
  8
0
 10
-20.5
 20
22.499970945089899
 30
0.0
 40
2.0
 50
90.0
 51
180.0
  0
ARC
  5
7655
  8
0
 10
-20.0
 20
26.499970945089899
 30
0.0
 40
2.0
 50
270.0
 51
0.0
  0
LINE
  5
7656
  8
0
 10
-20.0
 20
24.499970945089899
 30
0.0
 11
-20.5
 21
24.499970945089899
 31
0.0
  0
LINE
  5
7657
  8
0
 10
-18.0
 20
33.999970945089899
 30
0.0
 11
-18.0
 21
26.499970945089899
 31
0.0
  0
ARC
  5
7658
  8
0
 10
-20.0
 20
33.999970945089899
 30
0.0
 40
2.0
 50
0.0
 51
90.0
  0
ARC
  5
7659
  8
0
 10
-20.5
 20
-22.500029054910101
 30
0.0
 40
2.0
 50
180.0
 51
270.0
  0
LINE
  5
765A
  8
0
 10
-18.0
 20
-34.000029054910101
 30
0.0
 11
-18.0
 21
-26.500029054910101
 31
0.0
  0
ARC
  5
765B
  8
0
 10
-20.0
 20
-26.500029054910101
 30
0.0
 40
2.0
 50
0.0
 51
90.0
  0
LINE
  5
765C
  8
0
 10
-20.0
 20
-24.500029054910101
 30
0.0
 11
-20.5
 21
-24.500029054910101
 31
0.0
  0
ARC
  5
765D
  8
0
 10
-20.0
 20
-34.000029054910101
 30
0.0
 40
2.0
 50
270.0
 51
0.0
  0
CIRCLE
  5
765E
  8
0
 10
-23.5
 20
30.999970945089899
 30
0.0
 40
3.5
  0
CIRCLE
  5
765F
  8
0
 10
-23.5
 20
30.999970945089899
 30
0.0
 40
3.299999999999998
  0
LINE
  5
7660
  8
0
 10
-21.850000000000019
 20
30.544531945090061
 30
0.0
 11
-21.850000000000019
 21
31.455409945089741
 31
0.0
  0
LINE
  5
7661
  8
0
 10
-20.26986299999999
 20
30.544531945090061
 30
0.0
 11
-20.26986299999999
 21
31.455409945089741
 31
0.0
  0
LINE
  5
7662
  8
0
 10
-25.149999999999981
 20
30.544531945090061
 30
0.0
 11
-25.149999999999981
 21
31.455409945089741
 31
0.0
  0
ARC
  5
7663
  8
0
 10
-26.51013699999999
 20
31.455409945089741
 30
0.0
 40
0.22
 50
90.0
 51
180.0
  0
LINE
  5
7664
  8
0
 10
-23.830000000000041
 20
32.64997094508999
 30
0.0
 11
-23.169999999999959
 21
32.64997094508999
 31
0.0
  0
LINE
  5
7665
  8
0
 10
-24.049999999999962
 20
31.895409945089799
 30
0.0
 11
-24.049999999999962
 21
32.429970945089963
 31
0.0
  0
LINE
  5
7666
  8
0
 10
-22.950000000000049
 20
32.429970945089963
 30
0.0
 11
-22.950000000000049
 21
31.895409945089799
 31
0.0
  0
ARC
  5
7667
  8
0
 10
-24.92999999999995
 20
31.455409945089741
 30
0.0
 40
0.22
 50
90.0
 51
180.0
  0
LINE
  5
7668
  8
0
 10
-24.92999999999995
 20
31.675409945089999
 30
0.0
 11
-24.269999999999978
 21
31.675409945089999
 31
0.0
  0
ARC
  5
7669
  8
0
 10
-24.269999999999978
 20
31.895409945089799
 30
0.0
 40
0.22
 50
270.0
 51
0.0
  0
ARC
  5
766A
  8
0
 10
-22.730000000000022
 20
31.895409945089799
 30
0.0
 40
0.22
 50
180.0
 51
270.0
  0
LINE
  5
766B
  8
0
 10
-24.92999999999995
 20
31.675409945089999
 30
0.0
 11
-26.51013699999999
 21
31.675409945089999
 31
0.0
  0
ARC
  5
766C
  8
0
 10
-23.169999999999959
 20
32.429970945089963
 30
0.0
 40
0.22
 50
0.0
 51
90.0
  0
ARC
  5
766D
  8
0
 10
-23.830000000000041
 20
32.429970945089963
 30
0.0
 40
0.22
 50
90.0
 51
180.0
  0
LINE
  5
766E
  8
0
 10
-22.070000000000061
 20
31.675409945089999
 30
0.0
 11
-20.48986300000001
 21
31.675409945089999
 31
0.0
  0
ARC
  5
766F
  8
0
 10
-22.070000000000061
 20
31.455409945089741
 30
0.0
 40
0.22
 50
0.0
 51
90.0
  0
ARC
  5
7670
  8
0
 10
-20.48986300000001
 20
31.455409945089741
 30
0.0
 40
0.22
 50
0.0
 51
90.0
  0
LINE
  5
7671
  8
0
 10
-22.730000000000022
 20
31.675409945089999
 30
0.0
 11
-22.070000000000061
 21
31.675409945089999
 31
0.0
  0
LINE
  5
7672
  8
0
 10
-24.92999999999995
 20
30.324531945089799
 30
0.0
 11
-26.51013699999999
 21
30.324531945089799
 31
0.0
  0
ARC
  5
7673
  8
0
 10
-23.169999999999959
 20
29.569970945089839
 30
0.0
 40
0.22
 50
270.0
 51
0.0
  0
ARC
  5
7674
  8
0
 10
-23.830000000000041
 20
29.569970945089839
 30
0.0
 40
0.22
 50
180.0
 51
270.0
  0
LINE
  5
7675
  8
0
 10
-23.830000000000041
 20
29.349970945089812
 30
0.0
 11
-23.169999999999959
 21
29.349970945089812
 31
0.0
  0
ARC
  5
7676
  8
0
 10
-24.269999999999978
 20
30.104531945089999
 30
0.0
 40
0.22
 50
0.0
 51
90.0
  0
ARC
  5
7677
  8
0
 10
-22.730000000000022
 20
30.104531945089999
 30
0.0
 40
0.22
 50
90.0
 51
180.0
  0
ARC
  5
7678
  8
0
 10
-24.92999999999995
 20
30.544531945090061
 30
0.0
 40
0.22
 50
180.0
 51
270.0
  0
LINE
  5
7679
  8
0
 10
-24.269999999999978
 20
30.324531945089799
 30
0.0
 11
-24.92999999999995
 21
30.324531945089799
 31
0.0
  0
LINE
  5
767A
  8
0
 10
-24.049999999999962
 20
29.569970945089839
 30
0.0
 11
-24.049999999999962
 21
30.104531945089999
 31
0.0
  0
LINE
  5
767B
  8
0
 10
-22.950000000000049
 20
29.569970945089839
 30
0.0
 11
-22.950000000000049
 21
30.104531945089999
 31
0.0
  0
LINE
  5
767C
  8
0
 10
-22.070000000000061
 20
30.324531945089799
 30
0.0
 11
-20.48986300000001
 21
30.324531945089799
 31
0.0
  0
ARC
  5
767D
  8
0
 10
-22.070000000000061
 20
30.544531945090061
 30
0.0
 40
0.22
 50
270.0
 51
0.0
  0
LINE
  5
767E
  8
0
 10
-22.070000000000061
 20
30.324531945089799
 30
0.0
 11
-22.730000000000022
 21
30.324531945089799
 31
0.0
  0
ARC
  5
767F
  8
0
 10
-20.48986300000001
 20
30.544531945090061
 30
0.0
 40
0.22
 50
270.0
 51
0.0
  0
ARC
  5
7680
  8
0
 10
-26.51013699999999
 20
30.544531945090061
 30
0.0
 40
0.22
 50
180.0
 51
270.0
  0
CIRCLE
  5
7681
  8
0
 10
-23.5
 20
-31.000029054910101
 30
0.0
 40
3.5
  0
CIRCLE
  5
7682
  8
0
 10
-23.5
 20
-31.000029054910101
 30
0.0
 40
3.299999999999998
  0
LINE
  5
7683
  8
0
 10
-25.149999999999981
 20
-30.544590054910259
 30
0.0
 11
-25.149999999999981
 21
-31.455468054909939
 31
0.0
  0
LINE
  5
7684
  8
0
 10
-20.26986299999999
 20
-30.544590054910259
 30
0.0
 11
-20.26986299999999
 21
-31.455468054909939
 31
0.0
  0
LINE
  5
7685
  8
0
 10
-21.850000000000019
 20
-30.544590054910259
 30
0.0
 11
-21.850000000000019
 21
-31.455468054909939
 31
0.0
  0
ARC
  5
7686
  8
0
 10
-20.48986300000001
 20
-31.455468054909939
 30
0.0
 40
0.22
 50
270.0
 51
0.0
  0
ARC
  5
7687
  8
0
 10
-22.730000000000022
 20
-31.895468054910001
 30
0.0
 40
0.22
 50
90.0
 51
180.0
  0
ARC
  5
7688
  8
0
 10
-24.269999999999978
 20
-31.895468054910001
 30
0.0
 40
0.22
 50
0.0
 51
90.0
  0
ARC
  5
7689
  8
0
 10
-22.070000000000061
 20
-31.455468054909939
 30
0.0
 40
0.22
 50
270.0
 51
0.0
  0
LINE
  5
768A
  8
0
 10
-24.92999999999995
 20
-31.675468054910201
 30
0.0
 11
-24.269999999999978
 21
-31.675468054910201
 31
0.0
  0
LINE
  5
768B
  8
0
 10
-24.92999999999995
 20
-31.675468054910201
 30
0.0
 11
-26.51013699999999
 21
-31.675468054910201
 31
0.0
  0
ARC
  5
768C
  8
0
 10
-24.92999999999995
 20
-31.455468054909939
 30
0.0
 40
0.22
 50
180.0
 51
270.0
  0
LINE
  5
768D
  8
0
 10
-22.730000000000022
 20
-31.675468054910201
 30
0.0
 11
-22.070000000000061
 21
-31.675468054910201
 31
0.0
  0
LINE
  5
768E
  8
0
 10
-23.830000000000041
 20
-32.650029054910192
 30
0.0
 11
-23.169999999999959
 21
-32.650029054910192
 31
0.0
  0
ARC
  5
768F
  8
0
 10
-23.169999999999959
 20
-32.430029054910158
 30
0.0
 40
0.22
 50
270.0
 51
0.0
  0
ARC
  5
7690
  8
0
 10
-23.830000000000041
 20
-32.430029054910158
 30
0.0
 40
0.22
 50
180.0
 51
270.0
  0
LINE
  5
7691
  8
0
 10
-22.950000000000049
 20
-32.430029054910158
 30
0.0
 11
-22.950000000000049
 21
-31.895468054910001
 31
0.0
  0
LINE
  5
7692
  8
0
 10
-24.049999999999962
 20
-31.895468054910001
 30
0.0
 11
-24.049999999999962
 21
-32.430029054910158
 31
0.0
  0
ARC
  5
7693
  8
0
 10
-26.51013699999999
 20
-31.455468054909939
 30
0.0
 40
0.22
 50
180.0
 51
270.0
  0
LINE
  5
7694
  8
0
 10
-22.070000000000061
 20
-31.675468054910201
 30
0.0
 11
-20.48986300000001
 21
-31.675468054910201
 31
0.0
  0
LINE
  5
7695
  8
0
 10
-22.950000000000049
 20
-29.570029054910041
 30
0.0
 11
-22.950000000000049
 21
-30.104590054910201
 31
0.0
  0
LINE
  5
7696
  8
0
 10
-24.049999999999962
 20
-29.570029054910041
 30
0.0
 11
-24.049999999999962
 21
-30.104590054910201
 31
0.0
  0
ARC
  5
7697
  8
0
 10
-22.070000000000061
 20
-30.544590054910259
 30
0.0
 40
0.22
 50
0.0
 51
90.0
  0
LINE
  5
7698
  8
0
 10
-24.269999999999978
 20
-30.324590054910011
 30
0.0
 11
-24.92999999999995
 21
-30.324590054910011
 31
0.0
  0
LINE
  5
7699
  8
0
 10
-24.92999999999995
 20
-30.324590054910011
 30
0.0
 11
-26.51013699999999
 21
-30.324590054910011
 31
0.0
  0
ARC
  5
769A
  8
0
 10
-24.92999999999995
 20
-30.544590054910259
 30
0.0
 40
0.22
 50
90.0
 51
180.0
  0
LINE
  5
769B
  8
0
 10
-22.070000000000061
 20
-30.324590054910011
 30
0.0
 11
-22.730000000000022
 21
-30.324590054910011
 31
0.0
  0
ARC
  5
769C
  8
0
 10
-22.730000000000022
 20
-30.104590054910201
 30
0.0
 40
0.22
 50
180.0
 51
270.0
  0
ARC
  5
769D
  8
0
 10
-24.269999999999978
 20
-30.104590054910201
 30
0.0
 40
0.22
 50
270.0
 51
0.0
  0
ARC
  5
769E
  8
0
 10
-20.48986300000001
 20
-30.544590054910259
 30
0.0
 40
0.22
 50
0.0
 51
90.0
  0
ARC
  5
769F
  8
0
 10
-26.51013699999999
 20
-30.544590054910259
 30
0.0
 40
0.22
 50
90.0
 51
180.0
  0
LINE
  5
76A0
  8
0
 10
-22.070000000000061
 20
-30.324590054910011
 30
0.0
 11
-20.48986300000001
 21
-30.324590054910011
 31
0.0
  0
LINE
  5
76A1
  8
0
 10
-23.830000000000041
 20
-29.35002905491001
 30
0.0
 11
-23.169999999999959
 21
-29.35002905491001
 31
0.0
  0
ARC
  5
76A2
  8
0
 10
-23.830000000000041
 20
-29.570029054910041
 30
0.0
 40
0.22
 50
90.0
 51
180.0
  0
ARC
  5
76A3
  8
0
 10
-23.169999999999959
 20
-29.570029054910041
 30
0.0
 40
0.22
 50
0.0
 51
90.0
  0
LINE
  5
76A4
  8
0
 10
-26.73013700000002
 20
31.455409945089741
 30
0.0
 11
-26.73013700000002
 21
30.544531945090061
 31
0.0
  0
LINE
  5
76A5
  8
0
 10
-26.73013700000002
 20
-30.544590054910259
 30
0.0
 11
-26.73013700000002
 21
-31.455468054909939
 31
0.0
  0
ARC
  5
76A7
  8
0
 10
-12.39999299999994
 20
-54.309002054910252
 30
0.0
 40
2.2000009999999981
 50
90.000022000001564
 51
179.99999700000231
  0
ARC
  5
76A8
  8
0
 10
-12.39999299999994
 20
-58.909008054909933
 30
0.0
 40
2.1999970000000002
 50
180.00001799999919
 51
270.0
  0
LINE
  5
76A9
  8
0
 10
-10.00000199999994
 20
-56.559560054909973
 30
0.0
 11
-11.300001999999949
 21
-55.809005054910152
 31
0.0
  0
LINE
  5
76AA
  8
0
 10
-10.00000199999994
 20
-57.559560054909973
 30
0.0
 11
-11.300001999999949
 21
-56.809005054910131
 31
0.0
  0
LINE
  5
76AB
  8
0
 10
-11.300001999999949
 20
-61.209005054909987
 30
0.0
 11
-10.00000199999994
 21
-61.209005054909987
 31
0.0
  0
LINE
  5
76AC
  8
0
 10
-11.300001999999949
 20
-52.009005054910169
 30
0.0
 11
-10.00000199999994
 21
-52.009005054910169
 31
0.0
  0
LINE
  5
76AD
  8
0
 10
-10.00000199999994
 20
-61.209005054909987
 30
0.0
 11
-10.00000199999994
 21
-52.009005054910169
 31
0.0
  0
LINE
  5
76AE
  8
0
 10
-14.60000499999995
 20
-58.909008054909933
 30
0.0
 11
-14.60000499999995
 21
-54.309002054910252
 31
0.0
  0
LINE
  5
76AF
  8
0
 10
-11.300001999999949
 20
-61.209005054909987
 30
0.0
 11
-11.300001999999949
 21
-52.009005054910169
 31
0.0
  0
LINE
  5
76B0
  8
0
 10
-11.300001999999949
 20
-52.109005054910071
 30
0.0
 11
-12.39999299999994
 21
-52.109005054910071
 31
0.0
  0
LINE
  5
76B1
  8
0
 10
-11.300001999999949
 20
-61.109005054910092
 30
0.0
 11
-12.39999299999994
 21
-61.109005054910092
 31
0.0
  0
ENDBLK
  5
76B5
  8
0
  0
BLOCK
  8
0
  2
_ACMOPEN15
 70
     0
 10
0.0
 20
0.0
 30
0.0
  3
_ACMOPEN15
  1

  0
LINE
  5
8875
  8
0
 62
     0
 10
-1.0
 20
0.0
 30
0.0
 11
0.0
 21
0.0
 31
0.0
  0
LINE
  5
8876
  8
0
 62
     0
 10
-1.0
 20
-0.131652497
 30
0.0
 11
0.0
 21
0.0
 31
0.0
  0
LINE
  5
8877
  8
0
 62
     0
 10
0.0
 20
0.0
 30
0.0
 11
-1.0
 21
0.131652497
 31
0.0
  0
ENDBLK
  5
8878
  8
0
  0
BLOCK
  8
0
  2
_OPEN30
 70
     0
 10
0.0
 20
0.0
 30
0.0
  3
_OPEN30
  1

  0
LINE
  5
8FF4
  8
0
  6
BYBLOCK
 62
     0
 10
-1.0
 20
0.26794919
 30
0.0
 11
0.0
 21
0.0
 31
0.0
  0
LINE
  5
8FF5
  8
0
  6
BYBLOCK
 62
     0
 10
0.0
 20
0.0
 30
0.0
 11
-1.0
 21
-0.26794919
 31
0.0
  0
LINE
  5
8FF6
  8
0
  6
BYBLOCK
 62
     0
 10
0.0
 20
0.0
 30
0.0
 11
-1.0
 21
0.0
 31
0.0
  0
ENDBLK
  5
8FF7
  8
0
  0
BLOCK
  8
0
  2
_ACMFILLEDHALF
 70
     0
 10
0.0
 20
0.0
 30
0.0
  3
_ACMFILLEDHALF
  1

  0
TRACE
  5
90B6
  8
0
  6
CONTINUOUS
 62
     0
 10
-0.8
 20
0.0
 30
0.0
 11
-1.0
 21
0.166666666
 31
0.0
 12
0.0
 22
0.0
 32
0.0
 13
0.0
 23
0.0
 33
0.0
  0
LINE
  5
90B7
  8
0
  6
CONTINUOUS
 62
     0
 10
-1.0
 20
0.0
 30
0.0
 11
-0.8
 21
0.0
 31
0.0
  0
ENDBLK
  5
90B8
  8
0
  0
ENDSEC
  0
SECTION
  2
ENTITIES
  0
POINT
  5
47DB
  8
1
  6
CONTINUOUS
 10
415.01217444142748
 20
409.2751319983912
 30
0.0
  0
LINE
  5
47DC
  8
1
  6
CONTINUOUS
 10
415.01217444142748
 20
335.77513199839137
 30
0.0
 11
415.01217444142748
 21
409.2751319983912
 31
0.0
  0
POINT
  5
4861
  8
1
  6
CONTINUOUS
 10
415.01217444142748
 20
409.27507388857111
 30
0.0
  0
LINE
  5
48DA
  8
0
  6
AM_ISO08W050
 10
566.51217444142753
 20
293.94381299839159
 30
0.0
 11
566.51217444142753
 21
319.52444099839158
 31
0.0
  0
LINE
  5
48DB
  8
0
  6
AM_ISO08W050
 10
441.51216444142761
 20
293.94381299839159
 30
0.0
 11
441.51216444142761
 21
319.52444099839158
 31
0.0
  0
LINE
  5
48DC
  8
0
  6
AM_ISO08W050
 10
436.27791444142741
 20
437.27510099839151
 30
0.0
 11
649.29138444142723
 21
437.27510099839151
 31
0.0
  0
LINE
  5
48DD
  8
0
  6
AM_ISO08W050
 10
107.7548234182877
 20
409.2751319983912
 30
0.0
 11
443.85919399386898
 21
409.2751319983912
 31
0.0
  0
LINE
  5
48DE
  8
0
  6
AM_ISO08W050
 10
953.55638365436755
 20
319.52444099839153
 30
0.0
 11
953.55638365436755
 21
293.94381299839159
 31
0.0
  0
LINE
  5
48DF
  8
0
  6
AM_ISO08W050
 10
763.55638765436743
 20
319.52444099839158
 30
0.0
 11
763.55638765436743
 21
293.94381299839159
 31
0.0
  0
LINE
  5
48E0
  8
0
 10
863.55637465436769
 20
448.27513799839141
 30
0.0
 11
863.55637465436769
 21
456.27508799839131
 31
0.0
  0
LINE
  5
48E1
  8
0
 10
853.55637565436791
 20
448.27513799839141
 30
0.0
 11
863.55637465436769
 21
448.27513799839141
 31
0.0
  0
LINE
  5
48E2
  8
0
 10
853.55637565436791
 20
448.27513799839141
 30
0.0
 11
853.55637565436791
 21
456.27508799839131
 31
0.0
  0
LINE
  5
48E3
  8
0
 10
646.51215444142758
 20
421.27513199839132
 30
0.0
 11
588.51213444142763
 21
421.27513199839132
 31
0.0
  0
LINE
  5
48E4
  8
0
 10
588.51213444142763
 20
454.77508799839131
 30
0.0
 11
584.51217444142753
 21
454.77508799839131
 31
0.0
  0
LINE
  5
48E5
  8
0
 10
646.51215444142758
 20
456.27508799839131
 30
0.0
 11
601.51215444142758
 21
456.27508799839131
 31
0.0
  0
LINE
  5
48E6
  8
0
 10
646.51215444142758
 20
453.27508799839143
 30
0.0
 11
588.51213444142763
 21
453.27508799839143
 31
0.0
  0
LINE
  5
48E7
  8
0
 10
588.51213444142763
 20
419.77513199839132
 30
0.0
 11
584.51217444142753
 21
419.77513199839132
 31
0.0
  0
LINE
  5
48E8
  8
0
 10
588.51213444142763
 20
419.77513199839132
 30
0.0
 11
588.51213444142763
 21
454.77508799839131
 31
0.0
  0
LINE
  5
48E9
  8
0
 10
646.51215444142758
 20
421.27513199839132
 30
0.0
 11
646.51215444142758
 21
456.27508799839131
 31
0.0
  0
LINE
  5
48EA
  8
0
 10
601.51215444142758
 20
453.27508799839143
 30
0.0
 11
601.51215444142758
 21
456.27508799839131
 31
0.0
  0
LINE
  5
48EB
  8
0
  6
AM_ISO08W050
 10
858.55637965436745
 20
290.53660511687627
 30
0.0
 11
858.55638865436765
 21
513.58125049168746
 31
0.0
  0
LINE
  5
48EC
  8
0
 10
853.55637565436791
 20
456.27508799839131
 30
0.0
 11
863.55637465436769
 21
456.27508799839131
 31
0.0
  0
LINE
  5
48ED
  8
0
  6
AM_ISO08W050
 10
804.8624776900499
 20
437.27510099839151
 30
0.0
 11
912.25029346067674
 21
437.27510099839151
 31
0.0
  0
LINE
  5
48EE
  8
0
  6
ACISOTGL
 10
559.01217444142753
 20
315.27511199839148
 30
0.0
 11
559.01217444142753
 21
297.27511199839148
 31
0.0
  0
LINE
  5
48EF
  8
0
 10
471.51216444142779
 20
508.77514799839128
 30
0.0
 11
471.51216444142779
 21
352.77511499839147
 31
0.0
  0
LINE
  5
48F0
  8
0
 10
793.55637265436758
 20
311.27511299839148
 30
0.0
 11
793.55637265436758
 21
297.27511199839148
 31
0.0
  0
LINE
  5
48F1
  8
0
 10
743.55637765436757
 20
297.27511199839148
 30
0.0
 11
793.55637265436758
 21
297.27511199839148
 31
0.0
  0
LINE
  5
48F2
  8
0
 10
743.55637765436757
 20
312.27511199839148
 30
0.0
 11
743.55637765436757
 21
297.27511199839148
 31
0.0
  0
LINE
  5
48F3
  8
0
 10
923.55638365436789
 20
297.27511199839148
 30
0.0
 11
973.55638465436709
 21
297.27511199839148
 31
0.0
  0
LINE
  5
48F4
  8
0
 10
923.55638365436789
 20
311.27511299839148
 30
0.0
 11
923.55638365436789
 21
297.27511199839148
 31
0.0
  0
LINE
  5
48F5
  8
0
 10
973.55638465436709
 20
312.27511199839148
 30
0.0
 11
973.55638465436709
 21
297.27511199839148
 31
0.0
  0
LINE
  5
48F6
  8
0
 10
789.55638865436765
 20
315.27511199839148
 30
0.0
 11
746.55637765436757
 21
315.27511199839148
 31
0.0
  0
LINE
  5
48F7
  8
0
 10
927.55638565436755
 20
315.27511199839148
 30
0.0
 11
970.55638465436698
 21
315.27511199839148
 31
0.0
  0
LINE
  5
48F8
  8
0
 10
584.51217444142753
 20
437.27510099839151
 30
0.0
 11
584.51217444142753
 21
464.5430579983913
 31
0.0
  0
LINE
  5
48F9
  8
0
 10
584.51217444142753
 20
410.00718599839132
 30
0.0
 11
584.51217444142753
 21
437.27510099839151
 31
0.0
  0
LINE
  5
48FA
  8
0
 10
579.01212444142743
 20
405.09971699839127
 30
0.0
 11
583.01214444142715
 21
407.40910499839129
 31
0.0
  0
LINE
  5
48FB
  8
0
 10
579.01218444142717
 20
469.4505479983913
 30
0.0
 11
583.01217444142753
 21
467.14114799839132
 31
0.0
  0
LINE
  5
48FC
  8
0
 10
776.84236765436799
 20
480.59710799839149
 30
0.0
 11
763.74553465436725
 21
439.46046599839133
 31
0.0
  0
LINE
  5
48FD
  8
0
  6
ACISOTGL
 10
946.05638365436766
 20
315.27511199839148
 30
0.0
 11
946.05638365436766
 21
297.27511199839148
 31
0.0
  0
LINE
  5
48FE
  8
0
  6
ACISOTGL
 10
961.05638665436766
 20
315.27511199839148
 30
0.0
 11
961.05638665436766
 21
297.27511199839148
 31
0.0
  0
LINE
  5
48FF
  8
0
  6
ACISOTGL
 10
574.01217444142753
 20
315.27511199839148
 30
0.0
 11
574.01217444142753
 21
297.27511199839148
 31
0.0
  0
LINE
  5
4900
  8
0
  6
ACISOTGL
 10
559.01217444142753
 20
315.27511199839148
 30
0.0
 11
559.01217444142753
 21
297.27511199839148
 31
0.0
  0
LINE
  5
4901
  8
0
 10
551.51217444142753
 20
315.27511199839148
 30
0.0
 11
582.51213444142763
 21
315.27511199839148
 31
0.0
  0
LINE
  5
4902
  8
0
 10
461.51217444142748
 20
299.27511299839148
 30
0.0
 11
546.51213444142763
 21
299.27511299839148
 31
0.0
  0
LINE
  5
4903
  8
0
  6
ACISOTGL
 10
771.05638765436743
 20
315.27511199839148
 30
0.0
 11
771.05638765436743
 21
297.27511199839148
 31
0.0
  0
LINE
  5
4904
  8
0
 10
577.51215444142747
 20
322.81451099839148
 30
0.0
 11
577.51215444142747
 21
481.27513799839147
 31
0.0
  0
LINE
  5
4905
  8
0
 10
536.51217444142753
 20
330.27512999839161
 30
0.0
 11
536.51217444142753
 21
468.71785799839131
 31
0.0
  0
LINE
  5
4906
  8
0
 10
425.51217444142748
 20
315.27511199839148
 30
0.0
 11
456.5923544414274
 21
315.27511199839148
 31
0.0
  0
LINE
  5
4907
  8
0
 10
423.51216444142761
 20
297.27511199839148
 30
0.0
 11
459.51216444142779
 21
297.27511199839148
 31
0.0
  0
LINE
  5
4908
  8
0
 10
584.51217444142753
 20
297.27511199839148
 30
0.0
 11
584.51217444142753
 21
313.27512899839138
 31
0.0
  0
LINE
  5
4909
  8
0
 10
423.51216444142761
 20
297.27511199839148
 30
0.0
 11
423.51216444142761
 21
313.27512899839138
 31
0.0
  0
LINE
  5
490A
  8
0
 10
460.40205444142708
 20
318.05601299839151
 30
0.0
 11
475.32186444142758
 21
364.68040499839151
 31
0.0
  0
LINE
  5
490B
  8
0
  6
ACISOTGL
 10
756.05638765436743
 20
315.27511199839148
 30
0.0
 11
756.05638765436743
 21
297.27511199839148
 31
0.0
  0
LINE
  5
490C
  8
0
 10
556.51215444142747
 20
337.73284799839138
 30
0.0
 11
556.51215444142747
 21
498.75604799839152
 31
0.0
  0
LINE
  5
490D
  8
0
 10
564.51213444142763
 20
485.27512799839121
 30
0.0
 11
573.51213444142763
 21
485.27512799839121
 31
0.0
  0
LINE
  5
490E
  8
0
 10
793.55637265436758
 20
420.27509999839151
 30
0.0
 11
793.55637265436758
 21
330.27512999839161
 31
0.0
  0
LINE
  5
490F
  8
0
 10
787.23442765436721
 20
490.98916799839162
 30
0.0
 11
828.37105465436798
 21
504.08599799839152
 31
0.0
  0
LINE
  5
4910
  8
0
 10
475.51215444142758
 20
365.89952099839149
 30
0.0
 11
475.51215444142758
 21
423.9228659983915
 31
0.0
  0
LINE
  5
4911
  8
0
 10
940.67234365436798
 20
480.79588799839172
 30
0.0
 11
953.66827165436735
 21
438.4980329983913
 31
0.0
  0
LINE
  5
4912
  8
0
 10
930.0771296543677
 20
491.39107799839132
 30
0.0
 11
887.77930765436759
 21
504.38698799839148
 31
0.0
  0
LINE
  5
4913
  8
0
 10
923.55638365436789
 20
420.27509999839151
 30
0.0
 11
923.55638365436789
 21
330.27512999839161
 31
0.0
  0
LINE
  5
4914
  8
0
 10
935.55638365436766
 20
469.36879799839153
 30
0.0
 11
935.55638365436766
 21
371.01237299839153
 31
0.0
  0
LINE
  5
4915
  8
0
 10
781.55638765436743
 20
469.36879799839153
 30
0.0
 11
781.55638765436743
 21
371.01237299839153
 31
0.0
  0
LINE
  5
4916
  8
0
 10
471.51216444142779
 20
508.77511799839152
 30
0.0
 11
548.72154444142745
 21
506.75332799839128
 31
0.0
  0
LINE
  5
4917
  8
0
 10
973.52370265436696
 20
312.7167479983915
 30
0.0
 11
956.97230065436702
 21
423.92289899839147
 31
0.0
  0
LINE
  5
4918
  8
0
 10
743.5890776543672
 20
312.7167479983915
 30
0.0
 11
760.14046165436764
 21
423.92289899839147
 31
0.0
  0
LINE
  5
4919
  8
0
 10
471.51216444142779
 20
423.9228659983915
 30
0.0
 11
475.51215444142758
 21
423.9228659983915
 31
0.0
  0
LINE
  5
491A
  8
0
 10
541.58715444142786
 20
329.7328619983914
 30
0.0
 11
548.51217444142753
 21
329.7328619983914
 31
0.0
  0
LINE
  5
491B
  8
0
 10
548.51217444142753
 20
297.27511199839148
 30
0.0
 11
584.51217444142753
 21
297.27511199839148
 31
0.0
  0
LINE
  5
491C
  8
0
 10
548.51217444142753
 20
297.27511199839148
 30
0.0
 11
548.51217444142753
 21
297.27511199839148
 31
0.0
  0
LINE
  5
491D
  8
0
 10
795.55637365436723
 20
299.27511299839148
 30
0.0
 11
921.55638565436755
 21
299.27511299839148
 31
0.0
  0
LINE
  5
491E
  8
0
 10
544.51215444142747
 20
476.71780799839132
 30
0.0
 11
552.91164444142771
 21
476.71780799839132
 31
0.0
  0
LINE
  5
491F
  8
0
 10
471.51216444142779
 20
439.46043599839129
 30
0.0
 11
471.51375444142758
 21
439.46043599839129
 31
0.0
  0
LINE
  5
4920
  8
0
 10
471.51216444142779
 20
439.46043599839129
 30
0.0
 11
499.28082444142751
 21
464.74690799839129
 31
0.0
  0
LINE
  5
4921
  8
0
  6
ACISOTGL
 10
449.0121644414275
 20
315.27511199839148
 30
0.0
 11
449.0121644414275
 21
297.27511199839148
 31
0.0
  0
LINE
  5
4922
  8
0
  6
ACISOTGL
 10
434.01216444142779
 20
315.27511199839148
 30
0.0
 11
434.01216444142779
 21
297.27511199839148
 31
0.0
  0
LINE
  5
4923
  8
0
 10
451.13337444142718
 20
487.41040799839152
 30
0.0
 11
471.51216444142779
 21
487.41040799839152
 31
0.0
  0
LINE
  5
4924
  8
0
 10
415.01217444142748
 20
335.77511399839148
 30
0.0
 11
447.08199444142713
 21
334.6552109983914
 31
0.0
  0
LINE
  5
4925
  8
0
 10
463.44234444142711
 20
508.49329799839131
 30
0.0
 11
471.51216444142779
 21
508.77514799839128
 31
0.0
  0
LINE
  5
4926
  8
0
 10
415.01217444142748
 20
482.77510799839121
 30
0.0
 11
446.61684444142708
 21
483.87877799839129
 31
0.0
  0
LINE
  5
4927
  8
0
 10
461.51217444142748
 20
321.52512899839138
 30
0.0
 11
461.51217444142748
 21
326.85734399839151
 31
0.0
  0
LINE
  5
4928
  8
0
 10
452.40741444142742
 20
503.29732799839132
 30
0.0
 11
459.58191444142727
 21
503.54782799839131
 31
0.0
  0
LINE
  5
4929
  8
0
 10
415.01217444142748
 20
335.77512899839149
 30
0.0
 11
415.01217444142748
 21
482.7751379983913
 31
0.0
  0
LINE
  5
492B
  8
0
 10
449.51217444142748
 20
500.29918799839152
 30
0.0
 11
449.51217444142748
 21
318.25167599839142
 31
0.0
  0
LINE
  5
492C
  8
0
 10
451.51215444142758
 20
492.57778799839161
 30
0.0
 11
459.51216444142779
 21
492.57778799839161
 31
0.0
  0
LINE
  5
492D
  8
0
 10
451.51215444142758
 20
475.60720799839152
 30
0.0
 11
459.51216444142779
 21
475.60720799839152
 31
0.0
  0
LINE
  5
492E
  8
0
 10
450.99066444142733
 20
466.65778799839148
 30
0.0
 11
459.94125444142708
 21
466.65778799839148
 31
0.0
  0
LINE
  5
492F
  8
0
 10
461.51217444142748
 20
494.57776799839161
 30
0.0
 11
461.51217444142748
 21
506.4945179983913
 31
0.0
  0
LINE
  5
4930
  8
0
 10
415.01217444142748
 20
369.80044499839141
 30
0.0
 11
449.51217444142748
 21
369.80044499839141
 31
0.0
  0
LINE
  5
4931
  8
0
 10
415.01217444142748
 20
448.74979799839122
 30
0.0
 11
449.51217444142748
 21
448.74979799839122
 31
0.0
  0
LINE
  5
4932
  8
0
 10
451.51215444142758
 20
328.85734199839152
 30
0.0
 11
459.51216444142779
 21
328.85734199839152
 31
0.0
  0
LINE
  5
4933
  8
0
 10
451.51215444142758
 20
349.53243899839151
 30
0.0
 11
459.51216444142779
 21
349.53243899839151
 31
0.0
  0
LINE
  5
4934
  8
0
 10
461.51217444142748
 20
345.41573999839147
 30
0.0
 11
469.15719444142741
 21
345.41573999839147
 31
0.0
  0
LINE
  5
4935
  8
0
 10
461.51217444142748
 20
347.41573799839148
 30
0.0
 11
461.51217444142748
 21
473.60722799839129
 31
0.0
  0
LINE
  5
4936
  8
0
 10
415.01217444142748
 20
470.8537679983915
 30
0.0
 11
449.51217444142748
 21
470.8537679983915
 31
0.0
  0
LINE
  5
4937
  8
0
 10
415.01217444142748
 20
347.69648699839149
 30
0.0
 11
449.51217444142748
 21
347.69648699839149
 31
0.0
  0
CIRCLE
  5
4960
  8
0
 10
858.55638865436765
 20
437.27510099839151
 30
0.0
 40
2.75000007
  0
CIRCLE
  5
4961
  8
0
 10
858.55638865436765
 20
437.27510099839151
 30
0.0
 40
4.000000199999997
  0
ARC
  5
4962
  8
0
 10
858.55638865436765
 20
437.27510099839151
 30
0.0
 40
16.000000499999999
 50
108.2099599999982
 51
71.790051999991675
  0
ARC
  5
4963
  8
0
 10
461.51217444142748
 20
297.27511199839148
 30
0.0
 40
2.00000007
 50
90.000002999984659
 51
180.00001000000091
  0
ARC
  5
4964
  8
0
 10
789.55638865436765
 20
311.27511299839148
 30
0.0
 40
4.000000199999997
 50
0.0
 51
90.000002999984659
  0
ARC
  5
4965
  8
0
 10
456.5923544414274
 20
319.27512899839138
 30
0.0
 40
4.000000199999997
 50
270.0
 51
342.25533000000149
  0
ARC
  5
4966
  8
0
 10
471.51216444142779
 20
365.89952099839149
 30
0.0
 40
4.000000199999997
 50
342.25533000000149
 51
0.0
  0
ARC
  5
4967
  8
0
 10
551.51217444142753
 20
330.27512999839161
 30
0.0
 40
15.000000299999989
 50
179.999989999999
 51
270.0
  0
ARC
  5
4968
  8
0
 10
544.51215444142747
 20
468.71785799839131
 30
0.0
 40
8.0000000999999994
 50
90.000002999984659
 51
180.00001000000091
  0
ARC
  5
4969
  8
0
 10
746.55637765436757
 20
312.27511199839148
 30
0.0
 40
3.0
 50
90.000002999984659
 51
180.000010000001
  0
ARC
  5
496A
  8
0
 10
970.55638465436698
 20
312.27511199839148
 30
0.0
 40
3.0
 50
0.0
 51
90.000002999984659
  0
ARC
  5
496B
  8
0
 10
927.55638565436755
 20
311.27511299839148
 30
0.0
 40
4.000000199999997
 50
90.000002999984659
 51
180.000010000001
  0
ARC
  5
496C
  8
0
 10
858.55638865436765
 20
371.01237299839153
 30
0.0
 40
77.000000999999997
 50
179.999989999999
 51
212.41839000001201
  0
ARC
  5
496D
  8
0
 10
580.51215444142758
 20
402.50160299839132
 30
0.0
 40
3.0
 50
119.9999999999999
 51
180.00001000000091
  0
ARC
  5
496E
  8
0
 10
580.51215444142758
 20
472.0486379983912
 30
0.0
 40
3.0
 50
179.999989999999
 51
240.00000999999199
  0
ARC
  5
496F
  8
0
 10
581.51217444142753
 20
464.5430579983913
 30
0.0
 40
3.0
 50
0.0
 51
60.000001999986452
  0
ARC
  5
4970
  8
0
 10
581.51217444142753
 20
410.00718599839132
 30
0.0
 40
3.0
 50
300.0
 51
0.0
  0
ARC
  5
4971
  8
0
 10
548.51217444142753
 20
498.75604799839152
 30
0.0
 40
8.0000000999999994
 50
0.0
 51
88.499997000013792
  0
ARC
  5
4972
  8
0
 10
778.55638765436743
 20
330.27512999839161
 30
0.0
 40
15.000000299999989
 50
270.0
 51
0.0
  0
ARC
  5
4973
  8
0
 10
425.51217444142748
 20
313.27512899839138
 30
0.0
 40
2.00000007
 50
90.000002999984659
 51
180.00001000000091
  0
ARC
  5
4974
  8
0
 10
582.51213444142763
 20
313.27512899839138
 30
0.0
 40
2.00000007
 50
0.0
 51
90.000002999984659
  0
ARC
  5
4975
  8
0
 10
548.51217444142753
 20
337.73284799839138
 30
0.0
 40
8.0000000999999994
 50
270.0
 51
0.0
  0
ARC
  5
4976
  8
0
 10
921.55638565436755
 20
297.27511199839148
 30
0.0
 40
2.00000007
 50
0.0
 51
90.000002999984659
  0
ARC
  5
4977
  8
0
 10
795.55637365436723
 20
297.27511199839148
 30
0.0
 40
2.00000007
 50
90.000002999984659
 51
180.000010000001
  0
ARC
  5
4978
  8
0
 10
564.51213444142763
 20
493.27513799839147
 30
0.0
 40
8.0000000999999994
 50
179.999989999999
 51
270.0
  0
ARC
  5
4979
  8
0
 10
858.55638865436765
 20
420.27509999839151
 30
0.0
 40
65.000000999999997
 50
0.0
 51
180.000010000001
  0
ARC
  5
497A
  8
0
 10
858.55638865436765
 20
409.2751319983912
 30
0.0
 40
99.500004000000004
 50
8.4654900999952556
 51
171.5345000000008
  0
ARC
  5
497B
  8
0
 10
585.51213444142763
 20
322.81451099839148
 30
0.0
 40
8.0000000999999994
 50
179.999989999999
 51
252.54239000001229
  0
ARC
  5
497C
  8
0
 10
925.37797765436767
 20
476.09671799839128
 30
0.0
 40
16.000000499999999
 50
17.07946299999773
 51
72.920534000004452
  0
ARC
  5
497D
  8
0
 10
938.55638365436789
 20
330.27512999839161
 30
0.0
 40
15.000000299999989
 50
179.999989999999
 51
270.0
  0
ARC
  5
497E
  8
0
 10
858.55638865436765
 20
371.01237299839153
 30
0.0
 40
77.000000999999997
 50
327.58160000000231
 51
0.0
  0
ARC
  5
497F
  8
0
 10
792.08832565436751
 20
475.74313799839132
 30
0.0
 40
16.000000499999999
 50
107.07946000000631
 51
162.9205299999972
  0
ARC
  5
4980
  8
0
 10
546.51213444142763
 20
297.27511199839148
 30
0.0
 40
2.00000007
 50
0.0
 51
90.000002999984659
  0
ARC
  5
4981
  8
0
 10
927.55638565436755
 20
469.36879799839153
 30
0.0
 40
8.0000000999999994
 50
0.0
 51
41.053350999991061
  0
ARC
  5
4982
  8
0
 10
789.55638865436765
 20
469.36879799839153
 30
0.0
 40
8.0000000999999994
 50
138.94665000000219
 51
180.000010000001
  0
ARC
  5
4983
  8
0
 10
573.51213444142763
 20
481.27513799839147
 30
0.0
 40
4.000000199999997
 50
0.0
 51
90.000002999984659
  0
CIRCLE
  5
4984
  8
0
 10
858.55638865436765
 20
437.27510099839151
 30
0.0
 40
29.000001000000001
  0
ARC
  5
4985
  8
0
 10
446.51217444142748
 20
486.87697799839128
 30
0.0
 40
3.0
 50
272.00000000000369
 51
0.0
  0
ARC
  5
4986
  8
0
 10
446.51217444142748
 20
331.67329199839151
 30
0.0
 40
3.0
 50
0.0
 51
87.999999999996362
  0
ARC
  5
4987
  8
0
 10
463.51215444142758
 20
506.4945179983913
 30
0.0
 40
2.00000007
 50
91.999997999994051
 51
180.00001000000091
  0
ARC
  5
4988
  8
0
 10
452.51217444142748
 20
318.25167599839142
 30
0.0
 40
3.0
 50
179.999989999999
 51
268.00000999999207
  0
ARC
  5
4989
  8
0
 10
452.51217444142748
 20
500.29918799839152
 30
0.0
 40
3.0
 50
91.999997999994051
 51
180.00001000000091
  0
ARC
  5
498A
  8
0
 10
459.51216444142779
 20
505.54666799839151
 30
0.0
 40
2.00000007
 50
272.00000000000369
 51
0.0
  0
ARC
  5
498B
  8
0
 10
459.51216444142779
 20
494.57776799839161
 30
0.0
 40
2.00000007
 50
270.0
 51
0.0
  0
ARC
  5
498C
  8
0
 10
459.51216444142779
 20
473.60722799839129
 30
0.0
 40
2.00000007
 50
0.0
 51
90.000002999984659
  0
ARC
  5
498D
  8
0
 10
451.51215444142758
 20
490.5777779983913
 30
0.0
 40
2.00000007
 50
90.000002999984659
 51
180.00001000000091
  0
ARC
  5
498E
  8
0
 10
451.51215444142758
 20
477.60718799839151
 30
0.0
 40
2.00000007
 50
179.999989999999
 51
270.0
  0
ARC
  5
498F
  8
0
 10
451.51215444142758
 20
330.8573279983915
 30
0.0
 40
2.00000007
 50
179.999989999999
 51
270.0
  0
ARC
  5
4990
  8
0
 10
451.51215444142758
 20
351.53245499839147
 30
0.0
 40
2.00000007
 50
179.999989999999
 51
270.0
  0
ARC
  5
4991
  8
0
 10
459.51216444142779
 20
326.85734399839151
 30
0.0
 40
2.00000007
 50
0.0
 51
90.000002999984659
  0
ARC
  5
4992
  8
0
 10
459.51216444142779
 20
351.53245499839147
 30
0.0
 40
2.00000007
 50
270.0
 51
0.0
  0
ARC
  5
4993
  8
0
 10
459.51216444142779
 20
347.41573799839148
 30
0.0
 40
2.00000007
 50
270.0
 51
0.0
  0
ARC
  5
499C
  8
0
 10
481.90842742849611
 20
483.8998081115767
 30
0.0
 40
25.85791635767276
 50
312.21089498138332
 51
321.08945359459182
  0
ARC
  5
499D
  8
0
 10
484.81567288813523
 20
481.55898205794881
 30
0.0
 40
22.125421472431348
 50
321.07754679066909
 51
331.45391751532759
  0
ARC
  5
499E
  8
0
 10
487.3485106498598
 20
480.17850955550961
 30
0.0
 40
19.240813112597721
 50
331.46075778389661
 51
343.40675810374847
  0
ARC
  5
499F
  8
0
 10
488.9968040597779
 20
479.6740623107043
 30
0.0
 40
17.517107732325851
 50
343.44839024211899
 51
356.55865420886909
  0
ARC
  5
49A0
  8
0
 10
489.35312358573168
 20
479.63223660060152
 30
0.0
 40
17.15893215328547
 50
356.6266441072363
 51
9.9963181268263366
  0
ARC
  5
49A1
  8
0
 10
488.32338247906512
 20
479.43210910296921
 30
0.0
 40
18.207789015940701
 50
10.05403575813637
 51
22.656800061921551
  0
ARC
  5
49A2
  8
0
 10
486.17898582299023
 20
478.52782221502542
 30
0.0
 40
20.53504241024493
 50
22.680399617624349
 51
33.850687599328658
  0
ARC
  5
49A3
  8
0
 10
483.4029683369256
 20
476.66831574543642
 30
0.0
 40
23.8763047285337
 50
33.845837199786267
 51
43.453103272648313
  0
ARC
  5
49A4
  8
0
 10
480.48025580345461
 20
473.90980939499673
 30
0.0
 40
27.895204590085552
 50
43.43744535766421
 51
51.66346495909233
  0
ARC
  5
49A5
  8
0
 10
477.77587985710232
 20
470.50617628715071
 30
0.0
 40
32.242419798759151
 50
51.645591794863428
 51
58.76245128884802
  0
ARC
  5
49A6
  8
0
 10
475.51393301853682
 20
466.79491063358381
 30
0.0
 40
36.588661659950517
 50
58.747724629320459
 51
65.021604873703481
  0
ARC
  5
49A7
  8
0
 10
473.7917565471796
 20
463.11886876901963
 30
0.0
 40
40.648108178475887
 50
65.009214532758193
 51
70.656827845412991
  0
ARC
  5
49A8
  8
0
 10
472.61506431809562
 20
459.78979555738277
 30
0.0
 40
44.179011740041091
 50
70.646976440493134
 51
75.84339029037784
  0
ARC
  5
49A9
  8
0
 10
471.9207043819448
 20
457.06364252941529
 30
0.0
 40
46.992196052740901
 50
75.835429763259953
 51
80.721210920294965
  0
ARC
  5
49AA
  8
0
 10
471.60029246812121
 20
455.13612217518391
 30
0.0
 40
48.946158747558961
 50
80.714855760972569
 51
85.40582169359547
  0
ARC
  5
49AB
  8
0
 10
471.51461837879259
 20
454.13846300579547
 30
0.0
 40
49.947475054360069
 50
85.399525524748512
 51
90.002849375825335
  0
ARC
  5
49AC
  8
0
 10
498.34849934930531
 20
472.475131068839
 30
0.0
 40
11.531188258426059
 50
54.961733045696633
 51
65.573097869750342
  0
ARC
  5
49AD
  8
0
 10
493.83936036338258
 20
462.86320716812719
 30
0.0
 40
22.14780369447854
 50
65.235014118465671
 51
70.76030169166647
  0
ARC
  5
49AE
  8
0
 10
489.71167373821459
 20
451.2125363951597
 30
0.0
 40
34.507972245406222
 50
70.663985967578142
 51
74.211955188059619
  0
ARC
  5
49AF
  8
0
 10
486.06161075799508
 20
438.41726596730098
 30
0.0
 40
47.813655618450071
 50
74.174767649000472
 51
76.734801608422814
  0
ARC
  5
49B0
  8
0
 10
482.90308879543608
 20
425.09663053634551
 30
0.0
 40
61.503628056173
 50
76.718300009151534
 51
78.708742837072123
  0
ARC
  5
49B1
  8
0
 10
480.21827591037578
 20
411.72266519370493
 30
0.0
 40
75.144412583225545
 50
78.697861248115245
 51
80.327619397696935
  0
ARC
  5
49B2
  8
0
 10
477.98247286848459
 20
398.6488999804032
 30
0.0
 40
88.407975642272703
 50
80.322796410537165
 51
81.709056412658057
  0
ARC
  5
49B3
  8
0
 10
476.16067387632268
 20
386.18870022556541
 30
0.0
 40
101.0006520052293
 50
81.705652477329295
 51
82.917715080805408
  0
ARC
  5
49B4
  8
0
 10
474.71374208874812
 20
374.57922266075929
 30
0.0
 40
112.6999495369124
 50
82.915424611901315
 51
84.002908771582739
  0
ARC
  5
49B5
  8
0
 10
473.60006943880779
 20
364.01719544559728
 30
0.0
 40
123.3205272266208
 50
84.001013845586783
 51
84.995082969013595
  0
ARC
  5
49B6
  8
0
 10
472.78002543064798
 20
354.67797584293561
 30
0.0
 40
132.69568006040981
 50
84.994153636804114
 51
85.917970403987354
  0
ARC
  5
49B7
  8
0
 10
472.20590425603717
 20
346.69563770868729
 30
0.0
 40
140.69863692503341
 50
85.916160227986182
 51
86.787445798954835
  0
ARC
  5
49B8
  8
0
 10
471.84078644250241
 20
340.17967010889538
 30
0.0
 40
147.2248260443192
 50
86.787684196555674
 51
87.620374465901904
  0
ARC
  5
49B9
  8
0
 10
471.63096744830932
 20
335.21629510254439
 30
0.0
 40
152.19263272586269
 50
87.619035391215604
 51
88.424562995240294
  0
ARC
  5
49BA
  8
0
 10
471.53764795766131
 20
331.86547668758487
 30
0.0
 40
155.54475015535991
 50
88.424135763305614
 51
89.212310656469995
  0
ARC
  5
49BB
  8
0
 10
471.51270578971321
 20
330.17261495098683
 30
0.0
 40
157.2377948152774
 50
89.211703049610875
 51
89.991408190149514
  0
LINE
  5
74B1
  8
0
 10
743.05638444554631
 20
373.2751279983915
 30
0.0
 11
743.05638444554631
 21
445.27513199839132
 31
0.0
  0
LINE
  5
74B3
  8
0
 10
756.05639444554629
 20
442.77511199839148
 30
0.0
 11
756.05639444554629
 21
396.48269250458202
 31
0.0
  0
LINE
  5
74B5
  8
0
 10
761.90301639762799
 20
432.90512199839162
 30
0.0
 11
743.05638444554631
 21
432.90512199839162
 31
0.0
  0
LINE
  5
74B6
  8
0
 10
760.05638444554631
 20
442.77511199839148
 30
0.0
 11
764.86539583222066
 21
442.77511199839142
 31
0.0
  0
LINE
  5
74B7
  8
0
 10
743.05638444554631
 20
445.27513199839132
 30
0.0
 11
765.79728777472337
 21
445.27513199839149
 31
0.0
  0
LINE
  5
74B8
  8
0
 10
760.05638444554631
 20
423.3579974300485
 30
0.0
 11
760.05638444554631
 21
445.27513199839132
 31
0.0
  0
LINE
  5
74B9
  8
0
 10
743.05638444554631
 20
442.77511199839148
 30
0.0
 11
756.05639444554629
 21
442.77511199839148
 31
0.0
  0
LINE
  5
74BA
  8
0
 10
756.05639444554629
 20
414.77513199839132
 30
0.0
 11
758.77895239433099
 21
414.77513199839132
 31
0.0
  0
LINE
  5
74BD
  8
0
 10
743.05638444554631
 20
385.64511199839131
 30
0.0
 11
754.4433815413513
 21
385.64511199839131
 31
0.0
  0
LINE
  5
74BE
  8
0
 10
752.60229313556795
 20
373.2751279983915
 30
0.0
 11
743.05638444554631
 21
373.2751279983915
 31
0.0
  0
LINE
  5
74BF
  8
0
 10
756.05639444554629
 20
403.77513199839132
 30
0.0
 11
757.1417657606529
 21
403.77513199839132
 31
0.0
  0
LINE
  5
74C1
  8
0
 10
743.05638444554631
 20
375.77513599839142
 30
0.0
 11
752.97438219753985
 21
375.77513599839142
 31
0.0
  0
LINE
  5
8A60
  8
0
  6
AM_ISO08W050
 10
106.9050767509445
 20
678.29169849035259
 30
0.0
 11
654.42499444142754
 21
678.29169849035259
 31
0.0
  0
LINE
  5
8A61
  8
0
  6
CONTINUOUS
 10
423.51215444142758
 20
760.83026849035275
 30
0.0
 11
423.51215444142758
 21
784.90198849035232
 31
0.0
  0
LINE
  5
8A62
  8
0
  6
CONTINUOUS
 10
584.51218444142762
 20
747.29169849035281
 30
0.0
 11
584.51218444142762
 21
785.69238849035298
 31
0.0
  0
LINE
  5
8A63
  8
0
  6
CONTINUOUS
 10
471.51215444142758
 20
578.79169849035247
 30
0.0
 11
471.51215444142758
 21
777.79169849035247
 31
0.0
  0
LINE
  5
8A64
  8
0
  6
CONTINUOUS
 10
427.16352444142763
 20
788.88678849035273
 30
0.0
 11
477.51221444142749
 21
793.29169849035281
 31
0.0
  0
LINE
  5
8A65
  8
0
  6
CENTER
 10
441.51215444142758
 20
759.79169849035281
 30
0.0
 11
441.51215444142758
 21
786.79169849035247
 31
0.0
  0
LINE
  5
8A66
  8
0
  6
CONTINUOUS
 10
577.51218444142773
 20
617.18832849035243
 30
0.0
 11
577.51218444142773
 21
739.39508849035235
 31
0.0
  0
LINE
  5
8A67
  8
0
  6
CENTER
 10
566.51218444142773
 20
759.79169849035281
 30
0.0
 11
566.51218444142773
 21
786.79169849035247
 31
0.0
  0
LINE
  5
8A68
  8
0
  6
CENTER
 10
428.0121544414277
 20
773.29169849035247
 30
0.0
 11
455.01215444142758
 21
773.29169849035247
 31
0.0
  0
LINE
  5
8A69
  8
0
  6
CENTER
 10
553.01218444142773
 20
773.29169849035247
 30
0.0
 11
580.01218444142762
 21
773.29169849035247
 31
0.0
  0
LINE
  5
8A6A
  8
0
  6
CONTINUOUS
 10
477.51215444142758
 20
793.29169849035281
 30
0.0
 11
580.65177444142773
 21
789.68994849035255
 31
0.0
  0
LINE
  5
8A6B
  8
0
  6
CONTINUOUS
 10
426.47694444142769
 20
756.96655849035233
 30
0.0
 11
442.24122444142751
 21
752.74249849035232
 31
0.0
  0
LINE
  5
8A6C
  8
0
  6
CONTINUOUS
 10
462.77369444142772
 20
785.97931849035274
 30
0.0
 11
471.1635844414277
 21
786.71332849035298
 31
0.0
  0
LINE
  5
8A6D
  8
0
  6
CONTINUOUS
 10
426.47694444142769
 20
599.61682849035265
 30
0.0
 11
442.24110444142758
 21
603.84082849035258
 31
0.0
  0
LINE
  5
8A6E
  8
0
  6
CONTINUOUS
 10
477.51215444142758
 20
563.29169849035281
 30
0.0
 11
580.65174444142781
 21
566.89340849035261
 31
0.0
  0
LINE
  5
8A6F
  8
0
  6
CENTER
 10
553.01218444142773
 20
583.29169849035236
 30
0.0
 11
580.01218444142762
 21
583.29169849035236
 31
0.0
  0
LINE
  5
8A70
  8
0
  6
CENTER
 10
428.0121544414277
 20
583.29169849035236
 30
0.0
 11
455.01215444142758
 21
583.29169849035236
 31
0.0
  0
LINE
  5
8A71
  8
0
  6
CENTER
 10
566.51218444142773
 20
596.79169849035281
 30
0.0
 11
566.51218444142773
 21
569.79169849035259
 31
0.0
  0
LINE
  5
8A72
  8
0
  6
CENTER
 10
441.51215444142758
 20
596.79169849035281
 30
0.0
 11
441.51215444142758
 21
569.79169849035259
 31
0.0
  0
LINE
  5
8A73
  8
0
  6
CONTINUOUS
 10
427.16352444142763
 20
567.69662849035262
 30
0.0
 11
477.51215444142758
 21
563.29169849035281
 31
0.0
  0
LINE
  5
8A74
  8
0
  6
CONTINUOUS
 10
584.51218444142762
 20
609.29169849035281
 30
0.0
 11
584.51218444142762
 21
570.89096849035263
 31
0.0
  0
LINE
  5
8A75
  8
0
  6
CONTINUOUS
 10
423.51215444142758
 20
595.75311849035256
 30
0.0
 11
423.51215444142758
 21
571.68140849035262
 31
0.0
  0
LINE
  5
8A76
  8
0
  6
CONTINUOUS
 10
646.51215444142758
 20
694.29169849035247
 30
0.0
 11
588.51218444142762
 21
694.29169849035247
 31
0.0
  0
LINE
  5
8A77
  8
0
  6
CONTINUOUS
 10
461.51215444142758
 20
613.21948849035266
 30
0.0
 11
461.51215444142758
 21
743.36389849035265
 31
0.0
  0
LINE
  5
8A78
  8
0
  6
CONTINUOUS
 10
579.01218444142773
 20
710.46710849035264
 30
0.0
 11
583.01215444142747
 21
708.15771849035298
 31
0.0
  0
LINE
  5
8A79
  8
0
  6
CONTINUOUS
 10
579.01212444142755
 20
646.11633849035275
 30
0.0
 11
583.01212444142755
 21
648.42572849035264
 31
0.0
  0
LINE
  5
8A7A
  8
0
  6
CONTINUOUS
 10
584.51215444142758
 20
651.02374849035243
 30
0.0
 11
584.51215444142758
 21
678.29169849035259
 31
0.0
  0
LINE
  5
8A7B
  8
0
  6
CONTINUOUS
 10
584.51215444142758
 20
678.29169849035259
 30
0.0
 11
584.51215444142758
 21
705.55963849035265
 31
0.0
  0
LINE
  5
8A7C
  8
0
  6
CONTINUOUS
 10
588.51218444142762
 20
695.79169849035236
 30
0.0
 11
584.51215444142758
 21
695.79169849035236
 31
0.0
  0
LINE
  5
8A7D
  8
0
  6
CONTINUOUS
 10
646.51215444142758
 20
662.29169849035236
 30
0.0
 11
646.51215444142758
 21
694.29169849035247
 31
0.0
  0
LINE
  5
8A7E
  8
0
  6
CONTINUOUS
 10
588.51218444142762
 20
660.7916984903527
 30
0.0
 11
588.51218444142762
 21
695.79169849035236
 31
0.0
  0
LINE
  5
8A7F
  8
0
  6
CONTINUOUS
 10
601.51218444142773
 20
673.2916984903527
 30
0.0
 11
601.51218444142773
 21
683.29169849035236
 31
0.0
  0
LINE
  5
8A80
  8
0
  6
CONTINUOUS
 10
646.51215444142758
 20
662.29169849035236
 30
0.0
 11
588.51218444142762
 21
662.29169849035236
 31
0.0
  0
LINE
  5
8A81
  8
0
  6
CONTINUOUS
 10
588.51218444142762
 20
660.7916984903527
 30
0.0
 11
584.51215444142758
 21
660.7916984903527
 31
0.0
  0
LINE
  5
8A82
  8
0
  6
CONTINUOUS
 10
601.51215444142758
 20
673.2916984903527
 30
0.0
 11
646.51215444142758
 21
673.2916984903527
 31
0.0
  0
LINE
  5
8A83
  8
0
  6
CONTINUOUS
 10
601.51215444142758
 20
683.29169849035236
 30
0.0
 11
646.51215444142758
 21
683.29169849035236
 31
0.0
  0
LINE
  5
8A84
  8
0
  6
CONTINUOUS
 10
573.61686444142765
 20
743.39368849035282
 30
0.0
 11
563.75498444142772
 21
743.65192849035247
 31
0.0
  0
LINE
  5
8A85
  8
0
  6
CONTINUOUS
 10
573.61686444142765
 20
613.18970849035281
 30
0.0
 11
563.75498444142772
 21
612.93146849035236
 31
0.0
  0
LINE
  5
8A86
  8
0
  6
CONTINUOUS
 10
556.51218444142762
 20
609.08496849035282
 30
0.0
 11
556.51218444142762
 21
747.49841849035261
 31
0.0
  0
LINE
  5
8A87
  8
0
  6
CONTINUOUS
 10
536.51215444142747
 20
573.63626849035256
 30
0.0
 11
536.51215444142747
 21
589.07809849035243
 31
0.0
  0
LINE
  5
8A88
  8
0
  6
CONTINUOUS
 10
548.72156444142774
 20
755.49567849035247
 30
0.0
 11
548.19803444142747
 21
755.50940849035283
 31
0.0
  0
LINE
  5
8A89
  8
0
  6
CONTINUOUS
 10
548.72159444142756
 20
601.08771849035259
 30
0.0
 11
548.19800444142766
 21
601.0739784903526
 31
0.0
  0
LINE
  5
8A8A
  8
0
  6
CONTINUOUS
 10
536.51215444142747
 20
767.50531849035281
 30
0.0
 11
536.51215444142747
 21
782.94714849035233
 31
0.0
  0
LINE
  5
8A8B
  8
0
  6
CONTINUOUS
 10
471.51215444142758
 20
578.79169849035247
 30
0.0
 11
475.51215444142758
 21
578.79169849035247
 31
0.0
  0
LINE
  5
8A8C
  8
0
  6
CONTINUOUS
 10
471.51215444142758
 20
777.79169849035247
 30
0.0
 11
475.51215444142758
 21
777.79169849035247
 31
0.0
  0
LINE
  5
8A8D
  8
0
  6
CONTINUOUS
 10
475.51215444142758
 20
777.79169849035247
 30
0.0
 11
475.51215444142758
 21
787.66016849035282
 31
0.0
  0
LINE
  5
8A8E
  8
0
  6
CONTINUOUS
 10
462.77363444142759
 20
570.60407849035244
 30
0.0
 11
471.1635844414277
 21
569.87003849035273
 31
0.0
  0
LINE
  5
8A8F
  8
0
  6
CONTINUOUS
 10
475.51215444142758
 20
578.79169849035247
 30
0.0
 11
475.51215444142758
 21
568.9232284903527
 31
0.0
  0
LINE
  5
8A90
  8
0
  6
CONTINUOUS
 10
464.40748444142758
 20
579.0397684903528
 30
0.0
 11
471.51209444142779
 21
578.79169849035247
 31
0.0
  0
LINE
  5
8A91
  8
0
  6
CONTINUOUS
 10
471.51215444142758
 20
583.50150849035276
 30
0.0
 11
461.51215444142758
 21
583.50150849035276
 31
0.0
  0
LINE
  5
8A92
  8
0
  6
CONTINUOUS
 10
471.51215444142758
 20
600.87488849035265
 30
0.0
 11
449.51215444142758
 21
600.87488849035265
 31
0.0
  0
LINE
  5
8A93
  8
0
  6
CONTINUOUS
 10
471.51215444142758
 20
648.01526849035281
 30
0.0
 11
461.51215444142758
 21
648.01526849035281
 31
0.0
  0
LINE
  5
8A94
  8
0
  6
CONTINUOUS
 10
471.51215444142758
 20
708.56812849035282
 30
0.0
 11
461.51215444142758
 21
708.56812849035282
 31
0.0
  0
LINE
  5
8A95
  8
0
  6
CONTINUOUS
 10
471.51215444142758
 20
755.70850849035276
 30
0.0
 11
449.51215444142758
 21
755.70850849035276
 31
0.0
  0
LINE
  5
8A96
  8
0
  6
CONTINUOUS
 10
415.01215444142758
 20
616.71304849035278
 30
0.0
 11
449.51215444142758
 21
616.71304849035278
 31
0.0
  0
LINE
  5
8A97
  8
0
  6
CONTINUOUS
 10
415.01215444142758
 20
739.87030849035273
 30
0.0
 11
449.51215444142758
 21
739.87030849035273
 31
0.0
  0
LINE
  5
8A98
  8
0
  6
CONTINUOUS
 10
415.01215444142758
 20
717.76636849035265
 30
0.0
 11
449.51215444142758
 21
717.76636849035265
 31
0.0
  0
LINE
  5
8A99
  8
0
  6
CONTINUOUS
 10
415.01215444142758
 20
638.81702849035264
 30
0.0
 11
449.51215444142758
 21
638.81702849035264
 31
0.0
  0
LINE
  5
8A9A
  8
0
  6
CONTINUOUS
 10
415.01209444142751
 20
604.79166849035266
 30
0.0
 11
447.08198444142749
 21
603.67175849035266
 31
0.0
  0
LINE
  5
8A9B
  8
0
  6
CONTINUOUS
 10
415.01215444142758
 20
751.79169849035281
 30
0.0
 11
446.6168344414275
 21
752.89532849035265
 31
0.0
  0
LINE
  5
8A9C
  8
0
  6
CONTINUOUS
 10
449.51215444142758
 20
587.37058849035282
 30
0.0
 11
449.51215444142758
 21
769.21283849035274
 31
0.0
  0
LINE
  5
8A9D
  8
0
  6
CONTINUOUS
 10
449.51215444142758
 20
610.21948849035277
 30
0.0
 11
458.51215444142758
 21
610.21948849035277
 31
0.0
  0
LINE
  5
8A9E
  8
0
  6
CONTINUOUS
 10
449.51215444142758
 20
620.97412849035243
 30
0.0
 11
461.51215444142758
 21
620.97412849035243
 31
0.0
  0
LINE
  5
8A9F
  8
0
  6
CONTINUOUS
 10
449.51215444142758
 20
746.36389849035277
 30
0.0
 11
458.51215444142758
 21
746.36389849035277
 31
0.0
  0
LINE
  5
8AA0
  8
0
  6
CONTINUOUS
 10
449.51215444142758
 20
735.60925849035254
 30
0.0
 11
461.51215444142758
 21
735.60925849035254
 31
0.0
  0
LINE
  5
8AA1
  8
0
  6
CONTINUOUS
 10
452.51215444142758
 20
595.40167849035265
 30
0.0
 11
458.51215444142758
 21
595.40167849035265
 31
0.0
  0
LINE
  5
8AA2
  8
0
  6
CONTINUOUS
 10
461.51215444142758
 20
582.03796849035257
 30
0.0
 11
461.51215444142758
 21
592.40167849035265
 31
0.0
  0
LINE
  5
8AA3
  8
0
  6
CONTINUOUS
 10
452.51215444142758
 20
584.37058849035282
 30
0.0
 11
458.54938444142749
 21
584.37058849035282
 31
0.0
  0
LINE
  5
8AA4
  8
0
  6
CONTINUOUS
 10
452.51215444142758
 20
772.21283849035274
 30
0.0
 11
458.54938444142749
 21
772.21283849035274
 31
0.0
  0
LINE
  5
8AA5
  8
0
  6
CONTINUOUS
 10
461.51215444142758
 20
774.54541849035274
 30
0.0
 11
461.51215444142758
 21
764.18170849035289
 31
0.0
  0
LINE
  5
8AA6
  8
0
  6
CONTINUOUS
 10
452.51215444142758
 20
761.18170849035232
 30
0.0
 11
458.51215444142758
 21
761.18170849035232
 31
0.0
  0
LINE
  5
8AA7
  8
0
  6
CONTINUOUS
 10
464.40742444142762
 20
777.54358849035282
 30
0.0
 11
471.51209444142779
 21
777.79169849035247
 31
0.0
  0
LINE
  5
8AA8
  8
0
  6
CONTINUOUS
 10
471.51215444142758
 20
773.08185849035283
 30
0.0
 11
461.51215444142758
 21
773.08185849035283
 31
0.0
  0
ARC
  5
8AA9
  8
0
  6
CONTINUOUS
 10
580.51218444142762
 20
785.69238849035298
 30
0.0
 40
4.0
 50
0.0
 51
88.000000000002785
  0
CIRCLE
  5
8AAA
  8
0
  6
CONTINUOUS
 10
441.51215444142758
 20
773.29169849035247
 30
0.0
 40
7.5
  0
CIRCLE
  5
8AAB
  8
0
  6
CONTINUOUS
 10
566.51218444142773
 20
773.29169849035247
 30
0.0
 40
7.5
  0
ARC
  5
8AAC
  8
0
  6
CONTINUOUS
 10
427.51215444142758
 20
784.90198849035232
 30
0.0
 40
4.0
 50
95.000001999998574
 51
180.000010000001
  0
ARC
  5
8AAD
  8
0
  6
CONTINUOUS
 10
581.51218444142773
 20
739.35443849035232
 30
0.0
 40
4.0
 50
97.180758000000822
 51
180.000010000001
  0
ARC
  5
8AAE
  8
0
  6
CONTINUOUS
 10
580.51218444142762
 20
747.29169849035281
 30
0.0
 40
4.0
 50
277.18074999999709
 51
0.0
  0
ARC
  5
8AAF
  8
0
  6
CONTINUOUS
 10
427.51215444142758
 20
760.83026849035275
 30
0.0
 40
4.0
 50
180.000010000001
 51
254.99998999999869
  0
ARC
  5
8AB0
  8
0
  6
CONTINUOUS
 10
462.51215444142758
 20
788.96790849035256
 30
0.0
 40
3.0
 50
95.000001999998574
 51
275.0
  0
ARC
  5
8AB1
  8
0
  6
CONTINUOUS
 10
471.51215444142758
 20
782.72858849035265
 30
0.0
 40
4.0
 50
0.0
 51
95.000001999998574
  0
ARC
  5
8AB2
  8
0
  6
CONTINUOUS
 10
427.51215444142758
 20
595.75311849035256
 30
0.0
 40
4.0
 50
105.0000000000007
 51
180.000010000001
  0
ARC
  5
8AB3
  8
0
  6
CONTINUOUS
 10
580.51218444142762
 20
609.29169849035281
 30
0.0
 40
4.0
 50
0.0
 51
82.819246999996963
  0
ARC
  5
8AB4
  8
0
  6
CONTINUOUS
 10
581.51218444142773
 20
617.22894849035276
 30
0.0
 40
4.0
 50
180.000010000001
 51
262.81925000000291
  0
ARC
  5
8AB5
  8
0
  6
CONTINUOUS
 10
427.51215444142758
 20
571.68140849035262
 30
0.0
 40
4.0
 50
180.000010000001
 51
265.00001000000037
  0
CIRCLE
  5
8AB6
  8
0
  6
CONTINUOUS
 10
566.51218444142773
 20
583.29169849035236
 30
0.0
 40
7.5
  0
CIRCLE
  5
8AB7
  8
0
  6
CONTINUOUS
 10
441.51215444142758
 20
583.29169849035236
 30
0.0
 40
7.5
  0
ARC
  5
8AB8
  8
0
  6
CONTINUOUS
 10
580.51218444142762
 20
570.89096849035263
 30
0.0
 40
4.0
 50
271.99999999999721
 51
0.0
  0
ARC
  5
8AB9
  8
0
  6
CONTINUOUS
 10
581.51215444142747
 20
651.02374849035243
 30
0.0
 40
3.0
 50
300.00001000000083
 51
0.0
  0
ARC
  5
8ABA
  8
0
  6
CONTINUOUS
 10
581.51215444142747
 20
705.55963849035265
 30
0.0
 40
3.0
 50
0.0
 51
60.000002000001302
  0
ARC
  5
8ABB
  8
0
  6
CONTINUOUS
 10
580.51218444142762
 20
713.06519849035249
 30
0.0
 40
3.0
 50
179.999989999999
 51
240.00000999999969
  0
ARC
  5
8ABC
  8
0
  6
CONTINUOUS
 10
580.51218444142762
 20
643.51819849035235
 30
0.0
 40
3.0
 50
120.0000000000005
 51
180.000010000001
  0
ARC
  5
8ABD
  8
0
  6
CONTINUOUS
 10
601.51215444142758
 20
678.29169849035259
 30
0.0
 40
4.9999924
 50
90.00000299999769
 51
270.0
  0
ARC
  5
8ABE
  8
0
  6
CONTINUOUS
 10
573.51218444142773
 20
617.18832849035243
 30
0.0
 40
4.0
 50
271.50000000000267
 51
0.0
  0
ARC
  5
8ABF
  8
0
  6
CONTINUOUS
 10
573.51218444142773
 20
739.39508849035235
 30
0.0
 40
4.0
 50
0.0
 51
88.499997000000647
  0
ARC
  5
8AC0
  8
0
  6
CONTINUOUS
 10
548.51218444142773
 20
747.49841849035261
 30
0.0
 40
8.0
 50
0.0
 51
88.499997000000647
  0
ARC
  5
8AC1
  8
0
  6
CONTINUOUS
 10
548.51218444142773
 20
609.08496849035282
 30
0.0
 40
8.0
 50
271.50000000000267
 51
0.0
  0
ARC
  5
8AC2
  8
0
  6
CONTINUOUS
 10
563.96439444142754
 20
604.9342084903526
 30
0.0
 40
8.0
 50
91.500001000001546
 51
164.96420000000299
  0
ARC
  5
8AC3
  8
0
  6
CONTINUOUS
 10
563.96439444142754
 20
751.64917849035282
 30
0.0
 40
8.0
 50
195.0357999999969
 51
268.49999999999733
  0
ARC
  5
8AC4
  8
0
  6
CONTINUOUS
 10
548.51215444142747
 20
767.50531849035281
 30
0.0
 40
12.0
 50
180.000010000001
 51
268.49999999999733
  0
ARC
  5
8AC5
  8
0
  6
CONTINUOUS
 10
548.51215444142747
 20
589.07809849035243
 30
0.0
 40
12.0
 50
91.500001000001546
 51
180.000010000001
  0
ARC
  5
8AC6
  8
0
  6
CONTINUOUS
 10
544.51215444142747
 20
782.94714849035233
 30
0.0
 40
8.0
 50
88.000000000002785
 51
180.000010000001
  0
ARC
  5
8AC7
  8
0
  6
CONTINUOUS
 10
544.51215444142747
 20
573.63626849035256
 30
0.0
 40
8.0
 50
180.000010000001
 51
271.99999000000139
  0
ARC
  5
8AC8
  8
0
  6
CONTINUOUS
 10
471.51215444142758
 20
573.85480849035275
 30
0.0
 40
4.0
 50
265.00001000000037
 51
0.0000006832495047
  0
ARC
  5
8AC9
  8
0
  6
CONTINUOUS
 10
462.51215444142758
 20
567.6154884903525
 30
0.0
 40
3.0
 50
85.000003999997674
 51
264.99999999999989
  0
ARC
  5
8ACA
  8
0
  6
CONTINUOUS
 10
470.51215444142758
 20
787.66016849035282
 30
0.0
 40
5.0
 50
0.0
 51
95.000001999998574
  0
ARC
  5
8ACB
  8
0
  6
CONTINUOUS
 10
470.51215444142758
 20
568.9232284903527
 30
0.0
 40
5.0
 50
265.00001000000037
 51
0.0000006832495047
  0
ARC
  5
8ACC
  8
0
  6
CONTINUOUS
 10
446.51215444142758
 20
755.89349849035273
 30
0.0
 40
3.0
 50
271.99999999999721
 51
0.0
  0
ARC
  5
8ACD
  8
0
  6
CONTINUOUS
 10
446.51215444142758
 20
600.68985849035266
 30
0.0
 40
3.0
 50
0.0
 51
88.000000000002785
  0
ARC
  5
8ACE
  8
0
  6
CONTINUOUS
 10
458.51215444142758
 20
613.21948849035266
 30
0.0
 40
3.0
 50
270.0
 51
0.0
  0
ARC
  5
8ACF
  8
0
  6
CONTINUOUS
 10
458.51215444142758
 20
743.36389849035265
 30
0.0
 40
3.0
 50
0.0
 51
90.00000299999769
  0
ARC
  5
8AD0
  8
0
  6
CONTINUOUS
 10
458.51215444142758
 20
592.40167849035265
 30
0.0
 40
3.0
 50
0.0
 51
90.00000299999769
  0
ARC
  5
8AD1
  8
0
  6
CONTINUOUS
 10
464.51215444142758
 20
582.03796849035257
 30
0.0
 40
3.0
 50
180.000010000001
 51
268.0000000000029
  0
ARC
  5
8AD2
  8
0
  6
CONTINUOUS
 10
452.51215444142758
 20
598.40167849035265
 30
0.0
 40
3.0
 50
180.000010000001
 51
270.0
  0
ARC
  5
8AD3
  8
0
  6
CONTINUOUS
 10
452.51215444142758
 20
587.37058849035282
 30
0.0
 40
3.0
 50
180.000010000001
 51
270.0
  0
ARC
  5
8AD4
  8
0
  6
CONTINUOUS
 10
458.54938444142749
 20
581.3705884903527
 30
0.0
 40
3.0
 50
6.3862994000022004
 51
90.00000299999769
  0
ARC
  5
8AD5
  8
0
  6
CONTINUOUS
 10
458.54938444142749
 20
775.21283849035274
 30
0.0
 40
3.0
 50
270.0
 51
353.61370000000329
  0
ARC
  5
8AD6
  8
0
  6
CONTINUOUS
 10
452.51215444142758
 20
758.18170849035255
 30
0.0
 40
3.0
 50
90.00000299999769
 51
180.000010000001
  0
ARC
  5
8AD7
  8
0
  6
CONTINUOUS
 10
464.51215444142758
 20
774.54541849035274
 30
0.0
 40
3.0
 50
91.999998000000545
 51
180.000010000001
  0
ARC
  5
8AD8
  8
0
  6
CONTINUOUS
 10
458.51215444142758
 20
764.18170849035289
 30
0.0
 40
3.0
 50
270.0
 51
0.0
  0
ARC
  5
8AD9
  8
0
  6
CONTINUOUS
 10
452.51215444142758
 20
769.21283849035274
 30
0.0
 40
3.0
 50
90.00000299999769
 51
180.000010000001
  0
ARC
  5
8ADA
  8
0
  6
CONTINUOUS
 10
412.97010017570761
 20
544.30776752459155
 30
0.0
 40
119.08995706697441
 50
44.526249947262528
 51
60.555619827510462
  0
ARC
  5
8ADB
  8
0
  6
CONTINUOUS
 10
485.20469032022379
 20
610.49503607663326
 30
0.0
 40
21.460754188227561
 50
353.1477848101506
 51
53.822226147909667
  0
ARC
  5
8ADC
  8
0
  6
CONTINUOUS
 10
476.4009379125377
 20
620.81387770392973
 30
0.0
 40
32.74998792492201
 50
288.73824622289919
 51
336.84242704119458
  0
LINE
  5
8ADD
  8
0
  6
CONTINUOUS
 10
486.92171444142758
 20
589.79976849035256
 30
0.0
 11
471.51215444142758
 21
583.50150849035276
 31
0.0
  0
POLYLINE
  5
8ADE
  8
0
  6
CONTINUOUS
 66
     1
 10
0.0
 20
0.0
 30
0.0
  0
VERTEX
  5
8ADF
  8
0
  6
CONTINUOUS
 10
471.51215444142758
 20
600.87488849035265
 30
0.0
 42
0.040443759
  0
VERTEX
  5
8AE0
  8
0
  6
CONTINUOUS
 10
483.04033444142749
 20
601.09825849035235
 30
0.0
 42
0.042469384
  0
VERTEX
  5
8AE1
  8
0
  6
CONTINUOUS
 10
494.37402444142782
 20
603.2117684903526
 30
0.0
 42
0.022671411
  0
VERTEX
  5
8AE2
  8
0
  6
CONTINUOUS
 10
499.85851444142781
 20
605.00270849035257
 30
0.0
  0
VERTEX
  5
8AE3
  8
0
  6
CONTINUOUS
 10
505.16413444142762
 20
607.27154849035276
 30
0.0
 42
-1.0
  0
SEQEND
  5
8AE4
  8
0
  0
POLYLINE
  5
8AE5
  8
0
  6
CONTINUOUS
 66
     1
 10
0.0
 20
0.0
 30
0.0
  0
VERTEX
  5
8AE6
  8
0
  6
CONTINUOUS
 10
471.51215444142758
 20
755.70850849035276
 30
0.0
 42
-0.040443759
  0
VERTEX
  5
8AE7
  8
0
  6
CONTINUOUS
 10
483.04033444142749
 20
755.48513849035248
 30
0.0
 42
-0.042469384
  0
VERTEX
  5
8AE8
  8
0
  6
CONTINUOUS
 10
494.37402444142782
 20
753.37161849035283
 30
0.0
 42
-0.022671411
  0
VERTEX
  5
8AE9
  8
0
  6
CONTINUOUS
 10
499.85851444142781
 20
751.58067849035228
 30
0.0
  0
VERTEX
  5
8AEA
  8
0
  6
CONTINUOUS
 10
505.16413444142762
 20
749.31184849035265
 30
0.0
 42
-1.0
  0
SEQEND
  5
8AEB
  8
0
  0
LINE
  5
8AF3
  8
0
 10
415.01215444142758
 20
604.79169599035276
 30
0.0
 11
415.01215444142758
 21
751.79170099035264
 31
0.0
  0
ARC
  5
8AF4
  8
0
 10
406.01215444142758
 20
616.2528904903528
 30
0.0
 40
1.0
 50
180.0
 51
270.0
  0
ARC
  5
8AF5
  8
0
 10
406.01215444142758
 20
740.33050649035283
 30
0.0
 40
1.0
 50
90.0
 51
180.0
  0
ARC
  5
8AF6
  8
0
  6
CONTINUOUS
 10
402.61216144142782
 20
623.98272549035266
 30
0.0
 40
2.2000009999999981
 50
90.000021999998324
 51
179.9999969999958
  0
ARC
  5
8AF7
  8
0
  6
CONTINUOUS
 10
402.61216144142782
 20
619.38271949035266
 30
0.0
 40
2.1999970000000002
 50
180.00001799999919
 51
270.0
  0
LINE
  5
8AF8
  8
0
  6
CONTINUOUS
 10
405.01215244142782
 20
621.73216749035259
 30
0.0
 11
403.71215244142792
 21
622.48272249035278
 31
0.0
  0
LINE
  5
8AF9
  8
0
  6
CONTINUOUS
 10
405.01215244142782
 20
620.73216749035282
 30
0.0
 11
403.71215244142792
 21
621.48272249035256
 31
0.0
  0
LINE
  5
8AFA
  8
0
  6
CONTINUOUS
 10
403.71215244142792
 20
617.08272249035258
 30
0.0
 11
405.01215244142782
 21
617.08272249035258
 31
0.0
  0
LINE
  5
8AFB
  8
0
  6
CONTINUOUS
 10
403.71215244142792
 20
626.28272249035274
 30
0.0
 11
405.01215244142782
 21
626.28272249035274
 31
0.0
  0
LINE
  5
8AFC
  8
0
  6
CONTINUOUS
 10
405.01215244142782
 20
617.08272249035258
 30
0.0
 11
405.01215244142782
 21
626.28272249035274
 31
0.0
  0
LINE
  5
8AFD
  8
0
  6
CONTINUOUS
 10
400.4121494414278
 20
619.38271949035266
 30
0.0
 11
400.4121494414278
 21
623.98272549035266
 31
0.0
  0
LINE
  5
8AFE
  8
0
  6
CONTINUOUS
 10
403.71215244142792
 20
617.08272249035258
 30
0.0
 11
403.71215244142792
 21
626.28272249035274
 31
0.0
  0
LINE
  5
8AFF
  8
0
  6
CONTINUOUS
 10
403.71215244142792
 20
626.18272249035283
 30
0.0
 11
402.61216144142782
 21
626.18272249035283
 31
0.0
  0
LINE
  5
8B00
  8
0
  6
CONTINUOUS
 10
403.71215244142792
 20
617.18272249035283
 30
0.0
 11
402.61216144142782
 21
617.18272249035283
 31
0.0
  0
ARC
  5
8B01
  8
0
  6
CONTINUOUS
 10
402.6121634414277
 20
732.60067249035274
 30
0.0
 40
2.2000009999999981
 50
180.00000299999761
 51
269.99997799999522
  0
ARC
  5
8B02
  8
0
  6
CONTINUOUS
 10
402.6121634414277
 20
737.20067849035263
 30
0.0
 40
2.1999970000000002
 50
90.0
 51
179.99998200000081
  0
LINE
  5
8B03
  8
0
  6
CONTINUOUS
 10
405.0121544414277
 20
734.85123049035246
 30
0.0
 11
403.71215444142769
 21
734.10067549035261
 31
0.0
  0
LINE
  5
8B04
  8
0
  6
CONTINUOUS
 10
405.0121544414277
 20
735.8512304903528
 30
0.0
 11
403.71215444142769
 21
735.10067549035261
 31
0.0
  0
LINE
  5
8B05
  8
0
  6
CONTINUOUS
 10
403.71215444142769
 20
739.50067549035236
 30
0.0
 11
405.0121544414277
 21
739.50067549035236
 31
0.0
  0
LINE
  5
8B06
  8
0
  6
CONTINUOUS
 10
403.71215444142769
 20
730.30067549035277
 30
0.0
 11
405.0121544414277
 21
730.30067549035277
 31
0.0
  0
LINE
  5
8B07
  8
0
  6
CONTINUOUS
 10
405.0121544414277
 20
739.50067549035236
 30
0.0
 11
405.0121544414277
 21
730.30067549035277
 31
0.0
  0
LINE
  5
8B08
  8
0
  6
CONTINUOUS
 10
400.41215144142762
 20
737.20067849035263
 30
0.0
 11
400.41215144142762
 21
732.60067249035274
 31
0.0
  0
LINE
  5
8B09
  8
0
  6
CONTINUOUS
 10
403.71215444142769
 20
739.50067549035236
 30
0.0
 11
403.71215444142769
 21
730.30067549035277
 31
0.0
  0
LINE
  5
8B0A
  8
0
  6
CONTINUOUS
 10
403.71215444142769
 20
730.40067549035257
 30
0.0
 11
402.6121634414277
 21
730.40067549035257
 31
0.0
  0
LINE
  5
8B0B
  8
0
  6
CONTINUOUS
 10
403.71215444142769
 20
739.4006754903528
 30
0.0
 11
402.6121634414277
 21
739.4006754903528
 31
0.0
  0
LINE
  5
8B0C
  8
0
 10
415.01215444142758
 20
604.79169849035281
 30
0.0
 11
415.01215444142758
 21
751.79170349035257
 31
0.0
  0
ARC
  5
8B0D
  8
0
 10
253.03102944142771
 20
599.81676849035273
 30
0.0
 40
2.0
 50
60.311696999995213
 51
90.0
  0
LINE
  5
8B0E
  8
0
 10
243.0121544414277
 20
601.81676849035273
 30
0.0
 11
253.03102944142771
 21
601.81676849035273
 31
0.0
  0
ARC
  5
8B0F
  8
0
 10
251.08678144142769
 20
602.52264049035261
 30
0.0
 40
2.0
 50
11.08497000000493
 51
90.0
  0
LINE
  5
8B10
  8
0
 10
243.0121544414277
 20
604.52264049035261
 30
0.0
 11
251.08678144142769
 21
604.52264049035261
 31
0.0
  0
ARC
  5
8B11
  8
0
 10
255.0121544414277
 20
603.29169849035259
 30
0.0
 40
2.0
 50
180.0
 51
270.0
  0
ARC
  5
8B12
  8
0
 10
255.0121544414277
 20
611.79170249035235
 30
0.0
 40
2.0
 50
180.0
 51
270.0
  0
LINE
  5
8B13
  8
0
 10
253.0121544414277
 20
625.49218549035265
 30
0.0
 11
253.0121544414277
 21
603.29169849035259
 31
0.0
  0
LINE
  5
8B14
  8
0
 10
243.0121544414277
 20
624.10440149035276
 30
0.0
 11
253.0121544414277
 21
624.10440149035276
 31
0.0
  0
LINE
  5
8B15
  8
0
 10
243.0121544414277
 20
612.52770649035278
 30
0.0
 11
253.0121544414277
 21
612.52770649035278
 31
0.0
  0
LINE
  5
8B16
  8
0
 10
243.0121544414277
 20
606.46754349035257
 30
0.0
 11
253.0121544414277
 21
606.46754349035257
 31
0.0
  0
ARC
  5
8B17
  8
0
 10
403.01215244142742
 20
611.79169449035271
 30
0.0
 40
2.0
 50
269.99999799999722
 51
359.99999799999722
  0
LINE
  5
8B18
  8
0
 10
255.0121544414277
 20
627.49218549035265
 30
0.0
 11
403.01215144142748
 21
627.49218549035265
 31
0.0
  0
LINE
  5
8B19
  8
0
 10
255.0121544414277
 20
609.79170249035269
 30
0.0
 11
403.01785544142763
 21
609.79170249035269
 31
0.0
  0
LINE
  5
8B1A
  8
0
 10
405.0121544414277
 20
604.79169849035281
 30
0.0
 11
415.01215144142759
 21
604.79169849035281
 31
0.0
  0
LINE
  5
8B1B
  8
0
 10
406.01215444142758
 20
615.25289049035257
 30
0.0
 11
415.01215244142782
 21
615.25289049035257
 31
0.0
  0
LINE
  5
8B1C
  8
0
 10
253.0121544414277
 20
753.24448649035264
 30
0.0
 11
253.0121544414277
 21
750.20568249035273
 31
0.0
  0
ARC
  5
8B1D
  8
0
 10
255.0121544414277
 20
744.79170249035235
 30
0.0
 40
2.0
 50
90.0
 51
180.0
  0
LINE
  5
8B1E
  8
0
 10
243.0121544414277
 20
732.56629949035266
 30
0.0
 11
253.0121544414277
 21
732.56629949035266
 31
0.0
  0
LINE
  5
8B1F
  8
0
 10
243.0121544414277
 20
744.13231849035265
 30
0.0
 11
253.0121544414277
 21
744.13231849035265
 31
0.0
  0
LINE
  5
8B20
  8
0
 10
243.0121544414277
 20
750.20568249035273
 30
0.0
 11
253.0121544414277
 21
750.20568249035273
 31
0.0
  0
LINE
  5
8B21
  8
0
 10
253.0121544414277
 20
754.76994449035283
 30
0.0
 11
253.0121544414277
 21
754.16666849035255
 31
0.0
  0
ARC
  5
8B22
  8
0
 10
255.0121544414277
 20
753.24448649035264
 30
0.0
 40
2.0
 50
90.0
 51
180.0
  0
LINE
  5
8B23
  8
0
 10
243.0121544414277
 20
756.18484349035248
 30
0.0
 11
251.49282544142781
 21
756.18484349035248
 31
0.0
  0
LINE
  5
8B24
  8
0
 10
243.0121544414277
 20
754.87033149035256
 30
0.0
 11
251.1634654414278
 21
754.87033149035256
 31
0.0
  0
ARC
  5
8B25
  8
0
 10
251.1634654414278
 20
756.87033149035256
 30
0.0
 40
2.0
 50
270.0
 51
344.1903739999978
  0
ARC
  5
8B26
  8
0
 10
255.0121544414277
 20
755.78056449035273
 30
0.0
 40
2.0
 50
90.0
 51
164.19037399999769
  0
ARC
  5
8B27
  8
0
 10
251.49282544142781
 20
758.18484349035282
 30
0.0
 40
2.0
 50
270.0
 51
331.62214300000102
  0
ARC
  5
8B28
  8
0
 10
255.0121544414277
 20
756.28370649035276
 30
0.0
 40
2.0
 50
90.0
 51
151.6221439999978
  0
ARC
  5
8B29
  8
0
 10
403.01215444142758
 20
744.79170249035235
 30
0.0
 40
2.0
 50
0.0
 51
90.0
  0
ARC
  5
8B2A
  8
0
 10
401.88466244142779
 20
753.24448649035264
 30
0.0
 40
2.0
 50
15.000000000000741
 51
90.0
  0
LINE
  5
8B2B
  8
0
 10
407.01215444142758
 20
741.83583249035257
 30
0.0
 11
403.81651444142773
 21
753.76212449035256
 31
0.0
  0
ARC
  5
8B2C
  8
0
 10
402.8491784414278
 20
754.76994449035283
 30
0.0
 40
2.0
 50
15.000000000000741
 51
90.0
  0
LINE
  5
8B2D
  8
0
 10
407.01215444142758
 20
746.96091549035282
 30
0.0
 11
404.78103044142767
 21
755.28758349035263
 31
0.0
  0
ARC
  5
8B2E
  8
0
 10
403.39687244142749
 20
755.78056449035273
 30
0.0
 40
2.0
 50
15.000000000000741
 51
90.0
  0
LINE
  5
8B2F
  8
0
 10
407.01215444142758
 20
750.01555249035255
 30
0.0
 11
405.32872344142771
 21
756.29820249035265
 31
0.0
  0
ARC
  5
8B30
  8
0
 10
403.67790644142758
 20
756.28370649035276
 30
0.0
 40
2.0
 50
15.000000000000741
 51
90.0
  0
LINE
  5
8B31
  8
0
 10
407.01215444142758
 20
751.56753049035274
 30
0.0
 11
405.60975844142769
 21
756.80134549035256
 31
0.0
  0
ARC
  5
8B32
  8
0
 10
251.0121544414277
 20
754.16666849035255
 30
0.0
 40
2.0
 50
270.0
 51
0.0
  0
ARC
  5
8B33
  8
0
 10
255.0121544414277
 20
754.76994449035283
 30
0.0
 40
2.0
 50
90.0
 51
180.0
  0
LINE
  5
8B34
  8
0
 10
243.0121544414277
 20
752.16666849035255
 30
0.0
 11
251.0121544414277
 21
752.16666849035255
 31
0.0
  0
LINE
  5
8B35
  8
0
 10
253.0121544414277
 20
750.20568249035273
 30
0.0
 11
253.0121544414277
 21
731.16303849035273
 31
0.0
  0
LINE
  5
8B36
  8
0
 10
406.01215444142758
 20
741.33050649035283
 30
0.0
 11
415.01215444142758
 21
741.33050649035283
 31
0.0
  0
LINE
  5
8B37
  8
0
 10
255.0121544414277
 20
729.16303849035273
 30
0.0
 11
403.01215444142758
 21
729.16303849035273
 31
0.0
  0
LINE
  5
8B38
  8
0
 10
255.0121544414277
 20
758.28370649035276
 30
0.0
 11
403.67790644142758
 21
758.28370649035276
 31
0.0
  0
LINE
  5
8B39
  8
0
 10
255.0121544414277
 20
746.7917024903528
 30
0.0
 11
403.01215444142758
 21
746.7917024903528
 31
0.0
  0
LINE
  5
8B3A
  8
0
 10
255.0121544414277
 20
755.24448649035264
 30
0.0
 11
401.88466244142779
 21
755.24448649035264
 31
0.0
  0
LINE
  5
8B3B
  8
0
 10
255.0121544414277
 20
756.76994449035283
 30
0.0
 11
402.8491784414278
 21
756.76994449035283
 31
0.0
  0
LINE
  5
8B3C
  8
0
 10
255.0121544414277
 20
757.78056449035273
 30
0.0
 11
403.39687244142749
 21
757.78056449035273
 31
0.0
  0
LINE
  5
8B3D
  8
0
 10
392.01215444142792
 20
601.29169849035281
 30
0.0
 11
392.01215444142792
 21
599.29169849035247
 31
0.0
  0
LINE
  5
8B3E
  8
0
 10
325.01215444142781
 20
601.29169849035281
 30
0.0
 11
325.01215444142781
 21
599.29169849035247
 31
0.0
  0
LINE
  5
8B3F
  8
0
 10
325.01215444142781
 20
599.29169849035247
 30
0.0
 11
392.01215444142792
 21
599.29169849035247
 31
0.0
  0
LINE
  5
8B40
  8
0
 10
255.0121544414277
 20
601.29169849035281
 30
0.0
 11
401.79267444142761
 21
601.29169849035281
 31
0.0
  0
LINE
  5
8B41
  8
0
 10
368.51215444142792
 20
704.29169849035281
 30
0.0
 11
243.0121544414277
 21
704.29169849035281
 31
0.0
  0
LINE
  5
8B42
  8
0
 10
368.51215444142792
 20
652.29169849035281
 30
0.0
 11
243.0121544414277
 21
652.29169849035281
 31
0.0
  0
LINE
  5
8B43
  8
0
 10
384.5121544414277
 20
705.29169849035281
 30
0.0
 11
384.5121544414277
 21
711.29169849035259
 31
0.0
  0
LINE
  5
8B44
  8
0
 10
369.5121544414277
 20
705.29169849035281
 30
0.0
 11
369.5121544414277
 21
711.29169849035259
 31
0.0
  0
LINE
  5
8B45
  8
0
 10
384.5121544414277
 20
651.29169849035281
 30
0.0
 11
384.5121544414277
 21
645.29169849035247
 31
0.0
  0
LINE
  5
8B46
  8
0
 10
369.5121544414277
 20
651.29169849035281
 30
0.0
 11
369.5121544414277
 21
645.29169849035247
 31
0.0
  0
LINE
  5
8B47
  8
0
 10
341.0121544414277
 20
698.79169849035259
 30
0.0
 11
341.0121544414277
 21
657.79169849035247
 31
0.0
  0
LINE
  5
8B48
  8
0
 10
404.0121544414277
 20
698.79169849035259
 30
0.0
 11
404.0121544414277
 21
657.79169849035247
 31
0.0
  0
LINE
  5
8B49
  8
0
 10
341.0121544414277
 20
698.79169849035259
 30
0.0
 11
404.0121544414277
 21
698.79169849035259
 31
0.0
  0
LINE
  5
8B4A
  8
0
 10
341.0121544414277
 20
657.79169849035247
 30
0.0
 11
404.0121544414277
 21
657.79169849035247
 31
0.0
  0
LINE
  5
8B4B
  8
0
 10
341.0121544414277
 20
691.29169849035247
 30
0.0
 11
404.0121544414277
 21
691.29169849035247
 31
0.0
  0
LINE
  5
8B4C
  8
0
 10
253.0121544414277
 20
681.29169849035281
 30
0.0
 11
253.0121544414277
 21
675.29169849035281
 31
0.0
  0
LINE
  5
8B4D
  8
0
 10
403.72425444142777
 20
602.77298849035265
 30
0.0
 11
404.7121644414276
 21
606.45166849035274
 31
0.0
  0
LINE
  5
8B4E
  8
0
 10
403.13617444142778
 20
602.77298849035265
 30
0.0
 11
404.7121644414276
 21
608.64170849035247
 31
0.0
  0
LINE
  5
8B4F
  8
0
 10
405.0121544414277
 20
641.3334784903526
 30
0.0
 11
405.0121544414277
 21
604.79169849035281
 31
0.0
  0
LINE
  5
8B50
  8
0
 10
404.0121544414277
 20
654.29169849035281
 30
0.0
 11
243.0121544414277
 21
654.29169849035281
 31
0.0
  0
LINE
  5
8B51
  8
0
 10
404.0121544414277
 20
652.29169849035281
 30
0.0
 11
385.51215444142792
 21
652.29169849035281
 31
0.0
  0
LINE
  5
8B52
  8
0
 10
337.01215444142781
 20
662.29169849035236
 30
0.0
 11
243.0121544414277
 21
662.29169849035236
 31
0.0
  0
LINE
  5
8B53
  8
0
 10
337.01215444142781
 20
664.29169849035281
 30
0.0
 11
243.0121544414277
 21
664.29169849035281
 31
0.0
  0
LINE
  5
8B54
  8
0
 10
337.01215444142781
 20
672.29169849035281
 30
0.0
 11
243.0121544414277
 21
672.29169849035281
 31
0.0
  0
LINE
  5
8B55
  8
0
 10
337.01215444142781
 20
674.29169849035247
 30
0.0
 11
254.01215444142781
 21
674.29169849035247
 31
0.0
  0
LINE
  5
8B56
  8
0
 10
404.0121544414277
 20
632.29169849035259
 30
0.0
 11
243.0121544414277
 21
632.29169849035259
 31
0.0
  0
LINE
  5
8B57
  8
0
 10
404.0121544414277
 20
644.2916984903527
 30
0.0
 11
243.0121544414277
 21
644.2916984903527
 31
0.0
  0
LINE
  5
8B58
  8
0
 10
404.0121544414277
 20
642.29169849035281
 30
0.0
 11
243.0121544414277
 21
642.29169849035281
 31
0.0
  0
LINE
  5
8B59
  8
0
 10
404.0121544414277
 20
634.29169849035281
 30
0.0
 11
243.0121544414277
 21
634.29169849035281
 31
0.0
  0
LINE
  5
8B5A
  8
0
 10
404.0121544414277
 20
722.29169849035281
 30
0.0
 11
243.0121544414277
 21
722.29169849035281
 31
0.0
  0
LINE
  5
8B5B
  8
0
 10
404.0121544414277
 20
714.29169849035281
 30
0.0
 11
243.0121544414277
 21
714.29169849035281
 31
0.0
  0
LINE
  5
8B5C
  8
0
 10
404.0121544414277
 20
712.29169849035236
 30
0.0
 11
243.0121544414277
 21
712.29169849035236
 31
0.0
  0
LINE
  5
8B5D
  8
0
 10
404.0121544414277
 20
724.29169849035247
 30
0.0
 11
243.0121544414277
 21
724.29169849035247
 31
0.0
  0
LINE
  5
8B5E
  8
0
 10
337.01215444142781
 20
682.29169849035259
 30
0.0
 11
254.01215444142781
 21
682.29169849035259
 31
0.0
  0
LINE
  5
8B5F
  8
0
 10
337.01215444142781
 20
684.29169849035281
 30
0.0
 11
243.0121544414277
 21
684.29169849035281
 31
0.0
  0
LINE
  5
8B60
  8
0
 10
337.01215444142781
 20
692.29169849035281
 30
0.0
 11
243.0121544414277
 21
692.29169849035281
 31
0.0
  0
LINE
  5
8B61
  8
0
 10
337.01215444142781
 20
694.2916984903527
 30
0.0
 11
243.0121544414277
 21
694.2916984903527
 31
0.0
  0
LINE
  5
8B62
  8
0
 10
404.0121544414277
 20
704.29169849035281
 30
0.0
 11
385.51215444142792
 21
704.29169849035281
 31
0.0
  0
LINE
  5
8B63
  8
0
 10
404.0121544414277
 20
702.29169849035281
 30
0.0
 11
243.0121544414277
 21
702.29169849035281
 31
0.0
  0
LINE
  5
8B64
  8
0
 10
405.0121544414277
 20
715.24991849035257
 30
0.0
 11
405.0121544414277
 21
744.79170249035235
 31
0.0
  0
ARC
  5
8B65
  8
0
 10
401.79267444142761
 20
603.29169849035259
 30
0.0
 40
2.0
 50
269.999989999999
 51
344.96831000000168
  0
ARC
  5
8B66
  8
0
 10
401.20459444142767
 20
603.29169849035259
 30
0.0
 40
2.0
 50
269.999989999999
 51
344.96831000000168
  0
ARC
  5
8B67
  8
0
 10
385.51215444142792
 20
645.29169849035247
 30
0.0
 40
1.0
 50
179.999989999999
 51
270.0
  0
ARC
  5
8B68
  8
0
 10
368.51215444142792
 20
645.29169849035247
 30
0.0
 40
1.0
 50
269.999989999999
 51
0.0000010000014034
  0
ARC
  5
8B69
  8
0
 10
368.51215444142792
 20
711.29169849035259
 30
0.0
 40
1.0
 50
0.0
 51
90.00000299999769
  0
ARC
  5
8B6A
  8
0
 10
385.51215444142792
 20
711.29169849035259
 30
0.0
 40
1.0
 50
90.00000299999769
 51
180.000010000001
  0
ARC
  5
8B6B
  8
0
 10
385.51215444142792
 20
651.29169849035281
 30
0.0
 40
1.0
 50
90.00000299999769
 51
180.000010000001
  0
ARC
  5
8B6C
  8
0
 10
368.51215444142792
 20
651.29169849035281
 30
0.0
 40
1.0
 50
0.0
 51
90.00000299999769
  0
ARC
  5
8B6D
  8
0
 10
385.51215444142792
 20
705.29169849035281
 30
0.0
 40
1.0
 50
179.999989999999
 51
270.0
  0
ARC
  5
8B6E
  8
0
 10
368.51215444142792
 20
705.29169849035281
 30
0.0
 40
1.0
 50
269.999989999999
 51
0.0000010000014034
  0
CIRCLE
  5
8B6F
  8
0
 10
379.51215444142792
 20
706.7916984903527
 30
0.0
 40
1.0
  0
CIRCLE
  5
8B70
  8
0
 10
374.51215444142792
 20
706.7916984903527
 30
0.0
 40
1.149999999999999
  0
CIRCLE
  5
8B71
  8
0
 10
374.51215444142792
 20
706.7916984903527
 30
0.0
 40
1.1000000000000001
  0
CIRCLE
  5
8B72
  8
0
 10
374.51215444142792
 20
649.79169849035236
 30
0.0
 40
1.1000000000000001
  0
CIRCLE
  5
8B73
  8
0
 10
374.51215444142792
 20
649.79169849035236
 30
0.0
 40
1.149999999999999
  0
CIRCLE
  5
8B74
  8
0
 10
379.51215444142792
 20
649.79169849035236
 30
0.0
 40
1.0
  0
ARC
  5
8B75
  8
0
 10
337.01215444142781
 20
693.29169849035281
 30
0.0
 40
1.0
 50
269.999989999999
 51
90.00000299999769
  0
ARC
  5
8B76
  8
0
 10
337.01215444142781
 20
683.29169849035236
 30
0.0
 40
1.0
 50
269.999989999999
 51
90.00000299999769
  0
ARC
  5
8B77
  8
0
 10
337.01215444142781
 20
673.2916984903527
 30
0.0
 40
1.0
 50
269.999989999999
 51
90.00000299999769
  0
ARC
  5
8B78
  8
0
 10
337.01215444142781
 20
663.29169849035281
 30
0.0
 40
1.0
 50
269.999989999999
 51
90.00000299999769
  0
ARC
  5
8B79
  8
0
 10
402.06214444142779
 20
643.29169849035281
 30
0.0
 40
1.0
 50
269.999989999999
 51
90.00000299999769
  0
ARC
  5
8B7A
  8
0
 10
404.0121544414277
 20
643.29169849035281
 30
0.0
 40
1.0
 50
269.999989999999
 51
90.00000299999769
  0
ARC
  5
8B7B
  8
0
 10
402.06214444142779
 20
653.29169849035259
 30
0.0
 40
1.0
 50
269.999989999999
 51
90.00000299999769
  0
ARC
  5
8B7C
  8
0
 10
404.0121544414277
 20
653.29169849035259
 30
0.0
 40
1.0
 50
269.999989999999
 51
90.00000299999769
  0
ARC
  5
8B7D
  8
0
 10
402.06214444142779
 20
703.29169849035259
 30
0.0
 40
1.0
 50
269.999989999999
 51
90.00000299999769
  0
ARC
  5
8B7E
  8
0
 10
404.0121544414277
 20
703.29169849035259
 30
0.0
 40
1.0
 50
269.999989999999
 51
90.00000299999769
  0
ARC
  5
8B7F
  8
0
 10
402.06214444142779
 20
713.29169849035281
 30
0.0
 40
1.0
 50
269.999989999999
 51
90.00000299999769
  0
ARC
  5
8B80
  8
0
 10
404.0121544414277
 20
713.29169849035281
 30
0.0
 40
1.0
 50
269.999989999999
 51
90.00000299999769
  0
ARC
  5
8B81
  8
0
 10
254.01215444142781
 20
681.29169849035281
 30
0.0
 40
1.0
 50
90.00000299999769
 51
180.000010000001
  0
ARC
  5
8B82
  8
0
 10
254.01215444142781
 20
675.29169849035281
 30
0.0
 40
1.0
 50
179.999989999999
 51
270.0
  0
ARC
  5
8B83
  8
0
 10
254.01212444142769
 20
663.29169849035281
 30
0.0
 40
1.0
 50
90.00000299999769
 51
270.0
  0
ARC
  5
8B84
  8
0
 10
254.01212444142769
 20
653.29169849035259
 30
0.0
 40
1.0
 50
90.00000299999769
 51
270.0
  0
ARC
  5
8B85
  8
0
 10
402.06214444142779
 20
633.29169849035236
 30
0.0
 40
1.0
 50
269.999989999999
 51
90.00000299999769
  0
ARC
  5
8B86
  8
0
 10
404.0121544414277
 20
633.29169849035236
 30
0.0
 40
1.0
 50
269.999989999999
 51
90.00000299999769
  0
ARC
  5
8B87
  8
0
 10
254.01212444142769
 20
633.29169849035236
 30
0.0
 40
1.0
 50
90.00000299999769
 51
270.0
  0
ARC
  5
8B88
  8
0
 10
254.01212444142769
 20
643.29169849035281
 30
0.0
 40
1.0
 50
90.00000299999769
 51
270.0
  0
ARC
  5
8B89
  8
0
 10
406.15821444142762
 20
606.07129849035277
 30
0.0
 40
1.4952499999999991
 50
140.03764999999859
 51
165.2626000000021
  0
ARC
  5
8B8A
  8
0
 10
406.1531444414278
 20
608.24719849035273
 30
0.0
 40
1.4940209999999989
 50
139.79258000000129
 51
164.69034000000019
  0
ARC
  5
8B8B
  8
0
 10
406.1563144414277
 20
752.05875849035283
 30
0.0
 40
1.495147999999999
 50
195.00188999999639
 51
195.00621300000489
  0
ARC
  5
8B8C
  8
0
 10
254.01212444142769
 20
713.29169849035281
 30
0.0
 40
1.0
 50
90.00000299999769
 51
270.0
  0
ARC
  5
8B8D
  8
0
 10
254.01212444142769
 20
723.2916984903527
 30
0.0
 40
1.0
 50
90.00000299999769
 51
270.0
  0
ARC
  5
8B8E
  8
0
 10
404.0121544414277
 20
723.2916984903527
 30
0.0
 40
1.0
 50
269.999989999999
 51
90.00000299999769
  0
ARC
  5
8B8F
  8
0
 10
402.06214444142779
 20
723.2916984903527
 30
0.0
 40
1.0
 50
269.999989999999
 51
90.00000299999769
  0
ARC
  5
8B90
  8
0
 10
254.01212444142769
 20
703.29169849035259
 30
0.0
 40
1.0
 50
90.00000299999769
 51
270.0
  0
ARC
  5
8B91
  8
0
 10
254.01212444142769
 20
693.29169849035281
 30
0.0
 40
1.0
 50
90.00000299999769
 51
270.0
  0
LINE
  5
8B92
  8
0
 10
415.01216044142768
 20
751.79170349035257
 30
0.0
 11
406.95208744142758
 21
751.79170349035257
 31
0.0
  0
POINT
  5
8B93
  8
0
 10
358.51215444142781
 20
596.29169849035281
 30
0.0
  0
LINE
  5
8B94
  8
0
 10
401.2621544414277
 20
596.79169849035281
 30
0.0
 11
317.26215444142781
 21
596.79169849035281
 31
0.0
  0
LINE
  5
8B95
  8
0
 10
318.86215444142778
 20
566.79169849035236
 30
0.0
 11
395.16215444142779
 21
579.79169849035281
 31
0.0
  0
LINE
  5
8B96
  8
0
 10
318.78215444142768
 20
567.79169849035281
 30
0.0
 11
350.7621544414277
 21
573.24169849035275
 31
0.0
  0
LINE
  5
8B97
  8
0
 10
394.66215444142767
 20
562.7916984903527
 30
0.0
 11
319.1921544414277
 21
562.7916984903527
 31
0.0
  0
LINE
  5
8B98
  8
0
 10
395.49215444142777
 20
575.79169849035281
 30
0.0
 11
319.1921544414277
 21
562.7916984903527
 31
0.0
  0
ARC
  5
8B99
  8
0
 10
314.56952144142781
 20
571.48433149035282
 30
0.0
 40
0.307456
 50
91.373079999999376
 51
178.62692000000061
  0
ARC
  5
8B9A
  8
0
 10
315.76219944142781
 20
564.29174349035281
 30
0.0
 40
1.5000450000000001
 50
180.00171899999609
 51
269.99828099999741
  0
ARC
  5
8B9B
  8
0
 10
315.46207244142778
 20
571.49161649035261
 30
0.0
 40
0.300082
 50
0.0157330000002628
 51
89.984266999999718
  0
ARC
  5
8B9C
  8
0
 10
315.06952144142781
 20
566.48433149035282
 30
0.0
 40
0.307456
 50
91.373079999999376
 51
178.62692000000061
  0
ARC
  5
8B9D
  8
0
 10
316.26219944142781
 20
564.29174349035281
 30
0.0
 40
1.5000450000000001
 50
180.00171899999609
 51
269.99828099999741
  0
ARC
  5
8B9E
  8
0
 10
315.06952144142781
 20
567.48433149035282
 30
0.0
 40
0.307456
 50
91.373079999999376
 51
178.62692000000061
  0
ARC
  5
8B9F
  8
0
 10
317.26956444142769
 20
595.78428849035265
 30
0.0
 40
1.0074369999999999
 50
90.421438000004656
 51
179.5785619999954
  0
LINE
  5
8BA0
  8
0
 10
315.7621544414277
 20
562.7916984903527
 30
0.0
 11
316.06215444142771
 21
562.7916984903527
 31
0.0
  0
LINE
  5
8BA1
  8
0
 10
314.26215444142781
 20
571.49169849035275
 30
0.0
 11
314.26215444142781
 21
564.29169849035281
 31
0.0
  0
LINE
  5
8BA2
  8
0
 10
315.06215444142771
 20
571.79169849035281
 30
0.0
 11
314.56215444142771
 21
571.79169849035281
 31
0.0
  0
LINE
  5
8BA3
  8
0
 10
315.4621544414278
 20
571.79169849035281
 30
0.0
 11
315.06215444142771
 21
571.79169849035281
 31
0.0
  0
LINE
  5
8BA4
  8
0
 10
314.76215444142781
 20
566.49169849035275
 30
0.0
 11
314.76215444142781
 21
564.29169849035281
 31
0.0
  0
LINE
  5
8BA5
  8
0
 10
316.26215444142781
 20
562.7916984903527
 30
0.0
 11
319.1921544414277
 21
562.7916984903527
 31
0.0
  0
LINE
  5
8BA6
  8
0
 10
315.9621544414278
 20
572.59169849035266
 30
0.0
 11
316.16215444142767
 21
572.79169849035281
 31
0.0
  0
LINE
  5
8BA7
  8
0
 10
314.76215444142781
 20
567.49169849035275
 30
0.0
 11
314.76215444142781
 21
566.79169849035236
 31
0.0
  0
LINE
  5
8BA8
  8
0
 10
318.78215444142768
 20
567.79169849035281
 30
0.0
 11
315.06215444142771
 21
567.79169849035281
 31
0.0
  0
LINE
  5
8BA9
  8
0
 10
316.26215444142781
 20
595.79169849035236
 30
0.0
 11
316.26215444142781
 21
572.79169849035281
 31
0.0
  0
LINE
  5
8BAA
  8
0
 10
315.9621544414278
 20
567.79169849035281
 30
0.0
 11
315.9621544414278
 21
568.78169849035282
 31
0.0
  0
LINE
  5
8BAB
  8
0
 10
316.26215444142781
 20
572.79169849035281
 30
0.0
 11
316.26215444142781
 21
567.79169849035281
 31
0.0
  0
LINE
  5
8BAC
  8
0
 10
315.9621544414278
 20
568.78169849035282
 30
0.0
 11
315.7621544414277
 21
568.78169849035282
 31
0.0
  0
LINE
  5
8BAD
  8
0
 10
315.9621544414278
 20
568.78169849035282
 30
0.0
 11
315.9621544414278
 21
569.98169849035276
 31
0.0
  0
LINE
  5
8BAE
  8
0
 10
315.7621544414277
 20
569.98169849035276
 30
0.0
 11
315.9621544414278
 21
569.98169849035276
 31
0.0
  0
LINE
  5
8BAF
  8
0
 10
315.9621544414278
 20
569.98169849035276
 30
0.0
 11
315.9621544414278
 21
572.59169849035266
 31
0.0
  0
LINE
  5
8BB0
  8
0
 10
316.16215444142767
 20
572.79169849035281
 30
0.0
 11
316.26215444142781
 21
572.79169849035281
 31
0.0
  0
LINE
  5
8BB1
  8
0
 10
314.76215444142781
 20
566.79169849035236
 30
0.0
 11
318.86215444142778
 21
566.79169849035236
 31
0.0
  0
LINE
  5
8BB2
  8
0
 10
315.7621544414277
 20
567.79169849035281
 30
0.0
 11
315.7621544414277
 21
571.49169849035275
 31
0.0
  0
LINE
  5
8BB3
  8
0
 10
402.2621544414277
 20
576.29169849035281
 30
0.0
 11
402.2621544414277
 21
595.79169849035236
 31
0.0
  0
LINE
  5
8BB4
  8
0
 10
322.06215444142771
 20
596.79169849035281
 30
0.0
 11
322.06215444142771
 21
579.79169849035281
 31
0.0
  0
LINE
  5
8BB5
  8
0
 10
388.54215444142773
 20
579.67169849035236
 30
0.0
 11
388.54215444142773
 21
596.79169849035281
 31
0.0
  0
LINE
  5
8BB6
  8
0
 10
340.66215444142779
 20
596.79169849035281
 30
0.0
 11
340.66215444142779
 21
579.79169849035281
 31
0.0
  0
ARC
  5
8BB7
  8
0
 10
394.6695734414277
 20
565.28428049035256
 30
0.0
 40
2.4925929999999981
 50
269.82947499999727
 51
0.1705250000027349
  0
ARC
  5
8BB8
  8
0
 10
397.66957344142781
 20
575.28428049035278
 30
0.0
 40
0.507473
 50
90.837610999997921
 51
179.16238900000209
  0
CIRCLE
  5
8BB9
  8
0
 10
380.36955944142773
 20
579.78431549035236
 30
0.0
 40
0.75
  0
CIRCLE
  5
8BBA
  8
0
 10
331.36956644142782
 20
579.78431549035236
 30
0.0
 40
6.299999999999998
  0
ARC
  5
8BBB
  8
0
 10
331.36215444142778
 20
579.79169849035281
 30
0.0
 40
9.3000030000000002
 50
180.0
 51
0.0
  0
LINE
  5
8BBC
  8
0
 10
386.89215444142769
 20
562.7916984903527
 30
0.0
 11
386.89215444142769
 21
574.32169849035267
 31
0.0
  0
LINE
  5
8BBD
  8
0
 10
387.76215444142792
 20
574.47169849035276
 30
0.0
 11
387.76215444142792
 21
578.53169849035282
 31
0.0
  0
LINE
  5
8BBE
  8
0
 10
401.7621544414277
 20
575.79169849035281
 30
0.0
 11
395.49215444142777
 21
575.79169849035281
 31
0.0
  0
LINE
  5
8BBF
  8
0
 10
397.16215444142767
 20
575.29169849035281
 30
0.0
 11
397.16215444142767
 21
565.2916984903527
 31
0.0
  0
LINE
  5
8BC0
  8
0
 10
352.7621544414277
 20
573.58169849035255
 30
0.0
 11
354.96215444142791
 21
573.95169849035267
 31
0.0
  0
LINE
  5
8BC1
  8
0
 10
356.46215444142791
 20
574.21169849035266
 30
0.0
 11
358.66215444142767
 21
574.58169849035255
 31
0.0
  0
LINE
  5
8BC2
  8
0
 10
360.16215444142767
 20
574.84169849035266
 30
0.0
 11
362.36215444142778
 21
575.21169849035266
 31
0.0
  0
LINE
  5
8BC3
  8
0
 10
364.36215444142778
 20
575.55169849035246
 30
0.0
 11
366.06215444142771
 21
575.84169849035266
 31
0.0
  0
LINE
  5
8BC4
  8
0
 10
367.56215444142771
 20
576.10169849035265
 30
0.0
 11
369.77215444142792
 21
576.47169849035265
 31
0.0
  0
LINE
  5
8BC5
  8
0
 10
371.27215444142769
 20
576.73169849035276
 30
0.0
 11
373.47215444142779
 21
577.11169849035264
 31
0.0
  0
LINE
  5
8BC6
  8
0
 10
374.9721544414279
 20
577.36169849035264
 30
0.0
 11
377.17215444142772
 21
577.74169849035275
 31
0.0
  0
LINE
  5
8BC7
  8
0
 10
378.67215444142772
 20
577.99169849035275
 30
0.0
 11
395.08215444142792
 21
580.79169849035281
 31
0.0
  0
LINE
  5
8BC8
  8
0
 10
402.2621544414277
 20
580.79169849035281
 30
0.0
 11
395.08215444142792
 21
580.79169849035281
 31
0.0
  0
LINE
  5
8BC9
  8
0
 10
378.67215444142772
 20
577.99169849035275
 30
0.0
 11
378.67215444142772
 21
591.79169849035236
 31
0.0
  0
LINE
  5
8BCA
  8
0
 10
378.67215444142772
 20
591.79169849035236
 30
0.0
 11
377.17215444142772
 21
591.79169849035236
 31
0.0
  0
LINE
  5
8BCB
  8
0
 10
377.17215444142772
 20
591.79169849035236
 30
0.0
 11
377.17215444142772
 21
577.74169849035275
 31
0.0
  0
LINE
  5
8BCC
  8
0
 10
374.9721544414279
 20
577.36169849035264
 30
0.0
 11
374.9721544414279
 21
591.79169849035236
 31
0.0
  0
LINE
  5
8BCD
  8
0
 10
374.9721544414279
 20
591.79169849035236
 30
0.0
 11
373.47215444142779
 21
591.79169849035236
 31
0.0
  0
LINE
  5
8BCE
  8
0
 10
373.47215444142779
 20
591.79169849035236
 30
0.0
 11
373.47215444142779
 21
577.11169849035264
 31
0.0
  0
LINE
  5
8BCF
  8
0
 10
371.27215444142769
 20
576.73169849035276
 30
0.0
 11
371.27215444142769
 21
591.79169849035236
 31
0.0
  0
LINE
  5
8BD0
  8
0
 10
371.27215444142769
 20
591.79169849035236
 30
0.0
 11
369.77215444142792
 21
591.79169849035236
 31
0.0
  0
LINE
  5
8BD1
  8
0
 10
369.77215444142792
 20
591.79169849035236
 30
0.0
 11
369.77215444142792
 21
576.47169849035265
 31
0.0
  0
LINE
  5
8BD2
  8
0
 10
367.56215444142771
 20
576.10169849035265
 30
0.0
 11
367.56215444142771
 21
591.79169849035236
 31
0.0
  0
LINE
  5
8BD3
  8
0
 10
367.56215444142771
 20
591.79169849035236
 30
0.0
 11
366.06215444142771
 21
591.79169849035236
 31
0.0
  0
LINE
  5
8BD4
  8
0
 10
366.06215444142771
 20
591.79169849035236
 30
0.0
 11
366.06215444142771
 21
575.84169849035266
 31
0.0
  0
LINE
  5
8BD5
  8
0
 10
364.36215444142778
 20
575.55169849035246
 30
0.0
 11
364.36215444142778
 21
589.08169849035255
 31
0.0
  0
LINE
  5
8BD6
  8
0
 10
363.66215444142767
 20
591.79169849035236
 30
0.0
 11
362.36215444142778
 21
591.79169849035236
 31
0.0
  0
LINE
  5
8BD7
  8
0
 10
362.36215444142778
 20
591.79169849035236
 30
0.0
 11
362.36215444142778
 21
575.21169849035266
 31
0.0
  0
LINE
  5
8BD8
  8
0
 10
360.16215444142767
 20
574.84169849035266
 30
0.0
 11
360.16215444142767
 21
591.79169849035236
 31
0.0
  0
LINE
  5
8BD9
  8
0
 10
360.16215444142767
 20
591.79169849035236
 30
0.0
 11
358.66215444142767
 21
591.79169849035236
 31
0.0
  0
LINE
  5
8BDA
  8
0
 10
358.66215444142767
 20
591.79169849035236
 30
0.0
 11
358.66215444142767
 21
574.58169849035255
 31
0.0
  0
LINE
  5
8BDB
  8
0
 10
356.46215444142791
 20
574.21169849035266
 30
0.0
 11
356.46215444142791
 21
591.79169849035236
 31
0.0
  0
LINE
  5
8BDC
  8
0
 10
356.46215444142791
 20
591.79169849035236
 30
0.0
 11
354.96215444142791
 21
591.79169849035236
 31
0.0
  0
LINE
  5
8BDD
  8
0
 10
354.96215444142791
 20
591.79169849035236
 30
0.0
 11
354.96215444142791
 21
573.95169849035267
 31
0.0
  0
LINE
  5
8BDE
  8
0
 10
352.7621544414277
 20
573.58169849035255
 30
0.0
 11
352.7621544414277
 21
591.79169849035236
 31
0.0
  0
LINE
  5
8BDF
  8
0
 10
352.7621544414277
 20
591.79169849035236
 30
0.0
 11
351.4621544414278
 21
591.79169849035236
 31
0.0
  0
LINE
  5
8BE0
  8
0
 10
351.4621544414278
 20
591.79169849035236
 30
0.0
 11
351.4621544414278
 21
589.74169849035275
 31
0.0
  0
LINE
  5
8BE1
  8
0
 10
378.67215444142772
 20
587.79169849035281
 30
0.0
 11
377.17215444142772
 21
587.79169849035281
 31
0.0
  0
LINE
  5
8BE2
  8
0
 10
374.9721544414279
 20
587.79169849035281
 30
0.0
 11
373.47215444142779
 21
587.79169849035281
 31
0.0
  0
LINE
  5
8BE3
  8
0
 10
371.27215444142769
 20
587.79169849035281
 30
0.0
 11
369.77215444142792
 21
587.79169849035281
 31
0.0
  0
LINE
  5
8BE4
  8
0
 10
367.56215444142771
 20
587.79169849035281
 30
0.0
 11
366.06215444142771
 21
587.79169849035281
 31
0.0
  0
LINE
  5
8BE5
  8
0
 10
364.36215444142778
 20
587.79169849035281
 30
0.0
 11
362.36215444142778
 21
587.79169849035281
 31
0.0
  0
LINE
  5
8BE6
  8
0
 10
360.16215444142767
 20
587.79169849035281
 30
0.0
 11
358.66215444142767
 21
587.79169849035281
 31
0.0
  0
LINE
  5
8BE7
  8
0
 10
356.46215444142791
 20
587.79169849035281
 30
0.0
 11
354.96215444142791
 21
587.79169849035281
 31
0.0
  0
LINE
  5
8BE8
  8
0
 10
352.7621544414277
 20
587.79169849035281
 30
0.0
 11
350.7621544414277
 21
587.79169849035281
 31
0.0
  0
LINE
  5
8BE9
  8
0
 10
350.7621544414277
 20
589.08169849035255
 30
0.0
 11
350.7621544414277
 21
573.24169849035275
 31
0.0
  0
LINE
  5
8BEA
  8
0
 10
351.4621544414278
 20
589.74169849035275
 30
0.0
 11
350.7621544414277
 21
589.08169849035255
 31
0.0
  0
LINE
  5
8BEB
  8
0
 10
364.36215444142778
 20
589.08169849035255
 30
0.0
 11
363.66215444142767
 21
589.74169849035275
 31
0.0
  0
LINE
  5
8BEC
  8
0
 10
363.66215444142767
 20
589.74169849035275
 30
0.0
 11
363.66215444142767
 21
591.79169849035236
 31
0.0
  0
LINE
  5
8BED
  8
0
 10
395.16215444142779
 20
579.79169849035281
 30
0.0
 11
402.2621544414277
 21
579.79169849035281
 31
0.0
  0
ARC
  5
8BEE
  8
0
 10
401.7621544414277
 20
576.29169849035281
 30
0.0
 40
0.5
 50
270.0
 51
0.0
  0
ARC
  5
8BEF
  8
0
 10
401.2621544414277
 20
595.79169849035236
 30
0.0
 40
1.0
 50
0.0
 51
90.0
  0
LINE
  5
8BF0
  8
0
 10
325.01215444142781
 20
596.79169849035281
 30
0.0
 11
325.01215444142781
 21
599.29169849035247
 31
0.0
  0
LINE
  5
8BF1
  8
0
 10
392.01215444142792
 20
596.79169849035281
 30
0.0
 11
392.01215444142792
 21
599.29169849035247
 31
0.0
  0
LINE
  5
8BF2
  8
0
 10
159.7121544414278
 20
598.31225949035274
 30
0.0
 11
159.7121544414278
 21
758.27169849035283
 31
0.0
  0
ARC
  5
8BF3
  8
0
 10
133.8962924414277
 20
750.92659949035283
 30
0.0
 40
5.7526239999999991
 50
92.930875000002956
 51
169.9376259999998
  0
LINE
  5
8BF4
  8
0
 10
168.0121544414277
 20
760.29169849035281
 30
0.0
 11
243.0121544414277
 21
760.29169849035281
 31
0.0
  0
LINE
  5
8BF5
  8
0
 10
168.0121544414277
 20
596.29169849035281
 30
0.0
 11
168.0121544414277
 21
760.29169849035281
 31
0.0
  0
LINE
  5
8BF6
  8
0
 10
130.78215444142779
 20
604.79169849035281
 30
0.0
 11
130.78215444142779
 21
752.31169849035257
 31
0.0
  0
LINE
  5
8BF7
  8
0
 10
160.9621544414278
 20
759.0416984903527
 30
0.0
 11
168.0121544414277
 21
759.0416984903527
 31
0.0
  0
LINE
  5
8BF8
  8
0
 10
159.00215444142771
 20
758.00169849035274
 30
0.0
 11
133.6021544414277
 21
756.67169849035281
 31
0.0
  0
ARC
  5
8BF9
  8
0
 10
160.9674914414276
 20
757.79046749035274
 30
0.0
 40
1.2512430000000001
 50
90.244380000000078
 51
144.23910299999949
  0
ARC
  5
8BFA
  8
0
 10
158.9359484414278
 20
759.25044049035273
 30
0.0
 40
1.2504959999999981
 50
273.03488699999701
 51
324.35492199999982
  0
LINE
  5
8BFB
  8
0
 10
126.7121544414278
 20
614.92105849035283
 30
0.0
 11
126.7121544414278
 21
741.94169849035256
 31
0.0
  0
LINE
  5
8BFC
  8
0
 10
159.00215444142771
 20
598.58169849035255
 30
0.0
 11
133.6021544414277
 21
599.91169849035282
 31
0.0
  0
ARC
  5
8BFD
  8
0
 10
124.96200444142769
 20
615.48724249035263
 30
0.0
 40
2.249854
 50
179.88651000000229
 51
261.61639199999939
  0
ARC
  5
8BFE
  8
0
 10
124.1964344414277
 20
610.29252949035276
 30
0.0
 40
3.0009689999999982
 50
9.9623179999987208
 51
81.616391999999408
  0
LINE
  5
8BFF
  8
0
 10
127.15215544142779
 20
610.81169849035257
 30
0.0
 11
128.23215444142781
 21
604.65169849035283
 31
0.0
  0
ARC
  5
8C00
  8
0
 10
133.89010444142781
 20
605.64978749035265
 30
0.0
 40
5.745309999999999
 50
190.00432199999889
 51
267.127177999997
  0
LINE
  5
8C01
  8
0
 10
168.0121544414277
 20
596.29169849035281
 30
0.0
 11
243.0121544414277
 21
596.29169849035281
 31
0.0
  0
LINE
  5
8C02
  8
0
 10
160.9621544414278
 20
597.54169849035247
 30
0.0
 11
168.0121544414277
 21
597.54169849035247
 31
0.0
  0
ARC
  5
8C03
  8
0
 10
160.9625184414277
 20
598.78327149035283
 30
0.0
 40
1.241573
 50
215.533333
 51
269.98318399999948
  0
ARC
  5
8C04
  8
0
 10
158.9308774414277
 20
597.32369249035264
 30
0.0
 40
1.260022999999999
 50
35.853017999999182
 51
86.757172999999256
  0
ARC
  5
8C05
  8
0
 10
124.1964344414277
 20
746.29086749035275
 30
0.0
 40
3.0009689999999982
 50
278.3484590000034
 51
350.03768200000133
  0
LINE
  5
8C06
  8
0
 10
127.1521544414277
 20
745.77169849035283
 30
0.0
 11
128.23215444142781
 21
751.93169849035257
 31
0.0
  0
ARC
  5
8C07
  8
0
 10
124.96200444142769
 20
741.09615449035266
 30
0.0
 40
2.249854
 50
98.430493000000325
 51
180.11348999999771
  0
LINE
  5
8C08
  8
0
 10
243.0121544414277
 20
760.29169849035281
 30
0.0
 11
243.0121544414277
 21
596.29169849035281
 31
0.0
  0
LINE
  5
8C09
  8
0
 10
207.0100654414278
 20
770.29169849035247
 30
0.0
 11
207.0100654414278
 21
760.29169849035281
 31
0.0
  0
LINE
  5
8C0A
  8
0
 10
219.01424344142771
 20
770.29169849035247
 30
0.0
 11
219.01424344142771
 21
760.29169849035281
 31
0.0
  0
LINE
  5
8C0B
  8
0
 10
145.20737844142781
 20
765.2916984903527
 30
0.0
 11
207.0100654414278
 21
765.2916984903527
 31
0.0
  0
LINE
  5
8C0C
  8
0
 10
145.2113264414277
 20
770.29169849035247
 30
0.0
 11
223.2121544414278
 21
770.29169849035247
 31
0.0
  0
LINE
  5
8C0D
  8
0
 10
219.01424344142771
 20
765.2916984903527
 30
0.0
 11
223.2121544414278
 21
765.2916984903527
 31
0.0
  0
ARC
  5
8C0E
  8
0
 10
145.2113264414277
 20
745.29169849035247
 30
0.0
 40
25.0
 50
90.0
 51
180.0
  0
LINE
  5
8C0F
  8
0
 10
219.01424344142771
 20
596.29169849035281
 30
0.0
 11
219.01424344142771
 21
586.29169849035259
 31
0.0
  0
LINE
  5
8C10
  8
0
 10
207.0100654414278
 20
596.29169849035281
 30
0.0
 11
207.0100654414278
 21
586.29169849035259
 31
0.0
  0
LINE
  5
8C11
  8
0
 10
145.20737844142781
 20
591.29169849035247
 30
0.0
 11
207.0100654414278
 21
591.29169849035247
 31
0.0
  0
LINE
  5
8C12
  8
0
 10
145.2113264414277
 20
586.29169849035259
 30
0.0
 11
223.2121544414278
 21
586.29169849035259
 31
0.0
  0
LINE
  5
8C13
  8
0
 10
219.01424344142771
 20
591.29169849035247
 30
0.0
 11
223.2121544414278
 21
591.29169849035247
 31
0.0
  0
ARC
  5
8C14
  8
0
 10
145.20737844142781
 20
745.29169849035247
 30
0.0
 40
20.0
 50
90.0
 51
180.0
  0
LINE
  5
8C15
  8
0
 10
122.70737844142781
 20
615.49169849035275
 30
0.0
 11
122.70737844142781
 21
741.09169849035266
 31
0.0
  0
LINE
  5
8C16
  8
0
 10
117.73737844142779
 20
680.79169849035281
 30
0.0
 11
120.2113264414276
 21
680.79169849035281
 31
0.0
  0
LINE
  5
8C17
  8
0
 10
120.2113264414276
 20
611.29169849035259
 30
0.0
 11
120.2113264414276
 21
745.29169849035247
 31
0.0
  0
LINE
  5
8C18
  8
0
 10
117.73737844142779
 20
675.79169849035281
 30
0.0
 11
120.2113264414276
 21
675.79169849035281
 31
0.0
  0
ARC
  5
8C19
  8
0
 10
145.2113264414277
 20
611.29169849035259
 30
0.0
 40
25.0
 50
180.0
 51
270.0
  0
ARC
  5
8C1A
  8
0
 10
145.20737844142781
 20
611.29169849035259
 30
0.0
 40
20.0
 50
180.0
 51
270.0
  0
LINE
  5
8C1B
  8
0
 10
223.2121544414278
 20
765.2916984903527
 30
0.0
 11
223.2121544414278
 21
770.29169849035247
 31
0.0
  0
LINE
  5
8C1C
  8
0
 10
223.2121544414278
 20
591.29169849035247
 30
0.0
 11
223.2121544414278
 21
586.29169849035259
 31
0.0
  0
LINE
  5
8C1D
  8
0
 10
122.20737844142781
 20
680.79169849035281
 30
0.0
 11
122.70737844142781
 21
680.79169849035281
 31
0.0
  0
LINE
  5
8C1E
  8
0
 10
122.20737844142781
 20
675.79169849035281
 30
0.0
 11
122.70737844142781
 21
675.79169849035281
 31
0.0
  0
LINE
  5
8C1F
  8
0
 10
122.20737844142781
 20
680.79169849035281
 30
0.0
 11
122.20737844142781
 21
675.79169849035281
 31
0.0
  0
LINE
  5
8C20
  8
0
 10
117.73737844142779
 20
680.79169849035281
 30
0.0
 11
117.73737844142779
 21
675.79169849035281
 31
0.0
  0
LINE
  5
8C21
  8
0
 10
125.20737844142781
 20
745.29169849035247
 30
0.0
 11
125.20737844142781
 21
743.46530449035265
 31
0.0
  0
LINE
  5
8C22
  8
0
 10
125.20737844142781
 20
613.26143049035284
 30
0.0
 11
125.20737844142781
 21
611.29169849035259
 31
0.0
  0
LINE
  5
8C23
  8
0
 10
406.01215444142758
 20
641.3334784903526
 30
0.0
 11
415.01215444142758
 21
641.3334784903526
 31
0.0
  0
LINE
  5
8C24
  8
0
 10
406.01215444142758
 20
715.24991849035257
 30
0.0
 11
415.01215444142758
 21
715.24991849035257
 31
0.0
  0
ARC
  5
8C25
  8
0
  6
CONTINUOUS
 10
412.97011981963402
 20
812.2756038177447
 30
0.0
 40
119.0899250836984
 50
299.4443780058827
 51
315.47375221934283
  0
ARC
  5
8C26
  8
0
  6
CONTINUOUS
 10
485.2047010420348
 20
746.08835495769176
 30
0.0
 40
21.460743059367839
 50
306.17776011752431
 51
6.8522078600369021
  0
ARC
  5
8C27
  8
0
  6
CONTINUOUS
 10
476.40087401845562
 20
735.76949156007902
 30
0.0
 40
32.750053638143747
 50
23.15755749709205
 51
71.261674737597417
  0
LINE
  5
8C28
  8
0
  6
CONTINUOUS
 10
486.92171444142758
 20
766.78364849035279
 30
0.0
 11
471.51215444142758
 21
773.08191849035279
 31
0.0
  0
POINT
  5
8C29
  8
1
  6
CONTINUOUS
 10
415.01217444142748
 20
409.2751319983912
 30
0.0
  0
POINT
  5
8C2A
  8
1
  6
CONTINUOUS
 10
415.01217444142748
 20
409.27507388857111
 30
0.0
  0
LINE
  5
8C2B
  8
1
  6
CONTINUOUS
 10
415.01217444142748
 20
482.77507388857089
 30
0.0
 11
415.01217444142748
 21
335.77513199839132
 31
0.0
  0
ARC
  5
8C2C
  8
0
 10
406.01217444142748
 20
347.27510294348122
 30
0.0
 40
1.0
 50
180.0
 51
270.0
  0
ARC
  5
8C2D
  8
0
 10
406.01217444142748
 20
471.2751029434811
 30
0.0
 40
1.0
 50
90.0
 51
180.0
  0
ARC
  5
8C2E
  8
0
 10
404.00379944142747
 20
342.77510294348122
 30
0.0
 40
2.0
 50
270.0
 51
344.99999999999221
  0
LINE
  5
8C2F
  8
0
 10
407.01217444142748
 20
346.27510294348122
 30
0.0
 11
405.93565144142741
 21
342.25746494348118
 31
0.0
  0
ARC
  5
8C30
  8
0
 10
402.18855544142752
 20
334.37893794348122
 30
0.0
 40
2.0
 50
270.0
 51
345.0000029999984
  0
LINE
  5
8C31
  8
0
 10
407.01217444142748
 20
344.65352194348128
 30
0.0
 11
404.12040744142752
 21
333.8612999434813
 31
0.0
  0
ARC
  5
8C32
  8
0
 10
336.01217444142748
 20
331.41290494348118
 30
0.0
 40
2.0
 50
270.0
 51
0.0
  0
ARC
  5
8C33
  8
0
 10
336.01217444142748
 20
331.84018294348112
 30
0.0
 40
2.0
 50
270.0
 51
0.0
  0
ARC
  5
8C34
  8
0
 10
336.01217444142748
 20
332.84553394348131
 30
0.0
 40
2.0
 50
270.0
 51
346.50868899999841
  0
LINE
  5
8C35
  8
0
 10
338.01217444142748
 20
331.41290494348118
 30
0.0
 11
338.01217444142748
 21
332.37893794348122
 31
0.0
  0
LINE
  5
8C36
  8
0
 10
251.0121744414275
 20
339.74673594348133
 30
0.0
 11
243.0121744414275
 21
339.74673594348133
 31
0.0
  0
LINE
  5
8C37
  8
0
 10
251.0121744414275
 20
335.39074694348119
 30
0.0
 11
243.0121744414275
 21
335.39074694348119
 31
0.0
  0
LINE
  5
8C38
  8
0
 10
251.0121744414275
 20
332.75310794348121
 30
0.0
 11
243.0121744414275
 21
332.75310794348121
 31
0.0
  0
ARC
  5
8C39
  8
0
 10
255.0121744414275
 20
331.41290494348118
 30
0.0
 40
2.0
 50
180.0
 51
270.0
  0
LINE
  5
8C3A
  8
0
 10
253.0121744414275
 20
333.39074694348119
 30
0.0
 11
253.0121744414275
 21
332.84553394348131
 31
0.0
  0
ARC
  5
8C3B
  8
0
 10
254.86162444142761
 20
331.84018294348112
 30
0.0
 40
2.0
 50
195.7695469999999
 51
270.0
  0
ARC
  5
8C3C
  8
0
 10
255.0121744414275
 20
332.84553394348131
 30
0.0
 40
2.0
 50
180.0
 51
270.0
  0
ARC
  5
8C3D
  8
0
 10
255.0121744414275
 20
334.37893794348122
 30
0.0
 40
2.0
 50
180.0
 51
270.0
  0
LINE
  5
8C3E
  8
0
 10
253.0121744414275
 20
337.74673594348133
 30
0.0
 11
253.0121744414275
 21
334.37893794348122
 31
0.0
  0
ARC
  5
8C3F
  8
0
 10
251.0121744414275
 20
337.74673594348133
 30
0.0
 40
2.0
 50
0.0
 51
90.0
  0
ARC
  5
8C40
  8
0
 10
251.0121744414275
 20
333.39074694348119
 30
0.0
 40
2.0
 50
0.0
 51
90.0
  0
ARC
  5
8C41
  8
0
 10
251.0121744414275
 20
330.75310794348121
 30
0.0
 40
2.0
 50
15.7695469999999
 51
90.0
  0
LINE
  5
8C42
  8
0
 10
255.0121744414275
 20
332.37893794348122
 30
0.0
 11
402.18855544142752
 21
332.37893794348122
 31
0.0
  0
LINE
  5
8C43
  8
0
 10
255.0121744414275
 20
330.84553394348131
 30
0.0
 11
336.01217444142748
 21
330.84553394348131
 31
0.0
  0
LINE
  5
8C44
  8
0
 10
254.86162444142761
 20
329.84018294348112
 30
0.0
 11
336.01217444142748
 21
329.84018294348112
 31
0.0
  0
LINE
  5
8C45
  8
0
 10
255.0121744414275
 20
329.41290494348118
 30
0.0
 11
336.01217444142748
 21
329.41290494348118
 31
0.0
  0
ARC
  5
8C46
  8
0
 10
402.18855544142752
 20
484.17126794348121
 30
0.0
 40
2.0
 50
14.999997000001709
 51
90.0
  0
ARC
  5
8C47
  8
0
 10
404.00379944142747
 20
475.77510294348122
 30
0.0
 40
2.0
 50
15.000000000007869
 51
90.0
  0
LINE
  5
8C48
  8
0
 10
407.01217444142748
 20
473.89668394348109
 30
0.0
 11
404.12040744142752
 21
484.68890594348107
 31
0.0
  0
LINE
  5
8C49
  8
0
 10
407.01217444142748
 20
472.27510294348122
 30
0.0
 11
405.93565144142741
 21
476.29274094348108
 31
0.0
  0
LINE
  5
8C4A
  8
0
 10
405.01217444142742
 20
365.44510294348129
 30
0.0
 11
405.01217444142742
 21
373.38174794348112
 31
0.0
  0
LINE
  5
8C4B
  8
0
 10
405.01217444142742
 20
455.44510294348129
 30
0.0
 11
405.01217444142742
 21
471.2751029434811
 31
0.0
  0
ARC
  5
8C4C
  8
0
 10
406.0115354414275
 20
362.23357194348142
 30
0.0
 40
1.0026319999999971
 50
0.054084999991942
 51
81.243759000000509
  0
LINE
  5
8C4D
  8
0
 10
406.16416744142731
 20
363.2245189434812
 30
0.0
 11
404.40536844142758
 21
363.49510294348119
 31
0.0
  0
LINE
  5
8C4E
  8
0
 10
406.15416744142709
 20
365.31451894348129
 30
0.0
 11
404.55147944142709
 21
365.09510294348109
 31
0.0
  0
ARC
  5
8C4F
  8
0
 10
406.00719944142747
 20
366.31072294348132
 30
0.0
 40
1.0069859999999999
 50
278.39216300000191
 51
359.64700200000118
  0
LINE
  5
8C50
  8
0
 10
407.0141674414275
 20
366.30451894348113
 30
0.0
 11
407.0141674414275
 21
362.23451894348142
 31
0.0
  0
ARC
  5
8C51
  8
0
 10
404.47081144142749
 20
364.28116294348138
 30
0.0
 40
0.8033630000000001
 50
0.2393300000044313
 51
89.760670000002094
  0
ARC
  5
8C52
  8
0
 10
404.46910544142747
 20
364.28958094348133
 30
0.0
 40
0.8050779999999997
 50
270.3602510000016
 51
359.63974900000488
  0
ARC
  5
8C53
  8
0
 10
406.00719944142747
 20
452.23948294348088
 30
0.0
 40
1.0069859999999999
 50
0.3529979999987895
 51
81.607836999998227
  0
LINE
  5
8C54
  8
0
 10
406.15416744142709
 20
453.23568694348108
 30
0.0
 11
404.55147944142709
 21
453.45510294348128
 31
0.0
  0
ARC
  5
8C55
  8
0
 10
406.0115354414275
 20
456.31663394348078
 30
0.0
 40
1.0026319999999971
 50
278.75624099999948
 51
359.94591499999501
  0
LINE
  5
8C56
  8
0
 10
407.0141674414275
 20
452.2456869434813
 30
0.0
 11
407.0141674414275
 21
456.31568694348101
 31
0.0
  0
LINE
  5
8C57
  8
0
 10
406.16416744142731
 20
455.32568694348129
 30
0.0
 11
404.40536844142758
 21
455.05510294348119
 31
0.0
  0
ARC
  5
8C58
  8
0
 10
404.47081144142749
 20
454.26904294348083
 30
0.0
 40
0.8033630000000001
 50
270.23932999999789
 51
359.7606700000087
  0
ARC
  5
8C59
  8
0
 10
404.46910544142747
 20
454.2606249434811
 30
0.0
 40
0.8050779999999997
 50
0.3602509999951178
 51
89.639748999998375
  0
LINE
  5
8C5A
  8
0
 10
405.01217444142742
 20
447.13904794348127
 30
0.0
 11
415.01217444142748
 21
447.13904794348127
 31
0.0
  0
LINE
  5
8C5B
  8
0
 10
405.01217444142742
 20
371.42115794348138
 30
0.0
 11
415.01217444142748
 21
371.42115794348138
 31
0.0
  0
LINE
  5
8C5C
  8
0
 10
397.01217444142748
 20
383.17510294348131
 30
0.0
 11
406.4221744414275
 21
383.17510294348131
 31
0.0
  0
LINE
  5
8C5D
  8
0
 10
393.10377144142751
 20
385.35510294348109
 30
0.0
 11
406.51739144142749
 21
385.35510294348109
 31
0.0
  0
LINE
  5
8C5E
  8
0
 10
393.01217444142748
 20
405.28510294348121
 30
0.0
 11
406.0060874414275
 21
405.28510294348121
 31
0.0
  0
LINE
  5
8C5F
  8
0
 10
397.01217444142748
 20
375.42510294348131
 30
0.0
 11
406.51739144142749
 21
375.42510294348131
 31
0.0
  0
LINE
  5
8C60
  8
0
 10
323.16217444142751
 20
365.44510294348129
 30
0.0
 11
406.52171344142738
 21
365.44510294348129
 31
0.0
  0
LINE
  5
8C61
  8
0
 10
243.0121744414275
 20
455.44510294348129
 30
0.0
 11
406.50722244142759
 21
455.44510294348129
 31
0.0
  0
LINE
  5
8C62
  8
0
 10
397.01217444142748
 20
443.12510294348112
 30
0.0
 11
406.51739144142749
 21
443.12510294348112
 31
0.0
  0
LINE
  5
8C63
  8
0
 10
393.01217444142748
 20
413.26510294348111
 30
0.0
 11
406.0060874414275
 21
413.26510294348111
 31
0.0
  0
LINE
  5
8C64
  8
0
 10
393.10377144142751
 20
433.19510294348117
 30
0.0
 11
406.51739144142749
 21
433.19510294348117
 31
0.0
  0
LINE
  5
8C65
  8
0
 10
397.01217444142748
 20
435.37510294348101
 30
0.0
 11
406.4221744414275
 21
435.37510294348101
 31
0.0
  0
ARC
  5
8C66
  8
0
 10
402.61218344142748
 20
463.58407694348108
 30
0.0
 40
2.2000009999999981
 50
180.00000299999761
 51
269.99997799999852
  0
ARC
  5
8C67
  8
0
 10
402.61218344142748
 20
468.18408294348109
 30
0.0
 40
2.1999970000000002
 50
90.0
 51
179.99998200000081
  0
LINE
  5
8C68
  8
0
 10
405.01217444142742
 20
465.83463494348121
 30
0.0
 11
403.71217444142752
 21
465.0840799434813
 31
0.0
  0
LINE
  5
8C69
  8
0
 10
405.01217444142742
 20
466.83463494348121
 30
0.0
 11
403.71217444142752
 21
466.08407994348119
 31
0.0
  0
LINE
  5
8C6A
  8
0
 10
403.71217444142752
 20
470.48407994348122
 30
0.0
 11
405.01217444142742
 21
470.48407994348122
 31
0.0
  0
LINE
  5
8C6B
  8
0
 10
403.71217444142752
 20
461.28407994348112
 30
0.0
 11
405.01217444142742
 21
461.28407994348112
 31
0.0
  0
LINE
  5
8C6C
  8
0
 10
405.01217444142742
 20
470.48407994348122
 30
0.0
 11
405.01217444142742
 21
461.28407994348112
 31
0.0
  0
LINE
  5
8C6D
  8
0
 10
400.4121714414274
 20
468.18408294348109
 30
0.0
 11
400.4121714414274
 21
463.58407694348108
 31
0.0
  0
LINE
  5
8C6E
  8
0
 10
403.71217444142752
 20
470.48407994348122
 30
0.0
 11
403.71217444142752
 21
461.28407994348112
 31
0.0
  0
LINE
  5
8C6F
  8
0
 10
403.71217444142752
 20
461.38407994348091
 30
0.0
 11
402.61218344142748
 21
461.38407994348091
 31
0.0
  0
LINE
  5
8C70
  8
0
 10
403.71217444142752
 20
470.38407994348108
 30
0.0
 11
402.61218344142748
 21
470.38407994348108
 31
0.0
  0
LINE
  5
8C71
  8
0
 10
415.01217444142748
 20
335.77510294348122
 30
0.0
 11
415.01217444142748
 21
482.77504494348108
 31
0.0
  0
LINE
  5
8C72
  8
0
 10
406.01217444142748
 20
346.27510294348122
 30
0.0
 11
415.01217444142748
 21
346.27510294348122
 31
0.0
  0
LINE
  5
8C73
  8
0
 10
406.01217444142748
 20
335.77510294348122
 30
0.0
 11
415.01217444142748
 21
335.77510294348122
 31
0.0
  0
LINE
  5
8C74
  8
0
 10
406.01217444142748
 20
472.27510294348122
 30
0.0
 11
415.01217444142748
 21
472.27510294348122
 31
0.0
  0
LINE
  5
8C75
  8
0
 10
406.01217444142748
 20
482.77510294348122
 30
0.0
 11
415.01217444142748
 21
482.77510294348122
 31
0.0
  0
LINE
  5
8C76
  8
0
 10
115.3121744414275
 20
332.73191494348112
 30
0.0
 11
115.66572744142751
 21
333.08546794348132
 31
0.0
  0
LINE
  5
8C77
  8
0
 10
117.89085444142751
 20
330.15323494348121
 30
0.0
 11
115.3121744414275
 21
332.73191494348112
 31
0.0
  0
LINE
  5
8C78
  8
0
 10
118.2444074414275
 20
330.50678794348119
 30
0.0
 11
115.66572744142751
 21
333.08546794348132
 31
0.0
  0
ARC
  5
8C79
  8
0
 10
120.0121744414275
 20
332.27455494348129
 30
0.0
 40
3.0
 50
220.00000000000469
 51
33.557310000003177
  0
ARC
  5
8C7A
  8
0
 10
124.9620244414275
 20
346.47064694348143
 30
0.0
 40
2.249854
 50
179.8865100000088
 51
261.61639199999888
  0
ARC
  5
8C7B
  8
0
 10
213.0121744414275
 20
409.27510294348122
 30
0.0
 40
7.0
 50
16.601550000005041
 51
163.39844999999491
  0
ARC
  5
8C7C
  8
0
 10
213.0121744414275
 20
409.27510294348122
 30
0.0
 40
6.0
 50
19.47121999999958
 51
160.52877899999211
  0
LINE
  5
8C7D
  8
0
 10
206.0121744414275
 20
411.27510294348122
 30
0.0
 11
206.0121744414275
 21
411.77510294348122
 31
0.0
  0
LINE
  5
8C7E
  8
0
 10
222.0121744414275
 20
411.27510294348122
 30
0.0
 11
222.0121744414275
 21
411.77510294348122
 31
0.0
  0
LINE
  5
8C7F
  8
0
 10
222.0121744414275
 20
411.77510294348122
 30
0.0
 11
227.0121744414275
 21
411.77510294348122
 31
0.0
  0
LINE
  5
8C80
  8
0
 10
222.0121744414275
 20
411.27510294348122
 30
0.0
 11
206.0121744414275
 21
411.27510294348122
 31
0.0
  0
LINE
  5
8C81
  8
0
 10
227.0121744414275
 20
406.77510294348122
 30
0.0
 11
227.0121744414275
 21
411.77510294348122
 31
0.0
  0
LINE
  5
8C82
  8
0
 10
130.78217444142749
 20
411.67500594348121
 30
0.0
 11
130.78217444142749
 21
483.2951029434812
 31
0.0
  0
LINE
  5
8C83
  8
0
 10
126.71217444142751
 20
404.92126794348133
 30
0.0
 11
126.71217444142751
 21
345.90446294348112
 31
0.0
  0
ARC
  5
8C84
  8
0
 10
124.19645444142741
 20
341.27593394348128
 30
0.0
 40
3.0009689999999982
 50
9.9623180000057001
 51
81.616391999998939
  0
LINE
  5
8C85
  8
0
 10
222.0121744414275
 20
407.27510294348122
 30
0.0
 11
206.0121744414275
 21
407.27510294348122
 31
0.0
  0
LINE
  5
8C86
  8
0
 10
222.0121744414275
 20
406.77510294348122
 30
0.0
 11
227.0121744414275
 21
406.77510294348122
 31
0.0
  0
LINE
  5
8C87
  8
0
 10
222.0121744414275
 20
407.27510294348122
 30
0.0
 11
222.0121744414275
 21
406.77510294348122
 31
0.0
  0
ARC
  5
8C88
  8
0
 10
213.0121744414275
 20
409.27510294348122
 30
0.0
 40
7.0
 50
196.60154999999159
 51
343.39844999999502
  0
LINE
  5
8C89
  8
0
 10
206.0121744414275
 20
407.27510294348122
 30
0.0
 11
206.0121744414275
 21
406.77510294348122
 31
0.0
  0
ARC
  5
8C8A
  8
0
 10
213.0121744414275
 20
409.27510294348122
 30
0.0
 40
6.0
 50
199.4712209999945
 51
340.52878000000038
  0
LINE
  5
8C8B
  8
0
 10
206.0121744414275
 20
411.77510294348122
 30
0.0
 11
132.5121744414275
 21
411.77510294348122
 31
0.0
  0
LINE
  5
8C8C
  8
0
 10
206.0121744414275
 20
406.77510294348122
 30
0.0
 11
132.5121744414275
 21
406.77510294348122
 31
0.0
  0
ARC
  5
8C8D
  8
0
 10
132.5121744414275
 20
396.77510294348122
 30
0.0
 40
10.0
 50
90.0
 51
180.0
  0
ARC
  5
8C8E
  8
0
 10
132.5121744414275
 20
396.77510294348122
 30
0.0
 40
15.0
 50
90.0
 51
180.0
  0
ARC
  5
8C8F
  8
0
 10
120.0121744414275
 20
332.27455494348129
 30
0.0
 40
2.5
 50
180.0
 51
0.0
  0
LINE
  5
8C90
  8
0
 10
117.5121744414275
 20
332.27455494348129
 30
0.0
 11
117.5121744414275
 21
396.77510294348122
 31
0.0
  0
LINE
  5
8C91
  8
0
 10
122.5121744414275
 20
332.27455494348129
 30
0.0
 11
122.5121744414275
 21
396.77510294348122
 31
0.0
  0
LINE
  5
8C92
  8
0
 10
406.15217444142752
 20
413.24510294348119
 30
0.0
 11
404.71217444142729
 21
413.44224594348123
 31
0.0
  0
LINE
  5
8C93
  8
0
 10
406.16217444142728
 20
415.3351029434811
 30
0.0
 11
404.71217444142729
 21
415.112025943481
 31
0.0
  0
LINE
  5
8C94
  8
0
 10
407.01217444142748
 20
412.25510294348118
 30
0.0
 11
407.01217444142748
 21
416.32510294348089
 31
0.0
  0
LINE
  5
8C95
  8
0
 10
406.15217444142752
 20
423.24510294348119
 30
0.0
 11
404.71217444142729
 21
423.44224594348128
 31
0.0
  0
LINE
  5
8C96
  8
0
 10
406.16217444142728
 20
425.3351029434811
 30
0.0
 11
404.71217444142729
 21
425.11202594348077
 31
0.0
  0
LINE
  5
8C97
  8
0
 10
407.01217444142748
 20
422.25510294348118
 30
0.0
 11
407.01217444142748
 21
426.32510294348111
 31
0.0
  0
LINE
  5
8C98
  8
0
 10
406.16217444142728
 20
435.3351029434811
 30
0.0
 11
404.71217444142729
 21
435.112025943481
 31
0.0
  0
LINE
  5
8C99
  8
0
 10
406.15217444142752
 20
433.24510294348119
 30
0.0
 11
404.71217444142729
 21
433.44224594348111
 31
0.0
  0
LINE
  5
8C9A
  8
0
 10
407.01217444142748
 20
432.25510294348118
 30
0.0
 11
407.01217444142748
 21
436.32510294348111
 31
0.0
  0
ARC
  5
8C9B
  8
0
 10
404.4637794414275
 20
414.27510294348122
 30
0.0
 40
0.8000439999999999
 50
288.0879409999975
 51
71.912059000002486
  0
ARC
  5
8C9C
  8
0
 10
406.00954244142753
 20
416.32604894348111
 30
0.0
 40
1.0026319999999971
 50
278.75624099999948
 51
359.94591499999501
  0
ARC
  5
8C9D
  8
0
 10
406.0052074414275
 20
412.24889894348121
 30
0.0
 40
1.0069859999999999
 50
0.3529979999987895
 51
81.607836999998227
  0
ARC
  5
8C9E
  8
0
 10
404.4671124414275
 20
424.27004094348121
 30
0.0
 40
0.8050779999999997
 50
0.3602509999951178
 51
72.278209999997259
  0
ARC
  5
8C9F
  8
0
 10
406.00954244142753
 20
426.32604894348123
 30
0.0
 40
1.0026319999999971
 50
278.75624099999948
 51
359.94591499999501
  0
ARC
  5
8CA0
  8
0
 10
406.0052074414275
 20
422.24889894348121
 30
0.0
 40
1.0069859999999999
 50
0.3529979999987895
 51
81.607836999998227
  0
ARC
  5
8CA1
  8
0
 10
404.46881844142729
 20
434.27845894348121
 30
0.0
 40
0.8033630000000001
 50
287.63315000000222
 51
359.7606700000087
  0
ARC
  5
8CA2
  8
0
 10
404.4671124414275
 20
434.27004094348121
 30
0.0
 40
0.8050779999999997
 50
0.3602509999951178
 51
72.278209999997259
  0
ARC
  5
8CA3
  8
0
 10
406.0052074414275
 20
432.24889894348121
 30
0.0
 40
1.0069859999999999
 50
0.3529979999987895
 51
81.607836999998227
  0
ARC
  5
8CA4
  8
0
 10
406.00954244142753
 20
436.32604894348128
 30
0.0
 40
1.0026319999999971
 50
278.75624099999948
 51
359.94591499999501
  0
ARC
  5
8CA5
  8
0
 10
404.46881844142729
 20
424.2784589434811
 30
0.0
 40
0.8033630000000001
 50
287.63315000000222
 51
359.7606700000087
  0
ARC
  5
8CA6
  8
0
 10
406.00719944142747
 20
442.2594829434808
 30
0.0
 40
1.0069859999999999
 50
0.3529979999987895
 51
81.607836999998227
  0
ARC
  5
8CA7
  8
0
 10
406.0115354414275
 20
446.33663394348122
 30
0.0
 40
1.0026319999999971
 50
278.75624099999948
 51
359.94591499999501
  0
LINE
  5
8CA8
  8
0
 10
407.0141674414275
 20
442.26568694348123
 30
0.0
 11
407.0141674414275
 21
446.33568694348128
 31
0.0
  0
ARC
  5
8CA9
  8
0
 10
404.46910544142747
 20
444.28062494348109
 30
0.0
 40
0.8050779999999997
 50
0.3602509999951178
 51
72.278209999997259
  0
LINE
  5
8CAA
  8
0
 10
406.16416744142731
 20
445.34568694348133
 30
0.0
 11
404.71416744142749
 21
445.12260994348111
 31
0.0
  0
ARC
  5
8CAB
  8
0
 10
404.47081144142749
 20
444.28904294348121
 30
0.0
 40
0.8033630000000001
 50
287.63315000000222
 51
359.7606700000087
  0
LINE
  5
8CAC
  8
0
 10
406.15416744142709
 20
443.25568694348112
 30
0.0
 11
404.71416744142749
 21
443.45282994348122
 31
0.0
  0
LINE
  5
8CAD
  8
0
 10
404.71217444142729
 20
413.4751029434812
 30
0.0
 11
393.01217444142748
 21
413.4751029434812
 31
0.0
  0
LINE
  5
8CAE
  8
0
 10
404.71217444142729
 20
415.07510294348111
 30
0.0
 11
392.51217444142748
 21
415.07510294348111
 31
0.0
  0
LINE
  5
8CAF
  8
0
 10
406.16217444142728
 20
415.29510294348108
 30
0.0
 11
392.51217444142748
 21
415.29510294348108
 31
0.0
  0
LINE
  5
8CB0
  8
0
 10
404.71217444142729
 20
423.4751029434812
 30
0.0
 11
392.51217444142748
 21
423.4751029434812
 31
0.0
  0
LINE
  5
8CB1
  8
0
 10
404.71217444142729
 20
425.07510294348123
 30
0.0
 11
392.51217444142748
 21
425.07510294348123
 31
0.0
  0
LINE
  5
8CB2
  8
0
 10
406.15217444142752
 20
423.24510294348119
 30
0.0
 11
392.51217444142748
 21
423.24510294348119
 31
0.0
  0
LINE
  5
8CB3
  8
0
 10
406.06765944142751
 20
425.32510294348111
 30
0.0
 11
392.51217444142748
 21
425.32510294348111
 31
0.0
  0
LINE
  5
8CB4
  8
0
 10
404.71217444142729
 20
445.07510294348111
 30
0.0
 11
395.88395444142748
 21
445.07510294348111
 31
0.0
  0
LINE
  5
8CB5
  8
0
 10
404.71217444142729
 20
443.47510294348132
 30
0.0
 11
397.0021494414276
 21
443.47510294348132
 31
0.0
  0
LINE
  5
8CB6
  8
0
 10
404.71217444142729
 20
435.07510294348089
 30
0.0
 11
397.01217444142748
 21
435.07510294348089
 31
0.0
  0
LINE
  5
8CB7
  8
0
 10
404.71217444142729
 20
433.47510294348109
 30
0.0
 11
393.45860944142748
 21
433.47510294348109
 31
0.0
  0
LINE
  5
8CB8
  8
0
 10
404.92461844142753
 20
481.68754694348121
 30
0.0
 11
405.01217444142742
 21
481.77510294348122
 31
0.0
  0
LINE
  5
8CB9
  8
0
 10
405.01217444142742
 20
481.78009694348111
 30
0.0
 11
405.01217444142742
 21
481.77510294348122
 31
0.0
  0
ARC
  5
8CBA
  8
0
 10
406.00967744142753
 20
481.77759994348111
 30
0.0
 40
0.9975059999999999
 50
89.856577999996375
 51
180.14342199999061
  0
LINE
  5
8CBB
  8
0
 10
405.01217444142742
 20
481.77510294348122
 30
0.0
 11
405.01217444142742
 21
481.36078594348118
 31
0.0
  0
LINE
  5
8CBC
  8
0
 10
403.51217444142748
 20
460.1761529434811
 30
0.0
 11
403.51217444142748
 21
455.44510294348129
 31
0.0
  0
LINE
  5
8CBD
  8
0
 10
405.01217444142742
 20
445.16845794348143
 30
0.0
 11
405.01217444142742
 21
453.10510294348109
 31
0.0
  0
LINE
  5
8CBE
  8
0
 10
403.51217444142748
 20
460.1761529434811
 30
0.0
 11
403.62832944142752
 21
461.38407994348091
 31
0.0
  0
LINE
  5
8CBF
  8
0
 10
403.51217444142748
 20
453.10510294348109
 30
0.0
 11
403.51217444142748
 21
445.46510294348121
 31
0.0
  0
LINE
  5
8CC0
  8
0
 10
253.0121744414275
 20
453.45510294348128
 30
0.0
 11
404.55147944142709
 21
453.45510294348128
 31
0.0
  0
LINE
  5
8CC1
  8
0
 10
243.0121744414275
 20
460.1761529434811
 30
0.0
 11
403.51217444142748
 21
460.1761529434811
 31
0.0
  0
LINE
  5
8CC2
  8
0
 10
255.0121744414275
 20
477.77510294348122
 30
0.0
 11
404.00379944142747
 21
477.77510294348122
 31
0.0
  0
LINE
  5
8CC3
  8
0
 10
338.01217444142748
 20
487.13730094348119
 30
0.0
 11
338.01217444142748
 21
486.17126794348133
 31
0.0
  0
ARC
  5
8CC4
  8
0
 10
336.01217444142748
 20
485.70467194348112
 30
0.0
 40
2.0
 50
13.49131100000157
 51
90.0
  0
ARC
  5
8CC5
  8
0
 10
336.01217444142748
 20
486.71002294348142
 30
0.0
 40
2.0
 50
0.0
 51
90.0
  0
ARC
  5
8CC6
  8
0
 10
336.01217444142748
 20
487.13730094348119
 30
0.0
 40
2.0
 50
0.0
 51
90.0
  0
LINE
  5
8CC7
  8
0
 10
323.16217444142751
 20
453.10510294348109
 30
0.0
 11
406.52171344142738
 21
453.10510294348109
 31
0.0
  0
LINE
  5
8CC8
  8
0
 10
285.6721744414275
 20
435.07510294348089
 30
0.0
 11
307.51217444142748
 21
435.07510294348089
 31
0.0
  0
LINE
  5
8CC9
  8
0
 10
285.10217444142762
 20
433.47510294348109
 30
0.0
 11
307.51217444142748
 21
433.47510294348109
 31
0.0
  0
LINE
  5
8CCA
  8
0
 10
282.14217444142753
 20
423.4751029434812
 30
0.0
 11
308.01217444142748
 21
423.4751029434812
 31
0.0
  0
LINE
  5
8CCB
  8
0
 10
282.50217444142748
 20
425.07510294348123
 30
0.0
 11
308.01217444142748
 21
425.07510294348123
 31
0.0
  0
LINE
  5
8CCC
  8
0
 10
281.66217444142751
 20
413.4751029434812
 30
0.0
 11
308.01217444142748
 21
413.4751029434812
 31
0.0
  0
LINE
  5
8CCD
  8
0
 10
281.5521744414275
 20
415.07510294348111
 30
0.0
 11
308.01217444142748
 21
415.07510294348111
 31
0.0
  0
LINE
  5
8CCE
  8
0
 10
281.68217444142749
 20
413.26510294348111
 30
0.0
 11
308.01217444142748
 21
413.26510294348111
 31
0.0
  0
LINE
  5
8CCF
  8
0
 10
281.54217444142751
 20
415.29510294348108
 30
0.0
 11
308.01217444142748
 21
415.29510294348108
 31
0.0
  0
LINE
  5
8CD0
  8
0
 10
282.09217444142757
 20
423.24510294348119
 30
0.0
 11
308.01217444142748
 21
423.24510294348119
 31
0.0
  0
LINE
  5
8CD1
  8
0
 10
282.56217444142749
 20
425.32510294348111
 30
0.0
 11
308.01217444142748
 21
425.32510294348111
 31
0.0
  0
LINE
  5
8CD2
  8
0
 10
285.00217444142748
 20
433.19510294348117
 30
0.0
 11
307.51217444142748
 21
433.19510294348117
 31
0.0
  0
LINE
  5
8CD3
  8
0
 10
285.78217444142751
 20
435.37510294348101
 30
0.0
 11
307.51217444142748
 21
435.37510294348101
 31
0.0
  0
LINE
  5
8CD4
  8
0
 10
253.0121744414275
 20
474.63102194348119
 30
0.0
 11
253.0121744414275
 21
475.77510294348122
 31
0.0
  0
ARC
  5
8CD5
  8
0
 10
251.0121744414275
 20
474.63102194348119
 30
0.0
 40
2.0
 50
270.0
 51
0.0
  0
ARC
  5
8CD6
  8
0
 10
255.0121744414275
 20
475.77510294348122
 30
0.0
 40
2.0
 50
90.0
 51
180.0
  0
LINE
  5
8CD7
  8
0
 10
253.0121744414275
 20
474.63102194348119
 30
0.0
 11
253.0121744414275
 21
462.1761529434811
 31
0.0
  0
ARC
  5
8CD8
  8
0
 10
251.0121744414275
 20
462.1761529434811
 30
0.0
 40
2.0
 50
270.0
 51
0.0
  0
LINE
  5
8CD9
  8
0
 10
253.0121744414275
 20
480.8034699434811
 30
0.0
 11
253.0121744414275
 21
484.17126794348121
 31
0.0
  0
ARC
  5
8CDA
  8
0
 10
251.0121744414275
 20
480.8034699434811
 30
0.0
 40
2.0
 50
270.0
 51
0.0
  0
ARC
  5
8CDB
  8
0
 10
255.0121744414275
 20
484.17126794348121
 30
0.0
 40
2.0
 50
90.0
 51
180.0
  0
ARC
  5
8CDC
  8
0
 10
251.0121744414275
 20
485.15945894348118
 30
0.0
 40
2.0
 50
270.0
 51
0.0
  0
ARC
  5
8CDD
  8
0
 10
255.0121744414275
 20
485.70467194348112
 30
0.0
 40
2.0
 50
90.0
 51
180.0
  0
ARC
  5
8CDE
  8
0
 10
251.0121744414275
 20
487.79709794348122
 30
0.0
 40
2.0
 50
270.0
 51
344.23045300000013
  0
ARC
  5
8CDF
  8
0
 10
254.86162444142761
 20
486.71002294348142
 30
0.0
 40
2.0
 50
90.0
 51
164.2304530000001
  0
LINE
  5
8CE0
  8
0
 10
253.0121744414275
 20
485.15945894348118
 30
0.0
 11
253.0121744414275
 21
485.70467194348112
 31
0.0
  0
ARC
  5
8CE1
  8
0
 10
255.0121744414275
 20
487.13730094348119
 30
0.0
 40
2.0
 50
90.0
 51
180.0
  0
LINE
  5
8CE2
  8
0
 10
253.0121744414275
 20
455.20643494348133
 30
0.0
 11
253.0121744414275
 21
438.55665994348118
 31
0.0
  0
LINE
  5
8CE3
  8
0
 10
253.0121744414275
 20
445.07510294348111
 30
0.0
 11
310.33986644142749
 21
445.07510294348111
 31
0.0
  0
LINE
  5
8CE4
  8
0
 10
253.0121744414275
 20
443.47510294348132
 30
0.0
 11
308.44972844142751
 21
443.47510294348132
 31
0.0
  0
LINE
  5
8CE5
  8
0
 10
253.0121744414275
 20
443.12510294348112
 30
0.0
 11
308.28054744142747
 21
443.12510294348112
 31
0.0
  0
LINE
  5
8CE6
  8
0
 10
253.0121744414275
 20
445.46510294348121
 30
0.0
 11
405.01217444142742
 21
445.46510294348121
 31
0.0
  0
LINE
  5
8CE7
  8
0
 10
285.78217444142751
 20
435.37510294348101
 30
0.0
 11
243.0121744414275
 21
435.37510294348101
 31
0.0
  0
LINE
  5
8CE8
  8
0
 10
285.00217444142748
 20
433.19510294348117
 30
0.0
 11
243.0121744414275
 21
433.19510294348117
 31
0.0
  0
LINE
  5
8CE9
  8
0
 10
282.56217444142749
 20
425.32510294348111
 30
0.0
 11
243.0121744414275
 21
425.32510294348111
 31
0.0
  0
LINE
  5
8CEA
  8
0
 10
282.09217444142757
 20
423.24510294348119
 30
0.0
 11
243.0121744414275
 21
423.24510294348119
 31
0.0
  0
LINE
  5
8CEB
  8
0
 10
281.54217444142751
 20
415.29510294348108
 30
0.0
 11
243.0121744414275
 21
415.29510294348108
 31
0.0
  0
LINE
  5
8CEC
  8
0
 10
281.68217444142749
 20
413.26510294348111
 30
0.0
 11
243.0121744414275
 21
413.26510294348111
 31
0.0
  0
LINE
  5
8CED
  8
0
 10
285.6721744414275
 20
435.07510294348089
 30
0.0
 11
243.0121744414275
 21
435.07510294348089
 31
0.0
  0
LINE
  5
8CEE
  8
0
 10
285.10217444142762
 20
433.47510294348109
 30
0.0
 11
243.0121744414275
 21
433.47510294348109
 31
0.0
  0
LINE
  5
8CEF
  8
0
 10
282.50217444142748
 20
425.07510294348123
 30
0.0
 11
243.0121744414275
 21
425.07510294348123
 31
0.0
  0
LINE
  5
8CF0
  8
0
 10
282.14217444142753
 20
423.4751029434812
 30
0.0
 11
243.0121744414275
 21
423.4751029434812
 31
0.0
  0
LINE
  5
8CF1
  8
0
 10
281.5521744414275
 20
415.07510294348111
 30
0.0
 11
243.0121744414275
 21
415.07510294348111
 31
0.0
  0
LINE
  5
8CF2
  8
0
 10
281.66217444142751
 20
413.4751029434812
 30
0.0
 11
243.0121744414275
 21
413.4751029434812
 31
0.0
  0
LINE
  5
8CF3
  8
0
 10
253.0121744414275
 20
455.05510294348119
 30
0.0
 11
404.40536844142758
 21
455.05510294348119
 31
0.0
  0
LINE
  5
8CF4
  8
0
 10
253.0121744414275
 20
453.10510294348109
 30
0.0
 11
323.16217444142751
 21
453.10510294348109
 31
0.0
  0
LINE
  5
8CF5
  8
0
 10
255.0121744414275
 20
486.17126794348133
 30
0.0
 11
402.18855544142752
 21
486.17126794348133
 31
0.0
  0
LINE
  5
8CF6
  8
0
 10
255.0121744414275
 20
487.70467194348112
 30
0.0
 11
336.01217444142748
 21
487.70467194348112
 31
0.0
  0
LINE
  5
8CF7
  8
0
 10
254.86162444142761
 20
488.71002294348131
 30
0.0
 11
336.01217444142748
 21
488.71002294348131
 31
0.0
  0
LINE
  5
8CF8
  8
0
 10
255.0121744414275
 20
489.13730094348108
 30
0.0
 11
336.01217444142748
 21
489.13730094348108
 31
0.0
  0
LINE
  5
8CF9
  8
0
 10
243.0121744414275
 20
438.55665994348118
 30
0.0
 11
253.0121744414275
 21
438.55665994348118
 31
0.0
  0
LINE
  5
8CFA
  8
0
 10
243.0121744414275
 20
444.27510294348122
 30
0.0
 11
253.0121744414275
 21
444.27510294348122
 31
0.0
  0
LINE
  5
8CFB
  8
0
 10
243.0121744414275
 20
454.7951029434812
 30
0.0
 11
253.0121744414275
 21
454.7951029434812
 31
0.0
  0
LINE
  5
8CFC
  8
0
 10
243.0121744414275
 20
455.20643494348133
 30
0.0
 11
253.0121744414275
 21
455.20643494348133
 31
0.0
  0
LINE
  5
8CFD
  8
0
 10
251.0121744414275
 20
472.6310219434813
 30
0.0
 11
243.0121744414275
 21
472.6310219434813
 31
0.0
  0
LINE
  5
8CFE
  8
0
 10
251.0121744414275
 20
478.8034699434811
 30
0.0
 11
243.0121744414275
 21
478.8034699434811
 31
0.0
  0
LINE
  5
8CFF
  8
0
 10
251.0121744414275
 20
483.15945894348118
 30
0.0
 11
243.0121744414275
 21
483.15945894348118
 31
0.0
  0
LINE
  5
8D00
  8
0
 10
251.0121744414275
 20
485.79709794348128
 30
0.0
 11
243.0121744414275
 21
485.79709794348128
 31
0.0
  0
LINE
  5
8D01
  8
0
 10
285.6721744414275
 20
383.4751029434812
 30
0.0
 11
307.51217444142748
 21
383.4751029434812
 31
0.0
  0
LINE
  5
8D02
  8
0
 10
285.10217444142762
 20
385.07510294348123
 30
0.0
 11
307.51217444142748
 21
385.07510294348123
 31
0.0
  0
LINE
  5
8D03
  8
0
 10
282.14217444142753
 20
395.07510294348123
 30
0.0
 11
308.01217444142748
 21
395.07510294348123
 31
0.0
  0
LINE
  5
8D04
  8
0
 10
282.50217444142748
 20
393.47510294348132
 30
0.0
 11
308.01217444142748
 21
393.47510294348132
 31
0.0
  0
LINE
  5
8D05
  8
0
 10
281.66217444142751
 20
405.07510294348111
 30
0.0
 11
308.01217444142748
 21
405.07510294348111
 31
0.0
  0
LINE
  5
8D06
  8
0
 10
281.5521744414275
 20
403.47510294348109
 30
0.0
 11
308.01217444142748
 21
403.47510294348109
 31
0.0
  0
LINE
  5
8D07
  8
0
 10
281.68217444142749
 20
405.28510294348121
 30
0.0
 11
308.01217444142748
 21
405.28510294348121
 31
0.0
  0
LINE
  5
8D08
  8
0
 10
281.54217444142751
 20
403.25510294348118
 30
0.0
 11
308.01217444142748
 21
403.25510294348118
 31
0.0
  0
LINE
  5
8D09
  8
0
 10
282.09217444142757
 20
395.30510294348119
 30
0.0
 11
308.01217444142748
 21
395.30510294348119
 31
0.0
  0
LINE
  5
8D0A
  8
0
 10
282.56217444142749
 20
393.22510294348132
 30
0.0
 11
308.01217444142748
 21
393.22510294348132
 31
0.0
  0
LINE
  5
8D0B
  8
0
 10
285.00217444142748
 20
385.35510294348109
 30
0.0
 11
307.51217444142748
 21
385.35510294348109
 31
0.0
  0
LINE
  5
8D0C
  8
0
 10
285.78217444142751
 20
383.17510294348131
 30
0.0
 11
307.51217444142748
 21
383.17510294348131
 31
0.0
  0
LINE
  5
8D0D
  8
0
 10
405.01217444142742
 20
347.27510294348122
 30
0.0
 11
405.01217444142742
 21
363.10510294348109
 31
0.0
  0
LINE
  5
8D0E
  8
0
 10
406.15416744142709
 20
375.29451894348131
 30
0.0
 11
404.71416744142749
 21
375.09737594348121
 31
0.0
  0
ARC
  5
8D0F
  8
0
 10
404.47081144142749
 20
374.26116294348122
 30
0.0
 40
0.8033630000000001
 50
0.2393300000044313
 51
72.366849999997839
  0
LINE
  5
8D10
  8
0
 10
406.16416744142731
 20
373.20451894348122
 30
0.0
 11
404.71416744142749
 21
373.42759594348132
 31
0.0
  0
ARC
  5
8D11
  8
0
 10
404.46910544142747
 20
374.26958094348129
 30
0.0
 40
0.8050779999999997
 50
287.7217900000029
 51
359.63974900000488
  0
LINE
  5
8D12
  8
0
 10
407.0141674414275
 20
376.28451894348109
 30
0.0
 11
407.0141674414275
 21
372.21451894348121
 31
0.0
  0
ARC
  5
8D13
  8
0
 10
406.0115354414275
 20
372.2135719434811
 30
0.0
 40
1.0026319999999971
 50
0.054084999991942
 51
81.243759000000509
  0
ARC
  5
8D14
  8
0
 10
406.00719944142747
 20
376.2907229434814
 30
0.0
 40
1.0069859999999999
 50
278.39216300000191
 51
359.64700200000118
  0
LINE
  5
8D15
  8
0
 10
403.51217444142748
 20
358.37405294348127
 30
0.0
 11
403.62832944142752
 21
357.16612694348117
 31
0.0
  0
LINE
  5
8D16
  8
0
 10
403.51217444142748
 20
358.37405294348127
 30
0.0
 11
403.51217444142748
 21
363.10510294348109
 31
0.0
  0
LINE
  5
8D17
  8
0
 10
403.51217444142748
 20
365.44510294348129
 30
0.0
 11
403.51217444142748
 21
373.08510294348122
 31
0.0
  0
LINE
  5
8D18
  8
0
 10
405.01217444142742
 20
336.77510294348122
 30
0.0
 11
405.01217444142742
 21
337.1894199434812
 31
0.0
  0
ARC
  5
8D19
  8
0
 10
406.00967744142753
 20
336.77260594348132
 30
0.0
 40
0.9975059999999999
 50
179.85657799999629
 51
270.14342199999709
  0
ARC
  5
8D1A
  8
0
 10
404.46881844142729
 20
394.27174694348128
 30
0.0
 40
0.8033630000000001
 50
0.2393300000044313
 51
72.366849999997839
  0
ARC
  5
8D1B
  8
0
 10
406.00954244142753
 20
382.22415694348138
 30
0.0
 40
1.0026319999999971
 50
0.054084999991942
 51
81.243759000000509
  0
ARC
  5
8D1C
  8
0
 10
406.0052074414275
 20
386.30130694348122
 30
0.0
 40
1.0069859999999999
 50
278.39216300000191
 51
359.64700200000118
  0
ARC
  5
8D1D
  8
0
 10
404.4671124414275
 20
384.28016494348122
 30
0.0
 40
0.8050779999999997
 50
287.7217900000029
 51
359.63974900000488
  0
ARC
  5
8D1E
  8
0
 10
404.46881844142729
 20
384.27174694348122
 30
0.0
 40
0.8033630000000001
 50
0.2393300000044313
 51
72.366849999997839
  0
ARC
  5
8D1F
  8
0
 10
406.0052074414275
 20
396.30130694348122
 30
0.0
 40
1.0069859999999999
 50
278.39216300000191
 51
359.64700200000118
  0
ARC
  5
8D20
  8
0
 10
406.00954244142753
 20
392.22415694348109
 30
0.0
 40
1.0026319999999971
 50
0.054084999991942
 51
81.243759000000509
  0
ARC
  5
8D21
  8
0
 10
404.4671124414275
 20
394.28016494348122
 30
0.0
 40
0.8050779999999997
 50
287.7217900000029
 51
359.63974900000488
  0
ARC
  5
8D22
  8
0
 10
406.0052074414275
 20
406.30130694348122
 30
0.0
 40
1.0069859999999999
 50
278.39216300000191
 51
359.64700200000118
  0
ARC
  5
8D23
  8
0
 10
406.00954244142753
 20
402.22415694348109
 30
0.0
 40
1.0026319999999971
 50
0.054084999991942
 51
81.243759000000509
  0
ARC
  5
8D24
  8
0
 10
404.4637794414275
 20
404.2751029434811
 30
0.0
 40
0.8000439999999999
 50
288.0879409999975
 51
71.912059000002486
  0
LINE
  5
8D25
  8
0
 10
407.01217444142748
 20
386.2951029434812
 30
0.0
 11
407.01217444142748
 21
382.22510294348132
 31
0.0
  0
LINE
  5
8D26
  8
0
 10
406.15217444142752
 20
385.30510294348119
 30
0.0
 11
404.71217444142729
 21
385.10795994348109
 31
0.0
  0
LINE
  5
8D27
  8
0
 10
406.16217444142728
 20
383.21510294348133
 30
0.0
 11
404.71217444142729
 21
383.43817994348137
 31
0.0
  0
LINE
  5
8D28
  8
0
 10
407.01217444142748
 20
396.2951029434812
 30
0.0
 11
407.01217444142748
 21
392.2251029434812
 31
0.0
  0
LINE
  5
8D29
  8
0
 10
406.16217444142728
 20
393.21510294348133
 30
0.0
 11
404.71217444142729
 21
393.43817994348137
 31
0.0
  0
LINE
  5
8D2A
  8
0
 10
406.15217444142752
 20
395.30510294348119
 30
0.0
 11
404.71217444142729
 21
395.10795994348121
 31
0.0
  0
LINE
  5
8D2B
  8
0
 10
407.01217444142748
 20
406.29510294348108
 30
0.0
 11
407.01217444142748
 21
402.22510294348109
 31
0.0
  0
LINE
  5
8D2C
  8
0
 10
406.16217444142728
 20
403.21510294348121
 30
0.0
 11
404.71217444142729
 21
403.43817994348137
 31
0.0
  0
LINE
  5
8D2D
  8
0
 10
406.15217444142752
 20
405.30510294348102
 30
0.0
 11
404.71217444142729
 21
405.10795994348081
 31
0.0
  0
LINE
  5
8D2E
  8
0
 10
405.01217444142742
 20
336.77010894348132
 30
0.0
 11
405.01217444142742
 21
336.77510294348122
 31
0.0
  0
LINE
  5
8D2F
  8
0
 10
404.92461844142753
 20
336.86265894348111
 30
0.0
 11
405.01217444142742
 21
336.77510294348122
 31
0.0
  0
LINE
  5
8D30
  8
0
 10
404.71217444142729
 20
405.07510294348111
 30
0.0
 11
393.01217444142748
 21
405.07510294348111
 31
0.0
  0
LINE
  5
8D31
  8
0
 10
404.71217444142729
 20
403.47510294348109
 30
0.0
 11
392.51217444142748
 21
403.47510294348109
 31
0.0
  0
LINE
  5
8D32
  8
0
 10
406.16217444142728
 20
403.25510294348118
 30
0.0
 11
392.51217444142748
 21
403.25510294348118
 31
0.0
  0
LINE
  5
8D33
  8
0
 10
404.71217444142729
 20
395.07510294348123
 30
0.0
 11
392.51217444142748
 21
395.07510294348123
 31
0.0
  0
LINE
  5
8D34
  8
0
 10
404.71217444142729
 20
393.47510294348132
 30
0.0
 11
392.51217444142748
 21
393.47510294348132
 31
0.0
  0
LINE
  5
8D35
  8
0
 10
406.15217444142752
 20
395.30510294348119
 30
0.0
 11
392.51217444142748
 21
395.30510294348119
 31
0.0
  0
LINE
  5
8D36
  8
0
 10
406.06765944142751
 20
393.22510294348132
 30
0.0
 11
392.51217444142748
 21
393.22510294348132
 31
0.0
  0
LINE
  5
8D37
  8
0
 10
404.71217444142729
 20
373.4751029434812
 30
0.0
 11
395.88395444142748
 21
373.4751029434812
 31
0.0
  0
LINE
  5
8D38
  8
0
 10
404.71217444142729
 20
375.07510294348123
 30
0.0
 11
397.0021494414276
 21
375.07510294348123
 31
0.0
  0
LINE
  5
8D39
  8
0
 10
404.71217444142729
 20
383.4751029434812
 30
0.0
 11
397.01217444142748
 21
383.4751029434812
 31
0.0
  0
LINE
  5
8D3A
  8
0
 10
404.71217444142729
 20
385.07510294348123
 30
0.0
 11
393.45860944142748
 21
385.07510294348123
 31
0.0
  0
LINE
  5
8D3B
  8
0
 10
253.0121744414275
 20
363.49510294348119
 30
0.0
 11
404.40536844142758
 21
363.49510294348119
 31
0.0
  0
LINE
  5
8D3C
  8
0
 10
243.0121744414275
 20
358.37405294348127
 30
0.0
 11
403.51217444142748
 21
358.37405294348127
 31
0.0
  0
LINE
  5
8D3D
  8
0
 10
253.0121744414275
 20
363.34377094348122
 30
0.0
 11
253.0121744414275
 21
379.99354594348119
 31
0.0
  0
ARC
  5
8D3E
  8
0
 10
251.0121744414275
 20
356.37405294348127
 30
0.0
 40
2.0
 50
0.0
 51
90.0
  0
LINE
  5
8D3F
  8
0
 10
253.0121744414275
 20
343.91918394348107
 30
0.0
 11
253.0121744414275
 21
356.37405294348127
 31
0.0
  0
ARC
  5
8D40
  8
0
 10
255.0121744414275
 20
342.77510294348122
 30
0.0
 40
2.0
 50
180.0
 51
270.0
  0
ARC
  5
8D41
  8
0
 10
251.0121744414275
 20
343.91918394348107
 30
0.0
 40
2.0
 50
0.0
 51
90.0
  0
LINE
  5
8D42
  8
0
 10
253.0121744414275
 20
343.91918394348107
 30
0.0
 11
253.0121744414275
 21
342.77510294348122
 31
0.0
  0
LINE
  5
8D43
  8
0
 10
253.0121744414275
 20
373.4751029434812
 30
0.0
 11
310.33986644142749
 21
373.4751029434812
 31
0.0
  0
LINE
  5
8D44
  8
0
 10
253.0121744414275
 20
375.07510294348123
 30
0.0
 11
308.44972844142751
 21
375.07510294348123
 31
0.0
  0
LINE
  5
8D45
  8
0
 10
253.0121744414275
 20
375.42510294348131
 30
0.0
 11
308.28054744142747
 21
375.42510294348131
 31
0.0
  0
LINE
  5
8D46
  8
0
 10
253.0121744414275
 20
373.08510294348122
 30
0.0
 11
405.01217444142742
 21
373.08510294348122
 31
0.0
  0
LINE
  5
8D47
  8
0
 10
285.78217444142751
 20
383.17510294348131
 30
0.0
 11
243.0121744414275
 21
383.17510294348131
 31
0.0
  0
LINE
  5
8D48
  8
0
 10
285.00217444142748
 20
385.35510294348109
 30
0.0
 11
243.0121744414275
 21
385.35510294348109
 31
0.0
  0
LINE
  5
8D49
  8
0
 10
282.56217444142749
 20
393.22510294348132
 30
0.0
 11
243.0121744414275
 21
393.22510294348132
 31
0.0
  0
LINE
  5
8D4A
  8
0
 10
282.09217444142757
 20
395.30510294348119
 30
0.0
 11
243.0121744414275
 21
395.30510294348119
 31
0.0
  0
LINE
  5
8D4B
  8
0
 10
281.54217444142751
 20
403.25510294348118
 30
0.0
 11
243.0121744414275
 21
403.25510294348118
 31
0.0
  0
LINE
  5
8D4C
  8
0
 10
281.68217444142749
 20
405.28510294348121
 30
0.0
 11
243.0121744414275
 21
405.28510294348121
 31
0.0
  0
LINE
  5
8D4D
  8
0
 10
285.6721744414275
 20
383.4751029434812
 30
0.0
 11
243.0121744414275
 21
383.4751029434812
 31
0.0
  0
LINE
  5
8D4E
  8
0
 10
285.10217444142762
 20
385.07510294348123
 30
0.0
 11
243.0121744414275
 21
385.07510294348123
 31
0.0
  0
LINE
  5
8D4F
  8
0
 10
282.50217444142748
 20
393.47510294348132
 30
0.0
 11
243.0121744414275
 21
393.47510294348132
 31
0.0
  0
LINE
  5
8D50
  8
0
 10
282.14217444142753
 20
395.07510294348123
 30
0.0
 11
243.0121744414275
 21
395.07510294348123
 31
0.0
  0
LINE
  5
8D51
  8
0
 10
281.5521744414275
 20
403.47510294348109
 30
0.0
 11
243.0121744414275
 21
403.47510294348109
 31
0.0
  0
LINE
  5
8D52
  8
0
 10
281.66217444142751
 20
405.07510294348111
 30
0.0
 11
243.0121744414275
 21
405.07510294348111
 31
0.0
  0
LINE
  5
8D53
  8
0
 10
253.0121744414275
 20
365.09510294348109
 30
0.0
 11
404.55147944142709
 21
365.09510294348109
 31
0.0
  0
LINE
  5
8D54
  8
0
 10
253.0121744414275
 20
365.44510294348129
 30
0.0
 11
323.16217444142751
 21
365.44510294348129
 31
0.0
  0
LINE
  5
8D55
  8
0
 10
243.0121744414275
 20
363.10510294348109
 30
0.0
 11
406.50722244142759
 21
363.10510294348109
 31
0.0
  0
LINE
  5
8D56
  8
0
 10
255.0121744414275
 20
340.77510294348122
 30
0.0
 11
404.00379944142747
 21
340.77510294348122
 31
0.0
  0
LINE
  5
8D57
  8
0
 10
243.0121744414275
 20
379.99354594348119
 30
0.0
 11
253.0121744414275
 21
379.99354594348119
 31
0.0
  0
LINE
  5
8D58
  8
0
 10
243.0121744414275
 20
374.27510294348122
 30
0.0
 11
253.0121744414275
 21
374.27510294348122
 31
0.0
  0
LINE
  5
8D59
  8
0
 10
243.0121744414275
 20
363.75510294348129
 30
0.0
 11
253.0121744414275
 21
363.75510294348129
 31
0.0
  0
LINE
  5
8D5A
  8
0
 10
243.0121744414275
 20
363.34377094348122
 30
0.0
 11
253.0121744414275
 21
363.34377094348122
 31
0.0
  0
LINE
  5
8D5B
  8
0
 10
251.0121744414275
 20
345.91918394348119
 30
0.0
 11
243.0121744414275
 21
345.91918394348119
 31
0.0
  0
LINE
  5
8D5C
  8
0
 10
168.0121744414275
 20
411.77510294348122
 30
0.0
 11
168.0121744414275
 21
491.27510294348122
 31
0.0
  0
LINE
  5
8D5D
  8
0
 10
168.0121744414275
 20
327.2751029434811
 30
0.0
 11
243.0121744414275
 21
327.2751029434811
 31
0.0
  0
LINE
  5
8D5E
  8
0
 10
168.0121744414275
 20
491.27510294348122
 30
0.0
 11
243.0121744414275
 21
491.27510294348122
 31
0.0
  0
LINE
  5
8D5F
  8
0
 10
168.0121744414275
 20
327.2751029434811
 30
0.0
 11
168.0121744414275
 21
406.77510294348122
 31
0.0
  0
LINE
  5
8D60
  8
0
 10
243.0121744414275
 20
491.27510294348122
 30
0.0
 11
243.0121744414275
 21
327.2751029434811
 31
0.0
  0
ARC
  5
8D61
  8
0
 10
311.51267344142752
 20
441.77460394348122
 30
0.0
 40
3.5004989999999978
 50
90.008164000001173
 51
179.9918359999923
  0
ARC
  5
8D62
  8
0
 10
308.01272144142752
 20
437.27455594348112
 30
0.0
 40
0.5005470000000001
 50
90.0626249999995
 51
179.93737500000049
  0
ARC
  5
8D63
  8
0
 10
308.0046664414275
 20
427.26759494348107
 30
0.0
 40
0.492549
 50
179.12656199998949
 51
270.87343799999729
  0
ARC
  5
8D64
  8
0
 10
308.01272144142752
 20
391.27455594348112
 30
0.0
 40
0.5005470000000001
 50
90.0626249999995
 51
179.93737500000049
  0
ARC
  5
8D65
  8
0
 10
308.00481844142757
 20
381.26774694348109
 30
0.0
 40
0.492699
 50
179.1445600000103
 51
270.85544000000289
  0
ARC
  5
8D66
  8
0
 10
379.55012944142749
 20
441.7696149434812
 30
0.0
 40
3.5055079999999998
 50
44.924208999998719
 51
89.803122999998919
  0
LINE
  5
8D67
  8
0
 10
308.01217444142748
 20
376.77510294348122
 30
0.0
 11
308.01217444142748
 21
441.7751029434811
 31
0.0
  0
LINE
  5
8D68
  8
0
 10
391.48217444142762
 20
383.7451029434813
 30
0.0
 11
382.03217444142751
 21
374.2951029434812
 31
0.0
  0
LINE
  5
8D69
  8
0
 10
390.41217444142751
 20
385.64510294348122
 30
0.0
 11
380.14217444142753
 21
375.37510294348112
 31
0.0
  0
LINE
  5
8D6A
  8
0
 10
380.14217444142753
 20
443.17510294348131
 30
0.0
 11
390.41217444142751
 21
432.90510294348121
 31
0.0
  0
LINE
  5
8D6B
  8
0
 10
390.41217444142751
 20
432.90510294348121
 30
0.0
 11
390.41217444142751
 21
385.64510294348122
 31
0.0
  0
LINE
  5
8D6C
  8
0
 10
382.03217444142751
 20
444.24510294348119
 30
0.0
 11
391.48217444142762
 21
434.7951029434812
 31
0.0
  0
LINE
  5
8D6D
  8
0
 10
392.51217444142748
 20
432.325102943481
 30
0.0
 11
392.51217444142748
 21
386.22510294348132
 31
0.0
  0
LINE
  5
8D6E
  8
0
 10
393.01217444142748
 20
414.27510294348122
 30
0.0
 11
393.01217444142748
 21
404.2751029434811
 31
0.0
  0
ARC
  5
8D6F
  8
0
 10
392.50466544142762
 20
414.26759394348119
 30
0.0
 40
0.507564
 50
0.8476510000084919
 51
89.152348999997997
  0
ARC
  5
8D70
  8
0
 10
392.51260844142769
 20
404.27466894348112
 30
0.0
 40
0.499566
 50
269.95018499999878
 51
0.049814999994649
  0
ARC
  5
8D71
  8
0
 10
389.0071704414276
 20
432.31325894348129
 30
0.0
 40
3.5050239999999979
 50
0.193606000005437
 51
45.079061999997109
  0
ARC
  5
8D72
  8
0
 10
389.00891944142762
 20
386.22619294348118
 30
0.0
 40
3.5032559999999981
 50
314.9093959999982
 51
359.98217399999498
  0
LINE
  5
8D73
  8
0
 10
307.51217444142748
 20
437.2751029434811
 30
0.0
 11
307.51217444142748
 21
427.27510294348122
 31
0.0
  0
LINE
  5
8D74
  8
0
 10
307.51217444142748
 20
391.27510294348122
 30
0.0
 11
307.51217444142748
 21
381.27510294348122
 31
0.0
  0
LINE
  5
8D75
  8
0
 10
380.14217444142753
 20
375.37510294348112
 30
0.0
 11
312.43217444142761
 21
375.37510294348112
 31
0.0
  0
LINE
  5
8D76
  8
0
 10
312.43217444142761
 20
375.37510294348112
 30
0.0
 11
312.43217444142761
 21
373.27510294348122
 31
0.0
  0
ARC
  5
8D77
  8
0
 10
379.56423444142752
 20
376.77075094348129
 30
0.0
 40
3.495648999999998
 50
269.96623299999862
 51
314.91065800000371
  0
LINE
  5
8D78
  8
0
 10
311.51217444142748
 20
373.27510294348122
 30
0.0
 11
395.01217444142748
 21
373.27510294348122
 31
0.0
  0
ARC
  5
8D79
  8
0
 10
311.50481844142757
 20
376.76774694348109
 30
0.0
 40
3.4926519999999979
 50
179.87932799999501
 51
270.12067199999842
  0
LINE
  5
8D7A
  8
0
 10
312.43217444142761
 20
443.17510294348131
 30
0.0
 11
380.14217444142753
 21
443.17510294348131
 31
0.0
  0
LINE
  5
8D7B
  8
0
 10
312.43217444142761
 20
443.17510294348131
 30
0.0
 11
312.43217444142761
 21
445.27010294348122
 31
0.0
  0
LINE
  5
8D7C
  8
0
 10
311.51217444142748
 20
445.27510294348122
 30
0.0
 11
395.01217444142748
 21
445.27510294348122
 31
0.0
  0
LINE
  5
8D7D
  8
0
 10
160.96217444142749
 20
328.52510294348122
 30
0.0
 11
168.0121744414275
 21
328.52510294348122
 31
0.0
  0
LINE
  5
8D7E
  8
0
 10
160.96217444142749
 20
490.0251029434811
 30
0.0
 11
168.0121744414275
 21
490.0251029434811
 31
0.0
  0
LINE
  5
8D7F
  8
0
  6
AM_ISO08W050
 10
213.0121744414275
 20
396.5552209434814
 30
0.0
 11
213.0121744414275
 21
422.88286294348097
 31
0.0
  0
LINE
  5
8D80
  8
0
 10
122.71217444142751
 20
472.075102943481
 30
0.0
 11
122.71217444142751
 21
408.1311589434813
 31
0.0
  0
LINE
  5
8D81
  8
0
 10
127.1521744414275
 20
476.75510294348118
 30
0.0
 11
128.2321744414275
 21
482.91510294348092
 31
0.0
  0
LINE
  5
8D82
  8
0
 10
159.71217444142761
 20
329.29566394348132
 30
0.0
 11
159.71217444142761
 21
406.77510294348122
 31
0.0
  0
LINE
  5
8D83
  8
0
 10
159.00217444142751
 20
488.98510294348119
 30
0.0
 11
133.60217444142751
 21
487.65510294348121
 31
0.0
  0
LINE
  5
8D84
  8
0
 10
127.1521754414275
 20
341.7951029434812
 30
0.0
 11
128.2321744414275
 21
335.63510294348129
 31
0.0
  0
LINE
  5
8D85
  8
0
 10
159.00217444142751
 20
329.56510294348118
 30
0.0
 11
133.60217444142751
 21
330.89510294348122
 31
0.0
  0
LINE
  5
8D86
  8
0
 10
126.71217444142751
 20
472.92510294348131
 30
0.0
 11
126.71217444142751
 21
410.6083959434813
 31
0.0
  0
LINE
  5
8D87
  8
0
 10
130.78217444142749
 20
335.77510294348122
 30
0.0
 11
130.78217444142749
 21
406.62432094348122
 31
0.0
  0
ARC
  5
8D88
  8
0
 10
124.19645444142741
 20
477.2742719434811
 30
0.0
 40
3.0009689999999982
 50
278.34845900000391
 51
350.03768199999428
  0
ARC
  5
8D89
  8
0
 10
124.9620244414275
 20
472.07955894348117
 30
0.0
 40
2.249854
 50
98.430493000000325
 51
180.11348999999109
  0
ARC
  5
8D8A
  8
0
 10
160.96751144142749
 20
488.77387194348108
 30
0.0
 40
1.2512430000000001
 50
90.244380000000078
 51
144.2391030000033
  0
ARC
  5
8D8B
  8
0
 10
158.93596844142749
 20
490.23384494348119
 30
0.0
 40
1.2504959999999981
 50
273.03488699999701
 51
324.3549220000051
  0
ARC
  5
8D8C
  8
0
 10
133.89631244142751
 20
481.91000394348112
 30
0.0
 40
5.7526239999999991
 50
92.930875000003141
 51
169.9376259999998
  0
ARC
  5
8D8D
  8
0
 10
160.9625384414274
 20
329.76667594348118
 30
0.0
 40
1.241573
 50
215.5333329999973
 51
269.98318399999948
  0
ARC
  5
8D8E
  8
0
 10
158.9308974414275
 20
328.3070969434811
 30
0.0
 40
1.260022999999999
 50
35.853017999994627
 51
86.757172999999426
  0
ARC
  5
8D8F
  8
0
 10
133.8901244414275
 20
336.63319194348128
 30
0.0
 40
5.745309999999999
 50
190.00432199999841
 51
267.12717799999689
  0
LINE
  5
8D90
  8
0
 10
159.71217444142761
 20
411.77510294348122
 30
0.0
 11
159.71217444142761
 21
489.25510294348118
 31
0.0
  0
ARC
  5
8D91
  8
0
 10
394.51217444142748
 20
431.77510294348122
 30
0.0
 40
2.0
 50
90.0
 51
180.0
  0
ARC
  5
8D92
  8
0
 10
395.01217444142748
 20
435.77510294348122
 30
0.0
 40
2.0
 50
270.0
 51
0.0
  0
LINE
  5
8D93
  8
0
 10
395.01217444142748
 20
433.7751029434811
 30
0.0
 11
394.51217444142748
 21
433.7751029434811
 31
0.0
  0
LINE
  5
8D94
  8
0
 10
397.01217444142748
 20
443.27510294348122
 30
0.0
 11
397.01217444142748
 21
435.77510294348122
 31
0.0
  0
ARC
  5
8D95
  8
0
 10
395.01217444142748
 20
443.27510294348122
 30
0.0
 40
2.0
 50
0.0
 51
90.0
  0
ARC
  5
8D96
  8
0
 10
394.51217444142748
 20
386.77510294348122
 30
0.0
 40
2.0
 50
180.0
 51
270.0
  0
LINE
  5
8D97
  8
0
 10
397.01217444142748
 20
375.27510294348122
 30
0.0
 11
397.01217444142748
 21
382.77510294348122
 31
0.0
  0
ARC
  5
8D98
  8
0
 10
395.01217444142748
 20
382.77510294348122
 30
0.0
 40
2.0
 50
0.0
 51
90.0
  0
LINE
  5
8D99
  8
0
 10
395.01217444142748
 20
384.77510294348122
 30
0.0
 11
394.51217444142748
 21
384.77510294348122
 31
0.0
  0
ARC
  5
8D9A
  8
0
 10
395.01217444142748
 20
375.27510294348122
 30
0.0
 40
2.0
 50
270.0
 51
0.0
  0
CIRCLE
  5
8D9B
  8
0
 10
391.51217444142759
 20
440.27510294348122
 30
0.0
 40
3.5
  0
CIRCLE
  5
8D9C
  8
0
 10
391.51217444142759
 20
440.27510294348122
 30
0.0
 40
3.299999999999998
  0
LINE
  5
8D9D
  8
0
 10
393.16217444142751
 20
439.81966394348132
 30
0.0
 11
393.16217444142751
 21
440.730541943481
 31
0.0
  0
LINE
  5
8D9E
  8
0
 10
394.74231144142749
 20
439.81966394348132
 30
0.0
 11
394.74231144142749
 21
440.730541943481
 31
0.0
  0
LINE
  5
8D9F
  8
0
 10
389.8621744414275
 20
439.81966394348132
 30
0.0
 11
389.8621744414275
 21
440.730541943481
 31
0.0
  0
ARC
  5
8DA0
  8
0
 10
388.5020374414276
 20
440.730541943481
 30
0.0
 40
0.22
 50
90.0
 51
180.0
  0
LINE
  5
8DA1
  8
0
 10
391.18217444142761
 20
441.92510294348108
 30
0.0
 11
391.84217444142757
 21
441.92510294348108
 31
0.0
  0
LINE
  5
8DA2
  8
0
 10
390.96217444142758
 20
441.17054194348088
 30
0.0
 11
390.96217444142758
 21
441.70510294348122
 31
0.0
  0
LINE
  5
8DA3
  8
0
 10
392.0621744414276
 20
441.70510294348122
 30
0.0
 11
392.0621744414276
 21
441.17054194348088
 31
0.0
  0
ARC
  5
8DA4
  8
0
 10
390.08217444142758
 20
440.730541943481
 30
0.0
 40
0.22
 50
90.0
 51
180.0
  0
LINE
  5
8DA5
  8
0
 10
390.08217444142758
 20
440.95054194348131
 30
0.0
 11
390.74217444142761
 21
440.95054194348131
 31
0.0
  0
ARC
  5
8DA6
  8
0
 10
390.74217444142761
 20
441.17054194348088
 30
0.0
 40
0.22
 50
270.0
 51
0.0
  0
ARC
  5
8DA7
  8
0
 10
392.28217444142751
 20
441.17054194348088
 30
0.0
 40
0.22
 50
180.0
 51
270.0
  0
LINE
  5
8DA8
  8
0
 10
390.08217444142758
 20
440.95054194348131
 30
0.0
 11
388.5020374414276
 21
440.95054194348131
 31
0.0
  0
ARC
  5
8DA9
  8
0
 10
391.84217444142757
 20
441.70510294348122
 30
0.0
 40
0.22
 50
0.0
 51
90.0
  0
ARC
  5
8DAA
  8
0
 10
391.18217444142761
 20
441.70510294348122
 30
0.0
 40
0.22
 50
90.0
 51
180.0
  0
LINE
  5
8DAB
  8
0
 10
392.94217444142748
 20
440.95054194348131
 30
0.0
 11
394.52231144142752
 21
440.95054194348131
 31
0.0
  0
ARC
  5
8DAC
  8
0
 10
392.94217444142748
 20
440.730541943481
 30
0.0
 40
0.22
 50
0.0
 51
90.0
  0
ARC
  5
8DAD
  8
0
 10
394.52231144142752
 20
440.730541943481
 30
0.0
 40
0.22
 50
0.0
 51
90.0
  0
LINE
  5
8DAE
  8
0
 10
392.28217444142751
 20
440.95054194348131
 30
0.0
 11
392.94217444142748
 21
440.95054194348131
 31
0.0
  0
LINE
  5
8DAF
  8
0
 10
390.08217444142758
 20
439.59966394348112
 30
0.0
 11
388.5020374414276
 21
439.59966394348112
 31
0.0
  0
ARC
  5
8DB0
  8
0
 10
391.84217444142757
 20
438.84510294348109
 30
0.0
 40
0.22
 50
270.0
 51
0.0
  0
ARC
  5
8DB1
  8
0
 10
391.18217444142761
 20
438.84510294348109
 30
0.0
 40
0.22
 50
180.0
 51
270.0
  0
LINE
  5
8DB2
  8
0
 10
391.18217444142761
 20
438.62510294348112
 30
0.0
 11
391.84217444142757
 21
438.62510294348112
 31
0.0
  0
ARC
  5
8DB3
  8
0
 10
390.74217444142761
 20
439.37966394348132
 30
0.0
 40
0.22
 50
0.0
 51
90.0
  0
ARC
  5
8DB4
  8
0
 10
392.28217444142751
 20
439.37966394348132
 30
0.0
 40
0.22
 50
90.0
 51
180.0
  0
ARC
  5
8DB5
  8
0
 10
390.08217444142758
 20
439.81966394348132
 30
0.0
 40
0.22
 50
180.0
 51
270.0
  0
LINE
  5
8DB6
  8
0
 10
390.74217444142761
 20
439.59966394348112
 30
0.0
 11
390.08217444142758
 21
439.59966394348112
 31
0.0
  0
LINE
  5
8DB7
  8
0
 10
390.96217444142758
 20
438.84510294348109
 30
0.0
 11
390.96217444142758
 21
439.37966394348132
 31
0.0
  0
LINE
  5
8DB8
  8
0
 10
392.0621744414276
 20
438.84510294348109
 30
0.0
 11
392.0621744414276
 21
439.37966394348132
 31
0.0
  0
LINE
  5
8DB9
  8
0
 10
392.94217444142748
 20
439.59966394348112
 30
0.0
 11
394.52231144142752
 21
439.59966394348112
 31
0.0
  0
ARC
  5
8DBA
  8
0
 10
392.94217444142748
 20
439.81966394348132
 30
0.0
 40
0.22
 50
270.0
 51
0.0
  0
LINE
  5
8DBB
  8
0
 10
392.94217444142748
 20
439.59966394348112
 30
0.0
 11
392.28217444142751
 21
439.59966394348112
 31
0.0
  0
ARC
  5
8DBC
  8
0
 10
394.52231144142752
 20
439.81966394348132
 30
0.0
 40
0.22
 50
270.0
 51
0.0
  0
ARC
  5
8DBD
  8
0
 10
388.5020374414276
 20
439.81966394348132
 30
0.0
 40
0.22
 50
180.0
 51
270.0
  0
CIRCLE
  5
8DBE
  8
0
 10
391.51217444142759
 20
378.27510294348122
 30
0.0
 40
3.5
  0
CIRCLE
  5
8DBF
  8
0
 10
391.51217444142759
 20
378.27510294348122
 30
0.0
 40
3.299999999999998
  0
LINE
  5
8DC0
  8
0
 10
389.8621744414275
 20
378.73054194348111
 30
0.0
 11
389.8621744414275
 21
377.81966394348137
 31
0.0
  0
LINE
  5
8DC1
  8
0
 10
394.74231144142749
 20
378.73054194348111
 30
0.0
 11
394.74231144142749
 21
377.81966394348137
 31
0.0
  0
LINE
  5
8DC2
  8
0
 10
393.16217444142751
 20
378.73054194348111
 30
0.0
 11
393.16217444142751
 21
377.81966394348137
 31
0.0
  0
ARC
  5
8DC3
  8
0
 10
394.52231144142752
 20
377.81966394348137
 30
0.0
 40
0.22
 50
270.0
 51
0.0
  0
ARC
  5
8DC4
  8
0
 10
392.28217444142751
 20
377.37966394348132
 30
0.0
 40
0.22
 50
90.0
 51
180.0
  0
ARC
  5
8DC5
  8
0
 10
390.74217444142761
 20
377.37966394348132
 30
0.0
 40
0.22
 50
0.0
 51
90.0
  0
ARC
  5
8DC6
  8
0
 10
392.94217444142748
 20
377.81966394348137
 30
0.0
 40
0.22
 50
270.0
 51
0.0
  0
LINE
  5
8DC7
  8
0
 10
390.08217444142758
 20
377.59966394348112
 30
0.0
 11
390.74217444142761
 21
377.59966394348112
 31
0.0
  0
LINE
  5
8DC8
  8
0
 10
390.08217444142758
 20
377.59966394348112
 30
0.0
 11
388.5020374414276
 21
377.59966394348112
 31
0.0
  0
ARC
  5
8DC9
  8
0
 10
390.08217444142758
 20
377.81966394348137
 30
0.0
 40
0.22
 50
180.0
 51
270.0
  0
LINE
  5
8DCA
  8
0
 10
392.28217444142751
 20
377.59966394348112
 30
0.0
 11
392.94217444142748
 21
377.59966394348112
 31
0.0
  0
LINE
  5
8DCB
  8
0
 10
391.18217444142761
 20
376.62510294348112
 30
0.0
 11
391.84217444142757
 21
376.62510294348112
 31
0.0
  0
ARC
  5
8DCC
  8
0
 10
391.84217444142757
 20
376.84510294348121
 30
0.0
 40
0.22
 50
270.0
 51
0.0
  0
ARC
  5
8DCD
  8
0
 10
391.18217444142761
 20
376.84510294348121
 30
0.0
 40
0.22
 50
180.0
 51
270.0
  0
LINE
  5
8DCE
  8
0
 10
392.0621744414276
 20
376.84510294348121
 30
0.0
 11
392.0621744414276
 21
377.37966394348132
 31
0.0
  0
LINE
  5
8DCF
  8
0
 10
390.96217444142758
 20
377.37966394348132
 30
0.0
 11
390.96217444142758
 21
376.84510294348121
 31
0.0
  0
ARC
  5
8DD0
  8
0
 10
388.5020374414276
 20
377.81966394348137
 30
0.0
 40
0.22
 50
180.0
 51
270.0
  0
LINE
  5
8DD1
  8
0
 10
392.94217444142748
 20
377.59966394348112
 30
0.0
 11
394.52231144142752
 21
377.59966394348112
 31
0.0
  0
LINE
  5
8DD2
  8
0
 10
392.0621744414276
 20
379.70510294348128
 30
0.0
 11
392.0621744414276
 21
379.17054194348111
 31
0.0
  0
LINE
  5
8DD3
  8
0
 10
390.96217444142758
 20
379.70510294348128
 30
0.0
 11
390.96217444142758
 21
379.17054194348111
 31
0.0
  0
ARC
  5
8DD4
  8
0
 10
392.94217444142748
 20
378.73054194348111
 30
0.0
 40
0.22
 50
0.0
 51
90.0
  0
LINE
  5
8DD5
  8
0
 10
390.74217444142761
 20
378.95054194348131
 30
0.0
 11
390.08217444142758
 21
378.95054194348131
 31
0.0
  0
LINE
  5
8DD6
  8
0
 10
390.08217444142758
 20
378.95054194348131
 30
0.0
 11
388.5020374414276
 21
378.95054194348131
 31
0.0
  0
ARC
  5
8DD7
  8
0
 10
390.08217444142758
 20
378.73054194348111
 30
0.0
 40
0.22
 50
90.0
 51
180.0
  0
LINE
  5
8DD8
  8
0
 10
392.94217444142748
 20
378.95054194348131
 30
0.0
 11
392.28217444142751
 21
378.95054194348131
 31
0.0
  0
ARC
  5
8DD9
  8
0
 10
392.28217444142751
 20
379.17054194348111
 30
0.0
 40
0.22
 50
180.0
 51
270.0
  0
ARC
  5
8DDA
  8
0
 10
390.74217444142761
 20
379.17054194348111
 30
0.0
 40
0.22
 50
270.0
 51
0.0
  0
ARC
  5
8DDB
  8
0
 10
394.52231144142752
 20
378.73054194348111
 30
0.0
 40
0.22
 50
0.0
 51
90.0
  0
ARC
  5
8DDC
  8
0
 10
388.5020374414276
 20
378.73054194348111
 30
0.0
 40
0.22
 50
90.0
 51
180.0
  0
LINE
  5
8DDD
  8
0
 10
392.94217444142748
 20
378.95054194348131
 30
0.0
 11
394.52231144142752
 21
378.95054194348131
 31
0.0
  0
LINE
  5
8DDE
  8
0
 10
391.18217444142761
 20
379.92510294348131
 30
0.0
 11
391.84217444142757
 21
379.92510294348131
 31
0.0
  0
ARC
  5
8DDF
  8
0
 10
391.18217444142761
 20
379.70510294348128
 30
0.0
 40
0.22
 50
90.0
 51
180.0
  0
ARC
  5
8DE0
  8
0
 10
391.84217444142757
 20
379.70510294348128
 30
0.0
 40
0.22
 50
0.0
 51
90.0
  0
LINE
  5
8DE1
  8
0
 10
388.28203744142752
 20
440.730541943481
 30
0.0
 11
388.28203744142752
 21
439.81966394348132
 31
0.0
  0
LINE
  5
8DE2
  8
0
 10
388.28203744142752
 20
378.73054194348111
 30
0.0
 11
388.28203744142752
 21
377.81966394348137
 31
0.0
  0
ARC
  5
8DE3
  8
0
 10
402.61218144142759
 20
354.96612994348112
 30
0.0
 40
2.2000009999999981
 50
90.000022000001564
 51
179.99999700000231
  0
ARC
  5
8DE4
  8
0
 10
402.61218144142759
 20
350.36612394348128
 30
0.0
 40
2.1999970000000002
 50
180.00001799999919
 51
270.0
  0
LINE
  5
8DE5
  8
0
 10
405.01217244142748
 20
352.71557194348128
 30
0.0
 11
403.71217244142758
 21
353.46612694348119
 31
0.0
  0
LINE
  5
8DE6
  8
0
 10
405.01217244142748
 20
351.71557194348128
 30
0.0
 11
403.71217244142758
 21
352.46612694348119
 31
0.0
  0
LINE
  5
8DE7
  8
0
 10
403.71217244142758
 20
348.06612694348132
 30
0.0
 11
405.01217244142748
 21
348.06612694348132
 31
0.0
  0
LINE
  5
8DE8
  8
0
 10
403.71217244142758
 20
357.26612694348108
 30
0.0
 11
405.01217244142748
 21
357.26612694348108
 31
0.0
  0
LINE
  5
8DE9
  8
0
 10
405.01217244142748
 20
348.06612694348132
 30
0.0
 11
405.01217244142748
 21
357.26612694348108
 31
0.0
  0
LINE
  5
8DEA
  8
0
 10
400.41216944142752
 20
350.36612394348128
 30
0.0
 11
400.41216944142752
 21
354.96612994348112
 31
0.0
  0
LINE
  5
8DEB
  8
0
 10
403.71217244142758
 20
348.06612694348132
 30
0.0
 11
403.71217244142758
 21
357.26612694348108
 31
0.0
  0
LINE
  5
8DEC
  8
0
 10
403.71217244142758
 20
357.16612694348117
 30
0.0
 11
402.61218144142759
 21
357.16612694348117
 31
0.0
  0
LINE
  5
8DED
  8
0
 10
403.71217244142758
 20
348.16612694348129
 30
0.0
 11
402.61218144142759
 21
348.16612694348129
 31
0.0
  0
TEXT
  5
90F0
  8
0
  6
CONTINUOUS
 62
     0
 10
744.08291999308938
 20
646.18694595119757
 30
0.0
 40
10.0
  1
VX08-040EB~VX08-100EB
  0
ENDSEC
  0
EOF
