  0
SECTION
  2
HEADER
  9
$ACADVER
  1
AC1009
  9
$INSBASE
 10
0.0
 20
0.0
 30
0.0
  9
$EXTMIN
 10
155.4470262397526
 20
434.67936647474193
 30
-0.000000000000013
  9
$EXTMAX
 10
1411.812153278622
 20
1189.826512819564
 30
0.0000000000000023
  9
$LIMMIN
 10
0.0000005999945643
 20
-0.0000005963913736
  9
$LIMMAX
 10
1707.000000599995
 20
1109.9999994036091
  9
$ORTHOMODE
 70
     0
  9
$REGENMODE
 70
     1
  9
$FILLMODE
 70
     1
  9
$QTEXTMODE
 70
     0
  9
$MIRRTEXT
 70
     0
  9
$DRAGMODE
 70
     2
  9
$LTSCALE
 40
1.0
  9
$OSMODE
 70
   551
  9
$ATTMODE
 70
     1
  9
$TEXTSIZE
 40
2.5
  9
$TRACEWID
 40
1.0
  9
$TEXTSTYLE
  7
STANDARD
  9
$CLAYER
  8
0
  9
$CELTYPE
  6
BYLAYER
  9
$CECOLOR
 62
   256
  9
$DIMSCALE
 40
1.0
  9
$DIMASZ
 40
2.0
  9
$DIMEXO
 40
1.0
  9
$DIMDLI
 40
8.0
  9
$DIMRND
 40
0.0
  9
$DIMDLE
 40
0.0
  9
$DIMEXE
 40
1.0
  9
$DIMTP
 40
-0.025
  9
$DIMTM
 40
0.043
  9
$DIMTXT
 40
2.5
  9
$DIMCEN
 40
0.0
  9
$DIMTSZ
 40
0.0
  9
$DIMTOL
 70
     0
  9
$DIMLIM
 70
     0
  9
$DIMTIH
 70
     0
  9
$DIMTOH
 70
     0
  9
$DIMSE1
 70
     0
  9
$DIMSE2
 70
     0
  9
$DIMTAD
 70
     3
  9
$DIMZIN
 70
     8
  9
$DIMBLK
  1

  9
$DIMASO
 70
     1
  9
$DIMSHO
 70
     1
  9
$DIMPOST
  1

  9
$DIMAPOST
  1
"
  9
$DIMALT
 70
     0
  9
$DIMALTD
 70
     2
  9
$DIMALTF
 40
0.0393701
  9
$DIMLFAC
 40
1.0
  9
$DIMTOFL
 70
     1
  9
$DIMTVP
 40
0.0
  9
$DIMTIX
 70
     0
  9
$DIMSOXD
 70
     0
  9
$DIMSAH
 70
     0
  9
$DIMBLK1
  1

  9
$DIMBLK2
  1

  9
$DIMSTYLE
  2
AM_JIS
  9
$DIMCLRD
 70
     2
  9
$DIMCLRE
 70
     2
  9
$DIMCLRT
 70
     4
  9
$DIMTFAC
 40
0.71
  9
$DIMGAP
 40
1.5
  9
$LUNITS
 70
     2
  9
$LUPREC
 70
     2
  9
$SKETCHINC
 40
1.0
  9
$FILLETRAD
 40
0.0
  9
$AUNITS
 70
     0
  9
$AUPREC
 70
     0
  9
$MENU
  1
.
  9
$ELEVATION
 40
0.0
  9
$PELEVATION
 40
0.0
  9
$THICKNESS
 40
0.0
  9
$LIMCHECK
 70
     0
  9
$BLIPMODE
 70
     0
  9
$CHAMFERA
 40
3.0
  9
$CHAMFERB
 40
3.0
  9
$SKPOLY
 70
     0
  9
$TDCREATE
 40
2456829.3841110538
  9
$TDUPDATE
 40
2458540.721430046
  9
$TDINDWG
 40
0.6499179398
  9
$TDUSRTIMER
 40
0.6499174884
  9
$USRTIMER
 70
     1
  9
$ANGBASE
 50
0.0
  9
$ANGDIR
 70
     0
  9
$PDMODE
 70
     0
  9
$PDSIZE
 40
0.0
  9
$PLINEWID
 40
0.0
  9
$COORDS
 70
     1
  9
$SPLFRAME
 70
     0
  9
$SPLINETYPE
 70
     6
  9
$SPLINESEGS
 70
     8
  9
$ATTDIA
 70
     1
  9
$ATTREQ
 70
     1
  9
$HANDLING
 70
     1
  9
$HANDSEED
  5
9CD6
  9
$SURFTAB1
 70
     6
  9
$SURFTAB2
 70
     6
  9
$SURFTYPE
 70
     6
  9
$SURFU
 70
     6
  9
$SURFV
 70
     6
  9
$UCSNAME
  2

  9
$UCSORG
 10
0.0
 20
0.0
 30
0.0
  9
$UCSXDIR
 10
1.0
 20
0.0
 30
0.0
  9
$UCSYDIR
 10
0.0
 20
1.0
 30
0.0
  9
$PUCSNAME
  2

  9
$PUCSORG
 10
0.0
 20
0.0
 30
0.0
  9
$PUCSXDIR
 10
1.0
 20
0.0
 30
0.0
  9
$PUCSYDIR
 10
0.0
 20
1.0
 30
0.0
  9
$USERI1
 70
     0
  9
$USERI2
 70
     0
  9
$USERI3
 70
     0
  9
$USERI4
 70
     0
  9
$USERI5
 70
     0
  9
$USERR1
 40
0.0
  9
$USERR2
 40
0.0
  9
$USERR3
 40
0.0
  9
$USERR4
 40
0.0
  9
$USERR5
 40
0.0
  9
$WORLDVIEW
 70
     1
  9
$SHADEDGE
 70
     3
  9
$SHADEDIF
 70
    70
  9
$TILEMODE
 70
     1
  9
$MAXACTVP
 70
    64
  9
$PLIMCHECK
 70
     0
  9
$PEXTMIN
 10
1.0000000000000000E+020
 20
1.0000000000000000E+020
 30
1.0000000000000000E+020
  9
$PEXTMAX
 10
-1.0000000000000000E+020
 20
-1.0000000000000000E+020
 30
-1.0000000000000000E+020
  9
$PLIMMIN
 10
0.0
 20
0.0
  9
$PLIMMAX
 10
420.0
 20
297.0
  9
$UNITMODE
 70
     0
  9
$VISRETAIN
 70
     1
  9
$PLINEGEN
 70
     0
  9
$PSLTSCALE
 70
     1
  0
ENDSEC
  0
SECTION
  2
TABLES
  0
TABLE
  2
VPORT
 70
     1
  0
VPORT
  2
*ACTIVE
 70
     0
 10
0.0
 20
0.0
 11
1.0
 21
1.0
 12
783.62958975918707
 22
812.25293964715286
 13
0.0
 23
0.0
 14
15.0
 24
15.0
 15
60.0
 25
60.0
 16
0.0
 26
0.0
 36
1.0
 17
0.0
 27
0.0
 37
0.0
 40
760.33122286435173
 41
1.7571592210767459
 42
50.0
 43
0.0
 44
0.0
 50
0.0
 51
0.0
 71
     0
 72
  1000
 73
     1
 74
     3
 75
     0
 76
     0
 77
     0
 78
     0
  0
ENDTAB
  0
TABLE
  2
LTYPE
 70
    24
  0
LTYPE
  2
CONTINUOUS
 70
     0
  3
Solid line
 72
    65
 73
     0
 40
0.0
  0
LTYPE
  2
CENTER
 70
     0
  3
Center ____ _ ____ _ ____ _ ____ _ ____ _ ____
 72
    65
 73
     4
 40
50.799999999999997
 49
31.75
 49
-6.3499999999999979
 49
6.3499999999999979
 49
-6.3499999999999979
  0
LTYPE
  2
AM_ISO02W050
 70
     0
  3
__ __ __ __ __ __ __ __ __ __ __ __ __ __ __
 72
    65
 73
     2
 40
7.5
 49
6.0
 49
-1.5
  0
LTYPE
  2
AM_ISO08W050
 70
     0
  3
____ . ____ . ____ . ____ . ____ . ____ . ____
 72
    65
 73
     4
 40
18.0
 49
12.0
 49
-1.5
 49
3.0
 49
-1.5
  0
LTYPE
  2
AM_ISO09W050
 70
     0
  3
_____ . . _____ . . _____ . . ____ .. ____
 72
    65
 73
     6
 40
22.5
 49
12.0
 49
-1.5
 49
3.0
 49
-1.5
 49
3.0
 49
-1.5
  0
LTYPE
  2
AMCONSTR
 70
     0
  3
_______________________
 72
    65
 73
     2
 40
9999.0
 49
9999.0
 49
0.0
  0
LTYPE
  2
AM_ISO08W050X2
 70
     0
  3
__ . __ . __ . __ . __ . __
 72
    65
 73
     4
 40
9.0
 49
6.0
 49
-0.75
 49
1.5
 49
-0.75
  0
LTYPE
  2
AM_ISO02W050X2
 70
     0
  3
 _ _ _ _ _ _ _ _ _ _ _ _
 72
    65
 73
     2
 40
3.75
 49
3.0
 49
-0.75
  0
LTYPE
  2
AMZIGZAG
 70
     0
  3
/\/-/\/-/\/-/\/-/\/-/\/
 72
    65
 73
     2
 40
11.0001
 49
0.0001
 49
-11.0
  0
LTYPE
  2
ACANSTGBM
 70
     0
  3
__ . . __ . .
 72
    65
 73
     6
 40
9.0
 49
4.0
 49
-1.0
 49
1.0
 49
-1.0
 49
1.0
 49
-1.0
  0
LTYPE
  2
ACANSTGLM
 70
     0
  3
_ _ _ _ _
 72
    65
 73
     2
 40
3.0
 49
2.0
 49
-1.0
  0
LTYPE
  2
ACISOWELD
 70
     0
  3
_ _ _ _ _
 72
    65
 73
     2
 40
2.0
 49
2.0
 49
-1.0
  0
LTYPE
  2
ACISOTGB
 70
     0
  3
__ . . __ . .
 72
    65
 73
     6
 40
9.0
 49
4.0
 49
-1.0
 49
1.0
 49
-1.0
 49
1.0
 49
-1.0
  0
LTYPE
  2
ACISOTGL
 70
     0
  3
_ _ _ _ _
 72
    65
 73
     2
 40
3.0
 49
2.0
 49
-1.0
  0
LTYPE
  2
ACJISTGB
 70
     0
  3
__ . . __ . .
 72
    65
 73
     6
 40
9.0
 49
4.0
 49
-1.0
 49
1.0
 49
-1.0
 49
1.0
 49
-1.0
  0
LTYPE
  2
ACJISTGL
 70
     0
  3
_ _ _ _ _
 72
    65
 73
     2
 40
3.0
 49
2.0
 49
-1.0
  0
LTYPE
  2
HIDDEN
 70
     0
  3
Hidden __ __ __ __ __ __ __ __ __ __ __ __ __ _
 72
    65
 73
     2
 40
9.5249999999999968
 49
6.349999999999997
 49
-3.174999999999998
  0
LTYPE
  2
PHANTOM2
 70
     0
  3
Phantom (.5x) ___ _ _ ___ _ _ ___ _ _ ___ _ _
 72
    65
 73
     6
 40
31.75
 49
15.875
 49
-3.174999999999998
 49
3.174999999999998
 49
-3.174999999999998
 49
3.174999999999998
 49
-3.174999999999998
  0
LTYPE
  2
CENTER2
 70
     0
  3
Center (.5x) ___ _ ___ _ ___ _ ___ _ ___ _ ___
 72
    65
 73
     4
 40
1.125
 49
0.75
 49
-0.125
 49
0.125
 49
-0.125
  0
LTYPE
  2
HIDDEN2
 70
     0
  3
Hidden (.5x) _ _ _ _ _ _ _ _ _ _ _ _ _ _ _ _ _
 72
    65
 73
     2
 40
0.1875
 49
0.125
 49
-0.0625
  0
LTYPE
  2
AMZIGZAG2
 70
     0
  3
/\/-/\/-/\/-/\/-/\/-/\/
 72
    65
 73
     2
 40
0.4401
 49
0.0001
 49
-0.4400000000000003
  0
LTYPE
  2
ACANSTGB
 70
     0
  3
__ . . __ . .
 72
    65
 73
     6
 40
0.35433070866
 49
0.15748031496
 49
-0.03937007874
 49
0.03937007874
 49
-0.03937007874
 49
0.03937007874
 49
-0.03937007874
  0
LTYPE
  2
ACANSTGL
 70
     0
  3
_ _ _ _ _
 72
    65
 73
     2
 40
0.11811023622
 49
0.07874015748
 49
-0.03937007874
  0
ENDTAB
  0
TABLE
  2
LAYER
 70
     3
  0
LAYER
  2
0
 70
     0
 62
     7
  6
CONTINUOUS
  0
LAYER
  2
DEFPOINTS
 70
     0
 62
     7
  6
CONTINUOUS
  0
LAYER
  2
AM_5
 70
     0
 62
     2
  6
CONTINUOUS
  0
ENDTAB
  0
TABLE
  2
STYLE
 70
     8
  0
STYLE
  2
STANDARD
 70
     0
 40
0.0
 41
0.7400000000000003
 50
0.0
 71
     0
 42
2.5
  3
txt.shx
  4
bigfont.shx
  0
STYLE
  2

 70
     1
 40
0.0
 41
1.0
 50
0.0
 71
     0
 42
2.5
  3
ltypeshp.shx
  4

  0
STYLE
  2
ACANSTS
 70
     0
 40
1.0
 41
1.0
 50
0.0
 71
     0
 42
2.5
  3
romans.shx
  4
bigfont.shx
  0
STYLE
  2
ACANSGDT
 70
     0
 40
0.0
 41
1.0
 50
0.0
 71
     0
 42
2.5
  3
amgdtans.shx
  4

  0
STYLE
  2
ACISOTS
 70
     0
 40
1.0
 41
1.0
 50
0.0
 71
     0
 42
2.5
  3
isocp.shx
  4
extfont.shx
  0
STYLE
  2
ACISOGDT
 70
     0
 40
0.0
 41
1.0
 50
0.0
 71
     0
 42
2.5
  3
amgdt.shx
  4

  0
STYLE
  2
ACJISGDT
 70
     0
 40
0.0
 41
1.0
 50
0.0
 71
     0
 42
2.5
  3
amgdt.shx
  4

  0
STYLE
  2
ACJISTS
 70
     0
 40
1.0
 41
1.0
 50
0.0
 71
     0
 42
2.5
  3
isocp.shx
  4
extfont.shx
  0
ENDTAB
  0
TABLE
  2
VIEW
 70
     6
  0
VIEW
  2
AM_VIEW1
 70
     0
 40
555.00000000000011
 10
586.60142408753904
 20
832.49999940360885
 41
1173.202846975089
 11
0.0
 21
0.0
 31
1.0
 12
0.0
 22
0.0
 32
0.0
 42
50.0
 43
0.0
 44
0.0
 50
0.0
 71
     0
  0
VIEW
  2
AM_VIEW2
 70
     0
 40
555.00000000000011
 10
1120.3985771124501
 20
832.49999940360885
 41
1173.202846975089
 11
0.0
 21
0.0
 31
1.0
 12
0.0
 22
0.0
 32
0.0
 42
50.0
 43
0.0
 44
0.0
 50
0.0
 71
     0
  0
VIEW
  2
AM_VIEW3
 70
     0
 40
555.00000000000011
 10
586.60142408753904
 20
277.49999940360868
 41
1173.202846975089
 11
0.0
 21
0.0
 31
1.0
 12
0.0
 22
0.0
 32
0.0
 42
50.0
 43
0.0
 44
0.0
 50
0.0
 71
     0
  0
VIEW
  2
AM_VIEW4
 70
     0
 40
555.00000000000011
 10
1120.3985771124501
 20
277.49999940360868
 41
1173.202846975089
 11
0.0
 21
0.0
 31
1.0
 12
0.0
 22
0.0
 32
0.0
 42
50.0
 43
0.0
 44
0.0
 50
0.0
 71
     0
  0
VIEW
  2
AM_VIEW5
 70
     0
 40
555.00000000000011
 10
853.50000059999445
 20
554.99999940360874
 41
1173.202846975089
 11
0.0
 21
0.0
 31
1.0
 12
0.0
 22
0.0
 32
0.0
 42
50.0
 43
0.0
 44
0.0
 50
0.0
 71
     0
  0
VIEW
  2
AM_VIEW6
 70
     0
 40
1109.9889000000001
 10
853.50000059999445
 20
554.99999940360874
 41
2346.3822298932391
 11
0.0
 21
0.0
 31
1.0
 12
0.0
 22
0.0
 32
0.0
 42
50.0
 43
0.0
 44
0.0
 50
0.0
 71
     0
  0
ENDTAB
  0
TABLE
  2
UCS
 70
     0
  0
ENDTAB
  0
TABLE
  2
APPID
 70
   157
  0
APPID
  2
ACAD
 70
     0
  0
APPID
  2
ACADANNOTATIVE
 70
     0
  0
APPID
  2
ACAD_MLEADERVER
 70
     0
  0
APPID
  2
MCAD_NO_VIS
 70
     0
  0
APPID
  2
ACAD_TEMP_GRAPHIC
 70
     0
  0
APPID
  2
AD_DRAW
 70
     0
  0
APPID
  2
ACATTRIBSERVICES
 70
     0
  0
APPID
  2
DESIGNERASSEMBLIES
 70
     0
  0
APPID
  2
ACADM_DIM_EDIT
 70
     0
  0
APPID
  2
AMDT_DM_ADJ
 70
     0
  0
APPID
  2
GENIUS_GENDIMSH_14
 70
     0
  0
APPID
  2
GEVID1057795304
 70
     0
  0
APPID
  2
GEVDC
 70
     0
  0
APPID
  2
GEVCON
 70
     0
  0
APPID
  2
GENIUS_GENBH_13
 70
     0
  0
APPID
  2
GENIUS_GENOENT_13
 70
     0
  0
APPID
  2
GENIUS_GENOBJ-NBEHI-BHF_13
 70
     0
  0
APPID
  2
GENIUS_GENOLIS_13
 70
     0
  0
APPID
  2
GENIUS_GENODEF_13
 70
     0
  0
APPID
  2
GENIUS_GENOREF_13
 70
     0
  0
APPID
  2
GENIUS_GENOBJ-NBEHI-BHB_13
 70
     0
  0
APPID
  2
GENIUS_GENOBJ-F-SCPASSM_13
 70
     0
  0
APPID
  2
GENIUS_GENDTOL_13
 70
     0
  0
APPID
  2
GENIUS_GENTRA_14
 70
     0
  0
APPID
  2
ASURF_PCURVE_APPNAME
 70
     0
  0
APPID
  2
GENIUS_GENCFG_13
 70
     0
  0
APPID
  2
GENIUS_GE3CFG0_13
 70
     0
  0
APPID
  2
GENIUS_GENCFG0_13
 70
     0
  0
APPID
  2
GENIUS_GENCFG1_13
 70
     0
  0
APPID
  2
GENIUS_GENCFG2_13
 70
     0
  0
APPID
  2
GENIUS_GENCFG3_13
 70
     0
  0
APPID
  2
GENIUS_GENCFG4_13
 70
     0
  0
APPID
  2
GENIUS_GEVCFG0_13
 70
     0
  0
APPID
  2
GENIUS_GENOBJ-N-TIT_13
 70
     0
  0
APPID
  2
GENIUS_GENTITLE_13
 70
     0
  0
APPID
  2
GENIUS_GENSCREG_15
 70
     0
  0
APPID
  2
GENIUS_GENOBJ-N-SDF_13
 70
     0
  0
APPID
  2
GENIUS_GENFIL_13
 70
     0
  0
APPID
  2
GENIUS_GENOBJ-N-CHA_13
 70
     0
  0
APPID
  2
GENIUS_GEFSH_13
 70
     0
  0
APPID
  2
GENIUS_GENOBJ-F-SHS_13
 70
     0
  0
APPID
  2
GENIUS_GENOBJ-N-CEN_13
 70
     0
  0
APPID
  2
GENIUS_GENREC_14
 70
     0
  0
APPID
  2
GENIUS_GENOBJ-N-REC_13
 70
     0
  0
APPID
  2
GENIUS_GENOBJ-N-HTC_13
 70
     0
  0
APPID
  2
GENIUS_GENHATCH_13
 70
     0
  0
APPID
  2
ACAD_PSEXT
 70
     0
  0
APPID
  2
ACAD_EXEMPT_FROM_CAD_STANDARDS
 70
     0
  0
APPID
  2
ACAECLAYERSTANDARD
 70
     0
  0
APPID
  2
GENIUS_GENCEN_19
 70
     0
  0
APPID
  2
ACAD_DSTYLE_DIMINSPECT
 70
     0
  0
APPID
  2
ACAD_DSTYLE_DIMANGULAR_EXT
 70
     0
  0
APPID
  2
ACADANNOPO
 70
     0
  0
APPID
  2
ACAD_NAV_VCDISPLAY
 70
     0
  0
APPID
  2
GENIUS_GENOBJ-N-FIL_13
 70
     0
  0
APPID
  2
ACAD_DSTYLE_DIMBREAK
 70
     0
  0
APPID
  2
ACAD_DSTYLE_DIMJAG
 70
     0
  0
APPID
  2
ACAD_DSTYLE_DIMRADIAL_EXTENSION
 70
     0
  0
APPID
  2
GENIUS_GENHINW_13
 70
     0
  0
APPID
  2
GENIUS_FIRSTVISTXT_14
 70
     0
  0
APPID
  2
GENIUS_GENOBJ-N-LEADER_13
 70
     0
  0
APPID
  2
GENIUS_DUMCFG0_13
 70
     0
  0
APPID
  2
ACAD_DSTYLE_DIMTEXT_FILL
 70
     0
  0
APPID
  2
AMG_2DHIDE
 70
     0
  0
APPID
  2
GENIUS_GEFSHEP_13
 70
     0
  0
APPID
  2
GENIUS_GENOBJ-F-SHE_13
 70
     0
  0
APPID
  2
GENIUS_GEFSHE_13
 70
     0
  0
APPID
  2
ACAD_DIMASSOC_DIMLFAC
 70
     0
  0
APPID
  2
ACAD_DIMASSOC_CALC_DIMLFAC
 70
     0
  0
APPID
  2
ACAD_DIMASSOC_OVERRIDDEN_D
 70
     0
  0
APPID
  2
GENIUS_GENOBJ-F-SHSV_13
 70
     0
  0
APPID
  2
GENIUS_GEFWELD_13
 70
     0
  0
APPID
  2
GENIUS_GENOBJ-N-CRS_13
 70
     0
  0
APPID
  2
GENIUS_GENOBJ-N-RSBK_13
 70
     0
  0
APPID
  2
GENIUS_GENOBJ-N-LIB_13
 70
     0
  0
APPID
  2
GENIUS_GENSCALE_13
 70
     0
  0
APPID
  2
GENIUS_GENDREL_13
 70
     0
  0
APPID
  2
GEVPT
 70
     0
  0
APPID
  2
GEVIT
 70
     0
  0
APPID
  2
VCC
 70
     0
  0
APPID
  2
GENBH
 70
     0
  0
APPID
  2
GEVMK
 70
     0
  0
APPID
  2
GENIUS_GENOBJ-F-DESC_13
 70
     0
  0
APPID
  2
GENIUS_GEFDESC_14
 70
     0
  0
APPID
  2
GENIUS_GENOBJ-F-FEAT_13
 70
     0
  0
APPID
  2
GENIUS_GEFFEAT_14
 70
     0
  0
APPID
  2
GENIUS_GEFPARTINS_13
 70
     0
  0
APPID
  2
GENIUS_GENSCREG_13
 70
     0
  0
APPID
  2
GENIUS_GEFSHP_13
 70
     0
  0
APPID
  2
GEVID1025574798
 70
     0
  0
APPID
  2
GEVID1025574769
 70
     0
  0
APPID
  2
GEVID1025757451
 70
     0
  0
APPID
  2
GEVID1240528327
 70
     0
  0
APPID
  2
AMG_2DSTRUCT_BTR
 70
     0
  0
APPID
  2
ACADM_2DVIEW_IGN_NOTIFY
 70
     0
  0
APPID
  2
GEVID1240528328
 70
     0
  0
APPID
  2
GEVID1240528329
 70
     0
  0
APPID
  2
GEVRADREF
 70
     0
  0
APPID
  2
GEVID1240528330
 70
     0
  0
APPID
  2
GEVID1240528331
 70
     0
  0
APPID
  2
GEVID1240528332
 70
     0
  0
APPID
  2
GEVID1240791080
 70
     0
  0
APPID
  2
GEVID1240791081
 70
     0
  0
APPID
  2
GEVID1240791082
 70
     0
  0
APPID
  2
GEVID1240791083
 70
     0
  0
APPID
  2
GEVID1240791084
 70
     0
  0
APPID
  2
GEVID1240791085
 70
     0
  0
APPID
  2
GEVID1240791086
 70
     0
  0
APPID
  2
GEVID1240791087
 70
     0
  0
APPID
  2
GEVID1240791088
 70
     0
  0
APPID
  2
GEVID1240791089
 70
     0
  0
APPID
  2
GEVID1240791090
 70
     0
  0
APPID
  2
GEVID1240791091
 70
     0
  0
APPID
  2
GEVID1240791092
 70
     0
  0
APPID
  2
GEVID1240791093
 70
     0
  0
APPID
  2
GEVID1240791094
 70
     0
  0
APPID
  2
GEVID1240791095
 70
     0
  0
APPID
  2
GEVID1240791096
 70
     0
  0
APPID
  2
GEVID1240791097
 70
     0
  0
APPID
  2
GEVID1240791098
 70
     0
  0
APPID
  2
GEVID1240791099
 70
     0
  0
APPID
  2
GEVID1240791100
 70
     0
  0
APPID
  2
GEVID1240791101
 70
     0
  0
APPID
  2
GEVID1240791102
 70
     0
  0
APPID
  2
GEVID1240791103
 70
     0
  0
APPID
  2
GEVID1240791104
 70
     0
  0
APPID
  2
GEVID1240791105
 70
     0
  0
APPID
  2
GEVID1240875381
 70
     0
  0
APPID
  2
GEVID1240875382
 70
     0
  0
APPID
  2
GEVID1240875383
 70
     0
  0
APPID
  2
GEVID1240875384
 70
     0
  0
APPID
  2
GEVID1240875385
 70
     0
  0
APPID
  2
GEVID1240875386
 70
     0
  0
APPID
  2
GEVID1240875387
 70
     0
  0
APPID
  2
GEVID1240875388
 70
     0
  0
APPID
  2
GEVID1240875389
 70
     0
  0
APPID
  2
GEVID1240875390
 70
     0
  0
APPID
  2
GEVID1240875391
 70
     0
  0
APPID
  2
GEVID1240875392
 70
     0
  0
APPID
  2
GEVID1240875393
 70
     0
  0
APPID
  2
GEVID1240875394
 70
     0
  0
APPID
  2
GEVID1240875395
 70
     0
  0
APPID
  2
GEVID1240875396
 70
     0
  0
APPID
  2
GEVID1240875397
 70
     0
  0
APPID
  2
GEVID1240875398
 70
     0
  0
APPID
  2
GEVID1240875399
 70
     0
  0
APPID
  2
GEVID1240908996
 70
     0
  0
APPID
  2
GEVID1240908997
 70
     0
  0
APPID
  2
GEVID1240908998
 70
     0
  0
APPID
  2
GEVID1240908999
 70
     0
  0
APPID
  2
GEVID1240909000
 70
     0
  0
APPID
  2
GENIUS_GENOBJ-N-ZOO_13
 70
     0
  0
APPID
  2
GENIUS_GENZOO_17
 70
     0
  0
APPID
  2
GENIUS_GE3SECT_13
 70
     0
  0
APPID
  2
GEV_VCCNULL_SWITCH_OFF
 70
     0
  0
APPID
  2
ACAD_DSTYLE_DIMTALN
 70
     0
  0
APPID
  2
DCO15
 70
     0
  0
ENDTAB
  0
TABLE
  2
DIMSTYLE
 70
    21
  0
DIMSTYLE
  2
AM_ANSI
 70
     0
  3

  4
"
  5

  6

  7

 40
1.0
 41
2.5
 42
1.0
 43
10.0
 44
1.0
 45
0.0
 46
0.0
 47
0.1
 48
0.1
140
3.5
141
0.0
142
0.0
143
0.0393701
144
1.0
145
0.0
146
0.71
147
1.5
 71
     0
 72
     0
 73
     1
 74
     1
 75
     0
 76
     0
 77
     0
 78
     8
170
     0
171
     2
172
     0
173
     0
174
     0
175
     0
176
     2
177
     2
178
     4
  0
DIMSTYLE
  2
AM_ANSI$3
 70
     0
  3

  4
"
  5

  6

  7

 40
1.0
 41
2.5
 42
1.0
 43
10.0
 44
1.0
 45
0.0
 46
0.0
 47
0.1
 48
0.1
140
3.5
141
0.0
142
0.0
143
0.0393701
144
1.0
145
0.0
146
0.71
147
1.5
 71
     0
 72
     0
 73
     1
 74
     1
 75
     0
 76
     0
 77
     0
 78
     8
170
     0
171
     2
172
     0
173
     0
174
     0
175
     0
176
     2
177
     2
178
     4
  0
DIMSTYLE
  2
AM_ANSI$4
 70
     0
  3

  4
"
  5

  6

  7

 40
1.0
 41
2.5
 42
1.0
 43
10.0
 44
1.0
 45
0.0
 46
0.0
 47
0.1
 48
0.1
140
3.5
141
0.0
142
0.0
143
0.0393701
144
1.0
145
0.0
146
0.71
147
1.5
 71
     0
 72
     0
 73
     1
 74
     1
 75
     0
 76
     0
 77
     0
 78
     8
170
     0
171
     2
172
     0
173
     0
174
     0
175
     0
176
     2
177
     2
178
     4
  0
DIMSTYLE
  2
AM_ANSI$7
 70
     0
  3

  4
"
  5

  6

  7

 40
1.0
 41
2.5
 42
1.0
 43
10.0
 44
1.0
 45
0.0
 46
0.0
 47
0.1
 48
0.1
140
5.0
141
0.0
142
0.0
143
0.0393701
144
1.0
145
0.0
146
0.71
147
1.5
 71
     0
 72
     0
 73
     1
 74
     1
 75
     0
 76
     0
 77
     0
 78
     8
170
     0
171
     2
172
     0
173
     0
174
     0
175
     0
176
     2
177
     2
178
     4
  0
DIMSTYLE
  2
AM_ANSI$SF
 70
     0
  3

  4
"
  5

  6

  7

 40
1.0
 41
2.5
 42
1.0
 43
10.0
 44
1.0
 45
0.0
 46
0.0
 47
0.1
 48
0.1
140
3.5
141
0.0
142
0.0
143
0.0393701
144
1.0
145
0.0
146
0.71
147
1.5
 71
     0
 72
     0
 73
     1
 74
     1
 75
     1
 76
     1
 77
     0
 78
     8
170
     0
171
     2
172
     0
173
     0
174
     0
175
     0
176
     2
177
     2
178
     4
  0
DIMSTYLE
  2
AM_ANSI$SH
 70
     0
  3

  4
"
  5

  6
GENAXEH
  7

 40
1.0
 41
2.5
 42
1.0
 43
10.0
 44
1.0
 45
0.0
 46
0.0
 47
0.1
 48
0.1
140
3.5
141
0.0
142
0.0
143
0.0393701
144
1.0
145
0.0
146
0.71
147
1.5
 71
     0
 72
     0
 73
     1
 74
     1
 75
     1
 76
     1
 77
     0
 78
     8
170
     0
171
     2
172
     0
173
     1
174
     0
175
     0
176
     2
177
     2
178
     4
  0
DIMSTYLE
  2
AM_ISO
 70
     0
  3

  4
"
  5

  6

  7

 40
1.0
 41
2.5
 42
1.0
 43
10.0
 44
1.0
 45
0.0
 46
0.0
 47
0.1
 48
0.1
140
3.5
141
0.0
142
0.0
143
0.0393701
144
1.0
145
0.0
146
0.71
147
1.5
 71
     0
 72
     0
 73
     0
 74
     0
 75
     0
 76
     0
 77
     1
 78
     8
170
     0
171
     2
172
     1
173
     0
174
     0
175
     0
176
   256
177
   256
178
     2
  0
DIMSTYLE
  2
AM_ISO$3
 70
     0
  3

  4
"
  5

  6

  7

 40
1.0
 41
2.5
 42
1.0
 43
10.0
 44
1.0
 45
0.0
 46
0.0
 47
0.1
 48
0.1
140
3.5
141
0.0
142
0.0
143
0.0393701
144
1.0
145
0.0
146
0.71
147
1.5
 71
     0
 72
     0
 73
     0
 74
     1
 75
     0
 76
     0
 77
     1
 78
     8
170
     0
171
     2
172
     0
173
     0
174
     0
175
     0
176
   256
177
   256
178
     2
  0
DIMSTYLE
  2
AM_ISO$4
 70
     0
  3

  4
"
  5

  6

  7

 40
1.0
 41
2.5
 42
1.0
 43
10.0
 44
1.0
 45
0.0
 46
0.0
 47
0.1
 48
0.1
140
3.5
141
0.0
142
0.0
143
0.0393701
144
1.0
145
0.0
146
0.71
147
1.5
 71
     0
 72
     0
 73
     0
 74
     1
 75
     0
 76
     0
 77
     1
 78
     8
170
     0
171
     2
172
     0
173
     0
174
     0
175
     0
176
   256
177
   256
178
     2
  0
DIMSTYLE
  2
AM_ISO$6
 70
     0
  3

  4
"
  5

  6

  7

 40
1.0
 41
2.5
 42
1.0
 43
10.0
 44
1.0
 45
0.0
 46
0.0
 47
0.1
 48
0.1
140
3.5
141
0.0
142
0.0
143
0.0393701
144
1.0
145
0.0
146
0.71
147
1.5
 71
     0
 72
     0
 73
     0
 74
     0
 75
     0
 76
     0
 77
     0
 78
     8
170
     0
171
     2
172
     1
173
     0
174
     0
175
     0
176
   256
177
   256
178
     2
  0
DIMSTYLE
  2
AM_ISO$7
 70
     0
  3

  4
"
  5

  6

  7

 40
1.0
 41
2.5
 42
1.0
 43
10.0
 44
1.0
 45
0.0
 46
0.0
 47
0.1
 48
0.1
140
5.0
141
0.0
142
0.0
143
0.0393701
144
1.0
145
0.0
146
0.71
147
1.5
 71
     0
 72
     0
 73
     0
 74
     0
 75
     0
 76
     0
 77
     1
 78
     8
170
     0
171
     2
172
     1
173
     0
174
     0
175
     0
176
   256
177
   256
178
     2
  0
DIMSTYLE
  2
AM_ISO$SF
 70
     0
  3

  4
"
  5

  6

  7

 40
1.0
 41
2.5
 42
1.0
 43
10.0
 44
1.0
 45
0.0
 46
0.0
 47
0.1
 48
0.1
140
3.5
141
0.0
142
0.0
143
0.0393701
144
1.0
145
0.0
146
0.71
147
1.5
 71
     0
 72
     0
 73
     0
 74
     0
 75
     1
 76
     1
 77
     1
 78
     8
170
     0
171
     2
172
     1
173
     0
174
     0
175
     0
176
   256
177
   256
178
     2
  0
DIMSTYLE
  2
AM_ISO$SH
 70
     0
  3

  4
"
  5

  6
GENAXEH
  7

 40
1.0
 41
2.5
 42
1.0
 43
10.0
 44
1.0
 45
0.0
 46
0.0
 47
0.1
 48
0.1
140
3.5
141
0.0
142
0.0
143
0.0393701
144
2.0
145
0.0
146
0.71
147
1.5
 71
     0
 72
     0
 73
     0
 74
     0
 75
     1
 76
     1
 77
     1
 78
     8
170
     0
171
     2
172
     1
173
     1
174
     0
175
     0
176
   256
177
   256
178
     2
  0
DIMSTYLE
  2
AM_JIS
 70
     0
  3

  4
"
  5

  6

  7

 40
1.0
 41
2.0
 42
1.0
 43
8.0
 44
1.0
 45
0.0
 46
0.0
 47
0.1
 48
0.1
140
2.5
141
0.0
142
0.0
143
0.0393701
144
1.0
145
0.0
146
0.71
147
1.5
 71
     0
 72
     0
 73
     0
 74
     0
 75
     0
 76
     0
 77
     3
 78
     8
170
     0
171
     2
172
     1
173
     0
174
     0
175
     0
176
     2
177
     2
178
     4
  0
DIMSTYLE
  2
AM_JIS$3
 70
     0
  3

  4
"
  5

  6

  7

 40
1.0
 41
2.0
 42
1.0
 43
10.0
 44
1.0
 45
0.0
 46
0.0
 47
0.1
 48
0.1
140
2.5
141
0.0
142
0.0
143
0.0393701
144
1.0
145
0.0
146
0.71
147
1.5
 71
     0
 72
     0
 73
     0
 74
     1
 75
     0
 76
     0
 77
     3
 78
     8
170
     0
171
     2
172
     0
173
     0
174
     0
175
     0
176
     2
177
     2
178
     4
  0
DIMSTYLE
  2
AM_JIS$4
 70
     0
  3

  4
"
  5

  6

  7

 40
1.0
 41
2.0
 42
1.0
 43
10.0
 44
1.0
 45
0.0
 46
0.0
 47
0.1
 48
0.1
140
2.5
141
0.0
142
0.0
143
0.0393701
144
1.0
145
0.0
146
0.71
147
1.5
 71
     0
 72
     0
 73
     0
 74
     0
 75
     0
 76
     0
 77
     3
 78
     8
170
     0
171
     2
172
     0
173
     0
174
     0
175
     0
176
     2
177
     2
178
     4
  0
DIMSTYLE
  2
AM_JIS$6
 70
     0
  3

  4
"
  5

  6

  7

 40
1.0
 41
2.0
 42
1.0
 43
10.0
 44
1.0
 45
0.0
 46
0.0
 47
0.1
 48
0.1
140
2.5
141
0.0
142
0.0
143
0.0393701
144
1.0
145
0.0
146
0.71
147
1.5
 71
     0
 72
     0
 73
     0
 74
     0
 75
     0
 76
     0
 77
     0
 78
     8
170
     0
171
     2
172
     1
173
     0
174
     0
175
     0
176
     2
177
     2
178
     4
  0
DIMSTYLE
  2
AM_JIS$7
 70
     0
  3

  4
"
  5

  6
OPEN30
  7
OPEN30
 40
1.0
 41
2.0
 42
1.0
 43
10.0
 44
1.0
 45
0.0
 46
0.0
 47
0.1
 48
0.1
140
2.5
141
0.0
142
0.0
143
0.0393701
144
1.0
145
0.0
146
0.71
147
1.5
 71
     0
 72
     0
 73
     0
 74
     0
 75
     0
 76
     0
 77
     3
 78
     8
170
     0
171
     2
172
     1
173
     0
174
     0
175
     0
176
     2
177
     2
178
     4
  0
DIMSTYLE
  2
AM_JIS$SF
 70
     0
  3

  4
"
  5

  6

  7

 40
1.0
 41
2.0
 42
1.0
 43
10.0
 44
1.0
 45
0.0
 46
0.0
 47
0.1
 48
0.1
140
2.5
141
0.0
142
0.0
143
0.0393701
144
1.0
145
0.0
146
0.71
147
1.5
 71
     0
 72
     0
 73
     0
 74
     0
 75
     1
 76
     1
 77
     3
 78
     8
170
     0
171
     2
172
     1
173
     0
174
     0
175
     0
176
     2
177
     2
178
     4
  0
DIMSTYLE
  2
AM_JIS$SH
 70
     0
  3

  4
"
  5

  6
GENAXEH
  7

 40
1.0
 41
2.0
 42
1.0
 43
10.0
 44
1.0
 45
0.0
 46
0.0
 47
0.1
 48
0.1
140
2.5
141
0.0
142
0.0
143
0.0393701
144
2.0
145
0.0
146
0.71
147
1.5
 71
     0
 72
     0
 73
     0
 74
     0
 75
     1
 76
     1
 77
     3
 78
     8
170
     0
171
     2
172
     1
173
     1
174
     0
175
     0
176
     2
177
     2
178
     4
  0
DIMSTYLE
  2
AM_JIS$0
 70
     0
  3

  4
"
  5

  6

  7

 40
1.0
 41
2.0
 42
1.0
 43
8.0
 44
1.0
 45
0.0
 46
0.0
 47
0.1
 48
0.1
140
2.5
141
0.0
142
0.0
143
0.0393701
144
1.0
145
0.0
146
0.71
147
1.5
 71
     0
 72
     0
 73
     0
 74
     0
 75
     0
 76
     0
 77
     3
 78
     8
170
     0
171
     2
172
     1
173
     0
174
     0
175
     0
176
     2
177
     2
178
     4
  0
ENDTAB
  0
ENDSEC
  0
SECTION
  2
BLOCKS
  0
BLOCK
  8
0
  2
$MODEL_SPACE
 70
     0
 10
0.0
 20
0.0
 30
0.0
  3
$MODEL_SPACE
  1

  0
ENDBLK
  5
77
  8
0
  0
BLOCK
 67
     1
  8
0
  2
$PAPER_SPACE
 70
     0
 10
0.0
 20
0.0
 30
0.0
  3
$PAPER_SPACE
  1

  0
ENDBLK
  5
73
 67
     1
  8
0
  0
BLOCK
  8
0
  2
GENAXEH
 70
     0
 10
0.0
 20
0.0
 30
0.0
  3
GENAXEH
  1

  0
LINE
  5
9B1D
  8
0
 10
-1.0
 20
0.0
 30
0.0
 11
1.0
 21
0.0
 31
0.0
  0
ENDBLK
  5
9B1E
  8
0
  0
BLOCK
  8
0
  2
_OPEN30
 70
     0
 10
0.0
 20
0.0
 30
0.0
  3
_OPEN30
  1

  0
LINE
  5
9B64
  8
0
  6
BYBLOCK
 62
     0
 10
-1.0
 20
0.26794919
 30
0.0
 11
0.0
 21
0.0
 31
0.0
  0
LINE
  5
9B65
  8
0
  6
BYBLOCK
 62
     0
 10
0.0
 20
0.0
 30
0.0
 11
-1.0
 21
-0.26794919
 31
0.0
  0
LINE
  5
9B66
  8
0
  6
BYBLOCK
 62
     0
 10
0.0
 20
0.0
 30
0.0
 11
-1.0
 21
0.0
 31
0.0
  0
ENDBLK
  5
9B67
  8
0
  0
BLOCK
  8
0
  2
*D3
 70
     1
 10
0.0
 20
0.0
 30
0.0
  3
*D3
  1

  0
LINE
  5
9BAD
  8
AM_5
 62
     2
 10
867.63193365862435
 20
626.21996546154173
 30
0.0
 11
867.63193365862435
 21
732.21856828714283
 31
0.0
  0
LINE
  5
9BAE
  8
AM_5
 62
     2
 10
171.33197365862429
 20
602.5062503118686
 30
0.0
 11
171.33197365862429
 21
732.21856828714283
 31
0.0
  0
LINE
  5
9BAF
  8
AM_5
 62
     2
 10
865.63193365862435
 20
731.21856828714283
 30
0.0
 11
173.33197365862429
 21
731.21856828714283
 31
0.0
  0
SOLID
  5
9BB0
  8
AM_5
 62
     2
 10
865.63193365862435
 20
731.55190162047609
 30
0.0
 11
865.63193365862435
 21
730.88523495380923
 31
0.0
 12
867.63193365862435
 22
731.21856828714283
 32
0.0
 13
867.63193365862435
 23
731.21856828714283
 33
0.0
  0
SOLID
  5
9BB1
  8
AM_5
 62
     2
 10
173.33197365862429
 20
731.55190162047609
 30
0.0
 11
173.33197365862429
 21
730.88523495380923
 31
0.0
 12
171.33197365862429
 22
731.21856828714283
 32
0.0
 13
171.33197365862429
 23
731.21856828714283
 33
0.0
  0
INSERT
  5
9BB2
  8
0
  2
*U7
 10
0.0
 20
0.0
 30
0.0
  0
POINT
  5
9BB3
  8
DEFPOINTS
 62
     0
 10
867.63193365862435
 20
625.21996546154173
 30
0.0
  0
POINT
  5
9BB4
  8
DEFPOINTS
 62
     0
 10
171.33197365862429
 20
601.50625031186837
 30
0.0
  0
POINT
  5
9BB5
  8
DEFPOINTS
 62
     0
 10
171.33197365862429
 20
731.21856828714283
 30
0.0
  0
ENDBLK
  5
9B8F
  8
0
  0
BLOCK
  8
0
  2
_ACMFILLEDHALF
 70
     0
 10
0.0
 20
0.0
 30
0.0
  3
_ACMFILLEDHALF
  1

  0
TRACE
  5
9C4D
  8
0
  6
CONTINUOUS
 62
     0
 10
-0.8
 20
0.0
 30
0.0
 11
-1.0
 21
0.166666666
 31
0.0
 12
0.0
 22
0.0
 32
0.0
 13
0.0
 23
0.0
 33
0.0
  0
LINE
  5
9C4E
  8
0
  6
CONTINUOUS
 62
     0
 10
-1.0
 20
0.0
 30
0.0
 11
-0.8
 21
0.0
 31
0.0
  0
ENDBLK
  5
9C4F
  8
0
  0
BLOCK
  8
0
  2
*U7
 70
     1
 10
0.0
 20
0.0
 30
0.0
  3
*U7
  1

  0
TEXT
  5
9CD3
  8
AM_5
 62
     4
 10
517.01528699195762
 20
732.71856828714283
 30
0.0
 40
2.5
  1
696
 41
0.7400000000000003
  0
ENDBLK
  5
9CD5
  8
0
  0
ENDSEC
  0
SECTION
  2
ENTITIES
  0
LINE
  5
69C6
  8
0
  6
AM_ISO08W050
 10
510.31828365862469
 20
640.69149669459739
 30
0.0
 11
874.56078365862447
 21
640.69149669459739
 31
0.0
  0
LINE
  5
69C7
  8
0
 10
1251.7642582236961
 20
772.70014669459727
 30
0.0
 11
1256.2422882236961
 21
771.81239669459728
 31
0.0
  0
LINE
  5
69C8
  8
0
 10
1237.286203223696
 20
771.81244669459716
 30
0.0
 11
1241.7642582236961
 21
772.70024669459735
 31
0.0
  0
LINE
  5
69C9
  8
0
 10
1234.1182332236961
 20
762.14649669459732
 30
0.0
 11
1236.514718223696
 21
771.09034669459732
 31
0.0
  0
LINE
  5
69CA
  8
0
 10
1259.4102882236959
 20
762.14644669459733
 30
0.0
 11
1257.013773223696
 21
771.09034669459732
 31
0.0
  0
LINE
  5
69CB
  8
0
 10
1251.764288223696
 20
808.69144669459729
 30
0.0
 11
1251.764288223696
 21
766.69149669459728
 31
0.0
  0
LINE
  5
69CC
  8
0
 10
1241.764288223696
 20
808.69144669459729
 30
0.0
 11
1241.764288223696
 21
766.69149669459728
 31
0.0
  0
LINE
  5
69CD
  8
0
 10
805.63193365862412
 20
672.19149669459728
 30
0.0
 11
805.63193365862412
 21
668.19149669459716
 31
0.0
  0
LINE
  5
69CE
  8
0
 10
805.63193365862412
 20
672.19149669459728
 30
0.0
 11
867.63193365862435
 21
672.19149669459728
 31
0.0
  0
LINE
  5
69CF
  8
0
 10
785.63193365862423
 20
613.19149669459739
 30
0.0
 11
867.63193365862435
 21
613.19149669459739
 31
0.0
  0
LINE
  5
69D0
  8
0
 10
867.63193365862435
 20
672.19149669459728
 30
0.0
 11
867.63193365862435
 21
613.19149669459739
 31
0.0
  0
LINE
  5
69D1
  8
0
 10
785.63193365862423
 20
670.69149669459739
 30
0.0
 11
785.63193365862423
 21
610.69149669459716
 31
0.0
  0
LINE
  5
69D2
  8
0
 10
785.63193365862423
 20
668.19149669459716
 30
0.0
 11
867.63193365862435
 21
668.19149669459716
 31
0.0
  0
LINE
  5
69D3
  8
0
 10
553.63203365862455
 20
693.19149669459716
 30
0.0
 11
553.63203365862455
 21
498.191491694597
 31
0.0
  0
LINE
  5
69D4
  8
0
 10
779.63193365862469
 20
670.69149669459739
 30
0.0
 11
785.63193365862423
 21
670.69149669459739
 31
0.0
  0
LINE
  5
69D5
  8
0
 10
614.63203365862455
 20
773.69144669459729
 30
0.0
 11
624.11008365862472
 21
771.81239669459728
 31
0.0
  0
LINE
  5
69D6
  8
0
 10
605.15393365862474
 20
771.81244669459716
 30
0.0
 11
614.63193365862458
 21
773.69144669459729
 31
0.0
  0
LINE
  5
69D7
  8
0
 10
627.13208365862465
 20
762.69144669459718
 30
0.0
 11
624.88158365862455
 21
771.09034669459732
 31
0.0
  0
LINE
  5
69D8
  8
0
 10
602.13203365862455
 20
762.69144669459718
 30
0.0
 11
604.38248365862455
 21
771.09034669459732
 31
0.0
  0
LINE
  5
69D9
  8
0
 10
604.83788365862438
 20
771.69149669459728
 30
0.0
 11
624.42598365862432
 21
771.69149669459728
 31
0.0
  0
LINE
  5
69DA
  8
0
 10
779.63193365862469
 20
610.69149669459716
 30
0.0
 11
785.63193365862423
 21
610.69149669459716
 31
0.0
  0
LINE
  5
69DB
  8
0
 10
1238.7642582236961
 20
662.19144669459718
 30
0.0
 11
1254.764288223696
 21
662.19144669459718
 31
0.0
  0
LINE
  5
69DC
  8
0
 10
1238.7642582236961
 20
672.19149669459728
 30
0.0
 11
1254.764288223696
 21
672.19149669459728
 31
0.0
  0
LINE
  5
69DD
  8
0
 10
1238.7642582236961
 20
662.19144669459718
 30
0.0
 11
1238.7642582236961
 21
672.19149669459728
 31
0.0
  0
LINE
  5
69DE
  8
0
 10
1254.764288223696
 20
662.19144669459718
 30
0.0
 11
1254.764288223696
 21
672.19149669459728
 31
0.0
  0
LINE
  5
69DF
  8
0
 10
1113.764268223696
 20
649.15786669459749
 30
0.0
 11
1113.764268223696
 21
635.31719669459744
 31
0.0
  0
LINE
  5
69E0
  8
0
 10
1146.764288223696
 20
482.69146169459719
 30
0.0
 11
1146.764288223696
 21
625.69149669459739
 31
0.0
  0
LINE
  5
69E1
  8
0
 10
637.63193365862423
 20
632.79748169459674
 30
0.0
 11
657.63193365862435
 21
632.79748169459674
 31
0.0
  0
LINE
  5
69E2
  8
0
 10
776.56218365862446
 20
700.7986966945972
 30
0.0
 11
777.70178365862478
 21
700.7588966945973
 31
0.0
  0
LINE
  5
69E3
  8
0
 10
756.76043365862461
 20
727.25504669459735
 30
0.0
 11
770.06773365862455
 21
726.0908466945973
 31
0.0
  0
LINE
  5
69E4
  8
0
  6
ACISOTGL
 10
1104.764268223696
 20
470.691491694597
 30
0.0
 11
1104.764268223696
 21
440.69146169459719
 31
0.0
  0
LINE
  5
69E5
  8
0
  6
ACISOTGL
 10
1123.7642582236961
 20
470.691491694597
 30
0.0
 11
1123.7642582236961
 21
440.69146169459719
 31
0.0
  0
LINE
  5
69E6
  8
0
 10
1081.764268223696
 20
470.691491694597
 30
0.0
 11
1081.764268223696
 21
440.69146169459719
 31
0.0
  0
LINE
  5
69E7
  8
0
 10
1146.764288223696
 20
470.691491694597
 30
0.0
 11
1086.764268223696
 21
470.691491694597
 31
0.0
  0
LINE
  5
69E8
  8
0
 10
1151.764288223696
 20
440.69146169459719
 30
0.0
 11
1081.764268223696
 21
440.69146169459719
 31
0.0
  0
LINE
  5
69E9
  8
0
 10
1246.764288223696
 20
447.6914316945971
 30
0.0
 11
1156.764288223696
 21
447.6914316945971
 31
0.0
  0
LINE
  5
69EA
  8
0
  6
AM_ISO08W050
 10
1114.264268223696
 20
475.3527466945975
 30
0.0
 11
1114.264268223696
 21
437.69146169459731
 31
0.0
  0
LINE
  5
69EB
  8
0
 10
774.63193365862469
 20
721.10984669459731
 30
0.0
 11
774.63193365862469
 21
474.35174169459742
 31
0.0
  0
LINE
  5
69EC
  8
0
 10
724.63193365862446
 20
470.691491694597
 30
0.0
 11
774.63193365862469
 21
470.691491694597
 31
0.0
  0
LINE
  5
69ED
  8
0
  6
AM_ISO08W050
 10
749.63193365862446
 20
474.59936169459712
 30
0.0
 11
749.63193365862446
 21
437.69146169459731
 31
0.0
  0
LINE
  5
69EE
  8
0
 10
779.63193365862469
 20
465.69146169459719
 30
0.0
 11
779.63193365862469
 21
440.69146169459719
 31
0.0
  0
LINE
  5
69EF
  8
0
 10
632.63193365862435
 20
762.69144669459718
 30
0.0
 11
652.80643365862488
 21
761.98694669459735
 31
0.0
  0
LINE
  5
69F0
  8
0
  6
AM_ISO08W050
 10
579.63193365862469
 20
473.691491694597
 30
0.0
 11
579.63193365862469
 21
437.69146169459731
 31
0.0
  0
LINE
  5
69F1
  8
0
 10
779.63193365862469
 20
698.76009669459734
 30
0.0
 11
779.63193365862469
 21
582.62289169459723
 31
0.0
  0
LINE
  5
69F2
  8
0
  6
ACISOTGL
 10
759.13193365862469
 20
470.691491694597
 30
0.0
 11
759.13193365862469
 21
440.69146169459719
 31
0.0
  0
LINE
  5
69F3
  8
0
  6
ACISOTGL
 10
740.13193365862423
 20
470.691491694597
 30
0.0
 11
740.13193365862423
 21
440.69146169459719
 31
0.0
  0
LINE
  5
69F4
  8
0
 10
660.66023365862475
 20
757.71274669459706
 30
0.0
 11
737.98093365862439
 21
755.01259669459751
 31
0.0
  0
LINE
  5
69F5
  8
0
  6
ACISOTGL
 10
570.13193365862435
 20
470.691491694597
 30
0.0
 11
570.13193365862435
 21
440.69146169459719
 31
0.0
  0
LINE
  5
69F6
  8
0
 10
549.6319336586248
 20
440.69146169459719
 30
0.0
 11
779.63193365862469
 21
440.69146169459719
 31
0.0
  0
LINE
  5
69F7
  8
0
 10
776.56223365862468
 20
580.58428669459715
 30
0.0
 11
777.70183365862431
 21
580.62408169459718
 31
0.0
  0
LINE
  5
69F8
  8
0
 10
549.6319336586248
 20
465.69146169459719
 30
0.0
 11
549.6319336586248
 21
440.69146169459719
 31
0.0
  0
LINE
  5
69F9
  8
0
  6
AM_ISO08W050
 10
1246.764288223696
 20
434.69146169459731
 30
0.0
 11
1246.764288223696
 21
816.69074669459712
 31
0.0
  0
LINE
  5
69FA
  8
0
 10
554.6319336586248
 20
470.691491694597
 30
0.0
 11
601.46138365862453
 21
470.691491694597
 31
0.0
  0
LINE
  5
69FB
  8
0
 10
657.63193365862435
 20
756.98999669459715
 30
0.0
 11
657.63193365862435
 21
632.79748169459674
 31
0.0
  0
LINE
  5
69FC
  8
0
 10
637.63193365862423
 20
632.79748169459674
 30
0.0
 11
637.63193365862423
 21
542.93044669459732
 31
0.0
  0
LINE
  5
69FD
  8
0
  6
ACISOTGL
 10
589.13193365862469
 20
470.691491694597
 30
0.0
 11
589.13193365862469
 21
440.69146169459719
 31
0.0
  0
LINE
  5
69FE
  8
0
 10
747.63193365862423
 20
745.01869669459688
 30
0.0
 11
747.63193365862423
 21
496.99850169459722
 31
0.0
  0
LINE
  5
69FF
  8
0
 10
1129.764288223696
 20
547.65539169459714
 30
0.0
 11
1129.764288223696
 21
691.6252966945973
 31
0.0
  0
LINE
  5
6A00
  8
0
 10
729.63193365862469
 20
692.64914669459733
 30
0.0
 11
747.63193365862423
 21
692.64914669459733
 31
0.0
  0
LINE
  5
6A01
  8
0
 10
714.63193365862458
 20
486.99850169459739
 30
0.0
 11
737.63193365862423
 21
486.99850169459739
 31
0.0
  0
LINE
  5
6A02
  8
0
 10
714.63193365862458
 20
677.64914669459722
 30
0.0
 11
714.63193365862458
 21
480.69149169459672
 31
0.0
  0
LINE
  5
6A03
  8
0
 10
1151.764288223696
 20
465.69146169459719
 30
0.0
 11
1151.764288223696
 21
440.69146169459719
 31
0.0
  0
LINE
  5
6A04
  8
0
 10
1081.764268223696
 20
470.691491694597
 30
0.0
 11
1119.9616132236961
 21
667.19974669459725
 31
0.0
  0
LINE
  5
6A05
  8
0
 10
605.98398365862431
 20
473.55938169459728
 30
0.0
 11
636.67723365862457
 21
538.66625669459722
 31
0.0
  0
LINE
  5
6A06
  8
0
 10
1246.764288223696
 20
456.69146169459742
 30
0.0
 11
1187.7549482236959
 21
456.69146169459742
 31
0.0
  0
LINE
  5
6A07
  8
0
 10
1154.6932132236959
 20
453.62038669459741
 30
0.0
 11
1162.883673223696
 21
461.81087669459708
 31
0.0
  0
LINE
  5
6A08
  8
0
 10
1182.019173223696
 20
458.49996169459752
 30
0.0
 11
1175.690528223696
 21
462.93133169459719
 31
0.0
  0
LINE
  5
6A09
  8
0
 10
555.63193365862435
 20
678.88664669459729
 30
0.0
 11
555.63193365862435
 21
652.4672816945972
 31
0.0
  0
LINE
  5
6A0A
  8
0
 10
553.6318836586247
 20
498.19146169459742
 30
0.0
 11
571.80638365862478
 21
497.55678669459678
 31
0.0
  0
LINE
  5
6A0B
  8
0
 10
632.63193365862435
 20
762.69144669459718
 30
0.0
 11
632.63193365862435
 21
530.08541169459704
 31
0.0
  0
LINE
  5
6A0C
  8
0
 10
601.63193365862469
 20
762.69144669459718
 30
0.0
 11
632.63193365862435
 21
762.69144669459718
 31
0.0
  0
LINE
  5
6A0D
  8
0
 10
598.23353365862431
 20
733.12394669459707
 30
0.0
 11
601.23353365862465
 21
736.23929669459733
 31
0.0
  0
LINE
  5
6A0E
  8
0
 10
599.63193365862458
 20
760.69149669459716
 30
0.0
 11
599.63193365862458
 21
736.59214669459732
 31
0.0
  0
LINE
  5
6A0F
  8
0
 10
604.56223365862456
 20
761.71129669459731
 30
0.0
 11
632.63208365862465
 21
762.69149669459728
 31
0.0
  0
LINE
  5
6A10
  8
0
 10
602.63193365862423
 20
759.71249669459712
 30
0.0
 11
602.63193365862423
 21
470.83047169459712
 31
0.0
  0
LINE
  5
6A11
  8
0
 10
553.63208365862465
 20
693.19149669459716
 30
0.0
 11
571.80658365862473
 21
693.82614669459736
 31
0.0
  0
LINE
  5
6A12
  8
0
 10
578.03033365862473
 20
712.14364669459735
 30
0.0
 11
598.23353365862431
 21
733.12394669459707
 31
0.0
  0
LINE
  5
6A13
  8
0
 10
590.48693365862425
 20
470.6914316945971
 30
0.0
 11
578.70573365862424
 21
479.1946966945975
 31
0.0
  0
LINE
  5
6A14
  8
0
 10
576.63193365862469
 20
708.67544669459733
 30
0.0
 11
576.63193365862469
 21
483.24898669459691
 31
0.0
  0
LINE
  5
6A15
  8
0
 10
1379.764278223696
 20
649.15786669459749
 30
0.0
 11
1379.764278223696
 21
635.31719669459744
 31
0.0
  0
LINE
  5
6A16
  8
0
  6
AM_ISO08W050
 10
1329.7391234736961
 20
640.69149669459739
 30
0.0
 11
1163.7894529736959
 21
640.69149669459739
 31
0.0
  0
LINE
  5
6A17
  8
0
 10
1346.7642582236961
 20
482.69146169459719
 30
0.0
 11
1346.7642582236961
 21
625.69149669459739
 31
0.0
  0
LINE
  5
6A18
  8
0
  6
ACISOTGL
 10
1388.764278223696
 20
470.691491694597
 30
0.0
 11
1388.764278223696
 21
440.69146169459719
 31
0.0
  0
LINE
  5
6A19
  8
0
  6
ACISOTGL
 10
1369.764278223696
 20
470.691491694597
 30
0.0
 11
1369.764278223696
 21
440.69146169459719
 31
0.0
  0
LINE
  5
6A1A
  8
0
 10
1411.7642632236959
 20
470.691491694597
 30
0.0
 11
1411.7642632236959
 21
440.69146169459719
 31
0.0
  0
LINE
  5
6A1B
  8
0
 10
1346.7642582236961
 20
470.691491694597
 30
0.0
 11
1406.7642632236959
 21
470.691491694597
 31
0.0
  0
LINE
  5
6A1C
  8
0
 10
1341.7642582236961
 20
440.69146169459719
 30
0.0
 11
1411.7642632236959
 21
440.69146169459719
 31
0.0
  0
LINE
  5
6A1D
  8
0
 10
1246.764288223696
 20
447.6914316945971
 30
0.0
 11
1336.7642582236961
 21
447.6914316945971
 31
0.0
  0
LINE
  5
6A1E
  8
0
  6
AM_ISO08W050
 10
1379.2642632236959
 20
475.3527466945975
 30
0.0
 11
1379.2642632236959
 21
437.69146169459731
 31
0.0
  0
LINE
  5
6A1F
  8
0
 10
1363.764278223696
 20
547.65539169459714
 30
0.0
 11
1363.764278223696
 21
691.6252966945973
 31
0.0
  0
LINE
  5
6A20
  8
0
 10
1341.7642582236961
 20
465.69146169459719
 30
0.0
 11
1341.7642582236961
 21
440.69146169459719
 31
0.0
  0
LINE
  5
6A21
  8
0
 10
1411.7642632236959
 20
470.69146169459708
 30
0.0
 11
1373.5669182236959
 21
667.19979669459724
 31
0.0
  0
LINE
  5
6A22
  8
0
 10
1246.764288223696
 20
456.69146169459742
 30
0.0
 11
1305.7735982236959
 21
456.69146169459742
 31
0.0
  0
LINE
  5
6A23
  8
0
 10
1338.835338223696
 20
453.62038669459741
 30
0.0
 11
1330.6448432236959
 21
461.81087669459708
 31
0.0
  0
LINE
  5
6A24
  8
0
 10
1311.509348223696
 20
458.49993169459731
 30
0.0
 11
1317.8380232236959
 21
462.93133169459719
 31
0.0
  0
LINE
  5
6A25
  8
0
 10
555.63193365862435
 20
678.88664669459729
 30
0.0
 11
576.63193365862469
 21
678.88664669459729
 31
0.0
  0
LINE
  5
6A26
  8
0
 10
555.63193365862435
 20
668.6976466945971
 30
0.0
 11
576.63193365862469
 21
668.6976466945971
 31
0.0
  0
LINE
  5
6A27
  8
0
 10
555.63193365862435
 20
652.4672816945972
 30
0.0
 11
576.63193365862469
 21
652.4672816945972
 31
0.0
  0
LINE
  5
6A28
  8
0
 10
555.63193365862435
 20
538.9156766945971
 30
0.0
 11
576.63193365862469
 21
538.9156766945971
 31
0.0
  0
LINE
  5
6A29
  8
0
 10
555.63193365862435
 20
522.68529669459713
 30
0.0
 11
576.63193365862469
 21
522.68529669459713
 31
0.0
  0
LINE
  5
6A2A
  8
0
 10
555.63193365862435
 20
512.49630169459704
 30
0.0
 11
576.63193365862469
 21
512.49630169459704
 31
0.0
  0
LINE
  5
6A2B
  8
0
 10
555.63193365862435
 20
538.9156766945971
 30
0.0
 11
555.63193365862435
 21
512.49630169459704
 31
0.0
  0
LINE
  5
6A2C
  8
0
 10
551.63203365862455
 20
496.19146169459731
 30
0.0
 11
553.6319336586248
 21
498.19146169459742
 31
0.0
  0
LINE
  5
6A2D
  8
0
 10
463.63203365862432
 20
479.69146169459731
 30
0.0
 11
472.13093365862431
 21
479.69146169459731
 31
0.0
  0
LINE
  5
6A2E
  8
0
  6
AM_ISO08W050
 10
158.25189673790919
 20
553.19149169459706
 30
0.0
 11
526.34057649170234
 21
553.19149169459706
 31
0.0
  0
LINE
  5
6A2F
  8
0
 10
541.6319336586248
 20
695.19144669459718
 30
0.0
 11
551.63193365862469
 21
695.19144669459718
 31
0.0
  0
LINE
  5
6A30
  8
0
 10
540.63193365862435
 20
496.19149169459689
 30
0.0
 11
551.63193365862469
 21
496.19149169459689
 31
0.0
  0
LINE
  5
6A31
  8
0
 10
538.63203365862455
 20
498.191491694597
 30
0.0
 11
538.63203365862455
 21
692.19149669459728
 31
0.0
  0
LINE
  5
6A32
  8
0
 10
463.63203365862432
 20
626.69149669459716
 30
0.0
 11
477.20648365862411
 21
627.16552169459737
 31
0.0
  0
LINE
  5
6A33
  8
0
 10
486.8318336586243
 20
504.69146169459731
 30
0.0
 11
535.63193365862435
 21
504.69146169459731
 31
0.0
  0
LINE
  5
6A34
  8
0
 10
551.63203365862455
 20
695.19144669459718
 30
0.0
 11
553.6319336586248
 21
693.19149669459716
 31
0.0
  0
LINE
  5
6A35
  8
0
 10
480.56743365862428
 20
628.62688669459749
 30
0.0
 11
537.16753365862428
 21
685.22694669459725
 31
0.0
  0
LINE
  5
6A36
  8
0
 10
476.82938365862429
 20
482.98137669459709
 30
0.0
 11
484.01273365862471
 21
502.71755669459691
 31
0.0
  0
LINE
  5
6A38
  8
0
 10
538.63203365862455
 20
678.88664669459729
 30
0.0
 11
553.63203365862455
 21
678.88664669459729
 31
0.0
  0
LINE
  5
6A39
  8
0
 10
538.63203365862455
 20
668.6976466945971
 30
0.0
 11
553.63203365862455
 21
668.6976466945971
 31
0.0
  0
LINE
  5
6A3A
  8
0
 10
538.63203365862455
 20
652.4672816945972
 30
0.0
 11
553.63203365862455
 21
652.4672816945972
 31
0.0
  0
LINE
  5
6A3B
  8
0
 10
538.63203365862455
 20
538.9156766945971
 30
0.0
 11
553.63203365862455
 21
538.9156766945971
 31
0.0
  0
LINE
  5
6A3C
  8
0
 10
538.63203365862455
 20
522.68529669459713
 30
0.0
 11
553.63203365862455
 21
522.68529669459713
 31
0.0
  0
LINE
  5
6A3D
  8
0
 10
538.63203365862455
 20
512.49630169459704
 30
0.0
 11
553.63203365862455
 21
512.49630169459704
 31
0.0
  0
LINE
  5
6A3E
  8
0
 10
463.63203365862432
 20
513.71682169459734
 30
0.0
 11
475.63203365862421
 21
513.71682169459734
 31
0.0
  0
LINE
  5
6A3F
  8
0
 10
463.63203365862432
 20
592.66616669459745
 30
0.0
 11
478.63203365862449
 21
592.66616669459745
 31
0.0
  0
LINE
  5
6A40
  8
0
 10
484.7312336586246
 20
546.23962169459719
 30
0.0
 11
484.7312336586246
 21
504.69146169459731
 31
0.0
  0
LINE
  5
6A41
  8
0
 10
479.17473365862452
 20
627.23425169459722
 30
0.0
 11
479.17473365862452
 21
553.19149169459706
 31
0.0
  0
LINE
  5
6A42
  8
0
 10
475.63203365862421
 20
546.23962169459719
 30
0.0
 11
475.63203365862421
 21
481.12179169459739
 31
0.0
  0
LINE
  5
6A43
  8
0
 10
478.63203365862449
 20
549.23962169459685
 30
0.0
 11
535.63193365862435
 21
549.23962169459685
 31
0.0
  0
LINE
  5
6A44
  8
0
 10
463.63203365862432
 20
614.77013669459711
 30
0.0
 11
479.17473365862452
 21
614.77013669459711
 31
0.0
  0
LINE
  5
6A45
  8
0
 10
463.63203365862432
 20
491.61281669459731
 30
0.0
 11
475.63203365862421
 21
491.61281669459731
 31
0.0
  0
ARC
  5
6A46
  8
0
 10
1239.764288223696
 20
766.69149669459728
 30
0.0
 40
2.0000000500000001
 50
270.0
 51
0.0
  0
ARC
  5
6A47
  8
0
 10
1253.7642582236961
 20
766.69149669459728
 30
0.0
 40
2.0000000500000001
 50
179.999989999999
 51
270.0
  0
ARC
  5
6A48
  8
0
 10
1256.047858223696
 20
770.83159669459735
 30
0.0
 40
1.0
 50
14.999999999994451
 51
78.786709999983316
  0
ARC
  5
6A49
  8
0
 10
1237.480688223696
 20
770.83159669459735
 30
0.0
 40
1.0
 50
101.2132900000167
 51
164.99998999999781
  0
ARC
  5
6A4A
  8
0
 10
1246.764288223696
 20
808.69144669459729
 30
0.0
 40
5.0
 50
359.999989999999
 51
179.999989999999
  0
ARC
  5
6A4B
  8
0
 10
633.05693365862453
 20
763.76119669459717
 30
0.0
 40
6.0
 50
126.46669999998841
 51
190.2700599999921
  0
ARC
  5
6A4C
  8
0
 10
596.20688365862452
 20
763.76119669459717
 30
0.0
 40
6.0
 50
349.72994999999929
 51
53.53329100000618
  0
ARC
  5
6A4D
  8
0
 10
623.91558365862466
 20
770.83159669459735
 30
0.0
 40
1.0
 50
14.999999999994451
 51
78.786709999983316
  0
ARC
  5
6A4E
  8
0
 10
605.3483836586247
 20
770.83159669459735
 30
0.0
 40
1.0
 50
101.2132900000167
 51
164.99998999999781
  0
ARC
  5
6A4F
  8
0
 10
614.63193365862458
 20
788.69144669459729
 30
0.0
 40
25.000000499999999
 50
306.46671999999887
 51
233.53328999998371
  0
CIRCLE
  5
6A50
  8
0
 10
614.63193365862458
 20
788.69144669459729
 30
0.0
 40
15.0
  0
ARC
  5
6A51
  8
0
 10
1246.764288223696
 20
640.69149669459739
 30
0.0
 40
27.500000499999999
 50
106.912390000006
 51
73.0875969999869
  0
ARC
  5
6A52
  8
0
 10
776.63193365862469
 20
578.58550669459726
 30
0.0
 40
2.0000000500000001
 50
91.999997999994051
 51
180.00001000000091
  0
ARC
  5
6A53
  8
0
 10
774.63193365862469
 20
465.69146169459719
 30
0.0
 40
5.0
 50
0.0
 51
90.000002999984659
  0
ARC
  5
6A54
  8
0
 10
601.46138365862453
 20
475.69149169459689
 30
0.0
 40
5.0
 50
270.0
 51
334.75946999998979
  0
ARC
  5
6A55
  8
0
 10
776.63193365862469
 20
702.79744669459751
 30
0.0
 40
2.0000000500000001
 50
179.999989999999
 51
268.00000999999207
  0
ARC
  5
6A56
  8
0
 10
737.63193365862423
 20
745.01869669459688
 30
0.0
 40
10.0
 50
0.0
 51
87.999999999996362
  0
ARC
  5
6A57
  8
0
 10
1246.764288223696
 20
625.69149669459739
 30
0.0
 40
100.0
 50
90.000002999984659
 51
180.00001000000091
  0
ARC
  5
6A58
  8
0
 10
769.63193365862446
 20
721.10984669459731
 30
0.0
 40
5.0
 50
0.0
 51
84.999997000011817
  0
ARC
  5
6A59
  8
0
 10
777.63193365862423
 20
698.76009669459734
 30
0.0
 40
2.0000000500000001
 50
0.0
 51
87.999999999996362
  0
ARC
  5
6A5A
  8
0
 10
1086.764268223696
 20
465.69146169459719
 30
0.0
 40
5.0
 50
90.000002999984659
 51
180.00001000000091
  0
ARC
  5
6A5B
  8
0
 10
1246.764288223696
 20
615.69149669459739
 30
0.0
 40
147.0
 50
90.000002999984659
 51
134.59796000000441
  0
ARC
  5
6A5C
  8
0
 10
1246.764288223696
 20
615.69149669459739
 30
0.0
 40
142.0
 50
90.000002999984659
 51
136.44564000000531
  0
ARC
  5
6A5D
  8
0
 10
1246.764288223696
 20
640.69149669459739
 30
0.0
 40
60.0
 50
90.000002999984659
 51
270.0
  0
ARC
  5
6A5E
  8
0
 10
724.63193365862446
 20
480.69149169459672
 30
0.0
 40
10.0
 50
179.999989999999
 51
270.0
  0
ARC
  5
6A5F
  8
0
 10
777.63193365862423
 20
582.62289169459723
 30
0.0
 40
2.0000000500000001
 50
271.9999999999776
 51
0.0
  0
ARC
  5
6A60
  8
0
 10
660.83478365862436
 20
762.70969669459726
 30
0.0
 40
5.0
 50
214.8873400000013
 51
267.99999999999642
  0
ARC
  5
6A61
  8
0
 10
652.63193365862423
 20
756.98999669459715
 30
0.0
 40
5.0
 50
34.887350000004638
 51
87.999999999996362
  0
ARC
  5
6A62
  8
0
 10
729.63193365862469
 20
677.64914669459722
 30
0.0
 40
15.0
 50
90.000002999984659
 51
180.00001000000091
  0
ARC
  5
6A63
  8
0
 10
1246.764288223696
 20
547.69146169459736
 30
0.0
 40
117.0
 50
179.999989999999
 51
211.27329999999651
  0
ARC
  5
6A64
  8
0
 10
1134.764288223696
 20
482.69146169459719
 30
0.0
 40
12.0
 50
270.0
 51
0.0
  0
ARC
  5
6A65
  8
0
 10
737.63193365862423
 20
496.99850169459722
 30
0.0
 40
10.0
 50
270.0
 51
0.0
  0
ARC
  5
6A66
  8
0
 10
1211.2529682236959
 20
649.4545866945972
 30
0.0
 40
93.0
 50
136.44564000000531
 51
169.00000000000091
  0
ARC
  5
6A67
  8
0
 10
757.63193365862435
 20
737.21699669459713
 30
0.0
 40
10.0
 50
179.999989999999
 51
265.00000000000023
  0
ARC
  5
6A68
  8
0
 10
1156.764288223696
 20
442.69143169459699
 30
0.0
 40
5.0
 50
90.000002999984659
 51
180.00001000000091
  0
ARC
  5
6A69
  8
0
 10
1146.764288223696
 20
465.69146169459719
 30
0.0
 40
5.0
 50
0.0
 51
90.000002999984659
  0
ARC
  5
6A6A
  8
0
 10
627.63193365862423
 20
542.93044669459732
 30
0.0
 40
10.0
 50
334.75946999998979
 51
0.0
  0
ARC
  5
6A6B
  8
0
 10
1139.764288223696
 20
691.6252966945973
 30
0.0
 40
10.0
 50
149.46391999999199
 51
180.00001000000091
  0
ARC
  5
6A6C
  8
0
 10
554.6319336586248
 20
465.69146169459719
 30
0.0
 40
5.0
 50
90.000002999984659
 51
180.00001000000091
  0
ARC
  5
6A6D
  8
0
 10
779.63193365862469
 20
474.35174169459742
 30
0.0
 40
5.0
 50
179.999989999999
 51
240.00000999998821
  0
ARC
  5
6A6E
  8
0
 10
1213.7642582236961
 20
649.15786669459749
 30
0.0
 40
100.0
 50
134.59796000000441
 51
180.00001000000091
  0
ARC
  5
6A6F
  8
0
 10
1187.7549482236959
 20
466.69146169459702
 30
0.0
 40
10.0
 50
234.99999999998261
 51
270.0
  0
ARC
  5
6A70
  8
0
 10
1161.764288223696
 20
446.54931169459701
 30
0.0
 40
10.0
 50
135.00000000000921
 51
180.00001000000091
  0
ARC
  5
6A71
  8
0
 10
1169.954748223696
 20
454.73977169459698
 30
0.0
 40
10.0
 50
54.999998999997899
 51
135.00000000000921
  0
ARC
  5
6A72
  8
0
 10
597.63193365862423
 20
739.70749669459701
 30
0.0
 40
5.0
 50
316.08091999998919
 51
0.0
  0
ARC
  5
6A73
  8
0
 10
594.63193365862458
 20
736.59214669459732
 30
0.0
 40
5.0
 50
316.08091999998919
 51
0.0
  0
ARC
  5
6A74
  8
0
 10
604.63193365862469
 20
759.71249669459712
 30
0.0
 40
2.0000000500000001
 50
91.999997999994051
 51
180.00001000000091
  0
ARC
  5
6A75
  8
0
 10
581.63193365862458
 20
708.67544669459733
 30
0.0
 40
5.0
 50
136.08091999998919
 51
180.00001000000091
  0
ARC
  5
6A76
  8
0
 10
601.63193365862469
 20
760.69149669459716
 30
0.0
 40
2.0000000500000001
 50
90.000002999984659
 51
180.00001000000091
  0
ARC
  5
6A77
  8
0
 10
581.63193365862458
 20
483.24898669459691
 30
0.0
 40
5.0
 50
179.999989999999
 51
234.17956999999311
  0
ARC
  5
6A78
  8
0
 10
1246.764288223696
 20
625.69149669459739
 30
0.0
 40
100.0
 50
0.0
 51
90.000002999984659
  0
ARC
  5
6A79
  8
0
 10
1406.7642632236959
 20
465.69146169459719
 30
0.0
 40
5.0
 50
0.0
 51
90.000002999984659
  0
ARC
  5
6A7A
  8
0
 10
1246.764288223696
 20
615.69149669459739
 30
0.0
 40
147.0
 50
45.402042999998812
 51
90.000002999984659
  0
ARC
  5
6A7B
  8
0
 10
1246.764288223696
 20
615.69149669459739
 30
0.0
 40
142.0
 50
43.554364000004632
 51
90.000002999984659
  0
ARC
  5
6A7C
  8
0
 10
1246.764288223696
 20
640.69149669459739
 30
0.0
 40
60.0
 50
270.0
 51
90.000002999984659
  0
ARC
  5
6A7D
  8
0
 10
1246.764288223696
 20
547.69146169459736
 30
0.0
 40
117.0
 50
328.7267000000034
 51
0.0
  0
ARC
  5
6A7E
  8
0
 10
1358.7642932236961
 20
482.69146169459719
 30
0.0
 40
12.0
 50
180.00001000000091
 51
270.0
  0
ARC
  5
6A7F
  8
0
 10
1282.275583223696
 20
649.4545866945972
 30
0.0
 40
93.0
 50
10.99999999999908
 51
43.554364000004632
  0
ARC
  5
6A80
  8
0
 10
1336.7642582236961
 20
442.69143169459699
 30
0.0
 40
5.0
 50
0.0
 51
90.000002999984659
  0
ARC
  5
6A81
  8
0
 10
1346.7642582236961
 20
465.69146169459719
 30
0.0
 40
5.0
 50
90.000002999984659
 51
180.00001000000091
  0
ARC
  5
6A82
  8
0
 10
1353.7642932236961
 20
691.6252966945973
 30
0.0
 40
10.0
 50
0.0
 51
30.536084999989949
  0
ARC
  5
6A83
  8
0
 10
1279.764288223696
 20
649.15786669459749
 30
0.0
 40
100.0
 50
0.0
 51
45.402042999998812
  0
ARC
  5
6A84
  8
0
 10
1305.7735982236959
 20
466.69146169459702
 30
0.0
 40
10.0
 50
270.0
 51
305.00000000001711
  0
ARC
  5
6A85
  8
0
 10
1331.7642582236961
 20
446.54931169459701
 30
0.0
 40
10.0
 50
0.0
 51
45.000000999994619
  0
ARC
  5
6A86
  8
0
 10
1323.573798223696
 20
454.73977169459698
 30
0.0
 40
10.0
 50
45.000000999994619
 51
125.000000000017
  0
CIRCLE
  5
6A87
  8
0
 10
1246.764288223696
 20
640.69149669459739
 30
0.0
 40
6.0
  0
CIRCLE
  5
6A88
  8
0
 10
1246.764288223696
 20
640.69149669459739
 30
0.0
 40
4.500000049999997
  0
ARC
  5
6A89
  8
0
 10
472.13093365862431
 20
484.69146169459731
 30
0.0
 40
5.0
 50
270.0
 51
339.99999999999631
  0
ARC
  5
6A8A
  8
0
 10
533.63203365862455
 20
688.76254669459729
 30
0.0
 40
5.0
 50
315.00000000000921
 51
0.0
  0
ARC
  5
6A8B
  8
0
 10
541.6319336586248
 20
692.19149669459728
 30
0.0
 40
3.0000000500000001
 50
90.000002999984659
 51
180.00001000000091
  0
ARC
  5
6A8C
  8
0
 10
535.63193365862435
 20
501.691491694597
 30
0.0
 40
3.0000000500000001
 50
0.0
 51
90.000002999984659
  0
ARC
  5
6A8D
  8
0
 10
486.8318336586243
 20
501.691491694597
 30
0.0
 40
3.0000000500000001
 50
90.000002999984659
 51
159.99999999999639
  0
ARC
  5
6A8E
  8
0
 10
540.63193365862435
 20
498.191491694597
 30
0.0
 40
2.0000000500000001
 50
179.999989999999
 51
270.0
  0
ARC
  5
6A8F
  8
0
 10
477.03193365862433
 20
632.162471694597
 30
0.0
 40
5.0
 50
271.9999999999776
 51
315.00000000000921
  0
ARC
  5
6A90
  8
0
 10
571.63193365862469
 20
492.5598716945974
 30
0.0
 40
5.0
 50
0.0
 51
87.999999999996362
  0
ARC
  5
6A91
  8
0
 10
571.63193365862469
 20
698.82309669459733
 30
0.0
 40
5.0
 50
271.9999999999776
 51
0.0
  0
POINT
  5
8772
  8
0
 10
463.63197365862419
 20
553.19145169459705
 30
0.0
  0
POINT
  5
8773
  8
0
 10
463.63197365862419
 20
553.19139358477719
 30
0.0
  0
LINE
  5
8774
  8
0
 10
463.63197365862419
 20
626.69139358477719
 30
0.0
 11
463.63197365862419
 21
479.69145169459739
 31
0.0
  0
ARC
  5
8775
  8
0
 10
454.63197365862419
 20
491.19142263968729
 30
0.0
 40
1.0
 50
180.0
 51
270.0
  0
ARC
  5
8776
  8
0
 10
454.63197365862419
 20
615.19142263968729
 30
0.0
 40
1.0
 50
90.0
 51
180.0
  0
ARC
  5
8777
  8
0
 10
452.62359865862408
 20
486.69142263968729
 30
0.0
 40
2.0
 50
270.0
 51
344.99999999999841
  0
LINE
  5
8778
  8
0
 10
455.63197365862419
 20
490.19142263968729
 30
0.0
 11
454.55545065862412
 21
486.1737846396872
 31
0.0
  0
ARC
  5
8779
  8
0
 10
450.80835465862418
 20
478.29525763968729
 30
0.0
 40
2.0
 50
270.0
 51
345.0000029999984
  0
LINE
  5
877A
  8
0
 10
455.63197365862419
 20
488.5698416396873
 30
0.0
 11
452.740206658624
 21
477.7776196396872
 31
0.0
  0
ARC
  5
877B
  8
0
 10
384.63197365862419
 20
475.32922463968708
 30
0.0
 40
2.0
 50
270.0
 51
0.0
  0
ARC
  5
877C
  8
0
 10
384.63197365862419
 20
475.75650263968708
 30
0.0
 40
2.0
 50
270.0
 51
0.0
  0
ARC
  5
877D
  8
0
 10
384.63197365862419
 20
476.76185363968727
 30
0.0
 40
2.0
 50
270.0
 51
346.50868899999841
  0
LINE
  5
877E
  8
0
 10
386.63197365862442
 20
475.32922463968708
 30
0.0
 11
386.63197365862442
 21
476.29525763968689
 31
0.0
  0
LINE
  5
877F
  8
0
 10
299.63197365862419
 20
483.66305563968729
 30
0.0
 11
291.63197365862419
 21
483.66305563968729
 31
0.0
  0
LINE
  5
8780
  8
0
 10
299.63197365862419
 20
479.30706663968721
 30
0.0
 11
291.63197365862419
 21
479.30706663968721
 31
0.0
  0
LINE
  5
8781
  8
0
 10
299.63197365862419
 20
476.66942763968729
 30
0.0
 11
291.63197365862419
 21
476.66942763968729
 31
0.0
  0
ARC
  5
8782
  8
0
 10
303.63197365862419
 20
475.32922463968708
 30
0.0
 40
2.0
 50
180.0
 51
270.0
  0
LINE
  5
8783
  8
0
 10
301.63197365862419
 20
477.30706663968721
 30
0.0
 11
301.63197365862419
 21
476.76185363968727
 31
0.0
  0
ARC
  5
8784
  8
0
 10
303.48142365862429
 20
475.75650263968708
 30
0.0
 40
2.0
 50
195.7695469999999
 51
270.0
  0
ARC
  5
8785
  8
0
 10
303.63197365862419
 20
476.76185363968727
 30
0.0
 40
2.0
 50
180.0
 51
270.0
  0
ARC
  5
8786
  8
0
 10
303.63197365862419
 20
478.29525763968729
 30
0.0
 40
2.0
 50
180.0
 51
270.0
  0
LINE
  5
8787
  8
0
 10
301.63197365862419
 20
481.66305563968712
 30
0.0
 11
301.63197365862419
 21
478.29525763968729
 31
0.0
  0
ARC
  5
8788
  8
0
 10
299.63197365862419
 20
481.66305563968712
 30
0.0
 40
2.0
 50
0.0
 51
90.0
  0
ARC
  5
8789
  8
0
 10
299.63197365862419
 20
477.30706663968721
 30
0.0
 40
2.0
 50
0.0
 51
90.0
  0
ARC
  5
878A
  8
0
 10
299.63197365862419
 20
474.66942763968729
 30
0.0
 40
2.0
 50
15.76954699999991
 51
90.0
  0
LINE
  5
878B
  8
0
 10
303.63197365862419
 20
476.29525763968689
 30
0.0
 11
450.80835465862418
 21
476.29525763968689
 31
0.0
  0
LINE
  5
878C
  8
0
 10
303.63197365862419
 20
474.7618536396871
 30
0.0
 11
384.63197365862419
 21
474.7618536396871
 31
0.0
  0
LINE
  5
878D
  8
0
 10
303.48142365862429
 20
473.7565026396872
 30
0.0
 11
384.63197365862419
 21
473.7565026396872
 31
0.0
  0
LINE
  5
878E
  8
0
 10
303.63197365862419
 20
473.3292246396872
 30
0.0
 11
384.63197365862419
 21
473.3292246396872
 31
0.0
  0
ARC
  5
878F
  8
0
 10
450.80835465862418
 20
628.08758763968729
 30
0.0
 40
2.0
 50
14.999997000001709
 51
90.0
  0
ARC
  5
8790
  8
0
 10
452.62359865862408
 20
619.69142263968729
 30
0.0
 40
2.0
 50
15.0000000000016
 51
90.0
  0
LINE
  5
8791
  8
0
 10
455.63197365862419
 20
617.81300363968717
 30
0.0
 11
452.740206658624
 21
628.60522563968732
 31
0.0
  0
LINE
  5
8792
  8
0
 10
455.63197365862419
 20
616.19142263968729
 30
0.0
 11
454.55545065862412
 21
620.20906063968732
 31
0.0
  0
LINE
  5
8793
  8
0
 10
453.63197365862419
 20
509.36142263968719
 30
0.0
 11
453.63197365862419
 21
517.29806763968725
 31
0.0
  0
LINE
  5
8794
  8
0
 10
453.63197365862419
 20
599.36142263968725
 30
0.0
 11
453.63197365862419
 21
615.19142263968729
 31
0.0
  0
ARC
  5
8795
  8
0
 10
454.6313346586241
 20
506.14989163968733
 30
0.0
 40
1.0026319999999971
 50
0.054084999998457
 51
81.243759000001148
  0
LINE
  5
8796
  8
0
 10
454.78396665862408
 20
507.14083863968727
 30
0.0
 11
453.02516765862413
 21
507.41142263968732
 31
0.0
  0
LINE
  5
8797
  8
0
 10
454.7739666586242
 20
509.23083863968708
 30
0.0
 11
453.1712786586242
 21
509.01142263968688
 31
0.0
  0
ARC
  5
8798
  8
0
 10
454.62699865862407
 20
510.22704263968728
 30
0.0
 40
1.0069859999999999
 50
278.39216300000231
 51
359.64700200000118
  0
LINE
  5
8799
  8
0
 10
455.63396665862422
 20
510.22083863968709
 30
0.0
 11
455.63396665862422
 21
506.15083863968732
 31
0.0
  0
ARC
  5
879A
  8
0
 10
453.09061065862409
 20
508.19748263968728
 30
0.0
 40
0.8033630000000001
 50
0.2393299999979143
 51
89.760670000002094
  0
ARC
  5
879B
  8
0
 10
453.08890465862407
 20
508.20590063968729
 30
0.0
 40
0.8050779999999997
 50
270.3602510000016
 51
359.6397489999984
  0
ARC
  5
879C
  8
0
 10
454.62699865862407
 20
596.15580263968729
 30
0.0
 40
1.0069859999999999
 50
0.3529979999987844
 51
81.607836999997744
  0
LINE
  5
879D
  8
0
 10
454.7739666586242
 20
597.1520066396871
 30
0.0
 11
453.1712786586242
 21
597.37142263968724
 31
0.0
  0
ARC
  5
879E
  8
0
 10
454.6313346586241
 20
600.23295363968725
 30
0.0
 40
1.0026319999999971
 50
278.75624099999879
 51
359.94591500000149
  0
LINE
  5
879F
  8
0
 10
455.63396665862422
 20
596.16200663968732
 30
0.0
 11
455.63396665862422
 21
600.23200663968726
 31
0.0
  0
LINE
  5
87A0
  8
0
 10
454.78396665862408
 20
599.24200663968725
 30
0.0
 11
453.02516765862413
 21
598.97142263968726
 31
0.0
  0
ARC
  5
87A1
  8
0
 10
453.09061065862409
 20
598.18536263968724
 30
0.0
 40
0.8033630000000001
 50
270.23932999999789
 51
359.76067000000211
  0
ARC
  5
87A2
  8
0
 10
453.08890465862407
 20
598.17694463968724
 30
0.0
 40
0.8050779999999997
 50
0.3602510000016263
 51
89.639748999998375
  0
LINE
  5
87A3
  8
0
 10
453.63197365862419
 20
591.05536763968723
 30
0.0
 11
463.63197365862419
 21
591.05536763968723
 31
0.0
  0
LINE
  5
87A4
  8
0
 10
453.63197365862419
 20
515.33747763968734
 30
0.0
 11
463.63197365862419
 21
515.33747763968734
 31
0.0
  0
LINE
  5
87A5
  8
0
 10
445.63197365862419
 20
527.09142263968738
 30
0.0
 11
455.04197365862422
 21
527.09142263968738
 31
0.0
  0
LINE
  5
87A6
  8
0
 10
441.72357065862388
 20
529.27142263968733
 30
0.0
 11
455.13719065862432
 21
529.27142263968733
 31
0.0
  0
LINE
  5
87A7
  8
0
 10
441.63197365862419
 20
549.20142263968717
 30
0.0
 11
454.62588665862398
 21
549.20142263968717
 31
0.0
  0
LINE
  5
87A8
  8
0
 10
445.63197365862419
 20
519.34142263968715
 30
0.0
 11
455.13719065862432
 21
519.34142263968715
 31
0.0
  0
LINE
  5
87A9
  8
0
 10
371.78197365862422
 20
509.36142263968719
 30
0.0
 11
455.14151265862421
 21
509.36142263968719
 31
0.0
  0
LINE
  5
87AA
  8
0
 10
291.63197365862419
 20
599.36142263968725
 30
0.0
 11
455.12702165862407
 21
599.36142263968725
 31
0.0
  0
LINE
  5
87AB
  8
0
 10
445.63197365862419
 20
587.04142263968731
 30
0.0
 11
455.13719065862432
 21
587.04142263968731
 31
0.0
  0
LINE
  5
87AC
  8
0
 10
441.63197365862419
 20
557.1814226396873
 30
0.0
 11
454.62588665862398
 21
557.1814226396873
 31
0.0
  0
LINE
  5
87AD
  8
0
 10
441.72357065862388
 20
577.11142263968725
 30
0.0
 11
455.13719065862432
 21
577.11142263968725
 31
0.0
  0
LINE
  5
87AE
  8
0
 10
445.63197365862419
 20
579.29142263968731
 30
0.0
 11
455.04197365862422
 21
579.29142263968731
 31
0.0
  0
ARC
  5
87AF
  8
0
 10
451.23198265862408
 20
607.50039663968732
 30
0.0
 40
2.2000009999999981
 50
180.00000299999761
 51
269.99997799999852
  0
ARC
  5
87B0
  8
0
 10
451.23198265862408
 20
612.10040263968722
 30
0.0
 40
2.1999970000000002
 50
90.0
 51
179.99998200000081
  0
LINE
  5
87B1
  8
0
 10
453.63197365862419
 20
609.75095463968728
 30
0.0
 11
452.33197365862412
 21
609.00039963968732
 31
0.0
  0
LINE
  5
87B2
  8
0
 10
453.63197365862419
 20
610.75095463968717
 30
0.0
 11
452.33197365862412
 21
610.00039963968732
 31
0.0
  0
LINE
  5
87B3
  8
0
 10
452.33197365862412
 20
614.40039963968729
 30
0.0
 11
453.63197365862419
 21
614.40039963968729
 31
0.0
  0
LINE
  5
87B4
  8
0
 10
452.33197365862412
 20
605.20039963968725
 30
0.0
 11
453.63197365862419
 21
605.20039963968725
 31
0.0
  0
LINE
  5
87B5
  8
0
 10
453.63197365862419
 20
614.40039963968729
 30
0.0
 11
453.63197365862419
 21
605.20039963968725
 31
0.0
  0
LINE
  5
87B6
  8
0
 10
449.03197065862412
 20
612.10040263968722
 30
0.0
 11
449.03197065862412
 21
607.50039663968732
 31
0.0
  0
LINE
  5
87B7
  8
0
 10
452.33197365862412
 20
614.40039963968729
 30
0.0
 11
452.33197365862412
 21
605.20039963968725
 31
0.0
  0
LINE
  5
87B8
  8
0
 10
452.33197365862412
 20
605.30039963968716
 30
0.0
 11
451.23198265862408
 21
605.30039963968716
 31
0.0
  0
LINE
  5
87B9
  8
0
 10
452.33197365862412
 20
614.30039963968716
 30
0.0
 11
451.23198265862408
 21
614.30039963968716
 31
0.0
  0
LINE
  5
87BA
  8
0
 10
463.63197365862419
 20
479.69142263968718
 30
0.0
 11
463.63197365862419
 21
626.69136463968732
 31
0.0
  0
LINE
  5
87BB
  8
0
 10
454.63197365862419
 20
490.19142263968729
 30
0.0
 11
463.63197365862419
 21
490.19142263968729
 31
0.0
  0
LINE
  5
87BC
  8
0
 10
454.63197365862419
 20
479.69142263968718
 30
0.0
 11
463.63197365862419
 21
479.69142263968718
 31
0.0
  0
LINE
  5
87BD
  8
0
 10
454.63197365862419
 20
616.19142263968729
 30
0.0
 11
463.63197365862419
 21
616.19142263968729
 31
0.0
  0
LINE
  5
87BE
  8
0
 10
454.63197365862419
 20
626.69142263968718
 30
0.0
 11
463.63197365862419
 21
626.69142263968718
 31
0.0
  0
LINE
  5
87BF
  8
0
 10
163.9319736586242
 20
476.64823463968708
 30
0.0
 11
164.28552665862421
 21
477.00178763968728
 31
0.0
  0
LINE
  5
87C0
  8
0
 10
166.51065365862419
 20
474.06955463968728
 30
0.0
 11
163.9319736586242
 21
476.64823463968708
 31
0.0
  0
LINE
  5
87C1
  8
0
 10
166.8642066586242
 20
474.4231076396872
 30
0.0
 11
164.28552665862421
 21
477.00178763968728
 31
0.0
  0
ARC
  5
87C2
  8
0
 10
168.63197365862419
 20
476.19087463968742
 30
0.0
 40
3.0
 50
220.00000000000449
 51
33.55731000000317
  0
ARC
  5
87C3
  8
0
 10
173.58182365862419
 20
490.38696663968727
 30
0.0
 40
2.249854
 50
179.88651000000229
 51
261.61639199999928
  0
ARC
  5
87C4
  8
0
 10
261.63197365862419
 20
553.1914226396874
 30
0.0
 40
7.0
 50
16.601549999998781
 51
163.39845000000119
  0
ARC
  5
87C5
  8
0
 10
261.63197365862419
 20
553.1914226396874
 30
0.0
 40
6.0
 50
19.47121999999953
 51
160.5287789999982
  0
LINE
  5
87C6
  8
0
 10
254.6319736586243
 20
555.19142263968706
 30
0.0
 11
254.6319736586243
 21
555.69142263968683
 31
0.0
  0
LINE
  5
87C7
  8
0
 10
270.63197365862419
 20
555.19142263968706
 30
0.0
 11
270.63197365862419
 21
555.69142263968683
 31
0.0
  0
LINE
  5
87C8
  8
0
 10
270.63197365862419
 20
555.69142263968683
 30
0.0
 11
275.6319736586243
 21
555.69142263968683
 31
0.0
  0
LINE
  5
87C9
  8
0
 10
270.63197365862419
 20
555.19142263968706
 30
0.0
 11
254.6319736586243
 21
555.19142263968706
 31
0.0
  0
LINE
  5
87CA
  8
0
 10
275.6319736586243
 20
550.69142263968718
 30
0.0
 11
275.6319736586243
 21
555.69142263968683
 31
0.0
  0
LINE
  5
87CB
  8
0
 10
179.4019736586242
 20
555.59132563968717
 30
0.0
 11
179.4019736586242
 21
627.21142263968716
 31
0.0
  0
LINE
  5
87CC
  8
0
 10
175.33197365862429
 20
548.83758763968706
 30
0.0
 11
175.33197365862429
 21
489.8207826396872
 31
0.0
  0
ARC
  5
87CD
  8
0
 10
172.81625365862419
 20
485.19225363968729
 30
0.0
 40
3.0009689999999982
 50
9.962317999998751
 51
81.616391999999337
  0
LINE
  5
87CE
  8
0
 10
270.63197365862419
 20
551.19142263968706
 30
0.0
 11
254.6319736586243
 21
551.19142263968706
 31
0.0
  0
LINE
  5
87CF
  8
0
 10
270.63197365862419
 20
550.69142263968718
 30
0.0
 11
275.6319736586243
 21
550.69142263968718
 31
0.0
  0
LINE
  5
87D0
  8
0
 10
270.63197365862419
 20
551.19142263968706
 30
0.0
 11
270.63197365862419
 21
550.69142263968718
 31
0.0
  0
ARC
  5
87D1
  8
0
 10
261.63197365862419
 20
553.1914226396874
 30
0.0
 40
7.0
 50
196.60154999999881
 51
343.39845000000122
  0
LINE
  5
87D2
  8
0
 10
254.6319736586243
 20
551.19142263968706
 30
0.0
 11
254.6319736586243
 21
550.69142263968718
 31
0.0
  0
ARC
  5
87D3
  8
0
 10
261.63197365862419
 20
553.1914226396874
 30
0.0
 40
6.0
 50
199.4712210000018
 51
340.52878000000038
  0
LINE
  5
87D4
  8
0
 10
254.6319736586243
 20
555.69142263968683
 30
0.0
 11
181.13197365862419
 21
555.69142263968683
 31
0.0
  0
LINE
  5
87D5
  8
0
 10
254.6319736586243
 20
550.69142263968718
 30
0.0
 11
181.13197365862419
 21
550.69142263968718
 31
0.0
  0
ARC
  5
87D6
  8
0
 10
181.13197365862419
 20
540.6914226396874
 30
0.0
 40
10.0
 50
90.0
 51
180.0
  0
ARC
  5
87D7
  8
0
 10
181.13197365862419
 20
540.6914226396874
 30
0.0
 40
15.0
 50
90.0
 51
180.0
  0
ARC
  5
87D8
  8
0
 10
168.63197365862419
 20
476.19087463968742
 30
0.0
 40
2.5
 50
180.0
 51
0.0
  0
LINE
  5
87D9
  8
0
 10
166.13197365862419
 20
476.19087463968742
 30
0.0
 11
166.13197365862419
 21
540.6914226396874
 31
0.0
  0
LINE
  5
87DA
  8
0
 10
171.13197365862419
 20
476.19087463968742
 30
0.0
 11
171.13197365862419
 21
540.6914226396874
 31
0.0
  0
LINE
  5
87DB
  8
0
 10
454.77197365862412
 20
557.16142263968732
 30
0.0
 11
453.33197365862418
 21
557.3585656396873
 31
0.0
  0
LINE
  5
87DC
  8
0
 10
454.78197365862411
 20
559.25142263968723
 30
0.0
 11
453.33197365862418
 21
559.02834563968725
 31
0.0
  0
LINE
  5
87DD
  8
0
 10
455.63197365862419
 20
556.17142263968731
 30
0.0
 11
455.63197365862419
 21
560.24142263968724
 31
0.0
  0
LINE
  5
87DE
  8
0
 10
454.77197365862412
 20
567.16142263968732
 30
0.0
 11
453.33197365862418
 21
567.35856563968719
 31
0.0
  0
LINE
  5
87DF
  8
0
 10
454.78197365862411
 20
569.25142263968723
 30
0.0
 11
453.33197365862418
 21
569.02834563968725
 31
0.0
  0
LINE
  5
87E0
  8
0
 10
455.63197365862419
 20
566.17142263968731
 30
0.0
 11
455.63197365862419
 21
570.24142263968724
 31
0.0
  0
LINE
  5
87E1
  8
0
 10
454.78197365862411
 20
579.25142263968723
 30
0.0
 11
453.33197365862418
 21
579.02834563968725
 31
0.0
  0
LINE
  5
87E2
  8
0
 10
454.77197365862412
 20
577.16142263968732
 30
0.0
 11
453.33197365862418
 21
577.3585656396873
 31
0.0
  0
LINE
  5
87E3
  8
0
 10
455.63197365862419
 20
576.17142263968731
 30
0.0
 11
455.63197365862419
 21
580.24142263968724
 31
0.0
  0
ARC
  5
87E4
  8
0
 10
453.08357865862422
 20
558.19142263968729
 30
0.0
 40
0.8000439999999999
 50
288.08794099999631
 51
71.912059000003609
  0
ARC
  5
87E5
  8
0
 10
454.62934165862418
 20
560.24236863968736
 30
0.0
 40
1.0026319999999971
 50
278.75624099999879
 51
359.94591500000149
  0
ARC
  5
87E6
  8
0
 10
454.6250066586241
 20
556.16521863968705
 30
0.0
 40
1.0069859999999999
 50
0.3529979999987844
 51
81.607836999997744
  0
ARC
  5
87E7
  8
0
 10
453.08691165862422
 20
568.18636063968722
 30
0.0
 40
0.8050779999999997
 50
0.3602510000016263
 51
72.278209999997259
  0
ARC
  5
87E8
  8
0
 10
454.62934165862418
 20
570.24236863968736
 30
0.0
 40
1.0026319999999971
 50
278.75624099999879
 51
359.94591500000149
  0
ARC
  5
87E9
  8
0
 10
454.6250066586241
 20
566.16521863968728
 30
0.0
 40
1.0069859999999999
 50
0.3529979999987844
 51
81.607836999997744
  0
ARC
  5
87EA
  8
0
 10
453.08861765862429
 20
578.19477863968723
 30
0.0
 40
0.8033630000000001
 50
287.63315000000318
 51
359.76067000000211
  0
ARC
  5
87EB
  8
0
 10
453.08691165862422
 20
578.18636063968722
 30
0.0
 40
0.8050779999999997
 50
0.3602510000016263
 51
72.278209999997259
  0
ARC
  5
87EC
  8
0
 10
454.6250066586241
 20
576.16521863968717
 30
0.0
 40
1.0069859999999999
 50
0.3529979999987844
 51
81.607836999997744
  0
ARC
  5
87ED
  8
0
 10
454.62934165862418
 20
580.24236863968724
 30
0.0
 40
1.0026319999999971
 50
278.75624099999879
 51
359.94591500000149
  0
ARC
  5
87EE
  8
0
 10
453.08861765862429
 20
568.19477863968723
 30
0.0
 40
0.8033630000000001
 50
287.63315000000318
 51
359.76067000000211
  0
ARC
  5
87EF
  8
0
 10
454.62699865862407
 20
586.17580263968728
 30
0.0
 40
1.0069859999999999
 50
0.3529979999987844
 51
81.607836999997744
  0
ARC
  5
87F0
  8
0
 10
454.6313346586241
 20
590.25295363968723
 30
0.0
 40
1.0026319999999971
 50
278.75624099999879
 51
359.94591500000149
  0
LINE
  5
87F1
  8
0
 10
455.63396665862422
 20
586.18200663968719
 30
0.0
 11
455.63396665862422
 21
590.25200663968724
 31
0.0
  0
ARC
  5
87F2
  8
0
 10
453.08890465862407
 20
588.19694463968722
 30
0.0
 40
0.8050779999999997
 50
0.3602510000016263
 51
72.278209999997259
  0
LINE
  5
87F3
  8
0
 10
454.78396665862408
 20
589.26200663968712
 30
0.0
 11
453.33396665862409
 21
589.03892963968724
 31
0.0
  0
ARC
  5
87F4
  8
0
 10
453.09061065862409
 20
588.20536263968722
 30
0.0
 40
0.8033630000000001
 50
287.63315000000318
 51
359.76067000000211
  0
LINE
  5
87F5
  8
0
 10
454.7739666586242
 20
587.17200663968731
 30
0.0
 11
453.33396665862409
 21
587.36914963968718
 31
0.0
  0
LINE
  5
87F6
  8
0
 10
453.33197365862418
 20
557.39142263968733
 30
0.0
 11
441.63197365862419
 21
557.39142263968733
 31
0.0
  0
LINE
  5
87F7
  8
0
 10
453.33197365862418
 20
558.99142263968724
 30
0.0
 11
441.13197365862419
 21
558.99142263968724
 31
0.0
  0
LINE
  5
87F8
  8
0
 10
454.78197365862411
 20
559.21142263968704
 30
0.0
 11
441.13197365862419
 21
559.21142263968704
 31
0.0
  0
LINE
  5
87F9
  8
0
 10
453.33197365862418
 20
567.39142263968722
 30
0.0
 11
441.13197365862419
 21
567.39142263968722
 31
0.0
  0
LINE
  5
87FA
  8
0
 10
453.33197365862418
 20
568.99142263968724
 30
0.0
 11
441.13197365862419
 21
568.99142263968724
 31
0.0
  0
LINE
  5
87FB
  8
0
 10
454.77197365862412
 20
567.16142263968732
 30
0.0
 11
441.13197365862419
 21
567.16142263968732
 31
0.0
  0
LINE
  5
87FC
  8
0
 10
454.68745865862383
 20
569.24142263968724
 30
0.0
 11
441.13197365862419
 21
569.24142263968724
 31
0.0
  0
LINE
  5
87FD
  8
0
 10
453.33197365862418
 20
588.99142263968724
 30
0.0
 11
444.50375365862419
 21
588.99142263968724
 31
0.0
  0
LINE
  5
87FE
  8
0
 10
453.33197365862418
 20
587.39142263968711
 30
0.0
 11
445.62194865862421
 21
587.39142263968711
 31
0.0
  0
LINE
  5
87FF
  8
0
 10
453.33197365862418
 20
578.99142263968724
 30
0.0
 11
445.63197365862419
 21
578.99142263968724
 31
0.0
  0
LINE
  5
8800
  8
0
 10
453.33197365862418
 20
577.39142263968722
 30
0.0
 11
442.0784086586242
 21
577.39142263968722
 31
0.0
  0
LINE
  5
8801
  8
0
 10
453.5444176586243
 20
625.60386663968723
 30
0.0
 11
453.63197365862419
 21
625.69142263968718
 31
0.0
  0
LINE
  5
8802
  8
0
 10
453.63197365862419
 20
625.6964166396873
 30
0.0
 11
453.63197365862419
 21
625.69142263968718
 31
0.0
  0
ARC
  5
8803
  8
0
 10
454.62947665862418
 20
625.69391963968724
 30
0.0
 40
0.9975059999999999
 50
89.856577999996375
 51
180.14342199999709
  0
LINE
  5
8804
  8
0
 10
453.63197365862419
 20
625.69142263968718
 30
0.0
 11
453.63197365862419
 21
625.27710563968731
 31
0.0
  0
LINE
  5
8805
  8
0
 10
452.13197365862408
 20
604.09247263968723
 30
0.0
 11
452.13197365862408
 21
599.36142263968725
 31
0.0
  0
LINE
  5
8806
  8
0
 10
453.63197365862419
 20
589.08477763968722
 30
0.0
 11
453.63197365862419
 21
597.02142263968722
 31
0.0
  0
LINE
  5
8807
  8
0
 10
452.13197365862408
 20
604.09247263968723
 30
0.0
 11
452.24812865862401
 21
605.30039963968716
 31
0.0
  0
LINE
  5
8808
  8
0
 10
452.13197365862408
 20
597.02142263968722
 30
0.0
 11
452.13197365862408
 21
589.38142263968723
 31
0.0
  0
LINE
  5
8809
  8
0
 10
301.63197365862419
 20
597.37142263968724
 30
0.0
 11
453.1712786586242
 21
597.37142263968724
 31
0.0
  0
LINE
  5
880A
  8
0
 10
291.63197365862419
 20
604.09247263968723
 30
0.0
 11
452.13197365862408
 21
604.09247263968723
 31
0.0
  0
LINE
  5
880B
  8
0
 10
303.63197365862419
 20
621.69142263968718
 30
0.0
 11
452.62359865862408
 21
621.69142263968718
 31
0.0
  0
LINE
  5
880C
  8
0
 10
386.63197365862442
 20
631.05362063968732
 30
0.0
 11
386.63197365862442
 21
630.08758763968717
 31
0.0
  0
ARC
  5
880D
  8
0
 10
384.63197365862419
 20
629.6209916396873
 30
0.0
 40
2.0
 50
13.4913110000016
 51
90.0
  0
ARC
  5
880E
  8
0
 10
384.63197365862419
 20
630.62634263968732
 30
0.0
 40
2.0
 50
0.0
 51
90.0
  0
ARC
  5
880F
  8
0
 10
384.63197365862419
 20
631.05362063968732
 30
0.0
 40
2.0
 50
0.0
 51
90.0
  0
LINE
  5
8810
  8
0
 10
371.78197365862422
 20
597.02142263968722
 30
0.0
 11
455.14151265862421
 21
597.02142263968722
 31
0.0
  0
LINE
  5
8811
  8
0
 10
334.29197365862422
 20
578.99142263968724
 30
0.0
 11
356.13197365862419
 21
578.99142263968724
 31
0.0
  0
LINE
  5
8812
  8
0
 10
333.72197365862428
 20
577.39142263968722
 30
0.0
 11
356.13197365862419
 21
577.39142263968722
 31
0.0
  0
LINE
  5
8813
  8
0
 10
330.76197365862419
 20
567.39142263968722
 30
0.0
 11
356.63197365862442
 21
567.39142263968722
 31
0.0
  0
LINE
  5
8814
  8
0
 10
331.12197365862431
 20
568.99142263968724
 30
0.0
 11
356.63197365862442
 21
568.99142263968724
 31
0.0
  0
LINE
  5
8815
  8
0
 10
330.28197365862422
 20
557.39142263968733
 30
0.0
 11
356.63197365862442
 21
557.39142263968733
 31
0.0
  0
LINE
  5
8816
  8
0
 10
330.17197365862421
 20
558.99142263968724
 30
0.0
 11
356.63197365862442
 21
558.99142263968724
 31
0.0
  0
LINE
  5
8817
  8
0
 10
330.30197365862421
 20
557.1814226396873
 30
0.0
 11
356.63197365862442
 21
557.1814226396873
 31
0.0
  0
LINE
  5
8818
  8
0
 10
330.16197365862422
 20
559.21142263968704
 30
0.0
 11
356.63197365862442
 21
559.21142263968704
 31
0.0
  0
LINE
  5
8819
  8
0
 10
330.71197365862429
 20
567.16142263968732
 30
0.0
 11
356.63197365862442
 21
567.16142263968732
 31
0.0
  0
LINE
  5
881A
  8
0
 10
331.1819736586242
 20
569.24142263968724
 30
0.0
 11
356.63197365862442
 21
569.24142263968724
 31
0.0
  0
LINE
  5
881B
  8
0
 10
333.6219736586242
 20
577.11142263968725
 30
0.0
 11
356.13197365862419
 21
577.11142263968725
 31
0.0
  0
LINE
  5
881C
  8
0
 10
334.40197365862417
 20
579.29142263968731
 30
0.0
 11
356.13197365862419
 21
579.29142263968731
 31
0.0
  0
LINE
  5
881D
  8
0
 10
301.63197365862419
 20
618.54734163968715
 30
0.0
 11
301.63197365862419
 21
619.69142263968729
 31
0.0
  0
ARC
  5
881E
  8
0
 10
299.63197365862419
 20
618.54734163968715
 30
0.0
 40
2.0
 50
270.0
 51
0.0
  0
ARC
  5
881F
  8
0
 10
303.63197365862419
 20
619.69142263968729
 30
0.0
 40
2.0
 50
90.0
 51
180.0
  0
LINE
  5
8820
  8
0
 10
301.63197365862419
 20
618.54734163968715
 30
0.0
 11
301.63197365862419
 21
606.09247263968723
 31
0.0
  0
ARC
  5
8821
  8
0
 10
299.63197365862419
 20
606.09247263968723
 30
0.0
 40
2.0
 50
270.0
 51
0.0
  0
LINE
  5
8822
  8
0
 10
301.63197365862419
 20
624.71978963968729
 30
0.0
 11
301.63197365862419
 21
628.08758763968729
 31
0.0
  0
ARC
  5
8823
  8
0
 10
299.63197365862419
 20
624.71978963968729
 30
0.0
 40
2.0
 50
270.0
 51
0.0
  0
ARC
  5
8824
  8
0
 10
303.63197365862419
 20
628.08758763968729
 30
0.0
 40
2.0
 50
90.0
 51
180.0
  0
ARC
  5
8825
  8
0
 10
299.63197365862419
 20
629.07577863968731
 30
0.0
 40
2.0
 50
270.0
 51
0.0
  0
ARC
  5
8826
  8
0
 10
303.63197365862419
 20
629.6209916396873
 30
0.0
 40
2.0
 50
90.0
 51
180.0
  0
ARC
  5
8827
  8
0
 10
299.63197365862419
 20
631.71341763968724
 30
0.0
 40
2.0
 50
270.0
 51
344.23045300000013
  0
ARC
  5
8828
  8
0
 10
303.48142365862429
 20
630.62634263968732
 30
0.0
 40
2.0
 50
90.0
 51
164.23045300000001
  0
LINE
  5
8829
  8
0
 10
301.63197365862419
 20
629.07577863968731
 30
0.0
 11
301.63197365862419
 21
629.6209916396873
 31
0.0
  0
ARC
  5
882A
  8
0
 10
303.63197365862419
 20
631.05362063968732
 30
0.0
 40
2.0
 50
90.0
 51
180.0
  0
LINE
  5
882B
  8
0
 10
301.63197365862419
 20
599.12275463968717
 30
0.0
 11
301.63197365862419
 21
582.47297963968731
 31
0.0
  0
LINE
  5
882C
  8
0
 10
301.63197365862419
 20
588.99142263968724
 30
0.0
 11
358.9596656586242
 21
588.99142263968724
 31
0.0
  0
LINE
  5
882D
  8
0
 10
301.63197365862419
 20
587.39142263968711
 30
0.0
 11
357.06952765862422
 21
587.39142263968711
 31
0.0
  0
LINE
  5
882E
  8
0
 10
301.63197365862419
 20
587.04142263968731
 30
0.0
 11
356.90034665862419
 21
587.04142263968731
 31
0.0
  0
LINE
  5
882F
  8
0
 10
301.63197365862419
 20
589.38142263968723
 30
0.0
 11
453.63197365862419
 21
589.38142263968723
 31
0.0
  0
LINE
  5
8830
  8
0
 10
334.40197365862417
 20
579.29142263968731
 30
0.0
 11
291.63197365862419
 21
579.29142263968731
 31
0.0
  0
LINE
  5
8831
  8
0
 10
333.6219736586242
 20
577.11142263968725
 30
0.0
 11
291.63197365862419
 21
577.11142263968725
 31
0.0
  0
LINE
  5
8832
  8
0
 10
331.1819736586242
 20
569.24142263968724
 30
0.0
 11
291.63197365862419
 21
569.24142263968724
 31
0.0
  0
LINE
  5
8833
  8
0
 10
330.71197365862429
 20
567.16142263968732
 30
0.0
 11
291.63197365862419
 21
567.16142263968732
 31
0.0
  0
LINE
  5
8834
  8
0
 10
330.16197365862422
 20
559.21142263968704
 30
0.0
 11
291.63197365862419
 21
559.21142263968704
 31
0.0
  0
LINE
  5
8835
  8
0
 10
330.30197365862421
 20
557.1814226396873
 30
0.0
 11
291.63197365862419
 21
557.1814226396873
 31
0.0
  0
LINE
  5
8836
  8
0
 10
334.29197365862422
 20
578.99142263968724
 30
0.0
 11
291.63197365862419
 21
578.99142263968724
 31
0.0
  0
LINE
  5
8837
  8
0
 10
333.72197365862428
 20
577.39142263968722
 30
0.0
 11
291.63197365862419
 21
577.39142263968722
 31
0.0
  0
LINE
  5
8838
  8
0
 10
331.12197365862431
 20
568.99142263968724
 30
0.0
 11
291.63197365862419
 21
568.99142263968724
 31
0.0
  0
LINE
  5
8839
  8
0
 10
330.76197365862419
 20
567.39142263968722
 30
0.0
 11
291.63197365862419
 21
567.39142263968722
 31
0.0
  0
LINE
  5
883A
  8
0
 10
330.17197365862421
 20
558.99142263968724
 30
0.0
 11
291.63197365862419
 21
558.99142263968724
 31
0.0
  0
LINE
  5
883B
  8
0
 10
330.28197365862422
 20
557.39142263968733
 30
0.0
 11
291.63197365862419
 21
557.39142263968733
 31
0.0
  0
LINE
  5
883C
  8
0
 10
301.63197365862419
 20
598.97142263968726
 30
0.0
 11
453.02516765862413
 21
598.97142263968726
 31
0.0
  0
LINE
  5
883D
  8
0
 10
301.63197365862419
 20
597.02142263968722
 30
0.0
 11
371.78197365862422
 21
597.02142263968722
 31
0.0
  0
LINE
  5
883E
  8
0
 10
303.63197365862419
 20
630.08758763968717
 30
0.0
 11
450.80835465862418
 21
630.08758763968717
 31
0.0
  0
LINE
  5
883F
  8
0
 10
303.63197365862419
 20
631.62099163968719
 30
0.0
 11
384.63197365862419
 21
631.62099163968719
 31
0.0
  0
LINE
  5
8840
  8
0
 10
303.48142365862429
 20
632.62634263968732
 30
0.0
 11
384.63197365862419
 21
632.62634263968732
 31
0.0
  0
LINE
  5
8841
  8
0
 10
303.63197365862419
 20
633.05362063968732
 30
0.0
 11
384.63197365862419
 21
633.05362063968732
 31
0.0
  0
LINE
  5
8842
  8
0
 10
291.63197365862419
 20
582.47297963968731
 30
0.0
 11
301.63197365862419
 21
582.47297963968731
 31
0.0
  0
LINE
  5
8843
  8
0
 10
291.63197365862419
 20
588.19142263968718
 30
0.0
 11
301.63197365862419
 21
588.19142263968718
 31
0.0
  0
LINE
  5
8844
  8
0
 10
291.63197365862419
 20
598.71142263968716
 30
0.0
 11
301.63197365862419
 21
598.71142263968716
 31
0.0
  0
LINE
  5
8845
  8
0
 10
291.63197365862419
 20
599.12275463968717
 30
0.0
 11
301.63197365862419
 21
599.12275463968717
 31
0.0
  0
LINE
  5
8846
  8
0
 10
299.63197365862419
 20
616.54734163968715
 30
0.0
 11
291.63197365862419
 21
616.54734163968715
 31
0.0
  0
LINE
  5
8847
  8
0
 10
299.63197365862419
 20
622.71978963968729
 30
0.0
 11
291.63197365862419
 21
622.71978963968729
 31
0.0
  0
LINE
  5
8848
  8
0
 10
299.63197365862419
 20
627.07577863968731
 30
0.0
 11
291.63197365862419
 21
627.07577863968731
 31
0.0
  0
LINE
  5
8849
  8
0
 10
299.63197365862419
 20
629.71341763968724
 30
0.0
 11
291.63197365862419
 21
629.71341763968724
 31
0.0
  0
LINE
  5
884A
  8
0
 10
334.29197365862422
 20
527.39142263968733
 30
0.0
 11
356.13197365862419
 21
527.39142263968733
 31
0.0
  0
LINE
  5
884B
  8
0
 10
333.72197365862428
 20
528.99142263968724
 30
0.0
 11
356.13197365862419
 21
528.99142263968724
 31
0.0
  0
LINE
  5
884C
  8
0
 10
330.76197365862419
 20
538.99142263968724
 30
0.0
 11
356.63197365862442
 21
538.99142263968724
 31
0.0
  0
LINE
  5
884D
  8
0
 10
331.12197365862431
 20
537.39142263968733
 30
0.0
 11
356.63197365862442
 21
537.39142263968733
 31
0.0
  0
LINE
  5
884E
  8
0
 10
330.28197365862422
 20
548.99142263968724
 30
0.0
 11
356.63197365862442
 21
548.99142263968724
 31
0.0
  0
LINE
  5
884F
  8
0
 10
330.17197365862421
 20
547.39142263968733
 30
0.0
 11
356.63197365862442
 21
547.39142263968733
 31
0.0
  0
LINE
  5
8850
  8
0
 10
330.30197365862421
 20
549.20142263968717
 30
0.0
 11
356.63197365862442
 21
549.20142263968717
 31
0.0
  0
LINE
  5
8851
  8
0
 10
330.16197365862422
 20
547.17142263968731
 30
0.0
 11
356.63197365862442
 21
547.17142263968731
 31
0.0
  0
LINE
  5
8852
  8
0
 10
330.71197365862429
 20
539.22142263968715
 30
0.0
 11
356.63197365862442
 21
539.22142263968715
 31
0.0
  0
LINE
  5
8853
  8
0
 10
331.1819736586242
 20
537.14142263968733
 30
0.0
 11
356.63197365862442
 21
537.14142263968733
 31
0.0
  0
LINE
  5
8854
  8
0
 10
333.6219736586242
 20
529.27142263968733
 30
0.0
 11
356.13197365862419
 21
529.27142263968733
 31
0.0
  0
LINE
  5
8855
  8
0
 10
334.40197365862417
 20
527.09142263968738
 30
0.0
 11
356.13197365862419
 21
527.09142263968738
 31
0.0
  0
LINE
  5
8856
  8
0
 10
453.63197365862419
 20
491.19142263968729
 30
0.0
 11
453.63197365862419
 21
507.02142263968727
 31
0.0
  0
LINE
  5
8857
  8
0
 10
454.7739666586242
 20
519.21083863968715
 30
0.0
 11
453.33396665862409
 21
519.01369563968706
 31
0.0
  0
ARC
  5
8858
  8
0
 10
453.09061065862409
 20
518.17748263968724
 30
0.0
 40
0.8033630000000001
 50
0.2393299999979143
 51
72.36684999999683
  0
LINE
  5
8859
  8
0
 10
454.78396665862408
 20
517.12083863968724
 30
0.0
 11
453.33396665862409
 21
517.34391563968734
 31
0.0
  0
ARC
  5
885A
  8
0
 10
453.08890465862407
 20
518.18590063968725
 30
0.0
 40
0.8050779999999997
 50
287.72179000000273
 51
359.6397489999984
  0
LINE
  5
885B
  8
0
 10
455.63396665862422
 20
520.20083863968716
 30
0.0
 11
455.63396665862422
 21
516.13083863968723
 31
0.0
  0
ARC
  5
885C
  8
0
 10
454.6313346586241
 20
516.12989163968723
 30
0.0
 40
1.0026319999999971
 50
0.054084999998457
 51
81.243759000001148
  0
ARC
  5
885D
  8
0
 10
454.62699865862407
 20
520.2070426396873
 30
0.0
 40
1.0069859999999999
 50
278.39216300000231
 51
359.64700200000118
  0
LINE
  5
885E
  8
0
 10
452.13197365862408
 20
502.29037263968729
 30
0.0
 11
452.24812865862401
 21
501.0824466396873
 31
0.0
  0
LINE
  5
885F
  8
0
 10
452.13197365862408
 20
502.29037263968729
 30
0.0
 11
452.13197365862408
 21
507.02142263968727
 31
0.0
  0
LINE
  5
8860
  8
0
 10
452.13197365862408
 20
509.36142263968719
 30
0.0
 11
452.13197365862408
 21
517.00142263968723
 31
0.0
  0
LINE
  5
8861
  8
0
 10
453.63197365862419
 20
480.69142263968689
 30
0.0
 11
453.63197365862419
 21
481.10573963968722
 31
0.0
  0
ARC
  5
8862
  8
0
 10
454.62947665862418
 20
480.68892563968728
 30
0.0
 40
0.9975059999999999
 50
179.85657799999629
 51
270.14342199999709
  0
ARC
  5
8863
  8
0
 10
453.08861765862429
 20
538.18806663968735
 30
0.0
 40
0.8033630000000001
 50
0.2393299999979143
 51
72.36684999999683
  0
ARC
  5
8864
  8
0
 10
454.62934165862418
 20
526.14047663968734
 30
0.0
 40
1.0026319999999971
 50
0.054084999998457
 51
81.243759000001148
  0
ARC
  5
8865
  8
0
 10
454.6250066586241
 20
530.21762663968707
 30
0.0
 40
1.0069859999999999
 50
278.39216300000231
 51
359.64700200000118
  0
ARC
  5
8866
  8
0
 10
453.08691165862422
 20
528.19648463968724
 30
0.0
 40
0.8050779999999997
 50
287.72179000000273
 51
359.6397489999984
  0
ARC
  5
8867
  8
0
 10
453.08861765862429
 20
528.18806663968724
 30
0.0
 40
0.8033630000000001
 50
0.2393299999979143
 51
72.36684999999683
  0
ARC
  5
8868
  8
0
 10
454.6250066586241
 20
540.2176266396873
 30
0.0
 40
1.0069859999999999
 50
278.39216300000231
 51
359.64700200000118
  0
ARC
  5
8869
  8
0
 10
454.62934165862418
 20
536.14047663968722
 30
0.0
 40
1.0026319999999971
 50
0.054084999998457
 51
81.243759000001148
  0
ARC
  5
886A
  8
0
 10
453.08691165862422
 20
538.19648463968724
 30
0.0
 40
0.8050779999999997
 50
287.72179000000273
 51
359.6397489999984
  0
ARC
  5
886B
  8
0
 10
454.6250066586241
 20
550.21762663968718
 30
0.0
 40
1.0069859999999999
 50
278.39216300000231
 51
359.64700200000118
  0
ARC
  5
886C
  8
0
 10
454.62934165862418
 20
546.14047663968722
 30
0.0
 40
1.0026319999999971
 50
0.054084999998457
 51
81.243759000001148
  0
ARC
  5
886D
  8
0
 10
453.08357865862422
 20
548.1914226396874
 30
0.0
 40
0.8000439999999999
 50
288.08794099999631
 51
71.912059000003609
  0
LINE
  5
886E
  8
0
 10
455.63197365862419
 20
530.21142263968738
 30
0.0
 11
455.63197365862419
 21
526.14142263968733
 31
0.0
  0
LINE
  5
886F
  8
0
 10
454.77197365862412
 20
529.22142263968715
 30
0.0
 11
453.33197365862418
 21
529.02427963968728
 31
0.0
  0
LINE
  5
8870
  8
0
 10
454.78197365862411
 20
527.13142263968734
 30
0.0
 11
453.33197365862418
 21
527.35449963968733
 31
0.0
  0
LINE
  5
8871
  8
0
 10
455.63197365862419
 20
540.21142263968704
 30
0.0
 11
455.63197365862419
 21
536.14142263968733
 31
0.0
  0
LINE
  5
8872
  8
0
 10
454.78197365862411
 20
537.13142263968734
 30
0.0
 11
453.33197365862418
 21
537.35449963968733
 31
0.0
  0
LINE
  5
8873
  8
0
 10
454.77197365862412
 20
539.22142263968715
 30
0.0
 11
453.33197365862418
 21
539.02427963968705
 31
0.0
  0
LINE
  5
8874
  8
0
 10
455.63197365862419
 20
550.21142263968704
 30
0.0
 11
455.63197365862419
 21
546.14142263968733
 31
0.0
  0
LINE
  5
8875
  8
0
 10
454.78197365862411
 20
547.13142263968734
 30
0.0
 11
453.33197365862418
 21
547.35449963968733
 31
0.0
  0
LINE
  5
8876
  8
0
 10
454.77197365862412
 20
549.22142263968715
 30
0.0
 11
453.33197365862418
 21
549.02427963968739
 31
0.0
  0
LINE
  5
8877
  8
0
 10
453.63197365862419
 20
480.68642863968722
 30
0.0
 11
453.63197365862419
 21
480.69142263968689
 31
0.0
  0
LINE
  5
8878
  8
0
 10
453.5444176586243
 20
480.77897863968712
 30
0.0
 11
453.63197365862419
 21
480.69142263968689
 31
0.0
  0
LINE
  5
8879
  8
0
 10
453.33197365862418
 20
548.99142263968724
 30
0.0
 11
441.63197365862419
 21
548.99142263968724
 31
0.0
  0
LINE
  5
887A
  8
0
 10
453.33197365862418
 20
547.39142263968733
 30
0.0
 11
441.13197365862419
 21
547.39142263968733
 31
0.0
  0
LINE
  5
887B
  8
0
 10
454.78197365862411
 20
547.17142263968731
 30
0.0
 11
441.13197365862419
 21
547.17142263968731
 31
0.0
  0
LINE
  5
887C
  8
0
 10
453.33197365862418
 20
538.99142263968724
 30
0.0
 11
441.13197365862419
 21
538.99142263968724
 31
0.0
  0
LINE
  5
887D
  8
0
 10
453.33197365862418
 20
537.39142263968733
 30
0.0
 11
441.13197365862419
 21
537.39142263968733
 31
0.0
  0
LINE
  5
887E
  8
0
 10
454.77197365862412
 20
539.22142263968715
 30
0.0
 11
441.13197365862419
 21
539.22142263968715
 31
0.0
  0
LINE
  5
887F
  8
0
 10
454.68745865862383
 20
537.14142263968733
 30
0.0
 11
441.13197365862419
 21
537.14142263968733
 31
0.0
  0
LINE
  5
8880
  8
0
 10
453.33197365862418
 20
517.39142263968733
 30
0.0
 11
444.50375365862419
 21
517.39142263968733
 31
0.0
  0
LINE
  5
8881
  8
0
 10
453.33197365862418
 20
518.99142263968724
 30
0.0
 11
445.62194865862421
 21
518.99142263968724
 31
0.0
  0
LINE
  5
8882
  8
0
 10
453.33197365862418
 20
527.39142263968733
 30
0.0
 11
445.63197365862419
 21
527.39142263968733
 31
0.0
  0
LINE
  5
8883
  8
0
 10
453.33197365862418
 20
528.99142263968724
 30
0.0
 11
442.0784086586242
 21
528.99142263968724
 31
0.0
  0
LINE
  5
8884
  8
0
 10
301.63197365862419
 20
507.41142263968732
 30
0.0
 11
453.02516765862413
 21
507.41142263968732
 31
0.0
  0
LINE
  5
8885
  8
0
 10
291.63197365862419
 20
502.29037263968729
 30
0.0
 11
452.13197365862408
 21
502.29037263968729
 31
0.0
  0
LINE
  5
8886
  8
0
 10
301.63197365862419
 20
507.26009063968701
 30
0.0
 11
301.63197365862419
 21
523.90986563968727
 31
0.0
  0
ARC
  5
8887
  8
0
 10
299.63197365862419
 20
500.29037263968729
 30
0.0
 40
2.0
 50
0.0
 51
90.0
  0
LINE
  5
8888
  8
0
 10
301.63197365862419
 20
487.83550363968732
 30
0.0
 11
301.63197365862419
 21
500.29037263968729
 31
0.0
  0
ARC
  5
8889
  8
0
 10
303.63197365862419
 20
486.69142263968729
 30
0.0
 40
2.0
 50
180.0
 51
270.0
  0
ARC
  5
888A
  8
0
 10
299.63197365862419
 20
487.83550363968732
 30
0.0
 40
2.0
 50
0.0
 51
90.0
  0
LINE
  5
888B
  8
0
 10
301.63197365862419
 20
487.83550363968732
 30
0.0
 11
301.63197365862419
 21
486.69142263968729
 31
0.0
  0
LINE
  5
888C
  8
0
 10
301.63197365862419
 20
517.39142263968733
 30
0.0
 11
358.9596656586242
 21
517.39142263968733
 31
0.0
  0
LINE
  5
888D
  8
0
 10
301.63197365862419
 20
518.99142263968724
 30
0.0
 11
357.06952765862422
 21
518.99142263968724
 31
0.0
  0
LINE
  5
888E
  8
0
 10
301.63197365862419
 20
519.34142263968715
 30
0.0
 11
356.90034665862419
 21
519.34142263968715
 31
0.0
  0
LINE
  5
888F
  8
0
 10
301.63197365862419
 20
517.00142263968723
 30
0.0
 11
453.63197365862419
 21
517.00142263968723
 31
0.0
  0
LINE
  5
8890
  8
0
 10
334.40197365862417
 20
527.09142263968738
 30
0.0
 11
291.63197365862419
 21
527.09142263968738
 31
0.0
  0
LINE
  5
8891
  8
0
 10
333.6219736586242
 20
529.27142263968733
 30
0.0
 11
291.63197365862419
 21
529.27142263968733
 31
0.0
  0
LINE
  5
8892
  8
0
 10
331.1819736586242
 20
537.14142263968733
 30
0.0
 11
291.63197365862419
 21
537.14142263968733
 31
0.0
  0
LINE
  5
8893
  8
0
 10
330.71197365862429
 20
539.22142263968715
 30
0.0
 11
291.63197365862419
 21
539.22142263968715
 31
0.0
  0
LINE
  5
8894
  8
0
 10
330.16197365862422
 20
547.17142263968731
 30
0.0
 11
291.63197365862419
 21
547.17142263968731
 31
0.0
  0
LINE
  5
8895
  8
0
 10
330.30197365862421
 20
549.20142263968717
 30
0.0
 11
291.63197365862419
 21
549.20142263968717
 31
0.0
  0
LINE
  5
8896
  8
0
 10
334.29197365862422
 20
527.39142263968733
 30
0.0
 11
291.63197365862419
 21
527.39142263968733
 31
0.0
  0
LINE
  5
8897
  8
0
 10
333.72197365862428
 20
528.99142263968724
 30
0.0
 11
291.63197365862419
 21
528.99142263968724
 31
0.0
  0
LINE
  5
8898
  8
0
 10
331.12197365862431
 20
537.39142263968733
 30
0.0
 11
291.63197365862419
 21
537.39142263968733
 31
0.0
  0
LINE
  5
8899
  8
0
 10
330.76197365862419
 20
538.99142263968724
 30
0.0
 11
291.63197365862419
 21
538.99142263968724
 31
0.0
  0
LINE
  5
889A
  8
0
 10
330.17197365862421
 20
547.39142263968733
 30
0.0
 11
291.63197365862419
 21
547.39142263968733
 31
0.0
  0
LINE
  5
889B
  8
0
 10
330.28197365862422
 20
548.99142263968724
 30
0.0
 11
291.63197365862419
 21
548.99142263968724
 31
0.0
  0
LINE
  5
889C
  8
0
 10
301.63197365862419
 20
509.01142263968688
 30
0.0
 11
453.1712786586242
 21
509.01142263968688
 31
0.0
  0
LINE
  5
889D
  8
0
 10
301.63197365862419
 20
509.36142263968719
 30
0.0
 11
371.78197365862422
 21
509.36142263968719
 31
0.0
  0
LINE
  5
889E
  8
0
 10
291.63197365862419
 20
507.02142263968727
 30
0.0
 11
455.12702165862407
 21
507.02142263968727
 31
0.0
  0
LINE
  5
889F
  8
0
 10
303.63197365862419
 20
484.69142263968689
 30
0.0
 11
452.62359865862408
 21
484.69142263968689
 31
0.0
  0
LINE
  5
88A0
  8
0
 10
291.63197365862419
 20
523.90986563968727
 30
0.0
 11
301.63197365862419
 21
523.90986563968727
 31
0.0
  0
LINE
  5
88A1
  8
0
 10
291.63197365862419
 20
518.19142263968683
 30
0.0
 11
301.63197365862419
 21
518.19142263968683
 31
0.0
  0
LINE
  5
88A2
  8
0
 10
291.63197365862419
 20
507.67142263968708
 30
0.0
 11
301.63197365862419
 21
507.67142263968708
 31
0.0
  0
LINE
  5
88A3
  8
0
 10
291.63197365862419
 20
507.26009063968701
 30
0.0
 11
301.63197365862419
 21
507.26009063968701
 31
0.0
  0
LINE
  5
88A4
  8
0
 10
299.63197365862419
 20
489.83550363968732
 30
0.0
 11
291.63197365862419
 21
489.83550363968732
 31
0.0
  0
LINE
  5
88A5
  8
0
 10
216.63197365862419
 20
555.69142263968683
 30
0.0
 11
216.63197365862419
 21
635.19142263968718
 31
0.0
  0
LINE
  5
88A6
  8
0
 10
216.63197365862419
 20
471.19142263968718
 30
0.0
 11
291.63197365862419
 21
471.19142263968718
 31
0.0
  0
LINE
  5
88A7
  8
0
 10
216.63197365862419
 20
635.19142263968718
 30
0.0
 11
291.63197365862419
 21
635.19142263968718
 31
0.0
  0
LINE
  5
88A8
  8
0
 10
216.63197365862419
 20
471.19142263968718
 30
0.0
 11
216.63197365862419
 21
550.69142263968718
 31
0.0
  0
LINE
  5
88A9
  8
0
 10
291.63197365862419
 20
635.19142263968718
 30
0.0
 11
291.63197365862419
 21
471.19142263968718
 31
0.0
  0
ARC
  5
88AA
  8
0
 10
360.13247265862418
 20
585.69092363968718
 30
0.0
 40
3.5004989999999978
 50
90.008164000001173
 51
179.99183599999881
  0
ARC
  5
88AB
  8
0
 10
356.63252065862417
 20
581.19087563968719
 30
0.0
 40
0.5005470000000001
 50
90.0626249999995
 51
179.93737500000049
  0
ARC
  5
88AC
  8
0
 10
356.62446565862422
 20
571.18391463968715
 30
0.0
 40
0.492549
 50
179.12656199999611
 51
270.87343799999729
  0
ARC
  5
88AD
  8
0
 10
356.63252065862417
 20
535.19087563968731
 30
0.0
 40
0.5005470000000001
 50
90.0626249999995
 51
179.93737500000049
  0
ARC
  5
88AE
  8
0
 10
356.62461765862429
 20
525.18406663968733
 30
0.0
 40
0.492699
 50
179.14456000000379
 51
270.85544000000289
  0
ARC
  5
88AF
  8
0
 10
428.1699286586242
 20
585.68593463968728
 30
0.0
 40
3.5055079999999998
 50
44.924209000003323
 51
89.803122999998919
  0
LINE
  5
88B0
  8
0
 10
356.63197365862442
 20
520.69142263968729
 30
0.0
 11
356.63197365862442
 21
585.69142263968729
 31
0.0
  0
LINE
  5
88B1
  8
0
 10
440.10197365862422
 20
527.66142263968732
 30
0.0
 11
430.65197365862412
 21
518.21142263968738
 31
0.0
  0
LINE
  5
88B2
  8
0
 10
439.03197365862411
 20
529.56142263968729
 30
0.0
 11
428.76197365862419
 21
519.29142263968708
 31
0.0
  0
LINE
  5
88B3
  8
0
 10
428.76197365862419
 20
587.09142263968715
 30
0.0
 11
439.03197365862411
 21
576.82142263968728
 31
0.0
  0
LINE
  5
88B4
  8
0
 10
439.03197365862411
 20
576.82142263968728
 30
0.0
 11
439.03197365862411
 21
529.56142263968729
 31
0.0
  0
LINE
  5
88B5
  8
0
 10
430.65197365862412
 20
588.16142263968732
 30
0.0
 11
440.10197365862422
 21
578.71142263968716
 31
0.0
  0
LINE
  5
88B6
  8
0
 10
441.13197365862419
 20
576.24142263968724
 30
0.0
 11
441.13197365862419
 21
530.14142263968733
 31
0.0
  0
LINE
  5
88B7
  8
0
 10
441.63197365862419
 20
558.19142263968729
 30
0.0
 11
441.63197365862419
 21
548.1914226396874
 31
0.0
  0
ARC
  5
88B8
  8
0
 10
441.12446465862411
 20
558.18391363968715
 30
0.0
 40
0.507564
 50
0.8476510000019865
 51
89.152348999998054
  0
ARC
  5
88B9
  8
0
 10
441.13240765862389
 20
548.19098863968725
 30
0.0
 40
0.499566
 50
269.95018499999878
 51
0.0498150000011642
  0
ARC
  5
88BA
  8
0
 10
437.62696965862392
 20
576.22957863968725
 30
0.0
 40
3.5050239999999979
 50
0.1936059999989274
 51
45.079061999999503
  0
ARC
  5
88BB
  8
0
 10
437.62871865862422
 20
530.14251263968731
 30
0.0
 40
3.5032559999999981
 50
314.90939600000041
 51
359.98217400000141
  0
LINE
  5
88BC
  8
0
 10
356.13197365862419
 20
581.19142263968718
 30
0.0
 11
356.13197365862419
 21
571.19142263968718
 31
0.0
  0
LINE
  5
88BD
  8
0
 10
356.13197365862419
 20
535.19142263968683
 30
0.0
 11
356.13197365862419
 21
525.19142263968718
 31
0.0
  0
LINE
  5
88BE
  8
0
 10
428.76197365862419
 20
519.29142263968708
 30
0.0
 11
361.05197365862421
 21
519.29142263968708
 31
0.0
  0
LINE
  5
88BF
  8
0
 10
361.05197365862421
 20
519.29142263968708
 30
0.0
 11
361.05197365862421
 21
517.19142263968718
 31
0.0
  0
ARC
  5
88C0
  8
0
 10
428.18403365862412
 20
520.68707063968725
 30
0.0
 40
3.495648999999998
 50
269.96623299999862
 51
314.91065799999922
  0
LINE
  5
88C1
  8
0
 10
360.13197365862419
 20
517.19142263968718
 30
0.0
 11
443.63197365862408
 21
517.19142263968718
 31
0.0
  0
ARC
  5
88C2
  8
0
 10
360.1246176586244
 20
520.68406663968733
 30
0.0
 40
3.4926519999999979
 50
179.87932800000161
 51
270.12067199999842
  0
LINE
  5
88C3
  8
0
 10
361.05197365862421
 20
587.09142263968715
 30
0.0
 11
428.76197365862419
 21
587.09142263968715
 31
0.0
  0
LINE
  5
88C4
  8
0
 10
361.05197365862421
 20
587.09142263968715
 30
0.0
 11
361.05197365862421
 21
589.18642263968718
 31
0.0
  0
LINE
  5
88C5
  8
0
 10
360.13197365862419
 20
589.19142263968718
 30
0.0
 11
443.63197365862408
 21
589.19142263968718
 31
0.0
  0
LINE
  5
88C6
  8
0
 10
209.58197365862429
 20
472.44142263968729
 30
0.0
 11
216.63197365862419
 21
472.44142263968729
 31
0.0
  0
LINE
  5
88C7
  8
0
 10
209.58197365862429
 20
633.94142263968729
 30
0.0
 11
216.63197365862419
 21
633.94142263968729
 31
0.0
  0
LINE
  5
88C8
  8
0
  6
AM_ISO08W050
 10
261.63197365862419
 20
540.47154063968719
 30
0.0
 11
261.63197365862419
 21
566.79918263968716
 31
0.0
  0
LINE
  5
88C9
  8
0
 10
171.33197365862429
 20
615.99142263968724
 30
0.0
 11
171.33197365862429
 21
552.04747863968726
 31
0.0
  0
LINE
  5
88CA
  8
0
 10
175.7719736586242
 20
620.67142263968731
 30
0.0
 11
176.8519736586243
 21
626.83142263968716
 31
0.0
  0
LINE
  5
88CB
  8
0
 10
208.33197365862429
 20
473.21198363968728
 30
0.0
 11
208.33197365862429
 21
550.69142263968718
 31
0.0
  0
LINE
  5
88CC
  8
0
 10
207.62197365862431
 20
632.90142263968733
 30
0.0
 11
182.22197365862431
 21
631.57142263968717
 31
0.0
  0
LINE
  5
88CD
  8
0
 10
175.7719746586242
 20
485.71142263968721
 30
0.0
 11
176.8519736586243
 21
479.5514226396873
 31
0.0
  0
LINE
  5
88CE
  8
0
 10
207.62197365862431
 20
473.48142263968708
 30
0.0
 11
182.22197365862431
 21
474.81142263968718
 31
0.0
  0
LINE
  5
88CF
  8
0
 10
175.33197365862429
 20
616.84142263968727
 30
0.0
 11
175.33197365862429
 21
554.52471563968732
 31
0.0
  0
LINE
  5
88D0
  8
0
 10
179.4019736586242
 20
479.69142263968718
 30
0.0
 11
179.4019736586242
 21
550.54064063968735
 31
0.0
  0
ARC
  5
88D1
  8
0
 10
172.81625365862419
 20
621.19059163968723
 30
0.0
 40
3.0009689999999982
 50
278.34845900000352
 51
350.03768200000121
  0
ARC
  5
88D2
  8
0
 10
173.58182365862419
 20
615.99587863968725
 30
0.0
 40
2.249854
 50
98.430493000000524
 51
180.11348999999771
  0
ARC
  5
88D3
  8
0
 10
209.5873106586242
 20
632.69019163968733
 30
0.0
 40
1.2512430000000001
 50
90.244380000000078
 51
144.2391030000031
  0
ARC
  5
88D4
  8
0
 10
207.55576765862429
 20
634.1501646396872
 30
0.0
 40
1.2504959999999981
 50
273.03488699999713
 51
324.35492199999788
  0
ARC
  5
88D5
  8
0
 10
182.5161116586242
 20
625.8263236396873
 30
0.0
 40
5.7526239999999991
 50
92.930875000003141
 51
169.9376259999998
  0
ARC
  5
88D6
  8
0
 10
209.58233765862411
 20
473.68299563968719
 30
0.0
 40
1.241573
 50
215.53333300000179
 51
269.98318399999948
  0
ARC
  5
88D7
  8
0
 10
207.55069665862419
 20
472.22341663968712
 30
0.0
 40
1.260022999999999
 50
35.853017999999082
 51
86.757172999999355
  0
ARC
  5
88D8
  8
0
 10
182.5099236586243
 20
480.5495116396873
 30
0.0
 40
5.745309999999999
 50
190.00432199999841
 51
267.12717799999689
  0
LINE
  5
88D9
  8
0
 10
208.33197365862429
 20
555.69142263968683
 30
0.0
 11
208.33197365862429
 21
633.17142263968731
 31
0.0
  0
ARC
  5
88DA
  8
0
 10
443.13197365862419
 20
575.69142263968718
 30
0.0
 40
2.0
 50
90.0
 51
180.0
  0
ARC
  5
88DB
  8
0
 10
443.63197365862408
 20
579.69142263968718
 30
0.0
 40
2.0
 50
270.0
 51
0.0
  0
LINE
  5
88DC
  8
0
 10
443.63197365862408
 20
577.69142263968729
 30
0.0
 11
443.13197365862419
 21
577.69142263968729
 31
0.0
  0
LINE
  5
88DD
  8
0
 10
445.63197365862419
 20
587.19142263968729
 30
0.0
 11
445.63197365862419
 21
579.69142263968718
 31
0.0
  0
ARC
  5
88DE
  8
0
 10
443.63197365862408
 20
587.19142263968729
 30
0.0
 40
2.0
 50
0.0
 51
90.0
  0
ARC
  5
88DF
  8
0
 10
443.13197365862419
 20
530.69142263968683
 30
0.0
 40
2.0
 50
180.0
 51
270.0
  0
LINE
  5
88E0
  8
0
 10
445.63197365862419
 20
519.1914226396874
 30
0.0
 11
445.63197365862419
 21
526.69142263968695
 31
0.0
  0
ARC
  5
88E1
  8
0
 10
443.63197365862408
 20
526.69142263968695
 30
0.0
 40
2.0
 50
0.0
 51
90.0
  0
LINE
  5
88E2
  8
0
 10
443.63197365862408
 20
528.6914226396874
 30
0.0
 11
443.13197365862419
 21
528.6914226396874
 31
0.0
  0
ARC
  5
88E3
  8
0
 10
443.63197365862408
 20
519.1914226396874
 30
0.0
 40
2.0
 50
270.0
 51
0.0
  0
CIRCLE
  5
88E4
  8
0
 10
440.13197365862408
 20
584.19142263968718
 30
0.0
 40
3.5
  0
CIRCLE
  5
88E5
  8
0
 10
440.13197365862408
 20
584.19142263968718
 30
0.0
 40
3.299999999999998
  0
LINE
  5
88E6
  8
0
 10
441.78197365862411
 20
583.73598363968711
 30
0.0
 11
441.78197365862411
 21
584.64686163968724
 31
0.0
  0
LINE
  5
88E7
  8
0
 10
443.3621106586242
 20
583.73598363968711
 30
0.0
 11
443.3621106586242
 21
584.64686163968724
 31
0.0
  0
LINE
  5
88E8
  8
0
 10
438.48197365862421
 20
583.73598363968711
 30
0.0
 11
438.48197365862421
 21
584.64686163968724
 31
0.0
  0
ARC
  5
88E9
  8
0
 10
437.1218366586242
 20
584.64686163968724
 30
0.0
 40
0.22
 50
90.0
 51
180.0
  0
LINE
  5
88EA
  8
0
 10
439.80197365862421
 20
585.84142263968715
 30
0.0
 11
440.46197365862417
 21
585.84142263968715
 31
0.0
  0
LINE
  5
88EB
  8
0
 10
439.58197365862429
 20
585.0868616396873
 30
0.0
 11
439.58197365862429
 21
585.62142263968724
 31
0.0
  0
LINE
  5
88EC
  8
0
 10
440.6819736586242
 20
585.62142263968724
 30
0.0
 11
440.6819736586242
 21
585.0868616396873
 31
0.0
  0
ARC
  5
88ED
  8
0
 10
438.70197365862441
 20
584.64686163968724
 30
0.0
 40
0.22
 50
90.0
 51
180.0
  0
LINE
  5
88EE
  8
0
 10
438.70197365862441
 20
584.86686163968727
 30
0.0
 11
439.36197365862409
 21
584.86686163968727
 31
0.0
  0
ARC
  5
88EF
  8
0
 10
439.36197365862409
 20
585.0868616396873
 30
0.0
 40
0.22
 50
270.0
 51
0.0
  0
ARC
  5
88F0
  8
0
 10
440.90197365862412
 20
585.0868616396873
 30
0.0
 40
0.22
 50
180.0
 51
270.0
  0
LINE
  5
88F1
  8
0
 10
438.70197365862441
 20
584.86686163968727
 30
0.0
 11
437.1218366586242
 21
584.86686163968727
 31
0.0
  0
ARC
  5
88F2
  8
0
 10
440.46197365862417
 20
585.62142263968724
 30
0.0
 40
0.22
 50
0.0
 51
90.0
  0
ARC
  5
88F3
  8
0
 10
439.80197365862421
 20
585.62142263968724
 30
0.0
 40
0.22
 50
90.0
 51
180.0
  0
LINE
  5
88F4
  8
0
 10
441.5619736586242
 20
584.86686163968727
 30
0.0
 11
443.14211065862412
 21
584.86686163968727
 31
0.0
  0
ARC
  5
88F5
  8
0
 10
441.5619736586242
 20
584.64686163968724
 30
0.0
 40
0.22
 50
0.0
 51
90.0
  0
ARC
  5
88F6
  8
0
 10
443.14211065862412
 20
584.64686163968724
 30
0.0
 40
0.22
 50
0.0
 51
90.0
  0
LINE
  5
88F7
  8
0
 10
440.90197365862412
 20
584.86686163968727
 30
0.0
 11
441.5619736586242
 21
584.86686163968727
 31
0.0
  0
LINE
  5
88F8
  8
0
 10
438.70197365862441
 20
583.51598363968731
 30
0.0
 11
437.1218366586242
 21
583.51598363968731
 31
0.0
  0
ARC
  5
88F9
  8
0
 10
440.46197365862417
 20
582.76142263968723
 30
0.0
 40
0.22
 50
270.0
 51
0.0
  0
ARC
  5
88FA
  8
0
 10
439.80197365862421
 20
582.76142263968723
 30
0.0
 40
0.22
 50
180.0
 51
270.0
  0
LINE
  5
88FB
  8
0
 10
439.80197365862421
 20
582.54142263968731
 30
0.0
 11
440.46197365862417
 21
582.54142263968731
 31
0.0
  0
ARC
  5
88FC
  8
0
 10
439.36197365862409
 20
583.29598363968728
 30
0.0
 40
0.22
 50
0.0
 51
90.0
  0
ARC
  5
88FD
  8
0
 10
440.90197365862412
 20
583.29598363968728
 30
0.0
 40
0.22
 50
90.0
 51
180.0
  0
ARC
  5
88FE
  8
0
 10
438.70197365862441
 20
583.73598363968711
 30
0.0
 40
0.22
 50
180.0
 51
270.0
  0
LINE
  5
88FF
  8
0
 10
439.36197365862409
 20
583.51598363968731
 30
0.0
 11
438.70197365862441
 21
583.51598363968731
 31
0.0
  0
LINE
  5
8900
  8
0
 10
439.58197365862429
 20
582.76142263968723
 30
0.0
 11
439.58197365862429
 21
583.29598363968728
 31
0.0
  0
LINE
  5
8901
  8
0
 10
440.6819736586242
 20
582.76142263968723
 30
0.0
 11
440.6819736586242
 21
583.29598363968728
 31
0.0
  0
LINE
  5
8902
  8
0
 10
441.5619736586242
 20
583.51598363968731
 30
0.0
 11
443.14211065862412
 21
583.51598363968731
 31
0.0
  0
ARC
  5
8903
  8
0
 10
441.5619736586242
 20
583.73598363968711
 30
0.0
 40
0.22
 50
270.0
 51
0.0
  0
LINE
  5
8904
  8
0
 10
441.5619736586242
 20
583.51598363968731
 30
0.0
 11
440.90197365862412
 21
583.51598363968731
 31
0.0
  0
ARC
  5
8905
  8
0
 10
443.14211065862412
 20
583.73598363968711
 30
0.0
 40
0.22
 50
270.0
 51
0.0
  0
ARC
  5
8906
  8
0
 10
437.1218366586242
 20
583.73598363968711
 30
0.0
 40
0.22
 50
180.0
 51
270.0
  0
CIRCLE
  5
8907
  8
0
 10
440.13197365862408
 20
522.19142263968683
 30
0.0
 40
3.5
  0
CIRCLE
  5
8908
  8
0
 10
440.13197365862408
 20
522.19142263968683
 30
0.0
 40
3.299999999999998
  0
LINE
  5
8909
  8
0
 10
438.48197365862421
 20
522.64686163968724
 30
0.0
 11
438.48197365862421
 21
521.73598363968733
 31
0.0
  0
LINE
  5
890A
  8
0
 10
443.3621106586242
 20
522.64686163968724
 30
0.0
 11
443.3621106586242
 21
521.73598363968733
 31
0.0
  0
LINE
  5
890B
  8
0
 10
441.78197365862411
 20
522.64686163968724
 30
0.0
 11
441.78197365862411
 21
521.73598363968733
 31
0.0
  0
ARC
  5
890C
  8
0
 10
443.14211065862412
 20
521.73598363968733
 30
0.0
 40
0.22
 50
270.0
 51
0.0
  0
ARC
  5
890D
  8
0
 10
440.90197365862412
 20
521.29598363968739
 30
0.0
 40
0.22
 50
90.0
 51
180.0
  0
ARC
  5
890E
  8
0
 10
439.36197365862409
 20
521.29598363968739
 30
0.0
 40
0.22
 50
0.0
 51
90.0
  0
ARC
  5
890F
  8
0
 10
441.5619736586242
 20
521.73598363968733
 30
0.0
 40
0.22
 50
270.0
 51
0.0
  0
LINE
  5
8910
  8
0
 10
438.70197365862441
 20
521.51598363968731
 30
0.0
 11
439.36197365862409
 21
521.51598363968731
 31
0.0
  0
LINE
  5
8911
  8
0
 10
438.70197365862441
 20
521.51598363968731
 30
0.0
 11
437.1218366586242
 21
521.51598363968731
 31
0.0
  0
ARC
  5
8912
  8
0
 10
438.70197365862441
 20
521.73598363968733
 30
0.0
 40
0.22
 50
180.0
 51
270.0
  0
LINE
  5
8913
  8
0
 10
440.90197365862412
 20
521.51598363968731
 30
0.0
 11
441.5619736586242
 21
521.51598363968731
 31
0.0
  0
LINE
  5
8914
  8
0
 10
439.80197365862421
 20
520.54142263968731
 30
0.0
 11
440.46197365862417
 21
520.54142263968731
 31
0.0
  0
ARC
  5
8915
  8
0
 10
440.46197365862417
 20
520.76142263968723
 30
0.0
 40
0.22
 50
270.0
 51
0.0
  0
ARC
  5
8916
  8
0
 10
439.80197365862421
 20
520.76142263968723
 30
0.0
 40
0.22
 50
180.0
 51
270.0
  0
LINE
  5
8917
  8
0
 10
440.6819736586242
 20
520.76142263968723
 30
0.0
 11
440.6819736586242
 21
521.29598363968739
 31
0.0
  0
LINE
  5
8918
  8
0
 10
439.58197365862429
 20
521.29598363968739
 30
0.0
 11
439.58197365862429
 21
520.76142263968723
 31
0.0
  0
ARC
  5
8919
  8
0
 10
437.1218366586242
 20
521.73598363968733
 30
0.0
 40
0.22
 50
180.0
 51
270.0
  0
LINE
  5
891A
  8
0
 10
441.5619736586242
 20
521.51598363968731
 30
0.0
 11
443.14211065862412
 21
521.51598363968731
 31
0.0
  0
LINE
  5
891B
  8
0
 10
440.6819736586242
 20
523.62142263968735
 30
0.0
 11
440.6819736586242
 21
523.0868616396873
 31
0.0
  0
LINE
  5
891C
  8
0
 10
439.58197365862429
 20
523.62142263968735
 30
0.0
 11
439.58197365862429
 21
523.0868616396873
 31
0.0
  0
ARC
  5
891D
  8
0
 10
441.5619736586242
 20
522.64686163968724
 30
0.0
 40
0.22
 50
0.0
 51
90.0
  0
LINE
  5
891E
  8
0
 10
439.36197365862409
 20
522.86686163968716
 30
0.0
 11
438.70197365862441
 21
522.86686163968716
 31
0.0
  0
LINE
  5
891F
  8
0
 10
438.70197365862441
 20
522.86686163968716
 30
0.0
 11
437.1218366586242
 21
522.86686163968716
 31
0.0
  0
ARC
  5
8920
  8
0
 10
438.70197365862441
 20
522.64686163968724
 30
0.0
 40
0.22
 50
90.0
 51
180.0
  0
LINE
  5
8921
  8
0
 10
441.5619736586242
 20
522.86686163968716
 30
0.0
 11
440.90197365862412
 21
522.86686163968716
 31
0.0
  0
ARC
  5
8922
  8
0
 10
440.90197365862412
 20
523.0868616396873
 30
0.0
 40
0.22
 50
180.0
 51
270.0
  0
ARC
  5
8923
  8
0
 10
439.36197365862409
 20
523.0868616396873
 30
0.0
 40
0.22
 50
270.0
 51
0.0
  0
ARC
  5
8924
  8
0
 10
443.14211065862412
 20
522.64686163968724
 30
0.0
 40
0.22
 50
0.0
 51
90.0
  0
ARC
  5
8925
  8
0
 10
437.1218366586242
 20
522.64686163968724
 30
0.0
 40
0.22
 50
90.0
 51
180.0
  0
LINE
  5
8926
  8
0
 10
441.5619736586242
 20
522.86686163968716
 30
0.0
 11
443.14211065862412
 21
522.86686163968716
 31
0.0
  0
LINE
  5
8927
  8
0
 10
439.80197365862421
 20
523.84142263968715
 30
0.0
 11
440.46197365862417
 21
523.84142263968715
 31
0.0
  0
ARC
  5
8928
  8
0
 10
439.80197365862421
 20
523.62142263968735
 30
0.0
 40
0.22
 50
90.0
 51
180.0
  0
ARC
  5
8929
  8
0
 10
440.46197365862417
 20
523.62142263968735
 30
0.0
 40
0.22
 50
0.0
 51
90.0
  0
LINE
  5
892A
  8
0
 10
436.90183665862389
 20
584.64686163968724
 30
0.0
 11
436.90183665862389
 21
583.73598363968711
 31
0.0
  0
LINE
  5
892B
  8
0
 10
436.90183665862389
 20
522.64686163968724
 30
0.0
 11
436.90183665862389
 21
521.73598363968733
 31
0.0
  0
ARC
  5
892D
  8
0
 10
451.23198065862408
 20
498.8824496396872
 30
0.0
 40
2.2000009999999981
 50
90.000022000001564
 51
179.99999700000231
  0
ARC
  5
892E
  8
0
 10
451.23198065862408
 20
494.28244363968741
 30
0.0
 40
2.1999970000000002
 50
180.00001799999919
 51
270.0
  0
LINE
  5
892F
  8
0
 10
453.63197165862431
 20
496.6318916396873
 30
0.0
 11
452.33197165862413
 21
497.38244663968709
 31
0.0
  0
LINE
  5
8930
  8
0
 10
453.63197165862431
 20
495.6318916396873
 30
0.0
 11
452.33197165862413
 21
496.3824466396872
 31
0.0
  0
LINE
  5
8931
  8
0
 10
452.33197165862413
 20
491.98244663968728
 30
0.0
 11
453.63197165862431
 21
491.98244663968728
 31
0.0
  0
LINE
  5
8932
  8
0
 10
452.33197165862413
 20
501.18244663968721
 30
0.0
 11
453.63197165862431
 21
501.18244663968721
 31
0.0
  0
LINE
  5
8933
  8
0
 10
453.63197165862431
 20
491.98244663968728
 30
0.0
 11
453.63197165862431
 21
501.18244663968721
 31
0.0
  0
LINE
  5
8934
  8
0
 10
449.03196865862429
 20
494.28244363968741
 30
0.0
 11
449.03196865862429
 21
498.8824496396872
 31
0.0
  0
LINE
  5
8935
  8
0
 10
452.33197165862413
 20
491.98244663968728
 30
0.0
 11
452.33197165862413
 21
501.18244663968721
 31
0.0
  0
LINE
  5
8936
  8
0
 10
452.33197165862413
 20
501.0824466396873
 30
0.0
 11
451.23198065862408
 21
501.0824466396873
 31
0.0
  0
LINE
  5
8937
  8
0
 10
452.33197165862413
 20
492.08244663968708
 30
0.0
 11
451.23198065862408
 21
492.08244663968708
 31
0.0
  0
LINE
  5
97AB
  8
0
  6
AM_ISO08W050
 10
155.52491596814141
 20
1024.780587845381
 30
0.0
 11
878.24917365862439
 21
1024.780587845381
 31
0.0
  0
LINE
  5
97AC
  8
0
  6
CONTINUOUS
 10
779.63199365862476
 20
1054.780587845381
 30
0.0
 11
785.63193365862423
 21
1054.780587845381
 31
0.0
  0
LINE
  5
97AD
  8
0
  6
CONTINUOUS
 10
779.63199365862476
 20
994.78058784538166
 30
0.0
 11
785.63193365862423
 21
994.78058784538166
 31
0.0
  0
LINE
  5
97AE
  8
0
  6
CONTINUOUS
 10
805.63193365862412
 20
1032.7805278453809
 30
0.0
 11
805.63193365862412
 21
1016.780527845381
 31
0.0
  0
LINE
  5
97AF
  8
0
  6
CONTINUOUS
 10
785.63193365862423
 20
997.28058784538132
 30
0.0
 11
867.63193365862435
 21
997.28058784538132
 31
0.0
  0
LINE
  5
97B0
  8
0
  6
CONTINUOUS
 10
867.63193365862435
 20
1052.280587845381
 30
0.0
 11
867.63193365862435
 21
997.28058784538132
 31
0.0
  0
LINE
  5
97B1
  8
0
  6
CONTINUOUS
 10
785.63193365862423
 20
1054.780587845381
 30
0.0
 11
785.63193365862423
 21
994.78058784538166
 31
0.0
  0
LINE
  5
97B2
  8
0
  6
CONTINUOUS
 10
785.63193365862423
 20
1052.280587845381
 30
0.0
 11
867.63193365862435
 21
1052.280587845381
 31
0.0
  0
LINE
  5
97B3
  8
0
  6
CONTINUOUS
 10
714.63199365862465
 20
1181.9140078453811
 30
0.0
 11
714.63199365862465
 21
1153.368837845381
 31
0.0
  0
LINE
  5
97B4
  8
0
  6
CONTINUOUS
 10
632.63199365862465
 20
1157.7805278453809
 30
0.0
 11
657.63199365862465
 21
1156.9075378453811
 31
0.0
  0
LINE
  5
97B5
  8
0
  6
CONTINUOUS
 10
657.63193365862458
 20
1156.9075978453809
 30
0.0
 11
661.77670365862457
 21
1152.762827845381
 31
0.0
  0
LINE
  5
97B6
  8
0
  6
CONTINUOUS
 10
661.77670365862457
 20
1152.7627678453821
 30
0.0
 11
711.47195365862456
 21
1151.027407845381
 31
0.0
  0
LINE
  5
97B7
  8
0
  6
CONTINUOUS
 10
726.21316365862458
 20
1141.3761078453811
 30
0.0
 11
739.91122365862452
 21
1140.8977778453809
 31
0.0
  0
LINE
  5
97B8
  8
0
  6
CONTINUOUS
 10
637.63199365862476
 20
1174.839117845381
 30
0.0
 11
637.63199365862476
 21
1157.605967845381
 31
0.0
  0
LINE
  5
97B9
  8
0
  6
CONTINUOUS
 10
755.35281365862454
 20
1124.510927845381
 30
0.0
 11
766.91116365862445
 21
1124.107307845381
 31
0.0
  0
LINE
  5
97BA
  8
0
  6
CENTER
 10
733.18216365862452
 20
1157.280587845381
 30
0.0
 11
767.45016365862466
 21
1157.280587845381
 31
0.0
  0
LINE
  5
97BB
  8
0
  6
CONTINUOUS
 10
632.63199365862465
 20
1157.780587845381
 30
0.0
 11
632.63199365862465
 21
1029.780587845381
 31
0.0
  0
LINE
  5
97BC
  8
0
  6
CONTINUOUS
 10
779.63199365862476
 20
1179.9933578453811
 30
0.0
 11
779.63199365862476
 21
1129.567757845381
 31
0.0
  0
LINE
  5
97BD
  8
0
  6
CONTINUOUS
 10
776.56216365862463
 20
1084.8876978453809
 30
0.0
 11
777.70181365862436
 21
1084.8479078453811
 31
0.0
  0
LINE
  5
97BE
  8
0
  6
CONTINUOUS
 10
549.63199365862465
 20
1181.879097845381
 30
0.0
 11
549.63199365862465
 21
1139.4928078453811
 31
0.0
  0
LINE
  5
97BF
  8
0
  6
CONTINUOUS
 10
779.63199365862476
 20
1082.849187845381
 30
0.0
 11
779.63199365862476
 21
966.71191784538132
 31
0.0
  0
LINE
  5
97C0
  8
0
  6
CONTINUOUS
 10
774.63199365862454
 20
1122.1515578453809
 30
0.0
 11
774.63199365862454
 21
927.4095578453813
 31
0.0
  0
LINE
  5
97C1
  8
0
  6
CONTINUOUS
 10
553.76370365862465
 20
1134.568857845381
 30
0.0
 11
576.63193365862469
 21
1130.5365678453809
 31
0.0
  0
LINE
  5
97C2
  8
0
  6
CONTINUOUS
 10
637.63199365862476
 20
1189.780587845381
 30
0.0
 11
774.80649365862462
 21
1184.9902978453811
 31
0.0
  0
LINE
  5
97C3
  8
0
  6
CONTINUOUS
 10
637.63199365862476
 20
1189.780587845381
 30
0.0
 11
554.45743365862438
 21
1186.876047845381
 31
0.0
  0
LINE
  5
97C4
  8
0
  6
CENTER
 10
563.95480365862466
 20
1157.280587845381
 30
0.0
 11
596.81448365862468
 21
1157.280587845381
 31
0.0
  0
LINE
  5
97C5
  8
0
  6
CENTER
 10
579.63199365862476
 20
1173.336677845381
 30
0.0
 11
579.63199365862476
 21
1139.538157845381
 31
0.0
  0
LINE
  5
97C6
  8
0
  6
CENTER
 10
749.63199365862454
 20
1174.744997845381
 30
0.0
 11
749.63199365862454
 21
1139.538157845381
 31
0.0
  0
LINE
  5
97C7
  8
0
  6
CONTINUOUS
 10
608.63193365862469
 20
1176.6072478453809
 30
0.0
 11
635.63205365862439
 21
1167.0607978453811
 31
0.0
  0
LINE
  5
97C8
  8
0
  6
CONTINUOUS
 10
605.16818365862457
 20
1188.438547845381
 30
0.0
 11
635.63199365862465
 21
1177.6674878453809
 31
0.0
  0
LINE
  5
97C9
  8
0
  6
CENTER
 10
749.63199365862454
 20
875.09808784538131
 30
0.0
 11
749.63199365862454
 21
908.43365784538128
 31
0.0
  0
LINE
  5
97CA
  8
0
  6
CENTER
 10
579.63199365862476
 20
874.40362784538115
 30
0.0
 11
579.63199365862476
 21
908.78088784538124
 31
0.0
  0
LINE
  5
97CB
  8
0
  6
CENTER
 10
563.60116365862439
 20
892.28052784538124
 30
0.0
 11
596.9366736586245
 21
892.28052784538124
 31
0.0
  0
LINE
  5
97CC
  8
0
  6
CONTINUOUS
 10
637.63199365862476
 20
859.78052784538147
 30
0.0
 11
554.45749365862434
 21
862.68506784538135
 31
0.0
  0
LINE
  5
97CD
  8
0
  6
CONTINUOUS
 10
637.63193365862469
 20
859.78058784538132
 30
0.0
 11
774.80643365862477
 21
864.57086784538114
 31
0.0
  0
LINE
  5
97CE
  8
0
  6
CONTINUOUS
 10
553.76370365862465
 20
914.99231784538119
 30
0.0
 11
576.63193365862469
 21
919.02460784538118
 31
0.0
  0
LINE
  5
97CF
  8
0
  6
CONTINUOUS
 10
549.63199365862465
 20
867.68201784538121
 30
0.0
 11
549.63199365862465
 21
910.06830784538136
 31
0.0
  0
LINE
  5
97D0
  8
0
  6
CONTINUOUS
 10
776.56216365862463
 20
964.67340784538135
 30
0.0
 11
777.70181365862436
 21
964.71320784538125
 31
0.0
  0
LINE
  5
97D1
  8
0
  6
CONTINUOUS
 10
779.63199365862476
 20
869.56775784538115
 30
0.0
 11
779.63199365862476
 21
919.99341784538137
 31
0.0
  0
LINE
  5
97D2
  8
0
  6
CENTER
 10
733.05679365862466
 20
892.28052784538124
 30
0.0
 11
767.08682365862467
 21
892.28052784538124
 31
0.0
  0
LINE
  5
97D3
  8
0
  6
CONTINUOUS
 10
747.63199365862465
 20
916.65845784538135
 30
0.0
 11
747.63199365862465
 21
1132.9026578453811
 31
0.0
  0
LINE
  5
97D4
  8
0
  6
CONTINUOUS
 10
755.35281365862454
 20
925.05023784538128
 30
0.0
 11
766.91116365862445
 21
925.45386784538118
 31
0.0
  0
LINE
  5
97D5
  8
0
  6
CONTINUOUS
 10
726.21316365862458
 20
908.18506784538135
 30
0.0
 11
739.91116365862445
 21
908.66339784538127
 31
0.0
  0
LINE
  5
97D6
  8
0
  6
CONTINUOUS
 10
661.77670365862457
 20
896.79834784538127
 30
0.0
 11
711.47195365862456
 21
898.53369784538143
 31
0.0
  0
LINE
  5
97D7
  8
0
  6
CONTINUOUS
 10
657.63199365862465
 20
892.65356784538108
 30
0.0
 11
661.77676365862453
 21
896.79834784538127
 31
0.0
  0
LINE
  5
97D8
  8
0
  6
CONTINUOUS
 10
632.63193365862458
 20
891.78058784538143
 30
0.0
 11
657.63193365862458
 21
892.65356784538108
 31
0.0
  0
LINE
  5
97D9
  8
0
  6
CONTINUOUS
 10
605.16830365862427
 20
861.12256784538135
 30
0.0
 11
635.63199365862465
 21
871.89362784538116
 31
0.0
  0
LINE
  5
97DA
  8
0
  6
CONTINUOUS
 10
608.63199365862476
 20
872.9538678453813
 30
0.0
 11
635.63205365862439
 21
882.5002478453813
 31
0.0
  0
LINE
  5
97DB
  8
0
  6
CONTINUOUS
 10
637.63199365862476
 20
874.72205784538153
 30
0.0
 11
637.63199365862476
 21
891.95520784538155
 31
0.0
  0
LINE
  5
97DC
  8
0
  6
CONTINUOUS
 10
714.63199365862465
 20
867.64709784538115
 30
0.0
 11
714.63199365862465
 21
896.19226784538125
 31
0.0
  0
LINE
  5
97DD
  8
0
  6
CONTINUOUS
 10
657.63193365862458
 20
892.65356784538108
 30
0.0
 11
657.63193365862458
 21
1156.9075378453811
 31
0.0
  0
LINE
  5
97DE
  8
0
  6
CONTINUOUS
 10
805.63199365862465
 20
1016.780527845381
 30
0.0
 11
867.63193365862435
 21
1016.780527845381
 31
0.0
  0
LINE
  5
97DF
  8
0
  6
CONTINUOUS
 10
805.63199365862465
 20
1032.7805278453809
 30
0.0
 11
867.63193365862435
 21
1032.7805278453809
 31
0.0
  0
LINE
  5
97E0
  8
0
  6
CONTINUOUS
 10
632.63199365862465
 20
891.78052784538136
 30
0.0
 11
607.45749365862446
 21
892.65967784538134
 31
0.0
  0
LINE
  5
97E1
  8
0
  6
CONTINUOUS
 10
632.63193365862458
 20
1157.780587845381
 30
0.0
 11
607.45736365862456
 21
1156.901437845381
 31
0.0
  0
LINE
  5
97E2
  8
0
  6
CONTINUOUS
 10
597.80643365862466
 20
1136.8041478453811
 30
0.0
 11
581.4574336586245
 21
1136.233217845381
 31
0.0
  0
LINE
  5
97E3
  8
0
  6
CONTINUOUS
 10
597.80643365862466
 20
912.75702784538134
 30
0.0
 11
581.4574336586245
 21
913.32794784538135
 31
0.0
  0
LINE
  5
97E4
  8
0
  6
CONTINUOUS
 10
576.63193365862469
 20
918.3248978453812
 30
0.0
 11
576.63193365862469
 21
1131.2362178453809
 31
0.0
  0
LINE
  5
97E5
  8
0
  6
CENTER
 10
614.63199365862465
 20
1009.600227845381
 30
0.0
 11
614.63199365862465
 21
1039.335147845381
 31
0.0
  0
LINE
  5
97E6
  8
0
  6
CONTINUOUS
 10
594.63199365862465
 20
1019.780587845381
 30
0.0
 11
634.63199365862465
 21
1019.780587845381
 31
0.0
  0
LINE
  5
97E7
  8
0
  6
CONTINUOUS
 10
594.63199365862465
 20
1029.780587845381
 30
0.0
 11
634.63199365862465
 21
1029.780587845381
 31
0.0
  0
LINE
  5
97E8
  8
0
  6
CONTINUOUS
 10
632.63199365862465
 20
1019.780587845381
 30
0.0
 11
632.63199365862465
 21
891.78052784538136
 31
0.0
  0
LINE
  5
97E9
  8
0
  6
CONTINUOUS
 10
602.63193365862458
 20
897.65662784538119
 30
0.0
 11
602.63193365862458
 21
1014.244997845381
 31
0.0
  0
LINE
  5
97EA
  8
0
  6
CONTINUOUS
 10
602.63193365862458
 20
1035.316167845381
 30
0.0
 11
602.63193365862458
 21
1151.904487845381
 31
0.0
  0
LINE
  5
97EB
  8
0
  6
CONTINUOUS
 10
555.63193365862469
 20
951.77435784538136
 30
0.0
 11
576.63193365862469
 21
951.77435784538136
 31
0.0
  0
LINE
  5
97EC
  8
0
  6
CONTINUOUS
 10
555.63193365862469
 20
968.00476784538137
 30
0.0
 11
576.63193365862469
 21
968.00476784538137
 31
0.0
  0
LINE
  5
97ED
  8
0
  6
CONTINUOUS
 10
555.63193365862469
 20
1081.556337845381
 30
0.0
 11
576.63193365862469
 21
1081.556337845381
 31
0.0
  0
LINE
  5
97EE
  8
0
  6
CONTINUOUS
 10
555.63193365862469
 20
1107.975717845381
 30
0.0
 11
576.63193365862469
 21
1107.975717845381
 31
0.0
  0
LINE
  5
97EF
  8
0
  6
CONTINUOUS
 10
555.63193365862469
 20
1107.975717845381
 30
0.0
 11
555.63193365862469
 21
1081.556337845381
 31
0.0
  0
LINE
  5
97F0
  8
0
  6
CONTINUOUS
 10
555.63193365862469
 20
968.00476784538137
 30
0.0
 11
555.63193365862469
 21
941.58539784538095
 31
0.0
  0
LINE
  5
97F1
  8
0
  6
CONTINUOUS
 10
555.63193365862469
 20
941.58539784538095
 30
0.0
 11
576.63193365862469
 21
941.58539784538095
 31
0.0
  0
LINE
  5
97F2
  8
0
  6
CONTINUOUS
 10
553.63199365862465
 20
927.28052784538158
 30
0.0
 11
571.8064936586245
 21
926.64587784538128
 31
0.0
  0
LINE
  5
97F3
  8
0
  6
CONTINUOUS
 10
555.63193365862469
 20
1097.7867478453809
 30
0.0
 11
576.63193365862469
 21
1097.7867478453809
 31
0.0
  0
LINE
  5
97F4
  8
0
  6
CONTINUOUS
 10
553.63205365862427
 20
1122.2805878453819
 30
0.0
 11
571.80655365862458
 21
1122.915227845381
 31
0.0
  0
LINE
  5
97F5
  8
0
  6
CONTINUOUS
 10
553.63205365862427
 20
1122.2805878453819
 30
0.0
 11
553.63205365862427
 21
927.28058784538121
 31
0.0
  0
LINE
  5
97F6
  8
0
  6
CONTINUOUS
 10
463.63199365862448
 20
1064.255257845381
 30
0.0
 11
475.63199365862459
 21
1064.255257845381
 31
0.0
  0
LINE
  5
97F7
  8
0
  6
CONTINUOUS
 10
463.63199365862448
 20
985.30591784538126
 30
0.0
 11
475.63199365862459
 21
985.30591784538126
 31
0.0
  0
LINE
  5
97F8
  8
0
  6
CONTINUOUS
 10
463.63199365862448
 20
1086.3606078453811
 30
0.0
 11
475.63199365862459
 21
1086.3606078453811
 31
0.0
  0
LINE
  5
97F9
  8
0
  6
CONTINUOUS
 10
463.63199365862448
 20
963.20056784538133
 30
0.0
 11
475.63199365862459
 21
963.20056784538133
 31
0.0
  0
LINE
  5
97FA
  8
0
  6
CONTINUOUS
 10
538.63199365862465
 20
942.08539784538129
 30
0.0
 11
553.63199365862465
 21
942.08539784538129
 31
0.0
  0
LINE
  5
97FB
  8
0
  6
CONTINUOUS
 10
538.63199365862465
 20
952.27435784538125
 30
0.0
 11
553.63199365862465
 21
952.27435784538125
 31
0.0
  0
LINE
  5
97FC
  8
0
  6
CONTINUOUS
 10
538.63199365862465
 20
968.50476784538125
 30
0.0
 11
553.63199365862465
 21
968.50476784538125
 31
0.0
  0
LINE
  5
97FD
  8
0
  6
CONTINUOUS
 10
538.63199365862465
 20
1082.056337845381
 30
0.0
 11
553.63199365862465
 21
1082.056337845381
 31
0.0
  0
LINE
  5
97FE
  8
0
  6
CONTINUOUS
 10
538.63199365862465
 20
1098.2867478453809
 30
0.0
 11
553.63199365862465
 21
1098.2867478453809
 31
0.0
  0
LINE
  5
97FF
  8
0
  6
CONTINUOUS
 10
538.63199365862465
 20
1108.475717845381
 30
0.0
 11
553.63199365862465
 21
1108.475717845381
 31
0.0
  0
LINE
  5
9800
  8
0
  6
CONTINUOUS
 10
551.63193365862469
 20
925.78058784538132
 30
0.0
 11
553.63193365862435
 21
927.78058784538166
 31
0.0
  0
LINE
  5
9801
  8
0
  6
CONTINUOUS
 10
541.63193365862435
 20
1124.7805278453809
 30
0.0
 11
551.63193365862469
 21
1124.7805278453809
 31
0.0
  0
LINE
  5
9802
  8
0
  6
CONTINUOUS
 10
540.63199365862465
 20
925.78058784538132
 30
0.0
 11
551.63193365862469
 21
925.78058784538132
 31
0.0
  0
LINE
  5
9803
  8
0
  6
CONTINUOUS
 10
538.63199365862465
 20
927.78058784538166
 30
0.0
 11
538.63199365862465
 21
1121.7805278453809
 31
0.0
  0
LINE
  5
9804
  8
0
  6
CONTINUOUS
 10
551.63199365862465
 20
1124.780587845381
 30
0.0
 11
553.63193365862435
 21
1122.7806478453811
 31
0.0
  0
LINE
  5
9805
  8
0
  6
CONTINUOUS
 10
522.69455365862461
 20
1100.3430278453809
 30
0.0
 11
537.16757365862452
 21
1114.816047845381
 31
0.0
  0
LINE
  5
9806
  8
0
  6
CONTINUOUS
 10
475.63199365862459
 20
951.28052784538124
 30
0.0
 11
475.63199365862459
 21
1098.2805878453819
 31
0.0
  0
LINE
  5
9807
  8
0
  6
CONTINUOUS
 10
488.63199365862471
 20
1011.780587845381
 30
0.0
 11
488.63199365862471
 21
1037.780587845381
 31
0.0
  0
LINE
  5
9808
  8
0
  6
CONTINUOUS
 10
493.63199365862459
 20
1006.780587845381
 30
0.0
 11
515.63199365862465
 21
1006.780587845381
 31
0.0
  0
LINE
  5
9809
  8
0
  6
CONTINUOUS
 10
493.63199365862459
 20
1042.780587845381
 30
0.0
 11
515.63199365862465
 21
1042.780587845381
 31
0.0
  0
LINE
  5
980A
  8
0
  6
CONTINUOUS
 10
520.72622365862435
 20
1100.274357845381
 30
0.0
 11
463.63199365862448
 21
1098.2805878453819
 31
0.0
  0
LINE
  5
980B
  8
0
  6
CONTINUOUS
 10
520.72622365862435
 20
949.28674784538134
 30
0.0
 11
463.63199365862448
 21
951.28052784538124
 31
0.0
  0
LINE
  5
980C
  8
0
  6
CONTINUOUS
 10
522.69461365862435
 20
949.21802784538136
 30
0.0
 11
537.16751365862456
 21
934.74512784538103
 31
0.0
  0
LINE
  5
980D
  8
0
  6
CONTINUOUS
 10
520.63199365862465
 20
1006.780587845381
 30
0.0
 11
520.63199365862465
 21
1042.780587845381
 31
0.0
  0
ARC
  5
980E
  8
0
  6
CONTINUOUS
 10
739.63199365862465
 20
1132.9026578453811
 30
0.0
 40
8.0
 50
0.0
 51
87.999999999996476
  0
ARC
  5
980F
  8
0
  6
CONTINUOUS
 10
755.63199365862465
 20
1132.5061078453809
 30
0.0
 40
8.0
 50
180.000010000001
 51
267.99999999999619
  0
ARC
  5
9810
  8
0
  6
CONTINUOUS
 10
607.63199365862465
 20
1173.7788178453809
 30
0.0
 40
3.0
 50
70.527973000001808
 51
180.000010000001
  0
ARC
  5
9811
  8
0
  6
CONTINUOUS
 10
766.63199365862454
 20
1116.112187845381
 30
0.0
 40
8.0
 50
0.0
 51
87.999999999996476
  0
ARC
  5
9812
  8
0
  6
CONTINUOUS
 10
719.63199365862454
 20
1181.9140078453811
 30
0.0
 40
5.0
 50
87.999999999996476
 51
180.000010000001
  0
CIRCLE
  5
9813
  8
0
  6
CONTINUOUS
 10
579.63199365862476
 20
1157.280587845381
 30
0.0
 40
9.5
  0
ARC
  5
9814
  8
0
  6
CONTINUOUS
 10
777.63199365862454
 20
1082.849187845381
 30
0.0
 40
2.0
 50
0.0
 51
87.999999999996476
  0
ARC
  5
9815
  8
0
  6
CONTINUOUS
 10
776.63199365862465
 20
1086.8865378453811
 30
0.0
 40
2.0
 50
180.000010000001
 51
267.99999999999619
  0
ARC
  5
9816
  8
0
  6
CONTINUOUS
 10
554.63199365862476
 20
1181.879097845381
 30
0.0
 40
5.0
 50
91.999997999994306
 51
180.000010000001
  0
ARC
  5
9817
  8
0
  6
CONTINUOUS
 10
774.63199365862454
 20
1179.9933578453811
 30
0.0
 40
5.0
 50
0.0
 51
87.999999999996476
  0
ARC
  5
9818
  8
0
  6
CONTINUOUS
 10
774.63199365862454
 20
1129.567757845381
 30
0.0
 40
5.0
 50
292.0243100000078
 51
0.0
  0
ARC
  5
9819
  8
0
  6
CONTINUOUS
 10
554.63199365862476
 20
1139.4928078453811
 30
0.0
 40
5.0
 50
180.000010000001
 51
259.99998999999877
  0
CIRCLE
  5
981A
  8
0
  6
CONTINUOUS
 10
749.63199365862454
 20
1157.280587845381
 30
0.0
 40
9.5
  0
ARC
  5
981B
  8
0
  6
CONTINUOUS
 10
634.63199365862465
 20
1164.2324278453809
 30
0.0
 40
3.0
 50
0.0
 51
70.527973000001808
  0
ARC
  5
981C
  8
0
  6
CONTINUOUS
 10
634.63199365862465
 20
1174.839117845381
 30
0.0
 40
3.0
 50
0.0
 51
70.527973000001808
  0
CIRCLE
  5
981D
  8
0
  6
CONTINUOUS
 10
749.63199365862454
 20
892.28052784538124
 30
0.0
 40
9.5
  0
ARC
  5
981E
  8
0
  6
CONTINUOUS
 10
554.63199365862476
 20
910.06830784538136
 30
0.0
 40
5.0
 50
100.0000000000061
 51
180.000010000001
  0
ARC
  5
981F
  8
0
  6
CONTINUOUS
 10
774.63199365862454
 20
919.99341784538137
 30
0.0
 40
5.0
 50
0.0
 51
67.975689000004877
  0
ARC
  5
9820
  8
0
  6
CONTINUOUS
 10
774.63199365862454
 20
869.56775784538115
 30
0.0
 40
5.0
 50
272.00000000000369
 51
0.0
  0
ARC
  5
9821
  8
0
  6
CONTINUOUS
 10
554.63199365862476
 20
867.68201784538121
 30
0.0
 40
5.0
 50
180.000010000001
 51
267.99999999999619
  0
ARC
  5
9822
  8
0
  6
CONTINUOUS
 10
776.63199365862465
 20
962.67456784538149
 30
0.0
 40
2.0
 50
91.999997999994306
 51
180.000010000001
  0
ARC
  5
9823
  8
0
  6
CONTINUOUS
 10
777.63199365862454
 20
966.71191784538132
 30
0.0
 40
2.0
 50
272.00000000000369
 51
0.0
  0
CIRCLE
  5
9824
  8
0
  6
CONTINUOUS
 10
579.63199365862476
 20
892.28052784538124
 30
0.0
 40
9.5
  0
ARC
  5
9825
  8
0
  6
CONTINUOUS
 10
777.63199365862454
 20
1122.1515578453809
 30
0.0
 40
3.0
 50
112.0243100000053
 51
180.000010000001
  0
ARC
  5
9826
  8
0
  6
CONTINUOUS
 10
777.63199365862454
 20
927.4095578453813
 30
0.0
 40
3.0
 50
180.000010000001
 51
247.9756899999922
  0
ARC
  5
9827
  8
0
  6
CONTINUOUS
 10
766.63199365862454
 20
933.44897784538159
 30
0.0
 40
8.0
 50
272.00000000000369
 51
0.0
  0
ARC
  5
9828
  8
0
  6
CONTINUOUS
 10
755.63199365862465
 20
917.05505784538127
 30
0.0
 40
8.0
 50
91.999997999994306
 51
180.000010000001
  0
ARC
  5
9829
  8
0
  6
CONTINUOUS
 10
739.63199365862465
 20
916.65845784538135
 30
0.0
 40
8.0
 50
272.00000000000369
 51
0.0
  0
ARC
  5
982A
  8
0
  6
CONTINUOUS
 10
634.63199365862465
 20
874.72205784538153
 30
0.0
 40
3.0
 50
289.47202000000192
 51
0.0
  0
ARC
  5
982B
  8
0
  6
CONTINUOUS
 10
634.63199365862465
 20
885.32867784538143
 30
0.0
 40
3.0
 50
289.47202000000192
 51
0.0
  0
ARC
  5
982C
  8
0
  6
CONTINUOUS
 10
719.63199365862454
 20
867.64709784538115
 30
0.0
 40
5.0
 50
180.000010000001
 51
271.9999899999948
  0
ARC
  5
982D
  8
0
  6
CONTINUOUS
 10
607.63199365862465
 20
875.78229784538132
 30
0.0
 40
3.0
 50
180.000010000001
 51
289.47202999999718
  0
ARC
  5
982E
  8
0
  6
CONTINUOUS
 10
726.63199365862465
 20
1153.368837845381
 30
0.0
 40
12.0
 50
180.000010000001
 51
267.99999999999619
  0
ARC
  5
982F
  8
0
  6
CONTINUOUS
 10
711.29739365862474
 20
1146.0304678453811
 30
0.0
 40
5.0
 50
25.57351699999569
 51
87.999999999996476
  0
ARC
  5
9830
  8
0
  6
CONTINUOUS
 10
726.63199365862465
 20
896.19226784538125
 30
0.0
 40
12.0
 50
91.999997999994306
 51
180.000010000001
  0
ARC
  5
9831
  8
0
  6
CONTINUOUS
 10
711.29739365862474
 20
903.53064784538128
 30
0.0
 40
5.0
 50
272.00000000000369
 51
334.4264800000031
  0
ARC
  5
9832
  8
0
  6
CONTINUOUS
 10
805.63199365862465
 20
1024.7805278453809
 30
0.0
 40
8.0000113999999982
 50
90.00000299999769
 51
270.0
  0
ARC
  5
9833
  8
0
  6
CONTINUOUS
 10
581.63193365862458
 20
918.3248978453812
 30
0.0
 40
5.0
 50
180.000010000001
 51
267.99999999999619
  0
ARC
  5
9834
  8
0
  6
CONTINUOUS
 10
581.63193365862458
 20
1131.2362178453809
 30
0.0
 40
5.0
 50
91.999997999994306
 51
180.000010000001
  0
ARC
  5
9835
  8
0
  6
CONTINUOUS
 10
614.63199365862465
 20
1024.780587845381
 30
0.0
 40
15.0
 50
148.2119799999972
 51
160.5287699999993
  0
ARC
  5
9836
  8
0
  6
CONTINUOUS
 10
614.63199365862465
 20
1024.780587845381
 30
0.0
 40
12.5
 50
23.578179999997541
 51
156.42182000000241
  0
ARC
  5
9837
  8
0
  6
CONTINUOUS
 10
594.63199365862465
 20
1024.780587845381
 30
0.0
 40
5.0
 50
90.00000299999769
 51
270.0
  0
ARC
  5
9838
  8
0
  6
CONTINUOUS
 10
634.63199365862465
 20
1024.780587845381
 30
0.0
 40
5.0
 50
270.0
 51
90.00000299999769
  0
ARC
  5
9839
  8
0
  6
CONTINUOUS
 10
614.63199365862465
 20
1024.780587845381
 30
0.0
 40
12.5
 50
203.5781799999975
 51
336.42182999999483
  0
ARC
  5
983A
  8
0
  6
CONTINUOUS
 10
614.63199365862465
 20
1024.780587845381
 30
0.0
 40
15.0
 50
199.4712300000007
 51
211.7880200000028
  0
ARC
  5
983B
  8
0
  6
CONTINUOUS
 10
607.63193365862458
 20
897.65662784538119
 30
0.0
 40
5.0
 50
180.000010000001
 51
267.99999999999619
  0
ARC
  5
983C
  8
0
  6
CONTINUOUS
 10
607.63193365862458
 20
1151.904487845381
 30
0.0
 40
5.0
 50
91.999997999994306
 51
180.000010000001
  0
ARC
  5
983D
  8
0
  6
CONTINUOUS
 10
597.63193365862469
 20
1014.244997845381
 30
0.0
 40
5.0
 50
0.0
 51
31.788018000003131
  0
ARC
  5
983E
  8
0
  6
CONTINUOUS
 10
597.63193365862469
 20
1035.316167845381
 30
0.0
 40
5.0
 50
328.21197999999731
 51
0.0
  0
ARC
  5
983F
  8
0
  6
CONTINUOUS
 10
571.63199365862476
 20
1127.9121778453809
 30
0.0
 40
5.0
 50
272.00000000000369
 51
0.0
  0
ARC
  5
9840
  8
0
  6
CONTINUOUS
 10
571.63199365862476
 20
921.64893784538128
 30
0.0
 40
5.0
 50
0.0
 51
87.999999999996476
  0
ARC
  5
9841
  8
0
  6
CONTINUOUS
 10
597.63193365862469
 20
907.76007784538115
 30
0.0
 40
5.0
 50
0.0
 51
87.999999999996476
  0
ARC
  5
9842
  8
0
  6
CONTINUOUS
 10
597.63193365862469
 20
1141.801097845381
 30
0.0
 40
5.0
 50
272.00000000000369
 51
0.0
  0
ARC
  5
9843
  8
0
  6
CONTINUOUS
 10
533.63199365862465
 20
1118.351627845381
 30
0.0
 40
5.0
 50
314.99999999999079
 51
0.0
  0
ARC
  5
9844
  8
0
  6
CONTINUOUS
 10
541.63193365862435
 20
1121.7805278453809
 30
0.0
 40
3.0
 50
90.00000299999769
 51
180.000010000001
  0
ARC
  5
9845
  8
0
  6
CONTINUOUS
 10
540.63199365862465
 20
927.78058784538166
 30
0.0
 40
2.0
 50
179.999989999999
 51
270.0
  0
ARC
  5
9846
  8
0
  6
CONTINUOUS
 10
533.63199365862465
 20
931.20947784538134
 30
0.0
 40
5.0
 50
0.0
 51
45.000000999994569
  0
ARC
  5
9847
  8
0
  6
CONTINUOUS
 10
493.63199365862459
 20
1011.780587845381
 30
0.0
 40
5.0
 50
180.000010000001
 51
270.0
  0
ARC
  5
9848
  8
0
  6
CONTINUOUS
 10
493.63199365862459
 20
1037.780587845381
 30
0.0
 40
5.0
 50
90.00000299999769
 51
180.000010000001
  0
ARC
  5
9849
  8
0
  6
CONTINUOUS
 10
520.55173365862424
 20
944.28979784538137
 30
0.0
 40
5.0
 50
44.999998000001611
 51
87.999999999996476
  0
ARC
  5
984A
  8
0
  6
CONTINUOUS
 10
520.55173365862424
 20
1105.271307845381
 30
0.0
 40
5.0
 50
272.00000000000369
 51
314.99999999999079
  0
ARC
  5
984B
  8
0
  6
CONTINUOUS
 10
515.63199365862465
 20
1001.780587845381
 30
0.0
 40
5.0
 50
0.0
 51
90.00000299999769
  0
ARC
  5
984C
  8
0
  6
CONTINUOUS
 10
515.63199365862465
 20
1047.780587845381
 30
0.0
 40
5.0
 50
270.0
 51
0.0
  0
POLYLINE
  5
984D
  8
0
  6
CONTINUOUS
 66
     1
 10
0.0
 20
0.0
 30
0.0
  0
VERTEX
  5
984E
  8
0
  6
CONTINUOUS
 10
522.69461365862435
 20
949.21802784538136
 30
0.0
 42
-0.10362759
  0
VERTEX
  5
984F
  8
0
  6
CONTINUOUS
 10
483.28625365862462
 20
995.44371784538134
 30
0.0
 42
-0.26090923
  0
VERTEX
  5
9850
  8
0
  6
CONTINUOUS
 10
483.28625365862462
 20
1054.117467845381
 30
0.0
 42
-0.10362793
  0
VERTEX
  5
9851
  8
0
  6
CONTINUOUS
 10
522.69455365862461
 20
1100.343087845381
 30
0.0
  0
SEQEND
  5
9852
  8
0
  0
LINE
  5
9853
  8
0
 10
463.63199365862448
 20
951.28058534538116
 30
0.0
 11
463.63199365862448
 21
1098.2805903453809
 31
0.0
  0
ARC
  5
9854
  8
0
 10
454.63199365862431
 20
962.74177984538119
 30
0.0
 40
1.0
 50
180.0
 51
270.0
  0
ARC
  5
9855
  8
0
 10
454.63199365862431
 20
1086.819395845381
 30
0.0
 40
1.0
 50
90.0
 51
180.0
  0
ARC
  5
9856
  8
0
  6
CONTINUOUS
 10
451.2320006586246
 20
970.47161484538151
 30
0.0
 40
2.2000009999999981
 50
90.000021999998324
 51
179.99999700000231
  0
ARC
  5
9857
  8
0
  6
CONTINUOUS
 10
451.2320006586246
 20
965.87160884538127
 30
0.0
 40
2.1999970000000002
 50
180.00001799999919
 51
270.0
  0
LINE
  5
9858
  8
0
  6
CONTINUOUS
 10
453.63199165862437
 20
968.22105684538155
 30
0.0
 11
452.33199165862442
 21
968.97161184538118
 31
0.0
  0
LINE
  5
9859
  8
0
  6
CONTINUOUS
 10
453.63199165862437
 20
967.22105684538167
 30
0.0
 11
452.33199165862442
 21
967.97161184538118
 31
0.0
  0
LINE
  5
985A
  8
0
  6
CONTINUOUS
 10
452.33199165862442
 20
963.57161184538165
 30
0.0
 11
453.63199165862437
 21
963.57161184538165
 31
0.0
  0
LINE
  5
985B
  8
0
  6
CONTINUOUS
 10
452.33199165862442
 20
972.77161184538124
 30
0.0
 11
453.63199165862437
 21
972.77161184538124
 31
0.0
  0
LINE
  5
985C
  8
0
  6
CONTINUOUS
 10
453.63199165862437
 20
963.57161184538165
 30
0.0
 11
453.63199165862437
 21
972.77161184538124
 31
0.0
  0
LINE
  5
985D
  8
0
  6
CONTINUOUS
 10
449.0319886586243
 20
965.87160884538127
 30
0.0
 11
449.0319886586243
 21
970.47161484538151
 31
0.0
  0
LINE
  5
985E
  8
0
  6
CONTINUOUS
 10
452.33199165862442
 20
963.57161184538165
 30
0.0
 11
452.33199165862442
 21
972.77161184538124
 31
0.0
  0
LINE
  5
985F
  8
0
  6
CONTINUOUS
 10
452.33199165862442
 20
972.67161184538168
 30
0.0
 11
451.2320006586246
 21
972.67161184538168
 31
0.0
  0
LINE
  5
9860
  8
0
  6
CONTINUOUS
 10
452.33199165862442
 20
963.67161184538168
 30
0.0
 11
451.2320006586246
 21
963.67161184538168
 31
0.0
  0
ARC
  5
9861
  8
0
  6
CONTINUOUS
 10
451.23200265862448
 20
1079.089561845381
 30
0.0
 40
2.2000009999999981
 50
180.00000299999761
 51
269.99997799999522
  0
ARC
  5
9862
  8
0
  6
CONTINUOUS
 10
451.23200265862448
 20
1083.6895678453809
 30
0.0
 40
2.1999970000000002
 50
90.0
 51
179.99998200000081
  0
LINE
  5
9863
  8
0
  6
CONTINUOUS
 10
453.63199365862431
 20
1081.340119845381
 30
0.0
 11
452.3319936586243
 21
1080.5895648453809
 31
0.0
  0
LINE
  5
9864
  8
0
  6
CONTINUOUS
 10
453.63199365862431
 20
1082.340119845381
 30
0.0
 11
452.3319936586243
 21
1081.5895648453809
 31
0.0
  0
LINE
  5
9865
  8
0
  6
CONTINUOUS
 10
452.3319936586243
 20
1085.989564845381
 30
0.0
 11
453.63199365862431
 21
1085.989564845381
 31
0.0
  0
LINE
  5
9866
  8
0
  6
CONTINUOUS
 10
452.3319936586243
 20
1076.7895648453809
 30
0.0
 11
453.63199365862431
 21
1076.7895648453809
 31
0.0
  0
LINE
  5
9867
  8
0
  6
CONTINUOUS
 10
453.63199365862431
 20
1085.989564845381
 30
0.0
 11
453.63199365862431
 21
1076.7895648453809
 31
0.0
  0
LINE
  5
9868
  8
0
  6
CONTINUOUS
 10
449.03199065862452
 20
1083.6895678453809
 30
0.0
 11
449.03199065862452
 21
1079.089561845381
 31
0.0
  0
LINE
  5
9869
  8
0
  6
CONTINUOUS
 10
452.3319936586243
 20
1085.989564845381
 30
0.0
 11
452.3319936586243
 21
1076.7895648453809
 31
0.0
  0
LINE
  5
986A
  8
0
  6
CONTINUOUS
 10
452.3319936586243
 20
1076.8895648453811
 30
0.0
 11
451.23200265862448
 21
1076.8895648453811
 31
0.0
  0
LINE
  5
986B
  8
0
  6
CONTINUOUS
 10
452.3319936586243
 20
1085.8895648453811
 30
0.0
 11
451.23200265862448
 21
1085.8895648453811
 31
0.0
  0
LINE
  5
986C
  8
0
 10
463.63199365862448
 20
951.28058784538121
 30
0.0
 11
463.63199365862448
 21
1098.2805928453811
 31
0.0
  0
ARC
  5
986D
  8
0
 10
301.65086865862452
 20
946.30565784538135
 30
0.0
 40
2.0
 50
60.311696999995213
 51
90.0
  0
LINE
  5
986E
  8
0
 10
291.63199365862459
 20
948.30565784538135
 30
0.0
 11
301.65086865862452
 21
948.30565784538135
 31
0.0
  0
ARC
  5
986F
  8
0
 10
299.7066206586245
 20
949.01152984538135
 30
0.0
 40
2.0
 50
11.08497000000493
 51
90.0
  0
LINE
  5
9870
  8
0
 10
291.63199365862459
 20
951.01152984538135
 30
0.0
 11
299.7066206586245
 21
951.01152984538135
 31
0.0
  0
ARC
  5
9871
  8
0
 10
303.63199365862459
 20
949.78058784538143
 30
0.0
 40
2.0
 50
180.0
 51
270.0
  0
ARC
  5
9872
  8
0
 10
303.63199365862459
 20
958.28059184538131
 30
0.0
 40
2.0
 50
180.0
 51
270.0
  0
LINE
  5
9873
  8
0
 10
301.63199365862459
 20
971.98107484538161
 30
0.0
 11
301.63199365862459
 21
949.78058784538143
 31
0.0
  0
LINE
  5
9874
  8
0
 10
291.63199365862459
 20
970.59329084538149
 30
0.0
 11
301.63199365862459
 21
970.59329084538149
 31
0.0
  0
LINE
  5
9875
  8
0
 10
291.63199365862459
 20
959.01659584538129
 30
0.0
 11
301.63199365862459
 21
959.01659584538129
 31
0.0
  0
LINE
  5
9876
  8
0
 10
291.63199365862459
 20
952.95643284538141
 30
0.0
 11
301.63199365862459
 21
952.95643284538141
 31
0.0
  0
ARC
  5
9877
  8
0
 10
451.63199165862449
 20
958.28058384538167
 30
0.0
 40
2.0
 50
269.99999799999722
 51
359.99999799999722
  0
LINE
  5
9878
  8
0
 10
303.63199365862459
 20
973.98107484538127
 30
0.0
 11
451.63199065862449
 21
973.98107484538127
 31
0.0
  0
LINE
  5
9879
  8
0
 10
303.63199365862459
 20
956.28059184538165
 30
0.0
 11
451.63769465862453
 21
956.28059184538165
 31
0.0
  0
LINE
  5
987A
  8
0
 10
453.63199365862431
 20
951.28058784538121
 30
0.0
 11
463.63199065862432
 21
951.28058784538121
 31
0.0
  0
LINE
  5
987B
  8
0
 10
454.63199365862431
 20
961.74177984538119
 30
0.0
 11
463.6319916586246
 21
961.74177984538119
 31
0.0
  0
LINE
  5
987C
  8
0
 10
301.63199365862459
 20
1099.733375845381
 30
0.0
 11
301.63199365862459
 21
1096.694571845381
 31
0.0
  0
ARC
  5
987D
  8
0
 10
303.63199365862459
 20
1091.280591845381
 30
0.0
 40
2.0
 50
90.0
 51
180.0
  0
LINE
  5
987E
  8
0
 10
291.63199365862459
 20
1079.0551888453811
 30
0.0
 11
301.63199365862459
 21
1079.0551888453811
 31
0.0
  0
LINE
  5
987F
  8
0
 10
291.63199365862459
 20
1090.6212078453809
 30
0.0
 11
301.63199365862459
 21
1090.6212078453809
 31
0.0
  0
LINE
  5
9880
  8
0
 10
291.63199365862459
 20
1096.694571845381
 30
0.0
 11
301.63199365862459
 21
1096.694571845381
 31
0.0
  0
LINE
  5
9881
  8
0
 10
301.63199365862459
 20
1101.2588338453811
 30
0.0
 11
301.63199365862459
 21
1100.6555578453811
 31
0.0
  0
ARC
  5
9882
  8
0
 10
303.63199365862459
 20
1099.733375845381
 30
0.0
 40
2.0
 50
90.0
 51
180.0
  0
LINE
  5
9883
  8
0
 10
291.63199365862459
 20
1102.673732845381
 30
0.0
 11
300.11266465862462
 21
1102.673732845381
 31
0.0
  0
LINE
  5
9884
  8
0
 10
291.63199365862459
 20
1101.3592208453811
 30
0.0
 11
299.78330465862462
 21
1101.3592208453811
 31
0.0
  0
ARC
  5
9885
  8
0
 10
299.78330465862462
 20
1103.3592208453811
 30
0.0
 40
2.0
 50
270.0
 51
344.1903739999978
  0
ARC
  5
9886
  8
0
 10
303.63199365862459
 20
1102.2694538453809
 30
0.0
 40
2.0
 50
90.0
 51
164.19037399999769
  0
ARC
  5
9887
  8
0
 10
300.11266465862462
 20
1104.673732845381
 30
0.0
 40
2.0
 50
270.0
 51
331.62214300000397
  0
ARC
  5
9888
  8
0
 10
303.63199365862459
 20
1102.7725958453809
 30
0.0
 40
2.0
 50
90.0
 51
151.6221439999978
  0
ARC
  5
9889
  8
0
 10
451.63199365862448
 20
1091.280591845381
 30
0.0
 40
2.0
 50
0.0
 51
90.0
  0
ARC
  5
988A
  8
0
 10
450.50450165862458
 20
1099.733375845381
 30
0.0
 40
2.0
 50
14.999999999994451
 51
90.0
  0
LINE
  5
988B
  8
0
 10
455.63199365862448
 20
1088.324721845381
 30
0.0
 11
452.43635365862428
 21
1100.2510138453811
 31
0.0
  0
ARC
  5
988C
  8
0
 10
451.46901765862452
 20
1101.2588338453811
 30
0.0
 40
2.0
 50
14.999999999994451
 51
90.0
  0
LINE
  5
988D
  8
0
 10
455.63199365862448
 20
1093.4498048453811
 30
0.0
 11
453.40086965862452
 21
1101.776472845381
 31
0.0
  0
ARC
  5
988E
  8
0
 10
452.0167116586245
 20
1102.2694538453809
 30
0.0
 40
2.0
 50
14.999999999994451
 51
90.0
  0
LINE
  5
988F
  8
0
 10
455.63199365862448
 20
1096.5044418453811
 30
0.0
 11
453.9485626586245
 21
1102.7870918453809
 31
0.0
  0
ARC
  5
9890
  8
0
 10
452.29774565862448
 20
1102.7725958453809
 30
0.0
 40
2.0
 50
14.999999999994451
 51
90.0
  0
LINE
  5
9891
  8
0
 10
455.63199365862448
 20
1098.056419845381
 30
0.0
 11
454.22959765862441
 21
1103.2902348453811
 31
0.0
  0
ARC
  5
9892
  8
0
 10
299.63199365862459
 20
1100.6555578453811
 30
0.0
 40
2.0
 50
270.0
 51
0.0
  0
ARC
  5
9893
  8
0
 10
303.63199365862459
 20
1101.2588338453811
 30
0.0
 40
2.0
 50
90.0
 51
180.0
  0
LINE
  5
9894
  8
0
 10
291.63199365862459
 20
1098.6555578453811
 30
0.0
 11
299.63199365862459
 21
1098.6555578453811
 31
0.0
  0
LINE
  5
9895
  8
0
 10
301.63199365862459
 20
1096.694571845381
 30
0.0
 11
301.63199365862459
 21
1077.6519278453809
 31
0.0
  0
LINE
  5
9896
  8
0
 10
454.63199365862431
 20
1087.819395845381
 30
0.0
 11
463.63199365862448
 21
1087.819395845381
 31
0.0
  0
LINE
  5
9897
  8
0
 10
303.63199365862459
 20
1075.6519278453809
 30
0.0
 11
451.63199365862448
 21
1075.6519278453809
 31
0.0
  0
LINE
  5
9898
  8
0
 10
303.63199365862459
 20
1104.7725958453809
 30
0.0
 11
452.29774565862448
 21
1104.7725958453809
 31
0.0
  0
LINE
  5
9899
  8
0
 10
303.63199365862459
 20
1093.280591845381
 30
0.0
 11
451.63199365862448
 21
1093.280591845381
 31
0.0
  0
LINE
  5
989A
  8
0
 10
303.63199365862459
 20
1101.733375845381
 30
0.0
 11
450.50450165862458
 21
1101.733375845381
 31
0.0
  0
LINE
  5
989B
  8
0
 10
303.63199365862459
 20
1103.2588338453811
 30
0.0
 11
451.46901765862452
 21
1103.2588338453811
 31
0.0
  0
LINE
  5
989C
  8
0
 10
303.63199365862459
 20
1104.2694538453809
 30
0.0
 11
452.0167116586245
 21
1104.2694538453809
 31
0.0
  0
LINE
  5
989D
  8
0
 10
440.63199365862431
 20
947.78058784538121
 30
0.0
 11
440.63199365862431
 21
945.78058784538155
 31
0.0
  0
LINE
  5
989E
  8
0
 10
373.63199365862448
 20
947.78058784538121
 30
0.0
 11
373.63199365862448
 21
945.78058784538155
 31
0.0
  0
LINE
  5
989F
  8
0
 10
373.63199365862448
 20
945.78058784538155
 30
0.0
 11
440.63199365862431
 21
945.78058784538155
 31
0.0
  0
LINE
  5
98A0
  8
0
 10
303.63199365862459
 20
947.78058784538121
 30
0.0
 11
450.4125136586245
 21
947.78058784538121
 31
0.0
  0
LINE
  5
98A1
  8
0
 10
417.13199365862431
 20
1050.780587845381
 30
0.0
 11
291.63199365862459
 21
1050.780587845381
 31
0.0
  0
LINE
  5
98A2
  8
0
 10
417.13199365862431
 20
998.78058784538121
 30
0.0
 11
291.63199365862459
 21
998.78058784538121
 31
0.0
  0
LINE
  5
98A3
  8
0
 10
433.13199365862431
 20
1051.780587845381
 30
0.0
 11
433.13199365862431
 21
1057.780587845381
 31
0.0
  0
LINE
  5
98A4
  8
0
 10
418.13199365862448
 20
1051.780587845381
 30
0.0
 11
418.13199365862448
 21
1057.780587845381
 31
0.0
  0
LINE
  5
98A5
  8
0
 10
433.13199365862431
 20
997.78058784538121
 30
0.0
 11
433.13199365862431
 21
991.78058784538143
 31
0.0
  0
LINE
  5
98A6
  8
0
 10
418.13199365862448
 20
997.78058784538121
 30
0.0
 11
418.13199365862448
 21
991.78058784538143
 31
0.0
  0
LINE
  5
98A7
  8
0
 10
389.63199365862448
 20
1045.280587845381
 30
0.0
 11
389.63199365862448
 21
1004.280587845381
 31
0.0
  0
LINE
  5
98A8
  8
0
 10
452.63199365862442
 20
1045.280587845381
 30
0.0
 11
452.63199365862442
 21
1004.280587845381
 31
0.0
  0
LINE
  5
98A9
  8
0
 10
389.63199365862448
 20
1045.280587845381
 30
0.0
 11
452.63199365862442
 21
1045.280587845381
 31
0.0
  0
LINE
  5
98AA
  8
0
 10
389.63199365862448
 20
1004.280587845381
 30
0.0
 11
452.63199365862442
 21
1004.280587845381
 31
0.0
  0
LINE
  5
98AB
  8
0
 10
389.63199365862448
 20
1037.780587845381
 30
0.0
 11
452.63199365862442
 21
1037.780587845381
 31
0.0
  0
LINE
  5
98AC
  8
0
 10
301.63199365862459
 20
1027.780587845381
 30
0.0
 11
301.63199365862459
 21
1021.780587845381
 31
0.0
  0
LINE
  5
98AD
  8
0
 10
452.34409365862427
 20
949.26187784538126
 30
0.0
 11
453.33200365862427
 21
952.94055784538125
 31
0.0
  0
LINE
  5
98AE
  8
0
 10
451.75601365862451
 20
949.26187784538126
 30
0.0
 11
453.33200365862427
 21
955.13059784538132
 31
0.0
  0
LINE
  5
98AF
  8
0
 10
453.63199365862431
 20
987.82236784538145
 30
0.0
 11
453.63199365862431
 21
951.28058784538121
 31
0.0
  0
LINE
  5
98B0
  8
0
 10
452.63199365862442
 20
1000.780587845381
 30
0.0
 11
291.63199365862459
 21
1000.780587845381
 31
0.0
  0
LINE
  5
98B1
  8
0
 10
452.63199365862442
 20
998.78058784538121
 30
0.0
 11
434.13199365862431
 21
998.78058784538121
 31
0.0
  0
LINE
  5
98B2
  8
0
 10
385.63199365862448
 20
1008.780587845381
 30
0.0
 11
291.63199365862459
 21
1008.780587845381
 31
0.0
  0
LINE
  5
98B3
  8
0
 10
385.63199365862448
 20
1010.780587845381
 30
0.0
 11
291.63199365862459
 21
1010.780587845381
 31
0.0
  0
LINE
  5
98B4
  8
0
 10
385.63199365862448
 20
1018.780587845381
 30
0.0
 11
291.63199365862459
 21
1018.780587845381
 31
0.0
  0
LINE
  5
98B5
  8
0
 10
385.63199365862448
 20
1020.780587845381
 30
0.0
 11
302.63199365862448
 21
1020.780587845381
 31
0.0
  0
LINE
  5
98B6
  8
0
 10
452.63199365862442
 20
978.78058784538155
 30
0.0
 11
291.63199365862459
 21
978.78058784538155
 31
0.0
  0
LINE
  5
98B7
  8
0
 10
452.63199365862442
 20
990.78058784538121
 30
0.0
 11
291.63199365862459
 21
990.78058784538121
 31
0.0
  0
LINE
  5
98B8
  8
0
 10
452.63199365862442
 20
988.78058784538121
 30
0.0
 11
291.63199365862459
 21
988.78058784538121
 31
0.0
  0
LINE
  5
98B9
  8
0
 10
452.63199365862442
 20
980.78058784538121
 30
0.0
 11
291.63199365862459
 21
980.78058784538121
 31
0.0
  0
LINE
  5
98BA
  8
0
 10
452.63199365862442
 20
1068.780587845381
 30
0.0
 11
291.63199365862459
 21
1068.780587845381
 31
0.0
  0
LINE
  5
98BB
  8
0
 10
452.63199365862442
 20
1060.780587845381
 30
0.0
 11
291.63199365862459
 21
1060.780587845381
 31
0.0
  0
LINE
  5
98BC
  8
0
 10
452.63199365862442
 20
1058.780587845381
 30
0.0
 11
291.63199365862459
 21
1058.780587845381
 31
0.0
  0
LINE
  5
98BD
  8
0
 10
452.63199365862442
 20
1070.780587845381
 30
0.0
 11
291.63199365862459
 21
1070.780587845381
 31
0.0
  0
LINE
  5
98BE
  8
0
 10
385.63199365862448
 20
1028.780587845381
 30
0.0
 11
302.63199365862448
 21
1028.780587845381
 31
0.0
  0
LINE
  5
98BF
  8
0
 10
385.63199365862448
 20
1030.780587845381
 30
0.0
 11
291.63199365862459
 21
1030.780587845381
 31
0.0
  0
LINE
  5
98C0
  8
0
 10
385.63199365862448
 20
1038.780587845381
 30
0.0
 11
291.63199365862459
 21
1038.780587845381
 31
0.0
  0
LINE
  5
98C1
  8
0
 10
385.63199365862448
 20
1040.780587845381
 30
0.0
 11
291.63199365862459
 21
1040.780587845381
 31
0.0
  0
LINE
  5
98C2
  8
0
 10
452.63199365862442
 20
1050.780587845381
 30
0.0
 11
434.13199365862431
 21
1050.780587845381
 31
0.0
  0
LINE
  5
98C3
  8
0
 10
452.63199365862442
 20
1048.780587845381
 30
0.0
 11
291.63199365862459
 21
1048.780587845381
 31
0.0
  0
LINE
  5
98C4
  8
0
 10
453.63199365862431
 20
1061.738807845381
 30
0.0
 11
453.63199365862431
 21
1091.280591845381
 31
0.0
  0
ARC
  5
98C5
  8
0
 10
450.4125136586245
 20
949.78058784538143
 30
0.0
 40
2.0
 50
269.999989999999
 51
344.96830999999543
  0
ARC
  5
98C6
  8
0
 10
449.82443365862451
 20
949.78058784538143
 30
0.0
 40
2.0
 50
269.999989999999
 51
344.96830999999543
  0
ARC
  5
98C7
  8
0
 10
434.13199365862431
 20
991.78058784538143
 30
0.0
 40
1.0
 50
179.999989999999
 51
270.0
  0
ARC
  5
98C8
  8
0
 10
417.13199365862431
 20
991.78058784538143
 30
0.0
 40
1.0
 50
269.999989999999
 51
0.0000009999948896
  0
ARC
  5
98C9
  8
0
 10
417.13199365862431
 20
1057.780587845381
 30
0.0
 40
1.0
 50
0.0
 51
90.00000299999769
  0
ARC
  5
98CA
  8
0
 10
434.13199365862431
 20
1057.780587845381
 30
0.0
 40
1.0
 50
90.00000299999769
 51
180.000010000001
  0
ARC
  5
98CB
  8
0
 10
434.13199365862431
 20
997.78058784538121
 30
0.0
 40
1.0
 50
90.00000299999769
 51
180.000010000001
  0
ARC
  5
98CC
  8
0
 10
417.13199365862431
 20
997.78058784538121
 30
0.0
 40
1.0
 50
0.0
 51
90.00000299999769
  0
ARC
  5
98CD
  8
0
 10
434.13199365862431
 20
1051.780587845381
 30
0.0
 40
1.0
 50
179.999989999999
 51
270.0
  0
ARC
  5
98CE
  8
0
 10
417.13199365862431
 20
1051.780587845381
 30
0.0
 40
1.0
 50
269.999989999999
 51
0.0000009999948896
  0
CIRCLE
  5
98CF
  8
0
 10
428.13199365862431
 20
1053.280587845381
 30
0.0
 40
1.0
  0
CIRCLE
  5
98D0
  8
0
 10
423.13199365862448
 20
1053.280587845381
 30
0.0
 40
1.149999999999999
  0
CIRCLE
  5
98D1
  8
0
 10
423.13199365862448
 20
1053.280587845381
 30
0.0
 40
1.1000000000000001
  0
CIRCLE
  5
98D2
  8
0
 10
423.13199365862448
 20
996.28058784538143
 30
0.0
 40
1.1000000000000001
  0
CIRCLE
  5
98D3
  8
0
 10
423.13199365862448
 20
996.28058784538143
 30
0.0
 40
1.149999999999999
  0
CIRCLE
  5
98D4
  8
0
 10
428.13199365862431
 20
996.28058784538143
 30
0.0
 40
1.0
  0
ARC
  5
98D5
  8
0
 10
385.63199365862448
 20
1039.780587845381
 30
0.0
 40
1.0
 50
269.999989999999
 51
90.00000299999769
  0
ARC
  5
98D6
  8
0
 10
385.63199365862448
 20
1029.780587845381
 30
0.0
 40
1.0
 50
269.999989999999
 51
90.00000299999769
  0
ARC
  5
98D7
  8
0
 10
385.63199365862448
 20
1019.780587845381
 30
0.0
 40
1.0
 50
269.999989999999
 51
90.00000299999769
  0
ARC
  5
98D8
  8
0
 10
385.63199365862448
 20
1009.780587845381
 30
0.0
 40
1.0
 50
269.999989999999
 51
90.00000299999769
  0
ARC
  5
98D9
  8
0
 10
450.68198365862457
 20
989.78058784538121
 30
0.0
 40
1.0
 50
269.999989999999
 51
90.00000299999769
  0
ARC
  5
98DA
  8
0
 10
452.63199365862442
 20
989.78058784538121
 30
0.0
 40
1.0
 50
269.999989999999
 51
90.00000299999769
  0
ARC
  5
98DB
  8
0
 10
450.68198365862457
 20
999.78058784538143
 30
0.0
 40
1.0
 50
269.999989999999
 51
90.00000299999769
  0
ARC
  5
98DC
  8
0
 10
452.63199365862442
 20
999.78058784538143
 30
0.0
 40
1.0
 50
269.999989999999
 51
90.00000299999769
  0
ARC
  5
98DD
  8
0
 10
450.68198365862457
 20
1049.780587845381
 30
0.0
 40
1.0
 50
269.999989999999
 51
90.00000299999769
  0
ARC
  5
98DE
  8
0
 10
452.63199365862442
 20
1049.780587845381
 30
0.0
 40
1.0
 50
269.999989999999
 51
90.00000299999769
  0
ARC
  5
98DF
  8
0
 10
450.68198365862457
 20
1059.780587845381
 30
0.0
 40
1.0
 50
269.999989999999
 51
90.00000299999769
  0
ARC
  5
98E0
  8
0
 10
452.63199365862442
 20
1059.780587845381
 30
0.0
 40
1.0
 50
269.999989999999
 51
90.00000299999769
  0
ARC
  5
98E1
  8
0
 10
302.63199365862448
 20
1027.780587845381
 30
0.0
 40
1.0
 50
90.00000299999769
 51
180.000010000001
  0
ARC
  5
98E2
  8
0
 10
302.63199365862448
 20
1021.780587845381
 30
0.0
 40
1.0
 50
179.999989999999
 51
270.0
  0
ARC
  5
98E3
  8
0
 10
302.6319636586245
 20
1009.780587845381
 30
0.0
 40
1.0
 50
90.00000299999769
 51
270.0
  0
ARC
  5
98E4
  8
0
 10
302.6319636586245
 20
999.78058784538143
 30
0.0
 40
1.0
 50
90.00000299999769
 51
270.0
  0
ARC
  5
98E5
  8
0
 10
450.68198365862457
 20
979.78058784538132
 30
0.0
 40
1.0
 50
269.999989999999
 51
90.00000299999769
  0
ARC
  5
98E6
  8
0
 10
452.63199365862442
 20
979.78058784538132
 30
0.0
 40
1.0
 50
269.999989999999
 51
90.00000299999769
  0
ARC
  5
98E7
  8
0
 10
302.6319636586245
 20
979.78058784538132
 30
0.0
 40
1.0
 50
90.00000299999769
 51
270.0
  0
ARC
  5
98E8
  8
0
 10
302.6319636586245
 20
989.78058784538121
 30
0.0
 40
1.0
 50
90.00000299999769
 51
270.0
  0
ARC
  5
98E9
  8
0
 10
454.77805365862451
 20
952.56018784538117
 30
0.0
 40
1.4952499999999991
 50
140.0376499999945
 51
165.2626000000021
  0
ARC
  5
98EA
  8
0
 10
454.77298365862453
 20
954.73608784538135
 30
0.0
 40
1.4940209999999989
 50
139.79258000000129
 51
164.69034000000019
  0
ARC
  5
98EB
  8
0
 10
454.77615365862448
 20
1098.5476478453811
 30
0.0
 40
1.495147999999999
 50
195.00189000000259
 51
195.00621299999861
  0
ARC
  5
98EC
  8
0
 10
302.6319636586245
 20
1059.780587845381
 30
0.0
 40
1.0
 50
90.00000299999769
 51
270.0
  0
ARC
  5
98ED
  8
0
 10
302.6319636586245
 20
1069.780587845381
 30
0.0
 40
1.0
 50
90.00000299999769
 51
270.0
  0
ARC
  5
98EE
  8
0
 10
452.63199365862442
 20
1069.780587845381
 30
0.0
 40
1.0
 50
269.999989999999
 51
90.00000299999769
  0
ARC
  5
98EF
  8
0
 10
450.68198365862457
 20
1069.780587845381
 30
0.0
 40
1.0
 50
269.999989999999
 51
90.00000299999769
  0
ARC
  5
98F0
  8
0
 10
302.6319636586245
 20
1049.780587845381
 30
0.0
 40
1.0
 50
90.00000299999769
 51
270.0
  0
ARC
  5
98F1
  8
0
 10
302.6319636586245
 20
1039.780587845381
 30
0.0
 40
1.0
 50
90.00000299999769
 51
270.0
  0
LINE
  5
98F2
  8
0
 10
463.63199965862441
 20
1098.2805928453811
 30
0.0
 11
455.57192665862431
 21
1098.2805928453811
 31
0.0
  0
POINT
  5
98F3
  8
0
 10
407.13199365862442
 20
942.78058784538132
 30
0.0
  0
LINE
  5
98F4
  8
0
 10
449.88199365862448
 20
943.28058784538121
 30
0.0
 11
365.88199365862448
 21
943.28058784538121
 31
0.0
  0
LINE
  5
98F5
  8
0
 10
367.48199365862467
 20
913.28058784538132
 30
0.0
 11
443.78199365862451
 21
926.28058784538121
 31
0.0
  0
LINE
  5
98F6
  8
0
 10
367.40199365862452
 20
914.28058784538132
 30
0.0
 11
399.38199365862471
 21
919.73058784538136
 31
0.0
  0
LINE
  5
98F7
  8
0
 10
443.28199365862451
 20
909.28058784538132
 30
0.0
 11
367.81199365862449
 21
909.28058784538132
 31
0.0
  0
LINE
  5
98F8
  8
0
 10
444.1119936586245
 20
922.28058784538132
 30
0.0
 11
367.81199365862449
 21
909.28058784538132
 31
0.0
  0
ARC
  5
98F9
  8
0
 10
363.18936065862448
 20
917.97322084538132
 30
0.0
 40
0.307456
 50
91.373079999999518
 51
178.62692000000061
  0
ARC
  5
98FA
  8
0
 10
364.38203865862448
 20
910.78063284538166
 30
0.0
 40
1.5000450000000001
 50
180.00171899999609
 51
269.99828099999741
  0
ARC
  5
98FB
  8
0
 10
364.08191165862468
 20
917.98050584538134
 30
0.0
 40
0.300082
 50
0.015732999993749
 51
89.984266999999718
  0
ARC
  5
98FC
  8
0
 10
363.68936065862448
 20
912.97322084538132
 30
0.0
 40
0.307456
 50
91.373079999999518
 51
178.62692000000061
  0
ARC
  5
98FD
  8
0
 10
364.88203865862448
 20
910.78063284538166
 30
0.0
 40
1.5000450000000001
 50
180.00171899999609
 51
269.99828099999741
  0
ARC
  5
98FE
  8
0
 10
363.68936065862448
 20
913.97322084538121
 30
0.0
 40
0.307456
 50
91.373079999999518
 51
178.62692000000061
  0
ARC
  5
98FF
  8
0
 10
365.88940365862447
 20
942.2731778453815
 30
0.0
 40
1.0074369999999999
 50
90.421437999998076
 51
179.5785619999954
  0
LINE
  5
9900
  8
0
 10
364.38199365862459
 20
909.28058784538132
 30
0.0
 11
364.68199365862449
 21
909.28058784538132
 31
0.0
  0
LINE
  5
9901
  8
0
 10
362.88199365862448
 20
917.98058784538136
 30
0.0
 11
362.88199365862448
 21
910.78058784538166
 31
0.0
  0
LINE
  5
9902
  8
0
 10
363.68199365862449
 20
918.28058784538121
 30
0.0
 11
363.18199365862449
 21
918.28058784538121
 31
0.0
  0
LINE
  5
9903
  8
0
 10
364.08199365862458
 20
918.28058784538121
 30
0.0
 11
363.68199365862449
 21
918.28058784538121
 31
0.0
  0
LINE
  5
9904
  8
0
 10
363.38199365862448
 20
912.98058784538148
 30
0.0
 11
363.38199365862448
 21
910.78058784538166
 31
0.0
  0
LINE
  5
9905
  8
0
 10
364.88199365862448
 20
909.28058784538132
 30
0.0
 11
367.81199365862449
 21
909.28058784538132
 31
0.0
  0
LINE
  5
9906
  8
0
 10
364.58199365862458
 20
919.08058784538127
 30
0.0
 11
364.78199365862451
 21
919.28058784538121
 31
0.0
  0
LINE
  5
9907
  8
0
 10
363.38199365862448
 20
913.98058784538148
 30
0.0
 11
363.38199365862448
 21
913.28058784538132
 31
0.0
  0
LINE
  5
9908
  8
0
 10
367.40199365862452
 20
914.28058784538132
 30
0.0
 11
363.68199365862449
 21
914.28058784538132
 31
0.0
  0
LINE
  5
9909
  8
0
 10
364.88199365862448
 20
942.28058784538132
 30
0.0
 11
364.88199365862448
 21
919.28058784538121
 31
0.0
  0
LINE
  5
990A
  8
0
 10
364.58199365862458
 20
914.28058784538132
 30
0.0
 11
364.58199365862458
 21
915.27058784538133
 31
0.0
  0
LINE
  5
990B
  8
0
 10
364.88199365862448
 20
919.28058784538121
 30
0.0
 11
364.88199365862448
 21
914.28058784538132
 31
0.0
  0
LINE
  5
990C
  8
0
 10
364.58199365862458
 20
915.27058784538133
 30
0.0
 11
364.38199365862459
 21
915.27058784538133
 31
0.0
  0
LINE
  5
990D
  8
0
 10
364.58199365862458
 20
915.27058784538133
 30
0.0
 11
364.58199365862458
 21
916.47058784538137
 31
0.0
  0
LINE
  5
990E
  8
0
 10
364.38199365862459
 20
916.47058784538137
 30
0.0
 11
364.58199365862458
 21
916.47058784538137
 31
0.0
  0
LINE
  5
990F
  8
0
 10
364.58199365862458
 20
916.47058784538137
 30
0.0
 11
364.58199365862458
 21
919.08058784538127
 31
0.0
  0
LINE
  5
9910
  8
0
 10
364.78199365862451
 20
919.28058784538121
 30
0.0
 11
364.88199365862448
 21
919.28058784538121
 31
0.0
  0
LINE
  5
9911
  8
0
 10
363.38199365862448
 20
913.28058784538132
 30
0.0
 11
367.48199365862467
 21
913.28058784538132
 31
0.0
  0
LINE
  5
9912
  8
0
 10
364.38199365862459
 20
914.28058784538132
 30
0.0
 11
364.38199365862459
 21
917.98058784538136
 31
0.0
  0
LINE
  5
9913
  8
0
 10
450.88199365862442
 20
922.78058784538121
 30
0.0
 11
450.88199365862442
 21
942.28058784538132
 31
0.0
  0
LINE
  5
9914
  8
0
 10
370.68199365862449
 20
943.28058784538121
 30
0.0
 11
370.68199365862449
 21
926.28058784538121
 31
0.0
  0
LINE
  5
9915
  8
0
 10
437.16199365862428
 20
926.16058784538143
 30
0.0
 11
437.16199365862428
 21
943.28058784538121
 31
0.0
  0
LINE
  5
9916
  8
0
 10
389.28199365862451
 20
943.28058784538121
 30
0.0
 11
389.28199365862451
 21
926.28058784538121
 31
0.0
  0
ARC
  5
9917
  8
0
 10
443.28941265862431
 20
911.77316984538129
 30
0.0
 40
2.4925929999999981
 50
269.82947499999727
 51
0.1705249999962211
  0
ARC
  5
9918
  8
0
 10
446.28941265862443
 20
921.77316984538118
 30
0.0
 40
0.507473
 50
90.837610999997921
 51
179.16238899999561
  0
CIRCLE
  5
9919
  8
0
 10
428.98939865862428
 20
926.27320484538131
 30
0.0
 40
0.75
  0
CIRCLE
  5
991A
  8
0
 10
379.98940565862472
 20
926.27320484538131
 30
0.0
 40
6.299999999999998
  0
ARC
  5
991B
  8
0
 10
379.98199365862467
 20
926.28058784538121
 30
0.0
 40
9.3000030000000002
 50
180.0
 51
0.0
  0
LINE
  5
991C
  8
0
 10
435.51199365862448
 20
909.28058784538132
 30
0.0
 11
435.51199365862448
 21
920.81058784538118
 31
0.0
  0
LINE
  5
991D
  8
0
 10
436.38199365862448
 20
920.96058784538116
 30
0.0
 11
436.38199365862448
 21
925.02058784538133
 31
0.0
  0
LINE
  5
991E
  8
0
 10
450.38199365862448
 20
922.28058784538132
 30
0.0
 11
444.1119936586245
 21
922.28058784538132
 31
0.0
  0
LINE
  5
991F
  8
0
 10
445.78199365862451
 20
921.78058784538132
 30
0.0
 11
445.78199365862451
 21
911.78058784538155
 31
0.0
  0
LINE
  5
9920
  8
0
 10
401.38199365862431
 20
920.07058784538128
 30
0.0
 11
403.58199365862453
 21
920.44058784538151
 31
0.0
  0
LINE
  5
9921
  8
0
 10
405.0819936586243
 20
920.70058784538162
 30
0.0
 11
407.28199365862429
 21
921.07058784538128
 31
0.0
  0
LINE
  5
9922
  8
0
 10
408.78199365862451
 20
921.33058784538116
 30
0.0
 11
410.98199365862428
 21
921.70058784538128
 31
0.0
  0
LINE
  5
9923
  8
0
 10
412.9819936586245
 20
922.04058784538142
 30
0.0
 11
414.68199365862432
 21
922.33058784538116
 31
0.0
  0
LINE
  5
9924
  8
0
 10
416.18199365862449
 20
922.59058784538126
 30
0.0
 11
418.3919936586243
 21
922.9605878453815
 31
0.0
  0
LINE
  5
9925
  8
0
 10
419.89199365862447
 20
923.2205878453816
 30
0.0
 11
422.09199365862457
 21
923.60058784538126
 31
0.0
  0
LINE
  5
9926
  8
0
 10
423.59199365862429
 20
923.85058784538137
 30
0.0
 11
425.79199365862451
 21
924.23058784538136
 31
0.0
  0
LINE
  5
9927
  8
0
 10
427.29199365862428
 20
924.48058784538148
 30
0.0
 11
443.70199365862459
 21
927.28058784538121
 31
0.0
  0
LINE
  5
9928
  8
0
 10
450.88199365862442
 20
927.28058784538121
 30
0.0
 11
443.70199365862459
 21
927.28058784538121
 31
0.0
  0
LINE
  5
9929
  8
0
 10
427.29199365862428
 20
924.48058784538148
 30
0.0
 11
427.29199365862428
 21
938.28058784538132
 31
0.0
  0
LINE
  5
992A
  8
0
 10
427.29199365862428
 20
938.28058784538132
 30
0.0
 11
425.79199365862451
 21
938.28058784538132
 31
0.0
  0
LINE
  5
992B
  8
0
 10
425.79199365862451
 20
938.28058784538132
 30
0.0
 11
425.79199365862451
 21
924.23058784538136
 31
0.0
  0
LINE
  5
992C
  8
0
 10
423.59199365862429
 20
923.85058784538137
 30
0.0
 11
423.59199365862429
 21
938.28058784538132
 31
0.0
  0
LINE
  5
992D
  8
0
 10
423.59199365862429
 20
938.28058784538132
 30
0.0
 11
422.09199365862457
 21
938.28058784538132
 31
0.0
  0
LINE
  5
992E
  8
0
 10
422.09199365862457
 20
938.28058784538132
 30
0.0
 11
422.09199365862457
 21
923.60058784538126
 31
0.0
  0
LINE
  5
992F
  8
0
 10
419.89199365862447
 20
923.2205878453816
 30
0.0
 11
419.89199365862447
 21
938.28058784538132
 31
0.0
  0
LINE
  5
9930
  8
0
 10
419.89199365862447
 20
938.28058784538132
 30
0.0
 11
418.3919936586243
 21
938.28058784538132
 31
0.0
  0
LINE
  5
9931
  8
0
 10
418.3919936586243
 20
938.28058784538132
 30
0.0
 11
418.3919936586243
 21
922.9605878453815
 31
0.0
  0
LINE
  5
9932
  8
0
 10
416.18199365862449
 20
922.59058784538126
 30
0.0
 11
416.18199365862449
 21
938.28058784538132
 31
0.0
  0
LINE
  5
9933
  8
0
 10
416.18199365862449
 20
938.28058784538132
 30
0.0
 11
414.68199365862432
 21
938.28058784538132
 31
0.0
  0
LINE
  5
9934
  8
0
 10
414.68199365862432
 20
938.28058784538132
 30
0.0
 11
414.68199365862432
 21
922.33058784538116
 31
0.0
  0
LINE
  5
9935
  8
0
 10
412.9819936586245
 20
922.04058784538142
 30
0.0
 11
412.9819936586245
 21
935.57058784538128
 31
0.0
  0
LINE
  5
9936
  8
0
 10
412.28199365862429
 20
938.28058784538132
 30
0.0
 11
410.98199365862428
 21
938.28058784538132
 31
0.0
  0
LINE
  5
9937
  8
0
 10
410.98199365862428
 20
938.28058784538132
 30
0.0
 11
410.98199365862428
 21
921.70058784538128
 31
0.0
  0
LINE
  5
9938
  8
0
 10
408.78199365862451
 20
921.33058784538116
 30
0.0
 11
408.78199365862451
 21
938.28058784538132
 31
0.0
  0
LINE
  5
9939
  8
0
 10
408.78199365862451
 20
938.28058784538132
 30
0.0
 11
407.28199365862429
 21
938.28058784538132
 31
0.0
  0
LINE
  5
993A
  8
0
 10
407.28199365862429
 20
938.28058784538132
 30
0.0
 11
407.28199365862429
 21
921.07058784538128
 31
0.0
  0
LINE
  5
993B
  8
0
 10
405.0819936586243
 20
920.70058784538162
 30
0.0
 11
405.0819936586243
 21
938.28058784538132
 31
0.0
  0
LINE
  5
993C
  8
0
 10
405.0819936586243
 20
938.28058784538132
 30
0.0
 11
403.58199365862453
 21
938.28058784538132
 31
0.0
  0
LINE
  5
993D
  8
0
 10
403.58199365862453
 20
938.28058784538132
 30
0.0
 11
403.58199365862453
 21
920.44058784538151
 31
0.0
  0
LINE
  5
993E
  8
0
 10
401.38199365862431
 20
920.07058784538128
 30
0.0
 11
401.38199365862431
 21
938.28058784538132
 31
0.0
  0
LINE
  5
993F
  8
0
 10
401.38199365862431
 20
938.28058784538132
 30
0.0
 11
400.08199365862441
 21
938.28058784538132
 31
0.0
  0
LINE
  5
9940
  8
0
 10
400.08199365862441
 20
938.28058784538132
 30
0.0
 11
400.08199365862441
 21
936.23058784538148
 31
0.0
  0
LINE
  5
9941
  8
0
 10
427.29199365862428
 20
934.28058784538132
 30
0.0
 11
425.79199365862451
 21
934.28058784538132
 31
0.0
  0
LINE
  5
9942
  8
0
 10
423.59199365862429
 20
934.28058784538132
 30
0.0
 11
422.09199365862457
 21
934.28058784538132
 31
0.0
  0
LINE
  5
9943
  8
0
 10
419.89199365862447
 20
934.28058784538132
 30
0.0
 11
418.3919936586243
 21
934.28058784538132
 31
0.0
  0
LINE
  5
9944
  8
0
 10
416.18199365862449
 20
934.28058784538132
 30
0.0
 11
414.68199365862432
 21
934.28058784538132
 31
0.0
  0
LINE
  5
9945
  8
0
 10
412.9819936586245
 20
934.28058784538132
 30
0.0
 11
410.98199365862428
 21
934.28058784538132
 31
0.0
  0
LINE
  5
9946
  8
0
 10
408.78199365862451
 20
934.28058784538132
 30
0.0
 11
407.28199365862429
 21
934.28058784538132
 31
0.0
  0
LINE
  5
9947
  8
0
 10
405.0819936586243
 20
934.28058784538132
 30
0.0
 11
403.58199365862453
 21
934.28058784538132
 31
0.0
  0
LINE
  5
9948
  8
0
 10
401.38199365862431
 20
934.28058784538132
 30
0.0
 11
399.38199365862471
 21
934.28058784538132
 31
0.0
  0
LINE
  5
9949
  8
0
 10
399.38199365862471
 20
935.57058784538128
 30
0.0
 11
399.38199365862471
 21
919.73058784538136
 31
0.0
  0
LINE
  5
994A
  8
0
 10
400.08199365862441
 20
936.23058784538148
 30
0.0
 11
399.38199365862471
 21
935.57058784538128
 31
0.0
  0
LINE
  5
994B
  8
0
 10
412.9819936586245
 20
935.57058784538128
 30
0.0
 11
412.28199365862429
 21
936.23058784538148
 31
0.0
  0
LINE
  5
994C
  8
0
 10
412.28199365862429
 20
936.23058784538148
 30
0.0
 11
412.28199365862429
 21
938.28058784538132
 31
0.0
  0
LINE
  5
994D
  8
0
 10
443.78199365862451
 20
926.28058784538121
 30
0.0
 11
450.88199365862442
 21
926.28058784538121
 31
0.0
  0
ARC
  5
994E
  8
0
 10
450.38199365862448
 20
922.78058784538121
 30
0.0
 40
0.5
 50
270.0
 51
0.0
  0
ARC
  5
994F
  8
0
 10
449.88199365862448
 20
942.28058784538132
 30
0.0
 40
1.0
 50
0.0
 51
90.0
  0
LINE
  5
9950
  8
0
 10
373.63199365862448
 20
943.28058784538121
 30
0.0
 11
373.63199365862448
 21
945.78058784538155
 31
0.0
  0
LINE
  5
9951
  8
0
 10
440.63199365862431
 20
943.28058784538121
 30
0.0
 11
440.63199365862431
 21
945.78058784538155
 31
0.0
  0
LINE
  5
9952
  8
0
 10
208.33199365862461
 20
944.80114884538148
 30
0.0
 11
208.33199365862461
 21
1104.760587845381
 31
0.0
  0
ARC
  5
9953
  8
0
 10
182.5161316586244
 20
1097.4154888453811
 30
0.0
 40
5.7526239999999991
 50
92.930875000003297
 51
169.9376259999998
  0
LINE
  5
9954
  8
0
 10
216.63199365862451
 20
1106.780587845381
 30
0.0
 11
291.63199365862459
 21
1106.780587845381
 31
0.0
  0
LINE
  5
9955
  8
0
 10
216.63199365862451
 20
942.78058784538132
 30
0.0
 11
216.63199365862451
 21
1106.780587845381
 31
0.0
  0
LINE
  5
9956
  8
0
 10
179.40199365862449
 20
951.28058784538121
 30
0.0
 11
179.40199365862449
 21
1098.800587845381
 31
0.0
  0
LINE
  5
9957
  8
0
 10
209.58199365862461
 20
1105.530587845381
 30
0.0
 11
216.63199365862451
 21
1105.530587845381
 31
0.0
  0
LINE
  5
9958
  8
0
 10
207.62199365862449
 20
1104.490587845381
 30
0.0
 11
182.22199365862451
 21
1103.1605878453811
 31
0.0
  0
ARC
  5
9959
  8
0
 10
209.5873306586245
 20
1104.279356845381
 30
0.0
 40
1.2512430000000001
 50
90.244380000000078
 51
144.2391030000033
  0
ARC
  5
995A
  8
0
 10
207.55578765862461
 20
1105.739329845381
 30
0.0
 40
1.2504959999999981
 50
273.03488699999701
 51
324.3549220000051
  0
LINE
  5
995B
  8
0
 10
175.33199365862461
 20
961.40994784538157
 30
0.0
 11
175.33199365862461
 21
1088.4305878453811
 31
0.0
  0
LINE
  5
995C
  8
0
 10
207.62199365862449
 20
945.07058784538128
 30
0.0
 11
182.22199365862451
 21
946.40058784538155
 31
0.0
  0
ARC
  5
995D
  8
0
 10
173.58184365862451
 20
961.97613184538125
 30
0.0
 40
2.249854
 50
179.88650999999581
 51
261.61639199999848
  0
ARC
  5
995E
  8
0
 10
172.81627365862451
 20
956.78141884538115
 30
0.0
 40
3.0009689999999982
 50
9.962318000005137
 51
81.616391999998456
  0
LINE
  5
995F
  8
0
 10
175.77199465862449
 20
957.3005878453813
 30
0.0
 11
176.85199365862451
 21
951.14058784538122
 31
0.0
  0
ARC
  5
9960
  8
0
 10
182.50994365862459
 20
952.1386768453815
 30
0.0
 40
5.745309999999999
 50
190.00432199999889
 51
267.127177999997
  0
LINE
  5
9961
  8
0
 10
216.63199365862451
 20
942.78058784538132
 30
0.0
 11
291.63199365862459
 21
942.78058784538132
 31
0.0
  0
LINE
  5
9962
  8
0
 10
209.58199365862461
 20
944.03058784538132
 30
0.0
 11
216.63199365862451
 21
944.03058784538132
 31
0.0
  0
ARC
  5
9963
  8
0
 10
209.58235765862449
 20
945.27216084538134
 30
0.0
 40
1.241573
 50
215.53333299999471
 51
269.98318399999948
  0
ARC
  5
9964
  8
0
 10
207.55071665862451
 20
943.81258184538137
 30
0.0
 40
1.260022999999999
 50
35.85301799999008
 51
86.757172999999639
  0
ARC
  5
9965
  8
0
 10
172.81627365862451
 20
1092.7797568453809
 30
0.0
 40
3.0009689999999982
 50
278.34845899999692
 51
350.03768199999479
  0
LINE
  5
9966
  8
0
 10
175.7719936586245
 20
1092.260587845381
 30
0.0
 11
176.85199365862451
 21
1098.4205878453811
 31
0.0
  0
ARC
  5
9967
  8
0
 10
173.58184365862451
 20
1087.5850438453811
 30
0.0
 40
2.249854
 50
98.430492999999373
 51
180.11349000000419
  0
LINE
  5
9968
  8
0
 10
291.63199365862459
 20
1106.780587845381
 30
0.0
 11
291.63199365862459
 21
942.78058784538132
 31
0.0
  0
LINE
  5
9969
  8
0
 10
255.62990465862461
 20
1116.780587845381
 30
0.0
 11
255.62990465862461
 21
1106.780587845381
 31
0.0
  0
LINE
  5
996A
  8
0
 10
267.63408265862449
 20
1116.780587845381
 30
0.0
 11
267.63408265862449
 21
1106.780587845381
 31
0.0
  0
LINE
  5
996B
  8
0
 10
193.82721765862451
 20
1111.780587845381
 30
0.0
 11
255.62990465862461
 21
1111.780587845381
 31
0.0
  0
LINE
  5
996C
  8
0
 10
193.83116565862451
 20
1116.780587845381
 30
0.0
 11
271.83199365862458
 21
1116.780587845381
 31
0.0
  0
LINE
  5
996D
  8
0
 10
267.63408265862449
 20
1111.780587845381
 30
0.0
 11
271.83199365862458
 21
1111.780587845381
 31
0.0
  0
ARC
  5
996E
  8
0
 10
193.83116565862451
 20
1091.780587845381
 30
0.0
 40
25.0
 50
90.0
 51
180.0
  0
LINE
  5
996F
  8
0
 10
267.63408265862449
 20
942.78058784538132
 30
0.0
 11
267.63408265862449
 21
932.78058784538143
 31
0.0
  0
LINE
  5
9970
  8
0
 10
255.62990465862461
 20
942.78058784538132
 30
0.0
 11
255.62990465862461
 21
932.78058784538143
 31
0.0
  0
LINE
  5
9971
  8
0
 10
193.82721765862451
 20
937.78058784538132
 30
0.0
 11
255.62990465862461
 21
937.78058784538132
 31
0.0
  0
LINE
  5
9972
  8
0
 10
193.83116565862451
 20
932.78058784538143
 30
0.0
 11
271.83199365862458
 21
932.78058784538143
 31
0.0
  0
LINE
  5
9973
  8
0
 10
267.63408265862449
 20
937.78058784538132
 30
0.0
 11
271.83199365862458
 21
937.78058784538132
 31
0.0
  0
ARC
  5
9974
  8
0
 10
193.82721765862451
 20
1091.780587845381
 30
0.0
 40
20.0
 50
90.0
 51
180.0
  0
LINE
  5
9975
  8
0
 10
171.32721765862459
 20
961.98058784538148
 30
0.0
 11
171.32721765862459
 21
1087.5805878453809
 31
0.0
  0
LINE
  5
9976
  8
0
 10
166.35721765862451
 20
1027.280587845381
 30
0.0
 11
168.83116565862451
 21
1027.280587845381
 31
0.0
  0
LINE
  5
9977
  8
0
 10
168.83116565862451
 20
957.78058784538143
 30
0.0
 11
168.83116565862451
 21
1091.780587845381
 31
0.0
  0
LINE
  5
9978
  8
0
 10
166.35721765862451
 20
1022.280587845381
 30
0.0
 11
168.83116565862451
 21
1022.280587845381
 31
0.0
  0
ARC
  5
9979
  8
0
 10
193.83116565862451
 20
957.78058784538143
 30
0.0
 40
25.0
 50
180.0
 51
270.0
  0
ARC
  5
997A
  8
0
 10
193.82721765862451
 20
957.78058784538143
 30
0.0
 40
20.0
 50
180.0
 51
270.0
  0
LINE
  5
997B
  8
0
 10
271.83199365862458
 20
1111.780587845381
 30
0.0
 11
271.83199365862458
 21
1116.780587845381
 31
0.0
  0
LINE
  5
997C
  8
0
 10
271.83199365862458
 20
937.78058784538132
 30
0.0
 11
271.83199365862458
 21
932.78058784538143
 31
0.0
  0
LINE
  5
997D
  8
0
 10
170.82721765862459
 20
1027.280587845381
 30
0.0
 11
171.32721765862459
 21
1027.280587845381
 31
0.0
  0
LINE
  5
997E
  8
0
 10
170.82721765862459
 20
1022.280587845381
 30
0.0
 11
171.32721765862459
 21
1022.280587845381
 31
0.0
  0
LINE
  5
997F
  8
0
 10
170.82721765862459
 20
1027.280587845381
 30
0.0
 11
170.82721765862459
 21
1022.280587845381
 31
0.0
  0
LINE
  5
9980
  8
0
 10
166.35721765862451
 20
1027.280587845381
 30
0.0
 11
166.35721765862451
 21
1022.280587845381
 31
0.0
  0
LINE
  5
9981
  8
0
 10
173.82721765862459
 20
1091.780587845381
 30
0.0
 11
173.82721765862459
 21
1089.954193845381
 31
0.0
  0
LINE
  5
9982
  8
0
 10
173.82721765862459
 20
959.75031984538134
 30
0.0
 11
173.82721765862459
 21
957.78058784538143
 31
0.0
  0
LINE
  5
9983
  8
0
 10
454.63199365862431
 20
987.82236784538145
 30
0.0
 11
463.63199365862448
 21
987.82236784538145
 31
0.0
  0
LINE
  5
9984
  8
0
 10
454.63199365862431
 20
1061.738807845381
 30
0.0
 11
463.63199365862448
 21
1061.738807845381
 31
0.0
  0
TEXT
  5
9C85
  8
0
  6
CONTINUOUS
 62
     0
 10
1060.7043657695219
 20
987.92704589457196
 30
0.0
 40
15.0
  1
VX08-240EB~VX08-500EB
  0
ENDSEC
  0
EOF
