  0
SECTION
  2
HEADER
  9
$ACADVER
  1
AC1009
  9
$INSBASE
 10
0.0
 20
0.0
 30
0.0
  9
$EXTMIN
 10
116.96337826658051
 20
318.15016422976652
 30
-0.000000000000013
  9
$EXTMAX
 10
1009.67242339118
 20
857.86504789744436
 30
0.0000000000000023
  9
$LIMMIN
 10
0.0481838304701796
 20
0.0541068901682138
  9
$LIMMAX
 10
1138.04818383047
 20
740.05410689016833
  9
$ORTHOMODE
 70
     1
  9
$REGENMODE
 70
     1
  9
$FILLMODE
 70
     1
  9
$QTEXTMODE
 70
     0
  9
$MIRRTEXT
 70
     0
  9
$DRAGMODE
 70
     2
  9
$LTSCALE
 40
1.0
  9
$OSMODE
 70
   551
  9
$ATTMODE
 70
     1
  9
$TEXTSIZE
 40
2.5
  9
$TRACEWID
 40
1.0
  9
$TEXTSTYLE
  7
STANDARD
  9
$CLAYER
  8
0
  9
$CELTYPE
  6
BYLAYER
  9
$CECOLOR
 62
   256
  9
$DIMSCALE
 40
1.0
  9
$DIMASZ
 40
2.0
  9
$DIMEXO
 40
1.0
  9
$DIMDLI
 40
8.0
  9
$DIMRND
 40
0.0
  9
$DIMDLE
 40
0.0
  9
$DIMEXE
 40
1.0
  9
$DIMTP
 40
-0.025
  9
$DIMTM
 40
0.043
  9
$DIMTXT
 40
2.5
  9
$DIMCEN
 40
0.0
  9
$DIMTSZ
 40
0.0
  9
$DIMTOL
 70
     0
  9
$DIMLIM
 70
     0
  9
$DIMTIH
 70
     0
  9
$DIMTOH
 70
     0
  9
$DIMSE1
 70
     0
  9
$DIMSE2
 70
     0
  9
$DIMTAD
 70
     3
  9
$DIMZIN
 70
     8
  9
$DIMBLK
  1

  9
$DIMASO
 70
     1
  9
$DIMSHO
 70
     1
  9
$DIMPOST
  1

  9
$DIMAPOST
  1
"
  9
$DIMALT
 70
     0
  9
$DIMALTD
 70
     2
  9
$DIMALTF
 40
0.0393701
  9
$DIMLFAC
 40
1.0
  9
$DIMTOFL
 70
     1
  9
$DIMTVP
 40
0.0
  9
$DIMTIX
 70
     0
  9
$DIMSOXD
 70
     0
  9
$DIMSAH
 70
     0
  9
$DIMBLK1
  1

  9
$DIMBLK2
  1

  9
$DIMSTYLE
  2
AM_JIS
  9
$DIMCLRD
 70
     2
  9
$DIMCLRE
 70
     2
  9
$DIMCLRT
 70
     4
  9
$DIMTFAC
 40
0.71
  9
$DIMGAP
 40
1.5
  9
$LUNITS
 70
     2
  9
$LUPREC
 70
     2
  9
$SKETCHINC
 40
1.0
  9
$FILLETRAD
 40
0.0
  9
$AUNITS
 70
     0
  9
$AUPREC
 70
     0
  9
$MENU
  1
.
  9
$ELEVATION
 40
0.0
  9
$PELEVATION
 40
0.0
  9
$THICKNESS
 40
0.0
  9
$LIMCHECK
 70
     0
  9
$BLIPMODE
 70
     0
  9
$CHAMFERA
 40
2.0
  9
$CHAMFERB
 40
2.0
  9
$SKPOLY
 70
     0
  9
$TDCREATE
 40
2456829.3841110538
  9
$TDUPDATE
 40
2458540.7217935771
  9
$TDINDWG
 40
1.2960277431
  9
$TDUSRTIMER
 40
1.2960271758999999
  9
$USRTIMER
 70
     1
  9
$ANGBASE
 50
0.0
  9
$ANGDIR
 70
     0
  9
$PDMODE
 70
     0
  9
$PDSIZE
 40
0.0
  9
$PLINEWID
 40
0.0
  9
$COORDS
 70
     1
  9
$SPLFRAME
 70
     0
  9
$SPLINETYPE
 70
     6
  9
$SPLINESEGS
 70
     8
  9
$ATTDIA
 70
     1
  9
$ATTREQ
 70
     1
  9
$HANDLING
 70
     1
  9
$HANDSEED
  5
9E9C
  9
$SURFTAB1
 70
     6
  9
$SURFTAB2
 70
     6
  9
$SURFTYPE
 70
     6
  9
$SURFU
 70
     6
  9
$SURFV
 70
     6
  9
$UCSNAME
  2

  9
$UCSORG
 10
0.0
 20
0.0
 30
0.0
  9
$UCSXDIR
 10
1.0
 20
0.0
 30
0.0
  9
$UCSYDIR
 10
0.0
 20
1.0
 30
0.0
  9
$PUCSNAME
  2

  9
$PUCSORG
 10
0.0
 20
0.0
 30
0.0
  9
$PUCSXDIR
 10
1.0
 20
0.0
 30
0.0
  9
$PUCSYDIR
 10
0.0
 20
1.0
 30
0.0
  9
$USERI1
 70
     0
  9
$USERI2
 70
     0
  9
$USERI3
 70
     0
  9
$USERI4
 70
     0
  9
$USERI5
 70
     0
  9
$USERR1
 40
0.0
  9
$USERR2
 40
0.0
  9
$USERR3
 40
0.0
  9
$USERR4
 40
0.0
  9
$USERR5
 40
0.0
  9
$WORLDVIEW
 70
     1
  9
$SHADEDGE
 70
     3
  9
$SHADEDIF
 70
    70
  9
$TILEMODE
 70
     1
  9
$MAXACTVP
 70
    64
  9
$PLIMCHECK
 70
     0
  9
$PEXTMIN
 10
1.0000000000000000E+020
 20
1.0000000000000000E+020
 30
1.0000000000000000E+020
  9
$PEXTMAX
 10
-1.0000000000000000E+020
 20
-1.0000000000000000E+020
 30
-1.0000000000000000E+020
  9
$PLIMMIN
 10
0.0
 20
0.0
  9
$PLIMMAX
 10
420.0
 20
297.0
  9
$UNITMODE
 70
     0
  9
$VISRETAIN
 70
     1
  9
$PLINEGEN
 70
     0
  9
$PSLTSCALE
 70
     1
  0
ENDSEC
  0
SECTION
  2
TABLES
  0
TABLE
  2
VPORT
 70
     1
  0
VPORT
  2
*ACTIVE
 70
     0
 10
0.0
 20
0.0
 11
1.0
 21
1.0
 12
563.31790082888051
 22
588.00760606360541
 13
0.0
 23
0.0
 14
10.0
 24
10.0
 15
40.0
 25
40.0
 16
0.0
 26
0.0
 36
1.0
 17
0.0
 27
0.0
 37
0.0
 40
543.42002016882896
 41
1.7571592210767459
 42
50.0
 43
0.0
 44
0.0
 50
0.0
 51
0.0
 71
    16
 72
  1000
 73
     1
 74
     3
 75
     0
 76
     0
 77
     0
 78
     0
  0
ENDTAB
  0
TABLE
  2
LTYPE
 70
    24
  0
LTYPE
  2
CONTINUOUS
 70
     0
  3
Solid line
 72
    65
 73
     0
 40
0.0
  0
LTYPE
  2
CENTER
 70
     0
  3
Center ____ _ ____ _ ____ _ ____ _ ____ _ ____
 72
    65
 73
     4
 40
50.799999999999997
 49
31.75
 49
-6.3499999999999979
 49
6.3499999999999979
 49
-6.3499999999999979
  0
LTYPE
  2
AM_ISO02W050
 70
     0
  3
__ __ __ __ __ __ __ __ __ __ __ __ __ __ __
 72
    65
 73
     2
 40
7.5
 49
6.0
 49
-1.5
  0
LTYPE
  2
AM_ISO08W050
 70
     0
  3
____ . ____ . ____ . ____ . ____ . ____ . ____
 72
    65
 73
     4
 40
18.0
 49
12.0
 49
-1.5
 49
3.0
 49
-1.5
  0
LTYPE
  2
AM_ISO09W050
 70
     0
  3
_____ . . _____ . . _____ . . ____ .. ____
 72
    65
 73
     6
 40
22.5
 49
12.0
 49
-1.5
 49
3.0
 49
-1.5
 49
3.0
 49
-1.5
  0
LTYPE
  2
AMCONSTR
 70
     0
  3
_______________________
 72
    65
 73
     2
 40
9999.0
 49
9999.0
 49
0.0
  0
LTYPE
  2
AM_ISO08W050X2
 70
     0
  3
__ . __ . __ . __ . __ . __
 72
    65
 73
     4
 40
9.0
 49
6.0
 49
-0.75
 49
1.5
 49
-0.75
  0
LTYPE
  2
AM_ISO02W050X2
 70
     0
  3
 _ _ _ _ _ _ _ _ _ _ _ _
 72
    65
 73
     2
 40
3.75
 49
3.0
 49
-0.75
  0
LTYPE
  2
AMZIGZAG
 70
     0
  3
/\/-/\/-/\/-/\/-/\/-/\/
 72
    65
 73
     2
 40
11.0001
 49
0.0001
 49
-11.0
  0
LTYPE
  2
ACANSTGBM
 70
     0
  3
__ . . __ . .
 72
    65
 73
     6
 40
9.0
 49
4.0
 49
-1.0
 49
1.0
 49
-1.0
 49
1.0
 49
-1.0
  0
LTYPE
  2
ACANSTGLM
 70
     0
  3
_ _ _ _ _
 72
    65
 73
     2
 40
3.0
 49
2.0
 49
-1.0
  0
LTYPE
  2
ACISOWELD
 70
     0
  3
_ _ _ _ _
 72
    65
 73
     2
 40
2.0
 49
2.0
 49
-1.0
  0
LTYPE
  2
ACISOTGB
 70
     0
  3
__ . . __ . .
 72
    65
 73
     6
 40
9.0
 49
4.0
 49
-1.0
 49
1.0
 49
-1.0
 49
1.0
 49
-1.0
  0
LTYPE
  2
ACISOTGL
 70
     0
  3
_ _ _ _ _
 72
    65
 73
     2
 40
3.0
 49
2.0
 49
-1.0
  0
LTYPE
  2
ACJISTGB
 70
     0
  3
__ . . __ . .
 72
    65
 73
     6
 40
9.0
 49
4.0
 49
-1.0
 49
1.0
 49
-1.0
 49
1.0
 49
-1.0
  0
LTYPE
  2
ACJISTGL
 70
     0
  3
_ _ _ _ _
 72
    65
 73
     2
 40
3.0
 49
2.0
 49
-1.0
  0
LTYPE
  2
HIDDEN
 70
     0
  3
Hidden __ __ __ __ __ __ __ __ __ __ __ __ __ _
 72
    65
 73
     2
 40
9.5249999999999968
 49
6.349999999999997
 49
-3.174999999999998
  0
LTYPE
  2
PHANTOM2
 70
     0
  3
Phantom (.5x) ___ _ _ ___ _ _ ___ _ _ ___ _ _
 72
    65
 73
     6
 40
31.75
 49
15.875
 49
-3.174999999999998
 49
3.174999999999998
 49
-3.174999999999998
 49
3.174999999999998
 49
-3.174999999999998
  0
LTYPE
  2
CENTER2
 70
     0
  3
Center (.5x) ___ _ ___ _ ___ _ ___ _ ___ _ ___
 72
    65
 73
     4
 40
1.125
 49
0.75
 49
-0.125
 49
0.125
 49
-0.125
  0
LTYPE
  2
HIDDEN2
 70
     0
  3
Hidden (.5x) _ _ _ _ _ _ _ _ _ _ _ _ _ _ _ _ _
 72
    65
 73
     2
 40
0.1875
 49
0.125
 49
-0.0625
  0
LTYPE
  2
AMZIGZAG2
 70
     0
  3
/\/-/\/-/\/-/\/-/\/-/\/
 72
    65
 73
     2
 40
0.4401
 49
0.0001
 49
-0.4400000000000003
  0
LTYPE
  2
ACANSTGB
 70
     0
  3
__ . . __ . .
 72
    65
 73
     6
 40
0.35433070866
 49
0.15748031496
 49
-0.03937007874
 49
0.03937007874
 49
-0.03937007874
 49
0.03937007874
 49
-0.03937007874
  0
LTYPE
  2
ACANSTGL
 70
     0
  3
_ _ _ _ _
 72
    65
 73
     2
 40
0.11811023622
 49
0.07874015748
 49
-0.03937007874
  0
ENDTAB
  0
TABLE
  2
LAYER
 70
     4
  0
LAYER
  2
0
 70
     0
 62
     7
  6
CONTINUOUS
  0
LAYER
  2
DEFPOINTS
 70
     0
 62
     7
  6
CONTINUOUS
  0
LAYER
  2
AM_5
 70
     0
 62
     2
  6
CONTINUOUS
  0
LAYER
  2
AM_CL
 70
     0
 62
     1
  6
AMCONSTR
  0
ENDTAB
  0
TABLE
  2
STYLE
 70
     8
  0
STYLE
  2
STANDARD
 70
     0
 40
0.0
 41
0.7400000000000003
 50
0.0
 71
     0
 42
2.5
  3
txt.shx
  4
bigfont.shx
  0
STYLE
  2

 70
     1
 40
0.0
 41
1.0
 50
0.0
 71
     0
 42
2.5
  3
ltypeshp.shx
  4

  0
STYLE
  2
ACANSTS
 70
     0
 40
1.0
 41
1.0
 50
0.0
 71
     0
 42
2.5
  3
romans.shx
  4
bigfont.shx
  0
STYLE
  2
ACANSGDT
 70
     0
 40
0.0
 41
1.0
 50
0.0
 71
     0
 42
2.5
  3
amgdtans.shx
  4

  0
STYLE
  2
ACISOTS
 70
     0
 40
1.0
 41
1.0
 50
0.0
 71
     0
 42
2.5
  3
isocp.shx
  4
extfont.shx
  0
STYLE
  2
ACISOGDT
 70
     0
 40
0.0
 41
1.0
 50
0.0
 71
     0
 42
2.5
  3
amgdt.shx
  4

  0
STYLE
  2
ACJISGDT
 70
     0
 40
0.0
 41
1.0
 50
0.0
 71
     0
 42
2.5
  3
amgdt.shx
  4

  0
STYLE
  2
ACJISTS
 70
     0
 40
1.0
 41
1.0
 50
0.0
 71
     0
 42
2.5
  3
isocp.shx
  4
extfont.shx
  0
ENDTAB
  0
TABLE
  2
VIEW
 70
     6
  0
VIEW
  2
AM_VIEW1
 70
     0
 40
370.00000000000023
 10
391.11579948883332
 20
555.05410689016833
 41
782.13523131672605
 11
0.0
 21
0.0
 31
1.0
 12
0.0
 22
0.0
 32
0.0
 42
50.0
 43
0.0
 44
0.0
 50
0.0
 71
    16
  0
VIEW
  2
AM_VIEW2
 70
     0
 40
370.00000000000023
 10
746.98056817210693
 20
555.05410689016833
 41
782.13523131672605
 11
0.0
 21
0.0
 31
1.0
 12
0.0
 22
0.0
 32
0.0
 42
50.0
 43
0.0
 44
0.0
 50
0.0
 71
    16
  0
VIEW
  2
AM_VIEW3
 70
     0
 40
370.00000000000023
 10
391.11579948883332
 20
185.05410689016821
 41
782.13523131672605
 11
0.0
 21
0.0
 31
1.0
 12
0.0
 22
0.0
 32
0.0
 42
50.0
 43
0.0
 44
0.0
 50
0.0
 71
    16
  0
VIEW
  2
AM_VIEW4
 70
     0
 40
370.00000000000023
 10
746.98056817210693
 20
185.05410689016821
 41
782.13523131672605
 11
0.0
 21
0.0
 31
1.0
 12
0.0
 22
0.0
 32
0.0
 42
50.0
 43
0.0
 44
0.0
 50
0.0
 71
    16
  0
VIEW
  2
AM_VIEW5
 70
     0
 40
370.00000000000023
 10
569.04818383047029
 20
370.05410689016833
 41
782.13523131672616
 11
0.0
 21
0.0
 31
1.0
 12
0.0
 22
0.0
 32
0.0
 42
50.0
 43
0.0
 44
0.0
 50
0.0
 71
    16
  0
VIEW
  2
AM_VIEW6
 70
     0
 40
739.99260000000015
 10
569.04818383047029
 20
370.05410689016833
 41
1564.254819928826
 11
0.0
 21
0.0
 31
1.0
 12
0.0
 22
0.0
 32
0.0
 42
50.0
 43
0.0
 44
0.0
 50
0.0
 71
    16
  0
ENDTAB
  0
TABLE
  2
UCS
 70
     0
  0
ENDTAB
  0
TABLE
  2
APPID
 70
   162
  0
APPID
  2
ACAD
 70
     0
  0
APPID
  2
ACADANNOTATIVE
 70
     0
  0
APPID
  2
ACAD_MLEADERVER
 70
     0
  0
APPID
  2
MCAD_NO_VIS
 70
     0
  0
APPID
  2
ACAD_TEMP_GRAPHIC
 70
     0
  0
APPID
  2
AD_DRAW
 70
     0
  0
APPID
  2
ACATTRIBSERVICES
 70
     0
  0
APPID
  2
DESIGNERASSEMBLIES
 70
     0
  0
APPID
  2
ACADM_DIM_EDIT
 70
     0
  0
APPID
  2
AMDT_DM_ADJ
 70
     0
  0
APPID
  2
GENIUS_GENDIMSH_14
 70
     0
  0
APPID
  2
GEVID1057795304
 70
     0
  0
APPID
  2
GEVDC
 70
     0
  0
APPID
  2
GEVCON
 70
     0
  0
APPID
  2
GENIUS_GENBH_13
 70
     0
  0
APPID
  2
GENIUS_GENOENT_13
 70
     0
  0
APPID
  2
GENIUS_GENOBJ-NBEHI-BHF_13
 70
     0
  0
APPID
  2
GENIUS_GENOLIS_13
 70
     0
  0
APPID
  2
GENIUS_GENODEF_13
 70
     0
  0
APPID
  2
GENIUS_GENOREF_13
 70
     0
  0
APPID
  2
GENIUS_GENOBJ-NBEHI-BHB_13
 70
     0
  0
APPID
  2
GENIUS_GENOBJ-F-SCPASSM_13
 70
     0
  0
APPID
  2
GENIUS_GENDTOL_13
 70
     0
  0
APPID
  2
GENIUS_GENTRA_14
 70
     0
  0
APPID
  2
ASURF_PCURVE_APPNAME
 70
     0
  0
APPID
  2
GENIUS_GENCFG_13
 70
     0
  0
APPID
  2
GENIUS_GE3CFG0_13
 70
     0
  0
APPID
  2
GENIUS_GENCFG0_13
 70
     0
  0
APPID
  2
GENIUS_GENCFG1_13
 70
     0
  0
APPID
  2
GENIUS_GENCFG2_13
 70
     0
  0
APPID
  2
GENIUS_GENCFG3_13
 70
     0
  0
APPID
  2
GENIUS_GENCFG4_13
 70
     0
  0
APPID
  2
GENIUS_GEVCFG0_13
 70
     0
  0
APPID
  2
GENIUS_GENOBJ-N-TIT_13
 70
     0
  0
APPID
  2
GENIUS_GENTITLE_13
 70
     0
  0
APPID
  2
GENIUS_GENSCREG_15
 70
     0
  0
APPID
  2
GENIUS_GENOBJ-N-SDF_13
 70
     0
  0
APPID
  2
GENIUS_GENFIL_13
 70
     0
  0
APPID
  2
GENIUS_GENOBJ-N-CHA_13
 70
     0
  0
APPID
  2
GENIUS_GEFSH_13
 70
     0
  0
APPID
  2
GENIUS_GENOBJ-F-SHS_13
 70
     0
  0
APPID
  2
GENIUS_GENOBJ-N-CEN_13
 70
     0
  0
APPID
  2
GENIUS_GENREC_14
 70
     0
  0
APPID
  2
GENIUS_GENOBJ-N-REC_13
 70
     0
  0
APPID
  2
GENIUS_GENOBJ-N-HTC_13
 70
     0
  0
APPID
  2
GENIUS_GENHATCH_13
 70
     0
  0
APPID
  2
ACAD_PSEXT
 70
     0
  0
APPID
  2
ACAD_EXEMPT_FROM_CAD_STANDARDS
 70
     0
  0
APPID
  2
ACAECLAYERSTANDARD
 70
     0
  0
APPID
  2
GENIUS_GENCEN_19
 70
     0
  0
APPID
  2
ACAD_DSTYLE_DIMINSPECT
 70
     0
  0
APPID
  2
ACAD_DSTYLE_DIMANGULAR_EXT
 70
     0
  0
APPID
  2
ACADANNOPO
 70
     0
  0
APPID
  2
ACAD_NAV_VCDISPLAY
 70
     0
  0
APPID
  2
GENIUS_GENOBJ-N-FIL_13
 70
     0
  0
APPID
  2
ACAUTHENVIRON
 70
     0
  0
APPID
  2
ACDBDYNAMICBLOCKTRUENAME
 70
     0
  0
APPID
  2
ACDBDYNAMICBLOCKGUID
 70
     0
  0
APPID
  2
ACDBBLOCKREPETAG
 70
     0
  0
APPID
  2
ACAD_DSTYLE_DIMBREAK
 70
     0
  0
APPID
  2
ACAD_DSTYLE_DIMJAG
 70
     0
  0
APPID
  2
DCO15
 70
     0
  0
APPID
  2
GENIUS_DUMCFG0_13
 70
     0
  0
APPID
  2
ACAD_DSTYLE_DIMTEXT_FILL
 70
     0
  0
APPID
  2
AMG_2DHIDE
 70
     0
  0
APPID
  2
GENIUS_GEFSHEP_13
 70
     0
  0
APPID
  2
GENIUS_GENOBJ-F-SHE_13
 70
     0
  0
APPID
  2
GENIUS_GEFSHE_13
 70
     0
  0
APPID
  2
ACAD_DIMASSOC_DIMLFAC
 70
     0
  0
APPID
  2
ACAD_DIMASSOC_CALC_DIMLFAC
 70
     0
  0
APPID
  2
ACAD_DIMASSOC_OVERRIDDEN_D
 70
     0
  0
APPID
  2
GENIUS_GENOBJ-F-SHSV_13
 70
     0
  0
APPID
  2
GENIUS_GEFWELD_13
 70
     0
  0
APPID
  2
GENIUS_GENOBJ-N-CRS_13
 70
     0
  0
APPID
  2
GENIUS_GENOBJ-N-RSBK_13
 70
     0
  0
APPID
  2
GENIUS_GENOBJ-N-LIB_13
 70
     0
  0
APPID
  2
GENIUS_GENSCALE_13
 70
     0
  0
APPID
  2
GENIUS_GENHINW_13
 70
     0
  0
APPID
  2
GENIUS_FIRSTVISTXT_14
 70
     0
  0
APPID
  2
GENIUS_GENOBJ-N-LEADER_13
 70
     0
  0
APPID
  2
GENIUS_GENDREL_13
 70
     0
  0
APPID
  2
GEVPT
 70
     0
  0
APPID
  2
GEVIT
 70
     0
  0
APPID
  2
VCC
 70
     0
  0
APPID
  2
GENBH
 70
     0
  0
APPID
  2
GEVMK
 70
     0
  0
APPID
  2
GENIUS_GENOBJ-F-DESC_13
 70
     0
  0
APPID
  2
GENIUS_GEFDESC_14
 70
     0
  0
APPID
  2
GENIUS_GENOBJ-F-FEAT_13
 70
     0
  0
APPID
  2
GENIUS_GEFFEAT_14
 70
     0
  0
APPID
  2
GENIUS_GEFPARTINS_13
 70
     0
  0
APPID
  2
GENIUS_GENSCREG_13
 70
     0
  0
APPID
  2
GENIUS_GEFSHP_13
 70
     0
  0
APPID
  2
GEVID1025574798
 70
     0
  0
APPID
  2
GEVID1025574769
 70
     0
  0
APPID
  2
GEVID1025757451
 70
     0
  0
APPID
  2
GEVID1240528327
 70
     0
  0
APPID
  2
AMG_2DSTRUCT_BTR
 70
     0
  0
APPID
  2
ACADM_2DVIEW_IGN_NOTIFY
 70
     0
  0
APPID
  2
GEVID1240528328
 70
     0
  0
APPID
  2
GEVID1240528329
 70
     0
  0
APPID
  2
GEVRADREF
 70
     0
  0
APPID
  2
GEVID1240528330
 70
     0
  0
APPID
  2
GEVID1240528331
 70
     0
  0
APPID
  2
GEVID1240528332
 70
     0
  0
APPID
  2
GEVID1240791080
 70
     0
  0
APPID
  2
GEVID1240791081
 70
     0
  0
APPID
  2
GEVID1240791082
 70
     0
  0
APPID
  2
GEVID1240791083
 70
     0
  0
APPID
  2
GEVID1240791084
 70
     0
  0
APPID
  2
GEVID1240791085
 70
     0
  0
APPID
  2
GEVID1240791086
 70
     0
  0
APPID
  2
GEVID1240791087
 70
     0
  0
APPID
  2
GEVID1240791088
 70
     0
  0
APPID
  2
GEVID1240791089
 70
     0
  0
APPID
  2
GEVID1240791090
 70
     0
  0
APPID
  2
GEVID1240791091
 70
     0
  0
APPID
  2
GEVID1240791092
 70
     0
  0
APPID
  2
GEVID1240791093
 70
     0
  0
APPID
  2
GEVID1240791094
 70
     0
  0
APPID
  2
GEVID1240791095
 70
     0
  0
APPID
  2
GEVID1240791096
 70
     0
  0
APPID
  2
GEVID1240791097
 70
     0
  0
APPID
  2
GEVID1240791098
 70
     0
  0
APPID
  2
GEVID1240791099
 70
     0
  0
APPID
  2
GEVID1240791100
 70
     0
  0
APPID
  2
GEVID1240791101
 70
     0
  0
APPID
  2
GEVID1240791102
 70
     0
  0
APPID
  2
GEVID1240791103
 70
     0
  0
APPID
  2
GEVID1240791104
 70
     0
  0
APPID
  2
GEVID1240791105
 70
     0
  0
APPID
  2
GEVID1240875381
 70
     0
  0
APPID
  2
GEVID1240875382
 70
     0
  0
APPID
  2
GEVID1240875383
 70
     0
  0
APPID
  2
GEVID1240875384
 70
     0
  0
APPID
  2
GEVID1240875385
 70
     0
  0
APPID
  2
GEVID1240875386
 70
     0
  0
APPID
  2
GEVID1240875387
 70
     0
  0
APPID
  2
GEVID1240875388
 70
     0
  0
APPID
  2
GEVID1240875389
 70
     0
  0
APPID
  2
GEVID1240875390
 70
     0
  0
APPID
  2
GEVID1240875391
 70
     0
  0
APPID
  2
GEVID1240875392
 70
     0
  0
APPID
  2
GEVID1240875393
 70
     0
  0
APPID
  2
GEVID1240875394
 70
     0
  0
APPID
  2
GEVID1240875395
 70
     0
  0
APPID
  2
GEVID1240875396
 70
     0
  0
APPID
  2
GEVID1240875397
 70
     0
  0
APPID
  2
GEVID1240875398
 70
     0
  0
APPID
  2
GEVID1240875399
 70
     0
  0
APPID
  2
GEVID1240908996
 70
     0
  0
APPID
  2
GEVID1240908997
 70
     0
  0
APPID
  2
GEVID1240908998
 70
     0
  0
APPID
  2
GEVID1240908999
 70
     0
  0
APPID
  2
GEVID1240909000
 70
     0
  0
APPID
  2
GENIUS_GENOBJ-N-ZOO_13
 70
     0
  0
APPID
  2
GENIUS_GENZOO_17
 70
     0
  0
APPID
  2
ACAD_DSTYLE_DIMRADIAL_EXTENSION
 70
     0
  0
APPID
  2
GENIUS_GE3SECT_13
 70
     0
  0
APPID
  2
GEV_VCCNULL_SWITCH_OFF
 70
     0
  0
APPID
  2
ACAD_DSTYLE_DIMTALN
 70
     0
  0
APPID
  2
CONTENTBLOCKDESCRIPTION
 70
     0
  0
ENDTAB
  0
TABLE
  2
DIMSTYLE
 70
    21
  0
DIMSTYLE
  2
AM_ANSI
 70
     0
  3

  4
"
  5

  6

  7

 40
1.0
 41
2.5
 42
1.0
 43
10.0
 44
1.0
 45
0.0
 46
0.0
 47
0.1
 48
0.1
140
3.5
141
0.0
142
0.0
143
0.0393701
144
1.0
145
0.0
146
0.71
147
1.5
 71
     0
 72
     0
 73
     1
 74
     1
 75
     0
 76
     0
 77
     0
 78
     8
170
     0
171
     2
172
     0
173
     0
174
     0
175
     0
176
     2
177
     2
178
     4
  0
DIMSTYLE
  2
AM_ANSI$3
 70
     0
  3

  4
"
  5

  6

  7

 40
1.0
 41
2.5
 42
1.0
 43
10.0
 44
1.0
 45
0.0
 46
0.0
 47
0.1
 48
0.1
140
3.5
141
0.0
142
0.0
143
0.0393701
144
1.0
145
0.0
146
0.71
147
1.5
 71
     0
 72
     0
 73
     1
 74
     1
 75
     0
 76
     0
 77
     0
 78
     8
170
     0
171
     2
172
     0
173
     0
174
     0
175
     0
176
     2
177
     2
178
     4
  0
DIMSTYLE
  2
AM_ANSI$4
 70
     0
  3

  4
"
  5

  6

  7

 40
1.0
 41
2.5
 42
1.0
 43
10.0
 44
1.0
 45
0.0
 46
0.0
 47
0.1
 48
0.1
140
3.5
141
0.0
142
0.0
143
0.0393701
144
1.0
145
0.0
146
0.71
147
1.5
 71
     0
 72
     0
 73
     1
 74
     1
 75
     0
 76
     0
 77
     0
 78
     8
170
     0
171
     2
172
     0
173
     0
174
     0
175
     0
176
     2
177
     2
178
     4
  0
DIMSTYLE
  2
AM_ANSI$7
 70
     0
  3

  4
"
  5

  6

  7

 40
1.0
 41
2.5
 42
1.0
 43
10.0
 44
1.0
 45
0.0
 46
0.0
 47
0.1
 48
0.1
140
5.0
141
0.0
142
0.0
143
0.0393701
144
1.0
145
0.0
146
0.71
147
1.5
 71
     0
 72
     0
 73
     1
 74
     1
 75
     0
 76
     0
 77
     0
 78
     8
170
     0
171
     2
172
     0
173
     0
174
     0
175
     0
176
     2
177
     2
178
     4
  0
DIMSTYLE
  2
AM_ANSI$SF
 70
     0
  3

  4
"
  5

  6

  7

 40
1.0
 41
2.5
 42
1.0
 43
10.0
 44
1.0
 45
0.0
 46
0.0
 47
0.1
 48
0.1
140
3.5
141
0.0
142
0.0
143
0.0393701
144
1.0
145
0.0
146
0.71
147
1.5
 71
     0
 72
     0
 73
     1
 74
     1
 75
     1
 76
     1
 77
     0
 78
     8
170
     0
171
     2
172
     0
173
     0
174
     0
175
     0
176
     2
177
     2
178
     4
  0
DIMSTYLE
  2
AM_ANSI$SH
 70
     0
  3

  4
"
  5

  6
GENAXEH
  7

 40
1.0
 41
2.5
 42
1.0
 43
10.0
 44
1.0
 45
0.0
 46
0.0
 47
0.1
 48
0.1
140
3.5
141
0.0
142
0.0
143
0.0393701
144
1.0
145
0.0
146
0.71
147
1.5
 71
     0
 72
     0
 73
     1
 74
     1
 75
     1
 76
     1
 77
     0
 78
     8
170
     0
171
     2
172
     0
173
     1
174
     0
175
     0
176
     2
177
     2
178
     4
  0
DIMSTYLE
  2
AM_ISO
 70
     0
  3

  4
"
  5

  6

  7

 40
1.0
 41
2.5
 42
1.0
 43
10.0
 44
1.0
 45
0.0
 46
0.0
 47
0.1
 48
0.1
140
3.5
141
0.0
142
0.0
143
0.0393701
144
1.0
145
0.0
146
0.71
147
1.5
 71
     0
 72
     0
 73
     0
 74
     0
 75
     0
 76
     0
 77
     1
 78
     8
170
     0
171
     2
172
     1
173
     0
174
     0
175
     0
176
   256
177
   256
178
     2
  0
DIMSTYLE
  2
AM_ISO$3
 70
     0
  3

  4
"
  5

  6

  7

 40
1.0
 41
2.5
 42
1.0
 43
10.0
 44
1.0
 45
0.0
 46
0.0
 47
0.1
 48
0.1
140
3.5
141
0.0
142
0.0
143
0.0393701
144
1.0
145
0.0
146
0.71
147
1.5
 71
     0
 72
     0
 73
     0
 74
     1
 75
     0
 76
     0
 77
     1
 78
     8
170
     0
171
     2
172
     0
173
     0
174
     0
175
     0
176
   256
177
   256
178
     2
  0
DIMSTYLE
  2
AM_ISO$4
 70
     0
  3

  4
"
  5

  6

  7

 40
1.0
 41
2.5
 42
1.0
 43
10.0
 44
1.0
 45
0.0
 46
0.0
 47
0.1
 48
0.1
140
3.5
141
0.0
142
0.0
143
0.0393701
144
1.0
145
0.0
146
0.71
147
1.5
 71
     0
 72
     0
 73
     0
 74
     1
 75
     0
 76
     0
 77
     1
 78
     8
170
     0
171
     2
172
     0
173
     0
174
     0
175
     0
176
   256
177
   256
178
     2
  0
DIMSTYLE
  2
AM_ISO$6
 70
     0
  3

  4
"
  5

  6

  7

 40
1.0
 41
2.5
 42
1.0
 43
10.0
 44
1.0
 45
0.0
 46
0.0
 47
0.1
 48
0.1
140
3.5
141
0.0
142
0.0
143
0.0393701
144
1.0
145
0.0
146
0.71
147
1.5
 71
     0
 72
     0
 73
     0
 74
     0
 75
     0
 76
     0
 77
     0
 78
     8
170
     0
171
     2
172
     1
173
     0
174
     0
175
     0
176
   256
177
   256
178
     2
  0
DIMSTYLE
  2
AM_ISO$7
 70
     0
  3

  4
"
  5

  6

  7

 40
1.0
 41
2.5
 42
1.0
 43
10.0
 44
1.0
 45
0.0
 46
0.0
 47
0.1
 48
0.1
140
5.0
141
0.0
142
0.0
143
0.0393701
144
1.0
145
0.0
146
0.71
147
1.5
 71
     0
 72
     0
 73
     0
 74
     0
 75
     0
 76
     0
 77
     1
 78
     8
170
     0
171
     2
172
     1
173
     0
174
     0
175
     0
176
   256
177
   256
178
     2
  0
DIMSTYLE
  2
AM_ISO$SF
 70
     0
  3

  4
"
  5

  6

  7

 40
1.0
 41
2.5
 42
1.0
 43
10.0
 44
1.0
 45
0.0
 46
0.0
 47
0.1
 48
0.1
140
3.5
141
0.0
142
0.0
143
0.0393701
144
1.0
145
0.0
146
0.71
147
1.5
 71
     0
 72
     0
 73
     0
 74
     0
 75
     1
 76
     1
 77
     1
 78
     8
170
     0
171
     2
172
     1
173
     0
174
     0
175
     0
176
   256
177
   256
178
     2
  0
DIMSTYLE
  2
AM_ISO$SH
 70
     0
  3

  4
"
  5

  6
GENAXEH
  7

 40
1.0
 41
2.5
 42
1.0
 43
10.0
 44
1.0
 45
0.0
 46
0.0
 47
0.1
 48
0.1
140
3.5
141
0.0
142
0.0
143
0.0393701
144
2.0
145
0.0
146
0.71
147
1.5
 71
     0
 72
     0
 73
     0
 74
     0
 75
     1
 76
     1
 77
     1
 78
     8
170
     0
171
     2
172
     1
173
     1
174
     0
175
     0
176
   256
177
   256
178
     2
  0
DIMSTYLE
  2
AM_JIS
 70
     0
  3

  4
"
  5

  6

  7

 40
1.0
 41
2.0
 42
1.0
 43
8.0
 44
1.0
 45
0.0
 46
0.0
 47
0.1
 48
0.1
140
2.5
141
0.0
142
0.0
143
0.0393701
144
1.0
145
0.0
146
0.71
147
1.5
 71
     0
 72
     0
 73
     0
 74
     0
 75
     0
 76
     0
 77
     3
 78
     8
170
     0
171
     2
172
     1
173
     0
174
     0
175
     0
176
     2
177
     2
178
     4
  0
DIMSTYLE
  2
AM_JIS$3
 70
     0
  3

  4
"
  5

  6

  7

 40
1.0
 41
2.0
 42
1.0
 43
10.0
 44
1.0
 45
0.0
 46
0.0
 47
0.1
 48
0.1
140
2.5
141
0.0
142
0.0
143
0.0393701
144
1.0
145
0.0
146
0.71
147
1.5
 71
     0
 72
     0
 73
     0
 74
     1
 75
     0
 76
     0
 77
     3
 78
     8
170
     0
171
     2
172
     0
173
     0
174
     0
175
     0
176
     2
177
     2
178
     4
  0
DIMSTYLE
  2
AM_JIS$4
 70
     0
  3

  4
"
  5

  6

  7

 40
1.0
 41
2.0
 42
1.0
 43
10.0
 44
1.0
 45
0.0
 46
0.0
 47
0.1
 48
0.1
140
2.5
141
0.0
142
0.0
143
0.0393701
144
1.0
145
0.0
146
0.71
147
1.5
 71
     0
 72
     0
 73
     0
 74
     0
 75
     0
 76
     0
 77
     3
 78
     8
170
     0
171
     2
172
     0
173
     0
174
     0
175
     0
176
     2
177
     2
178
     4
  0
DIMSTYLE
  2
AM_JIS$6
 70
     0
  3

  4
"
  5

  6

  7

 40
1.0
 41
2.0
 42
1.0
 43
10.0
 44
1.0
 45
0.0
 46
0.0
 47
0.1
 48
0.1
140
2.5
141
0.0
142
0.0
143
0.0393701
144
1.0
145
0.0
146
0.71
147
1.5
 71
     0
 72
     0
 73
     0
 74
     0
 75
     0
 76
     0
 77
     0
 78
     8
170
     0
171
     2
172
     1
173
     0
174
     0
175
     0
176
     2
177
     2
178
     4
  0
DIMSTYLE
  2
AM_JIS$7
 70
     0
  3

  4
"
  5

  6
OPEN30
  7
OPEN30
 40
1.0
 41
2.0
 42
1.0
 43
10.0
 44
1.0
 45
0.0
 46
0.0
 47
0.1
 48
0.1
140
2.5
141
0.0
142
0.0
143
0.0393701
144
1.0
145
0.0
146
0.71
147
1.5
 71
     0
 72
     0
 73
     0
 74
     0
 75
     0
 76
     0
 77
     3
 78
     8
170
     0
171
     2
172
     1
173
     0
174
     0
175
     0
176
     2
177
     2
178
     4
  0
DIMSTYLE
  2
AM_JIS$SF
 70
     0
  3

  4
"
  5

  6

  7

 40
1.0
 41
2.0
 42
1.0
 43
10.0
 44
1.0
 45
0.0
 46
0.0
 47
0.1
 48
0.1
140
2.5
141
0.0
142
0.0
143
0.0393701
144
1.0
145
0.0
146
0.71
147
1.5
 71
     0
 72
     0
 73
     0
 74
     0
 75
     1
 76
     1
 77
     3
 78
     8
170
     0
171
     2
172
     1
173
     0
174
     0
175
     0
176
     2
177
     2
178
     4
  0
DIMSTYLE
  2
AM_JIS$SH
 70
     0
  3

  4
"
  5

  6
GENAXEH
  7

 40
1.0
 41
2.0
 42
1.0
 43
10.0
 44
1.0
 45
0.0
 46
0.0
 47
0.1
 48
0.1
140
2.5
141
0.0
142
0.0
143
0.0393701
144
2.0
145
0.0
146
0.71
147
1.5
 71
     0
 72
     0
 73
     0
 74
     0
 75
     1
 76
     1
 77
     3
 78
     8
170
     0
171
     2
172
     1
173
     1
174
     0
175
     0
176
     2
177
     2
178
     4
  0
DIMSTYLE
  2
AM_JIS$0
 70
     0
  3

  4
"
  5

  6

  7

 40
1.0
 41
2.0
 42
1.0
 43
8.0
 44
1.0
 45
0.0
 46
0.0
 47
0.1
 48
0.1
140
2.5
141
0.0
142
0.0
143
0.0393701
144
1.0
145
0.0
146
0.71
147
1.5
 71
     0
 72
     0
 73
     0
 74
     0
 75
     0
 76
     0
 77
     3
 78
     8
170
     0
171
     2
172
     1
173
     0
174
     0
175
     0
176
     2
177
     2
178
     4
  0
ENDTAB
  0
ENDSEC
  0
SECTION
  2
BLOCKS
  0
BLOCK
  8
0
  2
$MODEL_SPACE
 70
     0
 10
0.0
 20
0.0
 30
0.0
  3
$MODEL_SPACE
  1

  0
ENDBLK
  5
77
  8
0
  0
BLOCK
 67
     1
  8
0
  2
$PAPER_SPACE
 70
     0
 10
0.0
 20
0.0
 30
0.0
  3
$PAPER_SPACE
  1

  0
ENDBLK
  5
73
 67
     1
  8
0
  0
BLOCK
  8
0
  2
GENAXEH
 70
     0
 10
0.0
 20
0.0
 30
0.0
  3
GENAXEH
  1

  0
LINE
  5
987C
  8
0
 10
-1.0
 20
0.0
 30
0.0
 11
1.0
 21
0.0
 31
0.0
  0
ENDBLK
  5
987D
  8
0
  0
BLOCK
  8
0
  6
BYBLOCK
 62
     0
  2
$6-45
 70
     0
 10
0.0
 20
0.0
 30
0.0
  3
$6-45
  1

  0
ARC
  5
6E0E
  8
0
  6
CONTINUOUS
 62
     0
 10
-2.6499939999999902
 20
2.800201000000015
 30
0.0
 40
2.6003989999999999
 50
89.999982000000799
 51
179.99997799999841
  0
ARC
  5
6E0F
  8
0
  6
CONTINUOUS
 62
     0
 10
2.6499939999999902
 20
2.800201000000015
 30
0.0
 40
2.600403
 50
0.0
 51
89.999982000000799
  0
LINE
  5
6E10
  8
0
  6
CONTINUOUS
 62
     0
 10
0.0660250000000247
 20
0.0
 30
0.0
 11
-0.8000000000000112
 21
1.5
 31
0.0
  0
LINE
  5
6E11
  8
0
  6
CONTINUOUS
 62
     0
 10
1.0660250000000211
 20
0.0
 30
0.0
 11
0.1999999999999886
 21
1.5
 31
0.0
  0
LINE
  5
6E12
  8
0
  6
CONTINUOUS
 62
     0
 10
6.1000000000000218
 20
0.0
 30
0.0
 11
-6.1000000000000218
 21
0.0
 31
0.0
  0
LINE
  5
6E13
  8
0
  6
CONTINUOUS
 62
     0
 10
6.1000000000000218
 20
1.5
 30
0.0
 11
6.1000000000000218
 21
0.0
 31
0.0
  0
LINE
  5
6E14
  8
0
  6
CONTINUOUS
 62
     0
 10
-6.1000000000000218
 20
1.5
 30
0.0
 11
-6.1000000000000218
 21
0.0
 31
0.0
  0
LINE
  5
6E15
  8
0
  6
CONTINUOUS
 62
     0
 10
2.6499939999999902
 20
5.3999939999999906
 30
0.0
 11
-2.6499939999999902
 21
5.3999939999999906
 31
0.0
  0
LINE
  5
6E16
  8
0
  6
CONTINUOUS
 62
     0
 10
6.1000000000000218
 20
1.5
 30
0.0
 11
-6.1000000000000218
 21
1.5
 31
0.0
  0
LINE
  5
6E17
  8
0
  6
CONTINUOUS
 62
     0
 10
-5.25
 20
1.5
 30
0.0
 11
-5.25
 21
2.800201000000015
 31
0.0
  0
LINE
  5
6E18
  8
0
  6
CONTINUOUS
 62
     0
 10
5.25
 20
1.5
 30
0.0
 11
5.25
 21
2.800201000000015
 31
0.0
  0
ENDBLK
  5
6E19
  8
0
  6
BYBLOCK
 62
     0
  0
BLOCK
  8
0
  2
_OPEN30
 70
     0
 10
0.0
 20
0.0
 30
0.0
  3
_OPEN30
  1

  0
LINE
  5
98C3
  8
0
  6
BYBLOCK
 62
     0
 10
-1.0
 20
0.26794919
 30
0.0
 11
0.0
 21
0.0
 31
0.0
  0
LINE
  5
98C4
  8
0
  6
BYBLOCK
 62
     0
 10
0.0
 20
0.0
 30
0.0
 11
-1.0
 21
-0.26794919
 31
0.0
  0
LINE
  5
98C5
  8
0
  6
BYBLOCK
 62
     0
 10
0.0
 20
0.0
 30
0.0
 11
-1.0
 21
0.0
 31
0.0
  0
ENDBLK
  5
98C6
  8
0
  0
BLOCK
  8
0
  2
_ACMFILLEDHALF
 70
     0
 10
0.0
 20
0.0
 30
0.0
  3
_ACMFILLEDHALF
  1

  0
TRACE
  5
9985
  8
0
  6
CONTINUOUS
 62
     0
 10
-0.8
 20
0.0
 30
0.0
 11
-1.0
 21
0.166666666
 31
0.0
 12
0.0
 22
0.0
 32
0.0
 13
0.0
 23
0.0
 33
0.0
  0
LINE
  5
9986
  8
0
  6
CONTINUOUS
 62
     0
 10
-1.0
 20
0.0
 30
0.0
 11
-0.8
 21
0.0
 31
0.0
  0
ENDBLK
  5
9987
  8
0
  0
ENDSEC
  0
SECTION
  2
ENTITIES
  0
LINE
  5
86D4
  8
0
  6
AM_ISO08W050
 62
     0
 10
585.77719284542638
 20
320.99529453371321
 30
0.0
 11
585.77719284542638
 21
345.85502253371322
 31
0.0
  0
LINE
  5
86D5
  8
0
  6
AM_ISO08W050
 62
     0
 10
460.77718284542573
 20
320.99529453371321
 30
0.0
 11
460.77718284542573
 21
345.85502253371322
 31
0.0
  0
LINE
  5
86D6
  8
0
  6
AM_ISO08W050
 62
     0
 10
470.41855397185998
 20
464.3266005337133
 30
0.0
 11
673.03950042780491
 21
464.3266005337133
 31
0.0
  0
LINE
  5
86D7
  8
0
  6
AM_ISO08W050
 62
     0
 10
989.63507882965143
 20
346.57594053371321
 30
0.0
 11
989.63507882965143
 21
320.99529453371321
 31
0.0
  0
LINE
  5
86D8
  8
0
  6
AM_ISO08W050
 62
     0
 10
799.6350798296512
 20
347.3384985337135
 30
0.0
 11
799.6350798296512
 21
320.99529453371321
 31
0.0
  0
LINE
  5
86D9
  8
0
 62
     0
 10
899.63506682965124
 20
475.32662553371301
 30
0.0
 11
899.63506682965124
 21
483.32663553371327
 31
0.0
  0
LINE
  5
86DA
  8
0
 62
     0
 10
889.63506782965135
 20
475.32662553371301
 30
0.0
 11
899.63506682965124
 21
475.32662553371301
 31
0.0
  0
LINE
  5
86DB
  8
0
 62
     0
 10
889.63506782965135
 20
475.32662553371301
 30
0.0
 11
889.63506782965135
 21
483.32663553371327
 31
0.0
  0
LINE
  5
86DC
  8
0
 62
     0
 10
665.77717284542575
 20
448.32662853371318
 30
0.0
 11
607.77715284542614
 21
448.32662853371318
 31
0.0
  0
LINE
  5
86DD
  8
0
 62
     0
 10
607.77715284542614
 20
481.82663553371327
 30
0.0
 11
603.77719284542627
 21
481.82663553371327
 31
0.0
  0
LINE
  5
86DE
  8
0
 62
     0
 10
665.77717284542575
 20
483.32663553371327
 30
0.0
 11
620.77717284542575
 21
483.32663553371327
 31
0.0
  0
LINE
  5
86DF
  8
0
 62
     0
 10
665.77717284542575
 20
480.32663553371327
 30
0.0
 11
607.77715284542614
 21
480.32663553371327
 31
0.0
  0
LINE
  5
86E0
  8
0
 62
     0
 10
607.77715284542614
 20
446.82662853371312
 30
0.0
 11
603.77719284542627
 21
446.82662853371312
 31
0.0
  0
LINE
  5
86E1
  8
0
 62
     0
 10
607.77715284542614
 20
446.82662853371312
 30
0.0
 11
607.77715284542614
 21
481.82663553371327
 31
0.0
  0
LINE
  5
86E2
  8
0
 62
     0
 10
665.77717284542575
 20
448.32662853371318
 30
0.0
 11
665.77717284542575
 21
483.32663553371327
 31
0.0
  0
LINE
  5
86E3
  8
0
 62
     0
 10
620.77717284542575
 20
480.32663553371327
 30
0.0
 11
620.77717284542575
 21
483.32663553371327
 31
0.0
  0
LINE
  5
86E4
  8
0
  6
AM_ISO08W050
 62
     0
 10
894.63508382965119
 20
318.15061832501641
 30
0.0
 11
894.63508382965119
 21
573.48314053268325
 31
0.0
  0
LINE
  5
86E5
  8
0
 62
     0
 10
889.63506782965135
 20
483.32663553371327
 30
0.0
 11
899.63506682965124
 21
483.32663553371327
 31
0.0
  0
LINE
  5
86E6
  8
0
  6
AM_ISO08W050
 62
     0
 10
792.82056482965106
 20
464.3266005337133
 30
0.0
 11
999.72466982965136
 21
464.3266005337133
 31
0.0
  0
LINE
  5
86ED
  8
0
 62
     0
 10
829.63506482965113
 20
338.32659453371309
 30
0.0
 11
829.63506482965113
 21
324.32661153371339
 31
0.0
  0
LINE
  5
86EE
  8
0
  6
ACISOTGL
 62
     0
 10
982.13507882965109
 20
342.32661153371339
 30
0.0
 11
982.13507882965109
 21
324.32661153371339
 31
0.0
  0
LINE
  5
86EF
  8
0
  6
ACISOTGL
 62
     0
 10
997.13507882965166
 20
342.32661153371339
 30
0.0
 11
997.13507882965166
 21
324.32661153371339
 31
0.0
  0
LINE
  5
86F0
  8
0
 62
     0
 10
779.63507882965109
 20
324.32661153371339
 30
0.0
 11
829.63506482965113
 21
324.32661153371339
 31
0.0
  0
LINE
  5
86F1
  8
0
 62
     0
 10
779.63507882965109
 20
339.32661153371339
 30
0.0
 11
779.63507882965109
 21
324.32661153371339
 31
0.0
  0
LINE
  5
86F2
  8
0
 62
     0
 10
959.63507582965121
 20
324.32661153371339
 30
0.0
 11
1009.635079829651
 21
324.32661153371339
 31
0.0
  0
LINE
  5
86F3
  8
0
 62
     0
 10
959.63507582965121
 20
338.32659453371309
 30
0.0
 11
959.63507582965121
 21
324.32661153371339
 31
0.0
  0
LINE
  5
86F4
  8
0
 62
     0
 10
1009.635079829651
 20
339.32661153371339
 30
0.0
 11
1009.635079829651
 21
324.32661153371339
 31
0.0
  0
LINE
  5
86F5
  8
0
 62
     0
 10
825.63506582965113
 20
342.32661153371339
 30
0.0
 11
782.63507882965121
 21
342.32661153371339
 31
0.0
  0
LINE
  5
86F6
  8
0
 62
     0
 10
963.6350778296511
 20
342.32661153371339
 30
0.0
 11
1006.635076829651
 21
342.32661153371339
 31
0.0
  0
LINE
  5
86F7
  8
0
 62
     0
 10
603.77719284542627
 20
464.3266005337133
 30
0.0
 11
603.77719284542627
 21
491.59457553371328
 31
0.0
  0
LINE
  5
86F8
  8
0
 62
     0
 10
603.77719284542627
 20
437.05868553371317
 30
0.0
 11
603.77719284542627
 21
464.3266005337133
 31
0.0
  0
LINE
  5
86F9
  8
0
 62
     0
 10
598.27714284542571
 20
432.15121353371347
 30
0.0
 11
602.27716284542566
 21
434.46060153371309
 31
0.0
  0
LINE
  5
86FA
  8
0
 62
     0
 10
598.27717284542643
 20
496.5020355337133
 30
0.0
 11
602.27719284542593
 21
494.19266553371438
 31
0.0
  0
LINE
  5
86FB
  8
0
 62
     0
 10
812.92108982965135
 20
507.64856553371322
 30
0.0
 11
799.82425682965118
 21
466.51193253371332
 31
0.0
  0
LINE
  5
86FC
  8
0
  6
ACISOTGL
 62
     0
 10
593.27719284542593
 20
342.32661153371339
 30
0.0
 11
593.27719284542593
 21
324.32661153371339
 31
0.0
  0
LINE
  5
86FD
  8
0
  6
ACISOTGL
 62
     0
 10
578.27719284542604
 20
342.32661153371339
 30
0.0
 11
578.27719284542604
 21
324.32661153371339
 31
0.0
  0
LINE
  5
86FE
  8
0
 62
     0
 10
570.77719284542616
 20
342.32661153371339
 30
0.0
 11
601.77715284542637
 21
342.32661153371339
 31
0.0
  0
LINE
  5
86FF
  8
0
 62
     0
 10
480.77719284542587
 20
326.32660953371322
 30
0.0
 11
565.77715284542614
 21
326.32660953371322
 31
0.0
  0
LINE
  5
8700
  8
0
  6
ACISOTGL
 62
     0
 10
807.13507982965098
 20
342.32661153371339
 30
0.0
 11
807.13507982965098
 21
324.32661153371339
 31
0.0
  0
LINE
  5
8701
  8
0
 62
     0
 10
596.77717284542643
 20
349.86601053371322
 30
0.0
 11
596.77717284542643
 21
508.32662553371313
 31
0.0
  0
LINE
  5
8702
  8
0
 62
     0
 10
555.77719284542593
 20
357.32662653371352
 30
0.0
 11
555.77719284542593
 21
495.76934553371308
 31
0.0
  0
LINE
  5
8703
  8
0
 62
     0
 10
444.77719284542633
 20
342.32661153371339
 30
0.0
 11
475.85737284542569
 21
342.32661153371339
 31
0.0
  0
LINE
  5
8704
  8
0
 62
     0
 10
442.77718284542573
 20
324.32661153371339
 30
0.0
 11
478.77718284542601
 21
324.32661153371339
 31
0.0
  0
LINE
  5
8705
  8
0
 62
     0
 10
603.77719284542627
 20
324.32661153371339
 30
0.0
 11
603.77719284542627
 21
340.32661053371442
 31
0.0
  0
LINE
  5
8706
  8
0
 62
     0
 10
442.77718284542573
 20
324.32661153371339
 30
0.0
 11
442.77718284542573
 21
340.32661053371442
 31
0.0
  0
LINE
  5
8707
  8
0
 62
     0
 10
479.66707284542599
 20
345.10749453371329
 30
0.0
 11
494.58688284542632
 21
391.73190153371308
 31
0.0
  0
LINE
  5
8708
  8
0
  6
ACISOTGL
 62
     0
 10
792.13507982965109
 20
342.32661153371339
 30
0.0
 11
792.13507982965109
 21
324.32661153371339
 31
0.0
  0
LINE
  5
8709
  8
0
 62
     0
 10
575.77717284542643
 20
364.78434453371312
 30
0.0
 11
575.77717284542643
 21
525.8075655337135
 31
0.0
  0
LINE
  5
870A
  8
0
 62
     0
 10
583.77715284542649
 20
512.32664553371433
 30
0.0
 11
592.77715284542649
 21
512.32664553371433
 31
0.0
  0
LINE
  5
870B
  8
0
 62
     0
 10
829.63506482965113
 20
447.32662953371317
 30
0.0
 11
829.63506482965113
 21
357.32662653371352
 31
0.0
  0
LINE
  5
870C
  8
0
 62
     0
 10
823.31310482965114
 20
518.04065553371311
 30
0.0
 11
864.44973182965123
 21
531.13751553371333
 31
0.0
  0
LINE
  5
870D
  8
0
 62
     0
 10
494.77717284542592
 20
392.95103253371337
 30
0.0
 11
494.77717284542592
 21
450.97436553371432
 31
0.0
  0
LINE
  5
870E
  8
0
 62
     0
 10
976.75104482965116
 20
507.84734553371311
 30
0.0
 11
989.74696982965133
 21
465.54952953371333
 31
0.0
  0
LINE
  5
870F
  8
0
 62
     0
 10
966.15582182965102
 20
518.44256553371326
 30
0.0
 11
923.85799982965113
 21
531.43847553371324
 31
0.0
  0
LINE
  5
8710
  8
0
 62
     0
 10
959.63507582965121
 20
447.32662953371317
 30
0.0
 11
959.63507582965121
 21
357.32662653371352
 31
0.0
  0
LINE
  5
8711
  8
0
 62
     0
 10
971.63507582965121
 20
496.42031553371311
 30
0.0
 11
971.63507582965121
 21
398.06388753371323
 31
0.0
  0
LINE
  5
8712
  8
0
 62
     0
 10
817.63506482965101
 20
496.42031553371311
 30
0.0
 11
817.63506482965101
 21
398.06388753371323
 31
0.0
  0
LINE
  5
8713
  8
0
 62
     0
 10
490.77724284542597
 20
535.82663553371333
 30
0.0
 11
567.98662284542593
 21
533.80481553371328
 31
0.0
  0
LINE
  5
8714
  8
0
 62
     0
 10
1009.602394829651
 20
339.7682445337133
 30
0.0
 11
993.05099282965136
 21
450.97436553371432
 31
0.0
  0
LINE
  5
8715
  8
0
 62
     0
 10
779.66773382965118
 20
339.76825953371338
 30
0.0
 11
796.21912382965115
 21
450.97436553371432
 31
0.0
  0
LINE
  5
8716
  8
0
 62
     0
 10
490.7771828454259
 20
450.97436553371432
 30
0.0
 11
494.77717284542592
 21
450.97436553371432
 31
0.0
  0
LINE
  5
8717
  8
0
 62
     0
 10
560.85217284542603
 20
356.78435853371332
 30
0.0
 11
567.77719284542604
 21
356.78435853371332
 31
0.0
  0
LINE
  5
8718
  8
0
 62
     0
 10
567.77719284542604
 20
324.32661153371339
 30
0.0
 11
603.77719284542627
 21
324.32661153371339
 31
0.0
  0
LINE
  5
8719
  8
0
 62
     0
 10
567.77719284542604
 20
324.32661153371339
 30
0.0
 11
567.77719284542604
 21
324.32661153371339
 31
0.0
  0
LINE
  5
871A
  8
0
 62
     0
 10
831.63506582965101
 20
326.32660953371322
 30
0.0
 11
957.63507782965132
 21
326.32660953371322
 31
0.0
  0
LINE
  5
871B
  8
0
 62
     0
 10
563.77717284542643
 20
503.76935553371311
 30
0.0
 11
572.17666284542577
 21
503.76935553371311
 31
0.0
  0
LINE
  5
871C
  8
0
 62
     0
 10
490.77724284542597
 20
466.51193253371332
 30
0.0
 11
490.77877284542637
 21
466.51193253371332
 31
0.0
  0
LINE
  5
871D
  8
0
 62
     0
 10
490.7771828454259
 20
466.51193253371332
 30
0.0
 11
518.54584284542614
 21
491.79839553371312
 31
0.0
  0
LINE
  5
871E
  8
0
  6
ACISOTGL
 62
     0
 10
468.27718284542561
 20
342.32661153371339
 30
0.0
 11
468.27718284542561
 21
324.32661153371339
 31
0.0
  0
LINE
  5
871F
  8
0
  6
ACISOTGL
 62
     0
 10
453.2771828454259
 20
342.32661153371339
 30
0.0
 11
453.2771828454259
 21
324.32661153371339
 31
0.0
  0
LINE
  5
8720
  8
0
 62
     0
 10
481.95694284542589
 20
514.46192553371429
 30
0.0
 11
490.7771828454259
 21
514.46192553371429
 31
0.0
  0
LINE
  5
8727
  8
0
 62
     0
 10
490.7771828454259
 20
379.82662653371352
 30
0.0
 11
490.7771828454259
 21
535.82663553371333
 31
0.0
  0
LINE
  5
8728
  8
0
 62
     0
 10
480.77719284542587
 20
355.90884153371343
 30
0.0
 11
483.12349284542569
 21
355.90884153371343
 31
0.0
  0
LINE
  5
8729
  8
0
 62
     0
 10
460.77718284542573
 20
521.16149602618304
 30
0.0
 11
475.95169284542578
 21
521.69138602618204
 31
0.0
  0
LINE
  5
872A
  8
0
 62
     0
 10
480.77719284542587
 20
348.57662553371313
 30
0.0
 11
480.77719284542587
 21
533.54603553371305
 31
0.0
  0
LINE
  5
872B
  8
0
 62
     0
 10
460.77718284542573
 20
351.16149602618327
 30
0.0
 11
475.63654284542599
 21
350.6425890261836
 31
0.0
  0
LINE
  5
872C
  8
0
 62
     0
 10
482.70736284542602
 20
535.54481553371306
 30
0.0
 11
490.7771828454259
 21
535.82660553371306
 31
0.0
  0
LINE
  5
872D
  8
0
 62
     0
 10
480.77719284542587
 20
372.46725153371352
 30
0.0
 11
488.42221284542592
 21
372.46725153371352
 31
0.0
  0
CIRCLE
  5
872E
  8
0
 62
     0
 10
894.63508382965119
 20
464.3266005337133
 30
0.0
 40
2.75000007
  0
CIRCLE
  5
872F
  8
0
 62
     0
 10
894.63508382965119
 20
464.3266005337133
 30
0.0
 40
4.000000199999997
  0
ARC
  5
8730
  8
0
 62
     0
 10
894.63508382965119
 20
464.3266005337133
 30
0.0
 40
16.000000499999999
 50
108.2099599999994
 51
71.790052000001126
  0
ARC
  5
8731
  8
0
 62
     0
 10
480.77719284542587
 20
324.32661153371339
 30
0.0
 40
2.00000007
 50
90.000002999984659
 51
180.000010000001
  0
ARC
  5
8732
  8
0
 62
     0
 10
825.63506582965113
 20
338.32659453371309
 30
0.0
 40
4.000000199999997
 50
0.0
 51
90.000002999984659
  0
ARC
  5
8733
  8
0
 62
     0
 10
475.85737284542569
 20
346.32661053371351
 30
0.0
 40
4.000000199999997
 50
270.0
 51
342.25533000000809
  0
ARC
  5
8734
  8
0
 62
     0
 10
490.7771828454259
 20
392.95103253371337
 30
0.0
 40
4.000000199999997
 50
342.25533000000809
 51
0.0
  0
ARC
  5
8735
  8
0
 62
     0
 10
570.77719284542616
 20
357.32662653371352
 30
0.0
 40
15.000000299999989
 50
179.999989999999
 51
270.0
  0
ARC
  5
8736
  8
0
 62
     0
 10
563.77717284542643
 20
495.76934553371308
 30
0.0
 40
8.0000000999999994
 50
90.000002999984659
 51
180.000010000001
  0
ARC
  5
8737
  8
0
 62
     0
 10
782.63507882965121
 20
339.32661153371339
 30
0.0
 40
3.0
 50
90.000002999984659
 51
180.000010000001
  0
ARC
  5
8738
  8
0
 62
     0
 10
1006.635076829651
 20
339.32661153371339
 30
0.0
 40
3.0
 50
0.0
 51
90.000002999984659
  0
ARC
  5
8739
  8
0
 62
     0
 10
963.6350778296511
 20
338.32659453371309
 30
0.0
 40
4.000000199999997
 50
90.000002999984659
 51
180.000010000001
  0
ARC
  5
873A
  8
0
 62
     0
 10
894.63508382965119
 20
398.06388753371323
 30
0.0
 40
77.000000999999997
 50
179.999989999999
 51
212.41839000000891
  0
ARC
  5
873B
  8
0
 62
     0
 10
599.77717284542643
 20
429.55312953371322
 30
0.0
 40
3.0
 50
119.99999999999091
 51
180.000010000001
  0
ARC
  5
873C
  8
0
 62
     0
 10
599.77717284542643
 20
499.10012553371519
 30
0.0
 40
3.0
 50
179.999989999999
 51
240.00001000000111
  0
ARC
  5
873D
  8
0
 62
     0
 10
600.77719284542604
 20
491.59457553371328
 30
0.0
 40
3.0
 50
0.0
 51
60.000001999999171
  0
ARC
  5
873E
  8
0
 62
     0
 10
600.77719284542604
 20
437.05868553371317
 30
0.0
 40
3.0
 50
299.99999999999091
 51
0.0
  0
ARC
  5
873F
  8
0
 62
     0
 10
567.77719284542604
 20
525.8075655337135
 30
0.0
 40
8.0000000999999994
 50
0.0
 51
88.499996999987715
  0
ARC
  5
8740
  8
0
 62
     0
 10
814.63506482965113
 20
357.32662653371352
 30
0.0
 40
15.000000299999989
 50
270.0
 51
0.0
  0
ARC
  5
8741
  8
0
 62
     0
 10
444.77719284542633
 20
340.32661053371442
 30
0.0
 40
2.00000007
 50
90.000002999984659
 51
180.000010000001
  0
ARC
  5
8742
  8
0
 62
     0
 10
601.77715284542637
 20
340.32661053371442
 30
0.0
 40
2.00000007
 50
0.0
 51
90.000002999984659
  0
ARC
  5
8743
  8
0
 62
     0
 10
567.77719284542604
 20
364.78434453371312
 30
0.0
 40
8.0000000999999994
 50
270.0
 51
0.0
  0
ARC
  5
8744
  8
0
 62
     0
 10
957.63507782965132
 20
324.32661153371339
 30
0.0
 40
2.00000007
 50
0.0
 51
90.000002999984659
  0
ARC
  5
8745
  8
0
 62
     0
 10
831.63506582965101
 20
324.32661153371339
 30
0.0
 40
2.00000007
 50
90.000002999984659
 51
180.000010000001
  0
ARC
  5
8746
  8
0
 62
     0
 10
583.77715284542649
 20
520.32662553371495
 30
0.0
 40
8.0000000999999994
 50
179.999989999999
 51
270.0
  0
ARC
  5
8747
  8
0
 62
     0
 10
894.63508382965119
 20
447.32662953371317
 30
0.0
 40
65.000000999999997
 50
0.0
 51
180.000010000001
  0
ARC
  5
8748
  8
0
 62
     0
 10
894.63508382965119
 20
436.32662853371318
 30
0.0
 40
99.500004000000004
 50
8.4654901000032581
 51
171.53449999999989
  0
ARC
  5
8749
  8
0
 62
     0
 10
604.77715284542649
 20
349.86601053371322
 30
0.0
 40
8.0000000999999994
 50
179.999989999999
 51
252.54239000001269
  0
ARC
  5
874A
  8
0
 62
     0
 10
961.45666982965122
 20
503.14823553371292
 30
0.0
 40
16.000000499999999
 50
17.079463000014648
 51
72.920534000004864
  0
ARC
  5
874B
  8
0
 62
     0
 10
974.63507582965133
 20
357.32662653371352
 30
0.0
 40
15.000000299999989
 50
179.999989999999
 51
270.0
  0
ARC
  5
874C
  8
0
 62
     0
 10
894.63508382965119
 20
398.06388753371323
 30
0.0
 40
77.000000999999997
 50
327.58160000001192
 51
0.0
  0
ARC
  5
874D
  8
0
 62
     0
 10
828.16701782965106
 20
502.79468553371311
 30
0.0
 40
16.000000499999999
 50
107.0794600000025
 51
162.92053000001161
  0
ARC
  5
874E
  8
0
 62
     0
 10
565.77715284542614
 20
324.32661153371339
 30
0.0
 40
2.00000007
 50
0.0
 51
90.000002999984659
  0
ARC
  5
874F
  8
0
 62
     0
 10
963.6350778296511
 20
496.42031553371311
 30
0.0
 40
8.0000000999999994
 50
0.0
 51
41.053351000015923
  0
ARC
  5
8750
  8
0
 62
     0
 10
825.63506582965113
 20
496.42031553371311
 30
0.0
 40
8.0000000999999994
 50
138.94665000000339
 51
180.000010000001
  0
ARC
  5
8751
  8
0
 62
     0
 10
592.77715284542649
 20
508.32662553371313
 30
0.0
 40
4.000000199999997
 50
0.0
 51
90.000002999984659
  0
CIRCLE
  5
8752
  8
0
 62
     0
 10
894.63508382965119
 20
464.3266005337133
 30
0.0
 40
29.000001000000001
  0
ARC
  5
8753
  8
0
 62
     0
 10
475.4620628454262
 20
345.6456420261834
 30
0.0
 40
5.0000000999999976
 50
15.764915886639329
 51
87.999999999996405
  0
ARC
  5
8754
  8
0
 62
     0
 10
482.77717284542632
 20
533.54603553371305
 30
0.0
 40
2.00000007
 50
91.999997999994051
 51
109.0653999999879
  0
ARC
  5
8755
  8
0
 62
     0
 10
482.77717284542632
 20
533.54603553371305
 30
0.0
 40
2.00000007
 50
109.0653999999879
 51
180.000010000001
  0
ARC
  5
8756
  8
0
 62
     0
 10
475.77718284542578
 20
526.68833602618304
 30
0.0
 40
5.0000000999999976
 50
272.00000000000358
 51
0.0
  0
POLYLINE
  5
8757
  8
0
 62
     0
 66
     1
 10
0.0
 20
0.0
 30
0.0
  0
VERTEX
  5
8758
  8
0
 62
     0
 10
518.54638284542625
 20
491.79893553371312
 30
0.0
 42
0.038759412
  0
VERTEX
  5
8759
  8
0
 62
     0
 10
521.29420284542584
 20
494.70980553371339
 30
0.0
 42
0.04530642
  0
VERTEX
  5
875A
  8
0
 62
     0
 10
523.51639284542614
 20
498.03752553371311
 30
0.0
 42
0.052171517
  0
VERTEX
  5
875B
  8
0
 62
     0
 10
525.05308284542616
 20
501.73532553371439
 30
0.0
 42
0.057266797
  0
VERTEX
  5
875C
  8
0
 62
     0
 10
525.74734284542649
 20
505.67408553371348
 30
0.0
 42
0.058402473
  0
VERTEX
  5
875D
  8
0
 62
     0
 10
525.51658284542566
 20
509.66228553371332
 30
0.0
 42
0.055045428
  0
VERTEX
  5
875E
  8
0
 62
     0
 10
524.39107284542592
 20
513.49745553371315
 30
0.0
 42
0.048778207
  0
VERTEX
  5
875F
  8
0
 62
     0
 10
522.49819284542582
 20
517.01795553371312
 30
0.0
 42
0.041944178
  0
VERTEX
  5
8760
  8
0
 62
     0
 10
520.00069284542644
 20
520.14098553371343
 30
0.0
 42
0.035908203
  0
VERTEX
  5
8761
  8
0
 62
     0
 10
517.04809284542637
 20
522.8417655337131
 30
0.0
 42
0.031063143
  0
VERTEX
  5
8762
  8
0
 62
     0
 10
513.76141284542575
 20
525.12572553371331
 30
0.0
 42
0.027381807
  0
VERTEX
  5
8763
  8
0
 62
     0
 10
510.22948284542628
 20
527.01284553371318
 30
0.0
 42
0.024647351
  0
VERTEX
  5
8764
  8
0
 62
     0
 10
506.52046284542581
 20
528.52397553371213
 30
0.0
 42
0.022677519
  0
VERTEX
  5
8765
  8
0
 62
     0
 10
502.685082845426
 20
529.67864553371339
 30
0.0
 42
0.021321472
  0
VERTEX
  5
8766
  8
0
 62
     0
 10
498.76267284542598
 20
530.4924555337135
 30
0.0
 42
0.020471059
  0
VERTEX
  5
8767
  8
0
 62
     0
 10
494.78578284542579
 20
530.97653553371299
 30
0.0
 42
0.020088491
  0
VERTEX
  5
8768
  8
0
 62
     0
 10
490.7771528454262
 20
531.13745553371348
 30
0.0
  0
SEQEND
  5
8769
  8
0
 62
     0
  0
POLYLINE
  5
876A
  8
0
 62
     0
 66
     1
 10
0.0
 20
0.0
 30
0.0
  0
VERTEX
  5
876B
  8
0
 62
     0
 10
524.23384284542647
 20
508.9680255337131
 30
0.0
 42
0.046333928
  0
VERTEX
  5
876C
  8
0
 62
     0
 10
522.38203284542612
 20
510.02564553371309
 30
0.0
 42
0.024113287
  0
VERTEX
  5
876D
  8
0
 62
     0
 10
520.40254284542584
 20
510.82550553371311
 30
0.0
 42
0.015482173
  0
VERTEX
  5
876E
  8
0
 62
     0
 10
518.365602845426
 20
511.4701755337133
 30
0.0
 42
0.01117072
  0
VERTEX
  5
876F
  8
0
 62
     0
 10
516.29788284542565
 20
512.00666553371332
 30
0.0
 42
0.0086851636
  0
VERTEX
  5
8770
  8
0
 62
     0
 10
514.21030284542587
 20
512.46134553371314
 30
0.0
 42
0.0071112813
  0
VERTEX
  5
8771
  8
0
 62
     0
 10
512.10862284542588
 20
512.85035553371335
 30
0.0
 42
0.0060487741
  0
VERTEX
  5
8772
  8
0
 62
     0
 10
509.99590284542631
 20
513.18437553371314
 30
0.0
 42
0.0052886701
  0
VERTEX
  5
8773
  8
0
 62
     0
 10
507.87853284542598
 20
513.47021553371314
 30
0.0
 42
0.0047450804
  0
VERTEX
  5
8774
  8
0
 62
     0
 10
505.75342284542597
 20
513.7139055337135
 30
0.0
 42
0.004337472
  0
VERTEX
  5
8775
  8
0
 62
     0
 10
503.62372284542579
 20
513.91904553371353
 30
0.0
 42
0.0040309329
  0
VERTEX
  5
8776
  8
0
 62
     0
 10
501.49093284542568
 20
514.0885455337135
 30
0.0
 42
0.0038017188
  0
VERTEX
  5
8777
  8
0
 62
     0
 10
499.35571284542618
 20
514.22465553371342
 30
0.0
 42
0.0036333127
  0
VERTEX
  5
8778
  8
0
 62
     0
 10
497.21863284542599
 20
514.32905553371313
 30
0.0
 42
0.0035147917
  0
VERTEX
  5
8779
  8
0
 62
     0
 10
495.08023284542571
 20
514.4029155337131
 30
0.0
 42
0.0034390753
  0
VERTEX
  5
877A
  8
0
 62
     0
 10
492.9409928454258
 20
514.44704553371332
 30
0.0
 42
0.0034021186
  0
VERTEX
  5
877B
  8
0
 62
     0
 10
490.80130284542582
 20
514.46192553371429
 30
0.0
  0
SEQEND
  5
877C
  8
0
 62
     0
  0
LINE
  5
877D
  8
0
  6
AM_ISO08W050
 62
     0
 10
118.3554589968016
 20
436.16149602618327
 30
0.0
 11
486.6496441214457
 21
436.16149602618327
 31
0.0
  0
LINE
  5
877E
  8
0
 62
     0
 10
469.7771828454259
 20
533.16148302618342
 30
0.0
 11
480.77719284542752
 21
533.16148302618342
 31
0.0
  0
LINE
  5
877F
  8
0
 62
     0
 10
469.7771828454259
 20
521.47577679228436
 30
0.0
 11
469.7771828454259
 21
533.16148302618342
 31
0.0
  0
LINE
  5
8780
  8
0
 62
     0
 10
470.777172845427
 20
533.52663373371354
 30
0.0
 11
471.97261284542839
 21
537.98805373371363
 31
0.0
  0
LINE
  5
8781
  8
0
 62
     0
 10
486.2036926850954
 20
535.66690385606944
 30
0.0
 11
485.54110284542708
 21
538.13961373371342
 31
0.0
  0
LINE
  5
8782
  8
0
 62
     0
 10
472.65097284542719
 20
538.68702373371354
 30
0.0
 11
478.7771828454276
 21
540.52665373371212
 31
0.0
  0
LINE
  5
8783
  8
0
 62
     0
 10
478.7771828454276
 20
540.52665373371212
 30
0.0
 11
484.84243284542657
 21
538.84446373371327
 31
0.0
  0
CIRCLE
  5
8784
  8
0
 62
     0
 10
478.7771828454276
 20
550.52661373371359
 30
0.0
 40
9.9999992999999971
  0
ARC
  5
8785
  8
0
 62
     0
 10
478.7771828454276
 20
550.52661373371359
 30
0.0
 40
16.299997799999989
 50
304.10956999998712
 51
235.89041999998801
  0
ARC
  5
8786
  8
0
 62
     0
 10
467.94619284542739
 20
534.55227373371315
 30
0.0
 40
3.0
 50
332.38054627351448
 51
55.861737000009981
  0
ARC
  5
8787
  8
0
 62
     0
 10
472.93855284542718
 20
537.72924373371313
 30
0.0
 40
1.0000000199999941
 50
106.7144199999958
 51
164.99999000001151
  0
ARC
  5
8788
  8
0
 62
     0
 10
484.57522284542728
 20
537.88083373371308
 30
0.0
 40
1.0000000199999941
 50
14.999999999994451
 51
74.498793000027632
  0
ARC
  5
8789
  8
0
 62
     0
 10
489.6081728454281
 20
534.55227373371315
 30
0.0
 40
3.0
 50
124.13826299999
 51
157.73726171935499
  0
LINE
  5
878A
  8
0
 62
     0
 10
891.48507427987136
 20
563.67661123371317
 30
0.0
 11
891.48507427987136
 21
537.52666123371228
 31
0.0
  0
LINE
  5
878B
  8
0
 62
     0
 10
897.78507727987255
 20
563.67661123371317
 30
0.0
 11
897.78507727987255
 21
537.52666123371228
 31
0.0
  0
LINE
  5
878C
  8
0
 62
     0
 10
887.23104020938638
 20
535.75079168951822
 30
0.0
 11
887.83051927987231
 21
537.98809123371313
 31
0.0
  0
LINE
  5
878D
  8
0
 62
     0
 10
902.03911497553327
 20
535.75079253829983
 30
0.0
 11
901.43963527987137
 21
537.98809123371313
 31
0.0
  0
LINE
  5
878E
  8
0
 62
     0
 10
888.50883427987094
 20
538.68700123371354
 30
0.0
 11
891.48507427987136
 21
539.58073123371332
 31
0.0
  0
LINE
  5
878F
  8
0
 62
     0
 10
897.78507727987255
 20
539.58073123371332
 30
0.0
 11
900.76132027987126
 21
538.68700123371354
 31
0.0
  0
ARC
  5
8790
  8
0
 62
     0
 10
894.63508327987245
 20
563.67661123371317
 30
0.0
 40
3.1500002999999981
 50
359.999989999999
 51
179.999989999999
  0
ARC
  5
8791
  8
0
 62
     0
 10
889.48507627987135
 20
537.52666123371228
 30
0.0
 40
2.00000007
 50
307.94188207110602
 51
0.0
  0
ARC
  5
8792
  8
0
 62
     0
 10
899.78507827987119
 20
537.52666123371228
 30
0.0
 40
2.00000007
 50
179.999989999999
 51
232.05809470867109
  0
ARC
  5
8793
  8
0
 62
     0
 10
888.79644727987238
 20
537.72925123371363
 30
0.0
 40
1.0000000199999941
 50
106.7144199999958
 51
164.99999000001151
  0
ARC
  5
8794
  8
0
 62
     0
 10
900.47372227987125
 20
537.72925123371363
 30
0.0
 40
1.0000000199999941
 50
14.999999999994451
 51
73.285573000003723
  0
LINE
  5
8795
  8
0
 62
     0
 10
460.77718284542573
 20
355.66578896358408
 30
0.0
 11
460.77718284542573
 21
436.16149602618327
 31
0.0
  0
LINE
  5
8796
  8
0
 62
     0
 10
460.77718284542573
 20
351.16149602618327
 30
0.0
 11
460.77718284542573
 21
521.16149602618304
 31
0.0
  0
LINE
  5
8797
  8
0
 62
     0
 10
256.77718284542578
 20
362.32402102618317
 30
0.0
 11
258.34901584542581
 21
347.36281002618318
 31
0.0
  0
LINE
  5
8798
  8
0
 62
     0
 10
256.77718284542578
 20
357.33153602618319
 30
0.0
 11
258.33849384542589
 21
343.36094502618317
 31
0.0
  0
LINE
  5
8799
  8
0
 62
     0
 10
256.77718284542578
 20
354.11078002618331
 30
0.0
 11
258.33040184542591
 21
340.83345202618318
 31
0.0
  0
LINE
  5
879A
  8
0
 62
     0
 10
256.73040584542588
 20
352.54119902618328
 30
0.0
 11
258.3209218454258
 21
339.63046502618329
 31
0.0
  0
ARC
  5
879B
  8
0
 62
     0
 10
260.33806884542582
 20
347.57178102618309
 30
0.0
 40
2.0
 50
185.99752600000019
 51
270.0
  0
ARC
  5
879C
  8
0
 62
     0
 10
260.32611984542592
 20
343.58307602618322
 30
0.0
 40
2.0
 50
186.37674199999441
 51
270.0
  0
ARC
  5
879D
  8
0
 62
     0
 10
260.31685584542578
 20
341.06583302618321
 30
0.0
 40
2.0
 50
186.6722939999984
 51
270.0
  0
ARC
  5
879E
  8
0
 62
     0
 10
260.30591584542577
 20
339.87500302618321
 30
0.0
 40
2.0
 50
187.02306899999661
 51
270.0
  0
LINE
  5
879F
  8
0
 62
     0
 10
460.77718284542573
 20
351.16149602618327
 30
0.0
 11
460.77718284542573
 21
521.16149602618304
 31
0.0
  0
LINE
  5
87A0
  8
0
 62
     0
 10
254.2771828454259
 20
433.66149602618299
 30
0.0
 11
254.2771828454259
 21
339.16149602618327
 31
0.0
  0
LINE
  5
87A1
  8
0
 62
     0
 10
391.27718284542578
 20
460.92944502618298
 30
0.0
 11
391.27718284542578
 21
411.393547026183
 31
0.0
  0
LINE
  5
87A2
  8
0
 62
     0
 10
405.73405884542558
 20
485.34649602618282
 30
0.0
 11
405.73405884542558
 21
464.98149602618309
 31
0.0
  0
LINE
  5
87A3
  8
0
 62
     0
 10
421.77718184542579
 20
485.34649602618282
 30
0.0
 11
421.77718184542579
 21
464.98149602618309
 31
0.0
  0
LINE
  5
87A4
  8
0
 62
     0
 10
436.32657784542567
 20
380.1407000261832
 30
0.0
 11
421.77718184542579
 21
380.1407000261832
 31
0.0
  0
LINE
  5
87A5
  8
0
 62
     0
 10
441.27718284542578
 20
391.55305002618331
 30
0.0
 11
421.77718184542579
 21
391.55305002618331
 31
0.0
  0
LINE
  5
87A6
  8
0
 62
     0
 10
406.48257984542579
 20
384.8557900261834
 30
0.0
 11
421.77718284542578
 21
380.1407000261832
 31
0.0
  0
LINE
  5
87A7
  8
0
 62
     0
 10
421.77718284542578
 20
391.55305002618331
 30
0.0
 11
406.74124184542569
 21
391.01229902618331
 31
0.0
  0
ARC
  5
87A8
  8
0
 62
     0
 10
406.77718284542573
 20
390.01294502618327
 30
0.0
 40
1.0
 50
92.059691000003724
 51
180.0
  0
ARC
  5
87A9
  8
0
 62
     0
 10
406.77718284542573
 20
385.8114100261833
 30
0.0
 40
1.0
 50
180.0
 51
252.8662750000021
  0
LINE
  5
87AA
  8
0
 62
     0
 10
421.77718284542578
 20
512.01428302618331
 30
0.0
 11
406.47672384542568
 21
507.19441702618298
 31
0.0
  0
ARC
  5
87AB
  8
0
 62
     0
 10
406.77718284542573
 20
506.24062202618319
 30
0.0
 40
1.0
 50
107.485179
 51
180.0
  0
ARC
  5
87AC
  8
0
 62
     0
 10
406.77718284542573
 20
503.8895570261833
 30
0.0
 40
1.0
 50
180.0
 51
270.0
  0
LINE
  5
87AD
  8
0
 62
     0
 10
406.82573784542581
 20
502.89073602618328
 30
0.0
 11
421.77718284542578
 21
503.61755602618302
 31
0.0
  0
LINE
  5
87AE
  8
0
 62
     0
 10
441.27718284542578
 20
503.61755602618302
 30
0.0
 11
421.77718284542578
 21
503.61755602618302
 31
0.0
  0
LINE
  5
87AF
  8
0
 62
     0
 10
364.7771828454259
 20
534.44798902618322
 30
0.0
 11
452.22436784542572
 21
534.44798902618322
 31
0.0
  0
ARC
  5
87B0
  8
0
 62
     0
 10
276.04142784542591
 20
532.44798902618322
 30
0.0
 40
2.0
 50
90.0
 51
156.1017999999998
  0
ARC
  5
87B1
  8
0
 62
     0
 10
452.22436784542572
 20
532.44798902618322
 30
0.0
 40
2.0
 50
10.000001999999039
 51
90.0
  0
LINE
  5
87B2
  8
0
 62
     0
 10
455.77718284542561
 20
523.81651302618309
 30
0.0
 11
454.19398284542581
 21
532.79528602618313
 31
0.0
  0
LINE
  5
87B3
  8
0
 62
     0
 10
455.51637484542567
 20
523.81651302618309
 30
0.0
 11
455.77718284542561
 21
523.81651302618309
 31
0.0
  0
ARC
  5
87B4
  8
0
 62
     0
 10
261.10839784542588
 20
531.25821502618328
 30
0.0
 40
2.0
 50
90.0
 51
169.999998000001
  0
LINE
  5
87B5
  8
0
 62
     0
 10
256.77718284542578
 20
518.21221202618335
 30
0.0
 11
259.13878284542579
 21
531.60551202618319
 31
0.0
  0
ARC
  5
87B6
  8
0
 62
     0
 10
452.17334884542572
 20
531.25821502618328
 30
0.0
 40
2.0
 50
10.000001999999039
 51
90.0
  0
LINE
  5
87B7
  8
0
 62
     0
 10
455.77718284542561
 20
522.33739502618312
 30
0.0
 11
454.14296384542581
 21
531.60551202618319
 31
0.0
  0
LINE
  5
87B8
  8
0
 62
     0
 10
256.77718284542578
 20
518.21221202618335
 30
0.0
 11
257.34508884542578
 21
518.21221202618335
 31
0.0
  0
LINE
  5
87B9
  8
0
 62
     0
 10
455.24121184542582
 20
522.33739502618312
 30
0.0
 11
455.77718284542561
 21
522.33739502618312
 31
0.0
  0
ARC
  5
87BA
  8
0
 62
     0
 10
452.0874938454258
 20
528.70548102618329
 30
0.0
 40
2.0
 50
10.00000099999875
 51
90.0
  0
ARC
  5
87BB
  8
0
 62
     0
 10
261.22618884542578
 20
528.70548102618329
 30
0.0
 40
2.0
 50
90.0
 51
169.9999990000012
  0
LINE
  5
87BC
  8
0
 62
     0
 10
256.77718284542578
 20
514.9914560261833
 30
0.0
 11
259.25657284542592
 21
529.05277702618321
 31
0.0
  0
ARC
  5
87BD
  8
0
 62
     0
 10
261.40732984542581
 20
524.74029602618305
 30
0.0
 40
2.0
 50
90.0
 51
169.9999999999981
  0
LINE
  5
87BE
  8
0
 62
     0
 10
256.77718284542578
 20
509.99897102618331
 30
0.0
 11
259.43771384542578
 21
525.08759202618296
 31
0.0
  0
ARC
  5
87BF
  8
0
 62
     0
 10
261.68855784542592
 20
519.16286802618333
 30
0.0
 40
2.0
 50
90.0
 51
169.9999999999981
  0
LINE
  5
87C0
  8
0
 62
     0
 10
256.77718284542578
 20
502.82661902618298
 30
0.0
 11
259.71894184542577
 21
519.51016502618313
 31
0.0
  0
ARC
  5
87C1
  8
0
 62
     0
 10
261.78382184542579
 20
513.16220102618331
 30
0.0
 40
2.0
 50
90.0
 51
169.9999990000012
  0
LINE
  5
87C2
  8
0
 62
     0
 10
256.77718284542578
 20
496.28568302618322
 30
0.0
 11
259.81420584542587
 21
513.50949702618311
 31
0.0
  0
LINE
  5
87C3
  8
0
 62
     0
 10
455.64892384542588
 20
520.02514502618305
 30
0.0
 11
454.05710884542577
 21
529.05277702618321
 31
0.0
  0
LINE
  5
87C4
  8
0
 62
     0
 10
256.77718284542578
 20
514.9914560261833
 30
0.0
 11
257.65749284542591
 21
514.9914560261833
 31
0.0
  0
ARC
  5
87C5
  8
0
 62
     0
 10
451.95811584542582
 20
524.74029602618305
 30
0.0
 40
2.0
 50
10.00000000000181
 51
90.0
  0
LINE
  5
87C6
  8
0
 62
     0
 10
454.82037784542581
 20
520.02514502618305
 30
0.0
 11
453.92773184542568
 21
525.08759202618296
 31
0.0
  0
ARC
  5
87C7
  8
0
 62
     0
 10
387.16620084542581
 20
519.16286802618333
 30
0.0
 40
2.0
 50
5.5986530000021189
 51
90.0
  0
ARC
  5
87C8
  8
0
 62
     0
 10
387.16424584542591
 20
513.16220102618331
 30
0.0
 40
2.0
 50
5.4290190000019001
 51
90.0
  0
LINE
  5
87C9
  8
0
 62
     0
 10
457.77718284542578
 20
396.43879002618331
 30
0.0
 11
457.77718284542578
 21
498.22742902618279
 31
0.0
  0
LINE
  5
87CA
  8
0
 62
     0
 10
457.77718284542578
 20
520.02514502618305
 30
0.0
 11
457.77718284542578
 21
524.16149602618316
 31
0.0
  0
LINE
  5
87CB
  8
0
 62
     0
 10
405.73405884542558
 20
509.99897102618331
 30
0.0
 11
421.77718184542579
 21
514.59883302618312
 31
0.0
  0
LINE
  5
87CC
  8
0
 62
     0
 10
390.07409784542591
 20
509.99897102618331
 30
0.0
 11
405.73405884542558
 21
509.99897102618331
 31
0.0
  0
LINE
  5
87CD
  8
0
 62
     0
 10
421.77718184542579
 20
514.59883302618312
 30
0.0
 11
436.47046584542568
 21
514.59883302618312
 31
0.0
  0
INSERT
  5
87CE
  8
0
 62
     0
  2
$6-45
 10
441.27718284542578
 20
510.29475602618311
 30
0.0
 50
90.0
  0
INSERT
  5
87CF
  8
0
 62
     0
  2
$6-45
 10
441.27718284542578
 20
384.25282902618318
 30
0.0
 50
90.0
  0
LINE
  5
87D0
  8
0
 62
     0
 10
222.77718284542581
 20
439.1614960261831
 30
0.0
 11
154.78565084542581
 21
439.1614960261831
 31
0.0
  0
LINE
  5
87D1
  8
0
 62
     0
 10
455.71635284542589
 20
524.16149602618316
 30
0.0
 11
457.77718284542578
 21
524.16149602618316
 31
0.0
  0
LINE
  5
87D2
  8
0
 62
     0
 10
261.40732984542581
 20
526.74029602618305
 30
0.0
 11
451.95811584542582
 21
526.74029602618305
 31
0.0
  0
LINE
  5
87D3
  8
0
 62
     0
 10
261.22618884542578
 20
530.70548102618295
 30
0.0
 11
452.0874938454258
 21
530.70548102618295
 31
0.0
  0
LINE
  5
87D4
  8
0
 62
     0
 10
261.10839784542588
 20
533.25821502618305
 30
0.0
 11
452.17334884542572
 21
533.25821502618305
 31
0.0
  0
LINE
  5
87D5
  8
0
 62
     0
 10
254.2771828454259
 20
529.66149602618304
 30
0.0
 11
258.79600084542579
 21
529.66149602618304
 31
0.0
  0
LINE
  5
87D6
  8
0
 62
     0
 10
276.04142784542591
 20
534.44798902618322
 30
0.0
 11
342.77718284542578
 21
534.44798902618322
 31
0.0
  0
LINE
  5
87D7
  8
0
 62
     0
 10
421.77718184542579
 20
493.32149602618318
 30
0.0
 11
421.77718184542579
 21
487.97649602618282
 31
0.0
  0
LINE
  5
87D8
  8
0
 62
     0
 10
405.73405884542558
 20
493.32149602618318
 30
0.0
 11
405.73405884542558
 21
487.97649602618282
 31
0.0
  0
LINE
  5
87D9
  8
0
 62
     0
 10
421.77718184542579
 20
503.61755602618302
 30
0.0
 11
421.77718184542579
 21
496.02149602618329
 31
0.0
  0
LINE
  5
87DA
  8
0
 62
     0
 10
421.77718184542579
 20
512.01428302618331
 30
0.0
 11
435.87718884542568
 21
512.01428302618331
 31
0.0
  0
LINE
  5
87DB
  8
0
 62
     0
 10
256.77718284542578
 20
496.28568302618322
 30
0.0
 11
390.77718284542578
 21
496.28568302618322
 31
0.0
  0
LINE
  5
87DC
  8
0
 62
     0
 10
390.09955584542593
 20
502.82661902618298
 30
0.0
 11
390.77718284542578
 21
502.82661902618298
 31
0.0
  0
LINE
  5
87DD
  8
0
 62
     0
 10
261.78382184542579
 20
515.16220102618308
 30
0.0
 11
387.16424584542591
 21
515.16220102618308
 31
0.0
  0
LINE
  5
87DE
  8
0
 62
     0
 10
256.77718284542578
 20
502.82661902618298
 30
0.0
 11
257.93052584542579
 21
502.82661902618298
 31
0.0
  0
LINE
  5
87DF
  8
0
 62
     0
 10
261.68855784542592
 20
521.16286802618333
 30
0.0
 11
387.16620084542581
 21
521.16286802618333
 31
0.0
  0
LINE
  5
87E0
  8
0
 62
     0
 10
457.77718284542578
 20
498.22742902618279
 30
0.0
 11
460.77718284542573
 21
496.49537802618329
 31
0.0
  0
ARC
  5
87E1
  8
0
 62
     0
 10
440.27718284542573
 20
499.22742902618302
 30
0.0
 40
1.0
 50
270.0
 51
0.0
  0
ARC
  5
87E2
  8
0
 62
     0
 10
443.27718284542561
 20
518.02514502618328
 30
0.0
 40
2.0
 50
90.0
 51
180.0
  0
ARC
  5
87E3
  8
0
 62
     0
 10
443.27718284542561
 20
513.90114002618304
 30
0.0
 40
2.0
 50
180.0
 51
270.0
  0
ARC
  5
87E4
  8
0
 62
     0
 10
443.27718284542561
 20
509.90114002618282
 30
0.0
 40
2.0
 50
90.0
 51
180.0
  0
LINE
  5
87E5
  8
0
 62
     0
 10
443.27718284542561
 20
520.02514502618305
 30
0.0
 11
460.77718284542573
 21
520.02514502618305
 31
0.0
  0
LINE
  5
87E6
  8
0
 62
     0
 10
441.27718284542578
 20
498.22742902618279
 30
0.0
 11
457.77718284542578
 21
498.22742902618279
 31
0.0
  0
LINE
  5
87E7
  8
0
 62
     0
 10
443.27718284542561
 20
511.90114002618321
 30
0.0
 11
460.77718284542573
 21
511.90114002618321
 31
0.0
  0
LINE
  5
87E8
  8
0
 62
     0
 10
441.27718284542578
 20
499.22742902618302
 30
0.0
 11
441.27718284542578
 21
518.02514502618328
 31
0.0
  0
LINE
  5
87E9
  8
0
 62
     0
 10
256.77718284542578
 20
352.16149602618327
 30
0.0
 11
254.2771828454257
 21
352.16149602618327
 31
0.0
  0
LINE
  5
87EA
  8
0
 62
     0
 10
256.77718284542578
 20
401.8027070261831
 30
0.0
 11
261.38455884542577
 21
395.37110102618328
 31
0.0
  0
LINE
  5
87EB
  8
0
 62
     0
 10
261.38455884542577
 20
395.37110102618328
 30
0.0
 11
262.24035884542582
 21
397.99802102618332
 31
0.0
  0
LINE
  5
87EC
  8
0
 62
     0
 10
256.77718284542578
 20
401.8027070261831
 30
0.0
 11
262.24035884542582
 21
397.99802102618332
 31
0.0
  0
LINE
  5
87ED
  8
0
 62
     0
 10
262.24035884542582
 20
397.99802102618332
 30
0.0
 11
263.45228884542581
 21
397.4420610261833
 31
0.0
  0
LINE
  5
87EE
  8
0
 62
     0
 10
254.2771828454257
 20
395.37110102618328
 30
0.0
 11
261.38455884542577
 21
395.37110102618328
 31
0.0
  0
LINE
  5
87EF
  8
0
 62
     0
 10
254.2771828454257
 20
401.8027070261831
 30
0.0
 11
256.77718284542578
 21
401.8027070261831
 31
0.0
  0
LINE
  5
87F0
  8
0
 62
     0
 10
256.77718284542578
 20
379.22932102618319
 30
0.0
 11
256.77718284542578
 21
376.03642702618328
 31
0.0
  0
LINE
  5
87F1
  8
0
 62
     0
 10
258.53718284542578
 20
378.66088702618327
 30
0.0
 11
258.53718284542578
 21
376.66210502618333
 31
0.0
  0
LINE
  5
87F2
  8
0
 62
     0
 10
273.53718284542578
 20
387.66149602618327
 30
0.0
 11
273.53718284542578
 21
385.66210502618333
 31
0.0
  0
LINE
  5
87F3
  8
0
 62
     0
 10
271.77718284542578
 20
388.12303802618328
 30
0.0
 11
271.77718284542578
 21
385.05530302618331
 31
0.0
  0
LINE
  5
87F4
  8
0
 62
     0
 10
271.77718284542578
 20
388.12303802618328
 30
0.0
 11
353.77718284542578
 21
388.12303802618328
 31
0.0
  0
LINE
  5
87F5
  8
0
 62
     0
 10
271.77718284542578
 20
385.05530302618331
 30
0.0
 11
353.77718284542578
 21
385.05530302618331
 31
0.0
  0
LINE
  5
87F6
  8
0
 62
     0
 10
256.77718284542578
 20
376.03642702618328
 30
0.0
 11
353.77718284542578
 21
376.03642702618328
 31
0.0
  0
LINE
  5
87F7
  8
0
 62
     0
 10
256.77718284542578
 20
379.22932102618319
 30
0.0
 11
353.77718284542578
 21
379.22932102618319
 31
0.0
  0
LINE
  5
87F8
  8
0
 62
     0
 10
258.53718284542578
 20
378.66088702618327
 30
0.0
 11
353.77718284542578
 21
378.66088702618327
 31
0.0
  0
LINE
  5
87F9
  8
0
 62
     0
 10
258.53718284542578
 20
376.66210502618333
 30
0.0
 11
353.77718284542578
 21
376.66210502618333
 31
0.0
  0
LINE
  5
87FA
  8
0
 62
     0
 10
258.53718284542578
 20
378.66088702618327
 30
0.0
 11
256.77718284542578
 21
379.22932102618319
 31
0.0
  0
LINE
  5
87FB
  8
0
 62
     0
 10
258.53718284542578
 20
376.66210502618333
 30
0.0
 11
256.77718284542578
 21
376.03642702618328
 31
0.0
  0
LINE
  5
87FC
  8
0
 62
     0
 10
261.72044884542578
 20
385.40341702618332
 30
0.0
 11
262.90153984542587
 21
385.16600802618331
 31
0.0
  0
LINE
  5
87FD
  8
0
 62
     0
 10
273.53718284542578
 20
387.66149602618327
 30
0.0
 11
353.77718284542578
 21
387.66149602618327
 31
0.0
  0
LINE
  5
87FE
  8
0
 62
     0
 10
273.53718284542578
 20
385.66210502618333
 30
0.0
 11
353.77718284542578
 21
385.66210502618333
 31
0.0
  0
LINE
  5
87FF
  8
0
 62
     0
 10
273.53718284542578
 20
387.66149602618327
 30
0.0
 11
271.77718284542578
 21
388.12303802618328
 31
0.0
  0
LINE
  5
8800
  8
0
 62
     0
 10
273.53718284542578
 20
385.66210502618333
 30
0.0
 11
271.77718284542578
 21
385.05530302618331
 31
0.0
  0
LINE
  5
8801
  8
0
 62
     0
 10
390.77718284542578
 20
388.12303802618328
 30
0.0
 11
353.77718284542578
 21
388.12303802618328
 31
0.0
  0
LINE
  5
8802
  8
0
 62
     0
 10
390.77718284542578
 20
385.05530302618331
 30
0.0
 11
353.77718284542578
 21
385.05530302618331
 31
0.0
  0
LINE
  5
8803
  8
0
 62
     0
 10
389.01718284542579
 20
387.66149602618327
 30
0.0
 11
353.77718284542578
 21
387.66149602618327
 31
0.0
  0
LINE
  5
8804
  8
0
 62
     0
 10
389.01718284542579
 20
385.66210502618333
 30
0.0
 11
353.77718284542578
 21
385.66210502618333
 31
0.0
  0
LINE
  5
8805
  8
0
 62
     0
 10
389.01718284542579
 20
385.66210502618333
 30
0.0
 11
390.77718284542578
 21
385.05530302618331
 31
0.0
  0
LINE
  5
8806
  8
0
 62
     0
 10
389.01718284542579
 20
387.66149602618327
 30
0.0
 11
390.77718284542578
 21
388.12303802618328
 31
0.0
  0
LINE
  5
8807
  8
0
 62
     0
 10
390.77718284542578
 20
388.12303802618328
 30
0.0
 11
390.77718284542578
 21
385.05530302618331
 31
0.0
  0
LINE
  5
8808
  8
0
 62
     0
 10
389.01718284542579
 20
387.66149602618327
 30
0.0
 11
389.01718284542579
 21
385.66210502618333
 31
0.0
  0
LINE
  5
8809
  8
0
 62
     0
 10
390.77718284542578
 20
379.22932102618319
 30
0.0
 11
353.77718284542578
 21
379.22932102618319
 31
0.0
  0
LINE
  5
880A
  8
0
 62
     0
 10
389.01718284542579
 20
378.66088702618327
 30
0.0
 11
353.77718284542578
 21
378.66088702618327
 31
0.0
  0
LINE
  5
880B
  8
0
 62
     0
 10
389.01718284542579
 20
376.66210502618333
 30
0.0
 11
353.77718284542578
 21
376.66210502618333
 31
0.0
  0
LINE
  5
880C
  8
0
 62
     0
 10
389.01718284542579
 20
376.66210502618333
 30
0.0
 11
390.77718284542578
 21
376.03642702618328
 31
0.0
  0
LINE
  5
880D
  8
0
 62
     0
 10
389.01718284542579
 20
378.66088702618327
 30
0.0
 11
390.77718284542578
 21
379.22932102618319
 31
0.0
  0
LINE
  5
880E
  8
0
 62
     0
 10
389.01718284542579
 20
378.66088702618327
 30
0.0
 11
389.01718284542579
 21
376.66210502618333
 31
0.0
  0
LINE
  5
880F
  8
0
 62
     0
 10
390.77718284542578
 20
379.22932102618319
 30
0.0
 11
390.77718284542578
 21
376.03642702618328
 31
0.0
  0
LINE
  5
8810
  8
0
 62
     0
 10
256.77718284542578
 20
376.03642702618328
 30
0.0
 11
258.36992484542588
 21
358.73724002618331
 31
0.0
  0
LINE
  5
8811
  8
0
 62
     0
 10
256.77718284542578
 20
369.49637302618328
 30
0.0
 11
257.37932784542591
 21
369.49637302618328
 31
0.0
  0
LINE
  5
8812
  8
0
 62
     0
 10
256.77718284542578
 20
362.3240210261834
 30
0.0
 11
257.45995984542577
 21
362.3240210261834
 31
0.0
  0
LINE
  5
8813
  8
0
 62
     0
 10
256.77718284542578
 20
357.33153602618319
 30
0.0
 11
257.3016958454258
 21
357.33153602618319
 31
0.0
  0
LINE
  5
8814
  8
0
 62
     0
 10
256.77718284542578
 20
354.11078002618331
 30
0.0
 11
257.13712484542589
 21
354.11078002618331
 31
0.0
  0
LINE
  5
8815
  8
0
 62
     0
 10
256.73040584542588
 20
352.54119902618328
 30
0.0
 11
256.96079684542582
 21
352.54119902618328
 31
0.0
  0
LINE
  5
8816
  8
0
 62
     0
 10
256.77718284542578
 20
369.49637302618328
 30
0.0
 11
258.36483484542578
 21
352.81859902618328
 31
0.0
  0
LINE
  5
8817
  8
0
 62
     0
 10
256.77718284542578
 20
362.3240210261834
 30
0.0
 11
258.34901584542581
 21
347.3628100261833
 31
0.0
  0
LINE
  5
8818
  8
0
 62
     0
 10
256.77718284542578
 20
357.33153602618319
 30
0.0
 11
258.33849384542589
 21
343.3609450261834
 31
0.0
  0
LINE
  5
8819
  8
0
 62
     0
 10
256.77718284542578
 20
354.11078002618331
 30
0.0
 11
258.33040184542591
 21
340.83345202618329
 31
0.0
  0
LINE
  5
881A
  8
0
 62
     0
 10
256.73040584542588
 20
352.54119902618328
 30
0.0
 11
258.3209218454258
 21
339.63046502618329
 31
0.0
  0
ARC
  5
881B
  8
0
 62
     0
 10
260.36150084542578
 20
358.92060502618318
 30
0.0
 40
2.0
 50
185.2604109999981
 51
270.0
  0
ARC
  5
881C
  8
0
 62
     0
 10
260.35583284542588
 20
353.0081340261832
 30
0.0
 40
2.0
 50
185.4379219999999
 51
270.0
  0
ARC
  5
881D
  8
0
 62
     0
 10
260.33806884542582
 20
347.57178102618332
 30
0.0
 40
2.0
 50
185.99752600000019
 51
270.0
  0
ARC
  5
881E
  8
0
 62
     0
 10
260.32611984542592
 20
343.58307602618328
 30
0.0
 40
2.0
 50
186.376742000001
 51
270.0
  0
ARC
  5
881F
  8
0
 62
     0
 10
260.31685584542578
 20
341.06583302618333
 30
0.0
 40
2.0
 50
186.6722939999984
 51
270.0
  0
ARC
  5
8820
  8
0
 62
     0
 10
260.30591584542577
 20
339.87500302618332
 30
0.0
 40
2.0
 50
187.02306899999991
 51
270.0
  0
LINE
  5
8821
  8
0
 62
     0
 10
263.45228884542581
 20
397.4420610261833
 30
0.0
 11
263.45228884542581
 21
385.05530302618331
 31
0.0
  0
LINE
  5
8822
  8
0
 62
     0
 10
261.38455884542577
 20
395.37110102618328
 30
0.0
 11
261.38455884542577
 21
385.47093402618339
 31
0.0
  0
LINE
  5
8823
  8
0
 62
     0
 10
254.2771828454259
 20
385.05530302618331
 30
0.0
 11
263.45228884542581
 21
385.05530302618331
 31
0.0
  0
LINE
  5
8824
  8
0
 62
     0
 10
254.2771828454257
 20
385.47093402618339
 30
0.0
 11
261.38455884542577
 21
385.47093402618339
 31
0.0
  0
LINE
  5
8825
  8
0
 62
     0
 10
455.77718284542561
 20
451.34149602618299
 30
0.0
 11
454.01718284542579
 21
451.89149602618329
 31
0.0
  0
LINE
  5
8826
  8
0
 62
     0
 10
455.77718284542561
 20
453.98149602618298
 30
0.0
 11
455.77718284542561
 21
451.34149602618299
 31
0.0
  0
LINE
  5
8827
  8
0
 62
     0
 10
454.01718284542579
 20
453.49149602618331
 30
0.0
 11
455.77718284542561
 21
453.98149602618298
 31
0.0
  0
LINE
  5
8828
  8
0
 62
     0
 10
454.01718284542579
 20
453.49149602618331
 30
0.0
 11
454.01718284542579
 21
451.89149602618329
 31
0.0
  0
LINE
  5
8829
  8
0
 62
     0
 10
455.77718284542561
 20
440.34149602618328
 30
0.0
 11
454.01718284542579
 21
440.89149602618318
 31
0.0
  0
LINE
  5
882A
  8
0
 62
     0
 10
455.77718284542561
 20
442.98149602618332
 30
0.0
 11
455.77718284542561
 21
440.34149602618328
 31
0.0
  0
LINE
  5
882B
  8
0
 62
     0
 10
454.01718284542579
 20
442.49149602618309
 30
0.0
 11
455.77718284542561
 21
442.98149602618332
 31
0.0
  0
LINE
  5
882C
  8
0
 62
     0
 10
454.01718284542579
 20
442.49149602618309
 30
0.0
 11
454.01718284542579
 21
440.89149602618318
 31
0.0
  0
LINE
  5
882D
  8
0
 62
     0
 10
455.77718284542561
 20
429.34149602618328
 30
0.0
 11
454.01718284542579
 21
429.89149602618278
 31
0.0
  0
LINE
  5
882E
  8
0
 62
     0
 10
455.77718284542561
 20
431.98149602618298
 30
0.0
 11
455.77718284542561
 21
429.34149602618328
 31
0.0
  0
LINE
  5
882F
  8
0
 62
     0
 10
454.01718284542579
 20
431.49149602618331
 30
0.0
 11
455.77718284542561
 21
431.98149602618298
 31
0.0
  0
LINE
  5
8830
  8
0
 62
     0
 10
454.01718284542579
 20
431.49149602618331
 30
0.0
 11
454.01718284542579
 21
429.89149602618278
 31
0.0
  0
LINE
  5
8831
  8
0
 62
     0
 10
455.77718284542561
 20
418.34149602618299
 30
0.0
 11
454.01718284542579
 21
418.89149602618329
 31
0.0
  0
LINE
  5
8832
  8
0
 62
     0
 10
455.77718284542561
 20
420.98149602618298
 30
0.0
 11
455.77718284542561
 21
418.34149602618299
 31
0.0
  0
LINE
  5
8833
  8
0
 62
     0
 10
454.01718284542579
 20
420.49149602618331
 30
0.0
 11
455.77718284542561
 21
420.98149602618298
 31
0.0
  0
LINE
  5
8834
  8
0
 62
     0
 10
454.01718284542579
 20
420.49149602618331
 30
0.0
 11
454.01718284542579
 21
418.89149602618329
 31
0.0
  0
LINE
  5
8835
  8
0
 62
     0
 10
455.18885184542592
 20
349.65221602618328
 30
0.0
 11
454.33189404410172
 21
342.32661153371339
 31
0.0
  0
LINE
  5
8836
  8
0
 62
     0
 10
454.1219658454259
 20
343.3606490261833
 30
0.0
 11
455.17692284542579
 21
352.78763602618329
 31
0.0
  0
LINE
  5
8837
  8
0
 62
     0
 10
454.1490358454256
 20
347.36150502618329
 30
0.0
 11
455.24794784542581
 21
357.75567902618332
 31
0.0
  0
LINE
  5
8838
  8
0
 62
     0
 10
455.29888884542572
 20
364.29229902618329
 30
0.0
 11
454.17360784542581
 21
352.81301502618339
 31
0.0
  0
LINE
  5
8839
  8
0
 62
     0
 10
455.34005584542558
 20
371.70204102618339
 30
0.0
 11
454.10733884542577
 21
358.73138002618327
 31
0.0
  0
LINE
  5
883A
  8
0
 62
     0
 10
455.24897484542589
 20
348.51588802618329
 30
0.0
 11
454.50182655777468
 21
342.32661153371339
 31
0.0
  0
LINE
  5
883B
  8
0
 62
     0
 10
454.01718284542579
 20
409.49149602618309
 30
0.0
 11
454.01718284542579
 21
407.89149602618312
 31
0.0
  0
LINE
  5
883C
  8
0
 62
     0
 10
454.01718284542579
 20
409.49149602618309
 30
0.0
 11
455.77718284542561
 21
409.98149602618332
 31
0.0
  0
LINE
  5
883D
  8
0
 62
     0
 10
455.77718284542561
 20
409.98149602618332
 30
0.0
 11
455.77718284542561
 21
407.34149602618328
 31
0.0
  0
LINE
  5
883E
  8
0
 62
     0
 10
455.77718284542561
 20
407.34149602618328
 30
0.0
 11
454.01718284542579
 21
407.89149602618312
 31
0.0
  0
LINE
  5
883F
  8
0
 62
     0
 10
454.01718284542579
 20
464.49149602618331
 30
0.0
 11
454.01718284542579
 21
462.89149602618301
 31
0.0
  0
LINE
  5
8840
  8
0
 62
     0
 10
454.01718284542579
 20
464.49149602618331
 30
0.0
 11
455.77718284542561
 21
464.98149602618309
 31
0.0
  0
LINE
  5
8841
  8
0
 62
     0
 10
455.77718284542561
 20
464.98149602618309
 30
0.0
 11
455.77718284542561
 21
462.34149602618328
 31
0.0
  0
LINE
  5
8842
  8
0
 62
     0
 10
455.77718284542561
 20
462.34149602618328
 30
0.0
 11
454.01718284542579
 21
462.89149602618301
 31
0.0
  0
LINE
  5
8843
  8
0
 62
     0
 10
405.73405884542558
 20
462.34149602618328
 30
0.0
 11
405.73405884542558
 21
453.98149602618298
 31
0.0
  0
LINE
  5
8844
  8
0
 62
     0
 10
421.77718184542579
 20
462.34149602618328
 30
0.0
 11
421.77718184542579
 21
453.98149602618298
 31
0.0
  0
LINE
  5
8845
  8
0
 62
     0
 10
421.77718184542579
 20
451.34149602618299
 30
0.0
 11
421.77718184542579
 21
442.98149602618332
 31
0.0
  0
LINE
  5
8846
  8
0
 62
     0
 10
405.73405884542558
 20
451.34149602618299
 30
0.0
 11
405.73405884542558
 21
442.98149602618332
 31
0.0
  0
LINE
  5
8847
  8
0
 62
     0
 10
405.73405884542558
 20
440.34149602618328
 30
0.0
 11
405.73405884542558
 21
431.98149602618298
 31
0.0
  0
LINE
  5
8848
  8
0
 62
     0
 10
421.77718184542579
 20
440.34149602618328
 30
0.0
 11
421.77718184542579
 21
431.98149602618298
 31
0.0
  0
LINE
  5
8849
  8
0
 62
     0
 10
421.77718184542579
 20
429.34149602618328
 30
0.0
 11
421.77718184542579
 21
420.98149602618298
 31
0.0
  0
LINE
  5
884A
  8
0
 62
     0
 10
405.73405884542558
 20
429.34149602618328
 30
0.0
 11
405.73405884542558
 21
420.98149602618298
 31
0.0
  0
LINE
  5
884B
  8
0
 62
     0
 10
405.73405884542558
 20
418.34149602618299
 30
0.0
 11
405.73405884542558
 21
409.98149602618332
 31
0.0
  0
LINE
  5
884C
  8
0
 62
     0
 10
421.77718184542579
 20
418.34149602618299
 30
0.0
 11
421.77718184542579
 21
409.98149602618332
 31
0.0
  0
LINE
  5
884D
  8
0
 62
     0
 10
421.77718184542579
 20
407.34149602618328
 30
0.0
 11
421.77718184542579
 21
391.55305002618331
 31
0.0
  0
LINE
  5
884E
  8
0
 62
     0
 10
405.73405884542558
 20
407.34149602618328
 30
0.0
 11
405.73405884542558
 21
376.03642702618328
 31
0.0
  0
LINE
  5
884F
  8
0
 62
     0
 10
455.34005584542558
 20
371.70204102618339
 30
0.0
 11
421.77718184542579
 21
371.70204102618339
 31
0.0
  0
LINE
  5
8850
  8
0
 62
     0
 10
455.29888884542572
 20
364.29229902618329
 30
0.0
 11
454.63584284542571
 21
364.29229902618329
 31
0.0
  0
ARC
  5
8851
  8
0
 62
     0
 10
452.1163108454258
 20
358.92060502618318
 30
0.0
 40
2.0
 50
270.0
 51
354.57098099999808
  0
ARC
  5
8852
  8
0
 62
     0
 10
452.18314884542582
 20
353.0081340261832
 30
0.0
 40
2.0
 50
270.0
 51
354.40134699999788
  0
ARC
  5
8853
  8
0
 62
     0
 10
452.16012084542558
 20
347.57178102618332
 30
0.0
 40
2.0
 50
270.0
 51
353.9648860000006
  0
ARC
  5
8854
  8
0
 62
     0
 10
452.1343728454259
 20
343.58307602618328
 30
0.0
 40
2.0
 50
321.08017904414947
 51
353.61470099999991
  0
LINE
  5
8855
  8
0
 62
     0
 10
455.24794784542581
 20
357.75567902618332
 30
0.0
 11
454.65812284542568
 21
357.75567902618332
 31
0.0
  0
LINE
  5
8856
  8
0
 62
     0
 10
455.17692284542579
 20
352.78763602618329
 30
0.0
 11
454.72270784542582
 21
352.78763602618329
 31
0.0
  0
LINE
  5
8857
  8
0
 62
     0
 10
455.18885184542592
 20
349.65221602618328
 30
0.0
 11
454.8260438454256
 21
349.65221602618328
 31
0.0
  0
LINE
  5
8858
  8
0
 62
     0
 10
455.24897484542589
 20
348.51588802618329
 30
0.0
 11
455.0559228454257
 21
348.51588802618329
 31
0.0
  0
LINE
  5
8859
  8
0
 62
     0
 10
457.77718284542578
 20
396.43879002618331
 30
0.0
 11
441.27718284542578
 21
396.43879002618331
 31
0.0
  0
LINE
  5
885A
  8
0
 62
     0
 10
460.77718284542573
 20
386.25949802618339
 30
0.0
 11
443.27718284542561
 21
386.25949802618339
 31
0.0
  0
LINE
  5
885B
  8
0
 62
     0
 10
460.77718284542573
 20
373.97221702618327
 30
0.0
 11
443.27718284542561
 21
373.97221702618327
 31
0.0
  0
LINE
  5
885C
  8
0
 62
     0
 10
441.27718284542578
 20
395.43879002618331
 30
0.0
 11
441.27718284542578
 21
375.97221702618327
 31
0.0
  0
LINE
  5
885D
  8
0
 62
     0
 10
457.77718284542578
 20
396.43879002618331
 30
0.0
 11
460.77718284542573
 21
398.17084102618333
 31
0.0
  0
ARC
  5
885E
  8
0
 62
     0
 10
443.27718284542561
 20
388.25949802618328
 30
0.0
 40
2.0
 50
180.0
 51
270.0
  0
ARC
  5
885F
  8
0
 62
     0
 10
443.27718284542561
 20
375.97221702618327
 30
0.0
 40
2.0
 50
180.0
 51
270.0
  0
ARC
  5
8860
  8
0
 62
     0
 10
443.27718284542561
 20
384.25949802618339
 30
0.0
 40
2.0
 50
90.0
 51
180.0
  0
LINE
  5
8861
  8
0
 62
     0
 10
421.77718184542579
 20
380.1407000261832
 30
0.0
 11
421.77718184542579
 21
371.70204102618339
 31
0.0
  0
LINE
  5
8862
  8
0
 62
     0
 10
405.73405884542558
 20
376.03642702618328
 30
0.0
 11
421.77718184542579
 21
371.70204102618339
 31
0.0
  0
ARC
  5
8863
  8
0
 62
     0
 10
440.27718284542573
 20
395.43879002618331
 30
0.0
 40
1.0
 50
0.0
 51
90.0
  0
LINE
  5
8864
  8
0
 62
     0
 10
405.73405884542558
 20
376.03642702618328
 30
0.0
 11
353.77718284542578
 21
376.03642702618328
 31
0.0
  0
LINE
  5
8865
  8
0
 62
     0
 10
442.77718284542573
 20
337.87500302618332
 30
0.0
 11
260.30591584542577
 21
337.87500302618332
 31
0.0
  0
LINE
  5
8866
  8
0
 62
     0
 10
442.77718284542601
 20
339.06583302618333
 30
0.0
 11
260.31685584542578
 21
339.06583302618333
 31
0.0
  0
LINE
  5
8867
  8
0
 62
     0
 10
443.22114183526139
 20
341.58307602618339
 30
0.0
 11
260.32611984542592
 21
341.58307602618339
 31
0.0
  0
LINE
  5
8868
  8
0
 62
     0
 10
452.16012084542558
 20
345.57178102618332
 30
0.0
 11
260.33806884542582
 21
345.57178102618332
 31
0.0
  0
LINE
  5
8869
  8
0
 62
     0
 10
452.18314884542582
 20
351.0081340261832
 30
0.0
 11
260.35583284542588
 21
351.0081340261832
 31
0.0
  0
LINE
  5
886A
  8
0
 62
     0
 10
452.1163108454258
 20
356.92060502618318
 30
0.0
 11
260.36150084542578
 21
356.92060502618318
 31
0.0
  0
LINE
  5
886B
  8
0
 62
     0
 10
405.73405884542558
 20
509.99897102618331
 30
0.0
 11
405.73405884542558
 21
496.02149602618329
 31
0.0
  0
LINE
  5
886C
  8
0
 62
     0
 10
421.77718184542579
 20
514.59883302618312
 30
0.0
 11
421.77718184542579
 21
512.01428302618331
 31
0.0
  0
LINE
  5
886D
  8
0
 62
     0
 10
392.27718284542578
 20
464.98149602618309
 30
0.0
 11
455.77718284542561
 21
464.98149602618309
 31
0.0
  0
LINE
  5
886E
  8
0
 62
     0
 10
392.27718284542578
 20
464.49149602618331
 30
0.0
 11
454.01718284542579
 21
464.49149602618331
 31
0.0
  0
LINE
  5
886F
  8
0
 62
     0
 10
392.27718284542578
 20
462.89149602618301
 30
0.0
 11
454.01718284542579
 21
462.89149602618301
 31
0.0
  0
LINE
  5
8870
  8
0
 62
     0
 10
392.27718284542578
 20
462.34149602618328
 30
0.0
 11
455.77718284542561
 21
462.34149602618328
 31
0.0
  0
LINE
  5
8871
  8
0
 62
     0
 10
392.27718284542578
 20
409.98149602618332
 30
0.0
 11
455.77718284542561
 21
409.98149602618332
 31
0.0
  0
LINE
  5
8872
  8
0
 62
     0
 10
392.27718284542578
 20
409.49149602618309
 30
0.0
 11
454.01718284542579
 21
409.49149602618309
 31
0.0
  0
LINE
  5
8873
  8
0
 62
     0
 10
392.27718284542578
 20
407.89149602618312
 30
0.0
 11
454.01718284542579
 21
407.89149602618312
 31
0.0
  0
LINE
  5
8874
  8
0
 62
     0
 10
392.27718284542578
 20
407.34149602618328
 30
0.0
 11
455.77718284542561
 21
407.34149602618328
 31
0.0
  0
LINE
  5
8875
  8
0
 62
     0
 10
392.27718284542578
 20
440.34149602618328
 30
0.0
 11
455.77718284542561
 21
440.34149602618328
 31
0.0
  0
LINE
  5
8876
  8
0
 62
     0
 10
392.27718284542578
 20
440.89149602618318
 30
0.0
 11
454.01718284542579
 21
440.89149602618318
 31
0.0
  0
LINE
  5
8877
  8
0
 62
     0
 10
392.27718284542578
 20
420.98149602618298
 30
0.0
 11
455.77718284542561
 21
420.98149602618298
 31
0.0
  0
LINE
  5
8878
  8
0
 62
     0
 10
392.27718284542578
 20
420.49149602618331
 30
0.0
 11
454.01718284542579
 21
420.49149602618331
 31
0.0
  0
LINE
  5
8879
  8
0
 62
     0
 10
392.27718284542578
 20
418.89149602618329
 30
0.0
 11
454.01718284542579
 21
418.89149602618329
 31
0.0
  0
LINE
  5
887A
  8
0
 62
     0
 10
392.27718284542578
 20
418.34149602618299
 30
0.0
 11
455.77718284542561
 21
418.34149602618299
 31
0.0
  0
LINE
  5
887B
  8
0
 62
     0
 10
392.27718284542578
 20
431.98149602618298
 30
0.0
 11
455.77718284542561
 21
431.98149602618298
 31
0.0
  0
LINE
  5
887C
  8
0
 62
     0
 10
392.27718284542578
 20
431.49149602618331
 30
0.0
 11
454.01718284542579
 21
431.49149602618331
 31
0.0
  0
LINE
  5
887D
  8
0
 62
     0
 10
392.27718284542578
 20
429.89149602618278
 30
0.0
 11
454.01718284542579
 21
429.89149602618278
 31
0.0
  0
LINE
  5
887E
  8
0
 62
     0
 10
392.27718284542578
 20
429.34149602618328
 30
0.0
 11
455.77718284542561
 21
429.34149602618328
 31
0.0
  0
LINE
  5
887F
  8
0
 62
     0
 10
392.27718284542578
 20
453.98149602618298
 30
0.0
 11
455.77718284542561
 21
453.98149602618298
 31
0.0
  0
LINE
  5
8880
  8
0
 62
     0
 10
392.27718284542578
 20
453.49149602618331
 30
0.0
 11
454.01718284542579
 21
453.49149602618331
 31
0.0
  0
LINE
  5
8881
  8
0
 62
     0
 10
392.27718284542578
 20
451.89149602618329
 30
0.0
 11
454.01718284542579
 21
451.89149602618329
 31
0.0
  0
LINE
  5
8882
  8
0
 62
     0
 10
392.27718284542578
 20
451.34149602618299
 30
0.0
 11
455.77718284542561
 21
451.34149602618299
 31
0.0
  0
LINE
  5
8883
  8
0
 62
     0
 10
392.27718284542578
 20
442.98149602618332
 30
0.0
 11
455.77718284542561
 21
442.98149602618332
 31
0.0
  0
LINE
  5
8884
  8
0
 62
     0
 10
392.27718284542578
 20
442.49149602618309
 30
0.0
 11
454.01718284542579
 21
442.49149602618309
 31
0.0
  0
LINE
  5
8885
  8
0
 62
     0
 10
457.77718284542578
 20
348.16149602618327
 30
0.0
 11
457.77718284542578
 21
373.97221702618327
 31
0.0
  0
LINE
  5
8886
  8
0
 62
     0
 10
455.2061938454259
 20
348.16149602618327
 30
0.0
 11
457.77718284542578
 21
348.16149602618327
 31
0.0
  0
LINE
  5
8887
  8
0
 62
     0
 10
455.77718284542561
 20
496.02149602618329
 30
0.0
 11
454.01718284542579
 21
495.46149602618328
 31
0.0
  0
LINE
  5
8888
  8
0
 62
     0
 10
454.01718284542579
 20
493.86149602618309
 30
0.0
 11
455.77718284542561
 21
493.32149602618318
 31
0.0
  0
LINE
  5
8889
  8
0
 62
     0
 10
455.77718284542561
 20
493.32149602618318
 30
0.0
 11
455.77718284542561
 21
496.02149602618329
 31
0.0
  0
LINE
  5
888A
  8
0
 62
     0
 10
454.01718284542579
 20
493.86149602618309
 30
0.0
 11
454.01718284542579
 21
495.46149602618328
 31
0.0
  0
LINE
  5
888B
  8
0
 62
     0
 10
455.77718284542561
 20
487.97649602618282
 30
0.0
 11
454.01718284542579
 21
487.43649602618279
 31
0.0
  0
LINE
  5
888C
  8
0
 62
     0
 10
454.01718284542579
 20
485.83649602618289
 30
0.0
 11
455.77718284542561
 21
485.34649602618282
 31
0.0
  0
LINE
  5
888D
  8
0
 62
     0
 10
454.01718284542579
 20
485.83649602618289
 30
0.0
 11
454.01718284542579
 21
487.43649602618279
 31
0.0
  0
LINE
  5
888E
  8
0
 62
     0
 10
455.77718284542561
 20
485.34649602618282
 30
0.0
 11
455.77718284542561
 21
487.97649602618282
 31
0.0
  0
LINE
  5
888F
  8
0
 62
     0
 10
390.77718284542578
 20
496.28568302618322
 30
0.0
 11
389.15527384542588
 21
513.35142602618305
 31
0.0
  0
LINE
  5
8890
  8
0
 62
     0
 10
390.77718284542578
 20
502.82661902618298
 30
0.0
 11
389.15665984542579
 21
519.3579870261832
 31
0.0
  0
LINE
  5
8891
  8
0
 62
     0
 10
141.8357158454258
 20
501.49346602618323
 30
0.0
 11
146.83681384542581
 21
529.85607602618313
 31
0.0
  0
LINE
  5
8892
  8
0
 62
     0
 10
149.5570288454258
 20
526.72723102618329
 30
0.0
 11
149.5570288454258
 21
437.83938402618298
 31
0.0
  0
ARC
  5
8893
  8
0
 62
     0
 10
150.77605384542579
 20
529.16149602618304
 30
0.0
 40
4.0
 50
90.0
 51
170.00018299999971
  0
LINE
  5
8894
  8
0
 62
     0
 10
141.77718284542581
 20
493.76147202618318
 30
0.0
 11
141.77718284542581
 21
407.45046802618299
 31
0.0
  0
ARC
  5
8895
  8
0
 62
     0
 10
142.77718284542581
 20
498.16149602618327
 30
0.0
 40
3.0
 50
118.787689000001
 51
180.0
  0
LINE
  5
8896
  8
0
 62
     0
 10
139.77718284542581
 20
498.16149602618327
 30
0.0
 11
139.77718284542581
 21
386.30978202618309
 31
0.0
  0
LINE
  5
8897
  8
0
 62
     0
 10
149.5570288454258
 20
425.98087102618319
 30
0.0
 11
150.77605384542579
 21
343.16149602618327
 31
0.0
  0
LINE
  5
8898
  8
0
 62
     0
 10
143.4652018454259
 20
361.58817402618331
 30
0.0
 11
146.83606471095541
 21
342.47121664777558
 31
0.0
  0
ARC
  5
8899
  8
0
 62
     0
 10
150.77605384542579
 20
343.16149602618327
 30
0.0
 40
4.0
 50
189.9372689923992
 51
270.0
  0
ARC
  5
889A
  8
0
 62
     0
 10
140.8509128454258
 20
501.66717202618321
 30
0.0
 40
1.0
 50
298.7879640000001
 51
350.00021400000242
  0
LINE
  5
889B
  8
0
 62
     0
 10
143.83454784542579
 20
429.19751802618322
 30
0.0
 11
136.79051884542579
 21
354.73971502618332
 31
0.0
  0
LINE
  5
889C
  8
0
 62
     0
 10
149.80787684542591
 20
428.63241502618308
 30
0.0
 11
142.7638468454258
 21
354.17461202618318
 31
0.0
  0
ARC
  5
889D
  8
0
 62
     0
 10
154.78565084542581
 20
428.16149602618322
 30
0.0
 40
5.0
 50
90.0
 51
174.59565699999811
  0
ARC
  5
889E
  8
0
 62
     0
 10
154.78565084542581
 20
428.16149602618322
 30
0.0
 40
11.0
 50
90.0
 51
174.59565699999811
  0
ARC
  5
889F
  8
0
 62
     0
 10
139.77718284542581
 20
354.45716302618308
 30
0.0
 40
3.0
 50
174.59565699999811
 51
354.59565699999808
  0
ARC
  5
88A0
  8
0
 62
     0
 10
139.77718284542581
 20
354.45716302618308
 30
0.0
 40
3.799999999999998
 50
220.00000000000011
 51
32.140571999998528
  0
LINE
  5
88A1
  8
0
 62
     0
 10
134.39342984542569
 20
355.81399102618332
 30
0.0
 11
136.80797284542581
 21
352.09330502618332
 31
0.0
  0
LINE
  5
88A2
  8
0
 62
     0
 10
135.01089284542579
 20
356.3321040261834
 30
0.0
 11
137.47904984542581
 21
352.52880002618321
 31
0.0
  0
LINE
  5
88A3
  8
0
 62
     0
 10
135.01089284542579
 20
356.3321040261834
 30
0.0
 11
134.39342984542569
 21
355.81399102618332
 31
0.0
  0
LINE
  5
88A4
  8
0
 62
     0
 10
258.04186184542579
 20
509.99897102618331
 30
0.0
 11
256.77718284542578
 21
509.99897102618331
 31
0.0
  0
LINE
  5
88A5
  8
0
 62
     0
 10
256.77718284542578
 20
496.02149602618329
 30
0.0
 11
258.53718284542578
 21
495.46149602618328
 31
0.0
  0
LINE
  5
88A6
  8
0
 62
     0
 10
258.53718284542578
 20
493.86149602618309
 30
0.0
 11
256.77718284542578
 21
493.32149602618318
 31
0.0
  0
LINE
  5
88A7
  8
0
 62
     0
 10
256.77718284542578
 20
487.97649602618282
 30
0.0
 11
258.53718284542578
 21
487.43649602618279
 31
0.0
  0
LINE
  5
88A8
  8
0
 62
     0
 10
258.53718284542578
 20
485.83649602618289
 30
0.0
 11
256.77718284542578
 21
485.34649602618282
 31
0.0
  0
LINE
  5
88A9
  8
0
 62
     0
 10
256.77718284542578
 20
493.32149602618318
 30
0.0
 11
256.77718284542578
 21
496.02149602618329
 31
0.0
  0
LINE
  5
88AA
  8
0
 62
     0
 10
258.53718284542578
 20
493.86149602618309
 30
0.0
 11
258.53718284542578
 21
495.46149602618328
 31
0.0
  0
LINE
  5
88AB
  8
0
 62
     0
 10
258.53718284542578
 20
485.83649602618289
 30
0.0
 11
258.53718284542578
 21
487.43649602618279
 31
0.0
  0
LINE
  5
88AC
  8
0
 62
     0
 10
256.77718284542578
 20
485.34649602618282
 30
0.0
 11
256.77718284542578
 21
487.97649602618282
 31
0.0
  0
LINE
  5
88AD
  8
0
 62
     0
 10
303.27718284542578
 20
403.6614960261831
 30
0.0
 11
303.27718284542578
 21
468.66149602618327
 31
0.0
  0
LINE
  5
88AE
  8
0
 62
     0
 10
302.77718284542578
 20
464.1614960261831
 30
0.0
 11
302.77718284542578
 21
454.16149602618299
 31
0.0
  0
ARC
  5
88AF
  8
0
 62
     0
 10
303.27772984542582
 20
464.16094902618312
 30
0.0
 40
0.5005470000000001
 50
90.0626249999995
 51
179.93737500000049
  0
ARC
  5
88B0
  8
0
 62
     0
 10
306.77768184542578
 20
468.66099702618328
 30
0.0
 40
3.5004989999999978
 50
90.008164000001173
 51
179.991836000002
  0
LINE
  5
88B1
  8
0
 62
     0
 10
307.6971828454258
 20
470.06149602618291
 30
0.0
 11
375.40718284542578
 21
470.06149602618291
 31
0.0
  0
LINE
  5
88B2
  8
0
 62
     0
 10
307.6971828454258
 20
470.06149602618291
 30
0.0
 11
307.6971828454258
 21
472.15649602618288
 31
0.0
  0
LINE
  5
88B3
  8
0
 62
     0
 10
306.77718284542578
 20
472.16149602618282
 30
0.0
 11
390.2771828454259
 21
472.16149602618282
 31
0.0
  0
LINE
  5
88B4
  8
0
 62
     0
 10
375.40718284542578
 20
470.06149602618291
 30
0.0
 11
385.67718284542582
 21
459.7914960261831
 31
0.0
  0
LINE
  5
88B5
  8
0
 62
     0
 10
377.29718284542582
 20
471.1314960261833
 30
0.0
 11
386.74718284542593
 21
461.68149602618303
 31
0.0
  0
CIRCLE
  5
88B6
  8
0
 62
     0
 10
386.77718284542578
 20
467.16149602618287
 30
0.0
 40
3.5
  0
CIRCLE
  5
88B7
  8
0
 62
     0
 10
386.77718284542578
 20
467.16149602618287
 30
0.0
 40
3.299999999999998
  0
LINE
  5
88B8
  8
0
 62
     0
 10
388.20718284542579
 20
467.83693502618308
 30
0.0
 11
389.78731984542583
 21
467.83693502618308
 31
0.0
  0
LINE
  5
88B9
  8
0
 62
     0
 10
388.20718284542579
 20
466.48605702618329
 30
0.0
 11
389.78731984542583
 21
466.48605702618329
 31
0.0
  0
LINE
  5
88BA
  8
0
 62
     0
 10
383.54704584542583
 20
467.616935026183
 30
0.0
 11
383.54704584542583
 21
466.70605702618332
 31
0.0
  0
ARC
  5
88BB
  8
0
 62
     0
 10
383.76704584542591
 20
466.70605702618332
 30
0.0
 40
0.22
 50
180.0
 51
270.0
  0
LINE
  5
88BC
  8
0
 62
     0
 10
388.20718284542579
 20
466.48605702618329
 30
0.0
 11
387.54718284542582
 21
466.48605702618329
 31
0.0
  0
ARC
  5
88BD
  8
0
 62
     0
 10
388.20718284542579
 20
466.70605702618332
 30
0.0
 40
0.22
 50
270.0
 51
0.0
  0
LINE
  5
88BE
  8
0
 62
     0
 10
387.3271828454258
 20
465.73149602618332
 30
0.0
 11
387.3271828454258
 21
466.26605702618332
 31
0.0
  0
LINE
  5
88BF
  8
0
 62
     0
 10
386.22718284542589
 20
465.73149602618332
 30
0.0
 11
386.22718284542589
 21
466.26605702618332
 31
0.0
  0
LINE
  5
88C0
  8
0
 62
     0
 10
386.00718284542592
 20
466.48605702618329
 30
0.0
 11
385.34718284542589
 21
466.48605702618329
 31
0.0
  0
ARC
  5
88C1
  8
0
 62
     0
 10
385.34718284542589
 20
466.70605702618332
 30
0.0
 40
0.22
 50
180.0
 51
270.0
  0
ARC
  5
88C2
  8
0
 62
     0
 10
387.54718284542582
 20
466.26605702618332
 30
0.0
 40
0.22
 50
90.0
 51
180.0
  0
ARC
  5
88C3
  8
0
 62
     0
 10
386.00718284542592
 20
466.26605702618332
 30
0.0
 40
0.22
 50
0.0
 51
90.0
  0
LINE
  5
88C4
  8
0
 62
     0
 10
386.4471828454258
 20
465.51149602618318
 30
0.0
 11
387.10718284542588
 21
465.51149602618318
 31
0.0
  0
ARC
  5
88C5
  8
0
 62
     0
 10
386.4471828454258
 20
465.73149602618332
 30
0.0
 40
0.22
 50
180.0
 51
270.0
  0
ARC
  5
88C6
  8
0
 62
     0
 10
387.10718284542588
 20
465.73149602618332
 30
0.0
 40
0.22
 50
270.0
 51
0.0
  0
LINE
  5
88C7
  8
0
 62
     0
 10
385.34718284542589
 20
466.48605702618329
 30
0.0
 11
383.76704584542591
 21
466.48605702618329
 31
0.0
  0
LINE
  5
88C8
  8
0
 62
     0
 10
387.54718284542582
 20
467.83693502618308
 30
0.0
 11
388.20718284542579
 21
467.83693502618308
 31
0.0
  0
ARC
  5
88C9
  8
0
 62
     0
 10
388.20718284542579
 20
467.616935026183
 30
0.0
 40
0.22
 50
0.0
 51
90.0
  0
ARC
  5
88CA
  8
0
 62
     0
 10
386.4471828454258
 20
468.59149602618328
 30
0.0
 40
0.22
 50
90.0
 51
180.0
  0
ARC
  5
88CB
  8
0
 62
     0
 10
387.10718284542588
 20
468.59149602618328
 30
0.0
 40
0.22
 50
0.0
 51
90.0
  0
LINE
  5
88CC
  8
0
 62
     0
 10
385.34718284542589
 20
467.83693502618308
 30
0.0
 11
383.76704584542591
 21
467.83693502618308
 31
0.0
  0
ARC
  5
88CD
  8
0
 62
     0
 10
387.54718284542582
 20
468.05693502618328
 30
0.0
 40
0.22
 50
180.0
 51
270.0
  0
ARC
  5
88CE
  8
0
 62
     0
 10
386.00718284542592
 20
468.05693502618328
 30
0.0
 40
0.22
 50
270.0
 51
0.0
  0
LINE
  5
88CF
  8
0
 62
     0
 10
385.34718284542589
 20
467.83693502618308
 30
0.0
 11
386.00718284542592
 21
467.83693502618308
 31
0.0
  0
ARC
  5
88D0
  8
0
 62
     0
 10
385.34718284542589
 20
467.616935026183
 30
0.0
 40
0.22
 50
90.0
 51
180.0
  0
LINE
  5
88D1
  8
0
 62
     0
 10
387.3271828454258
 20
468.59149602618328
 30
0.0
 11
387.3271828454258
 21
468.05693502618328
 31
0.0
  0
LINE
  5
88D2
  8
0
 62
     0
 10
386.22718284542589
 20
468.05693502618328
 30
0.0
 11
386.22718284542589
 21
468.59149602618328
 31
0.0
  0
LINE
  5
88D3
  8
0
 62
     0
 10
386.4471828454258
 20
468.81149602618319
 30
0.0
 11
387.10718284542588
 21
468.81149602618319
 31
0.0
  0
ARC
  5
88D4
  8
0
 62
     0
 10
383.76704584542591
 20
467.616935026183
 30
0.0
 40
0.22
 50
90.0
 51
180.0
  0
LINE
  5
88D5
  8
0
 62
     0
 10
385.12718284542581
 20
466.70605702618332
 30
0.0
 11
385.12718284542581
 21
467.616935026183
 31
0.0
  0
LINE
  5
88D6
  8
0
 62
     0
 10
388.42718284542582
 20
466.70605702618332
 30
0.0
 11
388.42718284542582
 21
467.616935026183
 31
0.0
  0
ARC
  5
88D7
  8
0
 62
     0
 10
374.81513784542591
 20
468.65600802618309
 30
0.0
 40
3.5055079999999998
 50
44.924208999998719
 51
89.803122999998919
  0
LINE
  5
88D8
  8
0
 62
     0
 10
392.27718284542578
 20
470.16149602618322
 30
0.0
 11
392.27718284542578
 21
462.66149602618299
 31
0.0
  0
ARC
  5
88D9
  8
0
 62
     0
 10
389.78731984542583
 20
466.70605702618332
 30
0.0
 40
0.22
 50
270.0
 51
0.0
  0
ARC
  5
88DA
  8
0
 62
     0
 10
389.78731984542583
 20
467.616935026183
 30
0.0
 40
0.22
 50
0.0
 51
90.0
  0
LINE
  5
88DB
  8
0
 62
     0
 10
390.00731984542591
 20
466.70605702618332
 30
0.0
 11
390.00731984542591
 21
467.616935026183
 31
0.0
  0
ARC
  5
88DC
  8
0
 62
     0
 10
390.2771828454259
 20
470.16149602618322
 30
0.0
 40
2.0
 50
0.0
 51
90.0
  0
LINE
  5
88DD
  8
0
 62
     0
 10
385.67718284542582
 20
459.7914960261831
 30
0.0
 11
385.67718284542582
 21
412.53149602618328
 31
0.0
  0
LINE
  5
88DE
  8
0
 62
     0
 10
387.7771828454259
 20
459.21149602618328
 30
0.0
 11
387.7771828454259
 21
413.11149602618309
 31
0.0
  0
ARC
  5
88DF
  8
0
 62
     0
 10
389.77718284542578
 20
458.66149602618299
 30
0.0
 40
2.0
 50
90.0
 51
180.0
  0
ARC
  5
88E0
  8
0
 62
     0
 10
384.27217884542591
 20
459.199652026183
 30
0.0
 40
3.5050239999999979
 50
0.1936059999989261
 51
45.07906200000054
  0
ARC
  5
88E1
  8
0
 62
     0
 10
390.2771828454259
 20
462.66149602618299
 30
0.0
 40
2.0
 50
270.0
 51
0.0
  0
LINE
  5
88E2
  8
0
 62
     0
 10
390.2771828454259
 20
460.66149602618327
 30
0.0
 11
389.77718284542578
 21
460.66149602618327
 31
0.0
  0
ARC
  5
88E3
  8
0
 62
     0
 10
387.76967384542581
 20
441.15398702618302
 30
0.0
 40
0.507564
 50
0.8476510000019549
 51
89.152348999997997
  0
LINE
  5
88E4
  8
0
 62
     0
 10
388.27718284542578
 20
441.1614960261831
 30
0.0
 11
388.27718284542578
 21
431.16149602618327
 31
0.0
  0
ARC
  5
88E5
  8
0
 62
     0
 10
387.77761684542588
 20
431.16106202618317
 30
0.0
 40
0.499566
 50
269.95018499999878
 51
0.0498149999979073
  0
LINE
  5
88E6
  8
0
 62
     0
 10
386.74718284542593
 20
410.63149602618319
 30
0.0
 11
377.29718284542582
 21
401.18149602618308
 31
0.0
  0
LINE
  5
88E7
  8
0
 62
     0
 10
385.67718284542582
 20
412.53149602618328
 30
0.0
 11
375.40718284542578
 21
402.26149602618278
 31
0.0
  0
ARC
  5
88E8
  8
0
 62
     0
 10
389.77718284542578
 20
413.66149602618282
 30
0.0
 40
2.0
 50
180.0
 51
270.0
  0
ARC
  5
88E9
  8
0
 62
     0
 10
384.27392784542587
 20
413.11258602618329
 30
0.0
 40
3.5032559999999981
 50
314.9093960000028
 51
359.98217399999822
  0
LINE
  5
88EA
  8
0
 62
     0
 10
383.54704584542583
 20
405.61693502618289
 30
0.0
 11
383.54704584542583
 21
404.70605702618332
 31
0.0
  0
ARC
  5
88EB
  8
0
 62
     0
 10
387.10718284542588
 20
406.59149602618322
 30
0.0
 40
0.22
 50
0.0
 51
90.0
  0
ARC
  5
88EC
  8
0
 62
     0
 10
386.4471828454258
 20
406.59149602618322
 30
0.0
 40
0.22
 50
90.0
 51
180.0
  0
LINE
  5
88ED
  8
0
 62
     0
 10
386.4471828454258
 20
406.81149602618319
 30
0.0
 11
387.10718284542588
 21
406.81149602618319
 31
0.0
  0
LINE
  5
88EE
  8
0
 62
     0
 10
388.20718284542579
 20
405.83693502618303
 30
0.0
 11
389.78731984542583
 21
405.83693502618303
 31
0.0
  0
ARC
  5
88EF
  8
0
 62
     0
 10
383.76704584542591
 20
405.61693502618289
 30
0.0
 40
0.22
 50
90.0
 51
180.0
  0
ARC
  5
88F0
  8
0
 62
     0
 10
389.78731984542583
 20
405.61693502618289
 30
0.0
 40
0.22
 50
0.0
 51
90.0
  0
ARC
  5
88F1
  8
0
 62
     0
 10
386.00718284542592
 20
406.05693502618323
 30
0.0
 40
0.22
 50
270.0
 51
0.0
  0
ARC
  5
88F2
  8
0
 62
     0
 10
387.54718284542582
 20
406.05693502618323
 30
0.0
 40
0.22
 50
180.0
 51
270.0
  0
LINE
  5
88F3
  8
0
 62
     0
 10
388.20718284542579
 20
405.83693502618303
 30
0.0
 11
387.54718284542582
 21
405.83693502618303
 31
0.0
  0
ARC
  5
88F4
  8
0
 62
     0
 10
385.34718284542589
 20
405.61693502618289
 30
0.0
 40
0.22
 50
90.0
 51
180.0
  0
LINE
  5
88F5
  8
0
 62
     0
 10
385.34718284542589
 20
405.83693502618303
 30
0.0
 11
383.76704584542591
 21
405.83693502618303
 31
0.0
  0
LINE
  5
88F6
  8
0
 62
     0
 10
386.00718284542592
 20
405.83693502618303
 30
0.0
 11
385.34718284542589
 21
405.83693502618303
 31
0.0
  0
ARC
  5
88F7
  8
0
 62
     0
 10
388.20718284542579
 20
405.61693502618289
 30
0.0
 40
0.22
 50
0.0
 51
90.0
  0
LINE
  5
88F8
  8
0
 62
     0
 10
386.22718284542589
 20
406.59149602618322
 30
0.0
 11
386.22718284542589
 21
406.05693502618323
 31
0.0
  0
LINE
  5
88F9
  8
0
 62
     0
 10
387.3271828454258
 20
406.59149602618322
 30
0.0
 11
387.3271828454258
 21
406.05693502618323
 31
0.0
  0
LINE
  5
88FA
  8
0
 62
     0
 10
388.20718284542579
 20
404.48605702618329
 30
0.0
 11
389.78731984542583
 21
404.48605702618329
 31
0.0
  0
ARC
  5
88FB
  8
0
 62
     0
 10
383.76704584542591
 20
404.70605702618332
 30
0.0
 40
0.22
 50
180.0
 51
270.0
  0
LINE
  5
88FC
  8
0
 62
     0
 10
386.22718284542589
 20
404.26605702618332
 30
0.0
 11
386.22718284542589
 21
403.73149602618332
 31
0.0
  0
LINE
  5
88FD
  8
0
 62
     0
 10
387.3271828454258
 20
403.73149602618332
 30
0.0
 11
387.3271828454258
 21
404.26605702618332
 31
0.0
  0
ARC
  5
88FE
  8
0
 62
     0
 10
386.4471828454258
 20
403.73149602618332
 30
0.0
 40
0.22
 50
180.0
 51
270.0
  0
ARC
  5
88FF
  8
0
 62
     0
 10
387.10718284542588
 20
403.73149602618332
 30
0.0
 40
0.22
 50
270.0
 51
0.0
  0
LINE
  5
8900
  8
0
 62
     0
 10
386.4471828454258
 20
403.51149602618312
 30
0.0
 11
387.10718284542588
 21
403.51149602618312
 31
0.0
  0
LINE
  5
8901
  8
0
 62
     0
 10
387.54718284542582
 20
404.48605702618329
 30
0.0
 11
388.20718284542579
 21
404.48605702618329
 31
0.0
  0
ARC
  5
8902
  8
0
 62
     0
 10
385.34718284542589
 20
404.70605702618332
 30
0.0
 40
0.22
 50
180.0
 51
270.0
  0
LINE
  5
8903
  8
0
 62
     0
 10
385.34718284542589
 20
404.48605702618329
 30
0.0
 11
383.76704584542591
 21
404.48605702618329
 31
0.0
  0
LINE
  5
8904
  8
0
 62
     0
 10
385.34718284542589
 20
404.48605702618329
 30
0.0
 11
386.00718284542592
 21
404.48605702618329
 31
0.0
  0
ARC
  5
8905
  8
0
 62
     0
 10
388.20718284542579
 20
404.70605702618332
 30
0.0
 40
0.22
 50
270.0
 51
0.0
  0
ARC
  5
8906
  8
0
 62
     0
 10
386.00718284542592
 20
404.26605702618332
 30
0.0
 40
0.22
 50
0.0
 51
90.0
  0
ARC
  5
8907
  8
0
 62
     0
 10
387.54718284542582
 20
404.26605702618332
 30
0.0
 40
0.22
 50
90.0
 51
180.0
  0
ARC
  5
8908
  8
0
 62
     0
 10
389.78731984542583
 20
404.70605702618332
 30
0.0
 40
0.22
 50
270.0
 51
0.0
  0
LINE
  5
8909
  8
0
 62
     0
 10
388.42718284542582
 20
405.61693502618289
 30
0.0
 11
388.42718284542582
 21
404.70605702618332
 31
0.0
  0
LINE
  5
890A
  8
0
 62
     0
 10
390.00731984542591
 20
405.61693502618289
 30
0.0
 11
390.00731984542591
 21
404.70605702618332
 31
0.0
  0
LINE
  5
890B
  8
0
 62
     0
 10
385.12718284542581
 20
405.61693502618289
 30
0.0
 11
385.12718284542581
 21
404.70605702618332
 31
0.0
  0
CIRCLE
  5
890C
  8
0
 62
     0
 10
386.77718284542578
 20
405.16149602618282
 30
0.0
 40
3.299999999999998
  0
CIRCLE
  5
890D
  8
0
 62
     0
 10
386.77718284542578
 20
405.16149602618282
 30
0.0
 40
3.5
  0
ARC
  5
890E
  8
0
 62
     0
 10
390.2771828454259
 20
409.66149602618282
 30
0.0
 40
2.0
 50
0.0
 51
90.0
  0
LINE
  5
890F
  8
0
 62
     0
 10
392.27718284542578
 20
402.16149602618327
 30
0.0
 11
392.27718284542578
 21
409.66149602618282
 31
0.0
  0
LINE
  5
8910
  8
0
 62
     0
 10
390.2771828454259
 20
411.66149602618322
 30
0.0
 11
389.77718284542578
 21
411.66149602618322
 31
0.0
  0
ARC
  5
8911
  8
0
 62
     0
 10
390.2771828454259
 20
402.16149602618327
 30
0.0
 40
2.0
 50
270.0
 51
0.0
  0
LINE
  5
8912
  8
0
 62
     0
 10
375.40718284542578
 20
402.26149602618278
 30
0.0
 11
307.6971828454258
 21
402.26149602618278
 31
0.0
  0
LINE
  5
8913
  8
0
 62
     0
 10
306.77718284542578
 20
400.16149602618299
 30
0.0
 11
390.2771828454259
 21
400.16149602618299
 31
0.0
  0
ARC
  5
8914
  8
0
 62
     0
 10
374.82924284542582
 20
403.657144026183
 30
0.0
 40
3.495648999999998
 50
269.96623299999862
 51
314.91065800000371
  0
LINE
  5
8915
  8
0
 62
     0
 10
307.6971828454258
 20
402.26149602618278
 30
0.0
 11
307.6971828454258
 21
400.16149602618299
 31
0.0
  0
LINE
  5
8916
  8
0
 62
     0
 10
302.77718284542578
 20
418.1614960261827
 30
0.0
 11
302.77718284542578
 21
408.1614960261831
 31
0.0
  0
ARC
  5
8917
  8
0
 62
     0
 10
303.27772984542582
 20
418.16094902618312
 30
0.0
 40
0.5005470000000001
 50
90.0626249999995
 51
179.93737500000049
  0
ARC
  5
8918
  8
0
 62
     0
 10
303.26982684542588
 20
408.15414002618309
 30
0.0
 40
0.492699
 50
179.1445600000005
 51
270.85544000000289
  0
ARC
  5
8919
  8
0
 62
     0
 10
306.76982684542588
 20
403.65414002618297
 30
0.0
 40
3.4926519999999979
 50
179.87932800000161
 51
270.12067199999842
  0
ARC
  5
891A
  8
0
 62
     0
 10
303.26967484542581
 20
454.15398802618279
 30
0.0
 40
0.492549
 50
179.12656199999941
 51
270.87343799999729
  0
LINE
  5
891B
  8
0
 62
     0
 10
256.77718284542578
 20
474.88093102618302
 30
0.0
 11
389.27718284542578
 21
474.88093102618302
 31
0.0
  0
LINE
  5
891C
  8
0
 62
     0
 10
265.14718284542579
 20
474.0291580261831
 30
0.0
 11
314.7771828454259
 21
474.0291580261831
 31
0.0
  0
LINE
  5
891D
  8
0
 62
     0
 10
256.77718284542578
 20
474.88093102618302
 30
0.0
 11
265.14718284542579
 21
474.0291580261831
 31
0.0
  0
LINE
  5
891E
  8
0
 62
     0
 10
263.45228884542581
 20
397.4420610261833
 30
0.0
 11
389.27718284542578
 21
397.4420610261833
 31
0.0
  0
LINE
  5
891F
  8
0
 62
     0
 10
265.14718284542579
 20
398.29383402618328
 30
0.0
 11
314.7771828454259
 21
398.29383402618328
 31
0.0
  0
LINE
  5
8920
  8
0
 62
     0
 10
256.77718284542578
 20
401.8027070261831
 30
0.0
 11
256.77718284542578
 21
474.88093102618302
 31
0.0
  0
LINE
  5
8921
  8
0
 62
     0
 10
262.24035884542582
 20
397.99802102618332
 30
0.0
 11
265.14718284542579
 21
398.29383402618328
 31
0.0
  0
LINE
  5
8922
  8
0
 62
     0
 10
265.14718284542579
 20
398.29383402618328
 30
0.0
 11
265.14718284542579
 21
474.0291580261831
 31
0.0
  0
ARC
  5
8923
  8
0
 62
     0
 10
389.27718284542578
 20
471.88093102618302
 30
0.0
 40
3.0
 50
0.0
 51
90.0
  0
LINE
  5
8924
  8
0
 62
     0
 10
392.27718284542578
 20
471.88093102618302
 30
0.0
 11
392.27718284542578
 21
400.44206102618301
 31
0.0
  0
ARC
  5
8925
  8
0
 62
     0
 10
389.27718284542578
 20
400.44206102618301
 30
0.0
 40
3.0
 50
270.0
 51
0.0
  0
LINE
  5
8926
  8
0
 62
     0
 10
318.27718284542578
 20
473.66149602618327
 30
0.0
 11
389.27718284542578
 21
473.66149602618327
 31
0.0
  0
LINE
  5
8927
  8
0
 62
     0
 10
315.77718284542578
 20
473.02915802618298
 30
0.0
 11
315.77718284542578
 21
472.16149602618282
 31
0.0
  0
ARC
  5
8928
  8
0
 62
     0
 10
318.27190984542591
 20
471.66676902618298
 30
0.0
 40
1.994734
 50
89.848547999999084
 51
165.63982299999881
  0
ARC
  5
8929
  8
0
 62
     0
 10
314.7771828454259
 20
473.02915802618298
 30
0.0
 40
1.0
 50
0.0
 51
90.0
  0
ARC
  5
892A
  8
0
 62
     0
 10
389.27665084542582
 20
471.66096402618319
 30
0.0
 40
2.0005329999999999
 50
6.9164320000012927
 51
89.984749999998257
  0
ARC
  5
892B
  8
0
 62
     0
 10
314.7771828454259
 20
399.29383402618328
 30
0.0
 40
1.0
 50
270.0
 51
0.0
  0
ARC
  5
892C
  8
0
 62
     0
 10
318.27190984542591
 20
400.65622302618328
 30
0.0
 40
1.994734
 50
194.36017700000119
 51
270.15145200000092
  0
LINE
  5
892D
  8
0
 62
     0
 10
318.27718284542578
 20
398.66149602618327
 30
0.0
 11
389.27718284542578
 21
398.66149602618327
 31
0.0
  0
ARC
  5
892E
  8
0
 62
     0
 10
389.27665084542582
 20
400.66202802618329
 30
0.0
 40
2.0005329999999999
 50
270.01524999999521
 51
353.08356799999871
  0
LINE
  5
892F
  8
0
 62
     0
 10
254.2771828454259
 20
519.78179302618332
 30
0.0
 11
257.05394184542581
 21
519.78179302618332
 31
0.0
  0
LINE
  5
8930
  8
0
  6
AM_ISO08W050
 62
     0
 10
237.7771828454259
 20
446.86089702618318
 30
0.0
 11
237.7771828454259
 21
425.17849602618298
 31
0.0
  0
LINE
  5
8931
  8
0
 62
     0
 10
223.2771828454259
 20
438.66149602618282
 30
0.0
 11
254.2771828454259
 21
438.66149602618282
 31
0.0
  0
ARC
  5
8932
  8
0
 62
     0
 10
237.7771828454259
 20
436.16149602618327
 30
0.0
 40
9.0
 50
16.127619999997879
 51
163.8723909999996
  0
ARC
  5
8933
  8
0
 62
     0
 10
237.7771828454259
 20
436.16149602618327
 30
0.0
 40
5.5
 50
27.03569200000079
 51
152.96430799999919
  0
LINE
  5
8934
  8
0
 62
     0
 10
223.2771828454259
 20
433.66149602618299
 30
0.0
 11
254.2771828454259
 21
433.66149602618299
 31
0.0
  0
ARC
  5
8935
  8
0
 62
     0
 10
237.7771828454259
 20
436.16149602618327
 30
0.0
 40
9.0
 50
196.1276090000004
 51
343.87238000000212
  0
ARC
  5
8936
  8
0
 62
     0
 10
237.7771828454259
 20
436.16149602618327
 30
0.0
 40
5.5
 50
207.03569200000081
 51
332.96430799999882
  0
LINE
  5
8937
  8
0
 62
     0
 10
254.2771828454259
 20
533.16149602618304
 30
0.0
 11
254.2771828454259
 21
438.66149602618282
 31
0.0
  0
LINE
  5
8938
  8
0
 62
     0
 10
223.2771828454259
 20
438.66149602618282
 30
0.0
 11
222.77718284542581
 21
439.1614960261831
 31
0.0
  0
LINE
  5
8939
  8
0
 62
     0
 10
223.2771828454259
 20
433.66149602618299
 30
0.0
 11
222.77718284542581
 21
433.1614960261831
 31
0.0
  0
LINE
  5
893A
  8
0
 62
     0
 10
254.2771828454259
 20
438.66149602618282
 30
0.0
 11
254.77718284542581
 21
439.1614960261831
 31
0.0
  0
LINE
  5
893B
  8
0
 62
     0
 10
254.2771828454259
 20
433.66149602618299
 30
0.0
 11
254.77718284542581
 21
433.1614960261831
 31
0.0
  0
LINE
  5
893C
  8
0
 62
     0
 10
254.77718284542581
 20
439.1614960261831
 30
0.0
 11
256.77718284542578
 21
439.1614960261831
 31
0.0
  0
LINE
  5
893D
  8
0
 62
     0
 10
254.77718284542581
 20
433.1614960261831
 30
0.0
 11
256.77718284542578
 21
433.1614960261831
 31
0.0
  0
LINE
  5
893E
  8
0
 62
     0
 10
256.77718284542578
 20
439.1614960261831
 30
0.0
 11
256.77718284542578
 21
433.1614960261831
 31
0.0
  0
LINE
  5
893F
  8
0
 62
     0
 10
342.77718284542578
 20
537.16149602618304
 30
0.0
 11
364.7771828454259
 21
537.16149602618304
 31
0.0
  0
LINE
  5
8940
  8
0
 62
     0
 10
342.77718284542578
 20
537.16149602618304
 30
0.0
 11
342.77718284542578
 21
533.25821502618305
 31
0.0
  0
LINE
  5
8941
  8
0
 62
     0
 10
364.7771828454259
 20
537.16149602618304
 30
0.0
 11
364.7771828454259
 21
533.25821502618305
 31
0.0
  0
LINE
  5
8942
  8
0
 62
     0
 10
222.77718284542581
 20
433.1614960261831
 30
0.0
 11
154.78565084542581
 21
433.1614960261831
 31
0.0
  0
LINE
  5
8943
  8
0
 62
     0
 10
254.2771828454259
 20
339.16149602618327
 30
0.0
 11
150.77605384542579
 21
339.16149602618327
 31
0.0
  0
LINE
  5
8944
  8
0
 62
     0
 10
254.2771828454259
 20
533.16149602618304
 30
0.0
 11
150.77605384542579
 21
533.16149602618304
 31
0.0
  0
LINE
  5
8945
  8
0
 62
     0
 10
258.53718284542578
 20
493.86149602618309
 30
0.0
 11
454.01718284542579
 21
493.86149602618309
 31
0.0
  0
LINE
  5
8946
  8
0
 62
     0
 10
258.53718284542578
 20
495.46149602618328
 30
0.0
 11
454.01718284542579
 21
495.46149602618328
 31
0.0
  0
LINE
  5
8947
  8
0
 62
     0
 10
256.77718284542578
 20
493.32149602618318
 30
0.0
 11
455.77718284542561
 21
493.32149602618318
 31
0.0
  0
LINE
  5
8948
  8
0
 62
     0
 10
256.77718284542578
 20
496.02149602618329
 30
0.0
 11
455.77718284542561
 21
496.02149602618329
 31
0.0
  0
LINE
  5
8949
  8
0
 62
     0
 10
256.77718284542578
 20
485.34649602618282
 30
0.0
 11
455.77718284542561
 21
485.34649602618282
 31
0.0
  0
LINE
  5
894A
  8
0
 62
     0
 10
256.77718284542578
 20
487.97649602618282
 30
0.0
 11
455.77718284542561
 21
487.97649602618282
 31
0.0
  0
LINE
  5
894B
  8
0
 62
     0
 10
258.53718284542578
 20
485.83649602618289
 30
0.0
 11
454.01718284542579
 21
485.83649602618289
 31
0.0
  0
LINE
  5
894C
  8
0
 62
     0
 10
258.53718284542578
 20
487.43649602618279
 30
0.0
 11
454.01718284542579
 21
487.43649602618279
 31
0.0
  0
LINE
  5
894D
  8
0
 62
     0
 10
460.77718284542573
 20
351.16149602618327
 30
0.0
 11
457.77718284542578
 21
348.16149602618327
 31
0.0
  0
LINE
  5
894E
  8
0
 62
     0
 10
460.77718284542573
 20
351.16149602618327
 30
0.0
 11
460.77718284542573
 21
521.16149602618304
 31
0.0
  0
LINE
  5
894F
  8
0
 62
     0
 10
460.77718284542573
 20
521.16149602618304
 30
0.0
 11
457.77718284542578
 21
524.16149602618316
 31
0.0
  0
LINE
  5
8950
  8
0
 62
     0
 10
315.77718284542578
 20
399.29383402618328
 30
0.0
 11
315.77718284542578
 21
400.16149602618299
 31
0.0
1001
GENIUS_GENOBJ-N-CEN_13
1002
{
1000
OWNER
1000
GEN
1002
}
1001
GENIUS_GENODEF_13
1002
{
1000
HIER
1070
     0
1002
}
1002
{
1000
MANEDIT
1070
     0
1002
}
1002
{
1000
NOSEL
1070
     0
1002
}
1002
{
1000
BEHIND
1070
     0
1002
}
1002
{
1000
OTHER
1070
     0
1002
}
1002
{
1000
REACTOR
1002
}
1001
GENIUS_GENCEN_19
1002
{
1040
11.176
1002
}
  0
LINE
  5
8951
  8
0
 62
     0
 10
792.63508382965119
 20
473.66149602618327
 30
0.0
 11
802.20690999751162
 21
473.99575163200672
 31
0.0
  0
LINE
  5
8952
  8
0
 62
     0
 10
792.63508382965119
 20
473.66149602618327
 30
0.0
 11
792.63508382965119
 21
426.89378183964118
 31
0.0
  0
LINE
  5
8953
  8
0
 62
     0
 10
772.63508382965119
 20
441.66149602618299
 30
0.0
 11
772.63508382965119
 21
472.16149602618282
 31
0.0
  0
LINE
  5
8954
  8
0
 62
     0
 10
768.63509382965105
 20
469.66147602618298
 30
0.0
 11
768.63509382965105
 21
402.66150002618309
 31
0.0
  0
LINE
  5
8955
  8
0
 62
     0
 10
755.63508382965119
 20
400.16149202618323
 30
0.0
 11
755.63508382965119
 21
472.16149602618282
 31
0.0
  0
LINE
  5
8956
  8
0
 62
     0
 10
789.63508382965119
 20
406.73726821752223
 30
0.0
 11
789.63508382965119
 21
469.66147602618298
 31
0.0
  0
LINE
  5
8957
  8
0
 62
     0
 10
789.63508382965119
 20
469.66147602618298
 30
0.0
 11
792.63508382965119
 21
469.66147602618298
 31
0.0
  0
LINE
  5
8958
  8
0
 62
     0
 10
755.63508382965119
 20
469.66147602618298
 30
0.0
 11
768.63509382965105
 21
469.66147602618298
 31
0.0
  0
LINE
  5
8959
  8
0
 62
     0
 10
755.63508382965119
 20
472.16149602618282
 30
0.0
 11
780.63509382965105
 21
472.16149602618282
 31
0.0
  0
LINE
  5
895A
  8
0
 62
     0
 10
780.63509382965105
 20
472.16149602618282
 30
0.0
 11
784.63508382965119
 21
469.66149602618327
 31
0.0
  0
LINE
  5
895B
  8
0
 62
     0
 10
772.63508382965119
 20
469.66147602618298
 30
0.0
 11
789.63508382965119
 21
469.66147602618298
 31
0.0
  0
LINE
  5
895C
  8
0
 62
     0
 10
789.63508382965119
 20
459.79148602618301
 30
0.0
 11
755.63508382965119
 21
459.79148602618301
 31
0.0
  0
LINE
  5
895D
  8
0
 62
     0
 10
755.63508382965119
 20
412.53147602618282
 30
0.0
 11
789.63508382965119
 21
412.53147602618282
 31
0.0
  0
LINE
  5
895E
  8
0
 62
     0
 10
772.63508382965119
 20
402.66150002618309
 30
0.0
 11
789.02846580020173
 21
402.66150002618309
 31
0.0
  0
LINE
  5
895F
  8
0
 62
     0
 10
784.10358382965114
 20
402.32929302618282
 30
0.0
 11
780.63508382965119
 21
400.16148502618279
 31
0.0
  0
LINE
  5
8960
  8
0
 62
     0
 10
777.63509382965105
 20
430.6614960261831
 30
0.0
 11
777.63509382965105
 21
441.66149602618299
 31
0.0
  0
LINE
  5
8961
  8
0
 62
     0
 10
755.63508382965119
 20
402.66150002618309
 30
0.0
 11
768.63509382965105
 21
402.66150002618309
 31
0.0
  0
LINE
  5
8962
  8
0
 62
     0
 10
772.63508382965119
 20
400.16149202618323
 30
0.0
 11
772.63508382965119
 21
430.6614960261831
 31
0.0
  0
LINE
  5
8963
  8
0
 62
     0
 10
768.63509382965105
 20
441.66149602618299
 30
0.0
 11
777.63509382965105
 21
441.66149602618299
 31
0.0
  0
LINE
  5
8964
  8
0
 62
     0
 10
780.63509382965105
 20
400.16149202618323
 30
0.0
 11
755.63508382965119
 21
400.16149202618323
 31
0.0
  0
LINE
  5
8965
  8
0
 62
     0
 10
768.63509382965105
 20
430.6614960261831
 30
0.0
 11
777.63509382965105
 21
430.6614960261831
 31
0.0
  0
LINE
  5
939D
  8
0
  6
AM_ISO08W050
 62
     0
 10
117.0434840951457
 20
742.8131221365918
 30
0.0
 11
673.69001284542605
 21
742.8131221365918
 31
0.0
  0
LINE
  5
939E
  8
0
  6
CONTINUOUS
 62
     0
 10
603.77720284542568
 20
811.81312213659135
 30
0.0
 11
603.77720284542568
 21
850.21381213659197
 31
0.0
  0
LINE
  5
939F
  8
0
  6
CONTINUOUS
 62
     0
 10
490.7771728454257
 20
643.31312213659169
 30
0.0
 11
490.7771728454257
 21
842.31312213659169
 31
0.0
  0
LINE
  5
93A0
  8
0
  6
CONTINUOUS
 62
     0
 10
446.4285428454258
 20
853.40815213659175
 30
0.0
 11
496.77723284542532
 21
857.8131221365918
 31
0.0
  0
LINE
  5
93A1
  8
0
  6
CENTER
 62
     0
 10
460.7771728454257
 20
824.31312213659135
 30
0.0
 11
460.7771728454257
 21
851.3131221365918
 31
0.0
  0
LINE
  5
93A2
  8
0
  6
CONTINUOUS
 62
     0
 10
596.7772028454259
 20
681.70975213659165
 30
0.0
 11
596.7772028454259
 21
803.91651213659156
 31
0.0
  0
LINE
  5
93A3
  8
0
  6
CENTER
 62
     0
 10
585.7772028454259
 20
824.31312213659135
 30
0.0
 11
585.7772028454259
 21
851.3131221365918
 31
0.0
  0
LINE
  5
93A4
  8
0
  6
CENTER
 62
     0
 10
447.27717284542558
 20
837.81312213659169
 30
0.0
 11
474.2771728454257
 21
837.81312213659169
 31
0.0
  0
LINE
  5
93A5
  8
0
  6
CENTER
 62
     0
 10
572.2772028454259
 20
837.81312213659169
 30
0.0
 11
599.27720284542568
 21
837.81312213659169
 31
0.0
  0
LINE
  5
93A6
  8
0
  6
CONTINUOUS
 62
     0
 10
496.77717284542558
 20
857.8131221365918
 30
0.0
 11
599.91679284542556
 21
854.21137213659165
 31
0.0
  0
LINE
  5
93A7
  8
0
  6
CONTINUOUS
 62
     0
 10
482.03871284542612
 20
850.50074213659195
 30
0.0
 11
490.42860284542581
 21
851.23475213659185
 31
0.0
  0
LINE
  5
93A8
  8
0
  6
CONTINUOUS
 62
     0
 10
496.77717284542558
 20
627.81309213659165
 30
0.0
 11
599.91679284542556
 21
631.41480213659156
 31
0.0
  0
LINE
  5
93A9
  8
0
  6
CENTER
 62
     0
 10
572.2772028454259
 20
647.81312213659169
 30
0.0
 11
599.27720284542568
 21
647.81312213659169
 31
0.0
  0
LINE
  5
93AA
  8
0
  6
CENTER
 62
     0
 10
447.27717284542558
 20
647.81312213659169
 30
0.0
 11
474.2771728454257
 21
647.81312213659169
 31
0.0
  0
LINE
  5
93AB
  8
0
  6
CENTER
 62
     0
 10
585.7772028454259
 20
661.31312213659157
 30
0.0
 11
585.7772028454259
 21
634.31312213659169
 31
0.0
  0
LINE
  5
93AC
  8
0
  6
CENTER
 62
     0
 10
460.7771728454257
 20
661.31312213659157
 30
0.0
 11
460.7771728454257
 21
634.31312213659169
 31
0.0
  0
LINE
  5
93AD
  8
0
  6
CONTINUOUS
 62
     0
 10
446.43561852355361
 20
632.21744123415692
 30
0.0
 11
496.77717284542558
 21
627.81312213659157
 31
0.0
  0
LINE
  5
93AE
  8
0
  6
CONTINUOUS
 62
     0
 10
603.77720284542568
 20
673.81312213659157
 30
0.0
 11
603.77720284542568
 21
635.41239213659117
 31
0.0
  0
LINE
  5
93AF
  8
0
  6
CONTINUOUS
 62
     0
 10
665.77717284542575
 20
758.8131221365918
 30
0.0
 11
607.77720284542568
 21
758.8131221365918
 31
0.0
  0
LINE
  5
93B0
  8
0
  6
CONTINUOUS
 62
     0
 10
598.2772028454259
 20
774.98859213659182
 30
0.0
 11
602.27717284542575
 21
772.67921213659156
 31
0.0
  0
LINE
  5
93B1
  8
0
  6
CONTINUOUS
 62
     0
 10
598.2771428454256
 20
710.63773213659181
 30
0.0
 11
602.27714284542571
 21
712.94712213659113
 31
0.0
  0
LINE
  5
93B2
  8
0
  6
CONTINUOUS
 62
     0
 10
603.77717284542575
 20
715.54517213659119
 30
0.0
 11
603.77717284542575
 21
742.8131221365918
 31
0.0
  0
LINE
  5
93B3
  8
0
  6
CONTINUOUS
 62
     0
 10
603.77717284542575
 20
742.8131221365918
 30
0.0
 11
603.77717284542575
 21
770.08106213659119
 31
0.0
  0
LINE
  5
93B4
  8
0
  6
CONTINUOUS
 62
     0
 10
607.77720284542568
 20
760.31312213659169
 30
0.0
 11
603.77717284542575
 21
760.31312213659169
 31
0.0
  0
LINE
  5
93B5
  8
0
  6
CONTINUOUS
 62
     0
 10
665.77717284542575
 20
726.81312213659169
 30
0.0
 11
665.77717284542575
 21
758.8131221365918
 31
0.0
  0
LINE
  5
93B6
  8
0
  6
CONTINUOUS
 62
     0
 10
607.77720284542568
 20
725.3131221365918
 30
0.0
 11
607.77720284542568
 21
760.31312213659169
 31
0.0
  0
LINE
  5
93B7
  8
0
  6
CONTINUOUS
 62
     0
 10
620.77720284542568
 20
737.8131221365918
 30
0.0
 11
620.77720284542568
 21
747.81312213659169
 31
0.0
  0
LINE
  5
93B8
  8
0
  6
CONTINUOUS
 62
     0
 10
665.77717284542575
 20
726.81312213659169
 30
0.0
 11
607.77720284542568
 21
726.81312213659169
 31
0.0
  0
LINE
  5
93B9
  8
0
  6
CONTINUOUS
 62
     0
 10
607.77720284542568
 20
725.3131221365918
 30
0.0
 11
603.77717284542575
 21
725.3131221365918
 31
0.0
  0
LINE
  5
93BA
  8
0
  6
CONTINUOUS
 62
     0
 10
620.77717284542575
 20
737.8131221365918
 30
0.0
 11
665.77717284542575
 21
737.8131221365918
 31
0.0
  0
LINE
  5
93BB
  8
0
  6
CONTINUOUS
 62
     0
 10
620.77717284542575
 20
747.81312213659169
 30
0.0
 11
665.77717284542575
 21
747.81312213659169
 31
0.0
  0
LINE
  5
93BC
  8
0
  6
CONTINUOUS
 62
     0
 10
592.88191284542575
 20
807.91511213659135
 30
0.0
 11
583.02000284542555
 21
808.17335213659169
 31
0.0
  0
LINE
  5
93BD
  8
0
  6
CONTINUOUS
 62
     0
 10
592.88188284542559
 20
677.71113213659191
 30
0.0
 11
583.02000284542555
 21
677.45289213659169
 31
0.0
  0
LINE
  5
93BE
  8
0
  6
CONTINUOUS
 62
     0
 10
575.7772028454259
 20
673.60639213659169
 30
0.0
 11
575.7772028454259
 21
812.01984213659182
 31
0.0
  0
LINE
  5
93BF
  8
0
  6
CONTINUOUS
 62
     0
 10
555.77717284542575
 20
638.15769213659155
 30
0.0
 11
555.77717284542575
 21
653.59952213659119
 31
0.0
  0
LINE
  5
93C0
  8
0
  6
CONTINUOUS
 62
     0
 10
567.98661284542573
 20
820.0171021365918
 30
0.0
 11
567.46309284542565
 21
820.03083213659181
 31
0.0
  0
LINE
  5
93C1
  8
0
  6
CONTINUOUS
 62
     0
 10
567.98661284542573
 20
665.60914213659169
 30
0.0
 11
567.46302284542605
 21
665.59544213659171
 31
0.0
  0
LINE
  5
93C2
  8
0
  6
CONTINUOUS
 62
     0
 10
555.77717284542575
 20
832.02674213659145
 30
0.0
 11
555.77717284542575
 21
847.46857213659166
 31
0.0
  0
LINE
  5
93C3
  8
0
  6
CONTINUOUS
 62
     0
 10
490.7771728454257
 20
643.31312213659169
 30
0.0
 11
494.7771728454257
 21
643.31312213659169
 31
0.0
  0
LINE
  5
93C4
  8
0
  6
CONTINUOUS
 62
     0
 10
490.7771728454257
 20
842.31312213659169
 30
0.0
 11
494.7771728454257
 21
842.31312213659169
 31
0.0
  0
LINE
  5
93C5
  8
0
  6
CONTINUOUS
 62
     0
 10
494.7771728454257
 20
842.31312213659169
 30
0.0
 11
494.7771728454257
 21
852.1815921365918
 31
0.0
  0
LINE
  5
93C6
  8
0
  6
CONTINUOUS
 62
     0
 10
482.03865284542587
 20
635.12550213659176
 30
0.0
 11
490.42860284542581
 21
634.39146213659171
 31
0.0
  0
LINE
  5
93C7
  8
0
  6
CONTINUOUS
 62
     0
 10
494.7771728454257
 20
643.31312213659169
 30
0.0
 11
494.7771728454257
 21
633.44465213659169
 31
0.0
  0
LINE
  5
93C8
  8
0
  6
CONTINUOUS
 62
     0
 10
483.67250284542558
 20
643.56123213659157
 30
0.0
 11
490.77711284542579
 21
643.31312213659169
 31
0.0
  0
LINE
  5
93C9
  8
0
  6
CONTINUOUS
 62
     0
 10
490.7771728454257
 20
648.02293213659175
 30
0.0
 11
480.77717284542558
 21
648.02293213659175
 31
0.0
  0
LINE
  5
93CA
  8
0
  6
CONTINUOUS
 62
     0
 10
490.7771728454257
 20
665.39631213659186
 30
0.0
 11
480.77717284542558
 21
665.39631213659186
 31
0.0
  0
LINE
  5
93CB
  8
0
  6
CONTINUOUS
 62
     0
 10
490.7771728454257
 20
712.5366921365918
 30
0.0
 11
480.77717284542558
 21
712.5366921365918
 31
0.0
  0
LINE
  5
93CC
  8
0
  6
CONTINUOUS
 62
     0
 10
490.7771728454257
 20
773.08955213659158
 30
0.0
 11
480.77717284542558
 21
773.08955213659158
 31
0.0
  0
LINE
  5
93CD
  8
0
  6
CONTINUOUS
 62
     0
 10
490.7771728454257
 20
820.22993213659197
 30
0.0
 11
480.77717284542558
 21
820.22993213659197
 31
0.0
  0
LINE
  5
93CE
  8
0
  6
CONTINUOUS
 62
     0
 10
480.77717284542558
 20
646.55939213659167
 30
0.0
 11
480.77717284542558
 21
730.78786213659191
 31
0.0
  0
LINE
  5
93CF
  8
0
  6
CONTINUOUS
 62
     0
 10
480.77717284542558
 20
754.70436213659195
 30
0.0
 11
480.77717284542558
 21
839.06684213659173
 31
0.0
  0
ARC
  5
93D0
  8
0
 62
     0
 10
475.77717284542558
 20
652.28625566645974
 30
0.0
 40
5.0
 50
0.0
 51
87.999974140733016
1001
GENIUS_GENOBJ-N-FIL_13
1002
{
1000
OWNER
1000
GEN
1002
}
1001
GENIUS_GENODEF_13
1002
{
1000
HIER
1070
     0
1002
}
1002
{
1000
MANEDIT
1070
     0
1002
}
1002
{
1000
NOSEL
1070
     0
1002
}
1002
{
1000
BEHIND
1070
     0
1002
}
1002
{
1000
OTHER
1070
     0
1002
}
1002
{
1000
REACTOR
1002
}
  0
LINE
  5
93D1
  8
0
  6
CONTINUOUS
 62
     0
 10
483.67244284542568
 20
842.0650121365918
 30
0.0
 11
490.77711284542579
 21
842.31312213659169
 31
0.0
  0
LINE
  5
93D2
  8
0
  6
CONTINUOUS
 62
     0
 10
490.7771728454257
 20
837.6032821365917
 30
0.0
 11
480.77717284542558
 21
837.6032821365917
 31
0.0
  0
ARC
  5
93D3
  8
0
  6
CONTINUOUS
 62
     0
 10
599.77720284542568
 20
850.21381213659197
 30
0.0
 40
4.0
 50
0.0
 51
87.999999999996248
  0
ARC
  5
93D4
  8
0
  6
CONTINUOUS
 62
     0
 10
460.7771728454257
 20
837.81312213659169
 30
0.0
 40
7.5
 50
224.4361247245605
 51
158.75188206080179
  0
CIRCLE
  5
93D5
  8
0
  6
CONTINUOUS
 62
     0
 10
585.7772028454259
 20
837.81312213659169
 30
0.0
 40
7.5
  0
ARC
  5
93D6
  8
0
  6
CONTINUOUS
 62
     0
 10
446.77717284542558
 20
849.42341213659165
 30
0.0
 40
4.0
 50
95.00000199999208
 51
180.000010000001
  0
ARC
  5
93D7
  8
0
  6
CONTINUOUS
 62
     0
 10
600.7772028454259
 20
803.87586213659108
 30
0.0
 40
4.0
 50
97.180758000007287
 51
180.000010000001
  0
ARC
  5
93D8
  8
0
  6
CONTINUOUS
 62
     0
 10
599.77720284542568
 20
811.81312213659135
 30
0.0
 40
4.0
 50
277.18075000000363
 51
0.0
  0
ARC
  5
93D9
  8
0
  6
CONTINUOUS
 62
     0
 10
481.7771728454257
 20
853.489332136592
 30
0.0
 40
3.0
 50
95.00000199999208
 51
275.0
  0
ARC
  5
93DA
  8
0
  6
CONTINUOUS
 62
     0
 10
490.7771728454257
 20
847.25001213659175
 30
0.0
 40
4.0
 50
0.0
 51
95.00000199999208
  0
ARC
  5
93DB
  8
0
  6
CONTINUOUS
 62
     0
 10
599.77720284542568
 20
673.81312213659157
 30
0.0
 40
4.0
 50
0.0
 51
82.819246999996963
  0
ARC
  5
93DC
  8
0
  6
CONTINUOUS
 62
     0
 10
600.7772028454259
 20
681.7503721365913
 30
0.0
 40
4.0
 50
180.000010000001
 51
262.81924999999637
  0
CIRCLE
  5
93DD
  8
0
  6
CONTINUOUS
 62
     0
 10
585.7772028454259
 20
647.81312213659169
 30
0.0
 40
7.5
  0
ARC
  5
93DE
  8
0
  6
CONTINUOUS
 62
     0
 10
461.00594343587221
 20
648.10629492646422
 30
0.0
 40
7.6500256972343426
 50
167.10800546465671
 51
111.68858928288221
  0
ARC
  5
93DF
  8
0
  6
CONTINUOUS
 62
     0
 10
599.77720284542568
 20
635.41239213659117
 30
0.0
 40
4.0
 50
272.00000000000369
 51
0.0
  0
ARC
  5
93E0
  8
0
  6
CONTINUOUS
 62
     0
 10
600.77717284542575
 20
715.54517213659119
 30
0.0
 40
3.0
 50
300.00001000000651
 51
0.0
  0
ARC
  5
93E1
  8
0
  6
CONTINUOUS
 62
     0
 10
600.77717284542575
 20
770.08106213659119
 30
0.0
 40
3.0
 50
0.0
 51
60.000002000001302
  0
ARC
  5
93E2
  8
0
  6
CONTINUOUS
 62
     0
 10
599.77720284542568
 20
777.58662213659181
 30
0.0
 40
3.0
 50
179.999989999999
 51
240.0000100000085
  0
ARC
  5
93E3
  8
0
  6
CONTINUOUS
 62
     0
 10
599.77720284542568
 20
708.03962213659167
 30
0.0
 40
3.0
 50
120.0000000000005
 51
180.000010000001
  0
ARC
  5
93E4
  8
0
  6
CONTINUOUS
 62
     0
 10
620.77717284542575
 20
742.8131221365918
 30
0.0
 40
4.9999924
 50
90.00000299999769
 51
270.0
  0
ARC
  5
93E5
  8
0
  6
CONTINUOUS
 62
     0
 10
592.7772028454259
 20
681.70975213659165
 30
0.0
 40
4.0
 50
271.50000000000267
 51
0.0
  0
ARC
  5
93E6
  8
0
  6
CONTINUOUS
 62
     0
 10
592.7772028454259
 20
803.91651213659156
 30
0.0
 40
4.0
 50
0.0
 51
88.499997000000647
  0
ARC
  5
93E7
  8
0
  6
CONTINUOUS
 62
     0
 10
567.7772028454259
 20
812.01984213659182
 30
0.0
 40
8.0
 50
0.0
 51
88.499997000000647
  0
ARC
  5
93E8
  8
0
  6
CONTINUOUS
 62
     0
 10
567.7772028454259
 20
673.60639213659169
 30
0.0
 40
8.0
 50
271.50000000000267
 51
0.0
  0
ARC
  5
93E9
  8
0
  6
CONTINUOUS
 62
     0
 10
583.22941284542571
 20
669.4556321365917
 30
0.0
 40
8.0
 50
91.500001000001546
 51
164.96420000000299
  0
ARC
  5
93EA
  8
0
  6
CONTINUOUS
 62
     0
 10
583.22941284542571
 20
816.1706021365917
 30
0.0
 40
8.0
 50
195.0357999999969
 51
268.49999999999733
  0
ARC
  5
93EB
  8
0
  6
CONTINUOUS
 62
     0
 10
567.77717284542575
 20
832.02674213659145
 30
0.0
 40
12.0
 50
180.000010000001
 51
268.49999999999733
  0
ARC
  5
93EC
  8
0
  6
CONTINUOUS
 62
     0
 10
567.77717284542575
 20
653.59952213659119
 30
0.0
 40
12.0
 50
91.500001000001546
 51
180.000010000001
  0
ARC
  5
93ED
  8
0
  6
CONTINUOUS
 62
     0
 10
563.77717284542575
 20
847.46857213659166
 30
0.0
 40
8.0
 50
87.999999999996248
 51
180.000010000001
  0
ARC
  5
93EE
  8
0
  6
CONTINUOUS
 62
     0
 10
563.77717284542575
 20
638.15769213659155
 30
0.0
 40
8.0
 50
180.000010000001
 51
271.99999000000793
  0
ARC
  5
93EF
  8
0
  6
CONTINUOUS
 62
     0
 10
490.7771728454257
 20
638.37623213659174
 30
0.0
 40
4.0
 50
265.00001000000037
 51
0.0000006832429909
  0
ARC
  5
93F0
  8
0
  6
CONTINUOUS
 62
     0
 10
481.7771728454257
 20
632.13691213659172
 30
0.0
 40
3.0
 50
85.000003999997674
 51
264.99999999999989
  0
ARC
  5
93F1
  8
0
  6
CONTINUOUS
 62
     0
 10
489.7771728454257
 20
852.1815921365918
 30
0.0
 40
5.0
 50
0.0
 51
95.00000199999208
  0
ARC
  5
93F2
  8
0
  6
CONTINUOUS
 62
     0
 10
489.7771728454257
 20
633.44465213659169
 30
0.0
 40
5.0
 50
265.00001000000037
 51
0.0000006832429909
  0
ARC
  5
93F3
  8
0
  6
CONTINUOUS
 62
     0
 10
483.77717284542558
 20
646.55939213659167
 30
0.0
 40
3.0
 50
180.000010000001
 51
267.99999999999619
  0
ARC
  5
93F4
  8
0
  6
CONTINUOUS
 62
     0
 10
483.77717284542558
 20
839.06684213659173
 30
0.0
 40
3.0
 50
91.999997999994051
 51
180.000010000001
  0
POLYLINE
  5
93F5
  8
0
  6
CONTINUOUS
 62
     0
 66
     1
 10
0.0
 20
0.0
 30
0.0
  0
VERTEX
  5
93F6
  8
0
  6
CONTINUOUS
 62
     0
 10
490.7771728454257
 20
712.5366921365918
 30
0.0
 42
-0.07005559
  0
VERTEX
  5
93F7
  8
0
  6
CONTINUOUS
 62
     0
 10
517.13783284542581
 20
692.33935213659117
 30
0.0
 42
-0.27110578
  0
VERTEX
  5
93F8
  8
0
  6
CONTINUOUS
 62
     0
 10
525.77717284542575
 20
672.45600213659168
 30
0.0
 42
-0.21303172
  0
VERTEX
  5
93F9
  8
0
  6
CONTINUOUS
 62
     0
 10
506.18673284542569
 20
654.32119213659178
 30
0.0
  0
VERTEX
  5
93FA
  8
0
  6
CONTINUOUS
 62
     0
 10
490.7771728454257
 20
648.02293213659175
 30
0.0
 42
-1.0
  0
SEQEND
  5
93FB
  8
0
 62
     0
  0
POLYLINE
  5
93FC
  8
0
  6
CONTINUOUS
 62
     0
 66
     1
 10
0.0
 20
0.0
 30
0.0
  0
VERTEX
  5
93FD
  8
0
  6
CONTINUOUS
 62
     0
 10
490.7771728454257
 20
665.39631213659186
 30
0.0
 42
0.040443759
  0
VERTEX
  5
93FE
  8
0
  6
CONTINUOUS
 62
     0
 10
502.30535284542532
 20
665.61968213659168
 30
0.0
 42
0.042469384
  0
VERTEX
  5
93FF
  8
0
  6
CONTINUOUS
 62
     0
 10
513.63904284542582
 20
667.7331921365917
 30
0.0
 42
0.022671411
  0
VERTEX
  5
9400
  8
0
  6
CONTINUOUS
 62
     0
 10
519.12353284542598
 20
669.52413213659167
 30
0.0
  0
VERTEX
  5
9401
  8
0
  6
CONTINUOUS
 62
     0
 10
524.42915284542585
 20
671.79297213659117
 30
0.0
 42
-1.0
  0
SEQEND
  5
9402
  8
0
 62
     0
  0
POLYLINE
  5
9403
  8
0
  6
CONTINUOUS
 62
     0
 66
     1
 10
0.0
 20
0.0
 30
0.0
  0
VERTEX
  5
9404
  8
0
  6
CONTINUOUS
 62
     0
 10
490.7771728454257
 20
820.22993213659197
 30
0.0
 42
-0.040443759
  0
VERTEX
  5
9405
  8
0
  6
CONTINUOUS
 62
     0
 10
502.30535284542532
 20
820.00656213659192
 30
0.0
 42
-0.042469384
  0
VERTEX
  5
9406
  8
0
  6
CONTINUOUS
 62
     0
 10
513.63904284542582
 20
817.8930421365917
 30
0.0
 42
-0.022671411
  0
VERTEX
  5
9407
  8
0
  6
CONTINUOUS
 62
     0
 10
519.12353284542598
 20
816.10210213659116
 30
0.0
  0
VERTEX
  5
9408
  8
0
  6
CONTINUOUS
 62
     0
 10
524.42915284542585
 20
813.83327213659106
 30
0.0
 42
-1.0
  0
SEQEND
  5
9409
  8
0
 62
     0
  0
POLYLINE
  5
940A
  8
0
  6
CONTINUOUS
 62
     0
 66
     1
 10
0.0
 20
0.0
 30
0.0
  0
VERTEX
  5
940B
  8
0
  6
CONTINUOUS
 62
     0
 10
490.7771728454257
 20
773.08955213659158
 30
0.0
 42
0.070055609
  0
VERTEX
  5
940C
  8
0
  6
CONTINUOUS
 62
     0
 10
517.13783284542581
 20
793.28689213659175
 30
0.0
 42
0.27110581
  0
VERTEX
  5
940D
  8
0
  6
CONTINUOUS
 62
     0
 10
525.77717284542575
 20
813.17023213659172
 30
0.0
 42
0.21303143
  0
VERTEX
  5
940E
  8
0
  6
CONTINUOUS
 62
     0
 10
506.18673284542569
 20
831.30507213659109
 30
0.0
  0
VERTEX
  5
940F
  8
0
  6
CONTINUOUS
 62
     0
 10
490.7771728454257
 20
837.60334213659144
 30
0.0
 42
-1.0
  0
SEQEND
  5
9410
  8
0
 62
     0
  0
LINE
  5
9411
  8
0
 62
     0
 10
460.77716284542657
 20
657.81312213659157
 30
0.0
 11
460.77716284542657
 21
827.81312213659169
 31
0.0
  0
LINE
  5
9412
  8
0
 62
     0
 10
460.7771028454253
 20
747.84327413659184
 30
0.0
 11
460.7771028454253
 21
750.79096613659181
 31
0.0
  0
LINE
  5
9413
  8
0
 62
     0
 10
460.7771028454253
 20
757.8427501365918
 30
0.0
 11
460.7771028454253
 21
760.80422913659197
 31
0.0
  0
LINE
  5
9414
  8
0
 62
     0
 10
460.7771028454253
 20
768.83493013659165
 30
0.0
 11
460.7771028454253
 21
771.82755713659117
 31
0.0
  0
LINE
  5
9415
  8
0
 62
     0
 10
460.7771028454253
 20
779.81772513659189
 30
0.0
 11
460.7771028454253
 21
782.86343113659188
 31
0.0
  0
LINE
  5
9416
  8
0
 62
     0
 10
460.7771028454253
 20
790.78760413659165
 30
0.0
 11
460.7771028454253
 21
793.91851713659184
 31
0.0
  0
LINE
  5
9417
  8
0
 62
     0
 10
460.7771028454253
 20
799.74608013659167
 30
0.0
 11
460.7771028454253
 21
802.99039013659171
 31
0.0
  0
LINE
  5
9418
  8
0
 62
     0
 10
460.7771028454253
 20
705.80851913659183
 30
0.0
 11
460.7771028454253
 21
702.76281313659183
 31
0.0
  0
LINE
  5
9419
  8
0
 62
     0
 10
460.7771028454253
 20
716.79131413659184
 30
0.0
 11
460.7771028454253
 21
713.79868713659175
 31
0.0
  0
LINE
  5
941A
  8
0
 62
     0
 10
460.7771028454253
 20
727.7834941365918
 30
0.0
 11
460.7771028454253
 21
724.82201513659106
 31
0.0
  0
LINE
  5
941B
  8
0
 62
     0
 10
460.7771028454253
 20
737.78297013659164
 30
0.0
 11
460.7771028454253
 21
734.83527813659168
 31
0.0
  0
ARC
  5
941C
  8
0
  6
CONTINUOUS
 62
     0
 10
446.77717284542558
 20
636.20283213659172
 30
0.0
 40
4.0
 50
179.999989999999
 51
265.10162987005282
  0
LINE
  5
941D
  8
0
 62
     0
 10
442.77717284542558
 20
849.42341143845977
 30
0.0
 11
442.77717284542558
 21
841.31312213659169
 31
0.0
  0
LINE
  5
941E
  8
0
 62
     0
 10
442.77717284542558
 20
636.20283283472361
 30
0.0
 11
442.77717284542558
 21
649.81312213659157
 31
0.0
  0
LINE
  5
941F
  8
0
 62
     0
 10
460.77716284542657
 20
657.81312213659157
 30
0.0
 11
475.9516725842106
 21
657.2832097227988
 31
0.0
  0
LINE
  5
9420
  8
0
  6
CENTER
 62
     0
 10
478.77717284542581
 20
752.17286213659179
 30
0.0
 11
478.77717284542581
 21
733.45338213659193
 31
0.0
  0
LINE
  5
9421
  8
0
  6
CONTINUOUS
 62
     0
 10
465.62715284542588
 20
739.5960821365918
 30
0.0
 11
491.92714284542529
 21
739.5960821365918
 31
0.0
  0
LINE
  5
9422
  8
0
  6
CONTINUOUS
 62
     0
 10
465.62715284542588
 20
745.89613213659197
 30
0.0
 11
491.92714284542529
 21
745.89613213659197
 31
0.0
  0
ARC
  5
9423
  8
0
  6
CONTINUOUS
 62
     0
 10
477.7771728454257
 20
754.70436213659195
 30
0.0
 40
3.0
 50
274.78019999998969
 51
0.0
  0
ARC
  5
9424
  8
0
  6
CONTINUOUS
 62
     0
 10
477.7771728454257
 20
730.78786213659191
 30
0.0
 40
3.0
 50
0.0
 51
85.219806000004908
  0
ARC
  5
9425
  8
0
  6
CONTINUOUS
 62
     0
 10
478.77717284542581
 20
742.74611213659193
 30
0.0
 40
9.0
 50
94.780192000005314
 51
159.51269999999991
  0
ARC
  5
9426
  8
0
  6
CONTINUOUS
 62
     0
 10
478.77717284542581
 20
742.74611213659193
 30
0.0
 40
8.0
 50
23.18801900001051
 51
156.811979999995
  0
ARC
  5
9427
  8
0
  6
CONTINUOUS
 62
     0
 10
465.62715284542588
 20
742.74611213659193
 30
0.0
 40
3.1499977000000001
 50
90.000002999984659
 51
270.0
  0
ARC
  5
9428
  8
0
  6
CONTINUOUS
 62
     0
 10
491.92714284542529
 20
742.74611213659193
 30
0.0
 40
3.1499977000000001
 50
270.0
 51
90.000002999984659
  0
ARC
  5
9429
  8
0
  6
CONTINUOUS
 62
     0
 10
478.77717284542581
 20
742.74611213659193
 30
0.0
 40
8.0
 50
203.188020000005
 51
336.81196999999543
  0
ARC
  5
942A
  8
0
  6
CONTINUOUS
 62
     0
 10
478.77717284542581
 20
742.74611213659193
 30
0.0
 40
9.0
 50
200.48730000000009
 51
265.2198000000102
  0
ARC
  5
942B
  8
0
 10
261.72074684542571
 20
660.41244213659161
 30
0.0
 40
2.0
 50
189.99999999999861
 51
270.0
  0
LINE
  5
942C
  8
0
 10
259.75113184542539
 20
660.06514613659169
 30
0.0
 11
256.77710284542547
 21
676.93170013659176
 31
0.0
  0
LINE
  5
942D
  8
0
 10
256.77710284542547
 20
676.93170013659176
 30
0.0
 11
257.83884184542552
 21
676.93170013659176
 31
0.0
  0
LINE
  5
942E
  8
0
 10
455.24124384542557
 20
828.98542913659185
 30
0.0
 11
455.7771028454253
 21
828.98542913659185
 31
0.0
  0
LINE
  5
942F
  8
0
 10
455.50163484542531
 20
830.54768613659166
 30
0.0
 11
455.7771028454253
 21
830.54768613659166
 31
0.0
  0
LINE
  5
9430
  8
0
 10
457.45530184542531
 20
654.81327313659165
 30
0.0
 11
457.77710284542547
 21
654.81327313659165
 31
0.0
  0
LINE
  5
9431
  8
0
 10
453.59770784542559
 20
659.66113613659161
 30
0.0
 11
455.7771028454253
 21
659.66113613659161
 31
0.0
  0
LINE
  5
9432
  8
0
 10
454.60379084542529
 20
671.76670613659155
 30
0.0
 11
455.7771028454253
 21
671.76670613659155
 31
0.0
  0
LINE
  5
9433
  8
0
 10
353.77710284542547
 20
635.15715713659165
 30
0.0
 11
353.77710284542547
 21
644.33887313659159
 31
0.0
  0
ARC
  5
9434
  8
0
 10
452.01998284542549
 20
831.82137013659178
 30
0.0
 40
2.0
 50
9.9999999999986073
 51
90.0
  0
ARC
  5
9435
  8
0
 10
452.08599984542548
 20
835.36216913659166
 30
0.0
 40
2.0
 50
9.9999999999986073
 51
90.0
  0
ARC
  5
9436
  8
0
 10
452.17191784542541
 20
837.91390613659166
 30
0.0
 40
2.0
 50
9.9999999999986073
 51
90.0
  0
ARC
  5
9437
  8
0
 10
452.2006668454253
 20
839.31312213659169
 30
0.0
 40
2.0
 50
9.9999999999986073
 51
90.0
  0
LINE
  5
9438
  8
0
 10
460.77710584542558
 20
827.81312213659169
 30
0.0
 11
457.77710584542552
 21
830.8131221365918
 31
0.0
  0
LINE
  5
9439
  8
0
 10
254.2771028454255
 20
839.81309613659175
 30
0.0
 11
254.2771028454255
 21
645.81312213659169
 31
0.0
  0
LINE
  5
943A
  8
0
 10
455.7302988454253
 20
830.8131221365918
 30
0.0
 11
457.77710284542547
 21
830.8131221365918
 31
0.0
  0
LINE
  5
943B
  8
0
 10
460.7771028454253
 20
657.81312213659157
 30
0.0
 11
457.77710284542547
 21
654.81312213659169
 31
0.0
  0
LINE
  5
943C
  8
0
 10
457.77710284542547
 20
654.81312213659169
 30
0.0
 11
457.77710284542547
 21
680.43350813659174
 31
0.0
  0
LINE
  5
943D
  8
0
 10
460.7771028454253
 20
657.81312213659157
 30
0.0
 11
460.7771028454253
 21
827.81312213659169
 31
0.0
  0
CIRCLE
  5
943E
  8
0
 10
353.77710284542547
 20
742.8131221365918
 30
0.0
 40
11.0
  0
LINE
  5
943F
  8
0
 10
261.0632228454254
 20
841.31312213659169
 30
0.0
 11
312.77710284542547
 21
841.31312213659169
 31
0.0
  0
LINE
  5
9440
  8
0
 10
392.77710284542547
 20
833.8213701365919
 30
0.0
 11
392.77710284542547
 21
839.31312213659169
 31
0.0
  0
LINE
  5
9441
  8
0
 10
314.77710284542547
 20
833.8213701365919
 30
0.0
 11
314.77710284542547
 21
839.31312213659169
 31
0.0
  0
ARC
  5
9442
  8
0
 10
312.77710284542547
 20
839.31312213659169
 30
0.0
 40
2.0
 50
0.0
 51
90.0
  0
ARC
  5
9443
  8
0
 10
394.77710284542547
 20
839.31312213659169
 30
0.0
 40
2.0
 50
90.0
 51
180.0
  0
LINE
  5
9444
  8
0
 10
394.77710284542547
 20
841.31312213659169
 30
0.0
 11
452.2006668454253
 21
841.31312213659169
 31
0.0
  0
LINE
  5
9445
  8
0
 10
452.17191784542541
 20
839.91390613659178
 30
0.0
 11
394.77710284542547
 21
839.91390613659178
 31
0.0
  0
LINE
  5
9446
  8
0
 10
455.7771028454253
 20
828.98542913659185
 30
0.0
 11
454.14153384542527
 21
838.26120213659181
 31
0.0
  0
LINE
  5
9447
  8
0
 10
455.7771028454253
 20
830.54768613659166
 30
0.0
 11
454.17028184542528
 21
839.66041813659172
 31
0.0
  0
LINE
  5
9448
  8
0
 10
256.77710284542547
 20
826.5228681365918
 30
0.0
 11
259.09360784542548
 21
839.66041813659172
 31
0.0
  0
ARC
  5
9449
  8
0
 10
261.0632228454254
 20
839.31312213659169
 30
0.0
 40
2.0
 50
90.0
 51
170.00000000000139
  0
LINE
  5
944A
  8
0
 10
256.77710284542547
 20
824.86380713659184
 30
0.0
 11
259.13942484542542
 21
838.26120213659181
 31
0.0
  0
ARC
  5
944B
  8
0
 10
261.10904084542551
 20
837.91390613659166
 30
0.0
 40
2.0
 50
90.0
 51
170.00000000000139
  0
ARC
  5
944C
  8
0
 10
312.77710284542547
 20
837.91390613659166
 30
0.0
 40
2.0
 50
0.0
 51
90.0
  0
ARC
  5
944D
  8
0
 10
394.77710284542547
 20
837.91390613659166
 30
0.0
 40
2.0
 50
90.0
 51
180.0
  0
LINE
  5
944E
  8
0
 10
312.77710284542547
 20
839.91390613659178
 30
0.0
 11
261.10904084542551
 21
839.91390613659178
 31
0.0
  0
LINE
  5
944F
  8
0
 10
452.08599984542548
 20
837.36216913659166
 30
0.0
 11
394.77710284542547
 21
837.36216913659166
 31
0.0
  0
LINE
  5
9450
  8
0
 10
455.6483228454253
 20
826.67677113659181
 30
0.0
 11
454.05561484542551
 21
835.7094661365918
 31
0.0
  0
LINE
  5
9451
  8
0
 10
256.77710284542547
 20
821.64301613659165
 30
0.0
 11
259.2573978454256
 21
835.7094661365918
 31
0.0
  0
ARC
  5
9452
  8
0
 10
261.22701284542552
 20
835.36216913659166
 30
0.0
 40
2.0
 50
90.0
 51
170.00000000000139
  0
ARC
  5
9453
  8
0
 10
312.77710284542547
 20
835.36216913659166
 30
0.0
 40
2.0
 50
0.0
 51
90.0
  0
ARC
  5
9454
  8
0
 10
394.77710284542547
 20
835.36216913659166
 30
0.0
 40
2.0
 50
90.0
 51
180.0
  0
LINE
  5
9455
  8
0
 10
312.77710284542547
 20
837.36216913659166
 30
0.0
 11
261.22701284542552
 21
837.36216913659166
 31
0.0
  0
LINE
  5
9456
  8
0
 10
452.01998284542549
 20
833.8213701365919
 30
0.0
 11
261.38852184542549
 21
833.8213701365919
 31
0.0
  0
LINE
  5
9457
  8
0
 10
454.95796784542551
 20
826.67677113659181
 30
0.0
 11
453.98959884542541
 21
832.16866613659181
 31
0.0
  0
LINE
  5
9458
  8
0
 10
256.77710284542547
 20
817.18625613659185
 30
0.0
 11
259.4189058454254
 21
832.16866613659181
 31
0.0
  0
ARC
  5
9459
  8
0
 10
261.38852184542549
 20
831.82137013659178
 30
0.0
 40
2.0
 50
90.0
 51
170.00000000000139
  0
LINE
  5
945A
  8
0
 10
385.8334588454253
 20
827.21380213659165
 30
0.0
 11
261.72074684542571
 21
827.21380213659165
 31
0.0
  0
LINE
  5
945B
  8
0
 10
390.77710284542547
 20
808.69454413659184
 30
0.0
 11
387.8030738454255
 21
825.56109813659168
 31
0.0
  0
ARC
  5
945C
  8
0
 10
385.8334588454253
 20
825.21380213659165
 30
0.0
 40
2.0
 50
9.9999999999986073
 51
90.0
  0
LINE
  5
945D
  8
0
 10
256.77710284542547
 20
808.69454413659184
 30
0.0
 11
259.75113184542539
 21
825.56109813659168
 31
0.0
  0
ARC
  5
945E
  8
0
 10
261.72074684542571
 20
825.21380213659165
 30
0.0
 40
2.0
 50
90.0
 51
170.00000000000139
  0
LINE
  5
945F
  8
0
 10
385.50319484542558
 20
821.81175813659183
 30
0.0
 11
262.05101084542542
 21
821.81175813659183
 31
0.0
  0
LINE
  5
9460
  8
0
 10
390.55605184542549
 20
802.6731221365917
 30
0.0
 11
387.47281084542527
 21
820.15905513659186
 31
0.0
  0
ARC
  5
9461
  8
0
 10
385.50319484542558
 20
819.81175813659183
 30
0.0
 40
2.0
 50
9.9999999999986073
 51
90.0
  0
LINE
  5
9462
  8
0
 10
257.05409684542548
 20
802.99039013659171
 30
0.0
 11
260.08139484542551
 21
820.15905513659186
 31
0.0
  0
ARC
  5
9463
  8
0
 10
262.05101084542542
 20
819.81175813659183
 30
0.0
 40
2.0
 50
90.0
 51
170.00000000000139
  0
LINE
  5
9464
  8
0
 10
455.7771028454253
 20
747.84327413659184
 30
0.0
 11
455.7771028454253
 21
750.79096613659181
 31
0.0
  0
LINE
  5
9465
  8
0
 10
455.7771028454253
 20
757.8427501365918
 30
0.0
 11
455.7771028454253
 21
760.80422913659197
 31
0.0
  0
LINE
  5
9466
  8
0
 10
455.7771028454253
 20
768.83493013659165
 30
0.0
 11
455.7771028454253
 21
771.82755713659185
 31
0.0
  0
LINE
  5
9467
  8
0
 10
455.7771028454253
 20
779.81772513659189
 30
0.0
 11
455.7771028454253
 21
782.86343113659177
 31
0.0
  0
LINE
  5
9468
  8
0
 10
455.7771028454253
 20
790.78760413659165
 30
0.0
 11
455.7771028454253
 21
793.91851713659184
 31
0.0
  0
LINE
  5
9469
  8
0
 10
455.7771028454253
 20
799.74608013659167
 30
0.0
 11
455.7771028454253
 21
802.99039013659171
 31
0.0
  0
LINE
  5
946A
  8
0
 10
405.7771028454253
 20
817.18625613659185
 30
0.0
 11
389.27978484542552
 21
817.18625613659185
 31
0.0
  0
LINE
  5
946B
  8
0
 10
437.5638798454255
 20
822.03122413659185
 30
0.0
 11
421.77710284542542
 21
822.03122413659185
 31
0.0
  0
LINE
  5
946C
  8
0
 10
405.7771028454253
 20
817.18625613659185
 30
0.0
 11
421.77710284542542
 21
822.03122413659185
 31
0.0
  0
LINE
  5
946D
  8
0
 10
421.77710284542542
 20
822.03122413659185
 30
0.0
 11
421.77710284542542
 21
818.66590913659184
 31
0.0
  0
LINE
  5
946E
  8
0
 10
405.7771028454253
 20
817.18625613659185
 30
0.0
 11
405.7771028454253
 21
802.99039013659171
 31
0.0
  0
LINE
  5
946F
  8
0
 10
441.27710284542547
 20
805.8790841365917
 30
0.0
 11
441.27710284542547
 21
824.6767711365917
 31
0.0
  0
ARC
  5
9470
  8
0
 10
443.2771028454253
 20
824.6767711365917
 30
0.0
 40
2.0
 50
90.0
 51
180.0
  0
LINE
  5
9471
  8
0
 10
441.27710284542547
 20
810.26918213659167
 30
0.0
 11
421.77710284542542
 21
810.26918213659167
 31
0.0
  0
LINE
  5
9472
  8
0
 10
435.87710884542531
 20
818.66590913659184
 30
0.0
 11
421.77710284542542
 21
818.66590913659184
 31
0.0
  0
LINE
  5
9473
  8
0
 10
421.77710284542542
 20
810.26918213659167
 30
0.0
 11
421.77710284542542
 21
802.99039013659171
 31
0.0
  0
ARC
  5
9474
  8
0
  6
CONTINUOUS
 10
438.47690184542529
 20
814.29638813659164
 30
0.0
 40
2.6003989999999999
 50
179.99998200000081
 51
269.99997799999522
  0
ARC
  5
9475
  8
0
  6
CONTINUOUS
 10
438.47690184542529
 20
819.59637613659163
 30
0.0
 40
2.600403
 50
90.0
 51
179.99998200000081
  0
LINE
  5
9476
  8
0
  6
CONTINUOUS
 10
441.27710284542547
 20
817.01240713659183
 30
0.0
 11
439.7771028454253
 21
816.1463821365918
 31
0.0
  0
LINE
  5
9477
  8
0
  6
CONTINUOUS
 10
441.27710284542547
 20
818.01240713659161
 30
0.0
 11
439.7771028454253
 21
817.1463821365918
 31
0.0
  0
LINE
  5
9478
  8
0
  6
CONTINUOUS
 10
441.27710284542547
 20
823.04638213659166
 30
0.0
 11
441.27710284542547
 21
810.84638213659173
 31
0.0
  0
LINE
  5
9479
  8
0
  6
CONTINUOUS
 10
439.7771028454253
 20
823.04638213659166
 30
0.0
 11
441.27710284542547
 21
823.04638213659166
 31
0.0
  0
LINE
  5
947A
  8
0
  6
CONTINUOUS
 10
439.7771028454253
 20
810.84638213659173
 30
0.0
 11
441.27710284542547
 21
810.84638213659173
 31
0.0
  0
LINE
  5
947B
  8
0
  6
CONTINUOUS
 10
435.87710884542531
 20
819.59637613659163
 30
0.0
 11
435.87710884542531
 21
814.29638813659164
 31
0.0
  0
LINE
  5
947C
  8
0
  6
CONTINUOUS
 10
439.7771028454253
 20
823.04638213659166
 30
0.0
 11
439.7771028454253
 21
810.84638213659173
 31
0.0
  0
LINE
  5
947D
  8
0
  6
CONTINUOUS
 10
439.7771028454253
 20
811.69638213659175
 30
0.0
 11
438.47690184542529
 21
811.69638213659175
 31
0.0
  0
LINE
  5
947E
  8
0
  6
CONTINUOUS
 10
439.7771028454253
 20
822.19638213659175
 30
0.0
 11
438.47690184542529
 21
822.19638213659175
 31
0.0
  0
LINE
  5
947F
  8
0
 10
460.7771028454253
 20
826.67677113659181
 30
0.0
 11
443.2771028454253
 21
826.67677113659181
 31
0.0
  0
LINE
  5
9480
  8
0
 10
460.7771028454253
 20
804.8790841365917
 30
0.0
 11
440.2771028454253
 21
804.8790841365917
 31
0.0
  0
ARC
  5
9481
  8
0
 10
440.2771028454253
 20
805.8790841365917
 30
0.0
 40
1.0
 50
270.0
 51
0.0
  0
LINE
  5
9482
  8
0
 10
460.7771028454253
 20
818.5527661365918
 30
0.0
 11
443.2771028454253
 21
818.5527661365918
 31
0.0
  0
LINE
  5
9483
  8
0
 10
254.2771028454255
 20
826.81312213659169
 30
0.0
 11
256.77710284542547
 21
826.81312213659169
 31
0.0
  0
ARC
  5
9484
  8
0
 10
457.45530184542531
 20
652.81312213659157
 30
0.0
 40
2.0
 50
90.0
 51
170.00000000000139
  0
ARC
  5
9485
  8
0
 10
393.51974484542541
 20
647.81946513659159
 30
0.0
 40
1.9936590000000001
 50
90.075931000003507
 51
178.17025399999861
  0
LINE
  5
9486
  8
0
 10
393.51710284542548
 20
649.81312213659157
 30
0.0
 11
453.21726884542551
 21
649.81312213659157
 31
0.0
  0
LINE
  5
9487
  8
0
 10
391.27710284542547
 20
640.81312213659157
 30
0.0
 11
391.8931318454255
 21
658.41244213659172
 31
0.0
  0
LINE
  5
9488
  8
0
 10
455.48568684542528
 20
653.16041813659172
 30
0.0
 11
455.18688384542548
 21
651.46582613659177
 31
0.0
  0
ARC
  5
9489
  8
0
 10
453.21726884542551
 20
651.81312213659169
 30
0.0
 40
2.0
 50
270.0
 51
350.00000000000142
  0
LINE
  5
948A
  8
0
 10
257.3544528454255
 20
657.81312213659157
 30
0.0
 11
264.57133184542528
 21
645.31312213659157
 31
0.0
  0
LINE
  5
948B
  8
0
 10
266.30338184542541
 20
644.31312213659157
 30
0.0
 11
314.2220738454256
 21
644.31312213659157
 31
0.0
  0
LINE
  5
948C
  8
0
 10
316.27710284542547
 20
640.81312213659157
 30
0.0
 11
316.22079084542548
 21
642.38473713659175
 31
0.0
  0
ARC
  5
948D
  8
0
 10
255.62240184542549
 20
656.81312213659157
 30
0.0
 40
2.0
 50
29.999999999991651
 51
90.0
  0
ARC
  5
948E
  8
0
 10
266.30338184542541
 20
646.31312213659169
 30
0.0
 40
2.0
 50
209.9999999999917
 51
270.0
  0
ARC
  5
948F
  8
0
 10
314.2220738454256
 20
642.31312213659169
 30
0.0
 40
2.0
 50
2.0520649999985339
 51
90.0
  0
LINE
  5
9490
  8
0
 10
316.27710284542547
 20
640.81312213659157
 30
0.0
 11
391.27710284542547
 21
640.81312213659157
 31
0.0
  0
LINE
  5
9491
  8
0
 10
265.30338184542541
 20
644.58107113659173
 30
0.0
 11
265.30338184542541
 21
658.41244213659172
 31
0.0
  0
LINE
  5
9492
  8
0
 10
451.74418684542542
 20
658.41244213659172
 30
0.0
 11
261.72074684542571
 21
658.41244213659172
 31
0.0
  0
LINE
  5
9493
  8
0
 10
451.5234008454255
 20
663.81448613659165
 30
0.0
 11
261.82995984542538
 21
663.81448613659165
 31
0.0
  0
LINE
  5
9494
  8
0
 10
455.7771028454253
 20
678.42088813659188
 30
0.0
 11
421.77710284542542
 21
678.42088813659188
 31
0.0
  0
LINE
  5
9495
  8
0
 10
455.7771028454253
 20
678.42088813659188
 30
0.0
 11
453.49301584542548
 21
665.46718913659174
 31
0.0
  0
ARC
  5
9496
  8
0
 10
451.5234008454255
 20
665.81448613659177
 30
0.0
 40
2.0
 50
270.0
 51
350.00000000000142
  0
LINE
  5
9497
  8
0
 10
455.7771028454253
 20
671.76670613659155
 30
0.0
 11
453.71380184542551
 21
660.06514613659169
 31
0.0
  0
ARC
  5
9498
  8
0
 10
451.74418684542542
 20
660.41244213659161
 30
0.0
 40
2.0
 50
270.0
 51
350.00000000000142
  0
LINE
  5
9499
  8
0
 10
260.51984084542562
 20
658.81312213659169
 30
0.0
 11
254.27710284542519
 21
658.81312213659169
 31
0.0
  0
LINE
  5
949A
  8
0
 10
455.7771028454253
 20
659.66113613659161
 30
0.0
 11
454.33204884542528
 21
651.46582613659177
 31
0.0
  0
ARC
  5
949B
  8
0
 10
452.3624328454253
 20
651.81312213659169
 30
0.0
 40
2.0
 50
270.0
 51
350.00000000000142
  0
LINE
  5
949C
  8
0
 10
390.77710284542547
 20
694.65312213659161
 30
0.0
 11
390.77710284542547
 21
691.95312213659167
 31
0.0
  0
LINE
  5
949D
  8
0
 10
460.7771028454253
 20
680.60348513659164
 30
0.0
 11
443.2771028454253
 21
680.60348513659164
 31
0.0
  0
LINE
  5
949E
  8
0
 10
460.7771028454253
 20
692.91112413659175
 30
0.0
 11
443.2771028454253
 21
692.91112413659175
 31
0.0
  0
LINE
  5
949F
  8
0
 10
460.7771028454253
 20
703.09041613659167
 30
0.0
 11
455.7771028454253
 21
703.09041613659167
 31
0.0
  0
LINE
  5
94A0
  8
0
 10
441.27710284542547
 20
702.09041613659167
 30
0.0
 11
441.27710284542547
 21
682.60348513659187
 31
0.0
  0
ARC
  5
94A1
  8
0
 10
440.2771028454253
 20
702.09041613659167
 30
0.0
 40
1.0
 50
0.0
 51
42.252324000004279
  0
ARC
  5
94A2
  8
0
 10
443.2771028454253
 20
682.60348513659187
 30
0.0
 40
2.0
 50
180.0
 51
270.0
  0
LINE
  5
94A3
  8
0
 10
405.7771028454253
 20
799.74608013659167
 30
0.0
 11
405.7771028454253
 21
793.91851713659184
 31
0.0
  0
LINE
  5
94A4
  8
0
 10
421.77710284542542
 20
799.74608013659167
 30
0.0
 11
421.77710284542542
 21
793.91851713659184
 31
0.0
  0
LINE
  5
94A5
  8
0
 10
405.7771028454253
 20
790.78760413659165
 30
0.0
 11
405.7771028454253
 21
782.86343113659177
 31
0.0
  0
LINE
  5
94A6
  8
0
 10
405.7771028454253
 20
779.81772513659189
 30
0.0
 11
405.7771028454253
 21
771.82755713659185
 31
0.0
  0
LINE
  5
94A7
  8
0
 10
405.7771028454253
 20
768.83493013659165
 30
0.0
 11
405.7771028454253
 21
760.80422913659197
 31
0.0
  0
LINE
  5
94A8
  8
0
 10
405.7771028454253
 20
757.8427501365918
 30
0.0
 11
405.7771028454253
 21
750.79096613659181
 31
0.0
  0
LINE
  5
94A9
  8
0
 10
405.7771028454253
 20
747.97312213659166
 30
0.0
 11
405.7771028454253
 21
737.78297013659164
 31
0.0
  0
LINE
  5
94AA
  8
0
 10
421.77710284542542
 20
747.97312213659166
 30
0.0
 11
421.77710284542542
 21
737.78297013659164
 31
0.0
  0
LINE
  5
94AB
  8
0
 10
421.77710284542542
 20
757.8427501365918
 30
0.0
 11
421.77710284542542
 21
750.79096613659181
 31
0.0
  0
LINE
  5
94AC
  8
0
 10
421.77710284542542
 20
768.83493013659165
 30
0.0
 11
421.77710284542542
 21
760.80422913659197
 31
0.0
  0
LINE
  5
94AD
  8
0
 10
421.77710284542542
 20
779.81772513659189
 30
0.0
 11
421.77710284542542
 21
771.82755713659185
 31
0.0
  0
LINE
  5
94AE
  8
0
 10
421.77710284542542
 20
790.78760413659165
 30
0.0
 11
421.77710284542542
 21
782.86343113659177
 31
0.0
  0
LINE
  5
94AF
  8
0
 10
405.7771028454253
 20
734.83527813659168
 30
0.0
 11
405.7771028454253
 21
727.7834941365918
 31
0.0
  0
LINE
  5
94B0
  8
0
 10
421.77710284542542
 20
734.83527813659168
 30
0.0
 11
421.77710284542542
 21
727.7834941365918
 31
0.0
  0
LINE
  5
94B1
  8
0
 10
421.77710284542542
 20
724.82201513659174
 30
0.0
 11
421.77710284542542
 21
716.79131413659184
 31
0.0
  0
LINE
  5
94B2
  8
0
 10
405.7771028454253
 20
724.82201513659174
 30
0.0
 11
405.7771028454253
 21
716.79131413659184
 31
0.0
  0
LINE
  5
94B3
  8
0
 10
405.7771028454253
 20
713.79868713659175
 30
0.0
 11
405.7771028454253
 21
705.80851913659183
 31
0.0
  0
LINE
  5
94B4
  8
0
 10
421.77710284542542
 20
713.79868713659175
 30
0.0
 11
421.77710284542542
 21
705.80851913659183
 31
0.0
  0
LINE
  5
94B5
  8
0
 10
436.32649784542531
 20
686.79232613659156
 30
0.0
 11
421.77710184542542
 21
686.79232613659156
 31
0.0
  0
LINE
  5
94B6
  8
0
 10
441.27710284542547
 20
698.20467613659184
 30
0.0
 11
421.77710184542542
 21
698.20467613659184
 31
0.0
  0
LINE
  5
94B7
  8
0
 10
405.7771028454253
 20
702.76281313659183
 30
0.0
 11
405.7771028454253
 21
682.76281313659172
 31
0.0
  0
LINE
  5
94B8
  8
0
 10
457.77710284542547
 20
826.67677113659181
 30
0.0
 11
457.77710284542547
 21
830.8131221365918
 31
0.0
  0
LINE
  5
94B9
  8
0
 10
455.7771028454253
 20
656.61137813659172
 30
0.0
 11
454.86980284542528
 21
651.46582613659177
 31
0.0
  0
ARC
  5
94BA
  8
0
 10
452.90018784542531
 20
651.81312213659169
 30
0.0
 40
2.0
 50
270.0
 51
350.00000000000142
  0
LINE
  5
94BB
  8
0
 10
421.77710284542542
 20
702.76281313659183
 30
0.0
 11
421.77710284542542
 21
698.20467613659184
 31
0.0
  0
LINE
  5
94BC
  8
0
 10
457.77710284542547
 20
703.09041613659167
 30
0.0
 11
457.77710284542547
 21
804.8790841365917
 31
0.0
  0
LINE
  5
94BD
  8
0
 10
256.77710284542547
 20
682.95312213659156
 30
0.0
 11
259.8603448454254
 21
665.46718913659174
 31
0.0
  0
ARC
  5
94BE
  8
0
 10
261.82995984542538
 20
665.81448613659177
 30
0.0
 40
2.0
 50
189.99999999999861
 51
270.0
  0
LINE
  5
94BF
  8
0
 10
406.48249984542542
 20
691.50741613659181
 30
0.0
 11
421.77710284542542
 21
686.79232613659156
 31
0.0
  0
LINE
  5
94C0
  8
0
 10
421.77710284542542
 20
698.20467613659184
 30
0.0
 11
406.74116184542561
 21
697.66392513659184
 31
0.0
  0
LINE
  5
94C1
  8
0
 10
421.77710284542542
 20
686.79232613659156
 30
0.0
 11
421.77710284542542
 21
678.42088813659188
 31
0.0
  0
ARC
  5
94C2
  8
0
 10
406.7771028454253
 20
696.66457113659169
 30
0.0
 40
1.0
 50
92.059691000003568
 51
180.0
  0
ARC
  5
94C3
  8
0
 10
406.7771028454253
 20
692.46303613659188
 30
0.0
 40
1.0
 50
180.0
 51
252.8662750000021
  0
LINE
  5
94C4
  8
0
 10
421.77710284542542
 20
818.66590913659184
 30
0.0
 11
406.4766438454256
 21
813.84604313659167
 31
0.0
  0
LINE
  5
94C5
  8
0
 10
406.8256578454255
 20
809.54236213659181
 30
0.0
 11
421.77710284542542
 21
810.26918213659167
 31
0.0
  0
ARC
  5
94C6
  8
0
 10
406.7771028454253
 20
812.89224813659166
 30
0.0
 40
1.0
 50
107.485179
 51
180.0
  0
ARC
  5
94C7
  8
0
 10
406.7771028454253
 20
810.54118313659183
 30
0.0
 40
1.0
 50
180.0
 51
270.0
  0
ARC
  5
94C8
  8
0
  6
CONTINUOUS
 10
438.47690184542529
 20
688.25446113659177
 30
0.0
 40
2.6003989999999999
 50
179.99998200000081
 51
269.99997799999522
  0
ARC
  5
94C9
  8
0
  6
CONTINUOUS
 10
438.47690184542529
 20
693.55444913659176
 30
0.0
 40
2.600403
 50
90.0
 51
179.99998200000081
  0
LINE
  5
94CA
  8
0
  6
CONTINUOUS
 10
441.27710284542547
 20
690.97048013659185
 30
0.0
 11
439.7771028454253
 21
690.1044551365917
 31
0.0
  0
LINE
  5
94CB
  8
0
  6
CONTINUOUS
 10
441.27710284542547
 20
691.97048013659185
 30
0.0
 11
439.7771028454253
 21
691.10445513659181
 31
0.0
  0
LINE
  5
94CC
  8
0
  6
CONTINUOUS
 10
441.27710284542547
 20
697.00445513659167
 30
0.0
 11
441.27710284542547
 21
684.80445513659174
 31
0.0
  0
LINE
  5
94CD
  8
0
  6
CONTINUOUS
 10
439.7771028454253
 20
697.00445513659167
 30
0.0
 11
441.27710284542547
 21
697.00445513659167
 31
0.0
  0
LINE
  5
94CE
  8
0
  6
CONTINUOUS
 10
439.7771028454253
 20
684.80445513659174
 30
0.0
 11
441.27710284542547
 21
684.80445513659174
 31
0.0
  0
LINE
  5
94CF
  8
0
  6
CONTINUOUS
 10
435.87710884542531
 20
693.55444913659176
 30
0.0
 11
435.87710884542531
 21
688.25446113659177
 31
0.0
  0
LINE
  5
94D0
  8
0
  6
CONTINUOUS
 10
439.7771028454253
 20
697.00445513659167
 30
0.0
 11
439.7771028454253
 21
684.80445513659174
 31
0.0
  0
LINE
  5
94D1
  8
0
  6
CONTINUOUS
 10
439.7771028454253
 20
685.65445513659165
 30
0.0
 11
438.47690184542529
 21
685.65445513659165
 31
0.0
  0
LINE
  5
94D2
  8
0
  6
CONTINUOUS
 10
439.7771028454253
 20
696.15445513659188
 30
0.0
 11
438.47690184542529
 21
696.15445513659188
 31
0.0
  0
LINE
  5
94D3
  8
0
 10
455.7771028454253
 20
802.99039013659171
 30
0.0
 11
256.77710284542547
 21
802.99039013659171
 31
0.0
  0
LINE
  5
94D4
  8
0
 10
455.7771028454253
 20
799.74608013659167
 30
0.0
 11
256.77710284542547
 21
799.74608013659167
 31
0.0
  0
LINE
  5
94D5
  8
0
 10
455.7771028454253
 20
793.91851713659184
 30
0.0
 11
256.77710284542547
 21
793.91851713659184
 31
0.0
  0
LINE
  5
94D6
  8
0
 10
455.7771028454253
 20
790.78760413659165
 30
0.0
 11
256.77710284542547
 21
790.78760413659165
 31
0.0
  0
LINE
  5
94D7
  8
0
 10
455.7771028454253
 20
782.86343113659177
 30
0.0
 11
256.77710284542547
 21
782.86343113659177
 31
0.0
  0
LINE
  5
94D8
  8
0
 10
455.7771028454253
 20
779.81772513659189
 30
0.0
 11
256.77710284542547
 21
779.81772513659189
 31
0.0
  0
LINE
  5
94D9
  8
0
 10
455.7771028454253
 20
771.82755713659185
 30
0.0
 11
256.77710284542547
 21
771.82755713659185
 31
0.0
  0
LINE
  5
94DA
  8
0
 10
455.7771028454253
 20
768.83493013659165
 30
0.0
 11
256.77710284542547
 21
768.83493013659165
 31
0.0
  0
LINE
  5
94DB
  8
0
 10
455.7771028454253
 20
760.80422913659197
 30
0.0
 11
256.77710284542547
 21
760.80422913659197
 31
0.0
  0
LINE
  5
94DC
  8
0
 10
455.7771028454253
 20
757.8427501365918
 30
0.0
 11
256.77710284542547
 21
757.8427501365918
 31
0.0
  0
LINE
  5
94DD
  8
0
 10
455.7771028454253
 20
750.79096613659181
 30
0.0
 11
361.35034584542552
 21
750.79096613659181
 31
0.0
  0
LINE
  5
94DE
  8
0
 10
455.7771028454253
 20
747.84327413659184
 30
0.0
 11
368.16274984542542
 21
747.84327413659184
 31
0.0
  0
LINE
  5
94DF
  8
0
 10
453.69818184542532
 20
802.3131221365918
 30
0.0
 11
453.69818184542532
 21
800.31312213659169
 31
0.0
  0
LINE
  5
94E0
  8
0
 10
258.85602384542551
 20
800.31312213659169
 30
0.0
 11
453.69818184542532
 21
800.31312213659169
 31
0.0
  0
LINE
  5
94E1
  8
0
 10
258.85602384542551
 20
802.3131221365918
 30
0.0
 11
453.69818184542532
 21
802.3131221365918
 31
0.0
  0
LINE
  5
94E2
  8
0
 10
258.85602384542551
 20
791.3131221365918
 30
0.0
 11
453.69818184542532
 21
791.3131221365918
 31
0.0
  0
LINE
  5
94E3
  8
0
 10
258.85602384542551
 20
793.31312213659169
 30
0.0
 11
453.69818184542532
 21
793.31312213659169
 31
0.0
  0
LINE
  5
94E4
  8
0
 10
258.85602384542551
 20
780.3131221365918
 30
0.0
 11
453.69818184542532
 21
780.3131221365918
 31
0.0
  0
LINE
  5
94E5
  8
0
 10
258.85602384542551
 20
782.3131221365918
 30
0.0
 11
453.69818184542532
 21
782.3131221365918
 31
0.0
  0
LINE
  5
94E6
  8
0
 10
258.85602384542551
 20
769.31312213659169
 30
0.0
 11
453.69818184542532
 21
769.31312213659169
 31
0.0
  0
LINE
  5
94E7
  8
0
 10
258.85602384542551
 20
771.3131221365918
 30
0.0
 11
453.69818184542532
 21
771.3131221365918
 31
0.0
  0
LINE
  5
94E8
  8
0
 10
258.85602384542551
 20
758.3131221365918
 30
0.0
 11
453.69818184542532
 21
758.3131221365918
 31
0.0
  0
LINE
  5
94E9
  8
0
 10
258.85602384542551
 20
760.31312213659169
 30
0.0
 11
453.69818184542532
 21
760.31312213659169
 31
0.0
  0
LINE
  5
94EA
  8
0
 10
367.55207984542528
 20
748.31312213659169
 30
0.0
 11
453.69818184542532
 21
748.31312213659169
 31
0.0
  0
LINE
  5
94EB
  8
0
 10
361.82384084542548
 20
750.3131221365918
 30
0.0
 11
453.69818184542532
 21
750.3131221365918
 31
0.0
  0
LINE
  5
94EC
  8
0
 10
453.69818184542532
 20
802.3131221365918
 30
0.0
 11
455.7771028454253
 21
802.99039013659171
 31
0.0
  0
LINE
  5
94ED
  8
0
 10
453.69818184542532
 20
800.31312213659169
 30
0.0
 11
455.7771028454253
 21
799.74608013659167
 31
0.0
  0
LINE
  5
94EE
  8
0
 10
453.69818184542532
 20
793.31312213659169
 30
0.0
 11
455.7771028454253
 21
793.91851713659184
 31
0.0
  0
LINE
  5
94EF
  8
0
 10
453.69818184542532
 20
791.3131221365918
 30
0.0
 11
455.7771028454253
 21
790.78760413659165
 31
0.0
  0
LINE
  5
94F0
  8
0
 10
453.69818184542532
 20
782.3131221365918
 30
0.0
 11
455.7771028454253
 21
782.86343113659177
 31
0.0
  0
LINE
  5
94F1
  8
0
 10
453.69818184542532
 20
780.3131221365918
 30
0.0
 11
455.7771028454253
 21
779.81772513659189
 31
0.0
  0
LINE
  5
94F2
  8
0
 10
453.69818184542532
 20
771.3131221365918
 30
0.0
 11
455.7771028454253
 21
771.82755713659185
 31
0.0
  0
LINE
  5
94F3
  8
0
 10
453.69818184542532
 20
769.31312213659169
 30
0.0
 11
455.7771028454253
 21
768.83493013659165
 31
0.0
  0
LINE
  5
94F4
  8
0
 10
453.69818184542532
 20
760.31312213659169
 30
0.0
 11
455.7771028454253
 21
760.80422913659197
 31
0.0
  0
LINE
  5
94F5
  8
0
 10
453.69818184542532
 20
758.3131221365918
 30
0.0
 11
455.7771028454253
 21
757.8427501365918
 31
0.0
  0
LINE
  5
94F6
  8
0
 10
453.69818184542532
 20
750.3131221365918
 30
0.0
 11
455.7771028454253
 21
750.79096613659181
 31
0.0
  0
LINE
  5
94F7
  8
0
 10
453.69818184542532
 20
748.31312213659169
 30
0.0
 11
455.7771028454253
 21
747.84327413659184
 31
0.0
  0
LINE
  5
94F8
  8
0
 10
453.69818184542532
 20
793.31312213659169
 30
0.0
 11
453.69818184542532
 21
791.3131221365918
 31
0.0
  0
LINE
  5
94F9
  8
0
 10
453.69818184542532
 20
782.3131221365918
 30
0.0
 11
453.69818184542532
 21
780.3131221365918
 31
0.0
  0
LINE
  5
94FA
  8
0
 10
453.69818184542532
 20
771.3131221365918
 30
0.0
 11
453.69818184542532
 21
769.31312213659169
 31
0.0
  0
LINE
  5
94FB
  8
0
 10
453.69818184542532
 20
760.31312213659169
 30
0.0
 11
453.69818184542532
 21
758.3131221365918
 31
0.0
  0
LINE
  5
94FC
  8
0
 10
453.69818184542532
 20
750.3131221365918
 30
0.0
 11
453.69818184542532
 21
748.31312213659169
 31
0.0
  0
ARC
  5
94FD
  8
0
 10
367.55207984542528
 20
745.3131221365918
 30
0.0
 40
3.0
 50
90.0
 51
190.2865610000006
  0
ARC
  5
94FE
  8
0
 10
368.16274984542542
 20
744.37327413659182
 30
0.0
 40
3.4700000000000002
 50
90.0
 51
186.1896490000004
  0
LINE
  5
94FF
  8
0
 10
273.85602384542551
 20
750.3131221365918
 30
0.0
 11
273.85602384542551
 21
748.31312213659169
 31
0.0
  0
LINE
  5
9500
  8
0
 10
258.85602384542551
 20
760.31312213659169
 30
0.0
 11
258.85602384542551
 21
758.3131221365918
 31
0.0
  0
LINE
  5
9501
  8
0
 10
258.85602384542551
 20
771.3131221365918
 30
0.0
 11
258.85602384542551
 21
769.31312213659169
 31
0.0
  0
LINE
  5
9502
  8
0
 10
258.85602384542551
 20
782.3131221365918
 30
0.0
 11
258.85602384542551
 21
780.3131221365918
 31
0.0
  0
LINE
  5
9503
  8
0
 10
258.85602384542551
 20
793.31312213659169
 30
0.0
 11
258.85602384542551
 21
791.3131221365918
 31
0.0
  0
LINE
  5
9504
  8
0
 10
273.85602384542551
 20
748.31312213659169
 30
0.0
 11
271.77710284542547
 21
747.84327413659184
 31
0.0
  0
LINE
  5
9505
  8
0
 10
273.85602384542551
 20
750.3131221365918
 30
0.0
 11
271.77710284542547
 21
750.79096613659181
 31
0.0
  0
LINE
  5
9506
  8
0
 10
258.85602384542551
 20
758.3131221365918
 30
0.0
 11
256.77710284542547
 21
757.8427501365918
 31
0.0
  0
LINE
  5
9507
  8
0
 10
258.85602384542551
 20
760.31312213659169
 30
0.0
 11
256.77710284542547
 21
760.80422913659197
 31
0.0
  0
LINE
  5
9508
  8
0
 10
258.85602384542551
 20
769.31312213659169
 30
0.0
 11
256.77710284542547
 21
768.83493013659165
 31
0.0
  0
LINE
  5
9509
  8
0
 10
258.85602384542551
 20
771.3131221365918
 30
0.0
 11
256.77710284542547
 21
771.82755713659185
 31
0.0
  0
LINE
  5
950A
  8
0
 10
258.85602384542551
 20
780.3131221365918
 30
0.0
 11
256.77710284542547
 21
779.81772513659189
 31
0.0
  0
LINE
  5
950B
  8
0
 10
258.85602384542551
 20
782.3131221365918
 30
0.0
 11
256.77710284542547
 21
782.86343113659177
 31
0.0
  0
LINE
  5
950C
  8
0
 10
258.85602384542551
 20
791.3131221365918
 30
0.0
 11
256.77710284542547
 21
790.78760413659165
 31
0.0
  0
LINE
  5
950D
  8
0
 10
258.85602384542551
 20
793.31312213659169
 30
0.0
 11
256.77710284542547
 21
793.91851713659184
 31
0.0
  0
LINE
  5
950E
  8
0
 10
258.85602384542551
 20
800.31312213659169
 30
0.0
 11
256.77710284542547
 21
799.74608013659167
 31
0.0
  0
LINE
  5
950F
  8
0
 10
258.85602384542551
 20
802.3131221365918
 30
0.0
 11
256.77710284542547
 21
802.99039013659171
 31
0.0
  0
LINE
  5
9510
  8
0
 10
258.85602384542551
 20
802.3131221365918
 30
0.0
 11
258.85602384542551
 21
800.31312213659169
 31
0.0
  0
LINE
  5
9511
  8
0
 10
256.77710284542547
 20
799.74608013659167
 30
0.0
 11
256.77710284542547
 21
802.99039013659171
 31
0.0
  0
LINE
  5
9512
  8
0
 10
256.77710284542547
 20
790.78760413659165
 30
0.0
 11
256.77710284542547
 21
793.91851713659184
 31
0.0
  0
LINE
  5
9513
  8
0
 10
256.77710284542547
 20
779.81772513659189
 30
0.0
 11
256.77710284542547
 21
782.86343113659177
 31
0.0
  0
LINE
  5
9514
  8
0
 10
256.77710284542547
 20
768.83493013659165
 30
0.0
 11
256.77710284542547
 21
771.82755713659185
 31
0.0
  0
LINE
  5
9515
  8
0
 10
256.77710284542547
 20
757.8427501365918
 30
0.0
 11
256.77710284542547
 21
760.80422913659197
 31
0.0
  0
LINE
  5
9516
  8
0
 10
271.77710284542547
 20
747.84327413659184
 30
0.0
 11
271.77710284542547
 21
750.79096613659181
 31
0.0
  0
LINE
  5
9517
  8
0
 10
271.77710284542547
 20
750.79096613659181
 30
0.0
 11
346.20385984542531
 21
750.79096613659181
 31
0.0
  0
LINE
  5
9518
  8
0
 10
271.77710284542547
 20
747.84327413659184
 30
0.0
 11
339.39145584542558
 21
747.84327413659184
 31
0.0
  0
LINE
  5
9519
  8
0
 10
340.00212584542572
 20
748.31312213659169
 30
0.0
 11
273.85602384542551
 21
748.31312213659169
 31
0.0
  0
LINE
  5
951A
  8
0
 10
345.73036484542553
 20
750.3131221365918
 30
0.0
 11
273.85602384542551
 21
750.3131221365918
 31
0.0
  0
ARC
  5
951B
  8
0
 10
340.00212584542572
 20
745.3131221365918
 30
0.0
 40
3.0
 50
349.71343899999943
 51
90.0
  0
ARC
  5
951C
  8
0
 10
339.39145584542558
 20
744.37327413659182
 30
0.0
 40
3.4700000000000002
 50
353.81035099999951
 51
90.0
  0
LINE
  5
951D
  8
0
 10
455.7771028454253
 20
702.76281313659183
 30
0.0
 11
256.77710284542547
 21
702.76281313659183
 31
0.0
  0
LINE
  5
951E
  8
0
 10
455.7771028454253
 20
705.80851913659183
 30
0.0
 11
256.77710284542547
 21
705.80851913659183
 31
0.0
  0
LINE
  5
951F
  8
0
 10
455.7771028454253
 20
713.79868713659175
 30
0.0
 11
256.77710284542547
 21
713.79868713659175
 31
0.0
  0
LINE
  5
9520
  8
0
 10
455.7771028454253
 20
716.79131413659184
 30
0.0
 11
256.77710284542547
 21
716.79131413659184
 31
0.0
  0
LINE
  5
9521
  8
0
 10
455.7771028454253
 20
724.82201513659174
 30
0.0
 11
256.77710284542547
 21
724.82201513659174
 31
0.0
  0
LINE
  5
9522
  8
0
 10
455.7771028454253
 20
727.7834941365918
 30
0.0
 11
256.77710284542547
 21
727.7834941365918
 31
0.0
  0
LINE
  5
9523
  8
0
 10
258.85602384542551
 20
705.3131221365918
 30
0.0
 11
453.69818184542532
 21
705.3131221365918
 31
0.0
  0
LINE
  5
9524
  8
0
 10
258.85602384542551
 20
703.3131221365918
 30
0.0
 11
453.69818184542532
 21
703.3131221365918
 31
0.0
  0
LINE
  5
9525
  8
0
 10
258.85602384542551
 20
716.3131221365918
 30
0.0
 11
453.69818184542532
 21
716.3131221365918
 31
0.0
  0
LINE
  5
9526
  8
0
 10
258.85602384542551
 20
714.31312213659169
 30
0.0
 11
453.69818184542532
 21
714.31312213659169
 31
0.0
  0
LINE
  5
9527
  8
0
 10
258.85602384542551
 20
727.31312213659169
 30
0.0
 11
453.69818184542532
 21
727.31312213659169
 31
0.0
  0
LINE
  5
9528
  8
0
 10
258.85602384542551
 20
725.3131221365918
 30
0.0
 11
453.69818184542532
 21
725.3131221365918
 31
0.0
  0
LINE
  5
9529
  8
0
 10
271.77710284542547
 20
734.83527813659168
 30
0.0
 11
346.20385984542531
 21
734.83527813659168
 31
0.0
  0
LINE
  5
952A
  8
0
 10
271.77710284542547
 20
737.78297013659164
 30
0.0
 11
339.39145584542558
 21
737.78297013659164
 31
0.0
  0
LINE
  5
952B
  8
0
 10
340.00212584542572
 20
737.3131221365918
 30
0.0
 11
273.85602384542551
 21
737.3131221365918
 31
0.0
  0
LINE
  5
952C
  8
0
 10
345.73036484542553
 20
735.31312213659169
 30
0.0
 11
273.85602384542551
 21
735.31312213659169
 31
0.0
  0
LINE
  5
952D
  8
0
 10
271.77710284542547
 20
737.78297013659164
 30
0.0
 11
271.77710284542547
 21
734.83527813659168
 31
0.0
  0
LINE
  5
952E
  8
0
 10
256.77710284542547
 20
727.7834941365918
 30
0.0
 11
256.77710284542547
 21
724.82201513659174
 31
0.0
  0
LINE
  5
952F
  8
0
 10
256.77710284542547
 20
716.79131413659184
 30
0.0
 11
256.77710284542547
 21
713.79868713659175
 31
0.0
  0
LINE
  5
9530
  8
0
 10
256.77710284542547
 20
705.80851913659183
 30
0.0
 11
256.77710284542547
 21
702.76281313659183
 31
0.0
  0
LINE
  5
9531
  8
0
 10
258.85602384542551
 20
703.3131221365918
 30
0.0
 11
256.77710284542547
 21
702.76281313659183
 31
0.0
  0
LINE
  5
9532
  8
0
 10
258.85602384542551
 20
705.3131221365918
 30
0.0
 11
256.77710284542547
 21
705.80851913659183
 31
0.0
  0
LINE
  5
9533
  8
0
 10
258.85602384542551
 20
714.31312213659169
 30
0.0
 11
256.77710284542547
 21
713.79868713659175
 31
0.0
  0
LINE
  5
9534
  8
0
 10
258.85602384542551
 20
716.3131221365918
 30
0.0
 11
256.77710284542547
 21
716.79131413659184
 31
0.0
  0
LINE
  5
9535
  8
0
 10
258.85602384542551
 20
725.3131221365918
 30
0.0
 11
256.77710284542547
 21
724.82201513659174
 31
0.0
  0
LINE
  5
9536
  8
0
 10
258.85602384542551
 20
727.31312213659169
 30
0.0
 11
256.77710284542547
 21
727.7834941365918
 31
0.0
  0
LINE
  5
9537
  8
0
 10
273.85602384542551
 20
735.31312213659169
 30
0.0
 11
271.77710284542547
 21
734.83527813659168
 31
0.0
  0
LINE
  5
9538
  8
0
 10
273.85602384542551
 20
737.3131221365918
 30
0.0
 11
271.77710284542547
 21
737.78297013659164
 31
0.0
  0
LINE
  5
9539
  8
0
 10
258.85602384542551
 20
703.3131221365918
 30
0.0
 11
258.85602384542551
 21
705.3131221365918
 31
0.0
  0
LINE
  5
953A
  8
0
 10
258.85602384542551
 20
714.31312213659169
 30
0.0
 11
258.85602384542551
 21
716.3131221365918
 31
0.0
  0
LINE
  5
953B
  8
0
 10
258.85602384542551
 20
725.3131221365918
 30
0.0
 11
258.85602384542551
 21
727.31312213659169
 31
0.0
  0
LINE
  5
953C
  8
0
 10
273.85602384542551
 20
735.31312213659169
 30
0.0
 11
273.85602384542551
 21
737.3131221365918
 31
0.0
  0
ARC
  5
953D
  8
0
 10
340.00212584542572
 20
740.31312213659169
 30
0.0
 40
3.0
 50
270.0
 51
10.286561000000651
  0
ARC
  5
953E
  8
0
 10
339.39145584542558
 20
741.25297013659178
 30
0.0
 40
3.4700000000000002
 50
270.0
 51
6.1896490000005366
  0
LINE
  5
953F
  8
0
 10
455.7771028454253
 20
734.83527813659168
 30
0.0
 11
361.35034584542552
 21
734.83527813659168
 31
0.0
  0
LINE
  5
9540
  8
0
 10
455.7771028454253
 20
737.78297013659164
 30
0.0
 11
368.16274984542542
 21
737.78297013659164
 31
0.0
  0
LINE
  5
9541
  8
0
 10
367.55207984542528
 20
737.3131221365918
 30
0.0
 11
453.69818184542532
 21
737.3131221365918
 31
0.0
  0
LINE
  5
9542
  8
0
 10
361.82384084542548
 20
735.31312213659169
 30
0.0
 11
453.69818184542532
 21
735.31312213659169
 31
0.0
  0
ARC
  5
9543
  8
0
 10
367.55207984542528
 20
740.31312213659169
 30
0.0
 40
3.0
 50
169.71343899999931
 51
270.0
  0
ARC
  5
9544
  8
0
 10
368.16274984542542
 20
741.25297013659178
 30
0.0
 40
3.4700000000000002
 50
173.8103509999994
 51
270.0
  0
LINE
  5
9545
  8
0
 10
453.69818184542532
 20
735.31312213659169
 30
0.0
 11
453.69818184542532
 21
737.3131221365918
 31
0.0
  0
LINE
  5
9546
  8
0
 10
453.69818184542532
 20
725.3131221365918
 30
0.0
 11
453.69818184542532
 21
727.31312213659169
 31
0.0
  0
LINE
  5
9547
  8
0
 10
453.69818184542532
 20
714.31312213659169
 30
0.0
 11
453.69818184542532
 21
716.3131221365918
 31
0.0
  0
LINE
  5
9548
  8
0
 10
453.69818184542532
 20
703.3131221365918
 30
0.0
 11
453.69818184542532
 21
705.3131221365918
 31
0.0
  0
LINE
  5
9549
  8
0
 10
453.69818184542532
 20
737.3131221365918
 30
0.0
 11
455.7771028454253
 21
737.78297013659164
 31
0.0
  0
LINE
  5
954A
  8
0
 10
453.69818184542532
 20
735.31312213659169
 30
0.0
 11
455.7771028454253
 21
734.83527813659168
 31
0.0
  0
LINE
  5
954B
  8
0
 10
453.69818184542532
 20
727.31312213659169
 30
0.0
 11
455.7771028454253
 21
727.7834941365918
 31
0.0
  0
LINE
  5
954C
  8
0
 10
453.69818184542532
 20
725.3131221365918
 30
0.0
 11
455.7771028454253
 21
724.82201513659174
 31
0.0
  0
LINE
  5
954D
  8
0
 10
453.69818184542532
 20
716.3131221365918
 30
0.0
 11
455.7771028454253
 21
716.79131413659184
 31
0.0
  0
LINE
  5
954E
  8
0
 10
453.69818184542532
 20
714.31312213659169
 30
0.0
 11
455.7771028454253
 21
713.79868713659175
 31
0.0
  0
LINE
  5
954F
  8
0
 10
453.69818184542532
 20
705.3131221365918
 30
0.0
 11
455.7771028454253
 21
705.80851913659183
 31
0.0
  0
LINE
  5
9550
  8
0
 10
453.69818184542532
 20
703.3131221365918
 30
0.0
 11
455.7771028454253
 21
702.76281313659183
 31
0.0
  0
LINE
  5
9551
  8
0
 10
455.7771028454253
 20
705.80851913659183
 30
0.0
 11
455.7771028454253
 21
702.76281313659183
 31
0.0
  0
LINE
  5
9552
  8
0
 10
455.7771028454253
 20
716.79131413659184
 30
0.0
 11
455.7771028454253
 21
713.79868713659175
 31
0.0
  0
LINE
  5
9553
  8
0
 10
455.7771028454253
 20
727.7834941365918
 30
0.0
 11
455.7771028454253
 21
724.82201513659174
 31
0.0
  0
LINE
  5
9554
  8
0
 10
455.7771028454253
 20
737.78297013659164
 30
0.0
 11
455.7771028454253
 21
734.83527813659168
 31
0.0
  0
LINE
  5
9555
  8
0
 10
388.69818184542549
 20
694.31312213659169
 30
0.0
 11
390.77710284542547
 21
694.80851913659183
 31
0.0
  0
LINE
  5
9556
  8
0
 10
390.77710284542547
 20
694.80851913659183
 30
0.0
 11
256.77710284542547
 21
694.80851913659183
 31
0.0
  0
LINE
  5
9557
  8
0
 10
258.85602384542551
 20
694.31312213659169
 30
0.0
 11
388.69818184542549
 21
694.31312213659169
 31
0.0
  0
LINE
  5
9558
  8
0
 10
388.69818184542549
 20
692.3131221365918
 30
0.0
 11
388.69818184542549
 21
694.31312213659169
 31
0.0
  0
LINE
  5
9559
  8
0
 10
390.77710284542547
 20
691.76281313659183
 30
0.0
 11
256.77710284542547
 21
691.76281313659183
 31
0.0
  0
LINE
  5
955A
  8
0
 10
258.85602384542551
 20
692.3131221365918
 30
0.0
 11
388.69818184542549
 21
692.3131221365918
 31
0.0
  0
LINE
  5
955B
  8
0
 10
388.69818184542549
 20
692.3131221365918
 30
0.0
 11
390.77710284542547
 21
691.76281313659183
 31
0.0
  0
LINE
  5
955C
  8
0
 10
390.77710284542547
 20
685.80851913659149
 30
0.0
 11
256.77710284542547
 21
685.80851913659149
 31
0.0
  0
LINE
  5
955D
  8
0
 10
258.85602384542551
 20
685.31312213659169
 30
0.0
 11
388.69818184542549
 21
685.31312213659169
 31
0.0
  0
LINE
  5
955E
  8
0
 10
390.77710284542547
 20
682.76281313659172
 30
0.0
 11
256.81065984542539
 21
682.76281313659172
 31
0.0
  0
LINE
  5
955F
  8
0
 10
258.85602384542551
 20
683.31312213659169
 30
0.0
 11
388.69818184542549
 21
683.31312213659169
 31
0.0
  0
LINE
  5
9560
  8
0
 10
388.69818184542549
 20
683.31312213659169
 30
0.0
 11
390.77710284542547
 21
682.76281313659172
 31
0.0
  0
LINE
  5
9561
  8
0
 10
390.77710284542547
 20
685.80851913659149
 30
0.0
 11
390.77710284542547
 21
682.76281313659172
 31
0.0
  0
LINE
  5
9562
  8
0
 10
388.69818184542549
 20
683.31312213659169
 30
0.0
 11
388.69818184542549
 21
685.31312213659169
 31
0.0
  0
LINE
  5
9563
  8
0
 10
388.69818184542549
 20
685.31312213659169
 30
0.0
 11
390.77710284542547
 21
685.80851913659149
 31
0.0
  0
LINE
  5
9564
  8
0
 10
390.77710284542547
 20
682.76281313659172
 30
0.0
 11
405.7771028454253
 21
682.76281313659172
 31
0.0
  0
LINE
  5
9565
  8
0
 10
405.7771028454253
 20
682.76281313659172
 30
0.0
 11
421.77710284542542
 21
678.42088813659188
 31
0.0
  0
LINE
  5
9566
  8
0
 10
256.77710284542547
 20
694.80851913659183
 30
0.0
 11
256.77710284542547
 21
691.76281313659183
 31
0.0
  0
LINE
  5
9567
  8
0
 10
256.77710284542547
 20
685.80851913659149
 30
0.0
 11
256.77710284542547
 21
682.76281313659172
 31
0.0
  0
LINE
  5
9568
  8
0
 10
258.85602384542551
 20
692.3131221365918
 30
0.0
 11
258.85602384542551
 21
694.31312213659169
 31
0.0
  0
LINE
  5
9569
  8
0
 10
258.85602384542551
 20
694.31312213659169
 30
0.0
 11
256.77710284542547
 21
694.80851913659183
 31
0.0
  0
LINE
  5
956A
  8
0
 10
258.85602384542551
 20
692.3131221365918
 30
0.0
 11
256.77710284542547
 21
691.76281313659183
 31
0.0
  0
LINE
  5
956B
  8
0
 10
258.85602384542551
 20
685.31312213659169
 30
0.0
 11
256.77710284542547
 21
685.80851913659149
 31
0.0
  0
LINE
  5
956C
  8
0
 10
258.85602384542551
 20
683.31312213659169
 30
0.0
 11
258.85602384542551
 21
685.31312213659169
 31
0.0
  0
LINE
  5
956D
  8
0
 10
258.85602384542551
 20
683.31312213659169
 30
0.0
 11
256.77710284542547
 21
682.76281313659172
 31
0.0
  0
LINE
  5
956E
  8
0
 10
154.67713284542549
 20
842.8131221365918
 30
0.0
 11
232.2771028454255
 21
842.8131221365918
 31
0.0
  0
LINE
  5
956F
  8
0
 10
154.67713284542549
 20
848.8131221365918
 30
0.0
 11
232.2771028454255
 21
848.8131221365918
 31
0.0
  0
LINE
  5
9570
  8
0
 10
254.2771028454255
 20
839.8131221365918
 30
0.0
 11
150.77710284542539
 21
839.8131221365918
 31
0.0
  0
LINE
  5
9571
  8
0
 10
243.2771028454255
 20
842.8131221365918
 30
0.0
 11
256.77710284542547
 21
842.8131221365918
 31
0.0
  0
ARC
  5
9572
  8
0
 10
901.06408284542545
 20
742.8131221365918
 30
0.0
 40
764.28698999999995
 50
172.82194999999871
 51
187.17804000000049
  0
LINE
  5
9573
  8
0
 10
147.42713284542549
 20
649.21308213659165
 30
0.0
 11
147.42713284542549
 21
836.50306213659189
 31
0.0
  0
LINE
  5
9574
  8
0
 10
141.7771028454255
 20
805.25306213659189
 30
0.0
 11
141.7771028454255
 21
679.67310213659175
 31
0.0
  0
LINE
  5
9575
  8
0
 10
139.7771028454255
 20
805.25306213659189
 30
0.0
 11
139.7771028454255
 21
680.36304213659173
 31
0.0
  0
LINE
  5
9576
  8
0
 10
254.2771028454255
 20
645.81312213659169
 30
0.0
 11
150.77710284542539
 21
645.81312213659169
 31
0.0
  0
LINE
  5
9577
  8
0
 10
141.9270728454255
 20
676.98310213659158
 30
0.0
 11
146.83710284542539
 21
649.11310213659169
 31
0.0
  0
ARC
  5
9578
  8
0
 10
154.67884284542549
 20
648.81116213659175
 30
0.0
 40
5.9980479999999998
 50
207.05351000000039
 51
269.98324000000241
  0
ARC
  5
9579
  8
0
 10
154.67957284542541
 20
648.80921213659155
 30
0.0
 40
11.996128000000001
 50
187.16444000000149
 51
269.98821999999512
  0
ARC
  5
957A
  8
0
 10
140.9375028454254
 20
676.81617213659172
 30
0.0
 40
1.0035289999999999
 50
9.5734909999996063
 51
62.101815000001061
  0
ARC
  5
957B
  8
0
 10
142.77564284542549
 20
680.37110213659173
 30
0.0
 40
2.9985330000000001
 50
180.1533100000014
 51
242.84513000000379
  0
ARC
  5
957C
  8
0
 10
150.77649284542551
 20
649.81446213659149
 30
0.0
 40
4.0014059999999976
 50
190.09553000000011
 51
270.00784999999382
  0
LINE
  5
957D
  8
0
 10
141.9270728454255
 20
808.63306213659166
 30
0.0
 11
146.8370428454254
 21
836.50306213659189
 31
0.0
  0
ARC
  5
957E
  8
0
 10
150.77662284542549
 20
835.81373213659185
 30
0.0
 40
3.9993959999999982
 50
89.993274999998206
 51
170.07405999999821
  0
ARC
  5
957F
  8
0
 10
140.93775284542551
 20
808.81226213659181
 30
0.0
 40
1.005431999999995
 50
297.82706000000729
 51
349.73527000000468
  0
ARC
  5
9580
  8
0
 10
142.7743028454255
 20
805.25587213659185
 30
0.0
 40
2.997211999999998
 50
117.13965999999481
 51
180.05330999999691
  0
ARC
  5
9581
  8
0
 10
154.6779828454255
 20
836.81641213659179
 30
0.0
 40
5.9966319999999991
 50
90.008472000000253
 51
152.954760000004
  0
ARC
  5
9582
  8
0
 10
154.6785928454255
 20
836.81806213659195
 30
0.0
 40
11.995034
 50
90.007167000000024
 51
172.84015999999829
  0
LINE
  5
9583
  8
0
 10
134.38709284542551
 20
737.8131221365918
 30
0.0
 11
134.38709284542551
 21
747.81312213659169
 31
0.0
  0
LINE
  5
9584
  8
0
 10
136.79712284542549
 20
747.81312213659169
 30
0.0
 11
134.38709284542551
 21
747.81312213659169
 31
0.0
  0
LINE
  5
9585
  8
0
 10
136.79712284542549
 20
737.8131221365918
 30
0.0
 11
134.38709284542551
 21
737.8131221365918
 31
0.0
  0
LINE
  5
9586
  8
0
 10
385.90197684542528
 20
617.31265213659174
 30
0.0
 11
383.72767184542562
 21
617.31265213659174
 31
0.0
  0
LINE
  5
9587
  8
0
 10
391.77710284542547
 20
621.31273213659165
 30
0.0
 11
383.40197684542539
 21
621.31273213659165
 31
0.0
  0
POLYLINE
  5
9588
  8
0
 10
382.90197684542528
 20
604.31239213659182
 30
0.0
 66
     1
 70
     8
  0
VERTEX
  8
0
  5
9A0A
 10
382.902
 20
604.312
 30
0.000000
  70
    32
  0
VERTEX
  8
0
  5
9A0B
 10
382.933
 20
604.313
 30
0.000000
  70
    32
  0
VERTEX
  8
0
  5
9A0C
 10
382.963
 20
604.313
 30
0.000000
  70
    32
  0
VERTEX
  8
0
  5
9A0D
 10
382.994
 20
604.314
 30
0.000000
  70
    32
  0
VERTEX
  8
0
  5
9A0E
 10
383.025
 20
604.315
 30
0.000000
  70
    32
  0
VERTEX
  8
0
  5
9A0F
 10
383.055
 20
604.317
 30
0.000000
  70
    32
  0
VERTEX
  8
0
  5
9A10
 10
383.086
 20
604.319
 30
0.000000
  70
    32
  0
VERTEX
  8
0
  5
9A11
 10
383.116
 20
604.322
 30
0.000000
  70
    32
  0
VERTEX
  8
0
  5
9A12
 10
383.147
 20
604.324
 30
0.000000
  70
    32
  0
VERTEX
  8
0
  5
9A13
 10
383.178
 20
604.328
 30
0.000000
  70
    32
  0
VERTEX
  8
0
  5
9A14
 10
383.208
 20
604.331
 30
0.000000
  70
    32
  0
VERTEX
  8
0
  5
9A15
 10
383.238
 20
604.335
 30
0.000000
  70
    32
  0
VERTEX
  8
0
  5
9A16
 10
383.269
 20
604.339
 30
0.000000
  70
    32
  0
VERTEX
  8
0
  5
9A17
 10
383.299
 20
604.344
 30
0.000000
  70
    32
  0
VERTEX
  8
0
  5
9A18
 10
383.329
 20
604.349
 30
0.000000
  70
    32
  0
VERTEX
  8
0
  5
9A19
 10
383.360
 20
604.355
 30
0.000000
  70
    32
  0
VERTEX
  8
0
  5
9A1A
 10
383.390
 20
604.360
 30
0.000000
  70
    32
  0
VERTEX
  8
0
  5
9A1B
 10
383.420
 20
604.367
 30
0.000000
  70
    32
  0
VERTEX
  8
0
  5
9A1C
 10
383.450
 20
604.373
 30
0.000000
  70
    32
  0
VERTEX
  8
0
  5
9A1D
 10
383.480
 20
604.380
 30
0.000000
  70
    32
  0
VERTEX
  8
0
  5
9A1E
 10
383.509
 20
604.387
 30
0.000000
  70
    32
  0
VERTEX
  8
0
  5
9A1F
 10
383.539
 20
604.395
 30
0.000000
  70
    32
  0
VERTEX
  8
0
  5
9A20
 10
383.569
 20
604.403
 30
0.000000
  70
    32
  0
VERTEX
  8
0
  5
9A21
 10
383.598
 20
604.411
 30
0.000000
  70
    32
  0
VERTEX
  8
0
  5
9A22
 10
383.628
 20
604.420
 30
0.000000
  70
    32
  0
VERTEX
  8
0
  5
9A23
 10
383.657
 20
604.429
 30
0.000000
  70
    32
  0
VERTEX
  8
0
  5
9A24
 10
383.686
 20
604.439
 30
0.000000
  70
    32
  0
VERTEX
  8
0
  5
9A25
 10
383.715
 20
604.448
 30
0.000000
  70
    32
  0
VERTEX
  8
0
  5
9A26
 10
383.744
 20
604.459
 30
0.000000
  70
    32
  0
VERTEX
  8
0
  5
9A27
 10
383.773
 20
604.469
 30
0.000000
  70
    32
  0
VERTEX
  8
0
  5
9A28
 10
383.802
 20
604.480
 30
0.000000
  70
    32
  0
VERTEX
  8
0
  5
9A29
 10
383.830
 20
604.491
 30
0.000000
  70
    32
  0
VERTEX
  8
0
  5
9A2A
 10
383.859
 20
604.503
 30
0.000000
  70
    32
  0
VERTEX
  8
0
  5
9A2B
 10
383.887
 20
604.515
 30
0.000000
  70
    32
  0
VERTEX
  8
0
  5
9A2C
 10
383.915
 20
604.527
 30
0.000000
  70
    32
  0
VERTEX
  8
0
  5
9A2D
 10
383.943
 20
604.539
 30
0.000000
  70
    32
  0
VERTEX
  8
0
  5
9A2E
 10
383.971
 20
604.552
 30
0.000000
  70
    32
  0
VERTEX
  8
0
  5
9A2F
 10
383.999
 20
604.566
 30
0.000000
  70
    32
  0
VERTEX
  8
0
  5
9A30
 10
384.026
 20
604.579
 30
0.000000
  70
    32
  0
VERTEX
  8
0
  5
9A31
 10
384.053
 20
604.593
 30
0.000000
  70
    32
  0
VERTEX
  8
0
  5
9A32
 10
384.080
 20
604.608
 30
0.000000
  70
    32
  0
VERTEX
  8
0
  5
9A33
 10
384.107
 20
604.622
 30
0.000000
  70
    32
  0
VERTEX
  8
0
  5
9A34
 10
384.134
 20
604.637
 30
0.000000
  70
    32
  0
VERTEX
  8
0
  5
9A35
 10
384.161
 20
604.652
 30
0.000000
  70
    32
  0
VERTEX
  8
0
  5
9A36
 10
384.187
 20
604.668
 30
0.000000
  70
    32
  0
VERTEX
  8
0
  5
9A37
 10
384.213
 20
604.684
 30
0.000000
  70
    32
  0
VERTEX
  8
0
  5
9A38
 10
384.239
 20
604.700
 30
0.000000
  70
    32
  0
VERTEX
  8
0
  5
9A39
 10
384.265
 20
604.717
 30
0.000000
  70
    32
  0
VERTEX
  8
0
  5
9A3A
 10
384.291
 20
604.734
 30
0.000000
  70
    32
  0
VERTEX
  8
0
  5
9A3B
 10
384.316
 20
604.751
 30
0.000000
  70
    32
  0
VERTEX
  8
0
  5
9A3C
 10
384.341
 20
604.768
 30
0.000000
  70
    32
  0
VERTEX
  8
0
  5
9A3D
 10
384.366
 20
604.786
 30
0.000000
  70
    32
  0
VERTEX
  8
0
  5
9A3E
 10
384.391
 20
604.804
 30
0.000000
  70
    32
  0
VERTEX
  8
0
  5
9A3F
 10
384.416
 20
604.823
 30
0.000000
  70
    32
  0
VERTEX
  8
0
  5
9A40
 10
384.440
 20
604.842
 30
0.000000
  70
    32
  0
VERTEX
  8
0
  5
9A41
 10
384.464
 20
604.861
 30
0.000000
  70
    32
  0
VERTEX
  8
0
  5
9A42
 10
384.488
 20
604.880
 30
0.000000
  70
    32
  0
VERTEX
  8
0
  5
9A43
 10
384.512
 20
604.899
 30
0.000000
  70
    32
  0
VERTEX
  8
0
  5
9A44
 10
384.535
 20
604.919
 30
0.000000
  70
    32
  0
VERTEX
  8
0
  5
9A45
 10
384.558
 20
604.940
 30
0.000000
  70
    32
  0
VERTEX
  8
0
  5
9A46
 10
384.581
 20
604.960
 30
0.000000
  70
    32
  0
VERTEX
  8
0
  5
9A47
 10
384.603
 20
604.981
 30
0.000000
  70
    32
  0
VERTEX
  8
0
  5
9A48
 10
384.626
 20
605.002
 30
0.000000
  70
    32
  0
VERTEX
  8
0
  5
9A49
 10
384.648
 20
605.023
 30
0.000000
  70
    32
  0
VERTEX
  8
0
  5
9A4A
 10
384.670
 20
605.045
 30
0.000000
  70
    32
  0
VERTEX
  8
0
  5
9A4B
 10
384.691
 20
605.066
 30
0.000000
  70
    32
  0
VERTEX
  8
0
  5
9A4C
 10
384.713
 20
605.089
 30
0.000000
  70
    32
  0
VERTEX
  8
0
  5
9A4D
 10
384.734
 20
605.111
 30
0.000000
  70
    32
  0
VERTEX
  8
0
  5
9A4E
 10
384.754
 20
605.134
 30
0.000000
  70
    32
  0
VERTEX
  8
0
  5
9A4F
 10
384.775
 20
605.156
 30
0.000000
  70
    32
  0
VERTEX
  8
0
  5
9A50
 10
384.795
 20
605.179
 30
0.000000
  70
    32
  0
VERTEX
  8
0
  5
9A51
 10
384.815
 20
605.203
 30
0.000000
  70
    32
  0
VERTEX
  8
0
  5
9A52
 10
384.835
 20
605.226
 30
0.000000
  70
    32
  0
VERTEX
  8
0
  5
9A53
 10
384.854
 20
605.250
 30
0.000000
  70
    32
  0
VERTEX
  8
0
  5
9A54
 10
384.873
 20
605.274
 30
0.000000
  70
    32
  0
VERTEX
  8
0
  5
9A55
 10
384.892
 20
605.299
 30
0.000000
  70
    32
  0
VERTEX
  8
0
  5
9A56
 10
384.910
 20
605.323
 30
0.000000
  70
    32
  0
VERTEX
  8
0
  5
9A57
 10
384.928
 20
605.348
 30
0.000000
  70
    32
  0
VERTEX
  8
0
  5
9A58
 10
384.946
 20
605.373
 30
0.000000
  70
    32
  0
VERTEX
  8
0
  5
9A59
 10
384.963
 20
605.398
 30
0.000000
  70
    32
  0
VERTEX
  8
0
  5
9A5A
 10
384.981
 20
605.423
 30
0.000000
  70
    32
  0
VERTEX
  8
0
  5
9A5B
 10
384.998
 20
605.449
 30
0.000000
  70
    32
  0
VERTEX
  8
0
  5
9A5C
 10
385.014
 20
605.475
 30
0.000000
  70
    32
  0
VERTEX
  8
0
  5
9A5D
 10
385.030
 20
605.501
 30
0.000000
  70
    32
  0
VERTEX
  8
0
  5
9A5E
 10
385.046
 20
605.527
 30
0.000000
  70
    32
  0
VERTEX
  8
0
  5
9A5F
 10
385.062
 20
605.554
 30
0.000000
  70
    32
  0
VERTEX
  8
0
  5
9A60
 10
385.077
 20
605.580
 30
0.000000
  70
    32
  0
VERTEX
  8
0
  5
9A61
 10
385.092
 20
605.607
 30
0.000000
  70
    32
  0
VERTEX
  8
0
  5
9A62
 10
385.107
 20
605.634
 30
0.000000
  70
    32
  0
VERTEX
  8
0
  5
9A63
 10
385.121
 20
605.661
 30
0.000000
  70
    32
  0
VERTEX
  8
0
  5
9A64
 10
385.135
 20
605.688
 30
0.000000
  70
    32
  0
VERTEX
  8
0
  5
9A65
 10
385.149
 20
605.716
 30
0.000000
  70
    32
  0
VERTEX
  8
0
  5
9A66
 10
385.162
 20
605.744
 30
0.000000
  70
    32
  0
VERTEX
  8
0
  5
9A67
 10
385.175
 20
605.771
 30
0.000000
  70
    32
  0
VERTEX
  8
0
  5
9A68
 10
385.188
 20
605.799
 30
0.000000
  70
    32
  0
VERTEX
  8
0
  5
9A69
 10
385.200
 20
605.827
 30
0.000000
  70
    32
  0
VERTEX
  8
0
  5
9A6A
 10
385.212
 20
605.856
 30
0.000000
  70
    32
  0
VERTEX
  8
0
  5
9A6B
 10
385.223
 20
605.884
 30
0.000000
  70
    32
  0
VERTEX
  8
0
  5
9A6C
 10
385.234
 20
605.913
 30
0.000000
  70
    32
  0
VERTEX
  8
0
  5
9A6D
 10
385.245
 20
605.941
 30
0.000000
  70
    32
  0
VERTEX
  8
0
  5
9A6E
 10
385.256
 20
605.970
 30
0.000000
  70
    32
  0
VERTEX
  8
0
  5
9A6F
 10
385.266
 20
605.999
 30
0.000000
  70
    32
  0
VERTEX
  8
0
  5
9A70
 10
385.276
 20
606.028
 30
0.000000
  70
    32
  0
VERTEX
  8
0
  5
9A71
 10
385.285
 20
606.057
 30
0.000000
  70
    32
  0
VERTEX
  8
0
  5
9A72
 10
385.294
 20
606.087
 30
0.000000
  70
    32
  0
VERTEX
  8
0
  5
9A73
 10
385.303
 20
606.116
 30
0.000000
  70
    32
  0
VERTEX
  8
0
  5
9A74
 10
385.311
 20
606.146
 30
0.000000
  70
    32
  0
VERTEX
  8
0
  5
9A75
 10
385.319
 20
606.175
 30
0.000000
  70
    32
  0
VERTEX
  8
0
  5
9A76
 10
385.327
 20
606.205
 30
0.000000
  70
    32
  0
VERTEX
  8
0
  5
9A77
 10
385.334
 20
606.235
 30
0.000000
  70
    32
  0
VERTEX
  8
0
  5
9A78
 10
385.341
 20
606.265
 30
0.000000
  70
    32
  0
VERTEX
  8
0
  5
9A79
 10
385.348
 20
606.295
 30
0.000000
  70
    32
  0
VERTEX
  8
0
  5
9A7A
 10
385.354
 20
606.325
 30
0.000000
  70
    32
  0
VERTEX
  8
0
  5
9A7B
 10
385.360
 20
606.355
 30
0.000000
  70
    32
  0
VERTEX
  8
0
  5
9A7C
 10
385.365
 20
606.385
 30
0.000000
  70
    32
  0
VERTEX
  8
0
  5
9A7D
 10
385.370
 20
606.415
 30
0.000000
  70
    32
  0
VERTEX
  8
0
  5
9A7E
 10
385.375
 20
606.446
 30
0.000000
  70
    32
  0
VERTEX
  8
0
  5
9A7F
 10
385.379
 20
606.476
 30
0.000000
  70
    32
  0
VERTEX
  8
0
  5
9A80
 10
385.383
 20
606.506
 30
0.000000
  70
    32
  0
VERTEX
  8
0
  5
9A81
 10
385.387
 20
606.537
 30
0.000000
  70
    32
  0
VERTEX
  8
0
  5
9A82
 10
385.390
 20
606.567
 30
0.000000
  70
    32
  0
VERTEX
  8
0
  5
9A83
 10
385.393
 20
606.598
 30
0.000000
  70
    32
  0
VERTEX
  8
0
  5
9A84
 10
385.395
 20
606.629
 30
0.000000
  70
    32
  0
VERTEX
  8
0
  5
9A85
 10
385.397
 20
606.659
 30
0.000000
  70
    32
  0
VERTEX
  8
0
  5
9A86
 10
385.399
 20
606.690
 30
0.000000
  70
    32
  0
VERTEX
  8
0
  5
9A87
 10
385.400
 20
606.720
 30
0.000000
  70
    32
  0
VERTEX
  8
0
  5
9A88
 10
385.401
 20
606.751
 30
0.000000
  70
    32
  0
VERTEX
  8
0
  5
9A89
 10
385.402
 20
606.782
 30
0.000000
  70
    32
  0
VERTEX
  8
0
  5
9A8A
 10
385.402
 20
606.812
 30
0.000000
  70
    32
  0
SEQEND
  8
0
  5
9A8B
  0
LINE
  5
9589
  8
0
 10
310.30197684542537
 20
638.31307213659159
 30
0.0
 11
390.77710284542547
 21
638.31307213659159
 31
0.0
  0
LINE
  5
958A
  8
0
 10
376.77710284542547
 20
621.19785613659155
 30
0.0
 11
376.77710284542547
 21
638.31307213659159
 31
0.0
  0
LINE
  5
958B
  8
0
 10
328.90197684542528
 20
638.31307213659159
 30
0.0
 11
328.90197684542528
 21
621.31273213659165
 31
0.0
  0
LINE
  5
958C
  8
0
 10
310.30197684542537
 20
638.31307213659159
 30
0.0
 11
310.30197684542537
 21
621.31273213659165
 31
0.0
  0
LINE
  5
958D
  8
0
 10
304.50197684542547
 20
637.31305213659175
 30
0.0
 11
304.50197684542547
 21
609.31249213659169
 31
0.0
  0
LINE
  5
958E
  8
0
 10
307.02055284542558
 20
609.31249213659169
 30
0.0
 11
338.99862284542547
 21
614.76102713659157
 31
0.0
  0
LINE
  5
958F
  8
0
 10
307.10197684542572
 20
608.31247213659174
 30
0.0
 11
383.40197684542539
 21
621.31273213659165
 31
0.0
  0
LINE
  5
9590
  8
0
 10
382.90197684542528
 20
604.31239213659171
 30
0.0
 11
307.42767184542572
 21
604.31239213659171
 31
0.0
  0
LINE
  5
9591
  8
0
 10
383.72767184542562
 20
617.31265213659174
 30
0.0
 11
307.42767184542572
 21
604.31239213659171
 31
0.0
  0
LINE
  5
9592
  8
0
 10
304.50197684542547
 20
613.3125721365916
 30
0.0
 11
303.30197684542537
 21
613.3125721365916
 31
0.0
  0
LINE
  5
9593
  8
0
 10
307.02055284542558
 20
609.31249213659169
 30
0.0
 11
303.00197684542547
 21
609.31249213659169
 31
0.0
  0
LINE
  5
9594
  8
0
 10
303.00197684542547
 20
608.31247213659174
 30
0.0
 11
307.10197684542572
 21
608.31247213659174
 31
0.0
  0
POLYLINE
  5
9595
  8
0
 10
303.00197684602534
 20
605.81242213659175
 30
0.0
 66
     1
 70
     8
  0
VERTEX
  8
0
  5
9A8C
 10
303.002
 20
605.812
 30
0.000000
  70
    32
  0
VERTEX
  8
0
  5
9A8D
 10
303.002
 20
605.794
 30
0.000000
  70
    32
  0
VERTEX
  8
0
  5
9A8E
 10
303.002
 20
605.776
 30
0.000000
  70
    32
  0
VERTEX
  8
0
  5
9A8F
 10
303.003
 20
605.757
 30
0.000000
  70
    32
  0
VERTEX
  8
0
  5
9A90
 10
303.004
 20
605.739
 30
0.000000
  70
    32
  0
VERTEX
  8
0
  5
9A91
 10
303.005
 20
605.720
 30
0.000000
  70
    32
  0
VERTEX
  8
0
  5
9A92
 10
303.006
 20
605.702
 30
0.000000
  70
    32
  0
VERTEX
  8
0
  5
9A93
 10
303.008
 20
605.684
 30
0.000000
  70
    32
  0
VERTEX
  8
0
  5
9A94
 10
303.009
 20
605.665
 30
0.000000
  70
    32
  0
VERTEX
  8
0
  5
9A95
 10
303.011
 20
605.647
 30
0.000000
  70
    32
  0
VERTEX
  8
0
  5
9A96
 10
303.013
 20
605.629
 30
0.000000
  70
    32
  0
VERTEX
  8
0
  5
9A97
 10
303.016
 20
605.611
 30
0.000000
  70
    32
  0
VERTEX
  8
0
  5
9A98
 10
303.018
 20
605.592
 30
0.000000
  70
    32
  0
VERTEX
  8
0
  5
9A99
 10
303.021
 20
605.574
 30
0.000000
  70
    32
  0
VERTEX
  8
0
  5
9A9A
 10
303.024
 20
605.556
 30
0.000000
  70
    32
  0
VERTEX
  8
0
  5
9A9B
 10
303.027
 20
605.538
 30
0.000000
  70
    32
  0
VERTEX
  8
0
  5
9A9C
 10
303.031
 20
605.520
 30
0.000000
  70
    32
  0
VERTEX
  8
0
  5
9A9D
 10
303.035
 20
605.502
 30
0.000000
  70
    32
  0
VERTEX
  8
0
  5
9A9E
 10
303.038
 20
605.484
 30
0.000000
  70
    32
  0
VERTEX
  8
0
  5
9A9F
 10
303.043
 20
605.466
 30
0.000000
  70
    32
  0
VERTEX
  8
0
  5
9AA0
 10
303.047
 20
605.448
 30
0.000000
  70
    32
  0
VERTEX
  8
0
  5
9AA1
 10
303.052
 20
605.430
 30
0.000000
  70
    32
  0
VERTEX
  8
0
  5
9AA2
 10
303.056
 20
605.412
 30
0.000000
  70
    32
  0
VERTEX
  8
0
  5
9AA3
 10
303.061
 20
605.395
 30
0.000000
  70
    32
  0
VERTEX
  8
0
  5
9AA4
 10
303.067
 20
605.377
 30
0.000000
  70
    32
  0
VERTEX
  8
0
  5
9AA5
 10
303.072
 20
605.359
 30
0.000000
  70
    32
  0
VERTEX
  8
0
  5
9AA6
 10
303.078
 20
605.342
 30
0.000000
  70
    32
  0
VERTEX
  8
0
  5
9AA7
 10
303.084
 20
605.324
 30
0.000000
  70
    32
  0
VERTEX
  8
0
  5
9AA8
 10
303.090
 20
605.307
 30
0.000000
  70
    32
  0
VERTEX
  8
0
  5
9AA9
 10
303.096
 20
605.290
 30
0.000000
  70
    32
  0
VERTEX
  8
0
  5
9AAA
 10
303.102
 20
605.273
 30
0.000000
  70
    32
  0
VERTEX
  8
0
  5
9AAB
 10
303.109
 20
605.255
 30
0.000000
  70
    32
  0
VERTEX
  8
0
  5
9AAC
 10
303.116
 20
605.238
 30
0.000000
  70
    32
  0
VERTEX
  8
0
  5
9AAD
 10
303.123
 20
605.221
 30
0.000000
  70
    32
  0
VERTEX
  8
0
  5
9AAE
 10
303.131
 20
605.205
 30
0.000000
  70
    32
  0
VERTEX
  8
0
  5
9AAF
 10
303.138
 20
605.188
 30
0.000000
  70
    32
  0
VERTEX
  8
0
  5
9AB0
 10
303.146
 20
605.171
 30
0.000000
  70
    32
  0
VERTEX
  8
0
  5
9AB1
 10
303.154
 20
605.154
 30
0.000000
  70
    32
  0
VERTEX
  8
0
  5
9AB2
 10
303.162
 20
605.138
 30
0.000000
  70
    32
  0
VERTEX
  8
0
  5
9AB3
 10
303.171
 20
605.122
 30
0.000000
  70
    32
  0
VERTEX
  8
0
  5
9AB4
 10
303.179
 20
605.105
 30
0.000000
  70
    32
  0
VERTEX
  8
0
  5
9AB5
 10
303.188
 20
605.089
 30
0.000000
  70
    32
  0
VERTEX
  8
0
  5
9AB6
 10
303.197
 20
605.073
 30
0.000000
  70
    32
  0
VERTEX
  8
0
  5
9AB7
 10
303.206
 20
605.057
 30
0.000000
  70
    32
  0
VERTEX
  8
0
  5
9AB8
 10
303.215
 20
605.041
 30
0.000000
  70
    32
  0
VERTEX
  8
0
  5
9AB9
 10
303.225
 20
605.026
 30
0.000000
  70
    32
  0
VERTEX
  8
0
  5
9ABA
 10
303.235
 20
605.010
 30
0.000000
  70
    32
  0
VERTEX
  8
0
  5
9ABB
 10
303.245
 20
604.994
 30
0.000000
  70
    32
  0
VERTEX
  8
0
  5
9ABC
 10
303.255
 20
604.979
 30
0.000000
  70
    32
  0
VERTEX
  8
0
  5
9ABD
 10
303.265
 20
604.964
 30
0.000000
  70
    32
  0
VERTEX
  8
0
  5
9ABE
 10
303.276
 20
604.949
 30
0.000000
  70
    32
  0
VERTEX
  8
0
  5
9ABF
 10
303.286
 20
604.934
 30
0.000000
  70
    32
  0
VERTEX
  8
0
  5
9AC0
 10
303.297
 20
604.919
 30
0.000000
  70
    32
  0
VERTEX
  8
0
  5
9AC1
 10
303.308
 20
604.904
 30
0.000000
  70
    32
  0
VERTEX
  8
0
  5
9AC2
 10
303.319
 20
604.890
 30
0.000000
  70
    32
  0
VERTEX
  8
0
  5
9AC3
 10
303.331
 20
604.875
 30
0.000000
  70
    32
  0
VERTEX
  8
0
  5
9AC4
 10
303.342
 20
604.861
 30
0.000000
  70
    32
  0
VERTEX
  8
0
  5
9AC5
 10
303.354
 20
604.847
 30
0.000000
  70
    32
  0
VERTEX
  8
0
  5
9AC6
 10
303.366
 20
604.833
 30
0.000000
  70
    32
  0
VERTEX
  8
0
  5
9AC7
 10
303.378
 20
604.819
 30
0.000000
  70
    32
  0
VERTEX
  8
0
  5
9AC8
 10
303.391
 20
604.805
 30
0.000000
  70
    32
  0
VERTEX
  8
0
  5
9AC9
 10
303.403
 20
604.792
 30
0.000000
  70
    32
  0
VERTEX
  8
0
  5
9ACA
 10
303.416
 20
604.778
 30
0.000000
  70
    32
  0
VERTEX
  8
0
  5
9ACB
 10
303.428
 20
604.765
 30
0.000000
  70
    32
  0
VERTEX
  8
0
  5
9ACC
 10
303.441
 20
604.752
 30
0.000000
  70
    32
  0
VERTEX
  8
0
  5
9ACD
 10
303.454
 20
604.739
 30
0.000000
  70
    32
  0
VERTEX
  8
0
  5
9ACE
 10
303.468
 20
604.726
 30
0.000000
  70
    32
  0
VERTEX
  8
0
  5
9ACF
 10
303.481
 20
604.713
 30
0.000000
  70
    32
  0
VERTEX
  8
0
  5
9AD0
 10
303.495
 20
604.701
 30
0.000000
  70
    32
  0
VERTEX
  8
0
  5
9AD1
 10
303.508
 20
604.689
 30
0.000000
  70
    32
  0
VERTEX
  8
0
  5
9AD2
 10
303.522
 20
604.677
 30
0.000000
  70
    32
  0
VERTEX
  8
0
  5
9AD3
 10
303.536
 20
604.665
 30
0.000000
  70
    32
  0
VERTEX
  8
0
  5
9AD4
 10
303.550
 20
604.653
 30
0.000000
  70
    32
  0
VERTEX
  8
0
  5
9AD5
 10
303.565
 20
604.641
 30
0.000000
  70
    32
  0
VERTEX
  8
0
  5
9AD6
 10
303.579
 20
604.630
 30
0.000000
  70
    32
  0
VERTEX
  8
0
  5
9AD7
 10
303.594
 20
604.619
 30
0.000000
  70
    32
  0
VERTEX
  8
0
  5
9AD8
 10
303.608
 20
604.608
 30
0.000000
  70
    32
  0
VERTEX
  8
0
  5
9AD9
 10
303.623
 20
604.597
 30
0.000000
  70
    32
  0
VERTEX
  8
0
  5
9ADA
 10
303.638
 20
604.586
 30
0.000000
  70
    32
  0
VERTEX
  8
0
  5
9ADB
 10
303.653
 20
604.576
 30
0.000000
  70
    32
  0
VERTEX
  8
0
  5
9ADC
 10
303.669
 20
604.565
 30
0.000000
  70
    32
  0
VERTEX
  8
0
  5
9ADD
 10
303.684
 20
604.555
 30
0.000000
  70
    32
  0
VERTEX
  8
0
  5
9ADE
 10
303.699
 20
604.545
 30
0.000000
  70
    32
  0
VERTEX
  8
0
  5
9ADF
 10
303.715
 20
604.535
 30
0.000000
  70
    32
  0
VERTEX
  8
0
  5
9AE0
 10
303.731
 20
604.526
 30
0.000000
  70
    32
  0
VERTEX
  8
0
  5
9AE1
 10
303.747
 20
604.516
 30
0.000000
  70
    32
  0
VERTEX
  8
0
  5
9AE2
 10
303.763
 20
604.507
 30
0.000000
  70
    32
  0
VERTEX
  8
0
  5
9AE3
 10
303.779
 20
604.498
 30
0.000000
  70
    32
  0
VERTEX
  8
0
  5
9AE4
 10
303.795
 20
604.490
 30
0.000000
  70
    32
  0
VERTEX
  8
0
  5
9AE5
 10
303.811
 20
604.481
 30
0.000000
  70
    32
  0
VERTEX
  8
0
  5
9AE6
 10
303.828
 20
604.473
 30
0.000000
  70
    32
  0
VERTEX
  8
0
  5
9AE7
 10
303.844
 20
604.464
 30
0.000000
  70
    32
  0
VERTEX
  8
0
  5
9AE8
 10
303.861
 20
604.456
 30
0.000000
  70
    32
  0
VERTEX
  8
0
  5
9AE9
 10
303.877
 20
604.449
 30
0.000000
  70
    32
  0
VERTEX
  8
0
  5
9AEA
 10
303.894
 20
604.441
 30
0.000000
  70
    32
  0
VERTEX
  8
0
  5
9AEB
 10
303.911
 20
604.434
 30
0.000000
  70
    32
  0
VERTEX
  8
0
  5
9AEC
 10
303.928
 20
604.427
 30
0.000000
  70
    32
  0
VERTEX
  8
0
  5
9AED
 10
303.945
 20
604.420
 30
0.000000
  70
    32
  0
VERTEX
  8
0
  5
9AEE
 10
303.962
 20
604.413
 30
0.000000
  70
    32
  0
VERTEX
  8
0
  5
9AEF
 10
303.979
 20
604.406
 30
0.000000
  70
    32
  0
VERTEX
  8
0
  5
9AF0
 10
303.997
 20
604.400
 30
0.000000
  70
    32
  0
VERTEX
  8
0
  5
9AF1
 10
304.014
 20
604.394
 30
0.000000
  70
    32
  0
VERTEX
  8
0
  5
9AF2
 10
304.031
 20
604.388
 30
0.000000
  70
    32
  0
VERTEX
  8
0
  5
9AF3
 10
304.049
 20
604.382
 30
0.000000
  70
    32
  0
VERTEX
  8
0
  5
9AF4
 10
304.067
 20
604.377
 30
0.000000
  70
    32
  0
VERTEX
  8
0
  5
9AF5
 10
304.084
 20
604.372
 30
0.000000
  70
    32
  0
VERTEX
  8
0
  5
9AF6
 10
304.102
 20
604.367
 30
0.000000
  70
    32
  0
VERTEX
  8
0
  5
9AF7
 10
304.120
 20
604.362
 30
0.000000
  70
    32
  0
VERTEX
  8
0
  5
9AF8
 10
304.138
 20
604.357
 30
0.000000
  70
    32
  0
VERTEX
  8
0
  5
9AF9
 10
304.155
 20
604.353
 30
0.000000
  70
    32
  0
VERTEX
  8
0
  5
9AFA
 10
304.173
 20
604.349
 30
0.000000
  70
    32
  0
VERTEX
  8
0
  5
9AFB
 10
304.191
 20
604.345
 30
0.000000
  70
    32
  0
VERTEX
  8
0
  5
9AFC
 10
304.209
 20
604.341
 30
0.000000
  70
    32
  0
VERTEX
  8
0
  5
9AFD
 10
304.227
 20
604.338
 30
0.000000
  70
    32
  0
VERTEX
  8
0
  5
9AFE
 10
304.246
 20
604.334
 30
0.000000
  70
    32
  0
VERTEX
  8
0
  5
9AFF
 10
304.264
 20
604.331
 30
0.000000
  70
    32
  0
VERTEX
  8
0
  5
9B00
 10
304.282
 20
604.329
 30
0.000000
  70
    32
  0
VERTEX
  8
0
  5
9B01
 10
304.300
 20
604.326
 30
0.000000
  70
    32
  0
VERTEX
  8
0
  5
9B02
 10
304.318
 20
604.324
 30
0.000000
  70
    32
  0
VERTEX
  8
0
  5
9B03
 10
304.337
 20
604.322
 30
0.000000
  70
    32
  0
VERTEX
  8
0
  5
9B04
 10
304.355
 20
604.320
 30
0.000000
  70
    32
  0
VERTEX
  8
0
  5
9B05
 10
304.373
 20
604.318
 30
0.000000
  70
    32
  0
VERTEX
  8
0
  5
9B06
 10
304.392
 20
604.316
 30
0.000000
  70
    32
  0
VERTEX
  8
0
  5
9B07
 10
304.410
 20
604.315
 30
0.000000
  70
    32
  0
VERTEX
  8
0
  5
9B08
 10
304.428
 20
604.314
 30
0.000000
  70
    32
  0
VERTEX
  8
0
  5
9B09
 10
304.447
 20
604.313
 30
0.000000
  70
    32
  0
VERTEX
  8
0
  5
9B0A
 10
304.465
 20
604.313
 30
0.000000
  70
    32
  0
VERTEX
  8
0
  5
9B0B
 10
304.484
 20
604.313
 30
0.000000
  70
    32
  0
VERTEX
  8
0
  5
9B0C
 10
304.502
 20
604.312
 30
0.000000
  70
    32
  0
SEQEND
  8
0
  5
9B0D
  0
POLYLINE
  5
9596
  8
0
 10
302.50197684602534
 20
605.81242213659175
 30
0.0
 66
     1
 70
     8
  0
VERTEX
  8
0
  5
9B0E
 10
302.502
 20
605.812
 30
0.000000
  70
    32
  0
VERTEX
  8
0
  5
9B0F
 10
302.502
 20
605.794
 30
0.000000
  70
    32
  0
VERTEX
  8
0
  5
9B10
 10
302.502
 20
605.776
 30
0.000000
  70
    32
  0
VERTEX
  8
0
  5
9B11
 10
302.503
 20
605.757
 30
0.000000
  70
    32
  0
VERTEX
  8
0
  5
9B12
 10
302.504
 20
605.739
 30
0.000000
  70
    32
  0
VERTEX
  8
0
  5
9B13
 10
302.505
 20
605.720
 30
0.000000
  70
    32
  0
VERTEX
  8
0
  5
9B14
 10
302.506
 20
605.702
 30
0.000000
  70
    32
  0
VERTEX
  8
0
  5
9B15
 10
302.508
 20
605.684
 30
0.000000
  70
    32
  0
VERTEX
  8
0
  5
9B16
 10
302.509
 20
605.665
 30
0.000000
  70
    32
  0
VERTEX
  8
0
  5
9B17
 10
302.511
 20
605.647
 30
0.000000
  70
    32
  0
VERTEX
  8
0
  5
9B18
 10
302.513
 20
605.629
 30
0.000000
  70
    32
  0
VERTEX
  8
0
  5
9B19
 10
302.516
 20
605.611
 30
0.000000
  70
    32
  0
VERTEX
  8
0
  5
9B1A
 10
302.518
 20
605.592
 30
0.000000
  70
    32
  0
VERTEX
  8
0
  5
9B1B
 10
302.521
 20
605.574
 30
0.000000
  70
    32
  0
VERTEX
  8
0
  5
9B1C
 10
302.524
 20
605.556
 30
0.000000
  70
    32
  0
VERTEX
  8
0
  5
9B1D
 10
302.527
 20
605.538
 30
0.000000
  70
    32
  0
VERTEX
  8
0
  5
9B1E
 10
302.531
 20
605.520
 30
0.000000
  70
    32
  0
VERTEX
  8
0
  5
9B1F
 10
302.535
 20
605.502
 30
0.000000
  70
    32
  0
VERTEX
  8
0
  5
9B20
 10
302.538
 20
605.484
 30
0.000000
  70
    32
  0
VERTEX
  8
0
  5
9B21
 10
302.543
 20
605.466
 30
0.000000
  70
    32
  0
VERTEX
  8
0
  5
9B22
 10
302.547
 20
605.448
 30
0.000000
  70
    32
  0
VERTEX
  8
0
  5
9B23
 10
302.552
 20
605.430
 30
0.000000
  70
    32
  0
VERTEX
  8
0
  5
9B24
 10
302.556
 20
605.412
 30
0.000000
  70
    32
  0
VERTEX
  8
0
  5
9B25
 10
302.561
 20
605.395
 30
0.000000
  70
    32
  0
VERTEX
  8
0
  5
9B26
 10
302.567
 20
605.377
 30
0.000000
  70
    32
  0
VERTEX
  8
0
  5
9B27
 10
302.572
 20
605.359
 30
0.000000
  70
    32
  0
VERTEX
  8
0
  5
9B28
 10
302.578
 20
605.342
 30
0.000000
  70
    32
  0
VERTEX
  8
0
  5
9B29
 10
302.584
 20
605.324
 30
0.000000
  70
    32
  0
VERTEX
  8
0
  5
9B2A
 10
302.590
 20
605.307
 30
0.000000
  70
    32
  0
VERTEX
  8
0
  5
9B2B
 10
302.596
 20
605.290
 30
0.000000
  70
    32
  0
VERTEX
  8
0
  5
9B2C
 10
302.602
 20
605.273
 30
0.000000
  70
    32
  0
VERTEX
  8
0
  5
9B2D
 10
302.609
 20
605.255
 30
0.000000
  70
    32
  0
VERTEX
  8
0
  5
9B2E
 10
302.616
 20
605.238
 30
0.000000
  70
    32
  0
VERTEX
  8
0
  5
9B2F
 10
302.623
 20
605.221
 30
0.000000
  70
    32
  0
VERTEX
  8
0
  5
9B30
 10
302.631
 20
605.205
 30
0.000000
  70
    32
  0
VERTEX
  8
0
  5
9B31
 10
302.638
 20
605.188
 30
0.000000
  70
    32
  0
VERTEX
  8
0
  5
9B32
 10
302.646
 20
605.171
 30
0.000000
  70
    32
  0
VERTEX
  8
0
  5
9B33
 10
302.654
 20
605.154
 30
0.000000
  70
    32
  0
VERTEX
  8
0
  5
9B34
 10
302.662
 20
605.138
 30
0.000000
  70
    32
  0
VERTEX
  8
0
  5
9B35
 10
302.671
 20
605.122
 30
0.000000
  70
    32
  0
VERTEX
  8
0
  5
9B36
 10
302.679
 20
605.105
 30
0.000000
  70
    32
  0
VERTEX
  8
0
  5
9B37
 10
302.688
 20
605.089
 30
0.000000
  70
    32
  0
VERTEX
  8
0
  5
9B38
 10
302.697
 20
605.073
 30
0.000000
  70
    32
  0
VERTEX
  8
0
  5
9B39
 10
302.706
 20
605.057
 30
0.000000
  70
    32
  0
VERTEX
  8
0
  5
9B3A
 10
302.715
 20
605.041
 30
0.000000
  70
    32
  0
VERTEX
  8
0
  5
9B3B
 10
302.725
 20
605.026
 30
0.000000
  70
    32
  0
VERTEX
  8
0
  5
9B3C
 10
302.735
 20
605.010
 30
0.000000
  70
    32
  0
VERTEX
  8
0
  5
9B3D
 10
302.745
 20
604.994
 30
0.000000
  70
    32
  0
VERTEX
  8
0
  5
9B3E
 10
302.755
 20
604.979
 30
0.000000
  70
    32
  0
VERTEX
  8
0
  5
9B3F
 10
302.765
 20
604.964
 30
0.000000
  70
    32
  0
VERTEX
  8
0
  5
9B40
 10
302.776
 20
604.949
 30
0.000000
  70
    32
  0
VERTEX
  8
0
  5
9B41
 10
302.786
 20
604.934
 30
0.000000
  70
    32
  0
VERTEX
  8
0
  5
9B42
 10
302.797
 20
604.919
 30
0.000000
  70
    32
  0
VERTEX
  8
0
  5
9B43
 10
302.808
 20
604.904
 30
0.000000
  70
    32
  0
VERTEX
  8
0
  5
9B44
 10
302.819
 20
604.890
 30
0.000000
  70
    32
  0
VERTEX
  8
0
  5
9B45
 10
302.831
 20
604.875
 30
0.000000
  70
    32
  0
VERTEX
  8
0
  5
9B46
 10
302.842
 20
604.861
 30
0.000000
  70
    32
  0
VERTEX
  8
0
  5
9B47
 10
302.854
 20
604.847
 30
0.000000
  70
    32
  0
VERTEX
  8
0
  5
9B48
 10
302.866
 20
604.833
 30
0.000000
  70
    32
  0
VERTEX
  8
0
  5
9B49
 10
302.878
 20
604.819
 30
0.000000
  70
    32
  0
VERTEX
  8
0
  5
9B4A
 10
302.891
 20
604.805
 30
0.000000
  70
    32
  0
VERTEX
  8
0
  5
9B4B
 10
302.903
 20
604.792
 30
0.000000
  70
    32
  0
VERTEX
  8
0
  5
9B4C
 10
302.916
 20
604.778
 30
0.000000
  70
    32
  0
VERTEX
  8
0
  5
9B4D
 10
302.928
 20
604.765
 30
0.000000
  70
    32
  0
VERTEX
  8
0
  5
9B4E
 10
302.941
 20
604.752
 30
0.000000
  70
    32
  0
VERTEX
  8
0
  5
9B4F
 10
302.954
 20
604.739
 30
0.000000
  70
    32
  0
VERTEX
  8
0
  5
9B50
 10
302.968
 20
604.726
 30
0.000000
  70
    32
  0
VERTEX
  8
0
  5
9B51
 10
302.981
 20
604.713
 30
0.000000
  70
    32
  0
VERTEX
  8
0
  5
9B52
 10
302.995
 20
604.701
 30
0.000000
  70
    32
  0
VERTEX
  8
0
  5
9B53
 10
303.008
 20
604.689
 30
0.000000
  70
    32
  0
VERTEX
  8
0
  5
9B54
 10
303.022
 20
604.677
 30
0.000000
  70
    32
  0
VERTEX
  8
0
  5
9B55
 10
303.036
 20
604.665
 30
0.000000
  70
    32
  0
VERTEX
  8
0
  5
9B56
 10
303.050
 20
604.653
 30
0.000000
  70
    32
  0
VERTEX
  8
0
  5
9B57
 10
303.065
 20
604.641
 30
0.000000
  70
    32
  0
VERTEX
  8
0
  5
9B58
 10
303.079
 20
604.630
 30
0.000000
  70
    32
  0
VERTEX
  8
0
  5
9B59
 10
303.094
 20
604.619
 30
0.000000
  70
    32
  0
VERTEX
  8
0
  5
9B5A
 10
303.108
 20
604.608
 30
0.000000
  70
    32
  0
VERTEX
  8
0
  5
9B5B
 10
303.123
 20
604.597
 30
0.000000
  70
    32
  0
VERTEX
  8
0
  5
9B5C
 10
303.138
 20
604.586
 30
0.000000
  70
    32
  0
VERTEX
  8
0
  5
9B5D
 10
303.153
 20
604.576
 30
0.000000
  70
    32
  0
VERTEX
  8
0
  5
9B5E
 10
303.169
 20
604.565
 30
0.000000
  70
    32
  0
VERTEX
  8
0
  5
9B5F
 10
303.184
 20
604.555
 30
0.000000
  70
    32
  0
VERTEX
  8
0
  5
9B60
 10
303.199
 20
604.545
 30
0.000000
  70
    32
  0
VERTEX
  8
0
  5
9B61
 10
303.215
 20
604.535
 30
0.000000
  70
    32
  0
VERTEX
  8
0
  5
9B62
 10
303.231
 20
604.526
 30
0.000000
  70
    32
  0
VERTEX
  8
0
  5
9B63
 10
303.247
 20
604.516
 30
0.000000
  70
    32
  0
VERTEX
  8
0
  5
9B64
 10
303.263
 20
604.507
 30
0.000000
  70
    32
  0
VERTEX
  8
0
  5
9B65
 10
303.279
 20
604.498
 30
0.000000
  70
    32
  0
VERTEX
  8
0
  5
9B66
 10
303.295
 20
604.490
 30
0.000000
  70
    32
  0
VERTEX
  8
0
  5
9B67
 10
303.311
 20
604.481
 30
0.000000
  70
    32
  0
VERTEX
  8
0
  5
9B68
 10
303.328
 20
604.473
 30
0.000000
  70
    32
  0
VERTEX
  8
0
  5
9B69
 10
303.344
 20
604.464
 30
0.000000
  70
    32
  0
VERTEX
  8
0
  5
9B6A
 10
303.361
 20
604.456
 30
0.000000
  70
    32
  0
VERTEX
  8
0
  5
9B6B
 10
303.377
 20
604.449
 30
0.000000
  70
    32
  0
VERTEX
  8
0
  5
9B6C
 10
303.394
 20
604.441
 30
0.000000
  70
    32
  0
VERTEX
  8
0
  5
9B6D
 10
303.411
 20
604.434
 30
0.000000
  70
    32
  0
VERTEX
  8
0
  5
9B6E
 10
303.428
 20
604.427
 30
0.000000
  70
    32
  0
VERTEX
  8
0
  5
9B6F
 10
303.445
 20
604.420
 30
0.000000
  70
    32
  0
VERTEX
  8
0
  5
9B70
 10
303.462
 20
604.413
 30
0.000000
  70
    32
  0
VERTEX
  8
0
  5
9B71
 10
303.479
 20
604.406
 30
0.000000
  70
    32
  0
VERTEX
  8
0
  5
9B72
 10
303.497
 20
604.400
 30
0.000000
  70
    32
  0
VERTEX
  8
0
  5
9B73
 10
303.514
 20
604.394
 30
0.000000
  70
    32
  0
VERTEX
  8
0
  5
9B74
 10
303.531
 20
604.388
 30
0.000000
  70
    32
  0
VERTEX
  8
0
  5
9B75
 10
303.549
 20
604.382
 30
0.000000
  70
    32
  0
VERTEX
  8
0
  5
9B76
 10
303.567
 20
604.377
 30
0.000000
  70
    32
  0
VERTEX
  8
0
  5
9B77
 10
303.584
 20
604.372
 30
0.000000
  70
    32
  0
VERTEX
  8
0
  5
9B78
 10
303.602
 20
604.367
 30
0.000000
  70
    32
  0
VERTEX
  8
0
  5
9B79
 10
303.620
 20
604.362
 30
0.000000
  70
    32
  0
VERTEX
  8
0
  5
9B7A
 10
303.638
 20
604.357
 30
0.000000
  70
    32
  0
VERTEX
  8
0
  5
9B7B
 10
303.655
 20
604.353
 30
0.000000
  70
    32
  0
VERTEX
  8
0
  5
9B7C
 10
303.673
 20
604.349
 30
0.000000
  70
    32
  0
VERTEX
  8
0
  5
9B7D
 10
303.691
 20
604.345
 30
0.000000
  70
    32
  0
VERTEX
  8
0
  5
9B7E
 10
303.709
 20
604.341
 30
0.000000
  70
    32
  0
VERTEX
  8
0
  5
9B7F
 10
303.727
 20
604.338
 30
0.000000
  70
    32
  0
VERTEX
  8
0
  5
9B80
 10
303.746
 20
604.334
 30
0.000000
  70
    32
  0
VERTEX
  8
0
  5
9B81
 10
303.764
 20
604.331
 30
0.000000
  70
    32
  0
VERTEX
  8
0
  5
9B82
 10
303.782
 20
604.329
 30
0.000000
  70
    32
  0
VERTEX
  8
0
  5
9B83
 10
303.800
 20
604.326
 30
0.000000
  70
    32
  0
VERTEX
  8
0
  5
9B84
 10
303.818
 20
604.324
 30
0.000000
  70
    32
  0
VERTEX
  8
0
  5
9B85
 10
303.837
 20
604.322
 30
0.000000
  70
    32
  0
VERTEX
  8
0
  5
9B86
 10
303.855
 20
604.320
 30
0.000000
  70
    32
  0
VERTEX
  8
0
  5
9B87
 10
303.873
 20
604.318
 30
0.000000
  70
    32
  0
VERTEX
  8
0
  5
9B88
 10
303.892
 20
604.316
 30
0.000000
  70
    32
  0
VERTEX
  8
0
  5
9B89
 10
303.910
 20
604.315
 30
0.000000
  70
    32
  0
VERTEX
  8
0
  5
9B8A
 10
303.928
 20
604.314
 30
0.000000
  70
    32
  0
VERTEX
  8
0
  5
9B8B
 10
303.947
 20
604.313
 30
0.000000
  70
    32
  0
VERTEX
  8
0
  5
9B8C
 10
303.965
 20
604.313
 30
0.000000
  70
    32
  0
VERTEX
  8
0
  5
9B8D
 10
303.984
 20
604.313
 30
0.000000
  70
    32
  0
VERTEX
  8
0
  5
9B8E
 10
304.002
 20
604.312
 30
0.000000
  70
    32
  0
SEQEND
  8
0
  5
9B8F
  0
LINE
  5
9597
  8
0
 10
303.30197684542537
 20
613.3125721365916
 30
0.0
 11
302.50197684542547
 21
613.3125721365916
 31
0.0
  0
LINE
  5
9598
  8
0
 10
302.50197684542547
 20
613.3125721365916
 30
0.0
 11
302.50197684542547
 21
605.81242213659175
 31
0.0
  0
LINE
  5
9599
  8
0
 10
303.00197684542547
 20
609.31249213659169
 30
0.0
 11
303.00197684542547
 21
605.81242213659175
 31
0.0
  0
POLYLINE
  5
959A
  8
0
 10
310.301976849146
 20
621.31273213659165
 30
0.0
 66
     1
 70
     8
  0
VERTEX
  8
0
  5
9B90
 10
310.302
 20
621.313
 30
0.000000
  70
    32
  0
VERTEX
  8
0
  5
9B91
 10
310.305
 20
621.084
 30
0.000000
  70
    32
  0
VERTEX
  8
0
  5
9B92
 10
310.313
 20
620.856
 30
0.000000
  70
    32
  0
VERTEX
  8
0
  5
9B93
 10
310.327
 20
620.629
 30
0.000000
  70
    32
  0
VERTEX
  8
0
  5
9B94
 10
310.347
 20
620.401
 30
0.000000
  70
    32
  0
VERTEX
  8
0
  5
9B95
 10
310.372
 20
620.174
 30
0.000000
  70
    32
  0
VERTEX
  8
0
  5
9B96
 10
310.403
 20
619.948
 30
0.000000
  70
    32
  0
VERTEX
  8
0
  5
9B97
 10
310.439
 20
619.723
 30
0.000000
  70
    32
  0
VERTEX
  8
0
  5
9B98
 10
310.481
 20
619.498
 30
0.000000
  70
    32
  0
VERTEX
  8
0
  5
9B99
 10
310.528
 20
619.275
 30
0.000000
  70
    32
  0
VERTEX
  8
0
  5
9B9A
 10
310.581
 20
619.053
 30
0.000000
  70
    32
  0
VERTEX
  8
0
  5
9B9B
 10
310.639
 20
618.832
 30
0.000000
  70
    32
  0
VERTEX
  8
0
  5
9B9C
 10
310.702
 20
618.613
 30
0.000000
  70
    32
  0
VERTEX
  8
0
  5
9B9D
 10
310.771
 20
618.395
 30
0.000000
  70
    32
  0
VERTEX
  8
0
  5
9B9E
 10
310.846
 20
618.180
 30
0.000000
  70
    32
  0
VERTEX
  8
0
  5
9B9F
 10
310.925
 20
617.966
 30
0.000000
  70
    32
  0
VERTEX
  8
0
  5
9BA0
 10
311.010
 20
617.754
 30
0.000000
  70
    32
  0
VERTEX
  8
0
  5
9BA1
 10
311.100
 20
617.544
 30
0.000000
  70
    32
  0
VERTEX
  8
0
  5
9BA2
 10
311.195
 20
617.336
 30
0.000000
  70
    32
  0
VERTEX
  8
0
  5
9BA3
 10
311.295
 20
617.131
 30
0.000000
  70
    32
  0
VERTEX
  8
0
  5
9BA4
 10
311.400
 20
616.929
 30
0.000000
  70
    32
  0
VERTEX
  8
0
  5
9BA5
 10
311.510
 20
616.729
 30
0.000000
  70
    32
  0
VERTEX
  8
0
  5
9BA6
 10
311.625
 20
616.531
 30
0.000000
  70
    32
  0
VERTEX
  8
0
  5
9BA7
 10
311.745
 20
616.337
 30
0.000000
  70
    32
  0
VERTEX
  8
0
  5
9BA8
 10
311.869
 20
616.146
 30
0.000000
  70
    32
  0
VERTEX
  8
0
  5
9BA9
 10
311.998
 20
615.958
 30
0.000000
  70
    32
  0
VERTEX
  8
0
  5
9BAA
 10
312.132
 20
615.773
 30
0.000000
  70
    32
  0
VERTEX
  8
0
  5
9BAB
 10
312.270
 20
615.591
 30
0.000000
  70
    32
  0
VERTEX
  8
0
  5
9BAC
 10
312.413
 20
615.413
 30
0.000000
  70
    32
  0
VERTEX
  8
0
  5
9BAD
 10
312.560
 20
615.238
 30
0.000000
  70
    32
  0
VERTEX
  8
0
  5
9BAE
 10
312.711
 20
615.067
 30
0.000000
  70
    32
  0
VERTEX
  8
0
  5
9BAF
 10
312.866
 20
614.900
 30
0.000000
  70
    32
  0
VERTEX
  8
0
  5
9BB0
 10
313.026
 20
614.737
 30
0.000000
  70
    32
  0
VERTEX
  8
0
  5
9BB1
 10
313.189
 20
614.577
 30
0.000000
  70
    32
  0
VERTEX
  8
0
  5
9BB2
 10
313.356
 20
614.422
 30
0.000000
  70
    32
  0
VERTEX
  8
0
  5
9BB3
 10
313.527
 20
614.271
 30
0.000000
  70
    32
  0
VERTEX
  8
0
  5
9BB4
 10
313.702
 20
614.124
 30
0.000000
  70
    32
  0
VERTEX
  8
0
  5
9BB5
 10
313.880
 20
613.981
 30
0.000000
  70
    32
  0
VERTEX
  8
0
  5
9BB6
 10
314.062
 20
613.843
 30
0.000000
  70
    32
  0
VERTEX
  8
0
  5
9BB7
 10
314.247
 20
613.709
 30
0.000000
  70
    32
  0
VERTEX
  8
0
  5
9BB8
 10
314.435
 20
613.580
 30
0.000000
  70
    32
  0
VERTEX
  8
0
  5
9BB9
 10
314.626
 20
613.455
 30
0.000000
  70
    32
  0
VERTEX
  8
0
  5
9BBA
 10
314.821
 20
613.336
 30
0.000000
  70
    32
  0
VERTEX
  8
0
  5
9BBB
 10
315.018
 20
613.221
 30
0.000000
  70
    32
  0
VERTEX
  8
0
  5
9BBC
 10
315.218
 20
613.111
 30
0.000000
  70
    32
  0
VERTEX
  8
0
  5
9BBD
 10
315.421
 20
613.006
 30
0.000000
  70
    32
  0
VERTEX
  8
0
  5
9BBE
 10
315.626
 20
612.905
 30
0.000000
  70
    32
  0
VERTEX
  8
0
  5
9BBF
 10
315.833
 20
612.810
 30
0.000000
  70
    32
  0
VERTEX
  8
0
  5
9BC0
 10
316.043
 20
612.720
 30
0.000000
  70
    32
  0
VERTEX
  8
0
  5
9BC1
 10
316.255
 20
612.636
 30
0.000000
  70
    32
  0
VERTEX
  8
0
  5
9BC2
 10
316.469
 20
612.556
 30
0.000000
  70
    32
  0
VERTEX
  8
0
  5
9BC3
 10
316.685
 20
612.482
 30
0.000000
  70
    32
  0
VERTEX
  8
0
  5
9BC4
 10
316.902
 20
612.413
 30
0.000000
  70
    32
  0
VERTEX
  8
0
  5
9BC5
 10
317.122
 20
612.349
 30
0.000000
  70
    32
  0
VERTEX
  8
0
  5
9BC6
 10
317.342
 20
612.291
 30
0.000000
  70
    32
  0
VERTEX
  8
0
  5
9BC7
 10
317.564
 20
612.239
 30
0.000000
  70
    32
  0
VERTEX
  8
0
  5
9BC8
 10
317.788
 20
612.191
 30
0.000000
  70
    32
  0
VERTEX
  8
0
  5
9BC9
 10
318.012
 20
612.149
 30
0.000000
  70
    32
  0
VERTEX
  8
0
  5
9BCA
 10
318.237
 20
612.113
 30
0.000000
  70
    32
  0
VERTEX
  8
0
  5
9BCB
 10
318.464
 20
612.082
 30
0.000000
  70
    32
  0
VERTEX
  8
0
  5
9BCC
 10
318.690
 20
612.057
 30
0.000000
  70
    32
  0
VERTEX
  8
0
  5
9BCD
 10
318.918
 20
612.038
 30
0.000000
  70
    32
  0
VERTEX
  8
0
  5
9BCE
 10
319.146
 20
612.024
 30
0.000000
  70
    32
  0
VERTEX
  8
0
  5
9BCF
 10
319.374
 20
612.015
 30
0.000000
  70
    32
  0
VERTEX
  8
0
  5
9BD0
 10
319.602
 20
612.013
 30
0.000000
  70
    32
  0
VERTEX
  8
0
  5
9BD1
 10
319.830
 20
612.015
 30
0.000000
  70
    32
  0
VERTEX
  8
0
  5
9BD2
 10
320.058
 20
612.024
 30
0.000000
  70
    32
  0
VERTEX
  8
0
  5
9BD3
 10
320.286
 20
612.038
 30
0.000000
  70
    32
  0
VERTEX
  8
0
  5
9BD4
 10
320.514
 20
612.057
 30
0.000000
  70
    32
  0
VERTEX
  8
0
  5
9BD5
 10
320.740
 20
612.082
 30
0.000000
  70
    32
  0
VERTEX
  8
0
  5
9BD6
 10
320.967
 20
612.113
 30
0.000000
  70
    32
  0
VERTEX
  8
0
  5
9BD7
 10
321.192
 20
612.149
 30
0.000000
  70
    32
  0
VERTEX
  8
0
  5
9BD8
 10
321.416
 20
612.191
 30
0.000000
  70
    32
  0
VERTEX
  8
0
  5
9BD9
 10
321.640
 20
612.239
 30
0.000000
  70
    32
  0
VERTEX
  8
0
  5
9BDA
 10
321.862
 20
612.291
 30
0.000000
  70
    32
  0
VERTEX
  8
0
  5
9BDB
 10
322.082
 20
612.349
 30
0.000000
  70
    32
  0
VERTEX
  8
0
  5
9BDC
 10
322.302
 20
612.413
 30
0.000000
  70
    32
  0
VERTEX
  8
0
  5
9BDD
 10
322.519
 20
612.482
 30
0.000000
  70
    32
  0
VERTEX
  8
0
  5
9BDE
 10
322.735
 20
612.556
 30
0.000000
  70
    32
  0
VERTEX
  8
0
  5
9BDF
 10
322.949
 20
612.636
 30
0.000000
  70
    32
  0
VERTEX
  8
0
  5
9BE0
 10
323.161
 20
612.720
 30
0.000000
  70
    32
  0
VERTEX
  8
0
  5
9BE1
 10
323.371
 20
612.810
 30
0.000000
  70
    32
  0
VERTEX
  8
0
  5
9BE2
 10
323.578
 20
612.905
 30
0.000000
  70
    32
  0
VERTEX
  8
0
  5
9BE3
 10
323.783
 20
613.006
 30
0.000000
  70
    32
  0
VERTEX
  8
0
  5
9BE4
 10
323.986
 20
613.111
 30
0.000000
  70
    32
  0
VERTEX
  8
0
  5
9BE5
 10
324.186
 20
613.221
 30
0.000000
  70
    32
  0
VERTEX
  8
0
  5
9BE6
 10
324.383
 20
613.336
 30
0.000000
  70
    32
  0
VERTEX
  8
0
  5
9BE7
 10
324.577
 20
613.455
 30
0.000000
  70
    32
  0
VERTEX
  8
0
  5
9BE8
 10
324.769
 20
613.580
 30
0.000000
  70
    32
  0
VERTEX
  8
0
  5
9BE9
 10
324.957
 20
613.709
 30
0.000000
  70
    32
  0
VERTEX
  8
0
  5
9BEA
 10
325.142
 20
613.843
 30
0.000000
  70
    32
  0
VERTEX
  8
0
  5
9BEB
 10
325.324
 20
613.981
 30
0.000000
  70
    32
  0
VERTEX
  8
0
  5
9BEC
 10
325.502
 20
614.124
 30
0.000000
  70
    32
  0
VERTEX
  8
0
  5
9BED
 10
325.676
 20
614.271
 30
0.000000
  70
    32
  0
VERTEX
  8
0
  5
9BEE
 10
325.847
 20
614.422
 30
0.000000
  70
    32
  0
VERTEX
  8
0
  5
9BEF
 10
326.015
 20
614.577
 30
0.000000
  70
    32
  0
VERTEX
  8
0
  5
9BF0
 10
326.178
 20
614.737
 30
0.000000
  70
    32
  0
VERTEX
  8
0
  5
9BF1
 10
326.337
 20
614.900
 30
0.000000
  70
    32
  0
VERTEX
  8
0
  5
9BF2
 10
326.493
 20
615.067
 30
0.000000
  70
    32
  0
VERTEX
  8
0
  5
9BF3
 10
326.644
 20
615.238
 30
0.000000
  70
    32
  0
VERTEX
  8
0
  5
9BF4
 10
326.791
 20
615.413
 30
0.000000
  70
    32
  0
VERTEX
  8
0
  5
9BF5
 10
326.934
 20
615.591
 30
0.000000
  70
    32
  0
VERTEX
  8
0
  5
9BF6
 10
327.072
 20
615.773
 30
0.000000
  70
    32
  0
VERTEX
  8
0
  5
9BF7
 10
327.206
 20
615.958
 30
0.000000
  70
    32
  0
VERTEX
  8
0
  5
9BF8
 10
327.335
 20
616.146
 30
0.000000
  70
    32
  0
VERTEX
  8
0
  5
9BF9
 10
327.459
 20
616.337
 30
0.000000
  70
    32
  0
VERTEX
  8
0
  5
9BFA
 10
327.579
 20
616.531
 30
0.000000
  70
    32
  0
VERTEX
  8
0
  5
9BFB
 10
327.694
 20
616.729
 30
0.000000
  70
    32
  0
VERTEX
  8
0
  5
9BFC
 10
327.804
 20
616.929
 30
0.000000
  70
    32
  0
VERTEX
  8
0
  5
9BFD
 10
327.909
 20
617.131
 30
0.000000
  70
    32
  0
VERTEX
  8
0
  5
9BFE
 10
328.009
 20
617.336
 30
0.000000
  70
    32
  0
VERTEX
  8
0
  5
9BFF
 10
328.104
 20
617.544
 30
0.000000
  70
    32
  0
VERTEX
  8
0
  5
9C00
 10
328.194
 20
617.754
 30
0.000000
  70
    32
  0
VERTEX
  8
0
  5
9C01
 10
328.279
 20
617.966
 30
0.000000
  70
    32
  0
VERTEX
  8
0
  5
9C02
 10
328.358
 20
618.180
 30
0.000000
  70
    32
  0
VERTEX
  8
0
  5
9C03
 10
328.433
 20
618.395
 30
0.000000
  70
    32
  0
VERTEX
  8
0
  5
9C04
 10
328.502
 20
618.613
 30
0.000000
  70
    32
  0
VERTEX
  8
0
  5
9C05
 10
328.565
 20
618.832
 30
0.000000
  70
    32
  0
VERTEX
  8
0
  5
9C06
 10
328.623
 20
619.053
 30
0.000000
  70
    32
  0
VERTEX
  8
0
  5
9C07
 10
328.676
 20
619.275
 30
0.000000
  70
    32
  0
VERTEX
  8
0
  5
9C08
 10
328.723
 20
619.498
 30
0.000000
  70
    32
  0
VERTEX
  8
0
  5
9C09
 10
328.765
 20
619.723
 30
0.000000
  70
    32
  0
VERTEX
  8
0
  5
9C0A
 10
328.801
 20
619.948
 30
0.000000
  70
    32
  0
VERTEX
  8
0
  5
9C0B
 10
328.832
 20
620.174
 30
0.000000
  70
    32
  0
VERTEX
  8
0
  5
9C0C
 10
328.857
 20
620.401
 30
0.000000
  70
    32
  0
VERTEX
  8
0
  5
9C0D
 10
328.877
 20
620.629
 30
0.000000
  70
    32
  0
VERTEX
  8
0
  5
9C0E
 10
328.891
 20
620.856
 30
0.000000
  70
    32
  0
VERTEX
  8
0
  5
9C0F
 10
328.899
 20
621.084
 30
0.000000
  70
    32
  0
VERTEX
  8
0
  5
9C10
 10
328.902
 20
621.313
 30
0.000000
  70
    32
  0
SEQEND
  8
0
  5
9C11
  0
LINE
  5
959B
  8
0
 10
304.00197684542547
 20
604.31239213659171
 30
0.0
 11
304.30046284542539
 21
604.31239213659171
 31
0.0
  0
LINE
  5
959C
  8
0
 10
304.50197684542547
 20
604.31239213659171
 30
0.0
 11
307.42767184542572
 21
604.31239213659171
 31
0.0
  0
POLYLINE
  5
959D
  8
0
 10
319.60197685273005
 20
627.61285813659129
 30
0.0
 66
     1
 70
     8
  0
VERTEX
  8
0
  5
9C12
 10
319.602
 20
627.613
 30
0.000000
  70
    32
  0
VERTEX
  8
0
  5
9C13
 10
319.293
 20
627.605
 30
0.000000
  70
    32
  0
VERTEX
  8
0
  5
9C14
 10
318.984
 20
627.583
 30
0.000000
  70
    32
  0
VERTEX
  8
0
  5
9C15
 10
318.678
 20
627.545
 30
0.000000
  70
    32
  0
VERTEX
  8
0
  5
9C16
 10
318.373
 20
627.492
 30
0.000000
  70
    32
  0
VERTEX
  8
0
  5
9C17
 10
318.071
 20
627.424
 30
0.000000
  70
    32
  0
VERTEX
  8
0
  5
9C18
 10
317.773
 20
627.342
 30
0.000000
  70
    32
  0
VERTEX
  8
0
  5
9C19
 10
317.480
 20
627.245
 30
0.000000
  70
    32
  0
VERTEX
  8
0
  5
9C1A
 10
317.191
 20
627.133
 30
0.000000
  70
    32
  0
VERTEX
  8
0
  5
9C1B
 10
316.908
 20
627.008
 30
0.000000
  70
    32
  0
VERTEX
  8
0
  5
9C1C
 10
316.632
 20
626.869
 30
0.000000
  70
    32
  0
VERTEX
  8
0
  5
9C1D
 10
316.363
 20
626.717
 30
0.000000
  70
    32
  0
VERTEX
  8
0
  5
9C1E
 10
316.102
 20
626.551
 30
0.000000
  70
    32
  0
VERTEX
  8
0
  5
9C1F
 10
315.849
 20
626.373
 30
0.000000
  70
    32
  0
VERTEX
  8
0
  5
9C20
 10
315.605
 20
626.183
 30
0.000000
  70
    32
  0
VERTEX
  8
0
  5
9C21
 10
315.371
 20
625.981
 30
0.000000
  70
    32
  0
VERTEX
  8
0
  5
9C22
 10
315.147
 20
625.768
 30
0.000000
  70
    32
  0
VERTEX
  8
0
  5
9C23
 10
314.934
 20
625.544
 30
0.000000
  70
    32
  0
VERTEX
  8
0
  5
9C24
 10
314.732
 20
625.309
 30
0.000000
  70
    32
  0
VERTEX
  8
0
  5
9C25
 10
314.542
 20
625.066
 30
0.000000
  70
    32
  0
VERTEX
  8
0
  5
9C26
 10
314.364
 20
624.813
 30
0.000000
  70
    32
  0
VERTEX
  8
0
  5
9C27
 10
314.198
 20
624.552
 30
0.000000
  70
    32
  0
VERTEX
  8
0
  5
9C28
 10
314.046
 20
624.283
 30
0.000000
  70
    32
  0
VERTEX
  8
0
  5
9C29
 10
313.907
 20
624.006
 30
0.000000
  70
    32
  0
VERTEX
  8
0
  5
9C2A
 10
313.782
 20
623.724
 30
0.000000
  70
    32
  0
VERTEX
  8
0
  5
9C2B
 10
313.670
 20
623.435
 30
0.000000
  70
    32
  0
VERTEX
  8
0
  5
9C2C
 10
313.573
 20
623.142
 30
0.000000
  70
    32
  0
VERTEX
  8
0
  5
9C2D
 10
313.491
 20
622.844
 30
0.000000
  70
    32
  0
VERTEX
  8
0
  5
9C2E
 10
313.423
 20
622.542
 30
0.000000
  70
    32
  0
VERTEX
  8
0
  5
9C2F
 10
313.370
 20
622.237
 30
0.000000
  70
    32
  0
VERTEX
  8
0
  5
9C30
 10
313.332
 20
621.930
 30
0.000000
  70
    32
  0
VERTEX
  8
0
  5
9C31
 10
313.310
 20
621.622
 30
0.000000
  70
    32
  0
VERTEX
  8
0
  5
9C32
 10
313.302
 20
621.313
 30
0.000000
  70
    32
  0
VERTEX
  8
0
  5
9C33
 10
313.310
 20
621.004
 30
0.000000
  70
    32
  0
VERTEX
  8
0
  5
9C34
 10
313.332
 20
620.695
 30
0.000000
  70
    32
  0
VERTEX
  8
0
  5
9C35
 10
313.370
 20
620.388
 30
0.000000
  70
    32
  0
VERTEX
  8
0
  5
9C36
 10
313.423
 20
620.084
 30
0.000000
  70
    32
  0
VERTEX
  8
0
  5
9C37
 10
313.491
 20
619.782
 30
0.000000
  70
    32
  0
VERTEX
  8
0
  5
9C38
 10
313.573
 20
619.484
 30
0.000000
  70
    32
  0
VERTEX
  8
0
  5
9C39
 10
313.670
 20
619.190
 30
0.000000
  70
    32
  0
VERTEX
  8
0
  5
9C3A
 10
313.782
 20
618.902
 30
0.000000
  70
    32
  0
VERTEX
  8
0
  5
9C3B
 10
313.907
 20
618.619
 30
0.000000
  70
    32
  0
VERTEX
  8
0
  5
9C3C
 10
314.046
 20
618.343
 30
0.000000
  70
    32
  0
VERTEX
  8
0
  5
9C3D
 10
314.198
 20
618.074
 30
0.000000
  70
    32
  0
VERTEX
  8
0
  5
9C3E
 10
314.364
 20
617.813
 30
0.000000
  70
    32
  0
VERTEX
  8
0
  5
9C3F
 10
314.542
 20
617.560
 30
0.000000
  70
    32
  0
VERTEX
  8
0
  5
9C40
 10
314.732
 20
617.316
 30
0.000000
  70
    32
  0
VERTEX
  8
0
  5
9C41
 10
314.934
 20
617.082
 30
0.000000
  70
    32
  0
VERTEX
  8
0
  5
9C42
 10
315.147
 20
616.858
 30
0.000000
  70
    32
  0
VERTEX
  8
0
  5
9C43
 10
315.371
 20
616.645
 30
0.000000
  70
    32
  0
VERTEX
  8
0
  5
9C44
 10
315.605
 20
616.443
 30
0.000000
  70
    32
  0
VERTEX
  8
0
  5
9C45
 10
315.849
 20
616.252
 30
0.000000
  70
    32
  0
VERTEX
  8
0
  5
9C46
 10
316.102
 20
616.074
 30
0.000000
  70
    32
  0
VERTEX
  8
0
  5
9C47
 10
316.363
 20
615.909
 30
0.000000
  70
    32
  0
VERTEX
  8
0
  5
9C48
 10
316.632
 20
615.757
 30
0.000000
  70
    32
  0
VERTEX
  8
0
  5
9C49
 10
316.908
 20
615.617
 30
0.000000
  70
    32
  0
VERTEX
  8
0
  5
9C4A
 10
317.191
 20
615.492
 30
0.000000
  70
    32
  0
VERTEX
  8
0
  5
9C4B
 10
317.480
 20
615.381
 30
0.000000
  70
    32
  0
VERTEX
  8
0
  5
9C4C
 10
317.773
 20
615.284
 30
0.000000
  70
    32
  0
VERTEX
  8
0
  5
9C4D
 10
318.071
 20
615.201
 30
0.000000
  70
    32
  0
VERTEX
  8
0
  5
9C4E
 10
318.373
 20
615.134
 30
0.000000
  70
    32
  0
VERTEX
  8
0
  5
9C4F
 10
318.678
 20
615.081
 30
0.000000
  70
    32
  0
VERTEX
  8
0
  5
9C50
 10
318.984
 20
615.043
 30
0.000000
  70
    32
  0
VERTEX
  8
0
  5
9C51
 10
319.293
 20
615.020
 30
0.000000
  70
    32
  0
VERTEX
  8
0
  5
9C52
 10
319.602
 20
615.013
 30
0.000000
  70
    32
  0
VERTEX
  8
0
  5
9C53
 10
319.911
 20
615.020
 30
0.000000
  70
    32
  0
VERTEX
  8
0
  5
9C54
 10
320.219
 20
615.043
 30
0.000000
  70
    32
  0
VERTEX
  8
0
  5
9C55
 10
320.526
 20
615.081
 30
0.000000
  70
    32
  0
VERTEX
  8
0
  5
9C56
 10
320.831
 20
615.134
 30
0.000000
  70
    32
  0
VERTEX
  8
0
  5
9C57
 10
321.133
 20
615.201
 30
0.000000
  70
    32
  0
VERTEX
  8
0
  5
9C58
 10
321.431
 20
615.284
 30
0.000000
  70
    32
  0
VERTEX
  8
0
  5
9C59
 10
321.724
 20
615.381
 30
0.000000
  70
    32
  0
VERTEX
  8
0
  5
9C5A
 10
322.013
 20
615.492
 30
0.000000
  70
    32
  0
VERTEX
  8
0
  5
9C5B
 10
322.296
 20
615.617
 30
0.000000
  70
    32
  0
VERTEX
  8
0
  5
9C5C
 10
322.572
 20
615.757
 30
0.000000
  70
    32
  0
VERTEX
  8
0
  5
9C5D
 10
322.841
 20
615.909
 30
0.000000
  70
    32
  0
VERTEX
  8
0
  5
9C5E
 10
323.102
 20
616.074
 30
0.000000
  70
    32
  0
VERTEX
  8
0
  5
9C5F
 10
323.355
 20
616.252
 30
0.000000
  70
    32
  0
VERTEX
  8
0
  5
9C60
 10
323.599
 20
616.443
 30
0.000000
  70
    32
  0
VERTEX
  8
0
  5
9C61
 10
323.833
 20
616.645
 30
0.000000
  70
    32
  0
VERTEX
  8
0
  5
9C62
 10
324.057
 20
616.858
 30
0.000000
  70
    32
  0
VERTEX
  8
0
  5
9C63
 10
324.270
 20
617.082
 30
0.000000
  70
    32
  0
VERTEX
  8
0
  5
9C64
 10
324.472
 20
617.316
 30
0.000000
  70
    32
  0
VERTEX
  8
0
  5
9C65
 10
324.662
 20
617.560
 30
0.000000
  70
    32
  0
VERTEX
  8
0
  5
9C66
 10
324.840
 20
617.813
 30
0.000000
  70
    32
  0
VERTEX
  8
0
  5
9C67
 10
325.006
 20
618.074
 30
0.000000
  70
    32
  0
VERTEX
  8
0
  5
9C68
 10
325.158
 20
618.343
 30
0.000000
  70
    32
  0
VERTEX
  8
0
  5
9C69
 10
325.297
 20
618.619
 30
0.000000
  70
    32
  0
VERTEX
  8
0
  5
9C6A
 10
325.422
 20
618.902
 30
0.000000
  70
    32
  0
VERTEX
  8
0
  5
9C6B
 10
325.534
 20
619.190
 30
0.000000
  70
    32
  0
VERTEX
  8
0
  5
9C6C
 10
325.631
 20
619.484
 30
0.000000
  70
    32
  0
VERTEX
  8
0
  5
9C6D
 10
325.713
 20
619.782
 30
0.000000
  70
    32
  0
VERTEX
  8
0
  5
9C6E
 10
325.781
 20
620.084
 30
0.000000
  70
    32
  0
VERTEX
  8
0
  5
9C6F
 10
325.834
 20
620.388
 30
0.000000
  70
    32
  0
VERTEX
  8
0
  5
9C70
 10
325.872
 20
620.695
 30
0.000000
  70
    32
  0
VERTEX
  8
0
  5
9C71
 10
325.894
 20
621.004
 30
0.000000
  70
    32
  0
VERTEX
  8
0
  5
9C72
 10
325.902
 20
621.313
 30
0.000000
  70
    32
  0
VERTEX
  8
0
  5
9C73
 10
325.894
 20
621.622
 30
0.000000
  70
    32
  0
VERTEX
  8
0
  5
9C74
 10
325.872
 20
621.930
 30
0.000000
  70
    32
  0
VERTEX
  8
0
  5
9C75
 10
325.834
 20
622.237
 30
0.000000
  70
    32
  0
VERTEX
  8
0
  5
9C76
 10
325.781
 20
622.542
 30
0.000000
  70
    32
  0
VERTEX
  8
0
  5
9C77
 10
325.713
 20
622.844
 30
0.000000
  70
    32
  0
VERTEX
  8
0
  5
9C78
 10
325.631
 20
623.142
 30
0.000000
  70
    32
  0
VERTEX
  8
0
  5
9C79
 10
325.534
 20
623.435
 30
0.000000
  70
    32
  0
VERTEX
  8
0
  5
9C7A
 10
325.422
 20
623.724
 30
0.000000
  70
    32
  0
VERTEX
  8
0
  5
9C7B
 10
325.297
 20
624.006
 30
0.000000
  70
    32
  0
VERTEX
  8
0
  5
9C7C
 10
325.158
 20
624.283
 30
0.000000
  70
    32
  0
VERTEX
  8
0
  5
9C7D
 10
325.006
 20
624.552
 30
0.000000
  70
    32
  0
VERTEX
  8
0
  5
9C7E
 10
324.840
 20
624.813
 30
0.000000
  70
    32
  0
VERTEX
  8
0
  5
9C7F
 10
324.662
 20
625.066
 30
0.000000
  70
    32
  0
VERTEX
  8
0
  5
9C80
 10
324.472
 20
625.309
 30
0.000000
  70
    32
  0
VERTEX
  8
0
  5
9C81
 10
324.270
 20
625.544
 30
0.000000
  70
    32
  0
VERTEX
  8
0
  5
9C82
 10
324.057
 20
625.768
 30
0.000000
  70
    32
  0
VERTEX
  8
0
  5
9C83
 10
323.833
 20
625.981
 30
0.000000
  70
    32
  0
VERTEX
  8
0
  5
9C84
 10
323.599
 20
626.183
 30
0.000000
  70
    32
  0
VERTEX
  8
0
  5
9C85
 10
323.355
 20
626.373
 30
0.000000
  70
    32
  0
VERTEX
  8
0
  5
9C86
 10
323.102
 20
626.551
 30
0.000000
  70
    32
  0
VERTEX
  8
0
  5
9C87
 10
322.841
 20
626.717
 30
0.000000
  70
    32
  0
VERTEX
  8
0
  5
9C88
 10
322.572
 20
626.869
 30
0.000000
  70
    32
  0
VERTEX
  8
0
  5
9C89
 10
322.296
 20
627.008
 30
0.000000
  70
    32
  0
VERTEX
  8
0
  5
9C8A
 10
322.013
 20
627.133
 30
0.000000
  70
    32
  0
VERTEX
  8
0
  5
9C8B
 10
321.724
 20
627.245
 30
0.000000
  70
    32
  0
VERTEX
  8
0
  5
9C8C
 10
321.431
 20
627.342
 30
0.000000
  70
    32
  0
VERTEX
  8
0
  5
9C8D
 10
321.133
 20
627.424
 30
0.000000
  70
    32
  0
VERTEX
  8
0
  5
9C8E
 10
320.831
 20
627.492
 30
0.000000
  70
    32
  0
VERTEX
  8
0
  5
9C8F
 10
320.526
 20
627.545
 30
0.000000
  70
    32
  0
VERTEX
  8
0
  5
9C90
 10
320.219
 20
627.583
 30
0.000000
  70
    32
  0
VERTEX
  8
0
  5
9C91
 10
319.911
 20
627.605
 30
0.000000
  70
    32
  0
VERTEX
  8
0
  5
9C92
 10
319.602
 20
627.613
 30
0.000000
  70
    32
  0
SEQEND
  8
0
  5
9C93
  0
LINE
  5
959E
  8
0
 10
355.80533084542532
 20
617.62461313659173
 30
0.0
 11
358.00868484542571
 21
618.0000281365916
 31
0.0
  0
LINE
  5
959F
  8
0
 10
338.99862284542547
 20
633.31297213659172
 30
0.0
 11
338.99862284542547
 21
614.76102713659157
 31
0.0
  0
LINE
  5
95A0
  8
0
 10
344.69862284542558
 20
633.31297213659172
 30
0.0
 11
343.19862284542569
 21
633.31297213659172
 31
0.0
  0
LINE
  5
95A1
  8
0
 10
344.69862284542558
 20
629.3128921365917
 30
0.0
 11
343.19862284542569
 21
629.3128921365917
 31
0.0
  0
LINE
  5
95A2
  8
0
 10
343.19862284542569
 20
633.31297213659172
 30
0.0
 11
343.19862284542569
 21
615.47663813659165
 31
0.0
  0
LINE
  5
95A3
  8
0
 10
340.99862284542547
 20
615.10179413659171
 30
0.0
 11
340.99862284542547
 21
633.31297213659172
 31
0.0
  0
LINE
  5
95A4
  8
0
 10
340.99862284542547
 20
615.10179413659171
 30
0.0
 11
343.19862284542569
 21
615.47663813659165
 31
0.0
  0
LINE
  5
95A5
  8
0
 10
340.99862284542547
 20
633.31297213659172
 30
0.0
 11
338.99862284542547
 21
633.31297213659172
 31
0.0
  0
LINE
  5
95A6
  8
0
 10
340.99862284542547
 20
629.3128921365917
 30
0.0
 11
338.99862284542547
 21
629.3128921365917
 31
0.0
  0
LINE
  5
95A7
  8
0
 10
352.60197684542572
 20
617.07881413659175
 30
0.0
 11
352.60197684542572
 21
633.31297213659172
 31
0.0
  0
LINE
  5
95A8
  8
0
 10
355.80533084542532
 20
617.62461313659173
 30
0.0
 11
355.80533084542532
 21
633.31297213659172
 31
0.0
  0
LINE
  5
95A9
  8
0
 10
354.30533084542532
 20
633.31297213659172
 30
0.0
 11
354.30533084542532
 21
617.36903713659171
 31
0.0
  0
LINE
  5
95AA
  8
0
 10
350.60197684542572
 20
633.31297213659172
 30
0.0
 11
350.60197684542572
 21
616.73804713659172
 31
0.0
  0
LINE
  5
95AB
  8
0
 10
344.69862284542558
 20
615.73221313659155
 30
0.0
 11
344.69862284542558
 21
633.31297213659172
 31
0.0
  0
LINE
  5
95AC
  8
0
 10
346.89862284542528
 20
633.31297213659172
 30
0.0
 11
346.89862284542528
 21
616.10705713659172
 31
0.0
  0
LINE
  5
95AD
  8
0
 10
348.39862284542528
 20
616.36263213659174
 30
0.0
 11
348.39862284542528
 21
633.31297213659172
 31
0.0
  0
LINE
  5
95AE
  8
0
 10
344.69862284542558
 20
615.73221313659155
 30
0.0
 11
346.89862284542528
 21
616.10705713659172
 31
0.0
  0
LINE
  5
95AF
  8
0
 10
348.39862284542528
 20
616.36263213659174
 30
0.0
 11
350.60197684542572
 21
616.73804713659172
 31
0.0
  0
LINE
  5
95B0
  8
0
 10
352.60197684542572
 20
617.07881413659175
 30
0.0
 11
354.30533084542532
 21
617.36903713659171
 31
0.0
  0
LINE
  5
95B1
  8
0
 10
352.60197684542572
 20
633.31297213659172
 30
0.0
 11
350.60197684542572
 21
633.31297213659172
 31
0.0
  0
LINE
  5
95B2
  8
0
 10
352.60197684542572
 20
629.3128921365917
 30
0.0
 11
350.60197684542572
 21
629.3128921365917
 31
0.0
  0
LINE
  5
95B3
  8
0
 10
348.39862284542528
 20
633.31297213659172
 30
0.0
 11
346.89862284542528
 21
633.31297213659172
 31
0.0
  0
LINE
  5
95B4
  8
0
 10
348.39862284542528
 20
629.3128921365917
 30
0.0
 11
346.89862284542528
 21
629.3128921365917
 31
0.0
  0
LINE
  5
95B5
  8
0
 10
355.80533084542532
 20
629.3128921365917
 30
0.0
 11
354.30533084542532
 21
629.3128921365917
 31
0.0
  0
LINE
  5
95B6
  8
0
 10
355.80533084542532
 20
633.31297213659172
 30
0.0
 11
354.30533084542532
 21
633.31297213659172
 31
0.0
  0
LINE
  5
95B7
  8
0
 10
375.1321278454256
 20
604.31239213659171
 30
0.0
 11
375.1321278454256
 21
615.84811313659168
 31
0.0
  0
LINE
  5
95B8
  8
0
 10
366.91539284542557
 20
619.51758413659172
 30
0.0
 11
376.77710284542547
 21
621.19785613659155
 31
0.0
  0
LINE
  5
95B9
  8
0
 10
361.7120388454253
 20
633.31297213659172
 30
0.0
 11
361.7120388454253
 21
618.63101813659171
 31
0.0
  0
LINE
  5
95BA
  8
0
 10
363.21203884542541
 20
618.88659313659173
 30
0.0
 11
363.21203884542541
 21
633.31297213659172
 31
0.0
  0
LINE
  5
95BB
  8
0
 10
365.41539284542569
 20
633.31297213659172
 30
0.0
 11
365.41539284542569
 21
619.2620081365917
 31
0.0
  0
LINE
  5
95BC
  8
0
 10
358.00868484542571
 20
633.31297213659172
 30
0.0
 11
358.00868484542571
 21
618.0000281365916
 31
0.0
  0
LINE
  5
95BD
  8
0
 10
359.50868484542559
 20
618.25560313659173
 30
0.0
 11
359.50868484542559
 21
633.31297213659172
 31
0.0
  0
LINE
  5
95BE
  8
0
 10
366.91539284542557
 20
619.51758413659172
 30
0.0
 11
366.91539284542557
 21
633.31297213659172
 31
0.0
  0
LINE
  5
95BF
  8
0
 10
363.21203884542541
 20
618.88659313659173
 30
0.0
 11
365.41539284542569
 21
619.2620081365917
 31
0.0
  0
LINE
  5
95C0
  8
0
 10
359.50868484542559
 20
618.25560313659173
 30
0.0
 11
361.7120388454253
 21
618.63101813659171
 31
0.0
  0
LINE
  5
95C1
  8
0
 10
363.21203884542541
 20
633.31297213659172
 30
0.0
 11
361.7120388454253
 21
633.31297213659172
 31
0.0
  0
LINE
  5
95C2
  8
0
 10
363.21203884542541
 20
629.3128921365917
 30
0.0
 11
361.7120388454253
 21
629.3128921365917
 31
0.0
  0
LINE
  5
95C3
  8
0
 10
359.50868484542559
 20
633.31297213659172
 30
0.0
 11
358.00868484542571
 21
633.31297213659172
 31
0.0
  0
LINE
  5
95C4
  8
0
 10
359.50868484542559
 20
629.3128921365917
 30
0.0
 11
358.00868484542571
 21
629.3128921365917
 31
0.0
  0
LINE
  5
95C5
  8
0
 10
366.91539284542557
 20
633.31297213659172
 30
0.0
 11
365.41539284542569
 21
633.31297213659172
 31
0.0
  0
LINE
  5
95C6
  8
0
 10
366.91539284542557
 20
629.3128921365917
 30
0.0
 11
365.41539284542569
 21
629.3128921365917
 31
0.0
  0
LINE
  5
95C7
  8
0
 10
376.00197684542547
 20
615.99842013659156
 30
0.0
 11
376.00197684542547
 21
620.05189413659173
 31
0.0
  0
LINE
  5
95C8
  8
0
 10
305.50197684542547
 20
638.31307213659159
 30
0.0
 11
310.30197684542537
 21
638.31307213659159
 31
0.0
  0
POLYLINE
  5
95C9
  8
0
 10
305.50197684542547
 20
638.3130721365917
 30
0.0
 66
     1
 70
     8
  0
VERTEX
  8
0
  5
9C94
 10
305.502
 20
638.313
 30
0.000000
  70
    32
  0
VERTEX
  8
0
  5
9C95
 10
305.490
 20
638.313
 30
0.000000
  70
    32
  0
VERTEX
  8
0
  5
9C96
 10
305.477
 20
638.313
 30
0.000000
  70
    32
  0
VERTEX
  8
0
  5
9C97
 10
305.465
 20
638.312
 30
0.000000
  70
    32
  0
VERTEX
  8
0
  5
9C98
 10
305.453
 20
638.312
 30
0.000000
  70
    32
  0
VERTEX
  8
0
  5
9C99
 10
305.441
 20
638.311
 30
0.000000
  70
    32
  0
VERTEX
  8
0
  5
9C9A
 10
305.428
 20
638.310
 30
0.000000
  70
    32
  0
VERTEX
  8
0
  5
9C9B
 10
305.416
 20
638.309
 30
0.000000
  70
    32
  0
VERTEX
  8
0
  5
9C9C
 10
305.404
 20
638.308
 30
0.000000
  70
    32
  0
VERTEX
  8
0
  5
9C9D
 10
305.392
 20
638.307
 30
0.000000
  70
    32
  0
VERTEX
  8
0
  5
9C9E
 10
305.380
 20
638.306
 30
0.000000
  70
    32
  0
VERTEX
  8
0
  5
9C9F
 10
305.367
 20
638.304
 30
0.000000
  70
    32
  0
VERTEX
  8
0
  5
9CA0
 10
305.355
 20
638.302
 30
0.000000
  70
    32
  0
VERTEX
  8
0
  5
9CA1
 10
305.343
 20
638.300
 30
0.000000
  70
    32
  0
VERTEX
  8
0
  5
9CA2
 10
305.331
 20
638.298
 30
0.000000
  70
    32
  0
VERTEX
  8
0
  5
9CA3
 10
305.319
 20
638.296
 30
0.000000
  70
    32
  0
VERTEX
  8
0
  5
9CA4
 10
305.307
 20
638.294
 30
0.000000
  70
    32
  0
VERTEX
  8
0
  5
9CA5
 10
305.295
 20
638.291
 30
0.000000
  70
    32
  0
VERTEX
  8
0
  5
9CA6
 10
305.283
 20
638.289
 30
0.000000
  70
    32
  0
VERTEX
  8
0
  5
9CA7
 10
305.271
 20
638.286
 30
0.000000
  70
    32
  0
VERTEX
  8
0
  5
9CA8
 10
305.259
 20
638.283
 30
0.000000
  70
    32
  0
VERTEX
  8
0
  5
9CA9
 10
305.247
 20
638.280
 30
0.000000
  70
    32
  0
VERTEX
  8
0
  5
9CAA
 10
305.235
 20
638.277
 30
0.000000
  70
    32
  0
VERTEX
  8
0
  5
9CAB
 10
305.223
 20
638.274
 30
0.000000
  70
    32
  0
VERTEX
  8
0
  5
9CAC
 10
305.212
 20
638.270
 30
0.000000
  70
    32
  0
VERTEX
  8
0
  5
9CAD
 10
305.200
 20
638.266
 30
0.000000
  70
    32
  0
VERTEX
  8
0
  5
9CAE
 10
305.188
 20
638.263
 30
0.000000
  70
    32
  0
VERTEX
  8
0
  5
9CAF
 10
305.177
 20
638.259
 30
0.000000
  70
    32
  0
VERTEX
  8
0
  5
9CB0
 10
305.165
 20
638.255
 30
0.000000
  70
    32
  0
VERTEX
  8
0
  5
9CB1
 10
305.154
 20
638.250
 30
0.000000
  70
    32
  0
VERTEX
  8
0
  5
9CB2
 10
305.142
 20
638.246
 30
0.000000
  70
    32
  0
VERTEX
  8
0
  5
9CB3
 10
305.131
 20
638.242
 30
0.000000
  70
    32
  0
VERTEX
  8
0
  5
9CB4
 10
305.119
 20
638.237
 30
0.000000
  70
    32
  0
VERTEX
  8
0
  5
9CB5
 10
305.108
 20
638.232
 30
0.000000
  70
    32
  0
VERTEX
  8
0
  5
9CB6
 10
305.097
 20
638.227
 30
0.000000
  70
    32
  0
VERTEX
  8
0
  5
9CB7
 10
305.086
 20
638.222
 30
0.000000
  70
    32
  0
VERTEX
  8
0
  5
9CB8
 10
305.074
 20
638.217
 30
0.000000
  70
    32
  0
VERTEX
  8
0
  5
9CB9
 10
305.063
 20
638.212
 30
0.000000
  70
    32
  0
VERTEX
  8
0
  5
9CBA
 10
305.052
 20
638.206
 30
0.000000
  70
    32
  0
VERTEX
  8
0
  5
9CBB
 10
305.041
 20
638.201
 30
0.000000
  70
    32
  0
VERTEX
  8
0
  5
9CBC
 10
305.031
 20
638.195
 30
0.000000
  70
    32
  0
VERTEX
  8
0
  5
9CBD
 10
305.020
 20
638.189
 30
0.000000
  70
    32
  0
VERTEX
  8
0
  5
9CBE
 10
305.009
 20
638.183
 30
0.000000
  70
    32
  0
VERTEX
  8
0
  5
9CBF
 10
304.998
 20
638.177
 30
0.000000
  70
    32
  0
VERTEX
  8
0
  5
9CC0
 10
304.988
 20
638.171
 30
0.000000
  70
    32
  0
VERTEX
  8
0
  5
9CC1
 10
304.977
 20
638.164
 30
0.000000
  70
    32
  0
VERTEX
  8
0
  5
9CC2
 10
304.967
 20
638.158
 30
0.000000
  70
    32
  0
VERTEX
  8
0
  5
9CC3
 10
304.957
 20
638.151
 30
0.000000
  70
    32
  0
VERTEX
  8
0
  5
9CC4
 10
304.946
 20
638.145
 30
0.000000
  70
    32
  0
VERTEX
  8
0
  5
9CC5
 10
304.936
 20
638.138
 30
0.000000
  70
    32
  0
VERTEX
  8
0
  5
9CC6
 10
304.926
 20
638.131
 30
0.000000
  70
    32
  0
VERTEX
  8
0
  5
9CC7
 10
304.916
 20
638.124
 30
0.000000
  70
    32
  0
VERTEX
  8
0
  5
9CC8
 10
304.906
 20
638.116
 30
0.000000
  70
    32
  0
VERTEX
  8
0
  5
9CC9
 10
304.896
 20
638.109
 30
0.000000
  70
    32
  0
VERTEX
  8
0
  5
9CCA
 10
304.887
 20
638.101
 30
0.000000
  70
    32
  0
VERTEX
  8
0
  5
9CCB
 10
304.877
 20
638.094
 30
0.000000
  70
    32
  0
VERTEX
  8
0
  5
9CCC
 10
304.868
 20
638.086
 30
0.000000
  70
    32
  0
VERTEX
  8
0
  5
9CCD
 10
304.858
 20
638.078
 30
0.000000
  70
    32
  0
VERTEX
  8
0
  5
9CCE
 10
304.849
 20
638.070
 30
0.000000
  70
    32
  0
VERTEX
  8
0
  5
9CCF
 10
304.840
 20
638.062
 30
0.000000
  70
    32
  0
VERTEX
  8
0
  5
9CD0
 10
304.830
 20
638.054
 30
0.000000
  70
    32
  0
VERTEX
  8
0
  5
9CD1
 10
304.821
 20
638.046
 30
0.000000
  70
    32
  0
VERTEX
  8
0
  5
9CD2
 10
304.812
 20
638.037
 30
0.000000
  70
    32
  0
VERTEX
  8
0
  5
9CD3
 10
304.804
 20
638.029
 30
0.000000
  70
    32
  0
VERTEX
  8
0
  5
9CD4
 10
304.795
 20
638.020
 30
0.000000
  70
    32
  0
VERTEX
  8
0
  5
9CD5
 10
304.786
 20
638.011
 30
0.000000
  70
    32
  0
VERTEX
  8
0
  5
9CD6
 10
304.778
 20
638.003
 30
0.000000
  70
    32
  0
VERTEX
  8
0
  5
9CD7
 10
304.769
 20
637.994
 30
0.000000
  70
    32
  0
VERTEX
  8
0
  5
9CD8
 10
304.761
 20
637.985
 30
0.000000
  70
    32
  0
VERTEX
  8
0
  5
9CD9
 10
304.753
 20
637.975
 30
0.000000
  70
    32
  0
VERTEX
  8
0
  5
9CDA
 10
304.745
 20
637.966
 30
0.000000
  70
    32
  0
VERTEX
  8
0
  5
9CDB
 10
304.737
 20
637.957
 30
0.000000
  70
    32
  0
VERTEX
  8
0
  5
9CDC
 10
304.729
 20
637.947
 30
0.000000
  70
    32
  0
VERTEX
  8
0
  5
9CDD
 10
304.721
 20
637.938
 30
0.000000
  70
    32
  0
VERTEX
  8
0
  5
9CDE
 10
304.714
 20
637.928
 30
0.000000
  70
    32
  0
VERTEX
  8
0
  5
9CDF
 10
304.706
 20
637.919
 30
0.000000
  70
    32
  0
VERTEX
  8
0
  5
9CE0
 10
304.699
 20
637.909
 30
0.000000
  70
    32
  0
VERTEX
  8
0
  5
9CE1
 10
304.692
 20
637.899
 30
0.000000
  70
    32
  0
VERTEX
  8
0
  5
9CE2
 10
304.684
 20
637.889
 30
0.000000
  70
    32
  0
VERTEX
  8
0
  5
9CE3
 10
304.677
 20
637.879
 30
0.000000
  70
    32
  0
VERTEX
  8
0
  5
9CE4
 10
304.671
 20
637.869
 30
0.000000
  70
    32
  0
VERTEX
  8
0
  5
9CE5
 10
304.664
 20
637.858
 30
0.000000
  70
    32
  0
VERTEX
  8
0
  5
9CE6
 10
304.657
 20
637.848
 30
0.000000
  70
    32
  0
VERTEX
  8
0
  5
9CE7
 10
304.651
 20
637.838
 30
0.000000
  70
    32
  0
VERTEX
  8
0
  5
9CE8
 10
304.644
 20
637.827
 30
0.000000
  70
    32
  0
VERTEX
  8
0
  5
9CE9
 10
304.638
 20
637.817
 30
0.000000
  70
    32
  0
VERTEX
  8
0
  5
9CEA
 10
304.632
 20
637.806
 30
0.000000
  70
    32
  0
VERTEX
  8
0
  5
9CEB
 10
304.626
 20
637.795
 30
0.000000
  70
    32
  0
VERTEX
  8
0
  5
9CEC
 10
304.620
 20
637.784
 30
0.000000
  70
    32
  0
VERTEX
  8
0
  5
9CED
 10
304.614
 20
637.774
 30
0.000000
  70
    32
  0
VERTEX
  8
0
  5
9CEE
 10
304.609
 20
637.763
 30
0.000000
  70
    32
  0
VERTEX
  8
0
  5
9CEF
 10
304.603
 20
637.752
 30
0.000000
  70
    32
  0
VERTEX
  8
0
  5
9CF0
 10
304.598
 20
637.741
 30
0.000000
  70
    32
  0
VERTEX
  8
0
  5
9CF1
 10
304.593
 20
637.729
 30
0.000000
  70
    32
  0
VERTEX
  8
0
  5
9CF2
 10
304.588
 20
637.718
 30
0.000000
  70
    32
  0
VERTEX
  8
0
  5
9CF3
 10
304.583
 20
637.707
 30
0.000000
  70
    32
  0
VERTEX
  8
0
  5
9CF4
 10
304.578
 20
637.696
 30
0.000000
  70
    32
  0
VERTEX
  8
0
  5
9CF5
 10
304.573
 20
637.684
 30
0.000000
  70
    32
  0
VERTEX
  8
0
  5
9CF6
 10
304.569
 20
637.673
 30
0.000000
  70
    32
  0
VERTEX
  8
0
  5
9CF7
 10
304.565
 20
637.661
 30
0.000000
  70
    32
  0
VERTEX
  8
0
  5
9CF8
 10
304.560
 20
637.650
 30
0.000000
  70
    32
  0
VERTEX
  8
0
  5
9CF9
 10
304.556
 20
637.638
 30
0.000000
  70
    32
  0
VERTEX
  8
0
  5
9CFA
 10
304.552
 20
637.627
 30
0.000000
  70
    32
  0
VERTEX
  8
0
  5
9CFB
 10
304.549
 20
637.615
 30
0.000000
  70
    32
  0
VERTEX
  8
0
  5
9CFC
 10
304.545
 20
637.603
 30
0.000000
  70
    32
  0
VERTEX
  8
0
  5
9CFD
 10
304.542
 20
637.592
 30
0.000000
  70
    32
  0
VERTEX
  8
0
  5
9CFE
 10
304.538
 20
637.580
 30
0.000000
  70
    32
  0
VERTEX
  8
0
  5
9CFF
 10
304.535
 20
637.568
 30
0.000000
  70
    32
  0
VERTEX
  8
0
  5
9D00
 10
304.532
 20
637.556
 30
0.000000
  70
    32
  0
VERTEX
  8
0
  5
9D01
 10
304.529
 20
637.544
 30
0.000000
  70
    32
  0
VERTEX
  8
0
  5
9D02
 10
304.526
 20
637.532
 30
0.000000
  70
    32
  0
VERTEX
  8
0
  5
9D03
 10
304.524
 20
637.520
 30
0.000000
  70
    32
  0
VERTEX
  8
0
  5
9D04
 10
304.521
 20
637.508
 30
0.000000
  70
    32
  0
VERTEX
  8
0
  5
9D05
 10
304.519
 20
637.496
 30
0.000000
  70
    32
  0
VERTEX
  8
0
  5
9D06
 10
304.517
 20
637.484
 30
0.000000
  70
    32
  0
VERTEX
  8
0
  5
9D07
 10
304.515
 20
637.472
 30
0.000000
  70
    32
  0
VERTEX
  8
0
  5
9D08
 10
304.513
 20
637.460
 30
0.000000
  70
    32
  0
VERTEX
  8
0
  5
9D09
 10
304.511
 20
637.448
 30
0.000000
  70
    32
  0
VERTEX
  8
0
  5
9D0A
 10
304.509
 20
637.435
 30
0.000000
  70
    32
  0
VERTEX
  8
0
  5
9D0B
 10
304.508
 20
637.423
 30
0.000000
  70
    32
  0
VERTEX
  8
0
  5
9D0C
 10
304.507
 20
637.411
 30
0.000000
  70
    32
  0
VERTEX
  8
0
  5
9D0D
 10
304.506
 20
637.399
 30
0.000000
  70
    32
  0
VERTEX
  8
0
  5
9D0E
 10
304.505
 20
637.387
 30
0.000000
  70
    32
  0
VERTEX
  8
0
  5
9D0F
 10
304.504
 20
637.374
 30
0.000000
  70
    32
  0
VERTEX
  8
0
  5
9D10
 10
304.503
 20
637.362
 30
0.000000
  70
    32
  0
VERTEX
  8
0
  5
9D11
 10
304.503
 20
637.350
 30
0.000000
  70
    32
  0
VERTEX
  8
0
  5
9D12
 10
304.502
 20
637.338
 30
0.000000
  70
    32
  0
VERTEX
  8
0
  5
9D13
 10
304.502
 20
637.325
 30
0.000000
  70
    32
  0
VERTEX
  8
0
  5
9D14
 10
304.502
 20
637.313
 30
0.000000
  70
    32
  0
SEQEND
  8
0
  5
9D15
  0
LINE
  5
95CA
  8
0
 10
391.77710284542547
 20
621.31273213659165
 30
0.0
 11
391.77710284542547
 21
637.31305213659175
 31
0.0
  0
LINE
  5
95CB
  8
0
 10
385.40197684542539
 20
616.81264213659188
 30
0.0
 11
385.40197684542539
 21
606.8124421365917
 31
0.0
  0
POLYLINE
  5
95CC
  8
0
 10
391.27710284542547
 20
617.31265213659174
 30
0.0
 66
     1
 70
     8
  0
VERTEX
  8
0
  5
9D16
 10
391.277
 20
617.313
 30
0.000000
  70
    32
  0
VERTEX
  8
0
  5
9D17
 10
391.283
 20
617.313
 30
0.000000
  70
    32
  0
VERTEX
  8
0
  5
9D18
 10
391.289
 20
617.313
 30
0.000000
  70
    32
  0
VERTEX
  8
0
  5
9D19
 10
391.296
 20
617.313
 30
0.000000
  70
    32
  0
VERTEX
  8
0
  5
9D1A
 10
391.302
 20
617.313
 30
0.000000
  70
    32
  0
VERTEX
  8
0
  5
9D1B
 10
391.308
 20
617.314
 30
0.000000
  70
    32
  0
VERTEX
  8
0
  5
9D1C
 10
391.314
 20
617.314
 30
0.000000
  70
    32
  0
VERTEX
  8
0
  5
9D1D
 10
391.320
 20
617.314
 30
0.000000
  70
    32
  0
VERTEX
  8
0
  5
9D1E
 10
391.326
 20
617.315
 30
0.000000
  70
    32
  0
VERTEX
  8
0
  5
9D1F
 10
391.332
 20
617.316
 30
0.000000
  70
    32
  0
VERTEX
  8
0
  5
9D20
 10
391.338
 20
617.316
 30
0.000000
  70
    32
  0
VERTEX
  8
0
  5
9D21
 10
391.344
 20
617.317
 30
0.000000
  70
    32
  0
VERTEX
  8
0
  5
9D22
 10
391.350
 20
617.318
 30
0.000000
  70
    32
  0
VERTEX
  8
0
  5
9D23
 10
391.357
 20
617.319
 30
0.000000
  70
    32
  0
VERTEX
  8
0
  5
9D24
 10
391.363
 20
617.320
 30
0.000000
  70
    32
  0
VERTEX
  8
0
  5
9D25
 10
391.369
 20
617.321
 30
0.000000
  70
    32
  0
VERTEX
  8
0
  5
9D26
 10
391.375
 20
617.322
 30
0.000000
  70
    32
  0
VERTEX
  8
0
  5
9D27
 10
391.381
 20
617.323
 30
0.000000
  70
    32
  0
VERTEX
  8
0
  5
9D28
 10
391.387
 20
617.325
 30
0.000000
  70
    32
  0
VERTEX
  8
0
  5
9D29
 10
391.393
 20
617.326
 30
0.000000
  70
    32
  0
VERTEX
  8
0
  5
9D2A
 10
391.399
 20
617.328
 30
0.000000
  70
    32
  0
VERTEX
  8
0
  5
9D2B
 10
391.405
 20
617.329
 30
0.000000
  70
    32
  0
VERTEX
  8
0
  5
9D2C
 10
391.410
 20
617.331
 30
0.000000
  70
    32
  0
VERTEX
  8
0
  5
9D2D
 10
391.416
 20
617.332
 30
0.000000
  70
    32
  0
VERTEX
  8
0
  5
9D2E
 10
391.422
 20
617.334
 30
0.000000
  70
    32
  0
VERTEX
  8
0
  5
9D2F
 10
391.428
 20
617.336
 30
0.000000
  70
    32
  0
VERTEX
  8
0
  5
9D30
 10
391.434
 20
617.338
 30
0.000000
  70
    32
  0
VERTEX
  8
0
  5
9D31
 10
391.440
 20
617.340
 30
0.000000
  70
    32
  0
VERTEX
  8
0
  5
9D32
 10
391.446
 20
617.342
 30
0.000000
  70
    32
  0
VERTEX
  8
0
  5
9D33
 10
391.451
 20
617.344
 30
0.000000
  70
    32
  0
VERTEX
  8
0
  5
9D34
 10
391.457
 20
617.346
 30
0.000000
  70
    32
  0
VERTEX
  8
0
  5
9D35
 10
391.463
 20
617.348
 30
0.000000
  70
    32
  0
VERTEX
  8
0
  5
9D36
 10
391.468
 20
617.351
 30
0.000000
  70
    32
  0
VERTEX
  8
0
  5
9D37
 10
391.474
 20
617.353
 30
0.000000
  70
    32
  0
VERTEX
  8
0
  5
9D38
 10
391.480
 20
617.356
 30
0.000000
  70
    32
  0
VERTEX
  8
0
  5
9D39
 10
391.485
 20
617.358
 30
0.000000
  70
    32
  0
VERTEX
  8
0
  5
9D3A
 10
391.491
 20
617.361
 30
0.000000
  70
    32
  0
VERTEX
  8
0
  5
9D3B
 10
391.496
 20
617.363
 30
0.000000
  70
    32
  0
VERTEX
  8
0
  5
9D3C
 10
391.502
 20
617.366
 30
0.000000
  70
    32
  0
VERTEX
  8
0
  5
9D3D
 10
391.507
 20
617.369
 30
0.000000
  70
    32
  0
VERTEX
  8
0
  5
9D3E
 10
391.513
 20
617.372
 30
0.000000
  70
    32
  0
VERTEX
  8
0
  5
9D3F
 10
391.518
 20
617.375
 30
0.000000
  70
    32
  0
VERTEX
  8
0
  5
9D40
 10
391.524
 20
617.378
 30
0.000000
  70
    32
  0
VERTEX
  8
0
  5
9D41
 10
391.529
 20
617.381
 30
0.000000
  70
    32
  0
VERTEX
  8
0
  5
9D42
 10
391.534
 20
617.384
 30
0.000000
  70
    32
  0
VERTEX
  8
0
  5
9D43
 10
391.539
 20
617.387
 30
0.000000
  70
    32
  0
VERTEX
  8
0
  5
9D44
 10
391.545
 20
617.390
 30
0.000000
  70
    32
  0
VERTEX
  8
0
  5
9D45
 10
391.550
 20
617.394
 30
0.000000
  70
    32
  0
VERTEX
  8
0
  5
9D46
 10
391.555
 20
617.397
 30
0.000000
  70
    32
  0
VERTEX
  8
0
  5
9D47
 10
391.560
 20
617.400
 30
0.000000
  70
    32
  0
VERTEX
  8
0
  5
9D48
 10
391.565
 20
617.404
 30
0.000000
  70
    32
  0
VERTEX
  8
0
  5
9D49
 10
391.570
 20
617.407
 30
0.000000
  70
    32
  0
VERTEX
  8
0
  5
9D4A
 10
391.575
 20
617.411
 30
0.000000
  70
    32
  0
VERTEX
  8
0
  5
9D4B
 10
391.580
 20
617.415
 30
0.000000
  70
    32
  0
VERTEX
  8
0
  5
9D4C
 10
391.585
 20
617.418
 30
0.000000
  70
    32
  0
VERTEX
  8
0
  5
9D4D
 10
391.590
 20
617.422
 30
0.000000
  70
    32
  0
VERTEX
  8
0
  5
9D4E
 10
391.594
 20
617.426
 30
0.000000
  70
    32
  0
VERTEX
  8
0
  5
9D4F
 10
391.599
 20
617.430
 30
0.000000
  70
    32
  0
VERTEX
  8
0
  5
9D50
 10
391.604
 20
617.434
 30
0.000000
  70
    32
  0
VERTEX
  8
0
  5
9D51
 10
391.608
 20
617.438
 30
0.000000
  70
    32
  0
VERTEX
  8
0
  5
9D52
 10
391.613
 20
617.442
 30
0.000000
  70
    32
  0
VERTEX
  8
0
  5
9D53
 10
391.617
 20
617.446
 30
0.000000
  70
    32
  0
VERTEX
  8
0
  5
9D54
 10
391.622
 20
617.451
 30
0.000000
  70
    32
  0
VERTEX
  8
0
  5
9D55
 10
391.626
 20
617.455
 30
0.000000
  70
    32
  0
VERTEX
  8
0
  5
9D56
 10
391.631
 20
617.459
 30
0.000000
  70
    32
  0
VERTEX
  8
0
  5
9D57
 10
391.635
 20
617.463
 30
0.000000
  70
    32
  0
VERTEX
  8
0
  5
9D58
 10
391.639
 20
617.468
 30
0.000000
  70
    32
  0
VERTEX
  8
0
  5
9D59
 10
391.643
 20
617.472
 30
0.000000
  70
    32
  0
VERTEX
  8
0
  5
9D5A
 10
391.648
 20
617.477
 30
0.000000
  70
    32
  0
VERTEX
  8
0
  5
9D5B
 10
391.652
 20
617.481
 30
0.000000
  70
    32
  0
VERTEX
  8
0
  5
9D5C
 10
391.656
 20
617.486
 30
0.000000
  70
    32
  0
VERTEX
  8
0
  5
9D5D
 10
391.660
 20
617.491
 30
0.000000
  70
    32
  0
VERTEX
  8
0
  5
9D5E
 10
391.664
 20
617.495
 30
0.000000
  70
    32
  0
VERTEX
  8
0
  5
9D5F
 10
391.667
 20
617.500
 30
0.000000
  70
    32
  0
VERTEX
  8
0
  5
9D60
 10
391.671
 20
617.505
 30
0.000000
  70
    32
  0
VERTEX
  8
0
  5
9D61
 10
391.675
 20
617.510
 30
0.000000
  70
    32
  0
VERTEX
  8
0
  5
9D62
 10
391.679
 20
617.515
 30
0.000000
  70
    32
  0
VERTEX
  8
0
  5
9D63
 10
391.682
 20
617.520
 30
0.000000
  70
    32
  0
VERTEX
  8
0
  5
9D64
 10
391.686
 20
617.525
 30
0.000000
  70
    32
  0
VERTEX
  8
0
  5
9D65
 10
391.689
 20
617.530
 30
0.000000
  70
    32
  0
VERTEX
  8
0
  5
9D66
 10
391.693
 20
617.535
 30
0.000000
  70
    32
  0
VERTEX
  8
0
  5
9D67
 10
391.696
 20
617.540
 30
0.000000
  70
    32
  0
VERTEX
  8
0
  5
9D68
 10
391.700
 20
617.545
 30
0.000000
  70
    32
  0
VERTEX
  8
0
  5
9D69
 10
391.703
 20
617.550
 30
0.000000
  70
    32
  0
VERTEX
  8
0
  5
9D6A
 10
391.706
 20
617.556
 30
0.000000
  70
    32
  0
VERTEX
  8
0
  5
9D6B
 10
391.709
 20
617.561
 30
0.000000
  70
    32
  0
VERTEX
  8
0
  5
9D6C
 10
391.712
 20
617.566
 30
0.000000
  70
    32
  0
VERTEX
  8
0
  5
9D6D
 10
391.715
 20
617.572
 30
0.000000
  70
    32
  0
VERTEX
  8
0
  5
9D6E
 10
391.718
 20
617.577
 30
0.000000
  70
    32
  0
VERTEX
  8
0
  5
9D6F
 10
391.721
 20
617.582
 30
0.000000
  70
    32
  0
VERTEX
  8
0
  5
9D70
 10
391.724
 20
617.588
 30
0.000000
  70
    32
  0
VERTEX
  8
0
  5
9D71
 10
391.726
 20
617.593
 30
0.000000
  70
    32
  0
VERTEX
  8
0
  5
9D72
 10
391.729
 20
617.599
 30
0.000000
  70
    32
  0
VERTEX
  8
0
  5
9D73
 10
391.732
 20
617.604
 30
0.000000
  70
    32
  0
VERTEX
  8
0
  5
9D74
 10
391.734
 20
617.610
 30
0.000000
  70
    32
  0
VERTEX
  8
0
  5
9D75
 10
391.737
 20
617.616
 30
0.000000
  70
    32
  0
VERTEX
  8
0
  5
9D76
 10
391.739
 20
617.621
 30
0.000000
  70
    32
  0
VERTEX
  8
0
  5
9D77
 10
391.741
 20
617.627
 30
0.000000
  70
    32
  0
VERTEX
  8
0
  5
9D78
 10
391.744
 20
617.633
 30
0.000000
  70
    32
  0
VERTEX
  8
0
  5
9D79
 10
391.746
 20
617.638
 30
0.000000
  70
    32
  0
VERTEX
  8
0
  5
9D7A
 10
391.748
 20
617.644
 30
0.000000
  70
    32
  0
VERTEX
  8
0
  5
9D7B
 10
391.750
 20
617.650
 30
0.000000
  70
    32
  0
VERTEX
  8
0
  5
9D7C
 10
391.752
 20
617.656
 30
0.000000
  70
    32
  0
VERTEX
  8
0
  5
9D7D
 10
391.754
 20
617.662
 30
0.000000
  70
    32
  0
VERTEX
  8
0
  5
9D7E
 10
391.756
 20
617.668
 30
0.000000
  70
    32
  0
VERTEX
  8
0
  5
9D7F
 10
391.757
 20
617.673
 30
0.000000
  70
    32
  0
VERTEX
  8
0
  5
9D80
 10
391.759
 20
617.679
 30
0.000000
  70
    32
  0
VERTEX
  8
0
  5
9D81
 10
391.761
 20
617.685
 30
0.000000
  70
    32
  0
VERTEX
  8
0
  5
9D82
 10
391.762
 20
617.691
 30
0.000000
  70
    32
  0
VERTEX
  8
0
  5
9D83
 10
391.764
 20
617.697
 30
0.000000
  70
    32
  0
VERTEX
  8
0
  5
9D84
 10
391.765
 20
617.703
 30
0.000000
  70
    32
  0
VERTEX
  8
0
  5
9D85
 10
391.766
 20
617.709
 30
0.000000
  70
    32
  0
VERTEX
  8
0
  5
9D86
 10
391.767
 20
617.715
 30
0.000000
  70
    32
  0
VERTEX
  8
0
  5
9D87
 10
391.769
 20
617.721
 30
0.000000
  70
    32
  0
VERTEX
  8
0
  5
9D88
 10
391.770
 20
617.727
 30
0.000000
  70
    32
  0
VERTEX
  8
0
  5
9D89
 10
391.771
 20
617.733
 30
0.000000
  70
    32
  0
VERTEX
  8
0
  5
9D8A
 10
391.772
 20
617.739
 30
0.000000
  70
    32
  0
VERTEX
  8
0
  5
9D8B
 10
391.773
 20
617.745
 30
0.000000
  70
    32
  0
VERTEX
  8
0
  5
9D8C
 10
391.773
 20
617.751
 30
0.000000
  70
    32
  0
VERTEX
  8
0
  5
9D8D
 10
391.774
 20
617.758
 30
0.000000
  70
    32
  0
VERTEX
  8
0
  5
9D8E
 10
391.775
 20
617.764
 30
0.000000
  70
    32
  0
VERTEX
  8
0
  5
9D8F
 10
391.775
 20
617.770
 30
0.000000
  70
    32
  0
VERTEX
  8
0
  5
9D90
 10
391.776
 20
617.776
 30
0.000000
  70
    32
  0
VERTEX
  8
0
  5
9D91
 10
391.776
 20
617.782
 30
0.000000
  70
    32
  0
VERTEX
  8
0
  5
9D92
 10
391.777
 20
617.788
 30
0.000000
  70
    32
  0
VERTEX
  8
0
  5
9D93
 10
391.777
 20
617.794
 30
0.000000
  70
    32
  0
VERTEX
  8
0
  5
9D94
 10
391.777
 20
617.800
 30
0.000000
  70
    32
  0
VERTEX
  8
0
  5
9D95
 10
391.777
 20
617.807
 30
0.000000
  70
    32
  0
VERTEX
  8
0
  5
9D96
 10
391.777
 20
617.813
 30
0.000000
  70
    32
  0
SEQEND
  8
0
  5
9D97
  0
POLYLINE
  5
95CD
  8
0
 10
385.90197684542528
 20
617.31265213659208
 30
0.0
 66
     1
 70
     8
  0
VERTEX
  8
0
  5
9D98
 10
385.902
 20
617.313
 30
0.000000
  70
    32
  0
VERTEX
  8
0
  5
9D99
 10
385.896
 20
617.313
 30
0.000000
  70
    32
  0
VERTEX
  8
0
  5
9D9A
 10
385.890
 20
617.313
 30
0.000000
  70
    32
  0
VERTEX
  8
0
  5
9D9B
 10
385.884
 20
617.312
 30
0.000000
  70
    32
  0
VERTEX
  8
0
  5
9D9C
 10
385.877
 20
617.312
 30
0.000000
  70
    32
  0
VERTEX
  8
0
  5
9D9D
 10
385.871
 20
617.312
 30
0.000000
  70
    32
  0
VERTEX
  8
0
  5
9D9E
 10
385.865
 20
617.311
 30
0.000000
  70
    32
  0
VERTEX
  8
0
  5
9D9F
 10
385.859
 20
617.311
 30
0.000000
  70
    32
  0
VERTEX
  8
0
  5
9DA0
 10
385.853
 20
617.310
 30
0.000000
  70
    32
  0
VERTEX
  8
0
  5
9DA1
 10
385.847
 20
617.310
 30
0.000000
  70
    32
  0
VERTEX
  8
0
  5
9DA2
 10
385.841
 20
617.309
 30
0.000000
  70
    32
  0
VERTEX
  8
0
  5
9DA3
 10
385.835
 20
617.308
 30
0.000000
  70
    32
  0
VERTEX
  8
0
  5
9DA4
 10
385.829
 20
617.307
 30
0.000000
  70
    32
  0
VERTEX
  8
0
  5
9DA5
 10
385.823
 20
617.306
 30
0.000000
  70
    32
  0
VERTEX
  8
0
  5
9DA6
 10
385.816
 20
617.305
 30
0.000000
  70
    32
  0
VERTEX
  8
0
  5
9DA7
 10
385.810
 20
617.304
 30
0.000000
  70
    32
  0
VERTEX
  8
0
  5
9DA8
 10
385.804
 20
617.303
 30
0.000000
  70
    32
  0
VERTEX
  8
0
  5
9DA9
 10
385.798
 20
617.302
 30
0.000000
  70
    32
  0
VERTEX
  8
0
  5
9DAA
 10
385.792
 20
617.301
 30
0.000000
  70
    32
  0
VERTEX
  8
0
  5
9DAB
 10
385.786
 20
617.299
 30
0.000000
  70
    32
  0
VERTEX
  8
0
  5
9DAC
 10
385.780
 20
617.298
 30
0.000000
  70
    32
  0
VERTEX
  8
0
  5
9DAD
 10
385.775
 20
617.296
 30
0.000000
  70
    32
  0
VERTEX
  8
0
  5
9DAE
 10
385.769
 20
617.295
 30
0.000000
  70
    32
  0
VERTEX
  8
0
  5
9DAF
 10
385.763
 20
617.293
 30
0.000000
  70
    32
  0
VERTEX
  8
0
  5
9DB0
 10
385.757
 20
617.291
 30
0.000000
  70
    32
  0
VERTEX
  8
0
  5
9DB1
 10
385.751
 20
617.289
 30
0.000000
  70
    32
  0
VERTEX
  8
0
  5
9DB2
 10
385.745
 20
617.287
 30
0.000000
  70
    32
  0
VERTEX
  8
0
  5
9DB3
 10
385.739
 20
617.285
 30
0.000000
  70
    32
  0
VERTEX
  8
0
  5
9DB4
 10
385.734
 20
617.283
 30
0.000000
  70
    32
  0
VERTEX
  8
0
  5
9DB5
 10
385.728
 20
617.281
 30
0.000000
  70
    32
  0
VERTEX
  8
0
  5
9DB6
 10
385.722
 20
617.279
 30
0.000000
  70
    32
  0
VERTEX
  8
0
  5
9DB7
 10
385.716
 20
617.277
 30
0.000000
  70
    32
  0
VERTEX
  8
0
  5
9DB8
 10
385.711
 20
617.275
 30
0.000000
  70
    32
  0
VERTEX
  8
0
  5
9DB9
 10
385.705
 20
617.272
 30
0.000000
  70
    32
  0
VERTEX
  8
0
  5
9DBA
 10
385.699
 20
617.270
 30
0.000000
  70
    32
  0
VERTEX
  8
0
  5
9DBB
 10
385.694
 20
617.267
 30
0.000000
  70
    32
  0
VERTEX
  8
0
  5
9DBC
 10
385.688
 20
617.265
 30
0.000000
  70
    32
  0
VERTEX
  8
0
  5
9DBD
 10
385.683
 20
617.262
 30
0.000000
  70
    32
  0
VERTEX
  8
0
  5
9DBE
 10
385.677
 20
617.259
 30
0.000000
  70
    32
  0
VERTEX
  8
0
  5
9DBF
 10
385.672
 20
617.256
 30
0.000000
  70
    32
  0
VERTEX
  8
0
  5
9DC0
 10
385.666
 20
617.254
 30
0.000000
  70
    32
  0
VERTEX
  8
0
  5
9DC1
 10
385.661
 20
617.251
 30
0.000000
  70
    32
  0
VERTEX
  8
0
  5
9DC2
 10
385.656
 20
617.248
 30
0.000000
  70
    32
  0
VERTEX
  8
0
  5
9DC3
 10
385.650
 20
617.245
 30
0.000000
  70
    32
  0
VERTEX
  8
0
  5
9DC4
 10
385.645
 20
617.242
 30
0.000000
  70
    32
  0
VERTEX
  8
0
  5
9DC5
 10
385.640
 20
617.238
 30
0.000000
  70
    32
  0
VERTEX
  8
0
  5
9DC6
 10
385.634
 20
617.235
 30
0.000000
  70
    32
  0
VERTEX
  8
0
  5
9DC7
 10
385.629
 20
617.232
 30
0.000000
  70
    32
  0
VERTEX
  8
0
  5
9DC8
 10
385.624
 20
617.228
 30
0.000000
  70
    32
  0
VERTEX
  8
0
  5
9DC9
 10
385.619
 20
617.225
 30
0.000000
  70
    32
  0
VERTEX
  8
0
  5
9DCA
 10
385.614
 20
617.221
 30
0.000000
  70
    32
  0
VERTEX
  8
0
  5
9DCB
 10
385.609
 20
617.218
 30
0.000000
  70
    32
  0
VERTEX
  8
0
  5
9DCC
 10
385.604
 20
617.214
 30
0.000000
  70
    32
  0
VERTEX
  8
0
  5
9DCD
 10
385.599
 20
617.211
 30
0.000000
  70
    32
  0
VERTEX
  8
0
  5
9DCE
 10
385.594
 20
617.207
 30
0.000000
  70
    32
  0
VERTEX
  8
0
  5
9DCF
 10
385.590
 20
617.203
 30
0.000000
  70
    32
  0
VERTEX
  8
0
  5
9DD0
 10
385.585
 20
617.199
 30
0.000000
  70
    32
  0
VERTEX
  8
0
  5
9DD1
 10
385.580
 20
617.195
 30
0.000000
  70
    32
  0
VERTEX
  8
0
  5
9DD2
 10
385.575
 20
617.191
 30
0.000000
  70
    32
  0
VERTEX
  8
0
  5
9DD3
 10
385.571
 20
617.187
 30
0.000000
  70
    32
  0
VERTEX
  8
0
  5
9DD4
 10
385.566
 20
617.183
 30
0.000000
  70
    32
  0
VERTEX
  8
0
  5
9DD5
 10
385.562
 20
617.179
 30
0.000000
  70
    32
  0
VERTEX
  8
0
  5
9DD6
 10
385.557
 20
617.175
 30
0.000000
  70
    32
  0
VERTEX
  8
0
  5
9DD7
 10
385.553
 20
617.171
 30
0.000000
  70
    32
  0
VERTEX
  8
0
  5
9DD8
 10
385.548
 20
617.166
 30
0.000000
  70
    32
  0
VERTEX
  8
0
  5
9DD9
 10
385.544
 20
617.162
 30
0.000000
  70
    32
  0
VERTEX
  8
0
  5
9DDA
 10
385.540
 20
617.157
 30
0.000000
  70
    32
  0
VERTEX
  8
0
  5
9DDB
 10
385.536
 20
617.153
 30
0.000000
  70
    32
  0
VERTEX
  8
0
  5
9DDC
 10
385.532
 20
617.148
 30
0.000000
  70
    32
  0
VERTEX
  8
0
  5
9DDD
 10
385.527
 20
617.144
 30
0.000000
  70
    32
  0
VERTEX
  8
0
  5
9DDE
 10
385.523
 20
617.139
 30
0.000000
  70
    32
  0
VERTEX
  8
0
  5
9DDF
 10
385.519
 20
617.135
 30
0.000000
  70
    32
  0
VERTEX
  8
0
  5
9DE0
 10
385.515
 20
617.130
 30
0.000000
  70
    32
  0
VERTEX
  8
0
  5
9DE1
 10
385.512
 20
617.125
 30
0.000000
  70
    32
  0
VERTEX
  8
0
  5
9DE2
 10
385.508
 20
617.120
 30
0.000000
  70
    32
  0
VERTEX
  8
0
  5
9DE3
 10
385.504
 20
617.115
 30
0.000000
  70
    32
  0
VERTEX
  8
0
  5
9DE4
 10
385.500
 20
617.110
 30
0.000000
  70
    32
  0
VERTEX
  8
0
  5
9DE5
 10
385.497
 20
617.106
 30
0.000000
  70
    32
  0
VERTEX
  8
0
  5
9DE6
 10
385.493
 20
617.101
 30
0.000000
  70
    32
  0
VERTEX
  8
0
  5
9DE7
 10
385.490
 20
617.096
 30
0.000000
  70
    32
  0
VERTEX
  8
0
  5
9DE8
 10
385.486
 20
617.090
 30
0.000000
  70
    32
  0
VERTEX
  8
0
  5
9DE9
 10
385.483
 20
617.085
 30
0.000000
  70
    32
  0
VERTEX
  8
0
  5
9DEA
 10
385.480
 20
617.080
 30
0.000000
  70
    32
  0
VERTEX
  8
0
  5
9DEB
 10
385.476
 20
617.075
 30
0.000000
  70
    32
  0
VERTEX
  8
0
  5
9DEC
 10
385.473
 20
617.070
 30
0.000000
  70
    32
  0
VERTEX
  8
0
  5
9DED
 10
385.470
 20
617.064
 30
0.000000
  70
    32
  0
VERTEX
  8
0
  5
9DEE
 10
385.467
 20
617.059
 30
0.000000
  70
    32
  0
VERTEX
  8
0
  5
9DEF
 10
385.464
 20
617.054
 30
0.000000
  70
    32
  0
VERTEX
  8
0
  5
9DF0
 10
385.461
 20
617.048
 30
0.000000
  70
    32
  0
VERTEX
  8
0
  5
9DF1
 10
385.458
 20
617.043
 30
0.000000
  70
    32
  0
VERTEX
  8
0
  5
9DF2
 10
385.455
 20
617.037
 30
0.000000
  70
    32
  0
VERTEX
  8
0
  5
9DF3
 10
385.453
 20
617.032
 30
0.000000
  70
    32
  0
VERTEX
  8
0
  5
9DF4
 10
385.450
 20
617.026
 30
0.000000
  70
    32
  0
VERTEX
  8
0
  5
9DF5
 10
385.447
 20
617.021
 30
0.000000
  70
    32
  0
VERTEX
  8
0
  5
9DF6
 10
385.445
 20
617.015
 30
0.000000
  70
    32
  0
VERTEX
  8
0
  5
9DF7
 10
385.442
 20
617.010
 30
0.000000
  70
    32
  0
VERTEX
  8
0
  5
9DF8
 10
385.440
 20
617.004
 30
0.000000
  70
    32
  0
VERTEX
  8
0
  5
9DF9
 10
385.438
 20
616.998
 30
0.000000
  70
    32
  0
VERTEX
  8
0
  5
9DFA
 10
385.435
 20
616.993
 30
0.000000
  70
    32
  0
VERTEX
  8
0
  5
9DFB
 10
385.433
 20
616.987
 30
0.000000
  70
    32
  0
VERTEX
  8
0
  5
9DFC
 10
385.431
 20
616.981
 30
0.000000
  70
    32
  0
VERTEX
  8
0
  5
9DFD
 10
385.429
 20
616.975
 30
0.000000
  70
    32
  0
VERTEX
  8
0
  5
9DFE
 10
385.427
 20
616.969
 30
0.000000
  70
    32
  0
VERTEX
  8
0
  5
9DFF
 10
385.425
 20
616.964
 30
0.000000
  70
    32
  0
VERTEX
  8
0
  5
9E00
 10
385.424
 20
616.958
 30
0.000000
  70
    32
  0
VERTEX
  8
0
  5
9E01
 10
385.422
 20
616.952
 30
0.000000
  70
    32
  0
VERTEX
  8
0
  5
9E02
 10
385.420
 20
616.946
 30
0.000000
  70
    32
  0
VERTEX
  8
0
  5
9E03
 10
385.418
 20
616.940
 30
0.000000
  70
    32
  0
VERTEX
  8
0
  5
9E04
 10
385.417
 20
616.934
 30
0.000000
  70
    32
  0
VERTEX
  8
0
  5
9E05
 10
385.416
 20
616.928
 30
0.000000
  70
    32
  0
VERTEX
  8
0
  5
9E06
 10
385.414
 20
616.922
 30
0.000000
  70
    32
  0
VERTEX
  8
0
  5
9E07
 10
385.413
 20
616.916
 30
0.000000
  70
    32
  0
VERTEX
  8
0
  5
9E08
 10
385.412
 20
616.910
 30
0.000000
  70
    32
  0
VERTEX
  8
0
  5
9E09
 10
385.410
 20
616.904
 30
0.000000
  70
    32
  0
VERTEX
  8
0
  5
9E0A
 10
385.409
 20
616.898
 30
0.000000
  70
    32
  0
VERTEX
  8
0
  5
9E0B
 10
385.408
 20
616.892
 30
0.000000
  70
    32
  0
VERTEX
  8
0
  5
9E0C
 10
385.407
 20
616.886
 30
0.000000
  70
    32
  0
VERTEX
  8
0
  5
9E0D
 10
385.407
 20
616.880
 30
0.000000
  70
    32
  0
VERTEX
  8
0
  5
9E0E
 10
385.406
 20
616.874
 30
0.000000
  70
    32
  0
VERTEX
  8
0
  5
9E0F
 10
385.405
 20
616.868
 30
0.000000
  70
    32
  0
VERTEX
  8
0
  5
9E10
 10
385.404
 20
616.862
 30
0.000000
  70
    32
  0
VERTEX
  8
0
  5
9E11
 10
385.404
 20
616.856
 30
0.000000
  70
    32
  0
VERTEX
  8
0
  5
9E12
 10
385.403
 20
616.849
 30
0.000000
  70
    32
  0
VERTEX
  8
0
  5
9E13
 10
385.403
 20
616.843
 30
0.000000
  70
    32
  0
VERTEX
  8
0
  5
9E14
 10
385.403
 20
616.837
 30
0.000000
  70
    32
  0
VERTEX
  8
0
  5
9E15
 10
385.402
 20
616.831
 30
0.000000
  70
    32
  0
VERTEX
  8
0
  5
9E16
 10
385.402
 20
616.825
 30
0.000000
  70
    32
  0
VERTEX
  8
0
  5
9E17
 10
385.402
 20
616.819
 30
0.000000
  70
    32
  0
VERTEX
  8
0
  5
9E18
 10
385.402
 20
616.813
 30
0.000000
  70
    32
  0
SEQEND
  8
0
  5
9E19
  0
LINE
  5
95CE
  8
0
 10
385.90197684542528
 20
617.31265213659174
 30
0.0
 11
391.27710284542547
 21
617.31265213659174
 31
0.0
  0
LINE
  5
95CF
  8
0
 10
391.77710284542547
 20
621.31273213659165
 30
0.0
 11
391.77710284542547
 21
617.81266213659171
 31
0.0
  0
POLYLINE
  5
95D0
  8
0
 10
391.77710284502541
 20
637.31305213659175
 30
0.0
 66
     1
 70
     8
  0
VERTEX
  8
0
  5
9E1A
 10
391.777
 20
637.313
 30
0.000000
  70
    32
  0
VERTEX
  8
0
  5
9E1B
 10
391.777
 20
637.325
 30
0.000000
  70
    32
  0
VERTEX
  8
0
  5
9E1C
 10
391.777
 20
637.338
 30
0.000000
  70
    32
  0
VERTEX
  8
0
  5
9E1D
 10
391.776
 20
637.350
 30
0.000000
  70
    32
  0
VERTEX
  8
0
  5
9E1E
 10
391.776
 20
637.362
 30
0.000000
  70
    32
  0
VERTEX
  8
0
  5
9E1F
 10
391.775
 20
637.374
 30
0.000000
  70
    32
  0
VERTEX
  8
0
  5
9E20
 10
391.774
 20
637.387
 30
0.000000
  70
    32
  0
VERTEX
  8
0
  5
9E21
 10
391.773
 20
637.399
 30
0.000000
  70
    32
  0
VERTEX
  8
0
  5
9E22
 10
391.772
 20
637.411
 30
0.000000
  70
    32
  0
VERTEX
  8
0
  5
9E23
 10
391.771
 20
637.423
 30
0.000000
  70
    32
  0
VERTEX
  8
0
  5
9E24
 10
391.770
 20
637.435
 30
0.000000
  70
    32
  0
VERTEX
  8
0
  5
9E25
 10
391.768
 20
637.448
 30
0.000000
  70
    32
  0
VERTEX
  8
0
  5
9E26
 10
391.766
 20
637.460
 30
0.000000
  70
    32
  0
VERTEX
  8
0
  5
9E27
 10
391.764
 20
637.472
 30
0.000000
  70
    32
  0
VERTEX
  8
0
  5
9E28
 10
391.762
 20
637.484
 30
0.000000
  70
    32
  0
VERTEX
  8
0
  5
9E29
 10
391.760
 20
637.496
 30
0.000000
  70
    32
  0
VERTEX
  8
0
  5
9E2A
 10
391.758
 20
637.508
 30
0.000000
  70
    32
  0
VERTEX
  8
0
  5
9E2B
 10
391.755
 20
637.520
 30
0.000000
  70
    32
  0
VERTEX
  8
0
  5
9E2C
 10
391.753
 20
637.532
 30
0.000000
  70
    32
  0
VERTEX
  8
0
  5
9E2D
 10
391.750
 20
637.544
 30
0.000000
  70
    32
  0
VERTEX
  8
0
  5
9E2E
 10
391.747
 20
637.556
 30
0.000000
  70
    32
  0
VERTEX
  8
0
  5
9E2F
 10
391.744
 20
637.568
 30
0.000000
  70
    32
  0
VERTEX
  8
0
  5
9E30
 10
391.741
 20
637.580
 30
0.000000
  70
    32
  0
VERTEX
  8
0
  5
9E31
 10
391.738
 20
637.592
 30
0.000000
  70
    32
  0
VERTEX
  8
0
  5
9E32
 10
391.734
 20
637.603
 30
0.000000
  70
    32
  0
VERTEX
  8
0
  5
9E33
 10
391.730
 20
637.615
 30
0.000000
  70
    32
  0
VERTEX
  8
0
  5
9E34
 10
391.727
 20
637.627
 30
0.000000
  70
    32
  0
VERTEX
  8
0
  5
9E35
 10
391.723
 20
637.638
 30
0.000000
  70
    32
  0
VERTEX
  8
0
  5
9E36
 10
391.719
 20
637.650
 30
0.000000
  70
    32
  0
VERTEX
  8
0
  5
9E37
 10
391.714
 20
637.661
 30
0.000000
  70
    32
  0
VERTEX
  8
0
  5
9E38
 10
391.710
 20
637.673
 30
0.000000
  70
    32
  0
VERTEX
  8
0
  5
9E39
 10
391.706
 20
637.684
 30
0.000000
  70
    32
  0
VERTEX
  8
0
  5
9E3A
 10
391.701
 20
637.696
 30
0.000000
  70
    32
  0
VERTEX
  8
0
  5
9E3B
 10
391.696
 20
637.707
 30
0.000000
  70
    32
  0
VERTEX
  8
0
  5
9E3C
 10
391.691
 20
637.718
 30
0.000000
  70
    32
  0
VERTEX
  8
0
  5
9E3D
 10
391.686
 20
637.729
 30
0.000000
  70
    32
  0
VERTEX
  8
0
  5
9E3E
 10
391.681
 20
637.741
 30
0.000000
  70
    32
  0
VERTEX
  8
0
  5
9E3F
 10
391.676
 20
637.752
 30
0.000000
  70
    32
  0
VERTEX
  8
0
  5
9E40
 10
391.670
 20
637.763
 30
0.000000
  70
    32
  0
VERTEX
  8
0
  5
9E41
 10
391.665
 20
637.774
 30
0.000000
  70
    32
  0
VERTEX
  8
0
  5
9E42
 10
391.659
 20
637.784
 30
0.000000
  70
    32
  0
VERTEX
  8
0
  5
9E43
 10
391.653
 20
637.795
 30
0.000000
  70
    32
  0
VERTEX
  8
0
  5
9E44
 10
391.647
 20
637.806
 30
0.000000
  70
    32
  0
VERTEX
  8
0
  5
9E45
 10
391.641
 20
637.817
 30
0.000000
  70
    32
  0
VERTEX
  8
0
  5
9E46
 10
391.635
 20
637.827
 30
0.000000
  70
    32
  0
VERTEX
  8
0
  5
9E47
 10
391.628
 20
637.838
 30
0.000000
  70
    32
  0
VERTEX
  8
0
  5
9E48
 10
391.622
 20
637.848
 30
0.000000
  70
    32
  0
VERTEX
  8
0
  5
9E49
 10
391.615
 20
637.858
 30
0.000000
  70
    32
  0
VERTEX
  8
0
  5
9E4A
 10
391.609
 20
637.869
 30
0.000000
  70
    32
  0
VERTEX
  8
0
  5
9E4B
 10
391.602
 20
637.879
 30
0.000000
  70
    32
  0
VERTEX
  8
0
  5
9E4C
 10
391.595
 20
637.889
 30
0.000000
  70
    32
  0
VERTEX
  8
0
  5
9E4D
 10
391.588
 20
637.899
 30
0.000000
  70
    32
  0
VERTEX
  8
0
  5
9E4E
 10
391.580
 20
637.909
 30
0.000000
  70
    32
  0
VERTEX
  8
0
  5
9E4F
 10
391.573
 20
637.919
 30
0.000000
  70
    32
  0
VERTEX
  8
0
  5
9E50
 10
391.565
 20
637.928
 30
0.000000
  70
    32
  0
VERTEX
  8
0
  5
9E51
 10
391.558
 20
637.938
 30
0.000000
  70
    32
  0
VERTEX
  8
0
  5
9E52
 10
391.550
 20
637.947
 30
0.000000
  70
    32
  0
VERTEX
  8
0
  5
9E53
 10
391.542
 20
637.957
 30
0.000000
  70
    32
  0
VERTEX
  8
0
  5
9E54
 10
391.534
 20
637.966
 30
0.000000
  70
    32
  0
VERTEX
  8
0
  5
9E55
 10
391.526
 20
637.975
 30
0.000000
  70
    32
  0
VERTEX
  8
0
  5
9E56
 10
391.518
 20
637.985
 30
0.000000
  70
    32
  0
VERTEX
  8
0
  5
9E57
 10
391.510
 20
637.994
 30
0.000000
  70
    32
  0
VERTEX
  8
0
  5
9E58
 10
391.501
 20
638.003
 30
0.000000
  70
    32
  0
VERTEX
  8
0
  5
9E59
 10
391.493
 20
638.011
 30
0.000000
  70
    32
  0
VERTEX
  8
0
  5
9E5A
 10
391.484
 20
638.020
 30
0.000000
  70
    32
  0
VERTEX
  8
0
  5
9E5B
 10
391.475
 20
638.029
 30
0.000000
  70
    32
  0
VERTEX
  8
0
  5
9E5C
 10
391.467
 20
638.037
 30
0.000000
  70
    32
  0
VERTEX
  8
0
  5
9E5D
 10
391.458
 20
638.046
 30
0.000000
  70
    32
  0
VERTEX
  8
0
  5
9E5E
 10
391.449
 20
638.054
 30
0.000000
  70
    32
  0
VERTEX
  8
0
  5
9E5F
 10
391.440
 20
638.062
 30
0.000000
  70
    32
  0
VERTEX
  8
0
  5
9E60
 10
391.430
 20
638.070
 30
0.000000
  70
    32
  0
VERTEX
  8
0
  5
9E61
 10
391.421
 20
638.078
 30
0.000000
  70
    32
  0
VERTEX
  8
0
  5
9E62
 10
391.411
 20
638.086
 30
0.000000
  70
    32
  0
VERTEX
  8
0
  5
9E63
 10
391.402
 20
638.094
 30
0.000000
  70
    32
  0
VERTEX
  8
0
  5
9E64
 10
391.392
 20
638.101
 30
0.000000
  70
    32
  0
VERTEX
  8
0
  5
9E65
 10
391.383
 20
638.109
 30
0.000000
  70
    32
  0
VERTEX
  8
0
  5
9E66
 10
391.373
 20
638.116
 30
0.000000
  70
    32
  0
VERTEX
  8
0
  5
9E67
 10
391.363
 20
638.124
 30
0.000000
  70
    32
  0
VERTEX
  8
0
  5
9E68
 10
391.353
 20
638.131
 30
0.000000
  70
    32
  0
VERTEX
  8
0
  5
9E69
 10
391.343
 20
638.138
 30
0.000000
  70
    32
  0
VERTEX
  8
0
  5
9E6A
 10
391.333
 20
638.145
 30
0.000000
  70
    32
  0
VERTEX
  8
0
  5
9E6B
 10
391.322
 20
638.151
 30
0.000000
  70
    32
  0
VERTEX
  8
0
  5
9E6C
 10
391.312
 20
638.158
 30
0.000000
  70
    32
  0
VERTEX
  8
0
  5
9E6D
 10
391.302
 20
638.164
 30
0.000000
  70
    32
  0
VERTEX
  8
0
  5
9E6E
 10
391.291
 20
638.171
 30
0.000000
  70
    32
  0
VERTEX
  8
0
  5
9E6F
 10
391.281
 20
638.177
 30
0.000000
  70
    32
  0
VERTEX
  8
0
  5
9E70
 10
391.270
 20
638.183
 30
0.000000
  70
    32
  0
VERTEX
  8
0
  5
9E71
 10
391.259
 20
638.189
 30
0.000000
  70
    32
  0
VERTEX
  8
0
  5
9E72
 10
391.248
 20
638.195
 30
0.000000
  70
    32
  0
VERTEX
  8
0
  5
9E73
 10
391.238
 20
638.201
 30
0.000000
  70
    32
  0
VERTEX
  8
0
  5
9E74
 10
391.227
 20
638.206
 30
0.000000
  70
    32
  0
VERTEX
  8
0
  5
9E75
 10
391.216
 20
638.212
 30
0.000000
  70
    32
  0
VERTEX
  8
0
  5
9E76
 10
391.205
 20
638.217
 30
0.000000
  70
    32
  0
VERTEX
  8
0
  5
9E77
 10
391.194
 20
638.222
 30
0.000000
  70
    32
  0
VERTEX
  8
0
  5
9E78
 10
391.182
 20
638.227
 30
0.000000
  70
    32
  0
VERTEX
  8
0
  5
9E79
 10
391.171
 20
638.232
 30
0.000000
  70
    32
  0
VERTEX
  8
0
  5
9E7A
 10
391.160
 20
638.237
 30
0.000000
  70
    32
  0
VERTEX
  8
0
  5
9E7B
 10
391.148
 20
638.242
 30
0.000000
  70
    32
  0
VERTEX
  8
0
  5
9E7C
 10
391.137
 20
638.246
 30
0.000000
  70
    32
  0
VERTEX
  8
0
  5
9E7D
 10
391.126
 20
638.250
 30
0.000000
  70
    32
  0
VERTEX
  8
0
  5
9E7E
 10
391.114
 20
638.255
 30
0.000000
  70
    32
  0
VERTEX
  8
0
  5
9E7F
 10
391.102
 20
638.259
 30
0.000000
  70
    32
  0
VERTEX
  8
0
  5
9E80
 10
391.091
 20
638.263
 30
0.000000
  70
    32
  0
VERTEX
  8
0
  5
9E81
 10
391.079
 20
638.266
 30
0.000000
  70
    32
  0
VERTEX
  8
0
  5
9E82
 10
391.067
 20
638.270
 30
0.000000
  70
    32
  0
VERTEX
  8
0
  5
9E83
 10
391.056
 20
638.274
 30
0.000000
  70
    32
  0
VERTEX
  8
0
  5
9E84
 10
391.044
 20
638.277
 30
0.000000
  70
    32
  0
VERTEX
  8
0
  5
9E85
 10
391.032
 20
638.280
 30
0.000000
  70
    32
  0
VERTEX
  8
0
  5
9E86
 10
391.020
 20
638.283
 30
0.000000
  70
    32
  0
VERTEX
  8
0
  5
9E87
 10
391.008
 20
638.286
 30
0.000000
  70
    32
  0
VERTEX
  8
0
  5
9E88
 10
390.996
 20
638.289
 30
0.000000
  70
    32
  0
VERTEX
  8
0
  5
9E89
 10
390.984
 20
638.291
 30
0.000000
  70
    32
  0
VERTEX
  8
0
  5
9E8A
 10
390.972
 20
638.294
 30
0.000000
  70
    32
  0
VERTEX
  8
0
  5
9E8B
 10
390.960
 20
638.296
 30
0.000000
  70
    32
  0
VERTEX
  8
0
  5
9E8C
 10
390.948
 20
638.298
 30
0.000000
  70
    32
  0
VERTEX
  8
0
  5
9E8D
 10
390.936
 20
638.300
 30
0.000000
  70
    32
  0
VERTEX
  8
0
  5
9E8E
 10
390.924
 20
638.302
 30
0.000000
  70
    32
  0
VERTEX
  8
0
  5
9E8F
 10
390.912
 20
638.304
 30
0.000000
  70
    32
  0
VERTEX
  8
0
  5
9E90
 10
390.900
 20
638.306
 30
0.000000
  70
    32
  0
VERTEX
  8
0
  5
9E91
 10
390.887
 20
638.307
 30
0.000000
  70
    32
  0
VERTEX
  8
0
  5
9E92
 10
390.875
 20
638.308
 30
0.000000
  70
    32
  0
VERTEX
  8
0
  5
9E93
 10
390.863
 20
638.309
 30
0.000000
  70
    32
  0
VERTEX
  8
0
  5
9E94
 10
390.851
 20
638.310
 30
0.000000
  70
    32
  0
VERTEX
  8
0
  5
9E95
 10
390.838
 20
638.311
 30
0.000000
  70
    32
  0
VERTEX
  8
0
  5
9E96
 10
390.826
 20
638.312
 30
0.000000
  70
    32
  0
VERTEX
  8
0
  5
9E97
 10
390.814
 20
638.312
 30
0.000000
  70
    32
  0
VERTEX
  8
0
  5
9E98
 10
390.802
 20
638.313
 30
0.000000
  70
    32
  0
VERTEX
  8
0
  5
9E99
 10
390.789
 20
638.313
 30
0.000000
  70
    32
  0
VERTEX
  8
0
  5
9E9A
 10
390.777
 20
638.313
 30
0.000000
  70
    32
  0
SEQEND
  8
0
  5
9E9B
  0
LINE
  5
95D1
  8
0
 10
309.50197684542547
 20
625.81282213659165
 30
0.0
 11
299.50197684542547
 21
625.81282213659165
 31
0.0
  0
LINE
  5
95D2
  8
0
 10
387.27710284542547
 20
638.31307213659159
 30
0.0
 11
387.27710284542547
 21
640.81312213659157
 31
0.0
  0
LINE
  5
95D3
  8
0
 10
320.27710284542547
 20
638.31307213659159
 30
0.0
 11
320.27710284542547
 21
640.81312213659157
 31
0.0
  0
LINE
  5
95D4
  8
0
 10
256.77710284542547
 20
848.8131221365918
 30
0.0
 11
256.77710284542547
 21
842.8131221365918
 31
0.0
  0
LINE
  5
95D5
  8
0
 10
232.2771028454255
 20
849.8131221365918
 30
0.0
 11
232.2771028454255
 21
839.8131221365918
 31
0.0
  0
LINE
  5
95D6
  8
0
 10
243.2771028454255
 20
849.8131221365918
 30
0.0
 11
243.2771028454255
 21
839.8131221365918
 31
0.0
  0
LINE
  5
95D7
  8
0
 10
243.2771028454255
 20
848.8131221365918
 30
0.0
 11
256.77710284542547
 21
848.8131221365918
 31
0.0
  0
LINE
  5
95D8
  8
0
 10
232.2771028454255
 20
849.8131221365918
 30
0.0
 11
243.2771028454255
 21
849.8131221365918
 31
0.0
  0
LINE
  5
95D9
  8
0
 10
154.6771288454255
 20
642.81308113659168
 30
0.0
 11
232.27709884542551
 21
642.81307813659168
 31
0.0
  0
LINE
  5
95DA
  8
0
 10
154.6771288454255
 20
636.81308113659156
 30
0.0
 11
232.27709884542551
 21
636.81307813659157
 31
0.0
  0
LINE
  5
95DB
  8
0
 10
232.27709884542551
 20
635.81307813659157
 30
0.0
 11
232.27709884542551
 21
645.81307813659157
 31
0.0
  0
LINE
  5
95DC
  8
0
 10
232.27709884542551
 20
635.81307813659157
 30
0.0
 11
243.27709884542551
 21
635.81307813659157
 31
0.0
  0
LINE
  5
95DD
  8
0
 10
243.27709884542551
 20
635.81307813659157
 30
0.0
 11
243.27709884542551
 21
645.81307813659157
 31
0.0
  0
LINE
  5
95DE
  8
0
 10
243.27709884542551
 20
636.81307813659157
 30
0.0
 11
256.77709884542548
 21
636.81307813659157
 31
0.0
  0
LINE
  5
95DF
  8
0
 10
256.77709884542548
 20
636.81307813659157
 30
0.0
 11
256.77709884542548
 21
642.81307813659168
 31
0.0
  0
LINE
  5
95E0
  8
0
 10
243.27709884542551
 20
642.81307813659168
 30
0.0
 11
256.77709884542548
 21
642.81307813659168
 31
0.0
  0
LINE
  5
95E1
  8
0
 10
254.2771028454255
 20
750.45689313659182
 30
0.0
 11
259.77710284542547
 21
750.45689313659182
 31
0.0
  0
LINE
  5
95E2
  8
0
 10
254.27710284542519
 20
750.79097113659168
 30
0.0
 11
260.45710284542548
 21
750.79097113659168
 31
0.0
  0
LINE
  5
95E3
  8
0
 10
261.77710284542547
 20
748.45689313659182
 30
0.0
 11
261.77710284542547
 21
742.81312613659168
 31
0.0
  0
LINE
  5
95E4
  8
0
 10
263.4571028454256
 20
753.79097113659191
 30
0.0
 11
263.4571028454256
 21
742.81312613659168
 31
0.0
  0
ARC
  5
95E5
  8
0
 10
260.45710284542548
 20
753.79097113659191
 30
0.0
 40
3.0
 50
270.0
 51
0.0
  0
LINE
  5
95E6
  8
0
 10
254.2771028454255
 20
735.16935813659177
 30
0.0
 11
259.77710284542547
 21
735.16935813659177
 31
0.0
  0
LINE
  5
95E7
  8
0
 10
254.27710284542519
 20
734.83528058834622
 30
0.0
 11
260.45710284542548
 21
734.83528013659168
 31
0.0
  0
LINE
  5
95E8
  8
0
 10
261.77710284542547
 20
737.16935813659165
 30
0.0
 11
261.77710284542547
 21
742.81312613659168
 31
0.0
  0
LINE
  5
95E9
  8
0
 10
263.4571028454256
 20
731.83528013659179
 30
0.0
 11
263.4571028454256
 21
742.81312613659168
 31
0.0
  0
ARC
  5
95EA
  8
0
 10
260.45710284542548
 20
731.83528013659179
 30
0.0
 40
3.0
 50
359.99999799999722
 51
89.999997999997177
  0
LINE
  5
95EB
  8
0
 62
     0
 10
480.7771028454253
 20
703.09043113659163
 30
0.0
 11
460.7771028454253
 21
703.09043113659163
 31
0.0
  0
LINE
  5
95EC
  8
0
 62
     0
 10
480.7771028454253
 20
692.9111391365916
 30
0.0
 11
460.7771028454253
 21
692.9111391365916
 31
0.0
  0
LINE
  5
95ED
  8
0
 62
     0
 10
480.7771028454253
 20
680.60348513659164
 30
0.0
 11
460.7771028454253
 21
680.60348513659164
 31
0.0
  0
LINE
  5
95EE
  8
0
 62
     0
 10
480.7771028454253
 20
804.87909913659144
 30
0.0
 11
460.7771028454253
 21
804.87909913659144
 31
0.0
  0
LINE
  5
95EF
  8
0
 62
     0
 10
480.7771028454253
 20
818.55278113659165
 30
0.0
 11
460.7771028454253
 21
818.55278113659165
 31
0.0
  0
LINE
  5
95F0
  8
0
  6
CONTINUOUS
 62
     0
 10
460.77704284542563
 20
826.67677113659181
 30
0.0
 11
475.9516028454255
 21
826.84296213659161
 31
0.0
  0
ARC
  5
95F1
  8
0
  6
CONTINUOUS
 62
     0
 10
475.77710284542542
 20
831.8399721365912
 30
0.0
 40
5.0
 50
272.00000000000369
 51
0.0
  0
LINE
  5
95F3
  8
0
 62
     0
 10
460.77718284542573
 20
520.02514502618305
 30
0.0
 11
480.77719284542582
 21
520.02514502618305
 31
0.0
1001
GENIUS_GENODEF_13
1002
{
1000
HIER
1070
     0
1002
}
1002
{
1000
MANEDIT
1070
     0
1002
}
1002
{
1000
NOSEL
1070
     0
1002
}
1002
{
1000
BEHIND
1070
     0
1002
}
1002
{
1000
OTHER
1070
     0
1002
}
1002
{
1000
REACTOR
1002
}
1001
GENIUS_GENOBJ-N-CEN_13
1002
{
1000
OWNER
1000
GEN
1002
}
1001
GENIUS_GENCEN_19
1002
{
1040
2.7939999999999978
1002
}
  0
LINE
  5
95F4
  8
0
 62
     0
 10
460.77718284542573
 20
511.90114002618321
 30
0.0
 11
480.77719284542582
 21
511.90114002618321
 31
0.0
1001
GENIUS_GENODEF_13
1002
{
1000
HIER
1070
     0
1002
}
1002
{
1000
MANEDIT
1070
     0
1002
}
1002
{
1000
NOSEL
1070
     0
1002
}
1002
{
1000
BEHIND
1070
     0
1002
}
1002
{
1000
OTHER
1070
     0
1002
}
1002
{
1000
REACTOR
1002
}
1001
GENIUS_GENOBJ-N-CEN_13
1002
{
1000
OWNER
1000
GEN
1002
}
1001
GENIUS_GENCEN_19
1002
{
1040
2.7939999999999978
1002
}
  0
LINE
  5
95F5
  8
0
 62
     0
 10
460.77718284542573
 20
498.22742902618279
 30
0.0
 11
480.77719284542582
 21
498.22742902618279
 31
0.0
1001
GENIUS_GENOBJ-N-CEN_13
1002
{
1000
OWNER
1000
GEN
1002
}
1001
GENIUS_GENODEF_13
1002
{
1000
HIER
1070
     0
1002
}
1002
{
1000
MANEDIT
1070
     0
1002
}
1002
{
1000
NOSEL
1070
     0
1002
}
1002
{
1000
BEHIND
1070
     0
1002
}
1002
{
1000
OTHER
1070
     0
1002
}
1002
{
1000
REACTOR
1002
}
1001
GENIUS_GENCEN_19
1002
{
1040
2.7939999999999978
1002
}
  0
LINE
  5
95F6
  8
0
 62
     0
 10
460.77718284542573
 20
396.43879002618331
 30
0.0
 11
480.77719284542582
 21
396.43879002618331
 31
0.0
1001
GENIUS_GENOBJ-N-CEN_13
1002
{
1000
OWNER
1000
GEN
1002
}
1001
GENIUS_GENODEF_13
1002
{
1000
HIER
1070
     0
1002
}
1002
{
1000
MANEDIT
1070
     0
1002
}
1002
{
1000
NOSEL
1070
     0
1002
}
1002
{
1000
BEHIND
1070
     0
1002
}
1002
{
1000
OTHER
1070
     0
1002
}
1002
{
1000
REACTOR
1002
}
1001
GENIUS_GENCEN_19
1002
{
1040
2.7939999999999978
1002
}
  0
LINE
  5
95F9
  8
0
 62
     0
 10
460.77718284542573
 20
386.25949802618339
 30
0.0
 11
480.77719284542587
 21
386.25949802618339
 31
0.0
1001
GENIUS_GENOBJ-N-CEN_13
1002
{
1000
OWNER
1000
GEN
1002
}
1001
GENIUS_GENODEF_13
1002
{
1000
HIER
1070
     0
1002
}
1002
{
1000
MANEDIT
1070
     0
1002
}
1002
{
1000
NOSEL
1070
     0
1002
}
1002
{
1000
BEHIND
1070
     0
1002
}
1002
{
1000
OTHER
1070
     0
1002
}
1002
{
1000
REACTOR
1002
}
1001
GENIUS_GENCEN_19
1002
{
1040
2.7939999999999978
1002
}
  0
LINE
  5
95FA
  8
0
 62
     0
 10
460.77718284542573
 20
373.97221702618339
 30
0.0
 11
480.77719284542587
 21
373.97221702618339
 31
0.0
1001
GENIUS_GENOBJ-N-CEN_13
1002
{
1000
OWNER
1000
GEN
1002
}
1001
GENIUS_GENODEF_13
1002
{
1000
HIER
1070
     0
1002
}
1002
{
1000
MANEDIT
1070
     0
1002
}
1002
{
1000
NOSEL
1070
     0
1002
}
1002
{
1000
BEHIND
1070
     0
1002
}
1002
{
1000
OTHER
1070
     0
1002
}
1002
{
1000
REACTOR
1002
}
1001
GENIUS_GENCEN_19
1002
{
1040
2.7939999999999978
1002
}
  0
TEXT
  5
99BD
  8
0
  6
CONTINUOUS
 62
     0
 10
778.19421034898483
 20
723.70842331212305
 30
0.0
 40
10.0
  1
VX15-003EB~VX15-030EB
  0
ENDSEC
  0
EOF
