  0
SECTION
  2
HEADER
  9
$ACADVER
  1
AC1009
  9
$INSBASE
 10
0.0
 20
0.0
 30
0.0
  9
$EXTMIN
 10
145.1617835468914
 20
363.51065078697093
 30
-0.0000000000000053
  9
$EXTMAX
 10
1147.8532427139321
 20
899.78651398189731
 30
0.0000000000000099
  9
$LIMMIN
 10
-2.7186596955807532
 20
0.0935949875579354
  9
$LIMMAX
 10
1419.781340304419
 20
925.09359498755794
  9
$ORTHOMODE
 70
     1
  9
$REGENMODE
 70
     1
  9
$FILLMODE
 70
     1
  9
$QTEXTMODE
 70
     0
  9
$MIRRTEXT
 70
     0
  9
$DRAGMODE
 70
     2
  9
$LTSCALE
 40
1.0
  9
$OSMODE
 70
   551
  9
$ATTMODE
 70
     1
  9
$TEXTSIZE
 40
2.5
  9
$TRACEWID
 40
1.0
  9
$TEXTSTYLE
  7
STANDARD
  9
$CLAYER
  8
0
  9
$CELTYPE
  6
BYLAYER
  9
$CECOLOR
 62
   256
  9
$DIMSCALE
 40
1.0
  9
$DIMASZ
 40
2.0
  9
$DIMEXO
 40
1.0
  9
$DIMDLI
 40
8.0
  9
$DIMRND
 40
0.0
  9
$DIMDLE
 40
0.0
  9
$DIMEXE
 40
1.0
  9
$DIMTP
 40
-0.025
  9
$DIMTM
 40
0.043
  9
$DIMTXT
 40
2.5
  9
$DIMCEN
 40
0.0
  9
$DIMTSZ
 40
0.0
  9
$DIMTOL
 70
     0
  9
$DIMLIM
 70
     0
  9
$DIMTIH
 70
     0
  9
$DIMTOH
 70
     0
  9
$DIMSE1
 70
     0
  9
$DIMSE2
 70
     0
  9
$DIMTAD
 70
     3
  9
$DIMZIN
 70
     8
  9
$DIMBLK
  1

  9
$DIMASO
 70
     1
  9
$DIMSHO
 70
     1
  9
$DIMPOST
  1

  9
$DIMAPOST
  1
"
  9
$DIMALT
 70
     0
  9
$DIMALTD
 70
     2
  9
$DIMALTF
 40
0.0393701
  9
$DIMLFAC
 40
1.0
  9
$DIMTOFL
 70
     1
  9
$DIMTVP
 40
0.0
  9
$DIMTIX
 70
     0
  9
$DIMSOXD
 70
     0
  9
$DIMSAH
 70
     0
  9
$DIMBLK1
  1

  9
$DIMBLK2
  1

  9
$DIMSTYLE
  2
AM_JIS
  9
$DIMCLRD
 70
     2
  9
$DIMCLRE
 70
     2
  9
$DIMCLRT
 70
     4
  9
$DIMTFAC
 40
0.71
  9
$DIMGAP
 40
1.5
  9
$LUNITS
 70
     2
  9
$LUPREC
 70
     2
  9
$SKETCHINC
 40
1.0
  9
$FILLETRAD
 40
0.0
  9
$AUNITS
 70
     0
  9
$AUPREC
 70
     0
  9
$MENU
  1
.
  9
$ELEVATION
 40
0.0
  9
$PELEVATION
 40
0.0
  9
$THICKNESS
 40
0.0
  9
$LIMCHECK
 70
     0
  9
$BLIPMODE
 70
     0
  9
$CHAMFERA
 40
2.5
  9
$CHAMFERB
 40
2.5
  9
$SKPOLY
 70
     0
  9
$TDCREATE
 40
2456829.3841110538
  9
$TDUPDATE
 40
2458540.7222213079
  9
$TDINDWG
 40
0.4584436227
  9
$TDUSRTIMER
 40
0.458443044
  9
$USRTIMER
 70
     1
  9
$ANGBASE
 50
0.0
  9
$ANGDIR
 70
     0
  9
$PDMODE
 70
     0
  9
$PDSIZE
 40
0.0
  9
$PLINEWID
 40
0.0
  9
$COORDS
 70
     1
  9
$SPLFRAME
 70
     0
  9
$SPLINETYPE
 70
     6
  9
$SPLINESEGS
 70
     8
  9
$ATTDIA
 70
     1
  9
$ATTREQ
 70
     1
  9
$HANDLING
 70
     1
  9
$HANDSEED
  5
9B8A
  9
$SURFTAB1
 70
     6
  9
$SURFTAB2
 70
     6
  9
$SURFTYPE
 70
     6
  9
$SURFU
 70
     6
  9
$SURFV
 70
     6
  9
$UCSNAME
  2

  9
$UCSORG
 10
0.0
 20
0.0
 30
0.0
  9
$UCSXDIR
 10
1.0
 20
0.0
 30
0.0
  9
$UCSYDIR
 10
0.0
 20
1.0
 30
0.0
  9
$PUCSNAME
  2

  9
$PUCSORG
 10
0.0
 20
0.0
 30
0.0
  9
$PUCSXDIR
 10
1.0
 20
0.0
 30
0.0
  9
$PUCSYDIR
 10
0.0
 20
1.0
 30
0.0
  9
$USERI1
 70
     0
  9
$USERI2
 70
     0
  9
$USERI3
 70
     0
  9
$USERI4
 70
     0
  9
$USERI5
 70
     0
  9
$USERR1
 40
0.0
  9
$USERR2
 40
0.0
  9
$USERR3
 40
0.0
  9
$USERR4
 40
0.0
  9
$USERR5
 40
0.0
  9
$WORLDVIEW
 70
     1
  9
$SHADEDGE
 70
     3
  9
$SHADEDIF
 70
    70
  9
$TILEMODE
 70
     1
  9
$MAXACTVP
 70
    64
  9
$PLIMCHECK
 70
     0
  9
$PEXTMIN
 10
1.0000000000000000E+020
 20
1.0000000000000000E+020
 30
1.0000000000000000E+020
  9
$PEXTMAX
 10
-1.0000000000000000E+020
 20
-1.0000000000000000E+020
 30
-1.0000000000000000E+020
  9
$PLIMMIN
 10
0.0
 20
0.0
  9
$PLIMMAX
 10
420.0
 20
297.0
  9
$UNITMODE
 70
     0
  9
$VISRETAIN
 70
     1
  9
$PLINEGEN
 70
     0
  9
$PSLTSCALE
 70
     1
  0
ENDSEC
  0
SECTION
  2
TABLES
  0
TABLE
  2
VPORT
 70
     1
  0
VPORT
  2
*ACTIVE
 70
     0
 10
0.0
 20
0.0
 11
1.0
 21
1.0
 12
646.50751313041144
 22
631.64858238443412
 13
0.0
 23
0.0
 14
12.5
 24
12.5
 15
50.0
 25
50.0
 16
0.0
 26
0.0
 36
1.0
 17
0.0
 27
0.0
 37
0.0
 40
572.86148571028104
 41
1.7571592210767459
 42
50.0
 43
0.0
 44
0.0
 50
0.0
 51
0.0
 71
    16
 72
  1000
 73
     1
 74
     3
 75
     0
 76
     0
 77
     0
 78
     0
  0
ENDTAB
  0
TABLE
  2
LTYPE
 70
    24
  0
LTYPE
  2
CONTINUOUS
 70
     0
  3
Solid line
 72
    65
 73
     0
 40
0.0
  0
LTYPE
  2
CENTER
 70
     0
  3
Center ____ _ ____ _ ____ _ ____ _ ____ _ ____
 72
    65
 73
     4
 40
50.799999999999997
 49
31.75
 49
-6.3499999999999979
 49
6.3499999999999979
 49
-6.3499999999999979
  0
LTYPE
  2
AM_ISO02W050
 70
     0
  3
__ __ __ __ __ __ __ __ __ __ __ __ __ __ __
 72
    65
 73
     2
 40
7.5
 49
6.0
 49
-1.5
  0
LTYPE
  2
AM_ISO08W050
 70
     0
  3
____ . ____ . ____ . ____ . ____ . ____ . ____
 72
    65
 73
     4
 40
18.0
 49
12.0
 49
-1.5
 49
3.0
 49
-1.5
  0
LTYPE
  2
AM_ISO09W050
 70
     0
  3
_____ . . _____ . . _____ . . ____ .. ____
 72
    65
 73
     6
 40
22.5
 49
12.0
 49
-1.5
 49
3.0
 49
-1.5
 49
3.0
 49
-1.5
  0
LTYPE
  2
AMCONSTR
 70
     0
  3
_______________________
 72
    65
 73
     2
 40
9999.0
 49
9999.0
 49
0.0
  0
LTYPE
  2
AM_ISO08W050X2
 70
     0
  3
__ . __ . __ . __ . __ . __
 72
    65
 73
     4
 40
9.0
 49
6.0
 49
-0.75
 49
1.5
 49
-0.75
  0
LTYPE
  2
AM_ISO02W050X2
 70
     0
  3
 _ _ _ _ _ _ _ _ _ _ _ _
 72
    65
 73
     2
 40
3.75
 49
3.0
 49
-0.75
  0
LTYPE
  2
AMZIGZAG
 70
     0
  3
/\/-/\/-/\/-/\/-/\/-/\/
 72
    65
 73
     2
 40
11.0001
 49
0.0001
 49
-11.0
  0
LTYPE
  2
ACANSTGBM
 70
     0
  3
__ . . __ . .
 72
    65
 73
     6
 40
9.0
 49
4.0
 49
-1.0
 49
1.0
 49
-1.0
 49
1.0
 49
-1.0
  0
LTYPE
  2
ACANSTGLM
 70
     0
  3
_ _ _ _ _
 72
    65
 73
     2
 40
3.0
 49
2.0
 49
-1.0
  0
LTYPE
  2
ACISOWELD
 70
     0
  3
_ _ _ _ _
 72
    65
 73
     2
 40
2.0
 49
2.0
 49
-1.0
  0
LTYPE
  2
ACISOTGB
 70
     0
  3
__ . . __ . .
 72
    65
 73
     6
 40
9.0
 49
4.0
 49
-1.0
 49
1.0
 49
-1.0
 49
1.0
 49
-1.0
  0
LTYPE
  2
ACISOTGL
 70
     0
  3
_ _ _ _ _
 72
    65
 73
     2
 40
3.0
 49
2.0
 49
-1.0
  0
LTYPE
  2
ACJISTGB
 70
     0
  3
__ . . __ . .
 72
    65
 73
     6
 40
9.0
 49
4.0
 49
-1.0
 49
1.0
 49
-1.0
 49
1.0
 49
-1.0
  0
LTYPE
  2
ACJISTGL
 70
     0
  3
_ _ _ _ _
 72
    65
 73
     2
 40
3.0
 49
2.0
 49
-1.0
  0
LTYPE
  2
HIDDEN
 70
     0
  3
Hidden __ __ __ __ __ __ __ __ __ __ __ __ __ _
 72
    65
 73
     2
 40
9.5249999999999968
 49
6.349999999999997
 49
-3.174999999999998
  0
LTYPE
  2
PHANTOM2
 70
     0
  3
Phantom (.5x) ___ _ _ ___ _ _ ___ _ _ ___ _ _
 72
    65
 73
     6
 40
31.75
 49
15.875
 49
-3.174999999999998
 49
3.174999999999998
 49
-3.174999999999998
 49
3.174999999999998
 49
-3.174999999999998
  0
LTYPE
  2
CENTER2
 70
     0
  3
Center (.5x) ___ _ ___ _ ___ _ ___ _ ___ _ ___
 72
    65
 73
     4
 40
1.125
 49
0.75
 49
-0.125
 49
0.125
 49
-0.125
  0
LTYPE
  2
HIDDEN2
 70
     0
  3
Hidden (.5x) _ _ _ _ _ _ _ _ _ _ _ _ _ _ _ _ _
 72
    65
 73
     2
 40
0.1875
 49
0.125
 49
-0.0625
  0
LTYPE
  2
AMZIGZAG2
 70
     0
  3
/\/-/\/-/\/-/\/-/\/-/\/
 72
    65
 73
     2
 40
0.4401
 49
0.0001
 49
-0.4400000000000003
  0
LTYPE
  2
ACANSTGB
 70
     0
  3
__ . . __ . .
 72
    65
 73
     6
 40
0.35433070866
 49
0.15748031496
 49
-0.03937007874
 49
0.03937007874
 49
-0.03937007874
 49
0.03937007874
 49
-0.03937007874
  0
LTYPE
  2
ACANSTGL
 70
     0
  3
_ _ _ _ _
 72
    65
 73
     2
 40
0.11811023622
 49
0.07874015748
 49
-0.03937007874
  0
ENDTAB
  0
TABLE
  2
LAYER
 70
     5
  0
LAYER
  2
0
 70
     0
 62
     7
  6
CONTINUOUS
  0
LAYER
  2
DEFPOINTS
 70
     0
 62
     7
  6
CONTINUOUS
  0
LAYER
  2
AM_0
 70
     0
 62
     7
  6
CONTINUOUS
  0
LAYER
  2
AM_5
 70
     0
 62
     2
  6
CONTINUOUS
  0
LAYER
  2
AM_CL
 70
     0
 62
     1
  6
AMCONSTR
  0
ENDTAB
  0
TABLE
  2
STYLE
 70
     8
  0
STYLE
  2
STANDARD
 70
     0
 40
0.0
 41
0.7400000000000003
 50
0.0
 71
     0
 42
2.5
  3
txt.shx
  4
bigfont.shx
  0
STYLE
  2

 70
     1
 40
0.0
 41
1.0
 50
0.0
 71
     0
 42
2.5
  3
ltypeshp.shx
  4

  0
STYLE
  2
ACANSTS
 70
     0
 40
1.0
 41
1.0
 50
0.0
 71
     0
 42
2.5
  3
romans.shx
  4
bigfont.shx
  0
STYLE
  2
ACANSGDT
 70
     0
 40
0.0
 41
1.0
 50
0.0
 71
     0
 42
2.5
  3
amgdtans.shx
  4

  0
STYLE
  2
ACISOTS
 70
     0
 40
1.0
 41
1.0
 50
0.0
 71
     0
 42
2.5
  3
isocp.shx
  4
extfont.shx
  0
STYLE
  2
ACISOGDT
 70
     0
 40
0.0
 41
1.0
 50
0.0
 71
     0
 42
2.5
  3
amgdt.shx
  4

  0
STYLE
  2
ACJISGDT
 70
     0
 40
0.0
 41
1.0
 50
0.0
 71
     0
 42
2.5
  3
amgdt.shx
  4

  0
STYLE
  2
ACJISTS
 70
     0
 40
1.0
 41
1.0
 50
0.0
 71
     0
 42
2.5
  3
isocp.shx
  4
extfont.shx
  0
ENDTAB
  0
TABLE
  2
VIEW
 70
     6
  0
VIEW
  2
AM_VIEW1
 70
     0
 40
462.5
 10
486.11585987737283
 20
693.84359498755771
 41
977.66903914590773
 11
0.0
 21
0.0
 31
1.0
 12
0.0
 22
0.0
 32
0.0
 42
50.0
 43
0.0
 44
0.0
 50
0.0
 71
    16
  0
VIEW
  2
AM_VIEW2
 70
     0
 40
462.5
 10
930.94682073146555
 20
693.84359498755771
 41
977.66903914590773
 11
0.0
 21
0.0
 31
1.0
 12
0.0
 22
0.0
 32
0.0
 42
50.0
 43
0.0
 44
0.0
 50
0.0
 71
    16
  0
VIEW
  2
AM_VIEW3
 70
     0
 40
462.5
 10
486.11585987737283
 20
231.34359498755799
 41
977.66903914590773
 11
0.0
 21
0.0
 31
1.0
 12
0.0
 22
0.0
 32
0.0
 42
50.0
 43
0.0
 44
0.0
 50
0.0
 71
    16
  0
VIEW
  2
AM_VIEW4
 70
     0
 40
462.5
 10
930.94682073146555
 20
231.34359498755799
 41
977.66903914590773
 11
0.0
 21
0.0
 31
1.0
 12
0.0
 22
0.0
 32
0.0
 42
50.0
 43
0.0
 44
0.0
 50
0.0
 71
    16
  0
VIEW
  2
AM_VIEW5
 70
     0
 40
462.5
 10
708.53134030441925
 20
462.59359498755799
 41
977.66903914590773
 11
0.0
 21
0.0
 31
1.0
 12
0.0
 22
0.0
 32
0.0
 42
50.0
 43
0.0
 44
0.0
 50
0.0
 71
    16
  0
VIEW
  2
AM_VIEW6
 70
     0
 40
924.99075000000016
 10
708.53134030441925
 20
462.59359498755799
 41
1955.318524911032
 11
0.0
 21
0.0
 31
1.0
 12
0.0
 22
0.0
 32
0.0
 42
50.0
 43
0.0
 44
0.0
 50
0.0
 71
    16
  0
ENDTAB
  0
TABLE
  2
UCS
 70
     0
  0
ENDTAB
  0
TABLE
  2
APPID
 70
   162
  0
APPID
  2
ACAD
 70
     0
  0
APPID
  2
ACADANNOTATIVE
 70
     0
  0
APPID
  2
ACAD_MLEADERVER
 70
     0
  0
APPID
  2
MCAD_NO_VIS
 70
     0
  0
APPID
  2
ACAD_TEMP_GRAPHIC
 70
     0
  0
APPID
  2
AD_DRAW
 70
     0
  0
APPID
  2
ACATTRIBSERVICES
 70
     0
  0
APPID
  2
DESIGNERASSEMBLIES
 70
     0
  0
APPID
  2
ACADM_DIM_EDIT
 70
     0
  0
APPID
  2
AMDT_DM_ADJ
 70
     0
  0
APPID
  2
GENIUS_GENDIMSH_14
 70
     0
  0
APPID
  2
GEVID1057795304
 70
     0
  0
APPID
  2
GEVDC
 70
     0
  0
APPID
  2
GEVCON
 70
     0
  0
APPID
  2
GENIUS_GENBH_13
 70
     0
  0
APPID
  2
GENIUS_GENOENT_13
 70
     0
  0
APPID
  2
GENIUS_GENOBJ-NBEHI-BHF_13
 70
     0
  0
APPID
  2
GENIUS_GENOLIS_13
 70
     0
  0
APPID
  2
GENIUS_GENODEF_13
 70
     0
  0
APPID
  2
GENIUS_GENOREF_13
 70
     0
  0
APPID
  2
GENIUS_GENOBJ-NBEHI-BHB_13
 70
     0
  0
APPID
  2
GENIUS_GENOBJ-F-SCPASSM_13
 70
     0
  0
APPID
  2
GENIUS_GENDTOL_13
 70
     0
  0
APPID
  2
GENIUS_GENTRA_14
 70
     0
  0
APPID
  2
ASURF_PCURVE_APPNAME
 70
     0
  0
APPID
  2
GENIUS_GENCFG_13
 70
     0
  0
APPID
  2
GENIUS_GE3CFG0_13
 70
     0
  0
APPID
  2
GENIUS_GENCFG0_13
 70
     0
  0
APPID
  2
GENIUS_GENCFG1_13
 70
     0
  0
APPID
  2
GENIUS_GENCFG2_13
 70
     0
  0
APPID
  2
GENIUS_GENCFG3_13
 70
     0
  0
APPID
  2
GENIUS_GENCFG4_13
 70
     0
  0
APPID
  2
GENIUS_GEVCFG0_13
 70
     0
  0
APPID
  2
GENIUS_GENOBJ-N-TIT_13
 70
     0
  0
APPID
  2
GENIUS_GENTITLE_13
 70
     0
  0
APPID
  2
GENIUS_GENSCREG_15
 70
     0
  0
APPID
  2
GENIUS_GENOBJ-N-SDF_13
 70
     0
  0
APPID
  2
GENIUS_GENFIL_13
 70
     0
  0
APPID
  2
GENIUS_GENOBJ-N-CHA_13
 70
     0
  0
APPID
  2
GENIUS_GEFSH_13
 70
     0
  0
APPID
  2
GENIUS_GENOBJ-F-SHS_13
 70
     0
  0
APPID
  2
GENIUS_GENOBJ-N-CEN_13
 70
     0
  0
APPID
  2
GENIUS_GENREC_14
 70
     0
  0
APPID
  2
GENIUS_GENOBJ-N-REC_13
 70
     0
  0
APPID
  2
GENIUS_GENOBJ-N-HTC_13
 70
     0
  0
APPID
  2
GENIUS_GENHATCH_13
 70
     0
  0
APPID
  2
ACAD_PSEXT
 70
     0
  0
APPID
  2
ACAD_EXEMPT_FROM_CAD_STANDARDS
 70
     0
  0
APPID
  2
ACAECLAYERSTANDARD
 70
     0
  0
APPID
  2
GENIUS_GENCEN_19
 70
     0
  0
APPID
  2
ACAD_DSTYLE_DIMINSPECT
 70
     0
  0
APPID
  2
ACAD_DSTYLE_DIMANGULAR_EXT
 70
     0
  0
APPID
  2
ACADANNOPO
 70
     0
  0
APPID
  2
ACAD_NAV_VCDISPLAY
 70
     0
  0
APPID
  2
GENIUS_GENOBJ-N-FIL_13
 70
     0
  0
APPID
  2
ACAUTHENVIRON
 70
     0
  0
APPID
  2
ACDBDYNAMICBLOCKTRUENAME
 70
     0
  0
APPID
  2
ACDBDYNAMICBLOCKGUID
 70
     0
  0
APPID
  2
ACDBBLOCKREPETAG
 70
     0
  0
APPID
  2
ACAD_DSTYLE_DIMBREAK
 70
     0
  0
APPID
  2
ACAD_DSTYLE_DIMJAG
 70
     0
  0
APPID
  2
GENIUS_GENHINW_13
 70
     0
  0
APPID
  2
GENIUS_FIRSTVISTXT_14
 70
     0
  0
APPID
  2
GENIUS_GENOBJ-N-LEADER_13
 70
     0
  0
APPID
  2
DCO15
 70
     0
  0
APPID
  2
GENIUS_DUMCFG0_13
 70
     0
  0
APPID
  2
ACAD_DSTYLE_DIMTEXT_FILL
 70
     0
  0
APPID
  2
AMG_2DHIDE
 70
     0
  0
APPID
  2
GENIUS_GEFSHEP_13
 70
     0
  0
APPID
  2
GENIUS_GENOBJ-F-SHE_13
 70
     0
  0
APPID
  2
GENIUS_GEFSHE_13
 70
     0
  0
APPID
  2
ACAD_DIMASSOC_DIMLFAC
 70
     0
  0
APPID
  2
ACAD_DIMASSOC_CALC_DIMLFAC
 70
     0
  0
APPID
  2
ACAD_DIMASSOC_OVERRIDDEN_D
 70
     0
  0
APPID
  2
GENIUS_GENOBJ-F-SHSV_13
 70
     0
  0
APPID
  2
GENIUS_GEFWELD_13
 70
     0
  0
APPID
  2
GENIUS_GENOBJ-N-CRS_13
 70
     0
  0
APPID
  2
GENIUS_GENOBJ-N-RSBK_13
 70
     0
  0
APPID
  2
GENIUS_GENOBJ-N-LIB_13
 70
     0
  0
APPID
  2
GENIUS_GENSCALE_13
 70
     0
  0
APPID
  2
GENIUS_GENDREL_13
 70
     0
  0
APPID
  2
GEVPT
 70
     0
  0
APPID
  2
GEVIT
 70
     0
  0
APPID
  2
VCC
 70
     0
  0
APPID
  2
GENBH
 70
     0
  0
APPID
  2
GEVMK
 70
     0
  0
APPID
  2
GENIUS_GENOBJ-F-DESC_13
 70
     0
  0
APPID
  2
GENIUS_GEFDESC_14
 70
     0
  0
APPID
  2
GENIUS_GENOBJ-F-FEAT_13
 70
     0
  0
APPID
  2
GENIUS_GEFFEAT_14
 70
     0
  0
APPID
  2
GENIUS_GEFPARTINS_13
 70
     0
  0
APPID
  2
GENIUS_GENSCREG_13
 70
     0
  0
APPID
  2
GENIUS_GEFSHP_13
 70
     0
  0
APPID
  2
GEVID1025574798
 70
     0
  0
APPID
  2
GEVID1025574769
 70
     0
  0
APPID
  2
GEVID1025757451
 70
     0
  0
APPID
  2
GEVID1240528327
 70
     0
  0
APPID
  2
AMG_2DSTRUCT_BTR
 70
     0
  0
APPID
  2
ACADM_2DVIEW_IGN_NOTIFY
 70
     0
  0
APPID
  2
GEVID1240528328
 70
     0
  0
APPID
  2
GEVID1240528329
 70
     0
  0
APPID
  2
GEVRADREF
 70
     0
  0
APPID
  2
GEVID1240528330
 70
     0
  0
APPID
  2
GEVID1240528331
 70
     0
  0
APPID
  2
GEVID1240528332
 70
     0
  0
APPID
  2
GEVID1240791080
 70
     0
  0
APPID
  2
GEVID1240791081
 70
     0
  0
APPID
  2
GEVID1240791082
 70
     0
  0
APPID
  2
GEVID1240791083
 70
     0
  0
APPID
  2
GEVID1240791084
 70
     0
  0
APPID
  2
GEVID1240791085
 70
     0
  0
APPID
  2
GEVID1240791086
 70
     0
  0
APPID
  2
GEVID1240791087
 70
     0
  0
APPID
  2
GEVID1240791088
 70
     0
  0
APPID
  2
GEVID1240791089
 70
     0
  0
APPID
  2
GEVID1240791090
 70
     0
  0
APPID
  2
GEVID1240791091
 70
     0
  0
APPID
  2
GEVID1240791092
 70
     0
  0
APPID
  2
GEVID1240791093
 70
     0
  0
APPID
  2
GEVID1240791094
 70
     0
  0
APPID
  2
GEVID1240791095
 70
     0
  0
APPID
  2
GEVID1240791096
 70
     0
  0
APPID
  2
GEVID1240791097
 70
     0
  0
APPID
  2
GEVID1240791098
 70
     0
  0
APPID
  2
GEVID1240791099
 70
     0
  0
APPID
  2
GEVID1240791100
 70
     0
  0
APPID
  2
GEVID1240791101
 70
     0
  0
APPID
  2
GEVID1240791102
 70
     0
  0
APPID
  2
GEVID1240791103
 70
     0
  0
APPID
  2
GEVID1240791104
 70
     0
  0
APPID
  2
GEVID1240791105
 70
     0
  0
APPID
  2
GEVID1240875381
 70
     0
  0
APPID
  2
GEVID1240875382
 70
     0
  0
APPID
  2
GEVID1240875383
 70
     0
  0
APPID
  2
GEVID1240875384
 70
     0
  0
APPID
  2
GEVID1240875385
 70
     0
  0
APPID
  2
GEVID1240875386
 70
     0
  0
APPID
  2
GEVID1240875387
 70
     0
  0
APPID
  2
GEVID1240875388
 70
     0
  0
APPID
  2
GEVID1240875389
 70
     0
  0
APPID
  2
GEVID1240875390
 70
     0
  0
APPID
  2
GEVID1240875391
 70
     0
  0
APPID
  2
GEVID1240875392
 70
     0
  0
APPID
  2
GEVID1240875393
 70
     0
  0
APPID
  2
GEVID1240875394
 70
     0
  0
APPID
  2
GEVID1240875395
 70
     0
  0
APPID
  2
GEVID1240875396
 70
     0
  0
APPID
  2
GEVID1240875397
 70
     0
  0
APPID
  2
GEVID1240875398
 70
     0
  0
APPID
  2
GEVID1240875399
 70
     0
  0
APPID
  2
GEVID1240908996
 70
     0
  0
APPID
  2
GEVID1240908997
 70
     0
  0
APPID
  2
GEVID1240908998
 70
     0
  0
APPID
  2
GEVID1240908999
 70
     0
  0
APPID
  2
GEVID1240909000
 70
     0
  0
APPID
  2
GENIUS_GENOBJ-N-ZOO_13
 70
     0
  0
APPID
  2
GENIUS_GENZOO_17
 70
     0
  0
APPID
  2
ACAD_DSTYLE_DIMRADIAL_EXTENSION
 70
     0
  0
APPID
  2
GENIUS_GE3SECT_13
 70
     0
  0
APPID
  2
GEV_VCCNULL_SWITCH_OFF
 70
     0
  0
APPID
  2
ACAD_DSTYLE_DIMTALN
 70
     0
  0
APPID
  2
CONTENTBLOCKDESCRIPTION
 70
     0
  0
ENDTAB
  0
TABLE
  2
DIMSTYLE
 70
    21
  0
DIMSTYLE
  2
AM_ANSI
 70
     0
  3

  4
"
  5

  6

  7

 40
1.0
 41
2.5
 42
1.0
 43
10.0
 44
1.0
 45
0.0
 46
0.0
 47
0.1
 48
0.1
140
3.5
141
0.0
142
0.0
143
0.0393701
144
1.0
145
0.0
146
0.71
147
1.5
 71
     0
 72
     0
 73
     1
 74
     1
 75
     0
 76
     0
 77
     0
 78
     8
170
     0
171
     2
172
     0
173
     0
174
     0
175
     0
176
     2
177
     2
178
     4
  0
DIMSTYLE
  2
AM_ANSI$3
 70
     0
  3

  4
"
  5

  6

  7

 40
1.0
 41
2.5
 42
1.0
 43
10.0
 44
1.0
 45
0.0
 46
0.0
 47
0.1
 48
0.1
140
3.5
141
0.0
142
0.0
143
0.0393701
144
1.0
145
0.0
146
0.71
147
1.5
 71
     0
 72
     0
 73
     1
 74
     1
 75
     0
 76
     0
 77
     0
 78
     8
170
     0
171
     2
172
     0
173
     0
174
     0
175
     0
176
     2
177
     2
178
     4
  0
DIMSTYLE
  2
AM_ANSI$4
 70
     0
  3

  4
"
  5

  6

  7

 40
1.0
 41
2.5
 42
1.0
 43
10.0
 44
1.0
 45
0.0
 46
0.0
 47
0.1
 48
0.1
140
3.5
141
0.0
142
0.0
143
0.0393701
144
1.0
145
0.0
146
0.71
147
1.5
 71
     0
 72
     0
 73
     1
 74
     1
 75
     0
 76
     0
 77
     0
 78
     8
170
     0
171
     2
172
     0
173
     0
174
     0
175
     0
176
     2
177
     2
178
     4
  0
DIMSTYLE
  2
AM_ANSI$7
 70
     0
  3

  4
"
  5

  6

  7

 40
1.0
 41
2.5
 42
1.0
 43
10.0
 44
1.0
 45
0.0
 46
0.0
 47
0.1
 48
0.1
140
5.0
141
0.0
142
0.0
143
0.0393701
144
1.0
145
0.0
146
0.71
147
1.5
 71
     0
 72
     0
 73
     1
 74
     1
 75
     0
 76
     0
 77
     0
 78
     8
170
     0
171
     2
172
     0
173
     0
174
     0
175
     0
176
     2
177
     2
178
     4
  0
DIMSTYLE
  2
AM_ANSI$SF
 70
     0
  3

  4
"
  5

  6

  7

 40
1.0
 41
2.5
 42
1.0
 43
10.0
 44
1.0
 45
0.0
 46
0.0
 47
0.1
 48
0.1
140
3.5
141
0.0
142
0.0
143
0.0393701
144
1.0
145
0.0
146
0.71
147
1.5
 71
     0
 72
     0
 73
     1
 74
     1
 75
     1
 76
     1
 77
     0
 78
     8
170
     0
171
     2
172
     0
173
     0
174
     0
175
     0
176
     2
177
     2
178
     4
  0
DIMSTYLE
  2
AM_ANSI$SH
 70
     0
  3

  4
"
  5

  6
GENAXEH
  7

 40
1.0
 41
2.5
 42
1.0
 43
10.0
 44
1.0
 45
0.0
 46
0.0
 47
0.1
 48
0.1
140
3.5
141
0.0
142
0.0
143
0.0393701
144
1.0
145
0.0
146
0.71
147
1.5
 71
     0
 72
     0
 73
     1
 74
     1
 75
     1
 76
     1
 77
     0
 78
     8
170
     0
171
     2
172
     0
173
     1
174
     0
175
     0
176
     2
177
     2
178
     4
  0
DIMSTYLE
  2
AM_ISO
 70
     0
  3

  4
"
  5

  6

  7

 40
1.0
 41
2.5
 42
1.0
 43
10.0
 44
1.0
 45
0.0
 46
0.0
 47
0.1
 48
0.1
140
3.5
141
0.0
142
0.0
143
0.0393701
144
1.0
145
0.0
146
0.71
147
1.5
 71
     0
 72
     0
 73
     0
 74
     0
 75
     0
 76
     0
 77
     1
 78
     8
170
     0
171
     2
172
     1
173
     0
174
     0
175
     0
176
   256
177
   256
178
     2
  0
DIMSTYLE
  2
AM_ISO$3
 70
     0
  3

  4
"
  5

  6

  7

 40
1.0
 41
2.5
 42
1.0
 43
10.0
 44
1.0
 45
0.0
 46
0.0
 47
0.1
 48
0.1
140
3.5
141
0.0
142
0.0
143
0.0393701
144
1.0
145
0.0
146
0.71
147
1.5
 71
     0
 72
     0
 73
     0
 74
     1
 75
     0
 76
     0
 77
     1
 78
     8
170
     0
171
     2
172
     0
173
     0
174
     0
175
     0
176
   256
177
   256
178
     2
  0
DIMSTYLE
  2
AM_ISO$4
 70
     0
  3

  4
"
  5

  6

  7

 40
1.0
 41
2.5
 42
1.0
 43
10.0
 44
1.0
 45
0.0
 46
0.0
 47
0.1
 48
0.1
140
3.5
141
0.0
142
0.0
143
0.0393701
144
1.0
145
0.0
146
0.71
147
1.5
 71
     0
 72
     0
 73
     0
 74
     1
 75
     0
 76
     0
 77
     1
 78
     8
170
     0
171
     2
172
     0
173
     0
174
     0
175
     0
176
   256
177
   256
178
     2
  0
DIMSTYLE
  2
AM_ISO$6
 70
     0
  3

  4
"
  5

  6

  7

 40
1.0
 41
2.5
 42
1.0
 43
10.0
 44
1.0
 45
0.0
 46
0.0
 47
0.1
 48
0.1
140
3.5
141
0.0
142
0.0
143
0.0393701
144
1.0
145
0.0
146
0.71
147
1.5
 71
     0
 72
     0
 73
     0
 74
     0
 75
     0
 76
     0
 77
     0
 78
     8
170
     0
171
     2
172
     1
173
     0
174
     0
175
     0
176
   256
177
   256
178
     2
  0
DIMSTYLE
  2
AM_ISO$7
 70
     0
  3

  4
"
  5

  6

  7

 40
1.0
 41
2.5
 42
1.0
 43
10.0
 44
1.0
 45
0.0
 46
0.0
 47
0.1
 48
0.1
140
5.0
141
0.0
142
0.0
143
0.0393701
144
1.0
145
0.0
146
0.71
147
1.5
 71
     0
 72
     0
 73
     0
 74
     0
 75
     0
 76
     0
 77
     1
 78
     8
170
     0
171
     2
172
     1
173
     0
174
     0
175
     0
176
   256
177
   256
178
     2
  0
DIMSTYLE
  2
AM_ISO$SF
 70
     0
  3

  4
"
  5

  6

  7

 40
1.0
 41
2.5
 42
1.0
 43
10.0
 44
1.0
 45
0.0
 46
0.0
 47
0.1
 48
0.1
140
3.5
141
0.0
142
0.0
143
0.0393701
144
1.0
145
0.0
146
0.71
147
1.5
 71
     0
 72
     0
 73
     0
 74
     0
 75
     1
 76
     1
 77
     1
 78
     8
170
     0
171
     2
172
     1
173
     0
174
     0
175
     0
176
   256
177
   256
178
     2
  0
DIMSTYLE
  2
AM_ISO$SH
 70
     0
  3

  4
"
  5

  6
GENAXEH
  7

 40
1.0
 41
2.5
 42
1.0
 43
10.0
 44
1.0
 45
0.0
 46
0.0
 47
0.1
 48
0.1
140
3.5
141
0.0
142
0.0
143
0.0393701
144
2.0
145
0.0
146
0.71
147
1.5
 71
     0
 72
     0
 73
     0
 74
     0
 75
     1
 76
     1
 77
     1
 78
     8
170
     0
171
     2
172
     1
173
     1
174
     0
175
     0
176
   256
177
   256
178
     2
  0
DIMSTYLE
  2
AM_JIS
 70
     0
  3

  4
"
  5

  6

  7

 40
1.0
 41
2.0
 42
1.0
 43
8.0
 44
1.0
 45
0.0
 46
0.0
 47
0.1
 48
0.1
140
2.5
141
0.0
142
0.0
143
0.0393701
144
1.0
145
0.0
146
0.71
147
1.5
 71
     0
 72
     0
 73
     0
 74
     0
 75
     0
 76
     0
 77
     3
 78
     8
170
     0
171
     2
172
     1
173
     0
174
     0
175
     0
176
     2
177
     2
178
     4
  0
DIMSTYLE
  2
AM_JIS$3
 70
     0
  3

  4
"
  5

  6

  7

 40
1.0
 41
2.0
 42
1.0
 43
10.0
 44
1.0
 45
0.0
 46
0.0
 47
0.1
 48
0.1
140
2.5
141
0.0
142
0.0
143
0.0393701
144
1.0
145
0.0
146
0.71
147
1.5
 71
     0
 72
     0
 73
     0
 74
     1
 75
     0
 76
     0
 77
     3
 78
     8
170
     0
171
     2
172
     0
173
     0
174
     0
175
     0
176
     2
177
     2
178
     4
  0
DIMSTYLE
  2
AM_JIS$4
 70
     0
  3

  4
"
  5

  6

  7

 40
1.0
 41
2.0
 42
1.0
 43
10.0
 44
1.0
 45
0.0
 46
0.0
 47
0.1
 48
0.1
140
2.5
141
0.0
142
0.0
143
0.0393701
144
1.0
145
0.0
146
0.71
147
1.5
 71
     0
 72
     0
 73
     0
 74
     0
 75
     0
 76
     0
 77
     3
 78
     8
170
     0
171
     2
172
     0
173
     0
174
     0
175
     0
176
     2
177
     2
178
     4
  0
DIMSTYLE
  2
AM_JIS$6
 70
     0
  3

  4
"
  5

  6

  7

 40
1.0
 41
2.0
 42
1.0
 43
10.0
 44
1.0
 45
0.0
 46
0.0
 47
0.1
 48
0.1
140
2.5
141
0.0
142
0.0
143
0.0393701
144
1.0
145
0.0
146
0.71
147
1.5
 71
     0
 72
     0
 73
     0
 74
     0
 75
     0
 76
     0
 77
     0
 78
     8
170
     0
171
     2
172
     1
173
     0
174
     0
175
     0
176
     2
177
     2
178
     4
  0
DIMSTYLE
  2
AM_JIS$7
 70
     0
  3

  4
"
  5

  6
OPEN30
  7
OPEN30
 40
1.0
 41
2.0
 42
1.0
 43
10.0
 44
1.0
 45
0.0
 46
0.0
 47
0.1
 48
0.1
140
2.5
141
0.0
142
0.0
143
0.0393701
144
1.0
145
0.0
146
0.71
147
1.5
 71
     0
 72
     0
 73
     0
 74
     0
 75
     0
 76
     0
 77
     3
 78
     8
170
     0
171
     2
172
     1
173
     0
174
     0
175
     0
176
     2
177
     2
178
     4
  0
DIMSTYLE
  2
AM_JIS$SF
 70
     0
  3

  4
"
  5

  6

  7

 40
1.0
 41
2.0
 42
1.0
 43
10.0
 44
1.0
 45
0.0
 46
0.0
 47
0.1
 48
0.1
140
2.5
141
0.0
142
0.0
143
0.0393701
144
1.0
145
0.0
146
0.71
147
1.5
 71
     0
 72
     0
 73
     0
 74
     0
 75
     1
 76
     1
 77
     3
 78
     8
170
     0
171
     2
172
     1
173
     0
174
     0
175
     0
176
     2
177
     2
178
     4
  0
DIMSTYLE
  2
AM_JIS$SH
 70
     0
  3

  4
"
  5

  6
GENAXEH
  7

 40
1.0
 41
2.0
 42
1.0
 43
10.0
 44
1.0
 45
0.0
 46
0.0
 47
0.1
 48
0.1
140
2.5
141
0.0
142
0.0
143
0.0393701
144
2.0
145
0.0
146
0.71
147
1.5
 71
     0
 72
     0
 73
     0
 74
     0
 75
     1
 76
     1
 77
     3
 78
     8
170
     0
171
     2
172
     1
173
     1
174
     0
175
     0
176
     2
177
     2
178
     4
  0
DIMSTYLE
  2
AM_JIS$0
 70
     0
  3

  4
"
  5

  6

  7

 40
1.0
 41
2.0
 42
1.0
 43
8.0
 44
1.0
 45
0.0
 46
0.0
 47
0.1
 48
0.1
140
2.5
141
0.0
142
0.0
143
0.0393701
144
1.0
145
0.0
146
0.71
147
1.5
 71
     0
 72
     0
 73
     0
 74
     0
 75
     0
 76
     0
 77
     3
 78
     8
170
     0
171
     2
172
     1
173
     0
174
     0
175
     0
176
     2
177
     2
178
     4
  0
ENDTAB
  0
ENDSEC
  0
SECTION
  2
BLOCKS
  0
BLOCK
  8
0
  2
$MODEL_SPACE
 70
     0
 10
0.0
 20
0.0
 30
0.0
  3
$MODEL_SPACE
  1

  0
ENDBLK
  5
77
  8
0
  0
BLOCK
 67
     1
  8
0
  2
$PAPER_SPACE
 70
     0
 10
0.0
 20
0.0
 30
0.0
  3
$PAPER_SPACE
  1

  0
ENDBLK
  5
73
 67
     1
  8
0
  0
BLOCK
  8
0
  2
GENAXEH
 70
     0
 10
0.0
 20
0.0
 30
0.0
  3
GENAXEH
  1

  0
LINE
  5
956A
  8
0
 10
-1.0
 20
0.0
 30
0.0
 11
1.0
 21
0.0
 31
0.0
  0
ENDBLK
  5
956B
  8
0
  0
BLOCK
  8
0
  6
BYBLOCK
 62
     0
  2
$6-45
 70
     0
 10
0.0
 20
0.0
 30
0.0
  3
$6-45
  1

  0
ARC
  5
6526
  8
0
  6
CONTINUOUS
 62
     0
 10
-2.6499939999999902
 20
2.800201000000015
 30
0.0
 40
2.6003989999999999
 50
89.999982000000799
 51
179.99997799999841
  0
ARC
  5
6527
  8
0
  6
CONTINUOUS
 62
     0
 10
2.6499939999999902
 20
2.800201000000015
 30
0.0
 40
2.600403
 50
0.0
 51
89.999982000000799
  0
LINE
  5
6528
  8
0
  6
CONTINUOUS
 62
     0
 10
0.0660249999999678
 20
0.0
 30
0.0
 11
-0.7999999999999548
 21
1.5
 31
0.0
  0
LINE
  5
6529
  8
0
  6
CONTINUOUS
 62
     0
 10
1.0660249999999669
 20
0.0
 30
0.0
 11
0.2000000000000455
 21
1.5
 31
0.0
  0
LINE
  5
652A
  8
0
  6
CONTINUOUS
 62
     0
 10
6.1000000000000218
 20
0.0
 30
0.0
 11
-6.1000000000000218
 21
0.0
 31
0.0
  0
LINE
  5
652B
  8
0
  6
CONTINUOUS
 62
     0
 10
6.1000000000000218
 20
1.5
 30
0.0
 11
6.1000000000000218
 21
0.0
 31
0.0
  0
LINE
  5
652C
  8
0
  6
CONTINUOUS
 62
     0
 10
-6.1000000000000218
 20
1.5
 30
0.0
 11
-6.1000000000000218
 21
0.0
 31
0.0
  0
LINE
  5
652D
  8
0
  6
CONTINUOUS
 62
     0
 10
2.6499939999999902
 20
5.3999939999999906
 30
0.0
 11
-2.6499939999999902
 21
5.3999939999999906
 31
0.0
  0
LINE
  5
652E
  8
0
  6
CONTINUOUS
 62
     0
 10
6.1000000000000218
 20
1.5
 30
0.0
 11
-6.1000000000000218
 21
1.5
 31
0.0
  0
LINE
  5
652F
  8
0
  6
CONTINUOUS
 62
     0
 10
-5.25
 20
1.5
 30
0.0
 11
-5.25
 21
2.800201000000015
 31
0.0
  0
LINE
  5
6530
  8
0
  6
CONTINUOUS
 62
     0
 10
5.25
 20
1.5
 30
0.0
 11
5.25
 21
2.800201000000015
 31
0.0
  0
ENDBLK
  5
6531
  8
0
  6
BYBLOCK
 62
     0
  0
BLOCK
  8
0
  2
_OPEN30
 70
     0
 10
0.0
 20
0.0
 30
0.0
  3
_OPEN30
  1

  0
LINE
  5
95B1
  8
0
  6
BYBLOCK
 62
     0
 10
-1.0
 20
0.26794919
 30
0.0
 11
0.0
 21
0.0
 31
0.0
  0
LINE
  5
95B2
  8
0
  6
BYBLOCK
 62
     0
 10
0.0
 20
0.0
 30
0.0
 11
-1.0
 21
-0.26794919
 31
0.0
  0
LINE
  5
95B3
  8
0
  6
BYBLOCK
 62
     0
 10
0.0
 20
0.0
 30
0.0
 11
-1.0
 21
0.0
 31
0.0
  0
ENDBLK
  5
95B4
  8
0
  0
BLOCK
  8
0
  2
_ACMFILLEDHALF
 70
     0
 10
0.0
 20
0.0
 30
0.0
  3
_ACMFILLEDHALF
  1

  0
TRACE
  5
9673
  8
0
  6
CONTINUOUS
 62
     0
 10
-0.8
 20
0.0
 30
0.0
 11
-1.0
 21
0.166666666
 31
0.0
 12
0.0
 22
0.0
 32
0.0
 13
0.0
 23
0.0
 33
0.0
  0
LINE
  5
9674
  8
0
  6
CONTINUOUS
 62
     0
 10
-1.0
 20
0.0
 30
0.0
 11
-0.8
 21
0.0
 31
0.0
  0
ENDBLK
  5
9675
  8
0
  0
ENDSEC
  0
SECTION
  2
ENTITIES
  0
LINE
  5
5697
  8
AM_0
 10
532.01956835360238
 20
396.71376625798212
 30
0.0
 11
485.51948035797909
 21
396.71376625798212
 31
0.0
  0
LINE
  5
5698
  8
AM_0
 10
532.01950035797984
 20
566.71376625798086
 30
0.0
 11
485.51948035797909
 21
566.71376625798212
 31
0.0
  0
LINE
  5
5699
  8
AM_0
  6
AM_ISO08W050
 10
642.01950035797927
 20
366.38243225798209
 30
0.0
 11
642.01950035797927
 21
391.24216025798239
 31
0.0
  0
LINE
  5
569A
  8
AM_0
  6
AM_ISO08W050
 10
517.01949035797941
 20
366.38243225798209
 30
0.0
 11
517.01949035797941
 21
391.24216025798239
 31
0.0
  0
LINE
  5
569B
  8
AM_0
  6
AM_ISO08W050
 10
524.31178930836393
 20
509.71373825798219
 30
0.0
 11
729.28180794035802
 21
509.71373825798219
 31
0.0
  0
LINE
  5
569C
  8
AM_0
  6
AM_ISO08W050
 10
1126.892450467946
 20
391.96307825798232
 30
0.0
 11
1126.892450467946
 21
366.38243225798209
 31
0.0
  0
LINE
  5
569D
  8
AM_0
  6
AM_ISO08W050
 10
936.89245146794565
 20
392.72563625798222
 30
0.0
 11
936.89245146794565
 21
366.38243225798209
 31
0.0
  0
LINE
  5
569E
  8
AM_0
 10
1036.892438467946
 20
520.7137632579819
 30
0.0
 11
1036.892438467946
 21
528.71377325798301
 31
0.0
  0
LINE
  5
569F
  8
AM_0
 10
1026.892439467945
 20
520.7137632579819
 30
0.0
 11
1036.892438467946
 21
520.7137632579819
 31
0.0
  0
LINE
  5
56A0
  8
AM_0
 10
1026.892439467945
 20
520.7137632579819
 30
0.0
 11
1026.892439467945
 21
528.71377325798301
 31
0.0
  0
LINE
  5
56A1
  8
AM_0
 10
722.01948035797909
 20
493.71376625798212
 30
0.0
 11
664.01946035798028
 21
493.71376625798212
 31
0.0
  0
LINE
  5
56A2
  8
AM_0
 10
664.01946035798028
 20
527.21377325798312
 30
0.0
 11
660.01950035797915
 21
527.21377325798312
 31
0.0
  0
LINE
  5
56A3
  8
AM_0
 10
722.01948035797909
 20
528.71377325798301
 30
0.0
 11
677.01948035798023
 21
528.71377325798301
 31
0.0
  0
LINE
  5
56A4
  8
AM_0
 10
722.01948035797909
 20
525.71377325798312
 30
0.0
 11
664.01946035798028
 21
525.71377325798312
 31
0.0
  0
LINE
  5
56A5
  8
AM_0
 10
664.01946035798028
 20
492.21376625798212
 30
0.0
 11
660.01950035797915
 21
492.21376625798212
 31
0.0
  0
LINE
  5
56A6
  8
AM_0
 10
664.01946035798028
 20
492.21376625798212
 30
0.0
 11
664.01946035798028
 21
527.21377325798312
 31
0.0
  0
LINE
  5
56A7
  8
AM_0
 10
722.01948035797909
 20
493.71376625798212
 30
0.0
 11
722.01948035797909
 21
528.71377325798301
 31
0.0
  0
LINE
  5
56A8
  8
AM_0
 10
677.01948035798023
 20
525.71377325798312
 30
0.0
 11
677.01948035798023
 21
528.71377325798301
 31
0.0
  0
LINE
  5
56A9
  8
AM_0
  6
AM_ISO08W050
 10
1031.8924554679461
 20
363.53775604928518
 30
0.0
 11
1031.8924554679461
 21
618.14591320647594
 31
0.0
  0
LINE
  5
56AA
  8
AM_0
 10
1026.892439467945
 20
528.71377325798301
 30
0.0
 11
1036.892438467946
 21
528.71377325798301
 31
0.0
  0
LINE
  5
56AB
  8
AM_0
  6
AM_ISO08W050
 10
930.07793646794539
 20
509.71373825798219
 30
0.0
 11
1136.9820414679459
 21
509.71373825798219
 31
0.0
  0
LINE
  5
56AC
  8
AM_0
 10
966.89243646794546
 20
383.7137322579822
 30
0.0
 11
966.89243646794546
 21
369.71374925798227
 31
0.0
  0
LINE
  5
56AD
  8
0
  6
ACJISTGL
 10
1119.392450467946
 20
387.71374925798227
 30
0.0
 11
1119.392450467946
 21
369.71374925798227
 31
0.0
  0
LINE
  5
56AE
  8
0
  6
ACJISTGL
 10
1134.392450467946
 20
387.71374925798227
 30
0.0
 11
1134.392450467946
 21
369.71374925798227
 31
0.0
  0
LINE
  5
56AF
  8
AM_0
 10
916.89245046794656
 20
369.71374925798227
 30
0.0
 11
966.89243646794546
 21
369.71374925798227
 31
0.0
  0
LINE
  5
56B0
  8
AM_0
 10
916.89245046794656
 20
384.71374925798227
 30
0.0
 11
916.89245046794656
 21
369.71374925798227
 31
0.0
  0
LINE
  5
56B1
  8
AM_0
 10
1096.892447467945
 20
369.71374925798227
 30
0.0
 11
1146.892451467945
 21
369.71374925798227
 31
0.0
  0
LINE
  5
56B2
  8
AM_0
 10
1096.892447467945
 20
383.7137322579822
 30
0.0
 11
1096.892447467945
 21
369.71374925798227
 31
0.0
  0
LINE
  5
56B3
  8
AM_0
 10
1146.892451467945
 20
384.71374925798227
 30
0.0
 11
1146.892451467945
 21
369.71374925798227
 31
0.0
  0
LINE
  5
56B4
  8
AM_0
 10
962.89243746794546
 20
387.71374925798227
 30
0.0
 11
919.89245046794554
 21
387.71374925798227
 31
0.0
  0
LINE
  5
56B5
  8
AM_0
 10
1100.892449467945
 20
387.71374925798227
 30
0.0
 11
1143.892448467946
 21
387.71374925798227
 31
0.0
  0
LINE
  5
56B6
  8
AM_0
 10
660.01950035797915
 20
509.71373825798219
 30
0.0
 11
660.01950035797915
 21
536.98171325798216
 31
0.0
  0
LINE
  5
56B7
  8
AM_0
 10
660.01950035797915
 20
482.44582325798279
 30
0.0
 11
660.01950035797915
 21
509.71373825798219
 31
0.0
  0
LINE
  5
56B8
  8
AM_0
 10
654.51945035797894
 20
477.53835125798241
 30
0.0
 11
658.51947035797912
 21
479.84773925798208
 31
0.0
  0
LINE
  5
56B9
  8
AM_0
 10
654.51948035797875
 20
541.88917325798297
 30
0.0
 11
658.51950035797927
 21
539.57980325798314
 31
0.0
  0
LINE
  5
56BA
  8
AM_0
 10
950.17846146794545
 20
553.03570325798296
 30
0.0
 11
937.0816284679463
 21
511.899070257983
 31
0.0
  0
LINE
  5
56BB
  8
0
  6
ACJISTGL
 10
649.51950035797915
 20
387.71374925798227
 30
0.0
 11
649.51950035797915
 21
369.71374925798227
 31
0.0
  0
LINE
  5
56BC
  8
0
  6
ACJISTGL
 10
634.51950035797961
 20
387.71374925798227
 30
0.0
 11
634.51950035797961
 21
369.71374925798227
 31
0.0
  0
LINE
  5
56BD
  8
AM_0
 10
627.01950035797961
 20
387.71374925798227
 30
0.0
 11
658.01946035797914
 21
387.71374925798227
 31
0.0
  0
LINE
  5
56BE
  8
AM_0
 10
537.01950035797938
 20
371.71374725798228
 30
0.0
 11
622.01946035797971
 21
371.71374725798228
 31
0.0
  0
LINE
  5
56BF
  8
0
  6
ACJISTGL
 10
944.39245146794553
 20
387.71374925798227
 30
0.0
 11
944.39245146794553
 21
369.71374925798227
 31
0.0
  0
LINE
  5
56C0
  8
AM_0
 10
653.01948035797898
 20
395.25314825798228
 30
0.0
 11
653.01948035797898
 21
553.71376325798281
 31
0.0
  0
LINE
  5
56C1
  8
AM_0
 10
612.01950035797938
 20
402.71376425798212
 30
0.0
 11
612.01950035797938
 21
541.15648325798202
 31
0.0
  0
LINE
  5
56C2
  8
AM_0
 10
501.01950035797961
 20
387.71374925798227
 30
0.0
 11
532.09968035797954
 21
387.71374925798227
 31
0.0
  0
LINE
  5
56C3
  8
AM_0
 10
499.01949035797929
 20
369.71374925798227
 30
0.0
 11
535.01949035797941
 21
369.71374925798227
 31
0.0
  0
LINE
  5
56C4
  8
AM_0
 10
660.01950035797915
 20
369.71374925798227
 30
0.0
 11
660.01950035797915
 21
385.71374825798222
 31
0.0
  0
LINE
  5
56C5
  8
AM_0
 10
499.01949035797929
 20
369.71374925798227
 30
0.0
 11
499.01949035797929
 21
385.71374825798222
 31
0.0
  0
LINE
  5
56C6
  8
AM_0
 10
535.90938035797922
 20
390.49463225798218
 30
0.0
 11
550.82919035797954
 21
437.11903925798219
 31
0.0
  0
LINE
  5
56C7
  8
0
  6
ACJISTGL
 10
929.39245146794553
 20
387.71374925798227
 30
0.0
 11
929.39245146794553
 21
369.71374925798227
 31
0.0
  0
LINE
  5
56C8
  8
AM_0
 10
632.01948035797955
 20
410.17148225798212
 30
0.0
 11
632.01948035797955
 21
571.19470325798216
 31
0.0
  0
LINE
  5
56C9
  8
AM_0
 10
640.01946035797914
 20
557.71378325798241
 30
0.0
 11
649.01946035797914
 21
557.71378325798241
 31
0.0
  0
LINE
  5
56CA
  8
AM_0
 10
966.89243646794546
 20
492.713767257982
 30
0.0
 11
966.89243646794546
 21
402.71376425798212
 31
0.0
  0
LINE
  5
56CB
  8
AM_0
 10
960.57047646794695
 20
563.4277932579821
 30
0.0
 11
1001.707103467946
 21
576.52465325798221
 31
0.0
  0
LINE
  5
56CC
  8
AM_0
 10
551.01948035797955
 20
438.33817025798197
 30
0.0
 11
551.01948035797955
 21
496.36150325798229
 31
0.0
  0
LINE
  5
56CD
  8
AM_0
 10
1114.0084164679449
 20
553.23448325798199
 30
0.0
 11
1127.004341467946
 21
510.93666725798198
 31
0.0
  0
LINE
  5
56CE
  8
AM_0
 10
1103.413193467946
 20
563.82970325798306
 30
0.0
 11
1061.1153714679469
 21
576.82561325798224
 31
0.0
  0
LINE
  5
56CF
  8
AM_0
 10
1096.892447467945
 20
492.713767257982
 30
0.0
 11
1096.892447467945
 21
402.71376425798212
 31
0.0
  0
LINE
  5
56D0
  8
AM_0
 10
1108.8924474679461
 20
541.80745325798205
 30
0.0
 11
1108.8924474679461
 21
443.45102525798211
 31
0.0
  0
LINE
  5
56D1
  8
AM_0
 10
954.89243646794546
 20
541.80745325798205
 30
0.0
 11
954.89243646794546
 21
443.45102525798211
 31
0.0
  0
LINE
  5
56D2
  8
AM_0
 10
547.01955035797914
 20
581.21377325798312
 30
0.0
 11
624.22893035797961
 21
579.19195325798296
 31
0.0
  0
LINE
  5
56D3
  8
AM_0
 10
1146.859766467946
 20
385.15538225798218
 30
0.0
 11
1130.308364467945
 21
496.36150325798229
 31
0.0
  0
LINE
  5
56D4
  8
AM_0
 10
916.9251054679454
 20
385.1553972579822
 30
0.0
 11
933.47649546794617
 21
496.36150325798229
 31
0.0
  0
LINE
  5
56D5
  8
AM_0
 10
547.01949035797941
 20
496.36150325798229
 30
0.0
 11
551.01948035797955
 21
496.36150325798229
 31
0.0
  0
LINE
  5
56D6
  8
AM_0
 10
617.09448035797959
 20
402.1714962579822
 30
0.0
 11
624.0195003579795
 21
402.1714962579822
 31
0.0
  0
LINE
  5
56D7
  8
AM_0
 10
624.0195003579795
 20
369.71374925798227
 30
0.0
 11
660.01950035797915
 21
369.71374925798227
 31
0.0
  0
LINE
  5
56D8
  8
AM_0
 10
624.0195003579795
 20
369.71374925798227
 30
0.0
 11
624.0195003579795
 21
369.71374925798227
 31
0.0
  0
LINE
  5
56D9
  8
AM_0
 10
968.89243746794546
 20
371.71374725798228
 30
0.0
 11
1094.892449467945
 21
371.71374725798228
 31
0.0
  0
LINE
  5
56DA
  8
AM_0
 10
620.01948035797955
 20
549.15649325798222
 30
0.0
 11
628.41897035797945
 21
549.15649325798222
 31
0.0
  0
LINE
  5
56DB
  8
AM_0
 10
547.01955035797914
 20
511.899070257983
 30
0.0
 11
547.02108035797971
 21
511.899070257983
 31
0.0
  0
LINE
  5
56DC
  8
AM_0
 10
547.01949035797941
 20
511.899070257983
 30
0.0
 11
574.78815035797959
 21
537.18553325798212
 31
0.0
  0
LINE
  5
56DD
  8
0
  6
ACJISTGL
 10
524.51949035797918
 20
387.71374925798227
 30
0.0
 11
524.51949035797918
 21
369.71374925798227
 31
0.0
  0
LINE
  5
56DE
  8
0
  6
ACJISTGL
 10
509.51949035797929
 20
387.71374925798227
 30
0.0
 11
509.51949035797929
 21
369.71374925798227
 31
0.0
  0
LINE
  5
56DF
  8
AM_0
 10
547.01949035797941
 20
425.21376425798212
 30
0.0
 11
547.01949035797941
 21
581.21377325798312
 31
0.0
  0
CIRCLE
  5
56E1
  8
AM_0
 10
1031.8924554679461
 20
509.71373825798219
 30
0.0
 40
2.75000007
  0
CIRCLE
  5
56E2
  8
0
 10
1031.8924554679461
 20
509.71373825798219
 30
0.0
 40
4.000000199999997
  0
ARC
  5
56E3
  8
AM_0
 10
1031.8924554679461
 20
509.71373825798219
 30
0.0
 40
16.000000499999999
 50
108.209959999999
 51
71.790051999995924
  0
ARC
  5
56E4
  8
AM_0
 10
537.01950035797938
 20
369.71374925798227
 30
0.0
 40
2.00000007
 50
90.000002999984659
 51
180.000010000001
  0
ARC
  5
56E5
  8
AM_0
 10
962.89243746794546
 20
383.7137322579822
 30
0.0
 40
4.000000199999997
 50
0.0
 51
90.000002999984588
  0
ARC
  5
56E6
  8
AM_0
 10
532.09968035797954
 20
391.71374825798222
 30
0.0
 40
4.000000199999997
 50
270.0
 51
342.25533000000792
  0
ARC
  5
56E7
  8
AM_0
 10
547.01949035797941
 20
438.33817025798197
 30
0.0
 40
4.000000199999997
 50
342.25533000000792
 51
0.0
  0
ARC
  5
56E8
  8
AM_0
 10
627.01950035797961
 20
402.71376425798212
 30
0.0
 40
15.000000299999989
 50
179.999989999999
 51
270.0
  0
ARC
  5
56E9
  8
AM_0
 10
620.01948035797955
 20
541.15648325798202
 30
0.0
 40
8.0000000999999994
 50
90.000002999984659
 51
180.000010000001
  0
ARC
  5
56EA
  8
AM_0
 10
919.89245046794554
 20
384.71374925798227
 30
0.0
 40
3.0
 50
90.000002999984588
 51
180.000010000001
  0
ARC
  5
56EB
  8
AM_0
 10
1143.892448467946
 20
384.71374925798227
 30
0.0
 40
3.0
 50
0.0
 51
90.000002999984588
  0
ARC
  5
56EC
  8
AM_0
 10
1100.892449467945
 20
383.7137322579822
 30
0.0
 40
4.000000199999997
 50
90.000002999984588
 51
180.000010000001
  0
ARC
  5
56ED
  8
AM_0
 10
1031.8924554679461
 20
443.45102525798211
 30
0.0
 40
77.000000999999997
 50
179.999989999999
 51
212.418390000009
  0
ARC
  5
56EE
  8
AM_0
 10
656.01948035797909
 20
474.9402672579821
 30
0.0
 40
3.0
 50
119.999999999992
 51
180.000010000001
  0
ARC
  5
56EF
  8
AM_0
 10
656.01948035797909
 20
544.48726325798214
 30
0.0
 40
3.0
 50
179.999989999999
 51
240.0000099999958
  0
ARC
  5
56F0
  8
AM_0
 10
657.01950035797915
 20
536.98171325798216
 30
0.0
 40
3.0
 50
0.0
 51
60.000001999997743
  0
ARC
  5
56F1
  8
AM_0
 10
657.01950035797915
 20
482.44582325798279
 30
0.0
 40
3.0
 50
299.99999999999199
 51
0.0
  0
ARC
  5
56F2
  8
AM_0
 10
624.0195003579795
 20
571.19470325798216
 30
0.0
 40
8.0000000999999994
 50
0.0
 51
88.499996999987701
  0
ARC
  5
56F3
  8
AM_0
 10
951.89243646794557
 20
402.71376425798212
 30
0.0
 40
15.000000299999989
 50
270.0
 51
0.0
  0
ARC
  5
56F4
  8
AM_0
 10
501.01950035797961
 20
385.71374825798222
 30
0.0
 40
2.00000007
 50
90.000002999984659
 51
180.000010000001
  0
ARC
  5
56F5
  8
AM_0
 10
658.01946035797914
 20
385.71374825798222
 30
0.0
 40
2.00000007
 50
0.0
 51
90.000002999984659
  0
ARC
  5
56F6
  8
AM_0
 10
624.0195003579795
 20
410.17148225798212
 30
0.0
 40
8.0000000999999994
 50
270.0
 51
0.0
  0
ARC
  5
56F7
  8
AM_0
 10
1094.892449467945
 20
369.71374925798227
 30
0.0
 40
2.00000007
 50
0.0
 51
90.000002999984588
  0
ARC
  5
56F8
  8
AM_0
 10
968.89243746794546
 20
369.71374925798227
 30
0.0
 40
2.00000007
 50
90.000002999984588
 51
180.000010000001
  0
ARC
  5
56F9
  8
AM_0
 10
640.01946035797914
 20
565.71376325798292
 30
0.0
 40
8.0000000999999994
 50
179.999989999999
 51
270.0
  0
ARC
  5
56FA
  8
AM_0
 10
1031.8924554679461
 20
492.713767257982
 30
0.0
 40
65.000000999999997
 50
0.0
 51
180.000010000001
  0
ARC
  5
56FB
  8
AM_0
 10
1031.8924554679461
 20
481.71376625798212
 30
0.0
 40
99.500004000000004
 50
8.4654901000032652
 51
171.53449999999989
  0
ARC
  5
56FC
  8
AM_0
 10
661.01946035797914
 20
395.25314825798228
 30
0.0
 40
8.0000000999999994
 50
179.999989999999
 51
252.54239000001451
  0
ARC
  5
56FD
  8
AM_0
 10
1098.714041467945
 20
548.53537325798266
 30
0.0
 40
16.000000499999999
 50
17.07946300001457
 51
72.92053400000664
  0
ARC
  5
56FE
  8
AM_0
 10
1111.892447467945
 20
402.71376425798212
 30
0.0
 40
15.000000299999989
 50
179.999989999999
 51
270.0
  0
ARC
  5
56FF
  8
AM_0
 10
1031.8924554679461
 20
443.45102525798211
 30
0.0
 40
77.000000999999997
 50
327.58160000001169
 51
0.0
  0
ARC
  5
5700
  8
AM_0
 10
965.4243894679455
 20
548.18182325798205
 30
0.0
 40
16.000000499999999
 50
107.0794600000003
 51
162.9205300000115
  0
ARC
  5
5701
  8
AM_0
 10
622.01946035797971
 20
369.71374925798227
 30
0.0
 40
2.00000007
 50
0.0
 51
90.000002999984659
  0
ARC
  5
5702
  8
AM_0
 10
1100.892449467945
 20
541.80745325798205
 30
0.0
 40
8.0000000999999994
 50
0.0
 51
41.053350999981383
  0
ARC
  5
5703
  8
AM_0
 10
962.89243746794546
 20
541.80745325798205
 30
0.0
 40
8.0000000999999994
 50
138.9466500000033
 51
180.000010000001
  0
ARC
  5
5704
  8
AM_0
 10
649.01946035797914
 20
553.71376325798281
 30
0.0
 40
4.000000199999997
 50
0.0
 51
90.000002999984659
  0
CIRCLE
  5
5705
  8
AM_0
 10
1031.8924554679461
 20
509.71373825798219
 30
0.0
 40
29.000001000000001
  0
POLYLINE
  5
5706
  8
AM_0
 66
     1
 10
0.0
 20
0.0
 30
0.0
  0
VERTEX
  5
5707
  8
AM_0
 10
574.7886903579797
 20
537.18607325798212
 30
0.0
 42
0.038759412
  0
VERTEX
  5
5708
  8
AM_0
 10
577.53651035797873
 20
540.09694325798318
 30
0.0
 42
0.04530642
  0
VERTEX
  5
5709
  8
AM_0
 10
579.75870035797959
 20
543.42466325798205
 30
0.0
 42
0.052171517
  0
VERTEX
  5
570A
  8
AM_0
 10
581.29539035797961
 20
547.12246325798333
 30
0.0
 42
0.057266797
  0
VERTEX
  5
570B
  8
AM_0
 10
581.98965035797971
 20
551.06122325798333
 30
0.0
 42
0.058402473
  0
VERTEX
  5
570C
  8
AM_0
 10
581.75889035797923
 20
555.04942325798174
 30
0.0
 42
0.055045428
  0
VERTEX
  5
570D
  8
AM_0
 10
580.6333803579796
 20
558.88459325798203
 30
0.0
 42
0.048778207
  0
VERTEX
  5
570E
  8
AM_0
 10
578.74050035797904
 20
562.405093257982
 30
0.0
 42
0.041944178
  0
VERTEX
  5
570F
  8
AM_0
 10
576.24300035797955
 20
565.5281232579822
 30
0.0
 42
0.035908203
  0
VERTEX
  5
5710
  8
AM_0
 10
573.29040035797971
 20
568.22890325798176
 30
0.0
 42
0.031063143
  0
VERTEX
  5
5711
  8
AM_0
 10
570.00372035797955
 20
570.51286325798196
 30
0.0
 42
0.027381807
  0
VERTEX
  5
5712
  8
AM_0
 10
566.47179035797978
 20
572.39998325798194
 30
0.0
 42
0.024647351
  0
VERTEX
  5
5713
  8
AM_0
 10
562.76277035797955
 20
573.91111325798215
 30
0.0
 42
0.022677519
  0
VERTEX
  5
5714
  8
AM_0
 10
558.92739035797945
 20
575.06578325798228
 30
0.0
 42
0.021321472
  0
VERTEX
  5
5715
  8
AM_0
 10
555.00498035797955
 20
575.87959325798329
 30
0.0
 42
0.020471059
  0
VERTEX
  5
5716
  8
AM_0
 10
551.02809035797952
 20
576.36367325798187
 30
0.0
 42
0.020088491
  0
VERTEX
  5
5717
  8
AM_0
 10
547.01946035797971
 20
576.52459325798225
 30
0.0
  0
SEQEND
  5
5718
  8
AM_0
 62
     7
  0
POLYLINE
  5
5719
  8
AM_0
 66
     1
 10
0.0
 20
0.0
 30
0.0
  0
VERTEX
  5
571A
  8
AM_0
 10
580.47615035797958
 20
554.35516325798164
 30
0.0
 42
0.046333928
  0
VERTEX
  5
571B
  8
AM_0
 10
578.62434035797958
 20
555.41278325798203
 30
0.0
 42
0.024113287
  0
VERTEX
  5
571C
  8
AM_0
 10
576.64485035797941
 20
556.21264325798199
 30
0.0
 42
0.015482173
  0
VERTEX
  5
571D
  8
AM_0
 10
574.60791035797922
 20
556.85731325798304
 30
0.0
 42
0.01117072
  0
VERTEX
  5
571E
  8
AM_0
 10
572.54019035797921
 20
557.3938032579822
 30
0.0
 42
0.0086851636
  0
VERTEX
  5
571F
  8
AM_0
 10
570.45261035797955
 20
557.84848325798202
 30
0.0
 42
0.0071112813
  0
VERTEX
  5
5720
  8
AM_0
 10
568.35093035797945
 20
558.23749325798315
 30
0.0
 42
0.0060487741
  0
VERTEX
  5
5721
  8
AM_0
 10
566.23821035797971
 20
558.57151325798213
 30
0.0
 42
0.0052886701
  0
VERTEX
  5
5722
  8
AM_0
 10
564.12084035797875
 20
558.85735325798214
 30
0.0
 42
0.0047450804
  0
VERTEX
  5
5723
  8
AM_0
 10
561.99573035797926
 20
559.10104325798409
 30
0.0
 42
0.004337472
  0
VERTEX
  5
5724
  8
AM_0
 10
559.86603035797953
 20
559.30618325798332
 30
0.0
 42
0.0040309329
  0
VERTEX
  5
5725
  8
AM_0
 10
557.73324035797907
 20
559.47568325798318
 30
0.0
 42
0.0038017188
  0
VERTEX
  5
5726
  8
AM_0
 10
555.59802035797952
 20
559.61179325798196
 30
0.0
 42
0.0036333127
  0
VERTEX
  5
5727
  8
AM_0
 10
553.4609403579791
 20
559.71619325798201
 30
0.0
 42
0.0035147917
  0
VERTEX
  5
5728
  8
AM_0
 10
551.32254035797916
 20
559.79005325798289
 30
0.0
 42
0.0034390753
  0
VERTEX
  5
5729
  8
AM_0
 10
549.18330035797953
 20
559.8341832579822
 30
0.0
 42
0.0034021186
  0
VERTEX
  5
572A
  8
AM_0
 10
547.04361035797945
 20
559.84906325798318
 30
0.0
  0
SEQEND
  5
572B
  8
AM_0
 62
     7
  0
LINE
  5
5735
  8
AM_0
 10
485.51948035797909
 20
401.21805919538281
 30
0.0
 11
485.51948035797909
 21
481.71376625798212
 31
0.0
  0
LINE
  5
5736
  8
AM_0
 10
485.51948035797909
 20
562.20947332058211
 30
0.0
 11
485.51948035797909
 21
481.71376625798212
 31
0.0
  0
LINE
  5
5737
  8
AM_0
 10
537.01956835360238
 20
559.84904225798186
 30
0.0
 11
547.01955835360263
 21
559.84904225798186
 31
0.0
  0
LINE
  5
5738
  8
AM_0
 10
538.94973835360213
 20
580.93193225798223
 30
0.0
 11
547.01955835360263
 21
581.21375225798215
 31
0.0
  0
LINE
  5
5739
  8
AM_0
 10
537.01956835360238
 20
578.93315225798199
 30
0.0
 11
537.01956835360227
 21
565.57741525798224
 31
0.0
  0
LINE
  5
573A
  8
AM_0
 10
537.01956835360238
 20
565.57741525798224
 30
0.0
 11
537.01956835360238
 21
418.00899125798219
 31
0.0
  0
LINE
  5
573D
  8
AM_0
 10
537.01956835360238
 20
391.71376625798212
 30
0.0
 11
537.01956835360238
 21
379.76978954852387
 31
0.0
  0
LINE
  5
573E
  8
AM_0
 10
537.01956835360238
 20
418.00899125798219
 30
0.0
 11
544.71408835360262
 21
418.00899125798219
 31
0.0
  0
ARC
  5
5740
  8
AM_0
 10
539.01957835360224
 20
578.93315225798199
 30
0.0
 40
2.00000007
 50
91.999997999994051
 51
180.000010000001
  0
LINE
  5
5741
  8
AM_0
 10
537.01950035797938
 20
571.71376625798212
 30
0.0
 11
537.01950035797938
 21
578.93317325798307
 31
0.0
  0
LINE
  5
5743
  8
AM_0
 10
1096.892447467945
 20
369.71374925798227
 30
0.0
 11
1146.892451467945
 21
369.71374925798227
 31
0.0
  0
LINE
  5
57D7
  8
AM_0
 10
485.51948035797909
 20
396.71376625798212
 30
0.0
 11
485.51948035797909
 21
566.71376625798212
 31
0.0
  0
LINE
  5
583F
  8
AM_0
 10
526.01949035797941
 20
578.71375325798215
 30
0.0
 11
537.01950035798097
 21
578.71375325798215
 31
0.0
  0
LINE
  5
5840
  8
AM_0
 10
526.01949035797941
 20
567.95346348168016
 30
0.0
 11
526.01949035797941
 21
578.71375325798215
 31
0.0
  0
LINE
  5
5841
  8
AM_0
 10
526.96588536871502
 20
578.71375325798215
 30
0.0
 11
528.2149203579819
 21
583.37519145798251
 31
0.0
  0
LINE
  5
5842
  8
AM_0
 10
542.44600295244584
 20
581.05403129975093
 30
0.0
 11
541.78341035798064
 21
583.5267514579823
 31
0.0
  0
LINE
  5
5843
  8
AM_0
 10
528.89328035798064
 20
584.07416145798243
 30
0.0
 11
535.01949035798111
 21
585.91379145798226
 31
0.0
  0
LINE
  5
5844
  8
AM_0
 10
535.01949035798111
 20
585.91379145798226
 30
0.0
 11
541.08474035797985
 21
584.23160145798136
 31
0.0
  0
CIRCLE
  5
5845
  8
AM_0
 10
535.01949035798111
 20
595.91375145798247
 30
0.0
 40
9.9999992999999971
  0
ARC
  5
5846
  8
AM_0
 10
535.01949035798111
 20
595.91375145798247
 30
0.0
 40
16.299997799999989
 50
304.10956999998638
 51
235.8904199999885
  0
ARC
  5
5847
  8
AM_0
 10
524.18850035798084
 20
579.93941145798215
 30
0.0
 40
3.0
 50
345.00000000000551
 51
55.861737000010223
  0
ARC
  5
5848
  8
AM_0
 10
529.18086035798069
 20
583.11638145798224
 30
0.0
 40
1.0000000199999941
 50
106.7144200000012
 51
164.99999000001139
  0
ARC
  5
5849
  8
AM_0
 10
540.81753035798079
 20
583.26797145798196
 30
0.0
 40
1.0000000199999941
 50
14.99999999999446
 51
74.498793000029593
  0
ARC
  5
584A
  8
AM_0
 10
545.85048035798127
 20
579.93941145798215
 30
0.0
 40
3.0
 50
124.13826299998971
 51
157.73743008351781
  0
LINE
  5
584B
  8
AM_0
 10
1028.7424464679441
 20
609.06374895798217
 30
0.0
 11
1028.7424464679441
 21
582.91379895798116
 31
0.0
  0
LINE
  5
584C
  8
AM_0
 10
1035.0424494679451
 20
609.06374895798217
 30
0.0
 11
1035.0424494679451
 21
582.91379895798116
 31
0.0
  0
LINE
  5
584D
  8
AM_0
 10
1024.48841239746
 20
581.13792941378711
 30
0.0
 11
1025.0878914679449
 21
583.37522895798224
 31
0.0
  0
LINE
  5
584E
  8
AM_0
 10
1039.296487163607
 20
581.13793026256872
 30
0.0
 11
1038.6970074679441
 21
583.37522895798224
 31
0.0
  0
LINE
  5
584F
  8
AM_0
 10
1025.7662064679439
 20
584.07413895798345
 30
0.0
 11
1028.7424464679441
 21
584.9678689579822
 31
0.0
  0
LINE
  5
5850
  8
AM_0
 10
1035.0424494679451
 20
584.9678689579822
 30
0.0
 11
1038.0186924679431
 21
584.07413895798345
 31
0.0
  0
ARC
  5
5851
  8
AM_0
 10
1031.8924554679461
 20
609.06374895798217
 30
0.0
 40
3.1500002999999981
 50
359.999989999999
 51
179.999989999999
  0
ARC
  5
5852
  8
AM_0
 10
1026.7424484679441
 20
582.91379895798116
 30
0.0
 40
2.00000007
 50
307.9418820711046
 51
0.0
  0
ARC
  5
5853
  8
AM_0
 10
1037.042450467944
 20
582.91379895798116
 30
0.0
 40
2.00000007
 50
179.999989999999
 51
232.0580947086724
  0
ARC
  5
5854
  8
AM_0
 10
1026.0538194679459
 20
583.11638895798251
 30
0.0
 40
1.0000000199999941
 50
106.7144200000014
 51
164.99999000001139
  0
ARC
  5
5855
  8
AM_0
 10
1037.7310944679441
 20
583.11638895798251
 30
0.0
 40
1.0000000199999941
 50
14.99999999999447
 51
73.285573000008171
  0
ARC
  5
5878
  8
0
 10
532.01950035797984
 20
571.71376625798121
 30
0.0
 40
5.0
 50
270.0
 51
0.0000000000130276
1001
GENIUS_GENOBJ-N-FIL_13
1002
{
1000
OWNER
1000
GEN
1002
}
1001
GENIUS_GENODEF_13
1002
{
1000
HIER
1070
     0
1002
}
1002
{
1000
MANEDIT
1070
     0
1002
}
1002
{
1000
NOSEL
1070
     0
1002
}
1002
{
1000
BEHIND
1070
     0
1002
}
1002
{
1000
OTHER
1070
     0
1002
}
1002
{
1000
REACTOR
1002
}
  0
ARC
  5
5879
  8
AM_0
 10
532.01956835360215
 20
391.71376625798172
 30
0.0
 40
5.0
 50
17.641986604243499
 51
90.0
1001
GENIUS_GENODEF_13
1002
{
1000
HIER
1070
     0
1002
}
1002
{
1000
MANEDIT
1070
     0
1002
}
1002
{
1000
NOSEL
1070
     0
1002
}
1002
{
1000
BEHIND
1070
     0
1002
}
1002
{
1000
OTHER
1070
     0
1002
}
1002
{
1000
REACTOR
1002
}
1001
GENIUS_GENOBJ-N-FIL_13
1002
{
1000
OWNER
1000
GEN
1002
}
  0
LINE
  5
69C9
  8
AM_0
 10
485.51948035797909
 20
396.71376625798212
 30
0.0
 11
485.51948035797909
 21
566.71376625798212
 31
0.0
  0
LINE
  5
7CB5
  8
0
 10
279.01948035797909
 20
479.21376625798212
 30
0.0
 11
279.01948035797909
 21
394.7137052579821
 31
0.0
  0
LINE
  5
7CB6
  8
0
 10
416.01948035797892
 20
506.4817152579821
 30
0.0
 11
416.01948035797892
 21
456.94581725798201
 31
0.0
  0
LINE
  5
7CB7
  8
0
 10
430.476356357979
 20
530.89876625798195
 30
0.0
 11
430.476356357979
 21
510.53376625798199
 31
0.0
  0
LINE
  5
7CB8
  8
0
 10
446.51947935797892
 20
530.89876625798195
 30
0.0
 11
446.51947935797892
 21
510.53376625798199
 31
0.0
  0
LINE
  5
7CB9
  8
0
 10
461.06887535797921
 20
425.6929702579821
 30
0.0
 11
446.51947935797892
 21
425.6929702579821
 31
0.0
  0
LINE
  5
7CBA
  8
0
 10
466.01948035797892
 20
437.10532025798221
 30
0.0
 11
446.51947935797892
 21
437.10532025798221
 31
0.0
  0
LINE
  5
7CBB
  8
0
 10
431.22487735797881
 20
430.40806025798207
 30
0.0
 11
446.51948035797892
 21
425.6929702579821
 31
0.0
  0
LINE
  5
7CBC
  8
0
 10
446.51948035797892
 20
437.10532025798221
 30
0.0
 11
431.48353935797911
 21
436.56456925798199
 31
0.0
  0
ARC
  5
7CBD
  8
0
 10
431.51948035797921
 20
435.56521525798189
 30
0.0
 40
1.0
 50
92.059691000003724
 51
180.0
  0
ARC
  5
7CBE
  8
0
 10
431.51948035797921
 20
431.36368025798208
 30
0.0
 40
1.0
 50
180.0
 51
252.8662750000021
  0
LINE
  5
7CBF
  8
0
 10
446.51948035797892
 20
557.56655325798215
 30
0.0
 11
431.2190213579791
 21
552.7466872579821
 31
0.0
  0
ARC
  5
7CC0
  8
0
 10
431.51948035797921
 20
551.79289225798198
 30
0.0
 40
1.0
 50
107.485179
 51
180.0
  0
ARC
  5
7CC1
  8
0
 10
431.51948035797921
 20
549.44182725798214
 30
0.0
 40
1.0
 50
180.0
 51
270.0
  0
LINE
  5
7CC2
  8
0
 10
431.56803535797877
 20
548.44300625798212
 30
0.0
 11
446.51948035797892
 21
549.16982625798209
 31
0.0
  0
LINE
  5
7CC3
  8
0
 10
466.01948035797892
 20
549.16982625798209
 30
0.0
 11
446.51948035797892
 21
549.16982625798209
 31
0.0
  0
LINE
  5
7CC4
  8
0
 10
389.51948035797921
 20
580.00025925798195
 30
0.0
 11
476.96666535797908
 21
580.00025925798195
 31
0.0
  0
ARC
  5
7CC5
  8
0
 10
300.78372535797922
 20
578.00025925798229
 30
0.0
 40
2.0
 50
90.0
 51
156.10180000000179
  0
ARC
  5
7CC6
  8
0
 10
476.96666535797908
 20
578.00025925798229
 30
0.0
 40
2.0
 50
10.000001999998901
 51
90.0
  0
LINE
  5
7CC7
  8
0
 10
480.51948035797909
 20
569.36878325798205
 30
0.0
 11
478.93628035797889
 21
578.34755625798209
 31
0.0
  0
LINE
  5
7CC8
  8
0
 10
480.25867235797909
 20
569.36878325798205
 30
0.0
 11
480.51948035797909
 21
569.36878325798205
 31
0.0
  0
ARC
  5
7CC9
  8
0
 10
285.85069535797908
 20
576.81048525798212
 30
0.0
 40
2.0
 50
90.0
 51
169.99999800000111
  0
LINE
  5
7CCA
  8
0
 10
281.51948035797921
 20
563.76448225798208
 30
0.0
 11
283.88108035797899
 21
577.15778225798215
 31
0.0
  0
ARC
  5
7CCB
  8
0
 10
476.91564635797909
 20
576.81048525798212
 30
0.0
 40
2.0
 50
10.000001999998901
 51
90.0
  0
LINE
  5
7CCC
  8
0
 10
480.51948035797909
 20
567.8896652579823
 30
0.0
 11
478.88526135797889
 21
577.15778225798215
 31
0.0
  0
LINE
  5
7CCD
  8
0
 10
281.51948035797921
 20
563.76448225798208
 30
0.0
 11
282.08738635797909
 21
563.76448225798208
 31
0.0
  0
LINE
  5
7CCE
  8
0
 10
479.9835093579789
 20
567.8896652579823
 30
0.0
 11
480.51948035797909
 21
567.8896652579823
 31
0.0
  0
ARC
  5
7CCF
  8
0
 10
476.82979135797899
 20
574.25775125798214
 30
0.0
 40
2.0
 50
10.00000100000252
 51
90.0
  0
ARC
  5
7CD0
  8
0
 10
285.96848635797897
 20
574.25775125798214
 30
0.0
 40
2.0
 50
90.0
 51
169.9999989999975
  0
LINE
  5
7CD1
  8
0
 10
281.51948035797921
 20
560.54372625798214
 30
0.0
 11
283.99887035797917
 21
574.60504725798205
 31
0.0
  0
ARC
  5
7CD2
  8
0
 10
286.149627357979
 20
570.29256625798212
 30
0.0
 40
2.0
 50
90.0
 51
170.0000000000025
  0
LINE
  5
7CD3
  8
0
 10
281.51948035797921
 20
555.55124125798216
 30
0.0
 11
284.18001135797908
 21
570.63986225798214
 31
0.0
  0
ARC
  5
7CD4
  8
0
 10
286.43085535797911
 20
564.71513825798218
 30
0.0
 40
2.0
 50
90.0
 51
170.0000000000025
  0
LINE
  5
7CD5
  8
0
 10
281.51948035797921
 20
548.37888925798211
 30
0.0
 11
284.46123935797903
 21
565.06243525798197
 31
0.0
  0
ARC
  5
7CD6
  8
0
 10
286.52611935797898
 20
558.71447125798204
 30
0.0
 40
2.0
 50
90.0
 51
169.9999989999975
  0
LINE
  5
7CD7
  8
0
 10
281.51948035797921
 20
541.83795325798201
 30
0.0
 11
284.55650335797918
 21
559.06176725798207
 31
0.0
  0
LINE
  5
7CD8
  8
0
 10
480.39122135797908
 20
565.57741525798212
 30
0.0
 11
478.79940635797868
 21
574.60504725798205
 31
0.0
  0
LINE
  5
7CD9
  8
0
 10
281.51948035797921
 20
560.54372625798214
 30
0.0
 11
282.3997903579791
 21
560.54372625798214
 31
0.0
  0
ARC
  5
7CDA
  8
0
 10
476.7004133579789
 20
570.29256625798212
 30
0.0
 40
2.0
 50
9.9999999999974758
 51
90.0
  0
LINE
  5
7CDB
  8
0
 10
479.56267535797889
 20
565.57741525798212
 30
0.0
 11
478.67002935797899
 21
570.63986225798214
 31
0.0
  0
ARC
  5
7CDC
  8
0
 10
411.908498357979
 20
564.71513825798218
 30
0.0
 40
2.0
 50
5.5986529999992776
 51
90.0
  0
ARC
  5
7CDD
  8
0
 10
411.90654335797882
 20
558.71447125798204
 30
0.0
 40
2.0
 50
5.4290190000020546
 51
90.0
  0
LINE
  5
7CDE
  8
0
 10
482.51948035797898
 20
441.9910602579821
 30
0.0
 11
482.51948035797898
 21
543.77969925798175
 31
0.0
  0
LINE
  5
7CDF
  8
0
 10
482.51948035797898
 20
565.57741525798212
 30
0.0
 11
482.51948035797898
 21
569.713766257982
 31
0.0
  0
LINE
  5
7CE0
  8
0
 10
430.476356357979
 20
555.55124125798216
 30
0.0
 11
446.51947935797892
 21
560.15110325798196
 31
0.0
  0
LINE
  5
7CE1
  8
0
 10
414.8163953579791
 20
555.55124125798216
 30
0.0
 11
430.476356357979
 21
555.55124125798216
 31
0.0
  0
LINE
  5
7CE2
  8
0
 10
446.51947935797892
 20
560.15110325798196
 30
0.0
 11
461.21276335797859
 21
560.15110325798196
 31
0.0
  0
INSERT
  5
7CE3
  8
0
  2
$6-45
 10
466.01948035797892
 20
555.84702625798195
 30
0.0
 50
90.0
  0
INSERT
  5
7CE4
  8
0
  2
$6-45
 10
466.01948035797892
 20
429.80509925798202
 30
0.0
 50
90.0
  0
LINE
  5
7CE6
  8
0
 10
247.51948035797909
 20
484.71376625798212
 30
0.0
 11
179.52794835797911
 21
484.71376625798212
 31
0.0
  0
LINE
  5
7CE7
  8
0
 10
480.45865035797908
 20
569.713766257982
 30
0.0
 11
482.51948035797898
 21
569.713766257982
 31
0.0
  0
LINE
  5
7CE8
  8
0
 10
286.149627357979
 20
572.29256625798212
 30
0.0
 11
476.7004133579789
 21
572.29256625798212
 31
0.0
  0
LINE
  5
7CE9
  8
0
 10
285.96848635797897
 20
576.25775125798214
 30
0.0
 11
476.82979135797899
 21
576.25775125798214
 31
0.0
  0
LINE
  5
7CEA
  8
0
 10
285.85069535797908
 20
578.81048525798212
 30
0.0
 11
476.91564635797909
 21
578.81048525798212
 31
0.0
  0
LINE
  5
7CEB
  8
0
 10
279.01948035797909
 20
575.21376625798212
 30
0.0
 11
283.5382983579791
 21
575.21376625798212
 31
0.0
  0
LINE
  5
7CEC
  8
0
 10
300.78372535797922
 20
580.00025925798195
 30
0.0
 11
367.51948035797909
 21
580.00025925798195
 31
0.0
  0
LINE
  5
7CED
  8
0
 10
446.51947935797892
 20
538.87376625798208
 30
0.0
 11
446.51947935797892
 21
533.52876625798217
 31
0.0
  0
LINE
  5
7CEE
  8
0
 10
430.476356357979
 20
538.87376625798208
 30
0.0
 11
430.476356357979
 21
533.52876625798217
 31
0.0
  0
LINE
  5
7CEF
  8
0
 10
446.51947935797892
 20
549.16982625798209
 30
0.0
 11
446.51947935797892
 21
541.57376625798213
 31
0.0
  0
LINE
  5
7CF0
  8
0
 10
446.51947935797892
 20
557.56655325798215
 30
0.0
 11
460.6194863579791
 21
557.56655325798215
 31
0.0
  0
LINE
  5
7CF1
  8
0
 10
281.51948035797921
 20
541.83795325798201
 30
0.0
 11
415.51948035797898
 21
541.83795325798201
 31
0.0
  0
LINE
  5
7CF2
  8
0
 10
414.84185335797912
 20
548.37888925798211
 30
0.0
 11
415.51948035797898
 21
548.37888925798211
 31
0.0
  0
LINE
  5
7CF3
  8
0
 10
286.52611935797898
 20
560.71447125798204
 30
0.0
 11
411.90654335797882
 21
560.71447125798204
 31
0.0
  0
LINE
  5
7CF4
  8
0
 10
281.51948035797921
 20
548.37888925798211
 30
0.0
 11
282.67282335797898
 21
548.37888925798211
 31
0.0
  0
LINE
  5
7CF5
  8
0
 10
286.43085535797911
 20
566.71513825798195
 30
0.0
 11
411.908498357979
 21
566.71513825798195
 31
0.0
  0
LINE
  5
7CF6
  8
0
 10
482.51948035797898
 20
543.77969925798175
 30
0.0
 11
485.51948035797909
 21
542.04764825798213
 31
0.0
  0
ARC
  5
7CF7
  8
0
 10
465.01948035797909
 20
544.77969925798209
 30
0.0
 40
1.0
 50
270.0
 51
0.0
  0
ARC
  5
7CF8
  8
0
 10
468.01948035797909
 20
563.57741525798212
 30
0.0
 40
2.0
 50
90.0
 51
180.0
  0
ARC
  5
7CF9
  8
0
 10
468.01948035797909
 20
559.45341025798211
 30
0.0
 40
2.0
 50
180.0
 51
270.0
  0
ARC
  5
7CFA
  8
0
 10
468.01948035797909
 20
555.45341025798211
 30
0.0
 40
2.0
 50
90.0
 51
180.0
  0
LINE
  5
7CFB
  8
0
 10
468.01948035797909
 20
565.57741525798212
 30
0.0
 11
485.51948035797909
 21
565.57741525798212
 31
0.0
  0
LINE
  5
7CFC
  8
0
 10
466.01948035797892
 20
543.77969925798175
 30
0.0
 11
482.51948035797898
 21
543.77969925798175
 31
0.0
  0
LINE
  5
7CFD
  8
0
 10
468.01948035797909
 20
557.453410257982
 30
0.0
 11
485.51948035797909
 21
557.453410257982
 31
0.0
  0
LINE
  5
7CFE
  8
0
 10
466.01948035797892
 20
544.77969925798209
 30
0.0
 11
466.01948035797892
 21
563.57741525798212
 31
0.0
  0
LINE
  5
7CFF
  8
0
 10
281.51948035797921
 20
397.71376625798212
 30
0.0
 11
279.01948035797898
 21
397.71376625798212
 31
0.0
  0
LINE
  5
7D00
  8
0
 10
281.51948035797921
 20
447.35497725798211
 30
0.0
 11
286.12685635797902
 21
440.92337125798213
 31
0.0
  0
LINE
  5
7D01
  8
0
 10
286.12685635797902
 20
440.92337125798213
 30
0.0
 11
286.98265635797901
 21
443.550291257982
 31
0.0
  0
LINE
  5
7D02
  8
0
 10
281.51948035797921
 20
447.35497725798211
 30
0.0
 11
286.98265635797901
 21
443.550291257982
 31
0.0
  0
LINE
  5
7D03
  8
0
 10
286.98265635797901
 20
443.550291257982
 30
0.0
 11
288.19458635797901
 21
442.99433125798208
 31
0.0
  0
LINE
  5
7D04
  8
0
 10
279.01948035797898
 20
440.92337125798213
 30
0.0
 11
286.12685635797902
 21
440.92337125798213
 31
0.0
  0
LINE
  5
7D05
  8
0
 10
279.01948035797898
 20
447.35497725798211
 30
0.0
 11
281.51948035797921
 21
447.35497725798211
 31
0.0
  0
LINE
  5
7D06
  8
0
 10
281.51948035797921
 20
424.78159125798197
 30
0.0
 11
281.51948035797921
 21
421.58869725798218
 31
0.0
  0
LINE
  5
7D07
  8
0
 10
283.27948035797908
 20
424.21315725798212
 30
0.0
 11
283.27948035797908
 21
422.21437525798171
 31
0.0
  0
LINE
  5
7D08
  8
0
 10
298.27948035797908
 20
433.21376625798212
 30
0.0
 11
298.27948035797908
 21
431.214375257982
 31
0.0
  0
LINE
  5
7D09
  8
0
 10
296.51948035797909
 20
433.67530825798212
 30
0.0
 11
296.51948035797909
 21
430.60757325798198
 31
0.0
  0
LINE
  5
7D0A
  8
0
 10
296.51948035797909
 20
433.67530825798212
 30
0.0
 11
378.51948035797921
 21
433.67530825798212
 31
0.0
  0
LINE
  5
7D0B
  8
0
 10
296.51948035797909
 20
430.60757325798198
 30
0.0
 11
378.51948035797921
 21
430.60757325798198
 31
0.0
  0
LINE
  5
7D0C
  8
0
 10
281.51948035797921
 20
421.58869725798218
 30
0.0
 11
378.51948035797921
 21
421.58869725798218
 31
0.0
  0
LINE
  5
7D0D
  8
0
 10
281.51948035797921
 20
424.78159125798197
 30
0.0
 11
378.51948035797921
 21
424.78159125798197
 31
0.0
  0
LINE
  5
7D0E
  8
0
 10
283.27948035797908
 20
424.21315725798212
 30
0.0
 11
378.51948035797921
 21
424.21315725798212
 31
0.0
  0
LINE
  5
7D0F
  8
0
 10
283.27948035797908
 20
422.21437525798171
 30
0.0
 11
378.51948035797921
 21
422.21437525798171
 31
0.0
  0
LINE
  5
7D10
  8
0
 10
283.27948035797908
 20
424.21315725798212
 30
0.0
 11
281.51948035797921
 21
424.78159125798197
 31
0.0
  0
LINE
  5
7D11
  8
0
 10
283.27948035797908
 20
422.21437525798171
 30
0.0
 11
281.51948035797921
 21
421.58869725798218
 31
0.0
  0
LINE
  5
7D12
  8
0
 10
286.46274635797909
 20
430.95568725798211
 30
0.0
 11
287.64383735797912
 21
430.71827825798209
 31
0.0
  0
LINE
  5
7D13
  8
0
 10
298.27948035797908
 20
433.21376625798212
 30
0.0
 11
378.51948035797921
 21
433.21376625798212
 31
0.0
  0
LINE
  5
7D14
  8
0
 10
298.27948035797908
 20
431.214375257982
 30
0.0
 11
378.51948035797921
 21
431.214375257982
 31
0.0
  0
LINE
  5
7D15
  8
0
 10
298.27948035797908
 20
433.21376625798212
 30
0.0
 11
296.51948035797909
 21
433.67530825798212
 31
0.0
  0
LINE
  5
7D16
  8
0
 10
298.27948035797908
 20
431.214375257982
 30
0.0
 11
296.51948035797909
 21
430.60757325798198
 31
0.0
  0
LINE
  5
7D17
  8
0
 10
415.51948035797898
 20
433.67530825798212
 30
0.0
 11
378.51948035797921
 21
433.67530825798212
 31
0.0
  0
LINE
  5
7D18
  8
0
 10
415.51948035797898
 20
430.60757325798198
 30
0.0
 11
378.51948035797921
 21
430.60757325798198
 31
0.0
  0
LINE
  5
7D19
  8
0
 10
413.7594803579791
 20
433.21376625798212
 30
0.0
 11
378.51948035797921
 21
433.21376625798212
 31
0.0
  0
LINE
  5
7D1A
  8
0
 10
413.7594803579791
 20
431.214375257982
 30
0.0
 11
378.51948035797921
 21
431.214375257982
 31
0.0
  0
LINE
  5
7D1B
  8
0
 10
413.7594803579791
 20
431.214375257982
 30
0.0
 11
415.51948035797898
 21
430.60757325798198
 31
0.0
  0
LINE
  5
7D1C
  8
0
 10
413.7594803579791
 20
433.21376625798212
 30
0.0
 11
415.51948035797898
 21
433.67530825798212
 31
0.0
  0
LINE
  5
7D1D
  8
0
 10
415.51948035797898
 20
433.67530825798212
 30
0.0
 11
415.51948035797898
 21
430.60757325798198
 31
0.0
  0
LINE
  5
7D1E
  8
0
 10
413.7594803579791
 20
433.21376625798212
 30
0.0
 11
413.7594803579791
 21
431.214375257982
 31
0.0
  0
LINE
  5
7D1F
  8
0
 10
415.51948035797898
 20
424.78159125798197
 30
0.0
 11
378.51948035797921
 21
424.78159125798197
 31
0.0
  0
LINE
  5
7D20
  8
0
 10
413.7594803579791
 20
424.21315725798212
 30
0.0
 11
378.51948035797921
 21
424.21315725798212
 31
0.0
  0
LINE
  5
7D21
  8
0
 10
413.7594803579791
 20
422.21437525798171
 30
0.0
 11
378.51948035797921
 21
422.21437525798171
 31
0.0
  0
LINE
  5
7D22
  8
0
 10
413.7594803579791
 20
422.21437525798171
 30
0.0
 11
415.51948035797898
 21
421.58869725798218
 31
0.0
  0
LINE
  5
7D23
  8
0
 10
413.7594803579791
 20
424.21315725798212
 30
0.0
 11
415.51948035797898
 21
424.78159125798197
 31
0.0
  0
LINE
  5
7D24
  8
0
 10
413.7594803579791
 20
424.21315725798212
 30
0.0
 11
413.7594803579791
 21
422.21437525798171
 31
0.0
  0
LINE
  5
7D25
  8
0
 10
415.51948035797898
 20
424.78159125798197
 30
0.0
 11
415.51948035797898
 21
421.58869725798218
 31
0.0
  0
LINE
  5
7D26
  8
0
 10
281.51948035797921
 20
421.58869725798218
 30
0.0
 11
283.11222235797908
 21
404.28951025798199
 31
0.0
  0
LINE
  5
7D27
  8
0
 10
281.51948035797921
 20
415.04864325798212
 30
0.0
 11
282.1216253579791
 21
415.04864325798212
 31
0.0
  0
LINE
  5
7D28
  8
0
 10
281.51948035797921
 20
407.87629125798179
 30
0.0
 11
282.20225735797908
 21
407.87629125798179
 31
0.0
  0
LINE
  5
7D29
  8
0
 10
281.51948035797921
 20
402.88380625798197
 30
0.0
 11
282.0439933579791
 21
402.88380625798197
 31
0.0
  0
LINE
  5
7D2A
  8
0
 10
281.51948035797921
 20
399.66305025798209
 30
0.0
 11
281.87942235797908
 21
399.66305025798209
 31
0.0
  0
LINE
  5
7D2B
  8
0
 10
281.47270335797919
 20
398.09346925798218
 30
0.0
 11
281.70309435797901
 21
398.09346925798218
 31
0.0
  0
LINE
  5
7D2C
  8
0
 10
281.51948035797921
 20
415.04864325798212
 30
0.0
 11
283.10713235797903
 21
398.37086925798212
 31
0.0
  0
LINE
  5
7D2D
  8
0
 10
281.51948035797921
 20
407.87629125798179
 30
0.0
 11
283.09131335797912
 21
392.9150802579822
 31
0.0
  0
LINE
  5
7D2E
  8
0
 10
281.51948035797921
 20
402.88380625798197
 30
0.0
 11
283.08079135797908
 21
388.91321525798207
 31
0.0
  0
LINE
  5
7D2F
  8
0
 10
281.51948035797921
 20
399.66305025798209
 30
0.0
 11
283.0726993579791
 21
386.3857222579822
 31
0.0
  0
LINE
  5
7D30
  8
0
 10
281.47270335797919
 20
398.09346925798218
 30
0.0
 11
283.06321935797899
 21
385.18273525798207
 31
0.0
  0
ARC
  5
7D31
  8
0
 10
285.10379835797897
 20
404.47287525798191
 30
0.0
 40
2.0
 50
185.2604109999985
 51
270.0
  0
ARC
  5
7D32
  8
0
 10
285.09813035797907
 20
398.5604042579821
 30
0.0
 40
2.0
 50
185.4379220000005
 51
270.0
  0
ARC
  5
7D33
  8
0
 10
285.08036635797907
 20
393.1240512579821
 30
0.0
 40
2.0
 50
185.99752600000051
 51
270.0
  0
ARC
  5
7D34
  8
0
 10
285.06841735797911
 20
389.13534625798212
 30
0.0
 40
2.0
 50
186.3767420000014
 51
270.0
  0
ARC
  5
7D35
  8
0
 10
285.05915335797908
 20
386.61810325798211
 30
0.0
 40
2.0
 50
186.672293999999
 51
270.0
  0
ARC
  5
7D36
  8
0
 10
285.04821335797919
 20
385.42727325798211
 30
0.0
 40
2.0
 50
187.02306899999721
 51
270.0
  0
LINE
  5
7D37
  8
0
 10
288.19458635797901
 20
442.99433125798208
 30
0.0
 11
288.19458635797901
 21
430.60757325798198
 31
0.0
  0
LINE
  5
7D38
  8
0
 10
286.12685635797902
 20
440.92337125798213
 30
0.0
 11
286.12685635797902
 21
431.02320425798212
 31
0.0
  0
LINE
  5
7D39
  8
0
 10
279.01948035797909
 20
430.60757325798198
 30
0.0
 11
288.19458635797901
 21
430.60757325798198
 31
0.0
  0
LINE
  5
7D3A
  8
0
 10
279.01948035797898
 20
431.02320425798212
 30
0.0
 11
286.12685635797902
 21
431.02320425798212
 31
0.0
  0
LINE
  5
7D3B
  8
0
 10
480.51948035797909
 20
496.89376625798212
 30
0.0
 11
478.7594803579791
 21
497.44376625798208
 31
0.0
  0
LINE
  5
7D3C
  8
0
 10
480.51948035797909
 20
499.53376625798199
 30
0.0
 11
480.51948035797909
 21
496.89376625798212
 31
0.0
  0
LINE
  5
7D3D
  8
0
 10
478.7594803579791
 20
499.0437662579821
 30
0.0
 11
480.51948035797909
 21
499.53376625798199
 31
0.0
  0
LINE
  5
7D3E
  8
0
 10
478.7594803579791
 20
499.0437662579821
 30
0.0
 11
478.7594803579791
 21
497.44376625798208
 31
0.0
  0
LINE
  5
7D3F
  8
0
 10
480.51948035797909
 20
485.89376625798218
 30
0.0
 11
478.7594803579791
 21
486.44376625798202
 31
0.0
  0
LINE
  5
7D40
  8
0
 10
480.51948035797909
 20
488.53376625798211
 30
0.0
 11
480.51948035797909
 21
485.89376625798218
 31
0.0
  0
LINE
  5
7D41
  8
0
 10
478.7594803579791
 20
488.04376625798199
 30
0.0
 11
480.51948035797909
 21
488.53376625798211
 31
0.0
  0
LINE
  5
7D42
  8
0
 10
478.7594803579791
 20
488.04376625798199
 30
0.0
 11
478.7594803579791
 21
486.44376625798202
 31
0.0
  0
LINE
  5
7D43
  8
0
 10
480.51948035797909
 20
474.89376625798201
 30
0.0
 11
478.7594803579791
 21
475.44376625798202
 31
0.0
  0
LINE
  5
7D44
  8
0
 10
480.51948035797909
 20
477.53376625798199
 30
0.0
 11
480.51948035797909
 21
474.89376625798201
 31
0.0
  0
LINE
  5
7D45
  8
0
 10
478.7594803579791
 20
477.0437662579821
 30
0.0
 11
480.51948035797909
 21
477.53376625798199
 31
0.0
  0
LINE
  5
7D46
  8
0
 10
478.7594803579791
 20
477.0437662579821
 30
0.0
 11
478.7594803579791
 21
475.44376625798202
 31
0.0
  0
LINE
  5
7D47
  8
0
 10
480.51948035797909
 20
463.89376625798212
 30
0.0
 11
478.7594803579791
 21
464.44376625798208
 31
0.0
  0
LINE
  5
7D48
  8
0
 10
480.51948035797909
 20
466.53376625798199
 30
0.0
 11
480.51948035797909
 21
463.89376625798212
 31
0.0
  0
LINE
  5
7D49
  8
0
 10
478.7594803579791
 20
466.04376625798221
 30
0.0
 11
480.51948035797909
 21
466.53376625798199
 31
0.0
  0
LINE
  5
7D4A
  8
0
 10
478.7594803579791
 20
466.04376625798221
 30
0.0
 11
478.7594803579791
 21
464.44376625798208
 31
0.0
  0
LINE
  5
7D4B
  8
0
 10
479.93114935797911
 20
395.20448625798213
 30
0.0
 11
478.8995203579791
 21
386.38572525798207
 31
0.0
  0
LINE
  5
7D4C
  8
0
 10
478.86426335797881
 20
388.91291925798208
 30
0.0
 11
479.91922035797899
 21
398.33990625798208
 31
0.0
  0
LINE
  5
7D4D
  8
0
 10
478.89133335797919
 20
392.91377525798208
 30
0.0
 11
479.99024535797889
 21
403.3079492579821
 31
0.0
  0
LINE
  5
7D4E
  8
0
 10
480.04118635797909
 20
409.84456925798202
 30
0.0
 11
478.915905357979
 21
398.36528525798212
 31
0.0
  0
LINE
  5
7D4F
  8
0
 10
480.08235335797917
 20
417.25431125798212
 30
0.0
 11
478.84963635797868
 21
404.28365025798212
 31
0.0
  0
LINE
  5
7D50
  8
0
 10
479.99127235797908
 20
394.06815825798208
 30
0.0
 11
478.91923935797888
 21
385.18758025798201
 31
0.0
  0
LINE
  5
7D51
  8
0
 10
478.7594803579791
 20
455.04376625798199
 30
0.0
 11
478.7594803579791
 21
453.44376625798179
 31
0.0
  0
LINE
  5
7D52
  8
0
 10
478.7594803579791
 20
455.04376625798199
 30
0.0
 11
480.51948035797909
 21
455.53376625798199
 31
0.0
  0
LINE
  5
7D53
  8
0
 10
480.51948035797909
 20
455.53376625798199
 30
0.0
 11
480.51948035797909
 21
452.89376625798218
 31
0.0
  0
LINE
  5
7D54
  8
0
 10
480.51948035797909
 20
452.89376625798218
 30
0.0
 11
478.7594803579791
 21
453.44376625798179
 31
0.0
  0
LINE
  5
7D55
  8
0
 10
478.7594803579791
 20
510.04376625798199
 30
0.0
 11
478.7594803579791
 21
508.44376625798202
 31
0.0
  0
LINE
  5
7D56
  8
0
 10
478.7594803579791
 20
510.04376625798199
 30
0.0
 11
480.51948035797909
 21
510.53376625798199
 31
0.0
  0
LINE
  5
7D57
  8
0
 10
480.51948035797909
 20
510.53376625798199
 30
0.0
 11
480.51948035797909
 21
507.89376625798212
 31
0.0
  0
LINE
  5
7D58
  8
0
 10
480.51948035797909
 20
507.89376625798212
 30
0.0
 11
478.7594803579791
 21
508.44376625798202
 31
0.0
  0
LINE
  5
7D59
  8
0
 10
430.476356357979
 20
507.89376625798212
 30
0.0
 11
430.476356357979
 21
499.53376625798199
 31
0.0
  0
LINE
  5
7D5A
  8
0
 10
446.51947935797892
 20
507.89376625798212
 30
0.0
 11
446.51947935797892
 21
499.53376625798199
 31
0.0
  0
LINE
  5
7D5B
  8
0
 10
446.51947935797892
 20
496.89376625798212
 30
0.0
 11
446.51947935797892
 21
488.53376625798211
 31
0.0
  0
LINE
  5
7D5C
  8
0
 10
430.476356357979
 20
496.89376625798212
 30
0.0
 11
430.476356357979
 21
488.53376625798211
 31
0.0
  0
LINE
  5
7D5D
  8
0
 10
430.476356357979
 20
485.89376625798218
 30
0.0
 11
430.476356357979
 21
477.53376625798199
 31
0.0
  0
LINE
  5
7D5E
  8
0
 10
446.51947935797892
 20
485.89376625798218
 30
0.0
 11
446.51947935797892
 21
477.53376625798199
 31
0.0
  0
LINE
  5
7D5F
  8
0
 10
446.51947935797892
 20
474.89376625798201
 30
0.0
 11
446.51947935797892
 21
466.53376625798199
 31
0.0
  0
LINE
  5
7D60
  8
0
 10
430.476356357979
 20
474.89376625798201
 30
0.0
 11
430.476356357979
 21
466.53376625798199
 31
0.0
  0
LINE
  5
7D61
  8
0
 10
430.476356357979
 20
463.89376625798212
 30
0.0
 11
430.476356357979
 21
455.53376625798199
 31
0.0
  0
LINE
  5
7D62
  8
0
 10
446.51947935797892
 20
463.89376625798212
 30
0.0
 11
446.51947935797892
 21
455.53376625798199
 31
0.0
  0
LINE
  5
7D63
  8
0
 10
446.51947935797892
 20
452.89376625798218
 30
0.0
 11
446.51947935797892
 21
437.10532025798221
 31
0.0
  0
LINE
  5
7D64
  8
0
 10
430.476356357979
 20
452.89376625798218
 30
0.0
 11
430.476356357979
 21
421.58869725798218
 31
0.0
  0
LINE
  5
7D65
  8
0
 10
480.08235335797917
 20
417.25431125798212
 30
0.0
 11
446.51947935797892
 21
417.25431125798212
 31
0.0
  0
LINE
  5
7D66
  8
0
 10
480.04118635797909
 20
409.84456925798202
 30
0.0
 11
479.37814035797902
 21
409.84456925798202
 31
0.0
  0
ARC
  5
7D67
  8
0
 10
476.85860835797911
 20
404.47287525798191
 30
0.0
 40
2.0
 50
270.0
 51
354.57098099999791
  0
ARC
  5
7D68
  8
0
 10
476.92544635797913
 20
398.5604042579821
 30
0.0
 40
2.0
 50
270.0
 51
354.40134700000061
  0
ARC
  5
7D69
  8
0
 10
476.90241835797877
 20
393.1240512579821
 30
0.0
 40
2.0
 50
270.0
 51
353.96488599999998
  0
ARC
  5
7D6A
  8
0
 10
476.87667035797921
 20
389.13534625798212
 30
0.0
 40
2.0
 50
270.0
 51
353.61470099999917
  0
ARC
  5
7D6B
  8
0
 10
476.91306635797912
 20
386.61810325798211
 30
0.0
 40
2.0
 50
270.0
 51
353.32779999999769
  0
ARC
  5
7D6C
  8
0
 10
476.93365535797898
 20
385.42727325798211
 30
0.0
 40
2.0
 50
270.0
 51
353.11676000000182
  0
LINE
  5
7D6D
  8
0
 10
479.99024535797889
 20
403.3079492579821
 30
0.0
 11
479.4004203579791
 21
403.3079492579821
 31
0.0
  0
LINE
  5
7D6E
  8
0
 10
479.91922035797899
 20
398.33990625798208
 30
0.0
 11
479.46500535797912
 21
398.33990625798208
 31
0.0
  0
LINE
  5
7D6F
  8
0
 10
479.93114935797911
 20
395.20448625798213
 30
0.0
 11
479.56834135797908
 21
395.20448625798213
 31
0.0
  0
LINE
  5
7D70
  8
0
 10
479.99127235797908
 20
394.06815825798208
 30
0.0
 11
479.79822035797878
 21
394.06815825798208
 31
0.0
  0
LINE
  5
7D71
  8
0
 10
482.51948035797898
 20
441.9910602579821
 30
0.0
 11
466.01948035797892
 21
441.9910602579821
 31
0.0
  0
LINE
  5
7D72
  8
0
 10
485.51948035797909
 20
431.81176825798212
 30
0.0
 11
468.01948035797909
 21
431.81176825798212
 31
0.0
  0
LINE
  5
7D73
  8
0
 10
485.51948035797909
 20
419.52448725798212
 30
0.0
 11
468.01948035797909
 21
419.52448725798212
 31
0.0
  0
LINE
  5
7D74
  8
0
 10
466.01948035797892
 20
440.99106025798199
 30
0.0
 11
466.01948035797892
 21
421.52448725798212
 31
0.0
  0
LINE
  5
7D75
  8
0
 10
482.51948035797898
 20
441.9910602579821
 30
0.0
 11
485.51948035797909
 21
443.72311125798183
 31
0.0
  0
ARC
  5
7D76
  8
0
 10
468.01948035797909
 20
433.81176825798178
 30
0.0
 40
2.0
 50
180.0
 51
270.0
  0
ARC
  5
7D77
  8
0
 10
468.01948035797909
 20
421.52448725798212
 30
0.0
 40
2.0
 50
180.0
 51
270.0
  0
ARC
  5
7D78
  8
0
 10
468.01948035797909
 20
429.81176825798201
 30
0.0
 40
2.0
 50
90.0
 51
180.0
  0
LINE
  5
7D79
  8
0
 10
446.51947935797892
 20
425.6929702579821
 30
0.0
 11
446.51947935797892
 21
417.25431125798212
 31
0.0
  0
LINE
  5
7D7A
  8
0
 10
430.476356357979
 20
421.58869725798218
 30
0.0
 11
446.51947935797892
 21
417.25431125798212
 31
0.0
  0
ARC
  5
7D7B
  8
0
 10
465.01948035797909
 20
440.99106025798199
 30
0.0
 40
1.0
 50
0.0
 51
90.0
  0
LINE
  5
7D7C
  8
0
 10
430.476356357979
 20
421.58869725798218
 30
0.0
 11
378.51948035797921
 21
421.58869725798218
 31
0.0
  0
LINE
  5
7D7D
  8
0
 10
476.93365535797898
 20
383.42727325798211
 30
0.0
 11
285.04821335797919
 21
383.42727325798211
 31
0.0
  0
LINE
  5
7D7E
  8
0
 10
476.91306635797912
 20
384.61810325798211
 30
0.0
 11
285.05915335797908
 21
384.61810325798211
 31
0.0
  0
LINE
  5
7D7F
  8
0
 10
476.87667035797921
 20
387.13534625798212
 30
0.0
 11
285.06841735797911
 21
387.13534625798212
 31
0.0
  0
LINE
  5
7D80
  8
0
 10
476.90241835797877
 20
391.1240512579821
 30
0.0
 11
285.08036635797907
 21
391.1240512579821
 31
0.0
  0
LINE
  5
7D81
  8
0
 10
476.92544635797913
 20
396.5604042579821
 30
0.0
 11
285.09813035797907
 21
396.5604042579821
 31
0.0
  0
LINE
  5
7D82
  8
0
 10
476.85860835797911
 20
402.47287525798208
 30
0.0
 11
285.10379835797897
 21
402.47287525798208
 31
0.0
  0
LINE
  5
7D83
  8
0
 10
430.476356357979
 20
555.55124125798216
 30
0.0
 11
430.476356357979
 21
541.57376625798213
 31
0.0
  0
LINE
  5
7D84
  8
0
 10
446.51947935797892
 20
560.15110325798196
 30
0.0
 11
446.51947935797892
 21
557.56655325798215
 31
0.0
  0
LINE
  5
7D85
  8
0
 10
417.01948035797881
 20
510.53376625798199
 30
0.0
 11
480.51948035797909
 21
510.53376625798199
 31
0.0
  0
LINE
  5
7D86
  8
0
 10
417.01948035797881
 20
510.04376625798199
 30
0.0
 11
478.7594803579791
 21
510.04376625798199
 31
0.0
  0
LINE
  5
7D87
  8
0
 10
417.01948035797881
 20
508.44376625798202
 30
0.0
 11
478.7594803579791
 21
508.44376625798202
 31
0.0
  0
LINE
  5
7D88
  8
0
 10
417.01948035797881
 20
507.89376625798212
 30
0.0
 11
480.51948035797909
 21
507.89376625798212
 31
0.0
  0
LINE
  5
7D89
  8
0
 10
417.01948035797881
 20
455.53376625798199
 30
0.0
 11
480.51948035797909
 21
455.53376625798199
 31
0.0
  0
LINE
  5
7D8A
  8
0
 10
417.01948035797881
 20
455.04376625798199
 30
0.0
 11
478.7594803579791
 21
455.04376625798199
 31
0.0
  0
LINE
  5
7D8B
  8
0
 10
417.01948035797881
 20
453.44376625798179
 30
0.0
 11
478.7594803579791
 21
453.44376625798179
 31
0.0
  0
LINE
  5
7D8C
  8
0
 10
417.01948035797881
 20
452.89376625798218
 30
0.0
 11
480.51948035797909
 21
452.89376625798218
 31
0.0
  0
LINE
  5
7D8D
  8
0
 10
417.01948035797881
 20
485.89376625798218
 30
0.0
 11
480.51948035797909
 21
485.89376625798218
 31
0.0
  0
LINE
  5
7D8E
  8
0
 10
417.01948035797881
 20
486.44376625798202
 30
0.0
 11
478.7594803579791
 21
486.44376625798202
 31
0.0
  0
LINE
  5
7D8F
  8
0
 10
417.01948035797881
 20
466.53376625798199
 30
0.0
 11
480.51948035797909
 21
466.53376625798199
 31
0.0
  0
LINE
  5
7D90
  8
0
 10
417.01948035797881
 20
466.04376625798221
 30
0.0
 11
478.7594803579791
 21
466.04376625798221
 31
0.0
  0
LINE
  5
7D91
  8
0
 10
417.01948035797881
 20
464.44376625798208
 30
0.0
 11
478.7594803579791
 21
464.44376625798208
 31
0.0
  0
LINE
  5
7D92
  8
0
 10
417.01948035797881
 20
463.89376625798212
 30
0.0
 11
480.51948035797909
 21
463.89376625798212
 31
0.0
  0
LINE
  5
7D93
  8
0
 10
417.01948035797881
 20
477.53376625798199
 30
0.0
 11
480.51948035797909
 21
477.53376625798199
 31
0.0
  0
LINE
  5
7D94
  8
0
 10
417.01948035797881
 20
477.0437662579821
 30
0.0
 11
478.7594803579791
 21
477.0437662579821
 31
0.0
  0
LINE
  5
7D95
  8
0
 10
417.01948035797881
 20
475.44376625798202
 30
0.0
 11
478.7594803579791
 21
475.44376625798202
 31
0.0
  0
LINE
  5
7D96
  8
0
 10
417.01948035797881
 20
474.89376625798201
 30
0.0
 11
480.51948035797909
 21
474.89376625798201
 31
0.0
  0
LINE
  5
7D97
  8
0
 10
417.01948035797881
 20
499.53376625798199
 30
0.0
 11
480.51948035797909
 21
499.53376625798199
 31
0.0
  0
LINE
  5
7D98
  8
0
 10
417.01948035797881
 20
499.0437662579821
 30
0.0
 11
478.7594803579791
 21
499.0437662579821
 31
0.0
  0
LINE
  5
7D99
  8
0
 10
417.01948035797881
 20
497.44376625798208
 30
0.0
 11
478.7594803579791
 21
497.44376625798208
 31
0.0
  0
LINE
  5
7D9A
  8
0
 10
417.01948035797881
 20
496.89376625798212
 30
0.0
 11
480.51948035797909
 21
496.89376625798212
 31
0.0
  0
LINE
  5
7D9B
  8
0
 10
417.01948035797881
 20
488.53376625798211
 30
0.0
 11
480.51948035797909
 21
488.53376625798211
 31
0.0
  0
LINE
  5
7D9C
  8
0
 10
417.01948035797881
 20
488.04376625798199
 30
0.0
 11
478.7594803579791
 21
488.04376625798199
 31
0.0
  0
LINE
  5
7D9D
  8
AM_0
  6
AM_ISO08W050
 10
152.43300504946359
 20
481.71376625798212
 30
0.0
 11
529.63136574942382
 21
481.71376625798212
 31
0.0
  0
LINE
  5
7D9E
  8
0
 10
482.51948035797898
 20
393.71376625798212
 30
0.0
 11
482.51948035797898
 21
419.52448725798212
 31
0.0
  0
LINE
  5
7D9F
  8
0
 10
479.94849135797909
 20
393.71376625798212
 30
0.0
 11
482.51948035797898
 21
393.71376625798212
 31
0.0
  0
LINE
  5
7DA0
  8
0
 10
480.51948035797909
 20
541.57376625798213
 30
0.0
 11
478.7594803579791
 21
541.01376625798196
 31
0.0
  0
LINE
  5
7DA1
  8
0
 10
478.7594803579791
 20
539.41376625798205
 30
0.0
 11
480.51948035797909
 21
538.87376625798208
 31
0.0
  0
LINE
  5
7DA2
  8
0
 10
480.51948035797909
 20
538.87376625798208
 30
0.0
 11
480.51948035797909
 21
541.57376625798213
 31
0.0
  0
LINE
  5
7DA3
  8
0
 10
478.7594803579791
 20
539.41376625798205
 30
0.0
 11
478.7594803579791
 21
541.01376625798196
 31
0.0
  0
LINE
  5
7DA4
  8
0
 10
480.51948035797909
 20
533.52876625798217
 30
0.0
 11
478.7594803579791
 21
532.98876625798175
 31
0.0
  0
LINE
  5
7DA5
  8
0
 10
478.7594803579791
 20
531.38876625798196
 30
0.0
 11
480.51948035797909
 21
530.89876625798195
 31
0.0
  0
LINE
  5
7DA6
  8
0
 10
478.7594803579791
 20
531.38876625798196
 30
0.0
 11
478.7594803579791
 21
532.98876625798175
 31
0.0
  0
LINE
  5
7DA7
  8
0
 10
480.51948035797909
 20
530.89876625798195
 30
0.0
 11
480.51948035797909
 21
533.52876625798217
 31
0.0
  0
LINE
  5
7DA8
  8
0
 10
415.51948035797898
 20
541.83795325798201
 30
0.0
 11
413.89757135797907
 21
558.90369625798212
 31
0.0
  0
LINE
  5
7DA9
  8
0
 10
415.51948035797898
 20
548.37888925798211
 30
0.0
 11
413.89895735797899
 21
564.91025725798215
 31
0.0
  0
LINE
  5
7DAA
  8
0
 10
166.57801335797899
 20
547.04573625798196
 30
0.0
 11
171.5791113579792
 21
575.40834625798209
 31
0.0
  0
LINE
  5
7DAB
  8
0
 10
174.299326357979
 20
572.27950125798213
 30
0.0
 11
174.299326357979
 21
483.391654257982
 31
0.0
  0
ARC
  5
7DAC
  8
0
 10
175.5183513579791
 20
574.71376625798212
 30
0.0
 40
4.0
 50
90.0
 51
170.00018300000349
  0
LINE
  5
7DAD
  8
0
 10
166.51948035797909
 20
539.31374225798208
 30
0.0
 11
166.51948035797909
 21
453.00273825798212
 31
0.0
  0
ARC
  5
7DAE
  8
0
 10
167.51948035797909
 20
543.71376625798212
 30
0.0
 40
3.0
 50
118.7876889999938
 51
180.0
  0
LINE
  5
7DAF
  8
0
 10
164.51948035797909
 20
543.71376625798212
 30
0.0
 11
164.51948035797909
 21
431.8620522579821
 31
0.0
  0
LINE
  5
7DB0
  8
0
 10
174.299326357979
 20
471.53314125798198
 30
0.0
 11
174.299326357979
 21
400.70180325798208
 31
0.0
  0
LINE
  5
7DB1
  8
0
 10
168.2074993579792
 20
407.1404442579821
 30
0.0
 11
169.8158363579789
 21
398.01918625798208
 31
0.0
  0
ARC
  5
7DB2
  8
0
 10
173.75507635797911
 20
398.71376625798212
 30
0.0
 40
4.0
 50
189.99983199999551
 51
270.0
  0
ARC
  5
7DB4
  8
0
 10
165.59321035797899
 20
547.219442257982
 30
0.0
 40
1.0
 50
298.7879640000001
 51
350.00021400000242
  0
LINE
  5
7DB5
  8
0
 10
168.57684535797921
 20
474.74978825798189
 30
0.0
 11
161.53281635797899
 21
400.29198525798211
 31
0.0
  0
LINE
  5
7DB6
  8
0
 10
174.5501743579791
 20
474.18468525798198
 30
0.0
 11
167.50614435797911
 21
399.72688225798208
 31
0.0
  0
ARC
  5
7DB7
  8
0
 10
179.52794835797911
 20
473.713766257982
 30
0.0
 40
5.0
 50
90.0
 51
174.5956570000011
  0
ARC
  5
7DB8
  8
0
 10
179.52794835797911
 20
473.713766257982
 30
0.0
 40
11.0
 50
90.0
 51
174.5956570000011
  0
ARC
  5
7DB9
  8
0
 10
164.51948035797909
 20
400.0094332579821
 30
0.0
 40
3.0
 50
174.5956570000011
 51
354.5956570000011
  0
ARC
  5
7DBA
  8
0
 10
164.51948035797909
 20
400.0094332579821
 30
0.0
 40
3.799999999999998
 50
220.00000000000131
 51
32.140571999997661
  0
LINE
  5
7DBB
  8
0
 10
159.13572735797899
 20
401.36626125798199
 30
0.0
 11
161.55027035797909
 21
397.64557525798222
 31
0.0
  0
LINE
  5
7DBC
  8
0
 10
159.75319035797901
 20
401.88437425798207
 30
0.0
 11
162.22134735797911
 21
398.08107025798211
 31
0.0
  0
LINE
  5
7DBD
  8
0
 10
159.75319035797901
 20
401.88437425798207
 30
0.0
 11
159.13572735797899
 21
401.36626125798199
 31
0.0
  0
LINE
  5
7DBE
  8
0
 10
282.78415935797909
 20
555.55124125798216
 30
0.0
 11
281.51948035797921
 21
555.55124125798216
 31
0.0
  0
LINE
  5
7DBF
  8
0
 10
281.51948035797921
 20
541.57376625798213
 30
0.0
 11
283.27948035797908
 21
541.01376625798196
 31
0.0
  0
LINE
  5
7DC0
  8
0
 10
283.27948035797908
 20
539.41376625798205
 30
0.0
 11
281.51948035797921
 21
538.87376625798208
 31
0.0
  0
LINE
  5
7DC1
  8
0
 10
281.51948035797921
 20
533.52876625798217
 30
0.0
 11
283.27948035797908
 21
532.98876625798175
 31
0.0
  0
LINE
  5
7DC2
  8
0
 10
283.27948035797908
 20
531.38876625798196
 30
0.0
 11
281.51948035797921
 21
530.89876625798195
 31
0.0
  0
LINE
  5
7DC3
  8
0
 10
281.51948035797921
 20
538.87376625798208
 30
0.0
 11
281.51948035797921
 21
541.57376625798213
 31
0.0
  0
LINE
  5
7DC4
  8
0
 10
283.27948035797908
 20
539.41376625798205
 30
0.0
 11
283.27948035797908
 21
541.01376625798196
 31
0.0
  0
LINE
  5
7DC5
  8
0
 10
283.27948035797908
 20
531.38876625798196
 30
0.0
 11
283.27948035797908
 21
532.98876625798175
 31
0.0
  0
LINE
  5
7DC6
  8
0
 10
281.51948035797921
 20
530.89876625798195
 30
0.0
 11
281.51948035797921
 21
533.52876625798217
 31
0.0
  0
LINE
  5
7DC7
  8
0
 10
328.01948035797909
 20
449.21376625798189
 30
0.0
 11
328.01948035797909
 21
514.21376625798212
 31
0.0
  0
LINE
  5
7DC8
  8
0
 10
327.51948035797909
 20
509.71376625798212
 30
0.0
 11
327.51948035797909
 21
499.71376625798212
 31
0.0
  0
ARC
  5
7DC9
  8
0
 10
328.02002735797907
 20
509.71321925798179
 30
0.0
 40
0.5005470000000001
 50
90.0626249999995
 51
179.93737500000049
  0
ARC
  5
7DCA
  8
0
 10
331.51997935797908
 20
514.21326725798212
 30
0.0
 40
3.5004989999999978
 50
90.008164000007696
 51
179.99183599999881
  0
LINE
  5
7DCB
  8
0
 10
332.43948035797911
 20
515.61376625798209
 30
0.0
 11
400.14948035797909
 21
515.61376625798209
 31
0.0
  0
LINE
  5
7DCC
  8
0
 10
332.43948035797911
 20
515.61376625798209
 30
0.0
 11
332.43948035797911
 21
517.70876625798212
 31
0.0
  0
LINE
  5
7DCD
  8
0
 10
331.51948035797921
 20
517.71376625798212
 30
0.0
 11
415.01948035797909
 21
517.71376625798212
 31
0.0
  0
LINE
  5
7DCE
  8
0
 10
400.14948035797909
 20
515.61376625798209
 30
0.0
 11
410.4194803579789
 21
505.343766257982
 31
0.0
  0
LINE
  5
7DCF
  8
0
 10
402.03948035797879
 20
516.68376625798214
 30
0.0
 11
411.48948035797912
 21
507.2337662579821
 31
0.0
  0
CIRCLE
  5
7DD0
  8
0
 10
411.51948035797898
 20
512.71376625798212
 30
0.0
 40
3.5
  0
CIRCLE
  5
7DD1
  8
0
 10
411.51948035797898
 20
512.71376625798212
 30
0.0
 40
3.299999999999998
  0
LINE
  5
7DD2
  8
0
 10
412.94948035797859
 20
513.38920525798187
 30
0.0
 11
414.52961735797868
 21
513.38920525798187
 31
0.0
  0
LINE
  5
7DD3
  8
0
 10
412.94948035797859
 20
512.03832725798213
 30
0.0
 11
414.52961735797868
 21
512.03832725798213
 31
0.0
  0
LINE
  5
7DD4
  8
0
 10
408.28934335797908
 20
513.16920525798196
 30
0.0
 11
408.28934335797908
 21
512.25832725798205
 31
0.0
  0
ARC
  5
7DD5
  8
0
 10
408.50934335797911
 20
512.25832725798205
 30
0.0
 40
0.22
 50
180.0
 51
270.0
  0
LINE
  5
7DD6
  8
0
 10
412.94948035797859
 20
512.03832725798213
 30
0.0
 11
412.28948035797879
 21
512.03832725798213
 31
0.0
  0
ARC
  5
7DD7
  8
0
 10
412.94948035797859
 20
512.25832725798205
 30
0.0
 40
0.22
 50
270.0
 51
0.0
  0
LINE
  5
7DD8
  8
0
 10
412.06948035797859
 20
511.28376625798199
 30
0.0
 11
412.06948035797859
 21
511.81832725798211
 31
0.0
  0
LINE
  5
7DD9
  8
0
 10
410.96948035797908
 20
511.28376625798199
 30
0.0
 11
410.96948035797908
 21
511.81832725798211
 31
0.0
  0
LINE
  5
7DDA
  8
0
 10
410.74948035797911
 20
512.03832725798213
 30
0.0
 11
410.08948035797908
 21
512.03832725798213
 31
0.0
  0
ARC
  5
7DDB
  8
0
 10
410.08948035797908
 20
512.25832725798205
 30
0.0
 40
0.22
 50
180.0
 51
270.0
  0
ARC
  5
7DDC
  8
0
 10
412.28948035797879
 20
511.81832725798211
 30
0.0
 40
0.22
 50
90.0
 51
180.0
  0
ARC
  5
7DDD
  8
0
 10
410.74948035797911
 20
511.81832725798211
 30
0.0
 40
0.22
 50
0.0
 51
90.0
  0
LINE
  5
7DDE
  8
0
 10
411.1894803579786
 20
511.0637662579818
 30
0.0
 11
411.84948035797908
 21
511.0637662579818
 31
0.0
  0
ARC
  5
7DDF
  8
0
 10
411.1894803579786
 20
511.28376625798199
 30
0.0
 40
0.22
 50
180.0
 51
270.0
  0
ARC
  5
7DE0
  8
0
 10
411.84948035797908
 20
511.28376625798199
 30
0.0
 40
0.22
 50
270.0
 51
0.0
  0
LINE
  5
7DE1
  8
0
 10
410.08948035797908
 20
512.03832725798213
 30
0.0
 11
408.50934335797911
 21
512.03832725798213
 31
0.0
  0
LINE
  5
7DE2
  8
0
 10
412.28948035797879
 20
513.38920525798187
 30
0.0
 11
412.94948035797859
 21
513.38920525798187
 31
0.0
  0
ARC
  5
7DE3
  8
0
 10
412.94948035797859
 20
513.16920525798196
 30
0.0
 40
0.22
 50
0.0
 51
90.0
  0
ARC
  5
7DE4
  8
0
 10
411.1894803579786
 20
514.14376625798207
 30
0.0
 40
0.22
 50
90.0
 51
180.0
  0
ARC
  5
7DE5
  8
0
 10
411.84948035797908
 20
514.14376625798207
 30
0.0
 40
0.22
 50
0.0
 51
90.0
  0
LINE
  5
7DE6
  8
0
 10
410.08948035797908
 20
513.38920525798187
 30
0.0
 11
408.50934335797911
 21
513.38920525798187
 31
0.0
  0
ARC
  5
7DE7
  8
0
 10
412.28948035797879
 20
513.60920525798213
 30
0.0
 40
0.22
 50
180.0
 51
270.0
  0
ARC
  5
7DE8
  8
0
 10
410.74948035797911
 20
513.60920525798213
 30
0.0
 40
0.22
 50
270.0
 51
0.0
  0
LINE
  5
7DE9
  8
0
 10
410.08948035797908
 20
513.38920525798187
 30
0.0
 11
410.74948035797911
 21
513.38920525798187
 31
0.0
  0
ARC
  5
7DEA
  8
0
 10
410.08948035797908
 20
513.16920525798196
 30
0.0
 40
0.22
 50
90.0
 51
180.0
  0
LINE
  5
7DEB
  8
0
 10
412.06948035797859
 20
514.14376625798207
 30
0.0
 11
412.06948035797859
 21
513.60920525798213
 31
0.0
  0
LINE
  5
7DEC
  8
0
 10
410.96948035797908
 20
513.60920525798213
 30
0.0
 11
410.96948035797908
 21
514.14376625798207
 31
0.0
  0
LINE
  5
7DED
  8
0
 10
411.1894803579786
 20
514.36376625798209
 30
0.0
 11
411.84948035797908
 21
514.36376625798209
 31
0.0
  0
ARC
  5
7DEE
  8
0
 10
408.50934335797911
 20
513.16920525798196
 30
0.0
 40
0.22
 50
90.0
 51
180.0
  0
LINE
  5
7DEF
  8
0
 10
409.86948035797911
 20
512.25832725798205
 30
0.0
 11
409.86948035797911
 21
513.16920525798196
 31
0.0
  0
LINE
  5
7DF0
  8
0
 10
413.16948035797878
 20
512.25832725798205
 30
0.0
 11
413.16948035797878
 21
513.16920525798196
 31
0.0
  0
ARC
  5
7DF1
  8
0
 10
399.5574353579791
 20
514.20827825798176
 30
0.0
 40
3.5055079999999998
 50
44.924209000004467
 51
89.803122999998919
  0
LINE
  5
7DF2
  8
0
 10
417.01948035797881
 20
515.71376625798189
 30
0.0
 11
417.01948035797881
 21
508.21376625798212
 31
0.0
  0
ARC
  5
7DF3
  8
0
 10
414.52961735797868
 20
512.25832725798205
 30
0.0
 40
0.22
 50
270.0
 51
0.0
  0
ARC
  5
7DF4
  8
0
 10
414.52961735797868
 20
513.16920525798196
 30
0.0
 40
0.22
 50
0.0
 51
90.0
  0
LINE
  5
7DF5
  8
0
 10
414.74961735797888
 20
512.25832725798205
 30
0.0
 11
414.74961735797888
 21
513.16920525798196
 31
0.0
  0
ARC
  5
7DF6
  8
0
 10
415.01948035797909
 20
515.71376625798189
 30
0.0
 40
2.0
 50
0.0
 51
90.0
  0
LINE
  5
7DF7
  8
0
 10
410.4194803579789
 20
505.343766257982
 30
0.0
 11
410.4194803579789
 21
458.08376625798212
 31
0.0
  0
LINE
  5
7DF8
  8
0
 10
412.51948035797881
 20
504.76376625798213
 30
0.0
 11
412.51948035797881
 21
458.66376625798199
 31
0.0
  0
ARC
  5
7DF9
  8
0
 10
414.51948035797909
 20
504.21376625798212
 30
0.0
 40
2.0
 50
90.0
 51
180.0
  0
ARC
  5
7DFA
  8
0
 10
409.01447635797899
 20
504.75192225798202
 30
0.0
 40
3.5050239999999979
 50
0.1936059999989343
 51
45.079061999998238
  0
ARC
  5
7DFB
  8
0
 10
415.01948035797909
 20
508.21376625798212
 30
0.0
 40
2.0
 50
270.0
 51
0.0
  0
LINE
  5
7DFC
  8
0
 10
415.01948035797909
 20
506.21376625798212
 30
0.0
 11
414.51948035797909
 21
506.21376625798212
 31
0.0
  0
ARC
  5
7DFD
  8
0
 10
412.51197135797878
 20
486.70625725798197
 30
0.0
 40
0.507564
 50
0.8476510000018827
 51
89.152348999991545
  0
LINE
  5
7DFE
  8
0
 10
413.01948035797869
 20
486.71376625798189
 30
0.0
 11
413.01948035797869
 21
476.71376625798212
 31
0.0
  0
ARC
  5
7DFF
  8
0
 10
412.51991435797908
 20
476.71333225798202
 30
0.0
 40
0.499566
 50
269.9501849999923
 51
0.0498150000011599
  0
LINE
  5
7E00
  8
0
 10
411.48948035797912
 20
456.18376625798197
 30
0.0
 11
402.03948035797879
 21
446.73376625798198
 31
0.0
  0
LINE
  5
7E01
  8
0
 10
410.4194803579789
 20
458.08376625798212
 30
0.0
 11
400.14948035797909
 21
447.81376625798202
 31
0.0
  0
ARC
  5
7E02
  8
0
 10
414.51948035797909
 20
459.21376625798212
 30
0.0
 40
2.0
 50
180.0
 51
270.0
  0
ARC
  5
7E03
  8
0
 10
409.01622535797912
 20
458.66485625798208
 30
0.0
 40
3.5032559999999981
 50
314.90939599999712
 51
359.98217400000141
  0
LINE
  5
7E04
  8
0
 10
408.28934335797908
 20
451.16920525798201
 30
0.0
 11
408.28934335797908
 21
450.2583272579821
 31
0.0
  0
ARC
  5
7E05
  8
0
 10
411.84948035797908
 20
452.14376625798201
 30
0.0
 40
0.22
 50
0.0
 51
90.0
  0
ARC
  5
7E06
  8
0
 10
411.1894803579786
 20
452.14376625798201
 30
0.0
 40
0.22
 50
90.0
 51
180.0
  0
LINE
  5
7E07
  8
0
 10
411.1894803579786
 20
452.36376625798209
 30
0.0
 11
411.84948035797908
 21
452.36376625798209
 31
0.0
  0
LINE
  5
7E08
  8
0
 10
412.94948035797859
 20
451.38920525798198
 30
0.0
 11
414.52961735797868
 21
451.38920525798198
 31
0.0
  0
ARC
  5
7E09
  8
0
 10
408.50934335797911
 20
451.16920525798201
 30
0.0
 40
0.22
 50
90.0
 51
180.0
  0
ARC
  5
7E0A
  8
0
 10
414.52961735797868
 20
451.16920525798201
 30
0.0
 40
0.22
 50
0.0
 51
90.0
  0
ARC
  5
7E0B
  8
0
 10
410.74948035797911
 20
451.60920525798201
 30
0.0
 40
0.22
 50
270.0
 51
0.0
  0
ARC
  5
7E0C
  8
0
 10
412.28948035797879
 20
451.60920525798201
 30
0.0
 40
0.22
 50
180.0
 51
270.0
  0
LINE
  5
7E0D
  8
0
 10
412.94948035797859
 20
451.38920525798198
 30
0.0
 11
412.28948035797879
 21
451.38920525798198
 31
0.0
  0
ARC
  5
7E0E
  8
0
 10
410.08948035797908
 20
451.16920525798201
 30
0.0
 40
0.22
 50
90.0
 51
180.0
  0
LINE
  5
7E0F
  8
0
 10
410.08948035797908
 20
451.38920525798198
 30
0.0
 11
408.50934335797911
 21
451.38920525798198
 31
0.0
  0
LINE
  5
7E10
  8
0
 10
410.74948035797911
 20
451.38920525798198
 30
0.0
 11
410.08948035797908
 21
451.38920525798198
 31
0.0
  0
ARC
  5
7E11
  8
0
 10
412.94948035797859
 20
451.16920525798201
 30
0.0
 40
0.22
 50
0.0
 51
90.0
  0
LINE
  5
7E12
  8
0
 10
410.96948035797908
 20
452.14376625798201
 30
0.0
 11
410.96948035797908
 21
451.60920525798201
 31
0.0
  0
LINE
  5
7E13
  8
0
 10
412.06948035797859
 20
452.14376625798201
 30
0.0
 11
412.06948035797859
 21
451.60920525798201
 31
0.0
  0
LINE
  5
7E14
  8
0
 10
412.94948035797859
 20
450.03832725798208
 30
0.0
 11
414.52961735797868
 21
450.03832725798208
 31
0.0
  0
ARC
  5
7E15
  8
0
 10
408.50934335797911
 20
450.2583272579821
 30
0.0
 40
0.22
 50
180.0
 51
270.0
  0
LINE
  5
7E16
  8
0
 10
410.96948035797908
 20
449.81832725798199
 30
0.0
 11
410.96948035797908
 21
449.28376625798199
 31
0.0
  0
LINE
  5
7E17
  8
0
 10
412.06948035797859
 20
449.28376625798199
 30
0.0
 11
412.06948035797859
 21
449.81832725798199
 31
0.0
  0
ARC
  5
7E18
  8
0
 10
411.1894803579786
 20
449.28376625798199
 30
0.0
 40
0.22
 50
180.0
 51
270.0
  0
ARC
  5
7E19
  8
0
 10
411.84948035797908
 20
449.28376625798199
 30
0.0
 40
0.22
 50
270.0
 51
0.0
  0
LINE
  5
7E1A
  8
0
 10
411.1894803579786
 20
449.06376625798202
 30
0.0
 11
411.84948035797908
 21
449.06376625798202
 31
0.0
  0
LINE
  5
7E1B
  8
0
 10
412.28948035797879
 20
450.03832725798208
 30
0.0
 11
412.94948035797859
 21
450.03832725798208
 31
0.0
  0
ARC
  5
7E1C
  8
0
 10
410.08948035797908
 20
450.2583272579821
 30
0.0
 40
0.22
 50
180.0
 51
270.0
  0
LINE
  5
7E1D
  8
0
 10
410.08948035797908
 20
450.03832725798208
 30
0.0
 11
408.50934335797911
 21
450.03832725798208
 31
0.0
  0
LINE
  5
7E1E
  8
0
 10
410.08948035797908
 20
450.03832725798208
 30
0.0
 11
410.74948035797911
 21
450.03832725798208
 31
0.0
  0
ARC
  5
7E1F
  8
0
 10
412.94948035797859
 20
450.2583272579821
 30
0.0
 40
0.22
 50
270.0
 51
0.0
  0
ARC
  5
7E20
  8
0
 10
410.74948035797911
 20
449.81832725798199
 30
0.0
 40
0.22
 50
0.0
 51
90.0
  0
ARC
  5
7E21
  8
0
 10
412.28948035797879
 20
449.81832725798199
 30
0.0
 40
0.22
 50
90.0
 51
180.0
  0
ARC
  5
7E22
  8
0
 10
414.52961735797868
 20
450.2583272579821
 30
0.0
 40
0.22
 50
270.0
 51
0.0
  0
LINE
  5
7E23
  8
0
 10
413.16948035797878
 20
451.16920525798201
 30
0.0
 11
413.16948035797878
 21
450.2583272579821
 31
0.0
  0
LINE
  5
7E24
  8
0
 10
414.74961735797888
 20
451.16920525798201
 30
0.0
 11
414.74961735797888
 21
450.2583272579821
 31
0.0
  0
LINE
  5
7E25
  8
0
 10
409.86948035797911
 20
451.16920525798201
 30
0.0
 11
409.86948035797911
 21
450.2583272579821
 31
0.0
  0
CIRCLE
  5
7E26
  8
0
 10
411.51948035797898
 20
450.71376625798212
 30
0.0
 40
3.299999999999998
  0
CIRCLE
  5
7E27
  8
0
 10
411.51948035797898
 20
450.71376625798212
 30
0.0
 40
3.5
  0
ARC
  5
7E28
  8
0
 10
415.01948035797909
 20
455.21376625798212
 30
0.0
 40
2.0
 50
0.0
 51
90.0
  0
LINE
  5
7E29
  8
0
 10
417.01948035797881
 20
447.71376625798212
 30
0.0
 11
417.01948035797881
 21
455.21376625798212
 31
0.0
  0
LINE
  5
7E2A
  8
0
 10
415.01948035797909
 20
457.213766257982
 30
0.0
 11
414.51948035797909
 21
457.213766257982
 31
0.0
  0
ARC
  5
7E2B
  8
0
 10
415.01948035797909
 20
447.71376625798212
 30
0.0
 40
2.0
 50
270.0
 51
0.0
  0
LINE
  5
7E2C
  8
0
 10
400.14948035797909
 20
447.81376625798202
 30
0.0
 11
332.43948035797911
 21
447.81376625798202
 31
0.0
  0
LINE
  5
7E2D
  8
0
 10
331.51948035797921
 20
445.71376625798212
 30
0.0
 11
415.01948035797909
 21
445.71376625798212
 31
0.0
  0
ARC
  5
7E2E
  8
0
 10
399.57154035797919
 20
449.20941425798202
 30
0.0
 40
3.495648999999998
 50
269.96623299999862
 51
314.91065800000263
  0
LINE
  5
7E2F
  8
0
 10
332.43948035797911
 20
447.81376625798202
 30
0.0
 11
332.43948035797911
 21
445.71376625798212
 31
0.0
  0
LINE
  5
7E30
  8
0
 10
327.51948035797909
 20
463.71376625798212
 30
0.0
 11
327.51948035797909
 21
453.71376625798212
 31
0.0
  0
ARC
  5
7E31
  8
0
 10
328.02002735797907
 20
463.7132192579819
 30
0.0
 40
0.5005470000000001
 50
90.0626249999995
 51
179.93737500000049
  0
ARC
  5
7E32
  8
0
 10
328.01212435797908
 20
453.7064102579821
 30
0.0
 40
0.492699
 50
179.14456000000379
 51
270.85544000000289
  0
ARC
  5
7E33
  8
0
 10
331.51212435797908
 20
449.20641025798221
 30
0.0
 40
3.4926519999999979
 50
179.87932800000161
 51
270.12067199999188
  0
ARC
  5
7E34
  8
0
 10
328.01197235797912
 20
499.70625825798209
 30
0.0
 40
0.492549
 50
179.12656200000259
 51
270.87343799999729
  0
LINE
  5
7E35
  8
0
 10
281.51948035797921
 20
520.43320125798175
 30
0.0
 11
414.01948035797909
 21
520.43320125798175
 31
0.0
  0
LINE
  5
7E36
  8
0
 10
289.8894803579791
 20
519.58142825798211
 30
0.0
 11
339.51948035797921
 21
519.58142825798211
 31
0.0
  0
LINE
  5
7E37
  8
0
 10
281.51948035797921
 20
520.43320125798175
 30
0.0
 11
289.8894803579791
 21
519.58142825798211
 31
0.0
  0
LINE
  5
7E38
  8
0
 10
288.19458635797901
 20
442.99433125798208
 30
0.0
 11
414.01948035797909
 21
442.99433125798208
 31
0.0
  0
LINE
  5
7E39
  8
0
 10
289.8894803579791
 20
443.84610425798212
 30
0.0
 11
339.51948035797921
 21
443.84610425798212
 31
0.0
  0
LINE
  5
7E3A
  8
0
 10
281.51948035797921
 20
447.35497725798211
 30
0.0
 11
281.51948035797921
 21
520.43320125798175
 31
0.0
  0
LINE
  5
7E3B
  8
0
 10
286.98265635797901
 20
443.550291257982
 30
0.0
 11
289.8894803579791
 21
443.84610425798212
 31
0.0
  0
LINE
  5
7E3C
  8
0
 10
289.8894803579791
 20
443.84610425798212
 30
0.0
 11
289.8894803579791
 21
519.58142825798211
 31
0.0
  0
ARC
  5
7E3D
  8
0
 10
414.01948035797909
 20
517.43320125798209
 30
0.0
 40
3.0
 50
0.0
 51
90.0
  0
LINE
  5
7E3E
  8
0
 10
417.01948035797881
 20
517.43320125798209
 30
0.0
 11
417.01948035797881
 21
445.99433125798203
 31
0.0
  0
ARC
  5
7E3F
  8
0
 10
414.01948035797909
 20
445.99433125798203
 30
0.0
 40
3.0
 50
270.0
 51
0.0
  0
LINE
  5
7E40
  8
0
 10
343.01948035797909
 20
519.21376625798212
 30
0.0
 11
414.01948035797909
 21
519.21376625798212
 31
0.0
  0
LINE
  5
7E41
  8
0
 10
340.51948035797909
 20
518.58142825798211
 30
0.0
 11
340.51948035797909
 21
517.71376625798212
 31
0.0
  0
ARC
  5
7E42
  8
0
 10
343.0142073579791
 20
517.21903925798176
 30
0.0
 40
1.994734
 50
89.848548000005621
 51
165.6398230000004
  0
ARC
  5
7E43
  8
0
 10
339.51948035797921
 20
518.58142825798211
 30
0.0
 40
1.0
 50
0.0
 51
90.0
  0
ARC
  5
7E44
  8
0
 10
414.01894835797879
 20
517.21323425798198
 30
0.0
 40
2.0005329999999999
 50
6.916432000000996
 51
89.984749999991735
  0
ARC
  5
7E45
  8
0
 10
339.51948035797921
 20
444.84610425798212
 30
0.0
 40
1.0
 50
270.0
 51
0.0
  0
ARC
  5
7E46
  8
0
 10
343.0142073579791
 20
446.20849325798213
 30
0.0
 40
1.994734
 50
194.36017699999951
 51
270.15145199999438
  0
LINE
  5
7E47
  8
0
 10
343.01948035797909
 20
444.21376625798212
 30
0.0
 11
414.01948035797909
 21
444.21376625798212
 31
0.0
  0
ARC
  5
7E48
  8
0
 10
414.01894835797879
 20
446.21429825798208
 30
0.0
 40
2.0005329999999999
 50
270.01524999999521
 51
353.08356799999899
  0
LINE
  5
7E49
  8
0
 10
279.01948035797909
 20
565.33406325798205
 30
0.0
 11
281.796239357979
 21
565.33406325798205
 31
0.0
  0
LINE
  5
7E4A
  8
AM_0
 10
262.51948035797909
 20
492.41316725798208
 30
0.0
 11
262.51948035797909
 21
470.73076625798211
 31
0.0
  0
LINE
  5
7E4B
  8
0
 10
248.01948035797909
 20
484.21376625798212
 30
0.0
 11
279.01948035797909
 21
484.21376625798212
 31
0.0
  0
ARC
  5
7E4C
  8
0
 10
262.51948035797909
 20
481.71376625798212
 30
0.0
 40
9.0
 50
16.127620000002828
 51
163.87239099999641
  0
ARC
  5
7E4D
  8
0
 10
262.51948035797909
 20
481.71376625798212
 30
0.0
 40
5.5
 50
27.03569200000009
 51
152.9643079999999
  0
LINE
  5
7E4E
  8
0
 10
248.01948035797909
 20
479.21376625798212
 30
0.0
 11
279.01948035797909
 21
479.21376625798212
 31
0.0
  0
ARC
  5
7E4F
  8
0
 10
262.51948035797909
 20
481.71376625798212
 30
0.0
 40
9.0
 50
196.1276090000035
 51
343.87237999999718
  0
ARC
  5
7E50
  8
0
 10
262.51948035797909
 20
481.71376625798212
 30
0.0
 40
5.5
 50
207.0356920000001
 51
332.96430800000002
  0
LINE
  5
7E51
  8
0
 10
279.01948035797909
 20
578.71376625798212
 30
0.0
 11
279.01948035797909
 21
484.21376625798212
 31
0.0
  0
LINE
  5
7E52
  8
0
 10
248.01948035797909
 20
484.21376625798212
 30
0.0
 11
247.51948035797909
 21
484.71376625798212
 31
0.0
  0
LINE
  5
7E53
  8
0
 10
248.01948035797909
 20
479.21376625798212
 30
0.0
 11
247.51948035797909
 21
478.71376625798212
 31
0.0
  0
LINE
  5
7E54
  8
0
 10
279.01948035797909
 20
484.21376625798212
 30
0.0
 11
279.51948035797909
 21
484.71376625798212
 31
0.0
  0
LINE
  5
7E55
  8
0
 10
279.01948035797909
 20
479.21376625798212
 30
0.0
 11
279.51948035797909
 21
478.71376625798212
 31
0.0
  0
LINE
  5
7E56
  8
0
 10
279.51948035797909
 20
484.71376625798212
 30
0.0
 11
281.51948035797921
 21
484.71376625798212
 31
0.0
  0
LINE
  5
7E57
  8
0
 10
279.51948035797909
 20
478.71376625798212
 30
0.0
 11
281.51948035797921
 21
478.71376625798212
 31
0.0
  0
LINE
  5
7E58
  8
0
 10
281.51948035797921
 20
484.71376625798212
 30
0.0
 11
281.51948035797921
 21
478.71376625798212
 31
0.0
  0
LINE
  5
7E59
  8
0
 10
367.51948035797909
 20
582.71376625798212
 30
0.0
 11
389.51948035797921
 21
582.71376625798212
 31
0.0
  0
LINE
  5
7E5A
  8
0
 10
367.51948035797909
 20
582.71376625798212
 30
0.0
 11
367.51948035797909
 21
578.81048525798212
 31
0.0
  0
LINE
  5
7E5B
  8
0
 10
389.51948035797921
 20
582.71376625798212
 30
0.0
 11
389.51948035797921
 21
578.81048525798212
 31
0.0
  0
LINE
  5
7E5C
  8
0
 10
247.51948035797909
 20
478.71376625798212
 30
0.0
 11
179.52794835797911
 21
478.71376625798212
 31
0.0
  0
LINE
  5
7E5D
  8
0
 10
279.01948035797909
 20
394.71376625798212
 30
0.0
 11
173.75507635797911
 21
394.71376625798212
 31
0.0
  0
LINE
  5
7E5E
  8
0
 10
279.01948035797909
 20
578.71376625798212
 30
0.0
 11
175.5183513579791
 21
578.71376625798212
 31
0.0
  0
LINE
  5
7E5F
  8
0
 10
283.27948035797908
 20
539.41376625798205
 30
0.0
 11
478.7594803579791
 21
539.41376625798205
 31
0.0
  0
LINE
  5
7E60
  8
0
 10
283.27948035797908
 20
541.01376625798196
 30
0.0
 11
478.7594803579791
 21
541.01376625798196
 31
0.0
  0
LINE
  5
7E61
  8
0
 10
281.51948035797921
 20
538.87376625798208
 30
0.0
 11
480.51948035797909
 21
538.87376625798208
 31
0.0
  0
LINE
  5
7E62
  8
0
 10
281.51948035797921
 20
541.57376625798213
 30
0.0
 11
480.51948035797909
 21
541.57376625798213
 31
0.0
  0
LINE
  5
7E63
  8
0
 10
281.51948035797921
 20
530.89876625798195
 30
0.0
 11
480.51948035797909
 21
530.89876625798195
 31
0.0
  0
LINE
  5
7E64
  8
0
 10
281.51948035797921
 20
533.52876625798217
 30
0.0
 11
480.51948035797909
 21
533.52876625798217
 31
0.0
  0
LINE
  5
7E65
  8
0
 10
283.27948035797908
 20
531.38876625798196
 30
0.0
 11
478.7594803579791
 21
531.38876625798196
 31
0.0
  0
LINE
  5
7E66
  8
0
 10
283.27948035797908
 20
532.98876625798175
 30
0.0
 11
478.7594803579791
 21
532.98876625798175
 31
0.0
  0
LINE
  5
7E67
  8
0
 10
485.51948035797909
 20
396.71376625798212
 30
0.0
 11
482.51948035797898
 21
393.71376625798212
 31
0.0
  0
LINE
  5
7E68
  8
0
 10
485.51948035797909
 20
396.71376625798212
 30
0.0
 11
485.51948035797909
 21
566.71376625798212
 31
0.0
  0
LINE
  5
7E69
  8
0
 10
485.51948035797909
 20
566.71376625798212
 30
0.0
 11
482.51948035797898
 21
569.713766257982
 31
0.0
  0
LINE
  5
7F10
  8
0
 10
929.89245546794552
 20
519.21376625798212
 30
0.0
 11
939.51744660821134
 21
519.54987842594414
 31
0.0
  0
LINE
  5
7F11
  8
0
 10
929.89245546794552
 20
519.21376625798212
 30
0.0
 11
929.89245546794552
 21
472.28091956390449
 31
0.0
  0
LINE
  5
7F14
  8
0
 10
909.89245546794541
 20
487.21376625798212
 30
0.0
 11
909.89245546794541
 21
517.71376625798212
 31
0.0
  0
LINE
  5
7F15
  8
0
 10
905.89246546794561
 20
515.21374625798217
 30
0.0
 11
905.89246546794561
 21
448.21377025798199
 31
0.0
  0
LINE
  5
7F16
  8
0
 10
892.89245546794541
 20
445.71376225798201
 30
0.0
 11
892.89245546794541
 21
517.71376625798212
 31
0.0
  0
LINE
  5
7F17
  8
0
 10
926.89245546794564
 20
452.1244059417873
 30
0.0
 11
926.89245546794564
 21
515.21374625798217
 31
0.0
  0
LINE
  5
7F18
  8
0
 10
926.89245546794564
 20
515.21374625798217
 30
0.0
 11
929.89245546794552
 21
515.21374625798217
 31
0.0
  0
LINE
  5
7F19
  8
0
 10
892.89245546794541
 20
515.21374625798217
 30
0.0
 11
905.89246546794561
 21
515.21374625798217
 31
0.0
  0
LINE
  5
7F1A
  8
0
 10
892.89245546794541
 20
517.71376625798212
 30
0.0
 11
917.8924654679455
 21
517.71376625798212
 31
0.0
  0
LINE
  5
7F1B
  8
0
 10
917.8924654679455
 20
517.71376625798212
 30
0.0
 11
921.89245546794552
 21
515.213766257982
 31
0.0
  0
LINE
  5
7F1C
  8
0
 10
909.89245546794541
 20
515.21374625798217
 30
0.0
 11
926.89245546794564
 21
515.21374625798217
 31
0.0
  0
LINE
  5
7F1D
  8
0
 10
926.89245546794564
 20
505.34375625798202
 30
0.0
 11
892.89245546794541
 21
505.34375625798202
 31
0.0
  0
LINE
  5
7F1E
  8
0
 10
892.89245546794541
 20
458.083746257982
 30
0.0
 11
926.89245546794564
 21
458.083746257982
 31
0.0
  0
LINE
  5
7F1F
  8
0
 10
909.89245546794541
 20
448.21377025798199
 30
0.0
 11
926.31041497863498
 21
448.21377025798199
 31
0.0
  0
LINE
  5
7F20
  8
0
 10
921.36095546794559
 20
447.88156325798201
 30
0.0
 11
917.89245546794541
 21
445.71375525798209
 31
0.0
  0
LINE
  5
7F21
  8
0
 10
914.89246546794561
 20
476.21376625798212
 30
0.0
 11
914.89246546794561
 21
487.21376625798212
 31
0.0
  0
LINE
  5
7F22
  8
0
 10
892.89245546794541
 20
448.21377025798199
 30
0.0
 11
905.89246546794561
 21
448.21377025798199
 31
0.0
  0
LINE
  5
7F23
  8
0
 10
909.89245546794541
 20
445.71376225798201
 30
0.0
 11
909.89245546794541
 21
476.21376625798212
 31
0.0
  0
LINE
  5
7F24
  8
0
 10
905.89246546794561
 20
487.21376625798212
 30
0.0
 11
914.89246546794561
 21
487.21376625798212
 31
0.0
  0
LINE
  5
7F25
  8
0
 10
917.8924654679455
 20
445.71376225798201
 30
0.0
 11
892.89245546794541
 21
445.71376225798201
 31
0.0
  0
LINE
  5
7F26
  8
0
 10
905.89246546794561
 20
476.21376625798212
 30
0.0
 11
914.89246546794561
 21
476.21376625798212
 31
0.0
  0
LINE
  5
8E15
  8
0
 10
537.01956835360238
 20
419.52448725798212
 30
0.0
 11
485.51948035797909
 21
419.52448725798212
 31
0.0
  0
LINE
  5
8E16
  8
0
 10
537.01956835360238
 20
431.81176825798212
 30
0.0
 11
485.51948035797909
 21
431.81176825798212
 31
0.0
  0
LINE
  5
8E17
  8
0
 10
537.01956835360238
 20
441.9910602579821
 30
0.0
 11
485.51948035797909
 21
441.9910602579821
 31
0.0
  0
LINE
  5
8E18
  8
0
 10
537.01956835360238
 20
543.7796992579822
 30
0.0
 11
485.51948035797909
 21
543.7796992579822
 31
0.0
  0
LINE
  5
8E19
  8
0
 10
485.51948035797909
 20
557.45341025798234
 30
0.0
 11
537.01956835360238
 21
557.45341025798234
 31
0.0
  0
LINE
  5
8E1A
  8
0
 10
537.01956835360238
 20
565.57741525798224
 30
0.0
 11
485.51948035797909
 21
565.57741525798224
 31
0.0
  0
LINE
  5
9087
  8
0
 10
525.01945035797905
 20
722.50748669527798
 30
0.0
 11
485.51957035798029
 21
722.50748669527798
 31
0.0
  0
LINE
  5
9088
  8
0
 10
525.01945035797905
 20
744.99441769527755
 30
0.0
 11
485.51957035798029
 21
744.99441769527755
 31
0.0
  0
LINE
  5
9089
  8
0
 10
525.01945035797905
 20
734.81512569527774
 30
0.0
 11
485.51957035798029
 21
734.81512569527774
 31
0.0
  0
LINE
  5
908A
  8
0
 10
525.01945035797905
 20
846.78308569527803
 30
0.0
 11
485.51957035798029
 21
846.78308569527803
 31
0.0
  0
LINE
  5
908B
  8
0
 10
525.01945035797905
 20
860.45676769527813
 30
0.0
 11
485.51957035798029
 21
860.45676769527813
 31
0.0
  0
LINE
  5
908C
  8
AM_0
  6
AM_ISO08W050
 10
145.20331261895259
 20
784.71712369527813
 30
0.0
 11
729.93232035797882
 21
784.71712369527813
 31
0.0
  0
LINE
  5
908D
  8
0
  6
CONTINUOUS
 10
499.019450357979
 20
870.2171386952773
 30
0.0
 11
499.019450357979
 21
891.32741369527821
 31
0.0
  0
LINE
  5
908E
  8
0
  6
CONTINUOUS
 10
660.01951035797924
 20
853.71712369527756
 30
0.0
 11
660.01951035797924
 21
892.11787369527804
 31
0.0
  0
LINE
  5
908F
  8
0
  6
CONTINUOUS
 10
547.01945035797939
 20
685.21715369527783
 30
0.0
 11
547.01945035797939
 21
781.50009869527833
 31
0.0
  0
LINE
  5
9090
  8
0
  6
CONTINUOUS
 10
547.01945035797939
 20
787.80014869527827
 30
0.0
 11
547.01945035797939
 21
884.21712369527813
 31
0.0
  0
LINE
  5
9091
  8
0
  6
CONTINUOUS
 10
502.67088035797929
 20
895.31221369527827
 30
0.0
 11
553.01951035797902
 21
899.71718369527798
 31
0.0
  0
LINE
  5
9092
  8
0
 10
517.01945035797939
 20
866.21712369527756
 30
0.0
 11
517.01945035797939
 21
893.21712369527813
 31
0.0
  0
LINE
  5
9093
  8
0
  6
CONTINUOUS
 10
653.01951035797902
 20
723.61378369527802
 30
0.0
 11
653.01951035797902
 21
845.82051369527812
 31
0.0
  0
LINE
  5
9094
  8
0
  6
CENTER
 10
642.01951035797902
 20
866.21712369527756
 30
0.0
 11
642.01951035797902
 21
893.21712369527813
 31
0.0
  0
LINE
  5
9095
  8
0
  6
CENTER
 10
503.519450357979
 20
879.71712369527813
 30
0.0
 11
530.51945035797939
 21
879.71712369527813
 31
0.0
  0
LINE
  5
9096
  8
0
  6
CENTER
 10
628.5195103579789
 20
879.71712369527813
 30
0.0
 11
655.51951035797902
 21
879.71712369527813
 31
0.0
  0
LINE
  5
9097
  8
0
  6
CONTINUOUS
 10
553.01951035797902
 20
899.71712369527802
 30
0.0
 11
656.15910035797867
 21
896.11543369527817
 31
0.0
  0
LINE
  5
9098
  8
0
  6
CONTINUOUS
 10
538.28099035797936
 20
892.40480369527813
 30
0.0
 11
546.67088035797894
 21
893.13881369527758
 31
0.0
  0
LINE
  5
9099
  8
0
  6
CONTINUOUS
 10
553.01945035797905
 20
669.71715369527783
 30
0.0
 11
656.15910035797867
 21
673.3188636952782
 31
0.0
  0
LINE
  5
909A
  8
0
  6
CENTER
 10
628.5195103579789
 20
689.71715369527772
 30
0.0
 11
655.51951035797902
 21
689.71715369527772
 31
0.0
  0
LINE
  5
909B
  8
0
  6
CENTER
 10
503.519450357979
 20
689.71715369527772
 30
0.0
 11
530.51945035797939
 21
689.71715369527772
 31
0.0
  0
LINE
  5
909C
  8
0
  6
CENTER
 10
642.01951035797902
 20
703.21715369527772
 30
0.0
 11
642.01951035797902
 21
676.21715369527783
 31
0.0
  0
LINE
  5
909D
  8
0
  6
CENTER
 10
517.01945035797939
 20
703.21715369527772
 30
0.0
 11
517.01945035797939
 21
676.21715369527783
 31
0.0
  0
LINE
  5
909E
  8
0
  6
CONTINUOUS
 10
502.67088035797929
 20
674.12205369527783
 30
0.0
 11
553.01951035797902
 21
669.71715369527783
 31
0.0
  0
LINE
  5
909F
  8
0
  6
CONTINUOUS
 10
660.01951035797924
 20
715.71715369527772
 30
0.0
 11
660.01951035797924
 21
677.31642369527799
 31
0.0
  0
LINE
  5
90A0
  8
0
  6
CONTINUOUS
 10
499.019450357979
 20
699.21713869527787
 30
0.0
 11
499.019450357979
 21
678.10686369527821
 31
0.0
  0
LINE
  5
90A1
  8
0
  6
CONTINUOUS
 10
722.01948035797909
 20
800.71712369527836
 30
0.0
 11
664.01951035797902
 21
800.71712369527836
 31
0.0
  0
LINE
  5
90A2
  8
0
  6
CONTINUOUS
 10
537.01945035797905
 20
719.64494369527802
 30
0.0
 11
537.01945035797905
 21
772.69187869527775
 31
0.0
  0
LINE
  5
90A3
  8
0
  6
CONTINUOUS
 10
537.01945035797905
 20
796.60837869527836
 30
0.0
 11
537.01945035797905
 21
849.78938369527816
 31
0.0
  0
LINE
  5
90A4
  8
0
  6
CONTINUOUS
 10
654.51948035797875
 20
816.89259369527758
 30
0.0
 11
658.51945035797905
 21
814.583213695278
 31
0.0
  0
LINE
  5
90A5
  8
0
  6
CONTINUOUS
 10
654.51945035797939
 20
752.54176369527818
 30
0.0
 11
658.51945035797905
 21
754.85115369527773
 31
0.0
  0
LINE
  5
90A6
  8
0
  6
CONTINUOUS
 10
660.01948035797932
 20
757.44923369527771
 30
0.0
 11
660.01948035797932
 21
784.71712369527813
 31
0.0
  0
LINE
  5
90A7
  8
0
  6
CONTINUOUS
 10
660.01948035797932
 20
784.71712369527813
 30
0.0
 11
660.01948035797932
 21
811.98512369527828
 31
0.0
  0
LINE
  5
90A8
  8
0
  6
CONTINUOUS
 10
664.01951035797902
 20
802.21718369527787
 30
0.0
 11
660.01948035797932
 21
802.21718369527787
 31
0.0
  0
LINE
  5
90A9
  8
0
  6
CONTINUOUS
 10
722.01948035797909
 20
768.71718369527798
 30
0.0
 11
722.01948035797909
 21
800.71712369527836
 31
0.0
  0
LINE
  5
90AA
  8
0
  6
CONTINUOUS
 10
664.01951035797902
 20
767.21718369527832
 30
0.0
 11
664.01951035797902
 21
802.21718369527787
 31
0.0
  0
LINE
  5
90AB
  8
0
  6
CONTINUOUS
 10
677.01951035797902
 20
779.71718369527775
 30
0.0
 11
677.01951035797902
 21
789.71712369527813
 31
0.0
  0
LINE
  5
90AC
  8
0
  6
CONTINUOUS
 10
722.01948035797909
 20
768.71718369527798
 30
0.0
 11
664.01951035797902
 21
768.71718369527798
 31
0.0
  0
LINE
  5
90AD
  8
0
  6
CONTINUOUS
 10
664.01951035797902
 20
767.21718369527832
 30
0.0
 11
660.01948035797932
 21
767.21718369527832
 31
0.0
  0
LINE
  5
90AE
  8
0
  6
CONTINUOUS
 10
677.01948035797921
 20
779.71718369527775
 30
0.0
 11
722.01948035797909
 21
779.71718369527775
 31
0.0
  0
LINE
  5
90AF
  8
0
  6
CONTINUOUS
 10
677.01948035797921
 20
789.71712369527813
 30
0.0
 11
722.01948035797909
 21
789.71712369527813
 31
0.0
  0
LINE
  5
90B0
  8
0
  6
CONTINUOUS
 10
649.12419035797905
 20
849.81917369527775
 30
0.0
 11
639.262310357979
 21
850.07741369527787
 31
0.0
  0
LINE
  5
90B1
  8
0
  6
CONTINUOUS
 10
649.12422035797931
 20
719.61516369527772
 30
0.0
 11
639.262310357979
 21
719.35692369527771
 31
0.0
  0
LINE
  5
90B2
  8
0
  6
CONTINUOUS
 10
632.01951035797902
 20
715.51039369527803
 30
0.0
 11
632.01951035797902
 21
853.923903695278
 31
0.0
  0
LINE
  5
90B3
  8
0
  6
CONTINUOUS
 10
612.01948035797886
 20
680.06172369527781
 30
0.0
 11
612.01948035797886
 21
695.50356369527788
 31
0.0
  0
LINE
  5
90B4
  8
0
  6
CONTINUOUS
 10
624.22892035797895
 20
861.92116369527798
 30
0.0
 11
623.70536035797898
 21
861.93489369527765
 31
0.0
  0
LINE
  5
90B5
  8
0
  6
CONTINUOUS
 10
624.22892035797895
 20
707.51314369527813
 30
0.0
 11
623.70536035797898
 21
707.49944369527771
 31
0.0
  0
LINE
  5
90B6
  8
0
  6
CONTINUOUS
 10
612.01948035797886
 20
873.93074369527756
 30
0.0
 11
612.01948035797886
 21
889.37257369527788
 31
0.0
  0
LINE
  5
90B7
  8
0
  6
CONTINUOUS
 10
547.01945035797939
 20
685.21715369527783
 30
0.0
 11
551.01945035797939
 21
685.21715369527783
 31
0.0
  0
LINE
  5
90B8
  8
0
  6
CONTINUOUS
 10
547.01945035797939
 20
884.21712369527813
 30
0.0
 11
551.01945035797939
 21
884.21712369527813
 31
0.0
  0
LINE
  5
90B9
  8
0
  6
CONTINUOUS
 10
551.01945035797939
 20
884.21712369527813
 30
0.0
 11
551.01945035797939
 21
894.08565369527821
 31
0.0
  0
LINE
  5
90BA
  8
0
  6
CONTINUOUS
 10
538.28099035797936
 20
677.02950369527798
 30
0.0
 11
546.67094035797913
 21
676.29549369527786
 31
0.0
  0
LINE
  5
90BB
  8
0
  6
CONTINUOUS
 10
551.01945035797939
 20
685.21715369527783
 30
0.0
 11
551.01945035797939
 21
675.34865369527802
 31
0.0
  0
LINE
  5
90BC
  8
0
  6
CONTINUOUS
 10
539.91478035797923
 20
685.46526369527783
 30
0.0
 11
547.01939035797875
 21
685.21715369527783
 31
0.0
  0
LINE
  5
90BD
  8
0
  6
CONTINUOUS
 10
547.01945035797939
 20
689.92696369527812
 30
0.0
 11
537.01945035797905
 21
689.92696369527812
 31
0.0
  0
LINE
  5
90BE
  8
0
  6
CONTINUOUS
 10
547.01945035797939
 20
707.30037369527759
 30
0.0
 11
525.01945035797905
 21
707.30037369527759
 31
0.0
  0
LINE
  5
90BF
  8
0
  6
CONTINUOUS
 10
547.01945035797939
 20
754.44072369527771
 30
0.0
 11
537.01945035797905
 21
754.44072369527771
 31
0.0
  0
LINE
  5
90C0
  8
0
  6
CONTINUOUS
 10
547.01945035797939
 20
814.99361369527799
 30
0.0
 11
537.01945035797905
 21
814.99361369527799
 31
0.0
  0
LINE
  5
90C1
  8
0
  6
CONTINUOUS
 10
547.01945035797939
 20
862.13393369527819
 30
0.0
 11
525.01945035797905
 21
862.13393369527819
 31
0.0
  0
LINE
  5
90C2
  8
0
  6
CONTINUOUS
 10
525.01945035797905
 20
693.79604369527772
 30
0.0
 11
525.01945035797905
 21
875.63826369527817
 31
0.0
  0
ARC
  5
90C3
  8
0
 10
522.01945035797905
 20
696.21713869527775
 30
0.0
 40
3.0
 50
0.0
 51
90.0
1001
GENIUS_GENOBJ-N-FIL_13
1002
{
1000
OWNER
1000
GEN
1002
}
1001
GENIUS_GENODEF_13
1002
{
1000
HIER
1070
     0
1002
}
1002
{
1000
MANEDIT
1070
     0
1002
}
1002
{
1000
NOSEL
1070
     0
1002
}
1002
{
1000
BEHIND
1070
     0
1002
}
1002
{
1000
OTHER
1070
     0
1002
}
1002
{
1000
REACTOR
1002
}
  0
ARC
  5
90C4
  8
0
 10
522.01945035797905
 20
873.21713869527707
 30
0.0
 40
3.0
 50
270.0
 51
0.0
1001
GENIUS_GENODEF_13
1002
{
1000
HIER
1070
     0
1002
}
1002
{
1000
MANEDIT
1070
     0
1002
}
1002
{
1000
NOSEL
1070
     0
1002
}
1002
{
1000
BEHIND
1070
     0
1002
}
1002
{
1000
OTHER
1070
     0
1002
}
1002
{
1000
REACTOR
1002
}
1001
GENIUS_GENOBJ-N-FIL_13
1002
{
1000
OWNER
1000
GEN
1002
}
  0
LINE
  5
90C5
  8
0
  6
CONTINUOUS
 10
525.01945035797905
 20
716.64494369527802
 30
0.0
 11
534.01945035797939
 21
716.64494369527802
 31
0.0
  0
LINE
  5
90C6
  8
0
  6
CONTINUOUS
 10
525.01945035797905
 20
727.39958369527801
 30
0.0
 11
537.01945035797905
 21
727.39958369527801
 31
0.0
  0
LINE
  5
90C7
  8
0
  6
CONTINUOUS
 10
525.01945035797905
 20
852.78938369527827
 30
0.0
 11
534.01945035797939
 21
852.78938369527827
 31
0.0
  0
LINE
  5
90C8
  8
0
  6
CONTINUOUS
 10
525.01945035797905
 20
842.03474369527805
 30
0.0
 11
537.01945035797905
 21
842.03474369527805
 31
0.0
  0
LINE
  5
90C9
  8
0
  6
CONTINUOUS
 10
528.01945035797905
 20
701.82713369527767
 30
0.0
 11
534.01945035797939
 21
701.82713369527767
 31
0.0
  0
LINE
  5
90CA
  8
0
  6
CONTINUOUS
 10
537.01945035797905
 20
688.4634236952777
 30
0.0
 11
537.01945035797905
 21
698.82713369527801
 31
0.0
  0
LINE
  5
90CB
  8
0
  6
CONTINUOUS
 10
528.01945035797905
 20
690.79604369527772
 30
0.0
 11
534.05668035797908
 21
690.79604369527772
 31
0.0
  0
LINE
  5
90CC
  8
0
  6
CONTINUOUS
 10
528.01945035797905
 20
878.63826369527806
 30
0.0
 11
534.05668035797908
 21
878.63826369527806
 31
0.0
  0
LINE
  5
90CD
  8
0
  6
CONTINUOUS
 10
537.01945035797905
 20
880.97090369527814
 30
0.0
 11
537.01945035797905
 21
870.60719369527828
 31
0.0
  0
LINE
  5
90CE
  8
0
  6
CONTINUOUS
 10
528.01945035797905
 20
867.60719369527817
 30
0.0
 11
534.01945035797939
 21
867.60719369527817
 31
0.0
  0
LINE
  5
90CF
  8
0
  6
CONTINUOUS
 10
539.91478035797923
 20
883.96907369527798
 30
0.0
 11
547.01945035797939
 21
884.21712369527813
 31
0.0
  0
LINE
  5
90D0
  8
0
  6
CONTINUOUS
 10
547.01945035797939
 20
879.50734369527811
 30
0.0
 11
537.01945035797905
 21
879.50734369527811
 31
0.0
  0
LINE
  5
90D1
  8
0
  6
CONTINUOUS
 10
485.51957035798029
 20
711.21715369527772
 30
0.0
 11
485.51957035798029
 21
858.21712369527756
 31
0.0
  0
ARC
  5
90D2
  8
0
  6
CONTINUOUS
 10
656.01951035797902
 20
892.11787369527804
 30
0.0
 40
4.0
 50
0.0
 51
87.999999999996248
  0
CIRCLE
  5
90D3
  8
0
  6
CONTINUOUS
 10
517.01945035797939
 20
879.71712369527813
 30
0.0
 40
7.5
  0
CIRCLE
  5
90D4
  8
0
  6
CONTINUOUS
 10
642.01951035797902
 20
879.71712369527813
 30
0.0
 40
7.5
  0
ARC
  5
90D5
  8
0
  6
CONTINUOUS
 10
503.01945035797911
 20
891.32741369527821
 30
0.0
 40
4.0
 50
95.00000199999208
 51
180.000010000001
  0
ARC
  5
90D6
  8
0
  6
CONTINUOUS
 10
657.01951035797902
 20
845.77986369527798
 30
0.0
 40
4.0
 50
97.180758000007287
 51
180.000010000001
  0
ARC
  5
90D7
  8
0
  6
CONTINUOUS
 10
656.01951035797902
 20
853.71712369527756
 30
0.0
 40
4.0
 50
277.18075000000363
 51
0.0
  0
ARC
  5
90D8
  8
0
  6
CONTINUOUS
 10
538.01945035797939
 20
895.39339369527806
 30
0.0
 40
3.0
 50
95.00000199999208
 51
275.0
  0
ARC
  5
90D9
  8
0
  6
CONTINUOUS
 10
547.01945035797939
 20
889.15401369527797
 30
0.0
 40
4.0
 50
0.0
 51
95.00000199999208
  0
ARC
  5
90DA
  8
0
  6
CONTINUOUS
 10
656.01951035797902
 20
715.71715369527772
 30
0.0
 40
4.0
 50
0.0
 51
82.819246999996963
  0
ARC
  5
90DB
  8
0
  6
CONTINUOUS
 10
657.01951035797902
 20
723.65440369527767
 30
0.0
 40
4.0
 50
180.000010000001
 51
262.81924999999637
  0
ARC
  5
90DC
  8
0
  6
CONTINUOUS
 10
503.01945035797911
 20
678.10686369527821
 30
0.0
 40
4.0
 50
180.000010000001
 51
265.00001000000037
  0
CIRCLE
  5
90DD
  8
0
  6
CONTINUOUS
 10
642.01951035797902
 20
689.71715369527772
 30
0.0
 40
7.5
  0
CIRCLE
  5
90DE
  8
0
  6
CONTINUOUS
 10
517.01945035797939
 20
689.71715369527772
 30
0.0
 40
7.5
  0
ARC
  5
90DF
  8
0
  6
CONTINUOUS
 10
656.01951035797902
 20
677.31642369527799
 30
0.0
 40
4.0
 50
272.00000000000369
 51
0.0
  0
ARC
  5
90E0
  8
0
  6
CONTINUOUS
 10
657.01948035797909
 20
757.44923369527771
 30
0.0
 40
3.0
 50
300.00001000000651
 51
0.0
  0
ARC
  5
90E1
  8
0
  6
CONTINUOUS
 10
657.01948035797909
 20
811.98512369527828
 30
0.0
 40
3.0
 50
0.0
 51
60.000002000001302
  0
ARC
  5
90E2
  8
0
  6
CONTINUOUS
 10
656.01951035797902
 20
819.49068369527834
 30
0.0
 40
3.0
 50
179.999989999999
 51
240.0000100000085
  0
ARC
  5
90E3
  8
0
  6
CONTINUOUS
 10
656.01951035797902
 20
749.94368369527797
 30
0.0
 40
3.0
 50
120.0000000000005
 51
180.000010000001
  0
ARC
  5
90E4
  8
0
  6
CONTINUOUS
 10
677.01948035797921
 20
784.71712369527813
 30
0.0
 40
4.9999924
 50
90.00000299999769
 51
270.0
  0
ARC
  5
90E5
  8
0
  6
CONTINUOUS
 10
649.01951035797902
 20
723.61378369527802
 30
0.0
 40
4.0
 50
271.50000000000267
 51
0.0
  0
ARC
  5
90E6
  8
0
  6
CONTINUOUS
 10
649.01951035797902
 20
845.82051369527812
 30
0.0
 40
4.0
 50
0.0
 51
88.499997000000647
  0
ARC
  5
90E7
  8
0
  6
CONTINUOUS
 10
624.01951035797902
 20
853.923903695278
 30
0.0
 40
8.0
 50
0.0
 51
88.499997000000647
  0
ARC
  5
90E8
  8
0
  6
CONTINUOUS
 10
624.01951035797902
 20
715.51039369527803
 30
0.0
 40
8.0
 50
271.50000000000267
 51
0.0
  0
ARC
  5
90E9
  8
0
  6
CONTINUOUS
 10
639.47172035797928
 20
711.35963369527815
 30
0.0
 40
8.0
 50
91.500001000001546
 51
164.96420000000299
  0
ARC
  5
90EA
  8
0
  6
CONTINUOUS
 10
639.47172035797928
 20
858.07466369527788
 30
0.0
 40
8.0
 50
195.0357999999969
 51
268.49999999999733
  0
ARC
  5
90EB
  8
0
  6
CONTINUOUS
 10
624.01948035797898
 20
873.93074369527756
 30
0.0
 40
12.0
 50
180.000010000001
 51
268.49999999999733
  0
ARC
  5
90EC
  8
0
  6
CONTINUOUS
 10
624.01948035797898
 20
695.50356369527788
 30
0.0
 40
12.0
 50
91.500001000001546
 51
180.000010000001
  0
ARC
  5
90ED
  8
0
  6
CONTINUOUS
 10
620.01948035797898
 20
889.37257369527788
 30
0.0
 40
8.0
 50
87.999999999996248
 51
180.000010000001
  0
ARC
  5
90EE
  8
0
  6
CONTINUOUS
 10
620.01948035797898
 20
680.06172369527781
 30
0.0
 40
8.0
 50
180.000010000001
 51
271.99999000000793
  0
ARC
  5
90EF
  8
0
  6
CONTINUOUS
 10
547.01945035797939
 20
680.28029369527815
 30
0.0
 40
4.0
 50
265.00001000000037
 51
0.0000006832429909
  0
ARC
  5
90F0
  8
0
  6
CONTINUOUS
 10
538.01945035797939
 20
674.04094369527809
 30
0.0
 40
3.0
 50
85.000003999997674
 51
264.99999999999989
  0
ARC
  5
90F1
  8
0
  6
CONTINUOUS
 10
546.01945035797894
 20
894.08565369527821
 30
0.0
 40
5.0
 50
0.0
 51
95.00000199999208
  0
ARC
  5
90F2
  8
0
  6
CONTINUOUS
 10
546.01945035797894
 20
675.34865369527802
 30
0.0
 40
5.0
 50
265.00001000000037
 51
0.0000006832429909
  0
ARC
  5
90F3
  8
0
  6
CONTINUOUS
 10
534.01945035797939
 20
719.64494369527802
 30
0.0
 40
3.0
 50
270.0
 51
0.0
  0
ARC
  5
90F4
  8
0
  6
CONTINUOUS
 10
534.01945035797939
 20
849.78938369527816
 30
0.0
 40
3.0
 50
0.0
 51
90.00000299999769
  0
ARC
  5
90F5
  8
0
  6
CONTINUOUS
 10
534.01945035797939
 20
698.82713369527801
 30
0.0
 40
3.0
 50
0.0
 51
90.00000299999769
  0
ARC
  5
90F6
  8
0
  6
CONTINUOUS
 10
540.01945035797917
 20
688.4634236952777
 30
0.0
 40
3.0
 50
180.000010000001
 51
267.99999999999619
  0
ARC
  5
90F7
  8
0
  6
CONTINUOUS
 10
528.01945035797905
 20
704.82713369527801
 30
0.0
 40
3.0
 50
180.000010000001
 51
270.0
  0
ARC
  5
90F8
  8
0
  6
CONTINUOUS
 10
528.01945035797905
 20
693.79604369527772
 30
0.0
 40
3.0
 50
180.000010000001
 51
270.0
  0
ARC
  5
90F9
  8
0
  6
CONTINUOUS
 10
534.05668035797908
 20
687.7960436952776
 30
0.0
 40
3.0
 50
6.3862994000029252
 51
90.00000299999769
  0
ARC
  5
90FA
  8
0
  6
CONTINUOUS
 10
534.05668035797908
 20
881.63826369527806
 30
0.0
 40
3.0
 50
270.0
 51
353.61370000000329
  0
ARC
  5
90FB
  8
0
  6
CONTINUOUS
 10
528.01945035797905
 20
864.60719369527806
 30
0.0
 40
3.0
 50
90.00000299999769
 51
180.000010000001
  0
ARC
  5
90FC
  8
0
  6
CONTINUOUS
 10
540.01945035797917
 20
880.97090369527814
 30
0.0
 40
3.0
 50
91.999997999994051
 51
180.000010000001
  0
ARC
  5
90FD
  8
0
  6
CONTINUOUS
 10
534.01945035797939
 20
870.60719369527828
 30
0.0
 40
3.0
 50
270.0
 51
0.0
  0
ARC
  5
90FE
  8
0
  6
CONTINUOUS
 10
528.01945035797905
 20
875.63826369527817
 30
0.0
 40
3.0
 50
90.00000299999769
 51
180.000010000001
  0
POLYLINE
  5
90FF
  8
0
  6
CONTINUOUS
 66
     1
 10
0.0
 20
0.0
 30
0.0
  0
VERTEX
  5
9100
  8
0
  6
CONTINUOUS
 10
547.01945035797939
 20
754.44072369527771
 30
0.0
 42
-0.07005559
  0
VERTEX
  5
9101
  8
0
  6
CONTINUOUS
 10
573.38010035797925
 20
734.24338369527766
 30
0.0
 42
-0.27110578
  0
VERTEX
  5
9102
  8
0
  6
CONTINUOUS
 10
582.01945035797905
 20
714.36003369527805
 30
0.0
 42
-0.21303172
  0
VERTEX
  5
9103
  8
0
  6
CONTINUOUS
 10
562.42901035797922
 20
696.22522369527803
 30
0.0
  0
VERTEX
  5
9104
  8
0
  6
CONTINUOUS
 10
547.01945035797939
 20
689.92696369527812
 30
0.0
 42
-1.0
  0
SEQEND
  5
9105
  8
0
  0
POLYLINE
  5
9106
  8
0
  6
CONTINUOUS
 66
     1
 10
0.0
 20
0.0
 30
0.0
  0
VERTEX
  5
9107
  8
0
  6
CONTINUOUS
 10
547.01945035797939
 20
707.30037369527759
 30
0.0
 42
0.040442906
  0
VERTEX
  5
9108
  8
0
  6
CONTINUOUS
 10
558.54763035797919
 20
707.52371369527816
 30
0.0
 42
0.04246993
  0
VERTEX
  5
9109
  8
0
  6
CONTINUOUS
 10
569.88133035797932
 20
709.637203695278
 30
0.0
 42
0.022672732
  0
VERTEX
  5
910A
  8
0
  6
CONTINUOUS
 10
575.36582035797915
 20
711.42814369527775
 30
0.0
  0
VERTEX
  5
910B
  8
0
  6
CONTINUOUS
 10
580.67143035797915
 20
713.697003695278
 30
0.0
 42
-1.0
  0
SEQEND
  5
910C
  8
0
  0
POLYLINE
  5
910D
  8
0
  6
CONTINUOUS
 66
     1
 10
0.0
 20
0.0
 30
0.0
  0
VERTEX
  5
910E
  8
0
  6
CONTINUOUS
 10
547.01945035797939
 20
862.13393369527819
 30
0.0
 42
-0.040442893
  0
VERTEX
  5
910F
  8
0
  6
CONTINUOUS
 10
558.54762035797933
 20
861.91058369527832
 30
0.0
 42
-0.042469915
  0
VERTEX
  5
9110
  8
0
  6
CONTINUOUS
 10
569.88133035797932
 20
859.79710369527788
 30
0.0
 42
-0.022671767
  0
VERTEX
  5
9111
  8
0
  6
CONTINUOUS
 10
575.36581035797906
 20
858.00616369527802
 30
0.0
  0
VERTEX
  5
9112
  8
0
  6
CONTINUOUS
 10
580.67143035797915
 20
855.73733369527815
 30
0.0
 42
-1.0
  0
SEQEND
  5
9113
  8
0
  0
POLYLINE
  5
9114
  8
0
  6
CONTINUOUS
 66
     1
 10
0.0
 20
0.0
 30
0.0
  0
VERTEX
  5
9115
  8
0
  6
CONTINUOUS
 10
547.01945035797939
 20
814.99361369527799
 30
0.0
 42
0.070055572
  0
VERTEX
  5
9116
  8
0
  6
CONTINUOUS
 10
573.38010035797925
 20
835.19094369527818
 30
0.0
 42
0.27110574
  0
VERTEX
  5
9117
  8
0
  6
CONTINUOUS
 10
582.01945035797905
 20
855.07429369527756
 30
0.0
 42
0.21303201
  0
VERTEX
  5
9118
  8
0
  6
CONTINUOUS
 10
562.42901035797922
 20
873.20908369527831
 30
0.0
  0
VERTEX
  5
9119
  8
0
  6
CONTINUOUS
 10
547.01945035797939
 20
879.50734369527811
 30
0.0
 42
-1.0
  0
SEQEND
  5
911A
  8
0
  0
LINE
  5
911B
  8
0
 10
485.51950035798012
 20
699.71712369527813
 30
0.0
 11
485.51950035798012
 21
869.71712369527802
 31
0.0
  0
LINE
  5
911C
  8
0
 10
485.51957035798029
 20
699.21713869527787
 30
0.0
 11
485.51957035798029
 21
870.21713869527775
 31
0.0
  0
LINE
  5
911D
  8
0
 10
485.51957035798011
 20
699.21713869527787
 30
0.0
 11
522.01945035797905
 21
699.21713869527787
 31
0.0
  0
LINE
  5
911E
  8
0
 10
485.51957035798011
 20
870.2171386952773
 30
0.0
 11
522.01945035797905
 21
870.2171386952773
 31
0.0
  0
LINE
  5
911F
  8
0
  6
CENTER
 62
     0
 10
535.01945035797928
 20
794.07687869527774
 30
0.0
 11
535.01945035797928
 21
775.35739869527799
 31
0.0
  0
LINE
  5
9120
  8
0
  6
CONTINUOUS
 62
     0
 10
521.8694303579797
 20
781.50009869527798
 30
0.0
 11
548.16942035797933
 21
781.50009869527798
 31
0.0
  0
LINE
  5
9121
  8
0
  6
CONTINUOUS
 62
     0
 10
521.8694303579797
 20
787.80014869527827
 30
0.0
 11
548.16942035797933
 21
787.80014869527827
 31
0.0
  0
ARC
  5
9122
  8
0
  6
CONTINUOUS
 62
     0
 10
534.01945035797939
 20
796.60837869527836
 30
0.0
 40
3.0
 50
274.78019999998969
 51
0.0
  0
ARC
  5
9123
  8
0
  6
CONTINUOUS
 62
     0
 10
534.01945035797939
 20
772.69187869527775
 30
0.0
 40
3.0
 50
0.0
 51
85.219806000004908
  0
ARC
  5
9124
  8
0
  6
CONTINUOUS
 62
     0
 10
535.01945035797928
 20
784.650128695278
 30
0.0
 40
9.0
 50
94.780192000005314
 51
159.51269999999991
  0
ARC
  5
9125
  8
0
  6
CONTINUOUS
 62
     0
 10
535.01945035797928
 20
784.650128695278
 30
0.0
 40
8.0
 50
23.18801900001051
 51
156.811979999995
  0
ARC
  5
9126
  8
0
  6
CONTINUOUS
 62
     0
 10
521.8694303579797
 20
784.650128695278
 30
0.0
 40
3.1499977000000001
 50
90.000002999984659
 51
270.0
  0
ARC
  5
9127
  8
0
  6
CONTINUOUS
 62
     0
 10
548.16942035797933
 20
784.650128695278
 30
0.0
 40
3.1499977000000001
 50
270.0
 51
90.000002999984659
  0
ARC
  5
9128
  8
0
  6
CONTINUOUS
 62
     0
 10
535.01945035797928
 20
784.650128695278
 30
0.0
 40
8.0
 50
203.188020000005
 51
336.81196999999543
  0
ARC
  5
9129
  8
0
  6
CONTINUOUS
 62
     0
 10
535.01945035797928
 20
784.650128695278
 30
0.0
 40
9.0
 50
200.48730000000009
 51
265.2198000000102
  0
ARC
  5
912A
  8
0
 10
286.46314435798013
 20
702.31644369527805
 30
0.0
 40
2.0
 50
189.99999999999861
 51
270.0
  0
LINE
  5
912B
  8
0
 10
284.49352935798009
 20
701.96914769527814
 30
0.0
 11
281.51950035798018
 21
718.83570169527832
 31
0.0
  0
LINE
  5
912C
  8
0
 10
281.51950035798018
 20
718.83570169527832
 30
0.0
 11
282.58123935798022
 21
718.83570169527832
 31
0.0
  0
LINE
  5
912D
  8
0
 10
479.9836413579801
 20
870.88943069527829
 30
0.0
 11
480.51950035798012
 21
870.88943069527829
 31
0.0
  0
LINE
  5
912E
  8
0
 10
480.24403235798002
 20
872.45168769527811
 30
0.0
 11
480.51950035798012
 21
872.45168769527811
 31
0.0
  0
LINE
  5
912F
  8
0
 10
482.19769935798013
 20
696.71727469527809
 30
0.0
 11
482.51950035798018
 21
696.71727469527809
 31
0.0
  0
LINE
  5
9130
  8
0
 10
478.34010535797978
 20
701.56513769527805
 30
0.0
 11
480.51950035798012
 21
701.56513769527805
 31
0.0
  0
LINE
  5
9131
  8
0
 10
479.34618835798011
 20
713.67070769527834
 30
0.0
 11
480.51950035798012
 21
713.67070769527834
 31
0.0
  0
LINE
  5
9132
  8
0
 10
378.51950035798018
 20
677.06115869527821
 30
0.0
 11
378.51950035798018
 21
686.24287469527803
 31
0.0
  0
ARC
  5
9133
  8
0
 10
476.76238035798019
 20
873.72537169527845
 30
0.0
 40
2.0
 50
9.9999999999986073
 51
90.0
  0
ARC
  5
9134
  8
0
 10
476.82839735798012
 20
877.26617069527811
 30
0.0
 40
2.0
 50
9.9999999999986073
 51
90.0
  0
ARC
  5
9135
  8
0
 10
476.91431535798012
 20
879.81790769527834
 30
0.0
 40
2.0
 50
9.9999999999986073
 51
90.0
  0
ARC
  5
9136
  8
0
 10
476.94306435798012
 20
881.21712369527825
 30
0.0
 40
2.0
 50
9.9999999999986073
 51
90.0
  0
LINE
  5
9137
  8
0
 10
485.51950335798028
 20
869.71712369527813
 30
0.0
 11
482.51950335798011
 21
872.71712369527813
 31
0.0
  0
LINE
  5
9138
  8
0
 10
279.01950035798018
 20
881.7170976952782
 30
0.0
 11
279.01950035798018
 21
687.71712369527813
 31
0.0
  0
LINE
  5
9139
  8
0
 10
480.47269635798011
 20
872.71712369527813
 30
0.0
 11
482.51950035798018
 21
872.71712369527813
 31
0.0
  0
LINE
  5
913A
  8
0
 10
485.51950035798012
 20
699.71712369527813
 30
0.0
 11
482.51950035798018
 21
696.71712369527813
 31
0.0
  0
LINE
  5
913B
  8
0
 10
482.51950035798018
 20
696.71712369527813
 30
0.0
 11
482.51950035798018
 21
722.33750969527807
 31
0.0
  0
LINE
  5
913C
  8
0
 10
485.51950035798012
 20
699.71712369527813
 30
0.0
 11
485.51950035798012
 21
869.71712369527813
 31
0.0
  0
CIRCLE
  5
913D
  8
0
 10
378.51950035798018
 20
784.71712369527813
 30
0.0
 40
11.0
  0
LINE
  5
913E
  8
0
 10
285.80562035798022
 20
883.21712369527813
 30
0.0
 11
337.51950035798018
 21
883.21712369527813
 31
0.0
  0
LINE
  5
913F
  8
0
 10
417.51950035798001
 20
875.72537169527811
 30
0.0
 11
417.51950035798001
 21
881.21712369527825
 31
0.0
  0
LINE
  5
9140
  8
0
 10
339.51950035798018
 20
875.72537169527811
 30
0.0
 11
339.51950035798018
 21
881.21712369527825
 31
0.0
  0
ARC
  5
9141
  8
0
 10
337.51950035798018
 20
881.21712369527825
 30
0.0
 40
2.0
 50
0.0
 51
90.0
  0
ARC
  5
9142
  8
0
 10
419.51950035798018
 20
881.21712369527825
 30
0.0
 40
2.0
 50
90.0
 51
180.0
  0
LINE
  5
9143
  8
0
 10
419.51950035798018
 20
883.21712369527813
 30
0.0
 11
476.94306435798012
 21
883.21712369527813
 31
0.0
  0
LINE
  5
9144
  8
0
 10
476.91431535798012
 20
881.817907695278
 30
0.0
 11
419.51950035798018
 21
881.817907695278
 31
0.0
  0
LINE
  5
9145
  8
0
 10
480.51950035798012
 20
870.88943069527829
 30
0.0
 11
478.88393135798009
 21
880.16520369527814
 31
0.0
  0
LINE
  5
9146
  8
0
 10
480.51950035798012
 20
872.45168769527811
 30
0.0
 11
478.91267935798032
 21
881.56441969527805
 31
0.0
  0
LINE
  5
9147
  8
0
 10
281.51950035798018
 20
868.42686969527813
 30
0.0
 11
283.83600535798018
 21
881.56441969527805
 31
0.0
  0
ARC
  5
9148
  8
0
 10
285.80562035798022
 20
881.21712369527825
 30
0.0
 40
2.0
 50
90.0
 51
170.00000000000139
  0
LINE
  5
9149
  8
0
 10
281.51950035798018
 20
866.76780869527806
 30
0.0
 11
283.88182235798013
 21
880.16520369527814
 31
0.0
  0
ARC
  5
914A
  8
0
 10
285.85143835798021
 20
879.81790769527834
 30
0.0
 40
2.0
 50
90.0
 51
170.00000000000139
  0
ARC
  5
914B
  8
0
 10
337.51950035798018
 20
879.81790769527834
 30
0.0
 40
2.0
 50
0.0
 51
90.0
  0
ARC
  5
914C
  8
0
 10
419.51950035798018
 20
879.81790769527834
 30
0.0
 40
2.0
 50
90.0
 51
180.0
  0
LINE
  5
914D
  8
0
 10
337.51950035798018
 20
881.817907695278
 30
0.0
 11
285.85143835798021
 21
881.817907695278
 31
0.0
  0
LINE
  5
914E
  8
0
 10
476.82839735798012
 20
879.26617069527833
 30
0.0
 11
419.51950035798018
 21
879.26617069527833
 31
0.0
  0
LINE
  5
914F
  8
0
 10
480.39072035798011
 20
868.58077269527814
 30
0.0
 11
478.79801235798021
 21
877.61346769527802
 31
0.0
  0
LINE
  5
9150
  8
0
 10
281.51950035798018
 20
863.54701769527821
 30
0.0
 11
283.9997953579803
 21
877.61346769527802
 31
0.0
  0
ARC
  5
9151
  8
0
 10
285.96941035798
 20
877.26617069527811
 30
0.0
 40
2.0
 50
90.0
 51
170.00000000000139
  0
ARC
  5
9152
  8
0
 10
337.51950035798018
 20
877.26617069527811
 30
0.0
 40
2.0
 50
0.0
 51
90.0
  0
ARC
  5
9153
  8
0
 10
419.51950035798018
 20
877.26617069527811
 30
0.0
 40
2.0
 50
90.0
 51
180.0
  0
LINE
  5
9154
  8
0
 10
337.51950035798018
 20
879.26617069527833
 30
0.0
 11
285.96941035798
 21
879.26617069527833
 31
0.0
  0
LINE
  5
9155
  8
0
 10
476.76238035798019
 20
875.72537169527811
 30
0.0
 11
286.1309193579803
 21
875.72537169527811
 31
0.0
  0
LINE
  5
9156
  8
0
 10
479.7003653579801
 20
868.58077269527814
 30
0.0
 11
478.73199635798022
 21
874.07266769527837
 31
0.0
  0
LINE
  5
9157
  8
0
 10
281.51950035798018
 20
859.09025769527796
 30
0.0
 11
284.16130335798022
 21
874.07266769527837
 31
0.0
  0
ARC
  5
9158
  8
0
 10
286.1309193579803
 20
873.72537169527845
 30
0.0
 40
2.0
 50
90.0
 51
170.00000000000139
  0
LINE
  5
9159
  8
0
 10
410.57585635798017
 20
869.11780369527821
 30
0.0
 11
286.46314435798013
 21
869.11780369527821
 31
0.0
  0
LINE
  5
915A
  8
0
 10
415.51950035798018
 20
850.59854569527795
 30
0.0
 11
412.54547135797998
 21
867.46509969527813
 31
0.0
  0
ARC
  5
915B
  8
0
 10
410.57585635798017
 20
867.1178036952781
 30
0.0
 40
2.0
 50
9.9999999999986073
 51
90.0
  0
LINE
  5
915C
  8
0
 10
281.51950035798018
 20
850.59854569527795
 30
0.0
 11
284.49352935798009
 21
867.46509969527813
 31
0.0
  0
ARC
  5
915D
  8
0
 10
286.46314435798013
 20
867.1178036952781
 30
0.0
 40
2.0
 50
90.0
 51
170.00000000000139
  0
LINE
  5
915E
  8
0
 10
410.24559235798012
 20
863.71575969527817
 30
0.0
 11
286.7934083579803
 21
863.71575969527817
 31
0.0
  0
LINE
  5
915F
  8
0
 10
415.29844935798008
 20
844.57712369527815
 30
0.0
 11
412.21520835798009
 21
862.06305669527808
 31
0.0
  0
ARC
  5
9160
  8
0
 10
410.24559235798012
 20
861.71575969527805
 30
0.0
 40
2.0
 50
9.9999999999986073
 51
90.0
  0
LINE
  5
9161
  8
0
 10
281.79649435798018
 20
844.89439169527805
 30
0.0
 11
284.82379235798021
 21
862.06305669527808
 31
0.0
  0
ARC
  5
9162
  8
0
 10
286.7934083579803
 20
861.71575969527805
 30
0.0
 40
2.0
 50
90.0
 51
170.00000000000139
  0
LINE
  5
9163
  8
0
 10
480.51950035798012
 20
789.74727569527795
 30
0.0
 11
480.51950035798012
 21
792.69496769527814
 31
0.0
  0
LINE
  5
9164
  8
0
 10
480.51950035798012
 20
799.74675169527814
 30
0.0
 11
480.51950035798012
 21
802.70823069527808
 31
0.0
  0
LINE
  5
9165
  8
0
 10
480.51950035798012
 20
810.7389316952781
 30
0.0
 11
480.51950035798012
 21
813.73155869527795
 31
0.0
  0
LINE
  5
9166
  8
0
 10
480.51950035798012
 20
821.72172669527833
 30
0.0
 11
480.51950035798012
 21
824.76743269527833
 31
0.0
  0
LINE
  5
9167
  8
0
 10
480.51950035798012
 20
832.69160569527821
 30
0.0
 11
480.51950035798012
 21
835.82251869527806
 31
0.0
  0
LINE
  5
9168
  8
0
 10
480.51950035798012
 20
841.65008169527812
 30
0.0
 11
480.51950035798012
 21
844.89439169527805
 31
0.0
  0
LINE
  5
9169
  8
0
 10
430.51950035798012
 20
859.09025769527796
 30
0.0
 11
414.02218235798023
 21
859.09025769527796
 31
0.0
  0
LINE
  5
916A
  8
0
 10
462.30627735797998
 20
863.93522569527806
 30
0.0
 11
446.51950035798001
 21
863.93522569527806
 31
0.0
  0
LINE
  5
916B
  8
0
 10
430.51950035798012
 20
859.09025769527796
 30
0.0
 11
446.51950035798001
 21
863.93522569527806
 31
0.0
  0
LINE
  5
916C
  8
0
 10
446.51950035798001
 20
863.93522569527806
 30
0.0
 11
446.51950035798001
 21
860.56991069527817
 31
0.0
  0
LINE
  5
916D
  8
0
 10
430.51950035798012
 20
859.09025769527796
 30
0.0
 11
430.51950035798012
 21
844.89439169527805
 31
0.0
  0
LINE
  5
916E
  8
0
 10
466.01950035798018
 20
847.78308569527815
 30
0.0
 11
466.01950035798018
 21
866.58077269527814
 31
0.0
  0
ARC
  5
916F
  8
0
 10
468.01950035798012
 20
866.58077269527814
 30
0.0
 40
2.0
 50
90.0
 51
180.0
  0
LINE
  5
9170
  8
0
 10
466.01950035798018
 20
852.17318369527811
 30
0.0
 11
446.51950035798001
 21
852.17318369527811
 31
0.0
  0
LINE
  5
9171
  8
0
 10
460.6195063579803
 20
860.56991069527817
 30
0.0
 11
446.51950035798001
 21
860.56991069527817
 31
0.0
  0
LINE
  5
9172
  8
0
 10
446.51950035798001
 20
852.17318369527811
 30
0.0
 11
446.51950035798001
 21
844.89439169527805
 31
0.0
  0
ARC
  5
9173
  8
0
  6
CONTINUOUS
 10
463.21929935798011
 20
856.2003896952782
 30
0.0
 40
2.6003989999999999
 50
179.99998200000081
 51
269.99997799999522
  0
ARC
  5
9174
  8
0
  6
CONTINUOUS
 10
463.21929935798011
 20
861.50037769527785
 30
0.0
 40
2.600403
 50
90.0
 51
179.99998200000081
  0
LINE
  5
9175
  8
0
  6
CONTINUOUS
 10
466.01950035798018
 20
858.91640869527805
 30
0.0
 11
464.51950035798012
 21
858.05038369527813
 31
0.0
  0
LINE
  5
9176
  8
0
  6
CONTINUOUS
 10
466.01950035798018
 20
859.91640869527805
 30
0.0
 11
464.51950035798012
 21
859.05038369527801
 31
0.0
  0
LINE
  5
9177
  8
0
  6
CONTINUOUS
 10
466.01950035798018
 20
864.95038369527811
 30
0.0
 11
466.01950035798018
 21
852.75038369527795
 31
0.0
  0
LINE
  5
9178
  8
0
  6
CONTINUOUS
 10
464.51950035798012
 20
864.95038369527811
 30
0.0
 11
466.01950035798018
 21
864.95038369527811
 31
0.0
  0
LINE
  5
9179
  8
0
  6
CONTINUOUS
 10
464.51950035798012
 20
852.75038369527795
 30
0.0
 11
466.01950035798018
 21
852.75038369527795
 31
0.0
  0
LINE
  5
917A
  8
0
  6
CONTINUOUS
 10
460.6195063579803
 20
861.50037769527785
 30
0.0
 11
460.6195063579803
 21
856.2003896952782
 31
0.0
  0
LINE
  5
917B
  8
0
  6
CONTINUOUS
 10
464.51950035798012
 20
864.95038369527811
 30
0.0
 11
464.51950035798012
 21
852.75038369527795
 31
0.0
  0
LINE
  5
917C
  8
0
  6
CONTINUOUS
 10
464.51950035798012
 20
853.60038369527808
 30
0.0
 11
463.21929935798011
 21
853.60038369527808
 31
0.0
  0
LINE
  5
917D
  8
0
  6
CONTINUOUS
 10
464.51950035798012
 20
864.10038369527797
 30
0.0
 11
463.21929935798011
 21
864.10038369527797
 31
0.0
  0
LINE
  5
917E
  8
0
 10
485.51950035798012
 20
868.58077269527814
 30
0.0
 11
468.01950035798012
 21
868.58077269527814
 31
0.0
  0
LINE
  5
917F
  8
0
 10
485.51950035798012
 20
846.78308569527815
 30
0.0
 11
465.01950035798018
 21
846.78308569527815
 31
0.0
  0
ARC
  5
9180
  8
0
 10
465.01950035798018
 20
847.78308569527815
 30
0.0
 40
1.0
 50
270.0
 51
0.0
  0
LINE
  5
9181
  8
0
 10
485.51950035798012
 20
860.45676769527813
 30
0.0
 11
468.01950035798012
 21
860.45676769527813
 31
0.0
  0
LINE
  5
9182
  8
0
 10
279.01950035798018
 20
868.71712369527825
 30
0.0
 11
281.51950035798018
 21
868.71712369527825
 31
0.0
  0
ARC
  5
9183
  8
0
 10
482.19769935798013
 20
694.71712369527813
 30
0.0
 40
2.0
 50
90.0
 51
170.00000000000139
  0
ARC
  5
9184
  8
0
 10
418.26214235798028
 20
689.72346669527815
 30
0.0
 40
1.9936590000000001
 50
90.075931000003507
 51
178.17025399999861
  0
LINE
  5
9185
  8
0
 10
418.25950035798019
 20
691.71712369527813
 30
0.0
 11
477.95966635798021
 21
691.71712369527813
 31
0.0
  0
LINE
  5
9186
  8
0
 10
416.01950035798018
 20
682.71712369527813
 30
0.0
 11
416.6355293579802
 21
700.31644369527805
 31
0.0
  0
LINE
  5
9187
  8
0
 10
480.22808435798009
 20
695.06441969527805
 30
0.0
 11
479.9292813579799
 21
693.36982769527833
 31
0.0
  0
ARC
  5
9188
  8
0
 10
477.95966635798021
 20
693.71712369527813
 30
0.0
 40
2.0
 50
270.0
 51
350.00000000000142
  0
LINE
  5
9189
  8
0
 10
282.0968503579802
 20
699.71712369527813
 30
0.0
 11
289.31372935798032
 21
687.21712369527813
 31
0.0
  0
LINE
  5
918A
  8
0
 10
291.04577935798028
 20
686.21712369527813
 30
0.0
 11
338.96447135798019
 21
686.21712369527813
 31
0.0
  0
LINE
  5
918B
  8
0
 10
341.01950035798018
 20
682.71712369527813
 30
0.0
 11
340.96318835798002
 21
684.28873869527808
 31
0.0
  0
ARC
  5
918C
  8
0
 10
280.3647993579803
 20
698.71712369527813
 30
0.0
 40
2.0
 50
29.999999999991651
 51
90.0
  0
ARC
  5
918D
  8
0
 10
291.04577935798028
 20
688.21712369527813
 30
0.0
 40
2.0
 50
209.9999999999917
 51
270.0
  0
ARC
  5
918E
  8
0
 10
338.96447135798019
 20
684.21712369527813
 30
0.0
 40
2.0
 50
2.0520649999985339
 51
90.0
  0
LINE
  5
918F
  8
0
 10
341.01950035798018
 20
682.71712369527813
 30
0.0
 11
416.01950035798018
 21
682.71712369527813
 31
0.0
  0
LINE
  5
9190
  8
0
 10
290.04577935798028
 20
686.48507269527818
 30
0.0
 11
290.04577935798028
 21
700.31644369527805
 31
0.0
  0
LINE
  5
9191
  8
0
 10
476.48658435798012
 20
700.31644369527805
 30
0.0
 11
286.46314435798013
 21
700.31644369527805
 31
0.0
  0
LINE
  5
9192
  8
0
 10
476.2657983579802
 20
705.71848769527799
 30
0.0
 11
286.57235735798031
 21
705.71848769527799
 31
0.0
  0
LINE
  5
9193
  8
0
 10
480.51950035798012
 20
720.32488969527833
 30
0.0
 11
446.51950035798001
 21
720.32488969527833
 31
0.0
  0
LINE
  5
9194
  8
0
 10
480.51950035798012
 20
720.32488969527833
 30
0.0
 11
478.23541335798018
 21
707.37119069527773
 31
0.0
  0
ARC
  5
9195
  8
0
 10
476.2657983579802
 20
707.71848769527833
 30
0.0
 40
2.0
 50
270.0
 51
350.00000000000142
  0
LINE
  5
9196
  8
0
 10
480.51950035798012
 20
713.67070769527834
 30
0.0
 11
478.45619935798021
 21
701.96914769527814
 31
0.0
  0
ARC
  5
9197
  8
0
 10
476.48658435798012
 20
702.31644369527805
 30
0.0
 40
2.0
 50
270.0
 51
350.00000000000142
  0
LINE
  5
9198
  8
0
 10
285.2622383579801
 20
700.71712369527813
 30
0.0
 11
279.01950035798018
 21
700.71712369527813
 31
0.0
  0
LINE
  5
9199
  8
0
 10
480.51950035798012
 20
701.56513769527805
 30
0.0
 11
479.07444635798009
 21
693.36982769527833
 31
0.0
  0
ARC
  5
919A
  8
0
 10
477.10483035797989
 20
693.71712369527813
 30
0.0
 40
2.0
 50
270.0
 51
350.00000000000142
  0
LINE
  5
919B
  8
0
 10
415.51950035798018
 20
736.55712369527805
 30
0.0
 11
415.51950035798018
 21
733.85712369527801
 31
0.0
  0
LINE
  5
919C
  8
0
 10
485.51950035798012
 20
722.50748669527809
 30
0.0
 11
468.01950035798012
 21
722.50748669527809
 31
0.0
  0
LINE
  5
919D
  8
0
 10
485.51950035798012
 20
734.81512569527831
 30
0.0
 11
468.01950035798012
 21
734.81512569527831
 31
0.0
  0
LINE
  5
919E
  8
0
 10
485.51950035798012
 20
744.99441769527812
 30
0.0
 11
480.51950035798012
 21
744.99441769527812
 31
0.0
  0
LINE
  5
919F
  8
0
 10
466.01950035798018
 20
743.994417695278
 30
0.0
 11
466.01950035798018
 21
724.50748669527832
 31
0.0
  0
ARC
  5
91A0
  8
0
 10
465.01950035798018
 20
743.994417695278
 30
0.0
 40
1.0
 50
0.0
 51
42.252324000004279
  0
ARC
  5
91A1
  8
0
 10
468.01950035798012
 20
724.50748669527832
 30
0.0
 40
2.0
 50
180.0
 51
270.0
  0
LINE
  5
91A2
  8
0
 10
430.51950035798012
 20
841.65008169527812
 30
0.0
 11
430.51950035798012
 21
835.82251869527806
 31
0.0
  0
LINE
  5
91A3
  8
0
 10
446.51950035798001
 20
841.65008169527812
 30
0.0
 11
446.51950035798001
 21
835.82251869527806
 31
0.0
  0
LINE
  5
91A4
  8
0
 10
430.51950035798012
 20
832.69160569527821
 30
0.0
 11
430.51950035798012
 21
824.76743269527833
 31
0.0
  0
LINE
  5
91A5
  8
0
 10
430.51950035798012
 20
821.72172669527833
 30
0.0
 11
430.51950035798012
 21
813.73155869527795
 31
0.0
  0
LINE
  5
91A6
  8
0
 10
430.51950035798012
 20
810.7389316952781
 30
0.0
 11
430.51950035798012
 21
802.70823069527808
 31
0.0
  0
LINE
  5
91A7
  8
0
 10
430.51950035798012
 20
799.74675169527814
 30
0.0
 11
430.51950035798012
 21
792.69496769527814
 31
0.0
  0
LINE
  5
91A8
  8
0
 10
430.51950035798012
 20
789.87712369527833
 30
0.0
 11
430.51950035798012
 21
779.68697169527832
 31
0.0
  0
LINE
  5
91A9
  8
0
 10
446.51950035798001
 20
789.87712369527833
 30
0.0
 11
446.51950035798001
 21
779.68697169527832
 31
0.0
  0
LINE
  5
91AA
  8
0
 10
446.51950035798001
 20
799.74675169527814
 30
0.0
 11
446.51950035798001
 21
792.69496769527814
 31
0.0
  0
LINE
  5
91AB
  8
0
 10
446.51950035798001
 20
810.7389316952781
 30
0.0
 11
446.51950035798001
 21
802.70823069527808
 31
0.0
  0
LINE
  5
91AC
  8
0
 10
446.51950035798001
 20
821.72172669527833
 30
0.0
 11
446.51950035798001
 21
813.73155869527795
 31
0.0
  0
LINE
  5
91AD
  8
0
 10
446.51950035798001
 20
832.69160569527821
 30
0.0
 11
446.51950035798001
 21
824.76743269527833
 31
0.0
  0
LINE
  5
91AE
  8
0
 10
430.51950035798012
 20
776.73927969527813
 30
0.0
 11
430.51950035798012
 21
769.68749569527813
 31
0.0
  0
LINE
  5
91AF
  8
0
 10
446.51950035798001
 20
776.73927969527813
 30
0.0
 11
446.51950035798001
 21
769.68749569527813
 31
0.0
  0
LINE
  5
91B0
  8
0
 10
446.51950035798001
 20
766.72601669527819
 30
0.0
 11
446.51950035798001
 21
758.69531569527805
 31
0.0
  0
LINE
  5
91B1
  8
0
 10
430.51950035798012
 20
766.72601669527819
 30
0.0
 11
430.51950035798012
 21
758.69531569527805
 31
0.0
  0
LINE
  5
91B2
  8
0
 10
430.51950035798012
 20
755.70268869527808
 30
0.0
 11
430.51950035798012
 21
747.71252069527816
 31
0.0
  0
LINE
  5
91B3
  8
0
 10
446.51950035798001
 20
755.70268869527808
 30
0.0
 11
446.51950035798001
 21
747.71252069527816
 31
0.0
  0
LINE
  5
91B4
  8
0
 10
461.06889535798018
 20
728.69632769527811
 30
0.0
 11
446.5194993579799
 21
728.69632769527811
 31
0.0
  0
LINE
  5
91B5
  8
0
 10
466.01950035798018
 20
740.10867769527806
 30
0.0
 11
446.5194993579799
 21
740.10867769527806
 31
0.0
  0
LINE
  5
91B6
  8
0
 10
430.51950035798012
 20
744.66681469527805
 30
0.0
 11
430.51950035798012
 21
724.66681469527816
 31
0.0
  0
LINE
  5
91B7
  8
0
 10
482.51950035798018
 20
868.58077269527814
 30
0.0
 11
482.51950035798018
 21
872.71712369527813
 31
0.0
  0
LINE
  5
91B8
  8
0
 10
480.51950035798012
 20
698.51537969527806
 30
0.0
 11
479.61220035797999
 21
693.36982769527833
 31
0.0
  0
ARC
  5
91B9
  8
0
 10
477.64258535798012
 20
693.71712369527813
 30
0.0
 40
2.0
 50
270.0
 51
350.00000000000142
  0
LINE
  5
91BA
  8
0
 10
446.51950035798001
 20
744.66681469527805
 30
0.0
 11
446.51950035798001
 21
740.10867769527806
 31
0.0
  0
LINE
  5
91BB
  8
0
 10
482.51950035798018
 20
744.99441769527812
 30
0.0
 11
482.51950035798018
 21
846.78308569527815
 31
0.0
  0
LINE
  5
91BC
  8
0
 10
281.51950035798018
 20
724.85712369527812
 30
0.0
 11
284.60274235798028
 21
707.37119069527773
 31
0.0
  0
ARC
  5
91BD
  8
0
 10
286.57235735798031
 20
707.71848769527833
 30
0.0
 40
2.0
 50
189.99999999999861
 51
270.0
  0
LINE
  5
91BE
  8
0
 10
431.22489735798013
 20
733.41141769527815
 30
0.0
 11
446.51950035798001
 21
728.69632769527811
 31
0.0
  0
LINE
  5
91BF
  8
0
 10
446.51950035798001
 20
740.10867769527806
 30
0.0
 11
431.48355935797991
 21
739.56792669527806
 31
0.0
  0
LINE
  5
91C0
  8
0
 10
446.51950035798001
 20
728.69632769527811
 30
0.0
 11
446.51950035798001
 21
720.32488969527833
 31
0.0
  0
ARC
  5
91C1
  8
0
 10
431.51950035798012
 20
738.56857269527814
 30
0.0
 40
1.0
 50
92.059691000003568
 51
180.0
  0
ARC
  5
91C2
  8
0
 10
431.51950035798012
 20
734.36703769527833
 30
0.0
 40
1.0
 50
180.0
 51
252.8662750000021
  0
LINE
  5
91C3
  8
0
 10
446.51950035798001
 20
860.56991069527817
 30
0.0
 11
431.21904135798007
 21
855.75004469527812
 31
0.0
  0
LINE
  5
91C4
  8
0
 10
431.56805535797997
 20
851.44636369527814
 30
0.0
 11
446.51950035798001
 21
852.17318369527811
 31
0.0
  0
ARC
  5
91C5
  8
0
 10
431.51950035798012
 20
854.79624969527822
 30
0.0
 40
1.0
 50
107.485179
 51
180.0
  0
ARC
  5
91C6
  8
0
 10
431.51950035798012
 20
852.44518469527816
 30
0.0
 40
1.0
 50
180.0
 51
270.0
  0
ARC
  5
91C7
  8
0
  6
CONTINUOUS
 10
463.21929935798011
 20
730.15846269527833
 30
0.0
 40
2.6003989999999999
 50
179.99998200000081
 51
269.99997799999522
  0
ARC
  5
91C8
  8
0
  6
CONTINUOUS
 10
463.21929935798011
 20
735.45845069527809
 30
0.0
 40
2.600403
 50
90.0
 51
179.99998200000081
  0
LINE
  5
91C9
  8
0
  6
CONTINUOUS
 10
466.01950035798018
 20
732.87448169527829
 30
0.0
 11
464.51950035798012
 21
732.00845669527814
 31
0.0
  0
LINE
  5
91CA
  8
0
  6
CONTINUOUS
 10
466.01950035798018
 20
733.87448169527818
 30
0.0
 11
464.51950035798012
 21
733.00845669527814
 31
0.0
  0
LINE
  5
91CB
  8
0
  6
CONTINUOUS
 10
466.01950035798018
 20
738.90845669527812
 30
0.0
 11
466.01950035798018
 21
726.7084566952783
 31
0.0
  0
LINE
  5
91CC
  8
0
  6
CONTINUOUS
 10
464.51950035798012
 20
738.90845669527812
 30
0.0
 11
466.01950035798018
 21
738.90845669527812
 31
0.0
  0
LINE
  5
91CD
  8
0
  6
CONTINUOUS
 10
464.51950035798012
 20
726.7084566952783
 30
0.0
 11
466.01950035798018
 21
726.7084566952783
 31
0.0
  0
LINE
  5
91CE
  8
0
  6
CONTINUOUS
 10
460.6195063579803
 20
735.45845069527809
 30
0.0
 11
460.6195063579803
 21
730.15846269527833
 31
0.0
  0
LINE
  5
91CF
  8
0
  6
CONTINUOUS
 10
464.51950035798012
 20
738.90845669527812
 30
0.0
 11
464.51950035798012
 21
726.7084566952783
 31
0.0
  0
LINE
  5
91D0
  8
0
  6
CONTINUOUS
 10
464.51950035798012
 20
727.5584566952781
 30
0.0
 11
463.21929935798011
 21
727.5584566952781
 31
0.0
  0
LINE
  5
91D1
  8
0
  6
CONTINUOUS
 10
464.51950035798012
 20
738.05845669527832
 30
0.0
 11
463.21929935798011
 21
738.05845669527832
 31
0.0
  0
LINE
  5
91D2
  8
0
 10
480.51950035798012
 20
844.89439169527805
 30
0.0
 11
281.51950035798018
 21
844.89439169527805
 31
0.0
  0
LINE
  5
91D3
  8
0
 10
480.51950035798012
 20
841.65008169527812
 30
0.0
 11
281.51950035798018
 21
841.65008169527812
 31
0.0
  0
LINE
  5
91D4
  8
0
 10
480.51950035798012
 20
835.82251869527806
 30
0.0
 11
281.51950035798018
 21
835.82251869527806
 31
0.0
  0
LINE
  5
91D5
  8
0
 10
480.51950035798012
 20
832.69160569527821
 30
0.0
 11
281.51950035798018
 21
832.69160569527821
 31
0.0
  0
LINE
  5
91D6
  8
0
 10
480.51950035798012
 20
824.76743269527833
 30
0.0
 11
281.51950035798018
 21
824.76743269527833
 31
0.0
  0
LINE
  5
91D7
  8
0
 10
480.51950035798012
 20
821.72172669527833
 30
0.0
 11
281.51950035798018
 21
821.72172669527833
 31
0.0
  0
LINE
  5
91D8
  8
0
 10
480.51950035798012
 20
813.73155869527795
 30
0.0
 11
281.51950035798018
 21
813.73155869527795
 31
0.0
  0
LINE
  5
91D9
  8
0
 10
480.51950035798012
 20
810.7389316952781
 30
0.0
 11
281.51950035798018
 21
810.7389316952781
 31
0.0
  0
LINE
  5
91DA
  8
0
 10
480.51950035798012
 20
802.70823069527808
 30
0.0
 11
281.51950035798018
 21
802.70823069527808
 31
0.0
  0
LINE
  5
91DB
  8
0
 10
480.51950035798012
 20
799.74675169527814
 30
0.0
 11
281.51950035798018
 21
799.74675169527814
 31
0.0
  0
LINE
  5
91DC
  8
0
 10
480.51950035798012
 20
792.69496769527814
 30
0.0
 11
386.09274335797988
 21
792.69496769527814
 31
0.0
  0
LINE
  5
91DD
  8
0
 10
480.51950035798012
 20
789.74727569527795
 30
0.0
 11
392.90514735798018
 21
789.74727569527795
 31
0.0
  0
LINE
  5
91DE
  8
0
 10
478.44057935798008
 20
844.21712369527813
 30
0.0
 11
478.44057935798008
 21
842.21712369527813
 31
0.0
  0
LINE
  5
91DF
  8
0
 10
283.59842135798021
 20
842.21712369527813
 30
0.0
 11
478.44057935798008
 21
842.21712369527813
 31
0.0
  0
LINE
  5
91E0
  8
0
 10
283.59842135798021
 20
844.21712369527813
 30
0.0
 11
478.44057935798008
 21
844.21712369527813
 31
0.0
  0
LINE
  5
91E1
  8
0
 10
283.59842135798021
 20
833.21712369527813
 30
0.0
 11
478.44057935798008
 21
833.21712369527813
 31
0.0
  0
LINE
  5
91E2
  8
0
 10
283.59842135798021
 20
835.21712369527813
 30
0.0
 11
478.44057935798008
 21
835.21712369527813
 31
0.0
  0
LINE
  5
91E3
  8
0
 10
283.59842135798021
 20
822.21712369527825
 30
0.0
 11
478.44057935798008
 21
822.21712369527825
 31
0.0
  0
LINE
  5
91E4
  8
0
 10
283.59842135798021
 20
824.21712369527813
 30
0.0
 11
478.44057935798008
 21
824.21712369527813
 31
0.0
  0
LINE
  5
91E5
  8
0
 10
283.59842135798021
 20
811.21712369527802
 30
0.0
 11
478.44057935798008
 21
811.21712369527802
 31
0.0
  0
LINE
  5
91E6
  8
0
 10
283.59842135798021
 20
813.21712369527836
 30
0.0
 11
478.44057935798008
 21
813.21712369527836
 31
0.0
  0
LINE
  5
91E7
  8
0
 10
283.59842135798021
 20
800.21712369527813
 30
0.0
 11
478.44057935798008
 21
800.21712369527813
 31
0.0
  0
LINE
  5
91E8
  8
0
 10
283.59842135798021
 20
802.21712369527813
 30
0.0
 11
478.44057935798008
 21
802.21712369527813
 31
0.0
  0
LINE
  5
91E9
  8
0
 10
392.29447735798021
 20
790.21712369527813
 30
0.0
 11
478.44057935798008
 21
790.21712369527813
 31
0.0
  0
LINE
  5
91EA
  8
0
 10
386.56623835798018
 20
792.21712369527813
 30
0.0
 11
478.44057935798008
 21
792.21712369527813
 31
0.0
  0
LINE
  5
91EB
  8
0
 10
478.44057935798008
 20
844.21712369527813
 30
0.0
 11
480.51950035798012
 21
844.89439169527805
 31
0.0
  0
LINE
  5
91EC
  8
0
 10
478.44057935798008
 20
842.21712369527813
 30
0.0
 11
480.51950035798012
 21
841.65008169527812
 31
0.0
  0
LINE
  5
91ED
  8
0
 10
478.44057935798008
 20
835.21712369527813
 30
0.0
 11
480.51950035798012
 21
835.82251869527806
 31
0.0
  0
LINE
  5
91EE
  8
0
 10
478.44057935798008
 20
833.21712369527813
 30
0.0
 11
480.51950035798012
 21
832.69160569527821
 31
0.0
  0
LINE
  5
91EF
  8
0
 10
478.44057935798008
 20
824.21712369527813
 30
0.0
 11
480.51950035798012
 21
824.76743269527833
 31
0.0
  0
LINE
  5
91F0
  8
0
 10
478.44057935798008
 20
822.21712369527825
 30
0.0
 11
480.51950035798012
 21
821.72172669527833
 31
0.0
  0
LINE
  5
91F1
  8
0
 10
478.44057935798008
 20
813.21712369527836
 30
0.0
 11
480.51950035798012
 21
813.73155869527795
 31
0.0
  0
LINE
  5
91F2
  8
0
 10
478.44057935798008
 20
811.21712369527802
 30
0.0
 11
480.51950035798012
 21
810.7389316952781
 31
0.0
  0
LINE
  5
91F3
  8
0
 10
478.44057935798008
 20
802.21712369527813
 30
0.0
 11
480.51950035798012
 21
802.70823069527808
 31
0.0
  0
LINE
  5
91F4
  8
0
 10
478.44057935798008
 20
800.21712369527813
 30
0.0
 11
480.51950035798012
 21
799.74675169527814
 31
0.0
  0
LINE
  5
91F5
  8
0
 10
478.44057935798008
 20
792.21712369527813
 30
0.0
 11
480.51950035798012
 21
792.69496769527814
 31
0.0
  0
LINE
  5
91F6
  8
0
 10
478.44057935798008
 20
790.21712369527813
 30
0.0
 11
480.51950035798012
 21
789.74727569527795
 31
0.0
  0
LINE
  5
91F7
  8
0
 10
478.44057935798008
 20
835.21712369527813
 30
0.0
 11
478.44057935798008
 21
833.21712369527813
 31
0.0
  0
LINE
  5
91F8
  8
0
 10
478.44057935798008
 20
824.21712369527813
 30
0.0
 11
478.44057935798008
 21
822.21712369527825
 31
0.0
  0
LINE
  5
91F9
  8
0
 10
478.44057935798008
 20
813.21712369527836
 30
0.0
 11
478.44057935798008
 21
811.21712369527802
 31
0.0
  0
LINE
  5
91FA
  8
0
 10
478.44057935798008
 20
802.21712369527813
 30
0.0
 11
478.44057935798008
 21
800.21712369527813
 31
0.0
  0
LINE
  5
91FB
  8
0
 10
478.44057935798008
 20
792.21712369527813
 30
0.0
 11
478.44057935798008
 21
790.21712369527813
 31
0.0
  0
ARC
  5
91FC
  8
0
 10
392.29447735798021
 20
787.21712369527813
 30
0.0
 40
3.0
 50
90.0
 51
190.2865610000006
  0
ARC
  5
91FD
  8
0
 10
392.90514735798018
 20
786.27727569527815
 30
0.0
 40
3.4700000000000002
 50
90.0
 51
186.1896490000004
  0
LINE
  5
91FE
  8
0
 10
298.59842135798021
 20
792.21712369527813
 30
0.0
 11
298.59842135798021
 21
790.21712369527813
 31
0.0
  0
LINE
  5
91FF
  8
0
 10
283.59842135798021
 20
802.21712369527813
 30
0.0
 11
283.59842135798021
 21
800.21712369527813
 31
0.0
  0
LINE
  5
9200
  8
0
 10
283.59842135798021
 20
813.21712369527836
 30
0.0
 11
283.59842135798021
 21
811.21712369527802
 31
0.0
  0
LINE
  5
9201
  8
0
 10
283.59842135798021
 20
824.21712369527813
 30
0.0
 11
283.59842135798021
 21
822.21712369527825
 31
0.0
  0
LINE
  5
9202
  8
0
 10
283.59842135798021
 20
835.21712369527813
 30
0.0
 11
283.59842135798021
 21
833.21712369527813
 31
0.0
  0
LINE
  5
9203
  8
0
 10
298.59842135798021
 20
790.21712369527813
 30
0.0
 11
296.51950035798018
 21
789.74727569527795
 31
0.0
  0
LINE
  5
9204
  8
0
 10
298.59842135798021
 20
792.21712369527813
 30
0.0
 11
296.51950035798018
 21
792.69496769527814
 31
0.0
  0
LINE
  5
9205
  8
0
 10
283.59842135798021
 20
800.21712369527813
 30
0.0
 11
281.51950035798018
 21
799.74675169527814
 31
0.0
  0
LINE
  5
9206
  8
0
 10
283.59842135798021
 20
802.21712369527813
 30
0.0
 11
281.51950035798018
 21
802.70823069527808
 31
0.0
  0
LINE
  5
9207
  8
0
 10
283.59842135798021
 20
811.21712369527802
 30
0.0
 11
281.51950035798018
 21
810.7389316952781
 31
0.0
  0
LINE
  5
9208
  8
0
 10
283.59842135798021
 20
813.21712369527836
 30
0.0
 11
281.51950035798018
 21
813.73155869527795
 31
0.0
  0
LINE
  5
9209
  8
0
 10
283.59842135798021
 20
822.21712369527825
 30
0.0
 11
281.51950035798018
 21
821.72172669527833
 31
0.0
  0
LINE
  5
920A
  8
0
 10
283.59842135798021
 20
824.21712369527813
 30
0.0
 11
281.51950035798018
 21
824.76743269527833
 31
0.0
  0
LINE
  5
920B
  8
0
 10
283.59842135798021
 20
833.21712369527813
 30
0.0
 11
281.51950035798018
 21
832.69160569527821
 31
0.0
  0
LINE
  5
920C
  8
0
 10
283.59842135798021
 20
835.21712369527813
 30
0.0
 11
281.51950035798018
 21
835.82251869527806
 31
0.0
  0
LINE
  5
920D
  8
0
 10
283.59842135798021
 20
842.21712369527813
 30
0.0
 11
281.51950035798018
 21
841.65008169527812
 31
0.0
  0
LINE
  5
920E
  8
0
 10
283.59842135798021
 20
844.21712369527813
 30
0.0
 11
281.51950035798018
 21
844.89439169527805
 31
0.0
  0
LINE
  5
920F
  8
0
 10
283.59842135798021
 20
844.21712369527813
 30
0.0
 11
283.59842135798021
 21
842.21712369527813
 31
0.0
  0
LINE
  5
9210
  8
0
 10
281.51950035798018
 20
841.65008169527812
 30
0.0
 11
281.51950035798018
 21
844.89439169527805
 31
0.0
  0
LINE
  5
9211
  8
0
 10
281.51950035798018
 20
832.69160569527821
 30
0.0
 11
281.51950035798018
 21
835.82251869527806
 31
0.0
  0
LINE
  5
9212
  8
0
 10
281.51950035798018
 20
821.72172669527833
 30
0.0
 11
281.51950035798018
 21
824.76743269527833
 31
0.0
  0
LINE
  5
9213
  8
0
 10
281.51950035798018
 20
810.7389316952781
 30
0.0
 11
281.51950035798018
 21
813.73155869527795
 31
0.0
  0
LINE
  5
9214
  8
0
 10
281.51950035798018
 20
799.74675169527814
 30
0.0
 11
281.51950035798018
 21
802.70823069527808
 31
0.0
  0
LINE
  5
9215
  8
0
 10
296.51950035798018
 20
789.74727569527795
 30
0.0
 11
296.51950035798018
 21
792.69496769527814
 31
0.0
  0
LINE
  5
9216
  8
0
 10
296.51950035798018
 20
792.69496769527814
 30
0.0
 11
370.9462573579803
 21
792.69496769527814
 31
0.0
  0
LINE
  5
9217
  8
0
 10
296.51950035798018
 20
789.74727569527795
 30
0.0
 11
364.13385335798012
 21
789.74727569527795
 31
0.0
  0
LINE
  5
9218
  8
0
 10
364.74452335798009
 20
790.21712369527813
 30
0.0
 11
298.59842135798021
 21
790.21712369527813
 31
0.0
  0
LINE
  5
9219
  8
0
 10
370.47276235798017
 20
792.21712369527813
 30
0.0
 11
298.59842135798021
 21
792.21712369527813
 31
0.0
  0
ARC
  5
921A
  8
0
 10
364.74452335798009
 20
787.21712369527813
 30
0.0
 40
3.0
 50
349.71343899999943
 51
90.0
  0
ARC
  5
921B
  8
0
 10
364.13385335798012
 20
786.27727569527815
 30
0.0
 40
3.4700000000000002
 50
353.81035099999951
 51
90.0
  0
LINE
  5
921C
  8
0
 10
480.51950035798012
 20
744.66681469527805
 30
0.0
 11
281.51950035798018
 21
744.66681469527805
 31
0.0
  0
LINE
  5
921D
  8
0
 10
480.51950035798012
 20
747.71252069527816
 30
0.0
 11
281.51950035798018
 21
747.71252069527816
 31
0.0
  0
LINE
  5
921E
  8
0
 10
480.51950035798012
 20
755.70268869527808
 30
0.0
 11
281.51950035798018
 21
755.70268869527808
 31
0.0
  0
LINE
  5
921F
  8
0
 10
480.51950035798012
 20
758.69531569527805
 30
0.0
 11
281.51950035798018
 21
758.69531569527805
 31
0.0
  0
LINE
  5
9220
  8
0
 10
480.51950035798012
 20
766.72601669527819
 30
0.0
 11
281.51950035798018
 21
766.72601669527819
 31
0.0
  0
LINE
  5
9221
  8
0
 10
480.51950035798012
 20
769.68749569527813
 30
0.0
 11
281.51950035798018
 21
769.68749569527813
 31
0.0
  0
LINE
  5
9222
  8
0
 10
283.59842135798021
 20
747.21712369527813
 30
0.0
 11
478.44057935798008
 21
747.21712369527813
 31
0.0
  0
LINE
  5
9223
  8
0
 10
283.59842135798021
 20
745.21712369527813
 30
0.0
 11
478.44057935798008
 21
745.21712369527813
 31
0.0
  0
LINE
  5
9224
  8
0
 10
283.59842135798021
 20
758.21712369527813
 30
0.0
 11
478.44057935798008
 21
758.21712369527813
 31
0.0
  0
LINE
  5
9225
  8
0
 10
283.59842135798021
 20
756.21712369527813
 30
0.0
 11
478.44057935798008
 21
756.21712369527813
 31
0.0
  0
LINE
  5
9226
  8
0
 10
283.59842135798021
 20
769.21712369527813
 30
0.0
 11
478.44057935798008
 21
769.21712369527813
 31
0.0
  0
LINE
  5
9227
  8
0
 10
283.59842135798021
 20
767.21712369527813
 30
0.0
 11
478.44057935798008
 21
767.21712369527813
 31
0.0
  0
LINE
  5
9228
  8
0
 10
296.51950035798018
 20
776.73927969527813
 30
0.0
 11
370.9462573579803
 21
776.73927969527813
 31
0.0
  0
LINE
  5
9229
  8
0
 10
296.51950035798018
 20
779.68697169527832
 30
0.0
 11
364.13385335798012
 21
779.68697169527832
 31
0.0
  0
LINE
  5
922A
  8
0
 10
364.74452335798009
 20
779.21712369527813
 30
0.0
 11
298.59842135798021
 21
779.21712369527813
 31
0.0
  0
LINE
  5
922B
  8
0
 10
370.47276235798017
 20
777.21712369527813
 30
0.0
 11
298.59842135798021
 21
777.21712369527813
 31
0.0
  0
LINE
  5
922C
  8
0
 10
296.51950035798018
 20
779.68697169527832
 30
0.0
 11
296.51950035798018
 21
776.73927969527813
 31
0.0
  0
LINE
  5
922D
  8
0
 10
281.51950035798018
 20
769.68749569527813
 30
0.0
 11
281.51950035798018
 21
766.72601669527819
 31
0.0
  0
LINE
  5
922E
  8
0
 10
281.51950035798018
 20
758.69531569527805
 30
0.0
 11
281.51950035798018
 21
755.70268869527808
 31
0.0
  0
LINE
  5
922F
  8
0
 10
281.51950035798018
 20
747.71252069527816
 30
0.0
 11
281.51950035798018
 21
744.66681469527805
 31
0.0
  0
LINE
  5
9230
  8
0
 10
283.59842135798021
 20
745.21712369527813
 30
0.0
 11
281.51950035798018
 21
744.66681469527805
 31
0.0
  0
LINE
  5
9231
  8
0
 10
283.59842135798021
 20
747.21712369527813
 30
0.0
 11
281.51950035798018
 21
747.71252069527816
 31
0.0
  0
LINE
  5
9232
  8
0
 10
283.59842135798021
 20
756.21712369527813
 30
0.0
 11
281.51950035798018
 21
755.70268869527808
 31
0.0
  0
LINE
  5
9233
  8
0
 10
283.59842135798021
 20
758.21712369527813
 30
0.0
 11
281.51950035798018
 21
758.69531569527805
 31
0.0
  0
LINE
  5
9234
  8
0
 10
283.59842135798021
 20
767.21712369527813
 30
0.0
 11
281.51950035798018
 21
766.72601669527819
 31
0.0
  0
LINE
  5
9235
  8
0
 10
283.59842135798021
 20
769.21712369527813
 30
0.0
 11
281.51950035798018
 21
769.68749569527813
 31
0.0
  0
LINE
  5
9236
  8
0
 10
298.59842135798021
 20
777.21712369527813
 30
0.0
 11
296.51950035798018
 21
776.73927969527813
 31
0.0
  0
LINE
  5
9237
  8
0
 10
298.59842135798021
 20
779.21712369527813
 30
0.0
 11
296.51950035798018
 21
779.68697169527832
 31
0.0
  0
LINE
  5
9238
  8
0
 10
283.59842135798021
 20
745.21712369527813
 30
0.0
 11
283.59842135798021
 21
747.21712369527813
 31
0.0
  0
LINE
  5
9239
  8
0
 10
283.59842135798021
 20
756.21712369527813
 30
0.0
 11
283.59842135798021
 21
758.21712369527813
 31
0.0
  0
LINE
  5
923A
  8
0
 10
283.59842135798021
 20
767.21712369527813
 30
0.0
 11
283.59842135798021
 21
769.21712369527813
 31
0.0
  0
LINE
  5
923B
  8
0
 10
298.59842135798021
 20
777.21712369527813
 30
0.0
 11
298.59842135798021
 21
779.21712369527813
 31
0.0
  0
ARC
  5
923C
  8
0
 10
364.74452335798009
 20
782.21712369527813
 30
0.0
 40
3.0
 50
270.0
 51
10.286561000000651
  0
ARC
  5
923D
  8
0
 10
364.13385335798012
 20
783.15697169527812
 30
0.0
 40
3.4700000000000002
 50
270.0
 51
6.1896490000005366
  0
LINE
  5
923E
  8
0
 10
480.51950035798012
 20
776.73927969527813
 30
0.0
 11
386.09274335797988
 21
776.73927969527813
 31
0.0
  0
LINE
  5
923F
  8
0
 10
480.51950035798012
 20
779.68697169527832
 30
0.0
 11
392.90514735798018
 21
779.68697169527832
 31
0.0
  0
LINE
  5
9240
  8
0
 10
392.29447735798021
 20
779.21712369527813
 30
0.0
 11
478.44057935798008
 21
779.21712369527813
 31
0.0
  0
LINE
  5
9241
  8
0
 10
386.56623835798018
 20
777.21712369527813
 30
0.0
 11
478.44057935798008
 21
777.21712369527813
 31
0.0
  0
ARC
  5
9242
  8
0
 10
392.29447735798021
 20
782.21712369527813
 30
0.0
 40
3.0
 50
169.71343899999931
 51
270.0
  0
ARC
  5
9243
  8
0
 10
392.90514735798018
 20
783.15697169527812
 30
0.0
 40
3.4700000000000002
 50
173.8103509999994
 51
270.0
  0
LINE
  5
9244
  8
0
 10
478.44057935798008
 20
777.21712369527813
 30
0.0
 11
478.44057935798008
 21
779.21712369527813
 31
0.0
  0
LINE
  5
9245
  8
0
 10
478.44057935798008
 20
767.21712369527813
 30
0.0
 11
478.44057935798008
 21
769.21712369527813
 31
0.0
  0
LINE
  5
9246
  8
0
 10
478.44057935798008
 20
756.21712369527813
 30
0.0
 11
478.44057935798008
 21
758.21712369527813
 31
0.0
  0
LINE
  5
9247
  8
0
 10
478.44057935798008
 20
745.21712369527813
 30
0.0
 11
478.44057935798008
 21
747.21712369527813
 31
0.0
  0
LINE
  5
9248
  8
0
 10
478.44057935798008
 20
779.21712369527813
 30
0.0
 11
480.51950035798012
 21
779.68697169527832
 31
0.0
  0
LINE
  5
9249
  8
0
 10
478.44057935798008
 20
777.21712369527813
 30
0.0
 11
480.51950035798012
 21
776.73927969527813
 31
0.0
  0
LINE
  5
924A
  8
0
 10
478.44057935798008
 20
769.21712369527813
 30
0.0
 11
480.51950035798012
 21
769.68749569527813
 31
0.0
  0
LINE
  5
924B
  8
0
 10
478.44057935798008
 20
767.21712369527813
 30
0.0
 11
480.51950035798012
 21
766.72601669527819
 31
0.0
  0
LINE
  5
924C
  8
0
 10
478.44057935798008
 20
758.21712369527813
 30
0.0
 11
480.51950035798012
 21
758.69531569527805
 31
0.0
  0
LINE
  5
924D
  8
0
 10
478.44057935798008
 20
756.21712369527813
 30
0.0
 11
480.51950035798012
 21
755.70268869527808
 31
0.0
  0
LINE
  5
924E
  8
0
 10
478.44057935798008
 20
747.21712369527813
 30
0.0
 11
480.51950035798012
 21
747.71252069527816
 31
0.0
  0
LINE
  5
924F
  8
0
 10
478.44057935798008
 20
745.21712369527813
 30
0.0
 11
480.51950035798012
 21
744.66681469527805
 31
0.0
  0
LINE
  5
9250
  8
0
 10
480.51950035798012
 20
747.71252069527816
 30
0.0
 11
480.51950035798012
 21
744.66681469527805
 31
0.0
  0
LINE
  5
9251
  8
0
 10
480.51950035798012
 20
758.69531569527805
 30
0.0
 11
480.51950035798012
 21
755.70268869527808
 31
0.0
  0
LINE
  5
9252
  8
0
 10
480.51950035798012
 20
769.68749569527813
 30
0.0
 11
480.51950035798012
 21
766.72601669527819
 31
0.0
  0
LINE
  5
9253
  8
0
 10
480.51950035798012
 20
779.68697169527832
 30
0.0
 11
480.51950035798012
 21
776.73927969527813
 31
0.0
  0
LINE
  5
9254
  8
0
 10
413.44057935798008
 20
736.21712369527813
 30
0.0
 11
415.51950035798018
 21
736.71252069527804
 31
0.0
  0
LINE
  5
9255
  8
0
 10
415.51950035798018
 20
736.71252069527804
 30
0.0
 11
281.51950035798018
 21
736.71252069527804
 31
0.0
  0
LINE
  5
9256
  8
0
 10
283.59842135798021
 20
736.21712369527813
 30
0.0
 11
413.44057935798008
 21
736.21712369527813
 31
0.0
  0
LINE
  5
9257
  8
0
 10
413.44057935798008
 20
734.21712369527813
 30
0.0
 11
413.44057935798008
 21
736.21712369527813
 31
0.0
  0
LINE
  5
9258
  8
0
 10
415.51950035798018
 20
733.66681469527805
 30
0.0
 11
281.51950035798018
 21
733.66681469527805
 31
0.0
  0
LINE
  5
9259
  8
0
 10
283.59842135798021
 20
734.21712369527813
 30
0.0
 11
413.44057935798008
 21
734.21712369527813
 31
0.0
  0
LINE
  5
925A
  8
0
 10
413.44057935798008
 20
734.21712369527813
 30
0.0
 11
415.51950035798018
 21
733.66681469527805
 31
0.0
  0
LINE
  5
925B
  8
0
 10
415.51950035798018
 20
727.71252069527804
 30
0.0
 11
281.51950035798018
 21
727.71252069527804
 31
0.0
  0
LINE
  5
925C
  8
0
 10
283.59842135798021
 20
727.21712369527813
 30
0.0
 11
413.44057935798008
 21
727.21712369527813
 31
0.0
  0
LINE
  5
925D
  8
0
 10
415.51950035798018
 20
724.66681469527816
 30
0.0
 11
281.55305735798021
 21
724.66681469527816
 31
0.0
  0
LINE
  5
925E
  8
0
 10
283.59842135798021
 20
725.21712369527813
 30
0.0
 11
413.44057935798008
 21
725.21712369527813
 31
0.0
  0
LINE
  5
925F
  8
0
 10
413.44057935798008
 20
725.21712369527813
 30
0.0
 11
415.51950035798018
 21
724.66681469527816
 31
0.0
  0
LINE
  5
9260
  8
0
 10
415.51950035798018
 20
727.71252069527804
 30
0.0
 11
415.51950035798018
 21
724.66681469527816
 31
0.0
  0
LINE
  5
9261
  8
0
 10
413.44057935798008
 20
725.21712369527813
 30
0.0
 11
413.44057935798008
 21
727.21712369527813
 31
0.0
  0
LINE
  5
9262
  8
0
 10
413.44057935798008
 20
727.21712369527813
 30
0.0
 11
415.51950035798018
 21
727.71252069527804
 31
0.0
  0
LINE
  5
9263
  8
0
 10
415.51950035798018
 20
724.66681469527816
 30
0.0
 11
430.51950035798012
 21
724.66681469527816
 31
0.0
  0
LINE
  5
9264
  8
0
 10
430.51950035798012
 20
724.66681469527816
 30
0.0
 11
446.51950035798001
 21
720.32488969527833
 31
0.0
  0
LINE
  5
9265
  8
0
 10
281.51950035798018
 20
736.71252069527804
 30
0.0
 11
281.51950035798018
 21
733.66681469527805
 31
0.0
  0
LINE
  5
9266
  8
0
 10
281.51950035798018
 20
727.71252069527804
 30
0.0
 11
281.51950035798018
 21
724.66681469527816
 31
0.0
  0
LINE
  5
9267
  8
0
 10
283.59842135798021
 20
734.21712369527813
 30
0.0
 11
283.59842135798021
 21
736.21712369527813
 31
0.0
  0
LINE
  5
9268
  8
0
 10
283.59842135798021
 20
736.21712369527813
 30
0.0
 11
281.51950035798018
 21
736.71252069527804
 31
0.0
  0
LINE
  5
9269
  8
0
 10
283.59842135798021
 20
734.21712369527813
 30
0.0
 11
281.51950035798018
 21
733.66681469527805
 31
0.0
  0
LINE
  5
926A
  8
0
 10
283.59842135798021
 20
727.21712369527813
 30
0.0
 11
281.51950035798018
 21
727.71252069527804
 31
0.0
  0
LINE
  5
926B
  8
0
 10
283.59842135798021
 20
725.21712369527813
 30
0.0
 11
283.59842135798021
 21
727.21712369527813
 31
0.0
  0
LINE
  5
926C
  8
0
 10
283.59842135798021
 20
725.21712369527813
 30
0.0
 11
281.51950035798018
 21
724.66681469527816
 31
0.0
  0
LINE
  5
926D
  8
0
 10
179.41953035798019
 20
884.71712369527825
 30
0.0
 11
257.01950035798018
 21
884.71712369527825
 31
0.0
  0
LINE
  5
926E
  8
0
 10
179.41953035798019
 20
890.71712369527802
 30
0.0
 11
257.01950035798018
 21
890.71712369527802
 31
0.0
  0
LINE
  5
926F
  8
0
 10
279.01950035798018
 20
881.71712369527813
 30
0.0
 11
175.51950035798021
 21
881.71712369527813
 31
0.0
  0
LINE
  5
9270
  8
0
 10
268.01950035798018
 20
884.71712369527825
 30
0.0
 11
281.51950035798018
 21
884.71712369527825
 31
0.0
  0
ARC
  5
9271
  8
0
 10
925.80648035798004
 20
784.71712369527813
 30
0.0
 40
764.28698999999995
 50
172.82194999999871
 51
187.17804000000049
  0
LINE
  5
9272
  8
0
 10
172.16953035798019
 20
691.11708369527832
 30
0.0
 11
172.16953035798019
 21
878.40706369527811
 31
0.0
  0
LINE
  5
9273
  8
0
 10
166.51950035798009
 20
847.15706369527811
 30
0.0
 11
166.51950035798009
 21
721.57710369527774
 31
0.0
  0
LINE
  5
9274
  8
0
 10
164.51950035798009
 20
847.15706369527811
 30
0.0
 11
164.51950035798009
 21
722.26704369527829
 31
0.0
  0
LINE
  5
9275
  8
0
 10
279.01950035798018
 20
687.71712369527813
 30
0.0
 11
175.51950035798021
 21
687.71712369527813
 31
0.0
  0
LINE
  5
9276
  8
0
 10
166.6694703579802
 20
718.88710369527814
 30
0.0
 11
171.57950035798009
 21
691.01710369527814
 31
0.0
  0
ARC
  5
9277
  8
0
 10
179.4212403579802
 20
690.71516369527808
 30
0.0
 40
5.9980479999999998
 50
207.05351000000039
 51
269.98324000000241
  0
ARC
  5
9278
  8
0
 10
179.42197035798009
 20
690.71321369527811
 30
0.0
 40
11.996128000000001
 50
187.16444000000149
 51
269.98821999999512
  0
ARC
  5
9279
  8
0
 10
165.6799003579801
 20
718.72017369527805
 30
0.0
 40
1.0035289999999999
 50
9.5734909999996063
 51
62.101815000001061
  0
ARC
  5
927A
  8
0
 10
167.5180403579802
 20
722.27510369527806
 30
0.0
 40
2.9985330000000001
 50
180.1533100000014
 51
242.84513000000379
  0
ARC
  5
927B
  8
0
 10
175.51889035798021
 20
691.71846369527805
 30
0.0
 40
4.0014059999999976
 50
190.09553000000011
 51
270.00784999999382
  0
LINE
  5
927C
  8
0
 10
166.6694703579802
 20
850.53706369527833
 30
0.0
 11
171.5794403579801
 21
878.40706369527811
 31
0.0
  0
ARC
  5
927D
  8
0
 10
175.5190203579802
 20
877.71773369527796
 30
0.0
 40
3.9993959999999982
 50
89.993274999998206
 51
170.07405999999821
  0
ARC
  5
927E
  8
0
 10
165.68015035798021
 20
850.71626369527814
 30
0.0
 40
1.005431999999995
 50
297.82706000000729
 51
349.73527000000468
  0
ARC
  5
927F
  8
0
 10
167.5167003579802
 20
847.15987369527807
 30
0.0
 40
2.997211999999998
 50
117.13965999999481
 51
180.05330999999691
  0
ARC
  5
9280
  8
0
 10
179.42038035798021
 20
878.72041369527801
 30
0.0
 40
5.9966319999999991
 50
90.008472000000253
 51
152.954760000004
  0
ARC
  5
9281
  8
0
 10
179.4209903579802
 20
878.72206369527805
 30
0.0
 40
11.995034
 50
90.007167000000024
 51
172.84015999999829
  0
LINE
  5
9282
  8
0
 10
159.12949035798019
 20
779.71712369527813
 30
0.0
 11
159.12949035798019
 21
789.71712369527813
 31
0.0
  0
LINE
  5
9283
  8
0
 10
161.53952035798019
 20
789.71712369527813
 30
0.0
 11
159.12949035798019
 21
789.71712369527813
 31
0.0
  0
LINE
  5
9284
  8
0
 10
161.53952035798019
 20
779.71712369527813
 30
0.0
 11
159.12949035798019
 21
779.71712369527813
 31
0.0
  0
LINE
  5
9285
  8
0
 10
410.64437435797998
 20
659.21665369527796
 30
0.0
 11
408.47006935798032
 21
659.21665369527796
 31
0.0
  0
LINE
  5
9286
  8
0
 10
416.51950035798012
 20
663.21673369527821
 30
0.0
 11
408.14437435798021
 21
663.21673369527821
 31
0.0
  0
POLYLINE
  5
9287
  8
0
 10
407.64437435798021
 20
646.21639369527827
 30
0.0
 66
     1
 70
     8
  0
VERTEX
  8
0
  5
96F8
 10
407.644
 20
646.216
 30
0.000000
  70
    32
  0
VERTEX
  8
0
  5
96F9
 10
407.675
 20
646.217
 30
0.000000
  70
    32
  0
VERTEX
  8
0
  5
96FA
 10
407.706
 20
646.217
 30
0.000000
  70
    32
  0
VERTEX
  8
0
  5
96FB
 10
407.736
 20
646.218
 30
0.000000
  70
    32
  0
VERTEX
  8
0
  5
96FC
 10
407.767
 20
646.219
 30
0.000000
  70
    32
  0
VERTEX
  8
0
  5
96FD
 10
407.798
 20
646.221
 30
0.000000
  70
    32
  0
VERTEX
  8
0
  5
96FE
 10
407.828
 20
646.223
 30
0.000000
  70
    32
  0
VERTEX
  8
0
  5
96FF
 10
407.859
 20
646.226
 30
0.000000
  70
    32
  0
VERTEX
  8
0
  5
9700
 10
407.889
 20
646.228
 30
0.000000
  70
    32
  0
VERTEX
  8
0
  5
9701
 10
407.920
 20
646.232
 30
0.000000
  70
    32
  0
VERTEX
  8
0
  5
9702
 10
407.950
 20
646.235
 30
0.000000
  70
    32
  0
VERTEX
  8
0
  5
9703
 10
407.981
 20
646.239
 30
0.000000
  70
    32
  0
VERTEX
  8
0
  5
9704
 10
408.011
 20
646.243
 30
0.000000
  70
    32
  0
VERTEX
  8
0
  5
9705
 10
408.042
 20
646.248
 30
0.000000
  70
    32
  0
VERTEX
  8
0
  5
9706
 10
408.072
 20
646.253
 30
0.000000
  70
    32
  0
VERTEX
  8
0
  5
9707
 10
408.102
 20
646.259
 30
0.000000
  70
    32
  0
VERTEX
  8
0
  5
9708
 10
408.132
 20
646.264
 30
0.000000
  70
    32
  0
VERTEX
  8
0
  5
9709
 10
408.162
 20
646.271
 30
0.000000
  70
    32
  0
VERTEX
  8
0
  5
970A
 10
408.192
 20
646.277
 30
0.000000
  70
    32
  0
VERTEX
  8
0
  5
970B
 10
408.222
 20
646.284
 30
0.000000
  70
    32
  0
VERTEX
  8
0
  5
970C
 10
408.252
 20
646.291
 30
0.000000
  70
    32
  0
VERTEX
  8
0
  5
970D
 10
408.282
 20
646.299
 30
0.000000
  70
    32
  0
VERTEX
  8
0
  5
970E
 10
408.311
 20
646.307
 30
0.000000
  70
    32
  0
VERTEX
  8
0
  5
970F
 10
408.341
 20
646.315
 30
0.000000
  70
    32
  0
VERTEX
  8
0
  5
9710
 10
408.370
 20
646.324
 30
0.000000
  70
    32
  0
VERTEX
  8
0
  5
9711
 10
408.399
 20
646.333
 30
0.000000
  70
    32
  0
VERTEX
  8
0
  5
9712
 10
408.429
 20
646.343
 30
0.000000
  70
    32
  0
VERTEX
  8
0
  5
9713
 10
408.458
 20
646.352
 30
0.000000
  70
    32
  0
VERTEX
  8
0
  5
9714
 10
408.487
 20
646.363
 30
0.000000
  70
    32
  0
VERTEX
  8
0
  5
9715
 10
408.515
 20
646.373
 30
0.000000
  70
    32
  0
VERTEX
  8
0
  5
9716
 10
408.544
 20
646.384
 30
0.000000
  70
    32
  0
VERTEX
  8
0
  5
9717
 10
408.573
 20
646.395
 30
0.000000
  70
    32
  0
VERTEX
  8
0
  5
9718
 10
408.601
 20
646.407
 30
0.000000
  70
    32
  0
VERTEX
  8
0
  5
9719
 10
408.629
 20
646.419
 30
0.000000
  70
    32
  0
VERTEX
  8
0
  5
971A
 10
408.657
 20
646.431
 30
0.000000
  70
    32
  0
VERTEX
  8
0
  5
971B
 10
408.685
 20
646.443
 30
0.000000
  70
    32
  0
VERTEX
  8
0
  5
971C
 10
408.713
 20
646.456
 30
0.000000
  70
    32
  0
VERTEX
  8
0
  5
971D
 10
408.741
 20
646.470
 30
0.000000
  70
    32
  0
VERTEX
  8
0
  5
971E
 10
408.768
 20
646.483
 30
0.000000
  70
    32
  0
VERTEX
  8
0
  5
971F
 10
408.796
 20
646.497
 30
0.000000
  70
    32
  0
VERTEX
  8
0
  5
9720
 10
408.823
 20
646.512
 30
0.000000
  70
    32
  0
VERTEX
  8
0
  5
9721
 10
408.850
 20
646.526
 30
0.000000
  70
    32
  0
VERTEX
  8
0
  5
9722
 10
408.877
 20
646.541
 30
0.000000
  70
    32
  0
VERTEX
  8
0
  5
9723
 10
408.903
 20
646.556
 30
0.000000
  70
    32
  0
VERTEX
  8
0
  5
9724
 10
408.930
 20
646.572
 30
0.000000
  70
    32
  0
VERTEX
  8
0
  5
9725
 10
408.956
 20
646.588
 30
0.000000
  70
    32
  0
VERTEX
  8
0
  5
9726
 10
408.982
 20
646.604
 30
0.000000
  70
    32
  0
VERTEX
  8
0
  5
9727
 10
409.008
 20
646.621
 30
0.000000
  70
    32
  0
VERTEX
  8
0
  5
9728
 10
409.033
 20
646.638
 30
0.000000
  70
    32
  0
VERTEX
  8
0
  5
9729
 10
409.059
 20
646.655
 30
0.000000
  70
    32
  0
VERTEX
  8
0
  5
972A
 10
409.084
 20
646.672
 30
0.000000
  70
    32
  0
VERTEX
  8
0
  5
972B
 10
409.109
 20
646.690
 30
0.000000
  70
    32
  0
VERTEX
  8
0
  5
972C
 10
409.134
 20
646.708
 30
0.000000
  70
    32
  0
VERTEX
  8
0
  5
972D
 10
409.158
 20
646.727
 30
0.000000
  70
    32
  0
VERTEX
  8
0
  5
972E
 10
409.182
 20
646.746
 30
0.000000
  70
    32
  0
VERTEX
  8
0
  5
972F
 10
409.207
 20
646.765
 30
0.000000
  70
    32
  0
VERTEX
  8
0
  5
9730
 10
409.230
 20
646.784
 30
0.000000
  70
    32
  0
VERTEX
  8
0
  5
9731
 10
409.254
 20
646.803
 30
0.000000
  70
    32
  0
VERTEX
  8
0
  5
9732
 10
409.277
 20
646.823
 30
0.000000
  70
    32
  0
VERTEX
  8
0
  5
9733
 10
409.300
 20
646.844
 30
0.000000
  70
    32
  0
VERTEX
  8
0
  5
9734
 10
409.323
 20
646.864
 30
0.000000
  70
    32
  0
VERTEX
  8
0
  5
9735
 10
409.346
 20
646.885
 30
0.000000
  70
    32
  0
VERTEX
  8
0
  5
9736
 10
409.368
 20
646.906
 30
0.000000
  70
    32
  0
VERTEX
  8
0
  5
9737
 10
409.390
 20
646.927
 30
0.000000
  70
    32
  0
VERTEX
  8
0
  5
9738
 10
409.412
 20
646.949
 30
0.000000
  70
    32
  0
VERTEX
  8
0
  5
9739
 10
409.434
 20
646.970
 30
0.000000
  70
    32
  0
VERTEX
  8
0
  5
973A
 10
409.455
 20
646.993
 30
0.000000
  70
    32
  0
VERTEX
  8
0
  5
973B
 10
409.476
 20
647.015
 30
0.000000
  70
    32
  0
VERTEX
  8
0
  5
973C
 10
409.497
 20
647.038
 30
0.000000
  70
    32
  0
VERTEX
  8
0
  5
973D
 10
409.517
 20
647.060
 30
0.000000
  70
    32
  0
VERTEX
  8
0
  5
973E
 10
409.537
 20
647.083
 30
0.000000
  70
    32
  0
VERTEX
  8
0
  5
973F
 10
409.557
 20
647.107
 30
0.000000
  70
    32
  0
VERTEX
  8
0
  5
9740
 10
409.577
 20
647.130
 30
0.000000
  70
    32
  0
VERTEX
  8
0
  5
9741
 10
409.596
 20
647.154
 30
0.000000
  70
    32
  0
VERTEX
  8
0
  5
9742
 10
409.615
 20
647.178
 30
0.000000
  70
    32
  0
VERTEX
  8
0
  5
9743
 10
409.634
 20
647.203
 30
0.000000
  70
    32
  0
VERTEX
  8
0
  5
9744
 10
409.652
 20
647.227
 30
0.000000
  70
    32
  0
VERTEX
  8
0
  5
9745
 10
409.671
 20
647.252
 30
0.000000
  70
    32
  0
VERTEX
  8
0
  5
9746
 10
409.688
 20
647.277
 30
0.000000
  70
    32
  0
VERTEX
  8
0
  5
9747
 10
409.706
 20
647.302
 30
0.000000
  70
    32
  0
VERTEX
  8
0
  5
9748
 10
409.723
 20
647.327
 30
0.000000
  70
    32
  0
VERTEX
  8
0
  5
9749
 10
409.740
 20
647.353
 30
0.000000
  70
    32
  0
VERTEX
  8
0
  5
974A
 10
409.757
 20
647.379
 30
0.000000
  70
    32
  0
VERTEX
  8
0
  5
974B
 10
409.773
 20
647.405
 30
0.000000
  70
    32
  0
VERTEX
  8
0
  5
974C
 10
409.789
 20
647.431
 30
0.000000
  70
    32
  0
VERTEX
  8
0
  5
974D
 10
409.804
 20
647.458
 30
0.000000
  70
    32
  0
VERTEX
  8
0
  5
974E
 10
409.820
 20
647.484
 30
0.000000
  70
    32
  0
VERTEX
  8
0
  5
974F
 10
409.835
 20
647.511
 30
0.000000
  70
    32
  0
VERTEX
  8
0
  5
9750
 10
409.849
 20
647.538
 30
0.000000
  70
    32
  0
VERTEX
  8
0
  5
9751
 10
409.863
 20
647.565
 30
0.000000
  70
    32
  0
VERTEX
  8
0
  5
9752
 10
409.877
 20
647.592
 30
0.000000
  70
    32
  0
VERTEX
  8
0
  5
9753
 10
409.891
 20
647.620
 30
0.000000
  70
    32
  0
VERTEX
  8
0
  5
9754
 10
409.904
 20
647.648
 30
0.000000
  70
    32
  0
VERTEX
  8
0
  5
9755
 10
409.917
 20
647.675
 30
0.000000
  70
    32
  0
VERTEX
  8
0
  5
9756
 10
409.930
 20
647.703
 30
0.000000
  70
    32
  0
VERTEX
  8
0
  5
9757
 10
409.942
 20
647.731
 30
0.000000
  70
    32
  0
VERTEX
  8
0
  5
9758
 10
409.954
 20
647.760
 30
0.000000
  70
    32
  0
VERTEX
  8
0
  5
9759
 10
409.966
 20
647.788
 30
0.000000
  70
    32
  0
VERTEX
  8
0
  5
975A
 10
409.977
 20
647.817
 30
0.000000
  70
    32
  0
VERTEX
  8
0
  5
975B
 10
409.988
 20
647.845
 30
0.000000
  70
    32
  0
VERTEX
  8
0
  5
975C
 10
409.998
 20
647.874
 30
0.000000
  70
    32
  0
VERTEX
  8
0
  5
975D
 10
410.008
 20
647.903
 30
0.000000
  70
    32
  0
VERTEX
  8
0
  5
975E
 10
410.018
 20
647.932
 30
0.000000
  70
    32
  0
VERTEX
  8
0
  5
975F
 10
410.028
 20
647.961
 30
0.000000
  70
    32
  0
VERTEX
  8
0
  5
9760
 10
410.037
 20
647.991
 30
0.000000
  70
    32
  0
VERTEX
  8
0
  5
9761
 10
410.045
 20
648.020
 30
0.000000
  70
    32
  0
VERTEX
  8
0
  5
9762
 10
410.054
 20
648.050
 30
0.000000
  70
    32
  0
VERTEX
  8
0
  5
9763
 10
410.062
 20
648.079
 30
0.000000
  70
    32
  0
VERTEX
  8
0
  5
9764
 10
410.069
 20
648.109
 30
0.000000
  70
    32
  0
VERTEX
  8
0
  5
9765
 10
410.077
 20
648.139
 30
0.000000
  70
    32
  0
VERTEX
  8
0
  5
9766
 10
410.084
 20
648.169
 30
0.000000
  70
    32
  0
VERTEX
  8
0
  5
9767
 10
410.090
 20
648.199
 30
0.000000
  70
    32
  0
VERTEX
  8
0
  5
9768
 10
410.096
 20
648.229
 30
0.000000
  70
    32
  0
VERTEX
  8
0
  5
9769
 10
410.102
 20
648.259
 30
0.000000
  70
    32
  0
VERTEX
  8
0
  5
976A
 10
410.108
 20
648.289
 30
0.000000
  70
    32
  0
VERTEX
  8
0
  5
976B
 10
410.113
 20
648.319
 30
0.000000
  70
    32
  0
VERTEX
  8
0
  5
976C
 10
410.117
 20
648.350
 30
0.000000
  70
    32
  0
VERTEX
  8
0
  5
976D
 10
410.122
 20
648.380
 30
0.000000
  70
    32
  0
VERTEX
  8
0
  5
976E
 10
410.126
 20
648.410
 30
0.000000
  70
    32
  0
VERTEX
  8
0
  5
976F
 10
410.129
 20
648.441
 30
0.000000
  70
    32
  0
VERTEX
  8
0
  5
9770
 10
410.132
 20
648.471
 30
0.000000
  70
    32
  0
VERTEX
  8
0
  5
9771
 10
410.135
 20
648.502
 30
0.000000
  70
    32
  0
VERTEX
  8
0
  5
9772
 10
410.138
 20
648.533
 30
0.000000
  70
    32
  0
VERTEX
  8
0
  5
9773
 10
410.140
 20
648.563
 30
0.000000
  70
    32
  0
VERTEX
  8
0
  5
9774
 10
410.141
 20
648.594
 30
0.000000
  70
    32
  0
VERTEX
  8
0
  5
9775
 10
410.143
 20
648.624
 30
0.000000
  70
    32
  0
VERTEX
  8
0
  5
9776
 10
410.144
 20
648.655
 30
0.000000
  70
    32
  0
VERTEX
  8
0
  5
9777
 10
410.144
 20
648.686
 30
0.000000
  70
    32
  0
VERTEX
  8
0
  5
9778
 10
410.144
 20
648.716
 30
0.000000
  70
    32
  0
SEQEND
  8
0
  5
9779
  0
LINE
  5
9288
  8
0
 10
335.04437435798042
 20
680.21707369527815
 30
0.0
 11
415.51950035798018
 21
680.21707369527815
 31
0.0
  0
LINE
  5
9289
  8
0
 10
401.51950035798012
 20
663.10185769527811
 30
0.0
 11
401.51950035798012
 21
680.21707369527815
 31
0.0
  0
LINE
  5
928A
  8
0
 10
353.64437435798033
 20
680.21707369527815
 30
0.0
 11
353.64437435798033
 21
663.21673369527821
 31
0.0
  0
LINE
  5
928B
  8
0
 10
335.04437435798042
 20
680.21707369527815
 30
0.0
 11
335.04437435798042
 21
663.21673369527821
 31
0.0
  0
LINE
  5
928C
  8
0
 10
329.24437435798018
 20
679.21705369527808
 30
0.0
 11
329.24437435798018
 21
651.21649369527813
 31
0.0
  0
LINE
  5
928D
  8
0
 10
331.76295035798012
 20
651.21649369527813
 30
0.0
 11
363.74102035798018
 21
656.66502869527812
 31
0.0
  0
LINE
  5
928E
  8
0
 10
331.84437435798009
 20
650.21647369527807
 30
0.0
 11
408.14437435798021
 21
663.21673369527821
 31
0.0
  0
LINE
  5
928F
  8
0
 10
407.64437435798021
 20
646.21639369527804
 30
0.0
 11
332.17006935798008
 21
646.21639369527804
 31
0.0
  0
LINE
  5
9290
  8
0
 10
408.47006935798032
 20
659.21665369527796
 30
0.0
 11
332.17006935798008
 21
646.21639369527804
 31
0.0
  0
LINE
  5
9291
  8
0
 10
329.24437435798018
 20
655.21657369527804
 30
0.0
 11
328.0443743579803
 21
655.21657369527804
 31
0.0
  0
LINE
  5
9292
  8
0
 10
331.76295035798012
 20
651.21649369527813
 30
0.0
 11
327.74437435798018
 21
651.21649369527813
 31
0.0
  0
LINE
  5
9293
  8
0
 10
327.74437435798018
 20
650.21647369527807
 30
0.0
 11
331.84437435798009
 21
650.21647369527807
 31
0.0
  0
POLYLINE
  5
9294
  8
0
 10
327.74437435858005
 20
647.71642369527808
 30
0.0
 66
     1
 70
     8
  0
VERTEX
  8
0
  5
977A
 10
327.744
 20
647.716
 30
0.000000
  70
    32
  0
VERTEX
  8
0
  5
977B
 10
327.744
 20
647.698
 30
0.000000
  70
    32
  0
VERTEX
  8
0
  5
977C
 10
327.745
 20
647.680
 30
0.000000
  70
    32
  0
VERTEX
  8
0
  5
977D
 10
327.745
 20
647.661
 30
0.000000
  70
    32
  0
VERTEX
  8
0
  5
977E
 10
327.746
 20
647.643
 30
0.000000
  70
    32
  0
VERTEX
  8
0
  5
977F
 10
327.747
 20
647.624
 30
0.000000
  70
    32
  0
VERTEX
  8
0
  5
9780
 10
327.748
 20
647.606
 30
0.000000
  70
    32
  0
VERTEX
  8
0
  5
9781
 10
327.750
 20
647.588
 30
0.000000
  70
    32
  0
VERTEX
  8
0
  5
9782
 10
327.752
 20
647.569
 30
0.000000
  70
    32
  0
VERTEX
  8
0
  5
9783
 10
327.754
 20
647.551
 30
0.000000
  70
    32
  0
VERTEX
  8
0
  5
9784
 10
327.756
 20
647.533
 30
0.000000
  70
    32
  0
VERTEX
  8
0
  5
9785
 10
327.758
 20
647.515
 30
0.000000
  70
    32
  0
VERTEX
  8
0
  5
9786
 10
327.761
 20
647.496
 30
0.000000
  70
    32
  0
VERTEX
  8
0
  5
9787
 10
327.763
 20
647.478
 30
0.000000
  70
    32
  0
VERTEX
  8
0
  5
9788
 10
327.766
 20
647.460
 30
0.000000
  70
    32
  0
VERTEX
  8
0
  5
9789
 10
327.770
 20
647.442
 30
0.000000
  70
    32
  0
VERTEX
  8
0
  5
978A
 10
327.773
 20
647.424
 30
0.000000
  70
    32
  0
VERTEX
  8
0
  5
978B
 10
327.777
 20
647.406
 30
0.000000
  70
    32
  0
VERTEX
  8
0
  5
978C
 10
327.781
 20
647.388
 30
0.000000
  70
    32
  0
VERTEX
  8
0
  5
978D
 10
327.785
 20
647.370
 30
0.000000
  70
    32
  0
VERTEX
  8
0
  5
978E
 10
327.789
 20
647.352
 30
0.000000
  70
    32
  0
VERTEX
  8
0
  5
978F
 10
327.794
 20
647.334
 30
0.000000
  70
    32
  0
VERTEX
  8
0
  5
9790
 10
327.799
 20
647.316
 30
0.000000
  70
    32
  0
VERTEX
  8
0
  5
9791
 10
327.804
 20
647.299
 30
0.000000
  70
    32
  0
VERTEX
  8
0
  5
9792
 10
327.809
 20
647.281
 30
0.000000
  70
    32
  0
VERTEX
  8
0
  5
9793
 10
327.814
 20
647.263
 30
0.000000
  70
    32
  0
VERTEX
  8
0
  5
9794
 10
327.820
 20
647.246
 30
0.000000
  70
    32
  0
VERTEX
  8
0
  5
9795
 10
327.826
 20
647.228
 30
0.000000
  70
    32
  0
VERTEX
  8
0
  5
9796
 10
327.832
 20
647.211
 30
0.000000
  70
    32
  0
VERTEX
  8
0
  5
9797
 10
327.838
 20
647.194
 30
0.000000
  70
    32
  0
VERTEX
  8
0
  5
9798
 10
327.845
 20
647.177
 30
0.000000
  70
    32
  0
VERTEX
  8
0
  5
9799
 10
327.852
 20
647.159
 30
0.000000
  70
    32
  0
VERTEX
  8
0
  5
979A
 10
327.859
 20
647.142
 30
0.000000
  70
    32
  0
VERTEX
  8
0
  5
979B
 10
327.866
 20
647.125
 30
0.000000
  70
    32
  0
VERTEX
  8
0
  5
979C
 10
327.873
 20
647.109
 30
0.000000
  70
    32
  0
VERTEX
  8
0
  5
979D
 10
327.881
 20
647.092
 30
0.000000
  70
    32
  0
VERTEX
  8
0
  5
979E
 10
327.888
 20
647.075
 30
0.000000
  70
    32
  0
VERTEX
  8
0
  5
979F
 10
327.896
 20
647.058
 30
0.000000
  70
    32
  0
VERTEX
  8
0
  5
97A0
 10
327.905
 20
647.042
 30
0.000000
  70
    32
  0
VERTEX
  8
0
  5
97A1
 10
327.913
 20
647.026
 30
0.000000
  70
    32
  0
VERTEX
  8
0
  5
97A2
 10
327.921
 20
647.009
 30
0.000000
  70
    32
  0
VERTEX
  8
0
  5
97A3
 10
327.930
 20
646.993
 30
0.000000
  70
    32
  0
VERTEX
  8
0
  5
97A4
 10
327.939
 20
646.977
 30
0.000000
  70
    32
  0
VERTEX
  8
0
  5
97A5
 10
327.948
 20
646.961
 30
0.000000
  70
    32
  0
VERTEX
  8
0
  5
97A6
 10
327.958
 20
646.945
 30
0.000000
  70
    32
  0
VERTEX
  8
0
  5
97A7
 10
327.967
 20
646.930
 30
0.000000
  70
    32
  0
VERTEX
  8
0
  5
97A8
 10
327.977
 20
646.914
 30
0.000000
  70
    32
  0
VERTEX
  8
0
  5
97A9
 10
327.987
 20
646.898
 30
0.000000
  70
    32
  0
VERTEX
  8
0
  5
97AA
 10
327.997
 20
646.883
 30
0.000000
  70
    32
  0
VERTEX
  8
0
  5
97AB
 10
328.007
 20
646.868
 30
0.000000
  70
    32
  0
VERTEX
  8
0
  5
97AC
 10
328.018
 20
646.853
 30
0.000000
  70
    32
  0
VERTEX
  8
0
  5
97AD
 10
328.029
 20
646.838
 30
0.000000
  70
    32
  0
VERTEX
  8
0
  5
97AE
 10
328.040
 20
646.823
 30
0.000000
  70
    32
  0
VERTEX
  8
0
  5
97AF
 10
328.051
 20
646.808
 30
0.000000
  70
    32
  0
VERTEX
  8
0
  5
97B0
 10
328.062
 20
646.794
 30
0.000000
  70
    32
  0
VERTEX
  8
0
  5
97B1
 10
328.073
 20
646.779
 30
0.000000
  70
    32
  0
VERTEX
  8
0
  5
97B2
 10
328.085
 20
646.765
 30
0.000000
  70
    32
  0
VERTEX
  8
0
  5
97B3
 10
328.097
 20
646.751
 30
0.000000
  70
    32
  0
VERTEX
  8
0
  5
97B4
 10
328.109
 20
646.737
 30
0.000000
  70
    32
  0
VERTEX
  8
0
  5
97B5
 10
328.121
 20
646.723
 30
0.000000
  70
    32
  0
VERTEX
  8
0
  5
97B6
 10
328.133
 20
646.709
 30
0.000000
  70
    32
  0
VERTEX
  8
0
  5
97B7
 10
328.145
 20
646.696
 30
0.000000
  70
    32
  0
VERTEX
  8
0
  5
97B8
 10
328.158
 20
646.682
 30
0.000000
  70
    32
  0
VERTEX
  8
0
  5
97B9
 10
328.171
 20
646.669
 30
0.000000
  70
    32
  0
VERTEX
  8
0
  5
97BA
 10
328.184
 20
646.656
 30
0.000000
  70
    32
  0
VERTEX
  8
0
  5
97BB
 10
328.197
 20
646.643
 30
0.000000
  70
    32
  0
VERTEX
  8
0
  5
97BC
 10
328.210
 20
646.630
 30
0.000000
  70
    32
  0
VERTEX
  8
0
  5
97BD
 10
328.223
 20
646.617
 30
0.000000
  70
    32
  0
VERTEX
  8
0
  5
97BE
 10
328.237
 20
646.605
 30
0.000000
  70
    32
  0
VERTEX
  8
0
  5
97BF
 10
328.251
 20
646.593
 30
0.000000
  70
    32
  0
VERTEX
  8
0
  5
97C0
 10
328.265
 20
646.581
 30
0.000000
  70
    32
  0
VERTEX
  8
0
  5
97C1
 10
328.279
 20
646.569
 30
0.000000
  70
    32
  0
VERTEX
  8
0
  5
97C2
 10
328.293
 20
646.557
 30
0.000000
  70
    32
  0
VERTEX
  8
0
  5
97C3
 10
328.307
 20
646.545
 30
0.000000
  70
    32
  0
VERTEX
  8
0
  5
97C4
 10
328.322
 20
646.534
 30
0.000000
  70
    32
  0
VERTEX
  8
0
  5
97C5
 10
328.336
 20
646.523
 30
0.000000
  70
    32
  0
VERTEX
  8
0
  5
97C6
 10
328.351
 20
646.512
 30
0.000000
  70
    32
  0
VERTEX
  8
0
  5
97C7
 10
328.366
 20
646.501
 30
0.000000
  70
    32
  0
VERTEX
  8
0
  5
97C8
 10
328.381
 20
646.490
 30
0.000000
  70
    32
  0
VERTEX
  8
0
  5
97C9
 10
328.396
 20
646.480
 30
0.000000
  70
    32
  0
VERTEX
  8
0
  5
97CA
 10
328.411
 20
646.469
 30
0.000000
  70
    32
  0
VERTEX
  8
0
  5
97CB
 10
328.426
 20
646.459
 30
0.000000
  70
    32
  0
VERTEX
  8
0
  5
97CC
 10
328.442
 20
646.449
 30
0.000000
  70
    32
  0
VERTEX
  8
0
  5
97CD
 10
328.457
 20
646.439
 30
0.000000
  70
    32
  0
VERTEX
  8
0
  5
97CE
 10
328.473
 20
646.430
 30
0.000000
  70
    32
  0
VERTEX
  8
0
  5
97CF
 10
328.489
 20
646.420
 30
0.000000
  70
    32
  0
VERTEX
  8
0
  5
97D0
 10
328.505
 20
646.411
 30
0.000000
  70
    32
  0
VERTEX
  8
0
  5
97D1
 10
328.521
 20
646.402
 30
0.000000
  70
    32
  0
VERTEX
  8
0
  5
97D2
 10
328.537
 20
646.394
 30
0.000000
  70
    32
  0
VERTEX
  8
0
  5
97D3
 10
328.554
 20
646.385
 30
0.000000
  70
    32
  0
VERTEX
  8
0
  5
97D4
 10
328.570
 20
646.377
 30
0.000000
  70
    32
  0
VERTEX
  8
0
  5
97D5
 10
328.586
 20
646.368
 30
0.000000
  70
    32
  0
VERTEX
  8
0
  5
97D6
 10
328.603
 20
646.360
 30
0.000000
  70
    32
  0
VERTEX
  8
0
  5
97D7
 10
328.620
 20
646.353
 30
0.000000
  70
    32
  0
VERTEX
  8
0
  5
97D8
 10
328.637
 20
646.345
 30
0.000000
  70
    32
  0
VERTEX
  8
0
  5
97D9
 10
328.653
 20
646.338
 30
0.000000
  70
    32
  0
VERTEX
  8
0
  5
97DA
 10
328.670
 20
646.331
 30
0.000000
  70
    32
  0
VERTEX
  8
0
  5
97DB
 10
328.687
 20
646.324
 30
0.000000
  70
    32
  0
VERTEX
  8
0
  5
97DC
 10
328.705
 20
646.317
 30
0.000000
  70
    32
  0
VERTEX
  8
0
  5
97DD
 10
328.722
 20
646.310
 30
0.000000
  70
    32
  0
VERTEX
  8
0
  5
97DE
 10
328.739
 20
646.304
 30
0.000000
  70
    32
  0
VERTEX
  8
0
  5
97DF
 10
328.756
 20
646.298
 30
0.000000
  70
    32
  0
VERTEX
  8
0
  5
97E0
 10
328.774
 20
646.292
 30
0.000000
  70
    32
  0
VERTEX
  8
0
  5
97E1
 10
328.791
 20
646.286
 30
0.000000
  70
    32
  0
VERTEX
  8
0
  5
97E2
 10
328.809
 20
646.281
 30
0.000000
  70
    32
  0
VERTEX
  8
0
  5
97E3
 10
328.827
 20
646.276
 30
0.000000
  70
    32
  0
VERTEX
  8
0
  5
97E4
 10
328.844
 20
646.271
 30
0.000000
  70
    32
  0
VERTEX
  8
0
  5
97E5
 10
328.862
 20
646.266
 30
0.000000
  70
    32
  0
VERTEX
  8
0
  5
97E6
 10
328.880
 20
646.261
 30
0.000000
  70
    32
  0
VERTEX
  8
0
  5
97E7
 10
328.898
 20
646.257
 30
0.000000
  70
    32
  0
VERTEX
  8
0
  5
97E8
 10
328.916
 20
646.253
 30
0.000000
  70
    32
  0
VERTEX
  8
0
  5
97E9
 10
328.934
 20
646.249
 30
0.000000
  70
    32
  0
VERTEX
  8
0
  5
97EA
 10
328.952
 20
646.245
 30
0.000000
  70
    32
  0
VERTEX
  8
0
  5
97EB
 10
328.970
 20
646.242
 30
0.000000
  70
    32
  0
VERTEX
  8
0
  5
97EC
 10
328.988
 20
646.238
 30
0.000000
  70
    32
  0
VERTEX
  8
0
  5
97ED
 10
329.006
 20
646.235
 30
0.000000
  70
    32
  0
VERTEX
  8
0
  5
97EE
 10
329.024
 20
646.233
 30
0.000000
  70
    32
  0
VERTEX
  8
0
  5
97EF
 10
329.043
 20
646.230
 30
0.000000
  70
    32
  0
VERTEX
  8
0
  5
97F0
 10
329.061
 20
646.228
 30
0.000000
  70
    32
  0
VERTEX
  8
0
  5
97F1
 10
329.079
 20
646.226
 30
0.000000
  70
    32
  0
VERTEX
  8
0
  5
97F2
 10
329.097
 20
646.224
 30
0.000000
  70
    32
  0
VERTEX
  8
0
  5
97F3
 10
329.116
 20
646.222
 30
0.000000
  70
    32
  0
VERTEX
  8
0
  5
97F4
 10
329.134
 20
646.220
 30
0.000000
  70
    32
  0
VERTEX
  8
0
  5
97F5
 10
329.152
 20
646.219
 30
0.000000
  70
    32
  0
VERTEX
  8
0
  5
97F6
 10
329.171
 20
646.218
 30
0.000000
  70
    32
  0
VERTEX
  8
0
  5
97F7
 10
329.189
 20
646.217
 30
0.000000
  70
    32
  0
VERTEX
  8
0
  5
97F8
 10
329.208
 20
646.217
 30
0.000000
  70
    32
  0
VERTEX
  8
0
  5
97F9
 10
329.226
 20
646.217
 30
0.000000
  70
    32
  0
VERTEX
  8
0
  5
97FA
 10
329.244
 20
646.216
 30
0.000000
  70
    32
  0
SEQEND
  8
0
  5
97FB
  0
POLYLINE
  5
9295
  8
0
 10
327.24437435858005
 20
647.71642369527808
 30
0.0
 66
     1
 70
     8
  0
VERTEX
  8
0
  5
97FC
 10
327.244
 20
647.716
 30
0.000000
  70
    32
  0
VERTEX
  8
0
  5
97FD
 10
327.244
 20
647.698
 30
0.000000
  70
    32
  0
VERTEX
  8
0
  5
97FE
 10
327.245
 20
647.680
 30
0.000000
  70
    32
  0
VERTEX
  8
0
  5
97FF
 10
327.245
 20
647.661
 30
0.000000
  70
    32
  0
VERTEX
  8
0
  5
9800
 10
327.246
 20
647.643
 30
0.000000
  70
    32
  0
VERTEX
  8
0
  5
9801
 10
327.247
 20
647.624
 30
0.000000
  70
    32
  0
VERTEX
  8
0
  5
9802
 10
327.248
 20
647.606
 30
0.000000
  70
    32
  0
VERTEX
  8
0
  5
9803
 10
327.250
 20
647.588
 30
0.000000
  70
    32
  0
VERTEX
  8
0
  5
9804
 10
327.252
 20
647.569
 30
0.000000
  70
    32
  0
VERTEX
  8
0
  5
9805
 10
327.254
 20
647.551
 30
0.000000
  70
    32
  0
VERTEX
  8
0
  5
9806
 10
327.256
 20
647.533
 30
0.000000
  70
    32
  0
VERTEX
  8
0
  5
9807
 10
327.258
 20
647.515
 30
0.000000
  70
    32
  0
VERTEX
  8
0
  5
9808
 10
327.261
 20
647.496
 30
0.000000
  70
    32
  0
VERTEX
  8
0
  5
9809
 10
327.263
 20
647.478
 30
0.000000
  70
    32
  0
VERTEX
  8
0
  5
980A
 10
327.266
 20
647.460
 30
0.000000
  70
    32
  0
VERTEX
  8
0
  5
980B
 10
327.270
 20
647.442
 30
0.000000
  70
    32
  0
VERTEX
  8
0
  5
980C
 10
327.273
 20
647.424
 30
0.000000
  70
    32
  0
VERTEX
  8
0
  5
980D
 10
327.277
 20
647.406
 30
0.000000
  70
    32
  0
VERTEX
  8
0
  5
980E
 10
327.281
 20
647.388
 30
0.000000
  70
    32
  0
VERTEX
  8
0
  5
980F
 10
327.285
 20
647.370
 30
0.000000
  70
    32
  0
VERTEX
  8
0
  5
9810
 10
327.289
 20
647.352
 30
0.000000
  70
    32
  0
VERTEX
  8
0
  5
9811
 10
327.294
 20
647.334
 30
0.000000
  70
    32
  0
VERTEX
  8
0
  5
9812
 10
327.299
 20
647.316
 30
0.000000
  70
    32
  0
VERTEX
  8
0
  5
9813
 10
327.304
 20
647.299
 30
0.000000
  70
    32
  0
VERTEX
  8
0
  5
9814
 10
327.309
 20
647.281
 30
0.000000
  70
    32
  0
VERTEX
  8
0
  5
9815
 10
327.314
 20
647.263
 30
0.000000
  70
    32
  0
VERTEX
  8
0
  5
9816
 10
327.320
 20
647.246
 30
0.000000
  70
    32
  0
VERTEX
  8
0
  5
9817
 10
327.326
 20
647.228
 30
0.000000
  70
    32
  0
VERTEX
  8
0
  5
9818
 10
327.332
 20
647.211
 30
0.000000
  70
    32
  0
VERTEX
  8
0
  5
9819
 10
327.338
 20
647.194
 30
0.000000
  70
    32
  0
VERTEX
  8
0
  5
981A
 10
327.345
 20
647.177
 30
0.000000
  70
    32
  0
VERTEX
  8
0
  5
981B
 10
327.352
 20
647.159
 30
0.000000
  70
    32
  0
VERTEX
  8
0
  5
981C
 10
327.359
 20
647.142
 30
0.000000
  70
    32
  0
VERTEX
  8
0
  5
981D
 10
327.366
 20
647.125
 30
0.000000
  70
    32
  0
VERTEX
  8
0
  5
981E
 10
327.373
 20
647.109
 30
0.000000
  70
    32
  0
VERTEX
  8
0
  5
981F
 10
327.381
 20
647.092
 30
0.000000
  70
    32
  0
VERTEX
  8
0
  5
9820
 10
327.388
 20
647.075
 30
0.000000
  70
    32
  0
VERTEX
  8
0
  5
9821
 10
327.396
 20
647.058
 30
0.000000
  70
    32
  0
VERTEX
  8
0
  5
9822
 10
327.405
 20
647.042
 30
0.000000
  70
    32
  0
VERTEX
  8
0
  5
9823
 10
327.413
 20
647.026
 30
0.000000
  70
    32
  0
VERTEX
  8
0
  5
9824
 10
327.421
 20
647.009
 30
0.000000
  70
    32
  0
VERTEX
  8
0
  5
9825
 10
327.430
 20
646.993
 30
0.000000
  70
    32
  0
VERTEX
  8
0
  5
9826
 10
327.439
 20
646.977
 30
0.000000
  70
    32
  0
VERTEX
  8
0
  5
9827
 10
327.448
 20
646.961
 30
0.000000
  70
    32
  0
VERTEX
  8
0
  5
9828
 10
327.458
 20
646.945
 30
0.000000
  70
    32
  0
VERTEX
  8
0
  5
9829
 10
327.467
 20
646.930
 30
0.000000
  70
    32
  0
VERTEX
  8
0
  5
982A
 10
327.477
 20
646.914
 30
0.000000
  70
    32
  0
VERTEX
  8
0
  5
982B
 10
327.487
 20
646.898
 30
0.000000
  70
    32
  0
VERTEX
  8
0
  5
982C
 10
327.497
 20
646.883
 30
0.000000
  70
    32
  0
VERTEX
  8
0
  5
982D
 10
327.507
 20
646.868
 30
0.000000
  70
    32
  0
VERTEX
  8
0
  5
982E
 10
327.518
 20
646.853
 30
0.000000
  70
    32
  0
VERTEX
  8
0
  5
982F
 10
327.529
 20
646.838
 30
0.000000
  70
    32
  0
VERTEX
  8
0
  5
9830
 10
327.540
 20
646.823
 30
0.000000
  70
    32
  0
VERTEX
  8
0
  5
9831
 10
327.551
 20
646.808
 30
0.000000
  70
    32
  0
VERTEX
  8
0
  5
9832
 10
327.562
 20
646.794
 30
0.000000
  70
    32
  0
VERTEX
  8
0
  5
9833
 10
327.573
 20
646.779
 30
0.000000
  70
    32
  0
VERTEX
  8
0
  5
9834
 10
327.585
 20
646.765
 30
0.000000
  70
    32
  0
VERTEX
  8
0
  5
9835
 10
327.597
 20
646.751
 30
0.000000
  70
    32
  0
VERTEX
  8
0
  5
9836
 10
327.609
 20
646.737
 30
0.000000
  70
    32
  0
VERTEX
  8
0
  5
9837
 10
327.621
 20
646.723
 30
0.000000
  70
    32
  0
VERTEX
  8
0
  5
9838
 10
327.633
 20
646.709
 30
0.000000
  70
    32
  0
VERTEX
  8
0
  5
9839
 10
327.645
 20
646.696
 30
0.000000
  70
    32
  0
VERTEX
  8
0
  5
983A
 10
327.658
 20
646.682
 30
0.000000
  70
    32
  0
VERTEX
  8
0
  5
983B
 10
327.671
 20
646.669
 30
0.000000
  70
    32
  0
VERTEX
  8
0
  5
983C
 10
327.684
 20
646.656
 30
0.000000
  70
    32
  0
VERTEX
  8
0
  5
983D
 10
327.697
 20
646.643
 30
0.000000
  70
    32
  0
VERTEX
  8
0
  5
983E
 10
327.710
 20
646.630
 30
0.000000
  70
    32
  0
VERTEX
  8
0
  5
983F
 10
327.723
 20
646.617
 30
0.000000
  70
    32
  0
VERTEX
  8
0
  5
9840
 10
327.737
 20
646.605
 30
0.000000
  70
    32
  0
VERTEX
  8
0
  5
9841
 10
327.751
 20
646.593
 30
0.000000
  70
    32
  0
VERTEX
  8
0
  5
9842
 10
327.765
 20
646.581
 30
0.000000
  70
    32
  0
VERTEX
  8
0
  5
9843
 10
327.779
 20
646.569
 30
0.000000
  70
    32
  0
VERTEX
  8
0
  5
9844
 10
327.793
 20
646.557
 30
0.000000
  70
    32
  0
VERTEX
  8
0
  5
9845
 10
327.807
 20
646.545
 30
0.000000
  70
    32
  0
VERTEX
  8
0
  5
9846
 10
327.822
 20
646.534
 30
0.000000
  70
    32
  0
VERTEX
  8
0
  5
9847
 10
327.836
 20
646.523
 30
0.000000
  70
    32
  0
VERTEX
  8
0
  5
9848
 10
327.851
 20
646.512
 30
0.000000
  70
    32
  0
VERTEX
  8
0
  5
9849
 10
327.866
 20
646.501
 30
0.000000
  70
    32
  0
VERTEX
  8
0
  5
984A
 10
327.881
 20
646.490
 30
0.000000
  70
    32
  0
VERTEX
  8
0
  5
984B
 10
327.896
 20
646.480
 30
0.000000
  70
    32
  0
VERTEX
  8
0
  5
984C
 10
327.911
 20
646.469
 30
0.000000
  70
    32
  0
VERTEX
  8
0
  5
984D
 10
327.926
 20
646.459
 30
0.000000
  70
    32
  0
VERTEX
  8
0
  5
984E
 10
327.942
 20
646.449
 30
0.000000
  70
    32
  0
VERTEX
  8
0
  5
984F
 10
327.957
 20
646.439
 30
0.000000
  70
    32
  0
VERTEX
  8
0
  5
9850
 10
327.973
 20
646.430
 30
0.000000
  70
    32
  0
VERTEX
  8
0
  5
9851
 10
327.989
 20
646.420
 30
0.000000
  70
    32
  0
VERTEX
  8
0
  5
9852
 10
328.005
 20
646.411
 30
0.000000
  70
    32
  0
VERTEX
  8
0
  5
9853
 10
328.021
 20
646.402
 30
0.000000
  70
    32
  0
VERTEX
  8
0
  5
9854
 10
328.037
 20
646.394
 30
0.000000
  70
    32
  0
VERTEX
  8
0
  5
9855
 10
328.054
 20
646.385
 30
0.000000
  70
    32
  0
VERTEX
  8
0
  5
9856
 10
328.070
 20
646.377
 30
0.000000
  70
    32
  0
VERTEX
  8
0
  5
9857
 10
328.086
 20
646.368
 30
0.000000
  70
    32
  0
VERTEX
  8
0
  5
9858
 10
328.103
 20
646.360
 30
0.000000
  70
    32
  0
VERTEX
  8
0
  5
9859
 10
328.120
 20
646.353
 30
0.000000
  70
    32
  0
VERTEX
  8
0
  5
985A
 10
328.137
 20
646.345
 30
0.000000
  70
    32
  0
VERTEX
  8
0
  5
985B
 10
328.153
 20
646.338
 30
0.000000
  70
    32
  0
VERTEX
  8
0
  5
985C
 10
328.170
 20
646.331
 30
0.000000
  70
    32
  0
VERTEX
  8
0
  5
985D
 10
328.187
 20
646.324
 30
0.000000
  70
    32
  0
VERTEX
  8
0
  5
985E
 10
328.205
 20
646.317
 30
0.000000
  70
    32
  0
VERTEX
  8
0
  5
985F
 10
328.222
 20
646.310
 30
0.000000
  70
    32
  0
VERTEX
  8
0
  5
9860
 10
328.239
 20
646.304
 30
0.000000
  70
    32
  0
VERTEX
  8
0
  5
9861
 10
328.256
 20
646.298
 30
0.000000
  70
    32
  0
VERTEX
  8
0
  5
9862
 10
328.274
 20
646.292
 30
0.000000
  70
    32
  0
VERTEX
  8
0
  5
9863
 10
328.291
 20
646.286
 30
0.000000
  70
    32
  0
VERTEX
  8
0
  5
9864
 10
328.309
 20
646.281
 30
0.000000
  70
    32
  0
VERTEX
  8
0
  5
9865
 10
328.327
 20
646.276
 30
0.000000
  70
    32
  0
VERTEX
  8
0
  5
9866
 10
328.344
 20
646.271
 30
0.000000
  70
    32
  0
VERTEX
  8
0
  5
9867
 10
328.362
 20
646.266
 30
0.000000
  70
    32
  0
VERTEX
  8
0
  5
9868
 10
328.380
 20
646.261
 30
0.000000
  70
    32
  0
VERTEX
  8
0
  5
9869
 10
328.398
 20
646.257
 30
0.000000
  70
    32
  0
VERTEX
  8
0
  5
986A
 10
328.416
 20
646.253
 30
0.000000
  70
    32
  0
VERTEX
  8
0
  5
986B
 10
328.434
 20
646.249
 30
0.000000
  70
    32
  0
VERTEX
  8
0
  5
986C
 10
328.452
 20
646.245
 30
0.000000
  70
    32
  0
VERTEX
  8
0
  5
986D
 10
328.470
 20
646.242
 30
0.000000
  70
    32
  0
VERTEX
  8
0
  5
986E
 10
328.488
 20
646.238
 30
0.000000
  70
    32
  0
VERTEX
  8
0
  5
986F
 10
328.506
 20
646.235
 30
0.000000
  70
    32
  0
VERTEX
  8
0
  5
9870
 10
328.524
 20
646.233
 30
0.000000
  70
    32
  0
VERTEX
  8
0
  5
9871
 10
328.543
 20
646.230
 30
0.000000
  70
    32
  0
VERTEX
  8
0
  5
9872
 10
328.561
 20
646.228
 30
0.000000
  70
    32
  0
VERTEX
  8
0
  5
9873
 10
328.579
 20
646.226
 30
0.000000
  70
    32
  0
VERTEX
  8
0
  5
9874
 10
328.597
 20
646.224
 30
0.000000
  70
    32
  0
VERTEX
  8
0
  5
9875
 10
328.616
 20
646.222
 30
0.000000
  70
    32
  0
VERTEX
  8
0
  5
9876
 10
328.634
 20
646.220
 30
0.000000
  70
    32
  0
VERTEX
  8
0
  5
9877
 10
328.652
 20
646.219
 30
0.000000
  70
    32
  0
VERTEX
  8
0
  5
9878
 10
328.671
 20
646.218
 30
0.000000
  70
    32
  0
VERTEX
  8
0
  5
9879
 10
328.689
 20
646.217
 30
0.000000
  70
    32
  0
VERTEX
  8
0
  5
987A
 10
328.708
 20
646.217
 30
0.000000
  70
    32
  0
VERTEX
  8
0
  5
987B
 10
328.726
 20
646.217
 30
0.000000
  70
    32
  0
VERTEX
  8
0
  5
987C
 10
328.744
 20
646.216
 30
0.000000
  70
    32
  0
SEQEND
  8
0
  5
987D
  0
LINE
  5
9296
  8
0
 10
328.0443743579803
 20
655.21657369527804
 30
0.0
 11
327.24437435798018
 21
655.21657369527804
 31
0.0
  0
LINE
  5
9297
  8
0
 10
327.24437435798018
 20
655.21657369527804
 30
0.0
 11
327.24437435798018
 21
647.71642369527808
 31
0.0
  0
LINE
  5
9298
  8
0
 10
327.74437435798018
 20
651.21649369527813
 30
0.0
 11
327.74437435798018
 21
647.71642369527808
 31
0.0
  0
POLYLINE
  5
9299
  8
0
 10
335.04437436170036
 20
663.21673369527821
 30
0.0
 66
     1
 70
     8
  0
VERTEX
  8
0
  5
987E
 10
335.044
 20
663.217
 30
0.000000
  70
    32
  0
VERTEX
  8
0
  5
987F
 10
335.047
 20
662.988
 30
0.000000
  70
    32
  0
VERTEX
  8
0
  5
9880
 10
335.056
 20
662.760
 30
0.000000
  70
    32
  0
VERTEX
  8
0
  5
9881
 10
335.070
 20
662.533
 30
0.000000
  70
    32
  0
VERTEX
  8
0
  5
9882
 10
335.089
 20
662.305
 30
0.000000
  70
    32
  0
VERTEX
  8
0
  5
9883
 10
335.114
 20
662.078
 30
0.000000
  70
    32
  0
VERTEX
  8
0
  5
9884
 10
335.145
 20
661.852
 30
0.000000
  70
    32
  0
VERTEX
  8
0
  5
9885
 10
335.181
 20
661.627
 30
0.000000
  70
    32
  0
VERTEX
  8
0
  5
9886
 10
335.223
 20
661.402
 30
0.000000
  70
    32
  0
VERTEX
  8
0
  5
9887
 10
335.270
 20
661.179
 30
0.000000
  70
    32
  0
VERTEX
  8
0
  5
9888
 10
335.323
 20
660.957
 30
0.000000
  70
    32
  0
VERTEX
  8
0
  5
9889
 10
335.381
 20
660.736
 30
0.000000
  70
    32
  0
VERTEX
  8
0
  5
988A
 10
335.445
 20
660.517
 30
0.000000
  70
    32
  0
VERTEX
  8
0
  5
988B
 10
335.514
 20
660.299
 30
0.000000
  70
    32
  0
VERTEX
  8
0
  5
988C
 10
335.588
 20
660.084
 30
0.000000
  70
    32
  0
VERTEX
  8
0
  5
988D
 10
335.668
 20
659.870
 30
0.000000
  70
    32
  0
VERTEX
  8
0
  5
988E
 10
335.752
 20
659.658
 30
0.000000
  70
    32
  0
VERTEX
  8
0
  5
988F
 10
335.842
 20
659.448
 30
0.000000
  70
    32
  0
VERTEX
  8
0
  5
9890
 10
335.937
 20
659.240
 30
0.000000
  70
    32
  0
VERTEX
  8
0
  5
9891
 10
336.037
 20
659.035
 30
0.000000
  70
    32
  0
VERTEX
  8
0
  5
9892
 10
336.143
 20
658.833
 30
0.000000
  70
    32
  0
VERTEX
  8
0
  5
9893
 10
336.253
 20
658.633
 30
0.000000
  70
    32
  0
VERTEX
  8
0
  5
9894
 10
336.367
 20
658.435
 30
0.000000
  70
    32
  0
VERTEX
  8
0
  5
9895
 10
336.487
 20
658.241
 30
0.000000
  70
    32
  0
VERTEX
  8
0
  5
9896
 10
336.612
 20
658.050
 30
0.000000
  70
    32
  0
VERTEX
  8
0
  5
9897
 10
336.741
 20
657.862
 30
0.000000
  70
    32
  0
VERTEX
  8
0
  5
9898
 10
336.875
 20
657.677
 30
0.000000
  70
    32
  0
VERTEX
  8
0
  5
9899
 10
337.013
 20
657.495
 30
0.000000
  70
    32
  0
VERTEX
  8
0
  5
989A
 10
337.155
 20
657.317
 30
0.000000
  70
    32
  0
VERTEX
  8
0
  5
989B
 10
337.302
 20
657.142
 30
0.000000
  70
    32
  0
VERTEX
  8
0
  5
989C
 10
337.454
 20
656.971
 30
0.000000
  70
    32
  0
VERTEX
  8
0
  5
989D
 10
337.609
 20
656.804
 30
0.000000
  70
    32
  0
VERTEX
  8
0
  5
989E
 10
337.768
 20
656.641
 30
0.000000
  70
    32
  0
VERTEX
  8
0
  5
989F
 10
337.932
 20
656.481
 30
0.000000
  70
    32
  0
VERTEX
  8
0
  5
98A0
 10
338.099
 20
656.326
 30
0.000000
  70
    32
  0
VERTEX
  8
0
  5
98A1
 10
338.270
 20
656.175
 30
0.000000
  70
    32
  0
VERTEX
  8
0
  5
98A2
 10
338.445
 20
656.028
 30
0.000000
  70
    32
  0
VERTEX
  8
0
  5
98A3
 10
338.623
 20
655.885
 30
0.000000
  70
    32
  0
VERTEX
  8
0
  5
98A4
 10
338.804
 20
655.747
 30
0.000000
  70
    32
  0
VERTEX
  8
0
  5
98A5
 10
338.989
 20
655.613
 30
0.000000
  70
    32
  0
VERTEX
  8
0
  5
98A6
 10
339.178
 20
655.484
 30
0.000000
  70
    32
  0
VERTEX
  8
0
  5
98A7
 10
339.369
 20
655.359
 30
0.000000
  70
    32
  0
VERTEX
  8
0
  5
98A8
 10
339.563
 20
655.240
 30
0.000000
  70
    32
  0
VERTEX
  8
0
  5
98A9
 10
339.760
 20
655.125
 30
0.000000
  70
    32
  0
VERTEX
  8
0
  5
98AA
 10
339.960
 20
655.015
 30
0.000000
  70
    32
  0
VERTEX
  8
0
  5
98AB
 10
340.163
 20
654.910
 30
0.000000
  70
    32
  0
VERTEX
  8
0
  5
98AC
 10
340.368
 20
654.809
 30
0.000000
  70
    32
  0
VERTEX
  8
0
  5
98AD
 10
340.576
 20
654.714
 30
0.000000
  70
    32
  0
VERTEX
  8
0
  5
98AE
 10
340.785
 20
654.624
 30
0.000000
  70
    32
  0
VERTEX
  8
0
  5
98AF
 10
340.997
 20
654.540
 30
0.000000
  70
    32
  0
VERTEX
  8
0
  5
98B0
 10
341.211
 20
654.460
 30
0.000000
  70
    32
  0
VERTEX
  8
0
  5
98B1
 10
341.427
 20
654.386
 30
0.000000
  70
    32
  0
VERTEX
  8
0
  5
98B2
 10
341.645
 20
654.317
 30
0.000000
  70
    32
  0
VERTEX
  8
0
  5
98B3
 10
341.864
 20
654.253
 30
0.000000
  70
    32
  0
VERTEX
  8
0
  5
98B4
 10
342.085
 20
654.195
 30
0.000000
  70
    32
  0
VERTEX
  8
0
  5
98B5
 10
342.307
 20
654.143
 30
0.000000
  70
    32
  0
VERTEX
  8
0
  5
98B6
 10
342.530
 20
654.095
 30
0.000000
  70
    32
  0
VERTEX
  8
0
  5
98B7
 10
342.754
 20
654.053
 30
0.000000
  70
    32
  0
VERTEX
  8
0
  5
98B8
 10
342.980
 20
654.017
 30
0.000000
  70
    32
  0
VERTEX
  8
0
  5
98B9
 10
343.206
 20
653.986
 30
0.000000
  70
    32
  0
VERTEX
  8
0
  5
98BA
 10
343.433
 20
653.961
 30
0.000000
  70
    32
  0
VERTEX
  8
0
  5
98BB
 10
343.660
 20
653.942
 30
0.000000
  70
    32
  0
VERTEX
  8
0
  5
98BC
 10
343.888
 20
653.928
 30
0.000000
  70
    32
  0
VERTEX
  8
0
  5
98BD
 10
344.116
 20
653.919
 30
0.000000
  70
    32
  0
VERTEX
  8
0
  5
98BE
 10
344.344
 20
653.917
 30
0.000000
  70
    32
  0
VERTEX
  8
0
  5
98BF
 10
344.573
 20
653.919
 30
0.000000
  70
    32
  0
VERTEX
  8
0
  5
98C0
 10
344.801
 20
653.928
 30
0.000000
  70
    32
  0
VERTEX
  8
0
  5
98C1
 10
345.029
 20
653.942
 30
0.000000
  70
    32
  0
VERTEX
  8
0
  5
98C2
 10
345.256
 20
653.961
 30
0.000000
  70
    32
  0
VERTEX
  8
0
  5
98C3
 10
345.483
 20
653.986
 30
0.000000
  70
    32
  0
VERTEX
  8
0
  5
98C4
 10
345.709
 20
654.017
 30
0.000000
  70
    32
  0
VERTEX
  8
0
  5
98C5
 10
345.934
 20
654.053
 30
0.000000
  70
    32
  0
VERTEX
  8
0
  5
98C6
 10
346.159
 20
654.095
 30
0.000000
  70
    32
  0
VERTEX
  8
0
  5
98C7
 10
346.382
 20
654.143
 30
0.000000
  70
    32
  0
VERTEX
  8
0
  5
98C8
 10
346.604
 20
654.195
 30
0.000000
  70
    32
  0
VERTEX
  8
0
  5
98C9
 10
346.825
 20
654.253
 30
0.000000
  70
    32
  0
VERTEX
  8
0
  5
98CA
 10
347.044
 20
654.317
 30
0.000000
  70
    32
  0
VERTEX
  8
0
  5
98CB
 10
347.262
 20
654.386
 30
0.000000
  70
    32
  0
VERTEX
  8
0
  5
98CC
 10
347.477
 20
654.460
 30
0.000000
  70
    32
  0
VERTEX
  8
0
  5
98CD
 10
347.691
 20
654.540
 30
0.000000
  70
    32
  0
VERTEX
  8
0
  5
98CE
 10
347.903
 20
654.624
 30
0.000000
  70
    32
  0
VERTEX
  8
0
  5
98CF
 10
348.113
 20
654.714
 30
0.000000
  70
    32
  0
VERTEX
  8
0
  5
98D0
 10
348.321
 20
654.809
 30
0.000000
  70
    32
  0
VERTEX
  8
0
  5
98D1
 10
348.526
 20
654.910
 30
0.000000
  70
    32
  0
VERTEX
  8
0
  5
98D2
 10
348.728
 20
655.015
 30
0.000000
  70
    32
  0
VERTEX
  8
0
  5
98D3
 10
348.928
 20
655.125
 30
0.000000
  70
    32
  0
VERTEX
  8
0
  5
98D4
 10
349.126
 20
655.240
 30
0.000000
  70
    32
  0
VERTEX
  8
0
  5
98D5
 10
349.320
 20
655.359
 30
0.000000
  70
    32
  0
VERTEX
  8
0
  5
98D6
 10
349.511
 20
655.484
 30
0.000000
  70
    32
  0
VERTEX
  8
0
  5
98D7
 10
349.699
 20
655.613
 30
0.000000
  70
    32
  0
VERTEX
  8
0
  5
98D8
 10
349.884
 20
655.747
 30
0.000000
  70
    32
  0
VERTEX
  8
0
  5
98D9
 10
350.066
 20
655.885
 30
0.000000
  70
    32
  0
VERTEX
  8
0
  5
98DA
 10
350.244
 20
656.028
 30
0.000000
  70
    32
  0
VERTEX
  8
0
  5
98DB
 10
350.419
 20
656.175
 30
0.000000
  70
    32
  0
VERTEX
  8
0
  5
98DC
 10
350.590
 20
656.326
 30
0.000000
  70
    32
  0
VERTEX
  8
0
  5
98DD
 10
350.757
 20
656.481
 30
0.000000
  70
    32
  0
VERTEX
  8
0
  5
98DE
 10
350.920
 20
656.641
 30
0.000000
  70
    32
  0
VERTEX
  8
0
  5
98DF
 10
351.080
 20
656.804
 30
0.000000
  70
    32
  0
VERTEX
  8
0
  5
98E0
 10
351.235
 20
656.971
 30
0.000000
  70
    32
  0
VERTEX
  8
0
  5
98E1
 10
351.386
 20
657.142
 30
0.000000
  70
    32
  0
VERTEX
  8
0
  5
98E2
 10
351.533
 20
657.317
 30
0.000000
  70
    32
  0
VERTEX
  8
0
  5
98E3
 10
351.676
 20
657.495
 30
0.000000
  70
    32
  0
VERTEX
  8
0
  5
98E4
 10
351.814
 20
657.677
 30
0.000000
  70
    32
  0
VERTEX
  8
0
  5
98E5
 10
351.948
 20
657.862
 30
0.000000
  70
    32
  0
VERTEX
  8
0
  5
98E6
 10
352.077
 20
658.050
 30
0.000000
  70
    32
  0
VERTEX
  8
0
  5
98E7
 10
352.202
 20
658.241
 30
0.000000
  70
    32
  0
VERTEX
  8
0
  5
98E8
 10
352.321
 20
658.435
 30
0.000000
  70
    32
  0
VERTEX
  8
0
  5
98E9
 10
352.436
 20
658.633
 30
0.000000
  70
    32
  0
VERTEX
  8
0
  5
98EA
 10
352.546
 20
658.833
 30
0.000000
  70
    32
  0
VERTEX
  8
0
  5
98EB
 10
352.651
 20
659.035
 30
0.000000
  70
    32
  0
VERTEX
  8
0
  5
98EC
 10
352.751
 20
659.240
 30
0.000000
  70
    32
  0
VERTEX
  8
0
  5
98ED
 10
352.847
 20
659.448
 30
0.000000
  70
    32
  0
VERTEX
  8
0
  5
98EE
 10
352.936
 20
659.658
 30
0.000000
  70
    32
  0
VERTEX
  8
0
  5
98EF
 10
353.021
 20
659.870
 30
0.000000
  70
    32
  0
VERTEX
  8
0
  5
98F0
 10
353.101
 20
660.084
 30
0.000000
  70
    32
  0
VERTEX
  8
0
  5
98F1
 10
353.175
 20
660.299
 30
0.000000
  70
    32
  0
VERTEX
  8
0
  5
98F2
 10
353.244
 20
660.517
 30
0.000000
  70
    32
  0
VERTEX
  8
0
  5
98F3
 10
353.307
 20
660.736
 30
0.000000
  70
    32
  0
VERTEX
  8
0
  5
98F4
 10
353.366
 20
660.957
 30
0.000000
  70
    32
  0
VERTEX
  8
0
  5
98F5
 10
353.418
 20
661.179
 30
0.000000
  70
    32
  0
VERTEX
  8
0
  5
98F6
 10
353.466
 20
661.402
 30
0.000000
  70
    32
  0
VERTEX
  8
0
  5
98F7
 10
353.507
 20
661.627
 30
0.000000
  70
    32
  0
VERTEX
  8
0
  5
98F8
 10
353.544
 20
661.852
 30
0.000000
  70
    32
  0
VERTEX
  8
0
  5
98F9
 10
353.574
 20
662.078
 30
0.000000
  70
    32
  0
VERTEX
  8
0
  5
98FA
 10
353.600
 20
662.305
 30
0.000000
  70
    32
  0
VERTEX
  8
0
  5
98FB
 10
353.619
 20
662.533
 30
0.000000
  70
    32
  0
VERTEX
  8
0
  5
98FC
 10
353.633
 20
662.760
 30
0.000000
  70
    32
  0
VERTEX
  8
0
  5
98FD
 10
353.642
 20
662.988
 30
0.000000
  70
    32
  0
VERTEX
  8
0
  5
98FE
 10
353.644
 20
663.217
 30
0.000000
  70
    32
  0
SEQEND
  8
0
  5
98FF
  0
LINE
  5
929A
  8
0
 10
328.74437435798018
 20
646.21639369527804
 30
0.0
 11
329.0428603579802
 21
646.21639369527804
 31
0.0
  0
LINE
  5
929B
  8
0
 10
329.24437435798018
 20
646.21639369527804
 30
0.0
 11
332.17006935798008
 21
646.21639369527804
 31
0.0
  0
POLYLINE
  5
929C
  8
0
 10
344.34437436528441
 20
669.51685969527784
 30
0.0
 66
     1
 70
     8
  0
VERTEX
  8
0
  5
9900
 10
344.344
 20
669.517
 30
0.000000
  70
    32
  0
VERTEX
  8
0
  5
9901
 10
344.035
 20
669.509
 30
0.000000
  70
    32
  0
VERTEX
  8
0
  5
9902
 10
343.727
 20
669.487
 30
0.000000
  70
    32
  0
VERTEX
  8
0
  5
9903
 10
343.420
 20
669.449
 30
0.000000
  70
    32
  0
VERTEX
  8
0
  5
9904
 10
343.115
 20
669.396
 30
0.000000
  70
    32
  0
VERTEX
  8
0
  5
9905
 10
342.814
 20
669.328
 30
0.000000
  70
    32
  0
VERTEX
  8
0
  5
9906
 10
342.516
 20
669.246
 30
0.000000
  70
    32
  0
VERTEX
  8
0
  5
9907
 10
342.222
 20
669.149
 30
0.000000
  70
    32
  0
VERTEX
  8
0
  5
9908
 10
341.933
 20
669.037
 30
0.000000
  70
    32
  0
VERTEX
  8
0
  5
9909
 10
341.651
 20
668.912
 30
0.000000
  70
    32
  0
VERTEX
  8
0
  5
990A
 10
341.375
 20
668.773
 30
0.000000
  70
    32
  0
VERTEX
  8
0
  5
990B
 10
341.106
 20
668.621
 30
0.000000
  70
    32
  0
VERTEX
  8
0
  5
990C
 10
340.844
 20
668.455
 30
0.000000
  70
    32
  0
VERTEX
  8
0
  5
990D
 10
340.591
 20
668.277
 30
0.000000
  70
    32
  0
VERTEX
  8
0
  5
990E
 10
340.348
 20
668.087
 30
0.000000
  70
    32
  0
VERTEX
  8
0
  5
990F
 10
340.114
 20
667.885
 30
0.000000
  70
    32
  0
VERTEX
  8
0
  5
9910
 10
339.890
 20
667.672
 30
0.000000
  70
    32
  0
VERTEX
  8
0
  5
9911
 10
339.676
 20
667.448
 30
0.000000
  70
    32
  0
VERTEX
  8
0
  5
9912
 10
339.474
 20
667.213
 30
0.000000
  70
    32
  0
VERTEX
  8
0
  5
9913
 10
339.284
 20
666.970
 30
0.000000
  70
    32
  0
VERTEX
  8
0
  5
9914
 10
339.106
 20
666.717
 30
0.000000
  70
    32
  0
VERTEX
  8
0
  5
9915
 10
338.941
 20
666.456
 30
0.000000
  70
    32
  0
VERTEX
  8
0
  5
9916
 10
338.788
 20
666.187
 30
0.000000
  70
    32
  0
VERTEX
  8
0
  5
9917
 10
338.649
 20
665.910
 30
0.000000
  70
    32
  0
VERTEX
  8
0
  5
9918
 10
338.524
 20
665.628
 30
0.000000
  70
    32
  0
VERTEX
  8
0
  5
9919
 10
338.413
 20
665.339
 30
0.000000
  70
    32
  0
VERTEX
  8
0
  5
991A
 10
338.316
 20
665.046
 30
0.000000
  70
    32
  0
VERTEX
  8
0
  5
991B
 10
338.233
 20
664.748
 30
0.000000
  70
    32
  0
VERTEX
  8
0
  5
991C
 10
338.165
 20
664.446
 30
0.000000
  70
    32
  0
VERTEX
  8
0
  5
991D
 10
338.113
 20
664.141
 30
0.000000
  70
    32
  0
VERTEX
  8
0
  5
991E
 10
338.075
 20
663.834
 30
0.000000
  70
    32
  0
VERTEX
  8
0
  5
991F
 10
338.052
 20
663.526
 30
0.000000
  70
    32
  0
VERTEX
  8
0
  5
9920
 10
338.044
 20
663.217
 30
0.000000
  70
    32
  0
VERTEX
  8
0
  5
9921
 10
338.052
 20
662.908
 30
0.000000
  70
    32
  0
VERTEX
  8
0
  5
9922
 10
338.075
 20
662.599
 30
0.000000
  70
    32
  0
VERTEX
  8
0
  5
9923
 10
338.113
 20
662.292
 30
0.000000
  70
    32
  0
VERTEX
  8
0
  5
9924
 10
338.165
 20
661.988
 30
0.000000
  70
    32
  0
VERTEX
  8
0
  5
9925
 10
338.233
 20
661.686
 30
0.000000
  70
    32
  0
VERTEX
  8
0
  5
9926
 10
338.316
 20
661.388
 30
0.000000
  70
    32
  0
VERTEX
  8
0
  5
9927
 10
338.413
 20
661.094
 30
0.000000
  70
    32
  0
VERTEX
  8
0
  5
9928
 10
338.524
 20
660.806
 30
0.000000
  70
    32
  0
VERTEX
  8
0
  5
9929
 10
338.649
 20
660.523
 30
0.000000
  70
    32
  0
VERTEX
  8
0
  5
992A
 10
338.788
 20
660.247
 30
0.000000
  70
    32
  0
VERTEX
  8
0
  5
992B
 10
338.941
 20
659.978
 30
0.000000
  70
    32
  0
VERTEX
  8
0
  5
992C
 10
339.106
 20
659.717
 30
0.000000
  70
    32
  0
VERTEX
  8
0
  5
992D
 10
339.284
 20
659.464
 30
0.000000
  70
    32
  0
VERTEX
  8
0
  5
992E
 10
339.474
 20
659.220
 30
0.000000
  70
    32
  0
VERTEX
  8
0
  5
992F
 10
339.676
 20
658.986
 30
0.000000
  70
    32
  0
VERTEX
  8
0
  5
9930
 10
339.890
 20
658.762
 30
0.000000
  70
    32
  0
VERTEX
  8
0
  5
9931
 10
340.114
 20
658.549
 30
0.000000
  70
    32
  0
VERTEX
  8
0
  5
9932
 10
340.348
 20
658.347
 30
0.000000
  70
    32
  0
VERTEX
  8
0
  5
9933
 10
340.591
 20
658.156
 30
0.000000
  70
    32
  0
VERTEX
  8
0
  5
9934
 10
340.844
 20
657.978
 30
0.000000
  70
    32
  0
VERTEX
  8
0
  5
9935
 10
341.106
 20
657.813
 30
0.000000
  70
    32
  0
VERTEX
  8
0
  5
9936
 10
341.375
 20
657.661
 30
0.000000
  70
    32
  0
VERTEX
  8
0
  5
9937
 10
341.651
 20
657.521
 30
0.000000
  70
    32
  0
VERTEX
  8
0
  5
9938
 10
341.933
 20
657.396
 30
0.000000
  70
    32
  0
VERTEX
  8
0
  5
9939
 10
342.222
 20
657.285
 30
0.000000
  70
    32
  0
VERTEX
  8
0
  5
993A
 10
342.516
 20
657.188
 30
0.000000
  70
    32
  0
VERTEX
  8
0
  5
993B
 10
342.814
 20
657.105
 30
0.000000
  70
    32
  0
VERTEX
  8
0
  5
993C
 10
343.115
 20
657.038
 30
0.000000
  70
    32
  0
VERTEX
  8
0
  5
993D
 10
343.420
 20
656.985
 30
0.000000
  70
    32
  0
VERTEX
  8
0
  5
993E
 10
343.727
 20
656.947
 30
0.000000
  70
    32
  0
VERTEX
  8
0
  5
993F
 10
344.035
 20
656.924
 30
0.000000
  70
    32
  0
VERTEX
  8
0
  5
9940
 10
344.344
 20
656.917
 30
0.000000
  70
    32
  0
VERTEX
  8
0
  5
9941
 10
344.654
 20
656.924
 30
0.000000
  70
    32
  0
VERTEX
  8
0
  5
9942
 10
344.962
 20
656.947
 30
0.000000
  70
    32
  0
VERTEX
  8
0
  5
9943
 10
345.269
 20
656.985
 30
0.000000
  70
    32
  0
VERTEX
  8
0
  5
9944
 10
345.573
 20
657.038
 30
0.000000
  70
    32
  0
VERTEX
  8
0
  5
9945
 10
345.875
 20
657.105
 30
0.000000
  70
    32
  0
VERTEX
  8
0
  5
9946
 10
346.173
 20
657.188
 30
0.000000
  70
    32
  0
VERTEX
  8
0
  5
9947
 10
346.467
 20
657.285
 30
0.000000
  70
    32
  0
VERTEX
  8
0
  5
9948
 10
346.755
 20
657.396
 30
0.000000
  70
    32
  0
VERTEX
  8
0
  5
9949
 10
347.038
 20
657.521
 30
0.000000
  70
    32
  0
VERTEX
  8
0
  5
994A
 10
347.314
 20
657.661
 30
0.000000
  70
    32
  0
VERTEX
  8
0
  5
994B
 10
347.583
 20
657.813
 30
0.000000
  70
    32
  0
VERTEX
  8
0
  5
994C
 10
347.844
 20
657.978
 30
0.000000
  70
    32
  0
VERTEX
  8
0
  5
994D
 10
348.097
 20
658.156
 30
0.000000
  70
    32
  0
VERTEX
  8
0
  5
994E
 10
348.341
 20
658.347
 30
0.000000
  70
    32
  0
VERTEX
  8
0
  5
994F
 10
348.575
 20
658.549
 30
0.000000
  70
    32
  0
VERTEX
  8
0
  5
9950
 10
348.799
 20
658.762
 30
0.000000
  70
    32
  0
VERTEX
  8
0
  5
9951
 10
349.012
 20
658.986
 30
0.000000
  70
    32
  0
VERTEX
  8
0
  5
9952
 10
349.214
 20
659.220
 30
0.000000
  70
    32
  0
VERTEX
  8
0
  5
9953
 10
349.405
 20
659.464
 30
0.000000
  70
    32
  0
VERTEX
  8
0
  5
9954
 10
349.583
 20
659.717
 30
0.000000
  70
    32
  0
VERTEX
  8
0
  5
9955
 10
349.748
 20
659.978
 30
0.000000
  70
    32
  0
VERTEX
  8
0
  5
9956
 10
349.900
 20
660.247
 30
0.000000
  70
    32
  0
VERTEX
  8
0
  5
9957
 10
350.040
 20
660.523
 30
0.000000
  70
    32
  0
VERTEX
  8
0
  5
9958
 10
350.165
 20
660.806
 30
0.000000
  70
    32
  0
VERTEX
  8
0
  5
9959
 10
350.276
 20
661.094
 30
0.000000
  70
    32
  0
VERTEX
  8
0
  5
995A
 10
350.373
 20
661.388
 30
0.000000
  70
    32
  0
VERTEX
  8
0
  5
995B
 10
350.456
 20
661.686
 30
0.000000
  70
    32
  0
VERTEX
  8
0
  5
995C
 10
350.523
 20
661.988
 30
0.000000
  70
    32
  0
VERTEX
  8
0
  5
995D
 10
350.576
 20
662.292
 30
0.000000
  70
    32
  0
VERTEX
  8
0
  5
995E
 10
350.614
 20
662.599
 30
0.000000
  70
    32
  0
VERTEX
  8
0
  5
995F
 10
350.637
 20
662.908
 30
0.000000
  70
    32
  0
VERTEX
  8
0
  5
9960
 10
350.644
 20
663.217
 30
0.000000
  70
    32
  0
VERTEX
  8
0
  5
9961
 10
350.637
 20
663.526
 30
0.000000
  70
    32
  0
VERTEX
  8
0
  5
9962
 10
350.614
 20
663.834
 30
0.000000
  70
    32
  0
VERTEX
  8
0
  5
9963
 10
350.576
 20
664.141
 30
0.000000
  70
    32
  0
VERTEX
  8
0
  5
9964
 10
350.523
 20
664.446
 30
0.000000
  70
    32
  0
VERTEX
  8
0
  5
9965
 10
350.456
 20
664.748
 30
0.000000
  70
    32
  0
VERTEX
  8
0
  5
9966
 10
350.373
 20
665.046
 30
0.000000
  70
    32
  0
VERTEX
  8
0
  5
9967
 10
350.276
 20
665.339
 30
0.000000
  70
    32
  0
VERTEX
  8
0
  5
9968
 10
350.165
 20
665.628
 30
0.000000
  70
    32
  0
VERTEX
  8
0
  5
9969
 10
350.040
 20
665.910
 30
0.000000
  70
    32
  0
VERTEX
  8
0
  5
996A
 10
349.900
 20
666.187
 30
0.000000
  70
    32
  0
VERTEX
  8
0
  5
996B
 10
349.748
 20
666.456
 30
0.000000
  70
    32
  0
VERTEX
  8
0
  5
996C
 10
349.583
 20
666.717
 30
0.000000
  70
    32
  0
VERTEX
  8
0
  5
996D
 10
349.405
 20
666.970
 30
0.000000
  70
    32
  0
VERTEX
  8
0
  5
996E
 10
349.214
 20
667.213
 30
0.000000
  70
    32
  0
VERTEX
  8
0
  5
996F
 10
349.012
 20
667.448
 30
0.000000
  70
    32
  0
VERTEX
  8
0
  5
9970
 10
348.799
 20
667.672
 30
0.000000
  70
    32
  0
VERTEX
  8
0
  5
9971
 10
348.575
 20
667.885
 30
0.000000
  70
    32
  0
VERTEX
  8
0
  5
9972
 10
348.341
 20
668.087
 30
0.000000
  70
    32
  0
VERTEX
  8
0
  5
9973
 10
348.097
 20
668.277
 30
0.000000
  70
    32
  0
VERTEX
  8
0
  5
9974
 10
347.844
 20
668.455
 30
0.000000
  70
    32
  0
VERTEX
  8
0
  5
9975
 10
347.583
 20
668.621
 30
0.000000
  70
    32
  0
VERTEX
  8
0
  5
9976
 10
347.314
 20
668.773
 30
0.000000
  70
    32
  0
VERTEX
  8
0
  5
9977
 10
347.038
 20
668.912
 30
0.000000
  70
    32
  0
VERTEX
  8
0
  5
9978
 10
346.755
 20
669.037
 30
0.000000
  70
    32
  0
VERTEX
  8
0
  5
9979
 10
346.467
 20
669.149
 30
0.000000
  70
    32
  0
VERTEX
  8
0
  5
997A
 10
346.173
 20
669.246
 30
0.000000
  70
    32
  0
VERTEX
  8
0
  5
997B
 10
345.875
 20
669.328
 30
0.000000
  70
    32
  0
VERTEX
  8
0
  5
997C
 10
345.573
 20
669.396
 30
0.000000
  70
    32
  0
VERTEX
  8
0
  5
997D
 10
345.269
 20
669.449
 30
0.000000
  70
    32
  0
VERTEX
  8
0
  5
997E
 10
344.962
 20
669.487
 30
0.000000
  70
    32
  0
VERTEX
  8
0
  5
997F
 10
344.654
 20
669.509
 30
0.000000
  70
    32
  0
VERTEX
  8
0
  5
9980
 10
344.344
 20
669.517
 30
0.000000
  70
    32
  0
SEQEND
  8
0
  5
9981
  0
LINE
  5
929D
  8
0
 10
380.54772835798042
 20
659.52861469527795
 30
0.0
 11
382.75108235798001
 21
659.90402969527804
 31
0.0
  0
LINE
  5
929E
  8
0
 10
363.74102035798018
 20
675.21697369527806
 30
0.0
 11
363.74102035798018
 21
656.66502869527812
 31
0.0
  0
LINE
  5
929F
  8
0
 10
369.44102035797999
 20
675.21697369527806
 30
0.0
 11
367.94102035797988
 21
675.21697369527806
 31
0.0
  0
LINE
  5
92A0
  8
0
 10
369.44102035797999
 20
671.21689369527815
 30
0.0
 11
367.94102035797988
 21
671.21689369527815
 31
0.0
  0
LINE
  5
92A1
  8
0
 10
367.94102035797988
 20
675.21697369527806
 30
0.0
 11
367.94102035797988
 21
657.38063969527821
 31
0.0
  0
LINE
  5
92A2
  8
0
 10
365.74102035798018
 20
657.00579569527804
 30
0.0
 11
365.74102035798018
 21
675.21697369527806
 31
0.0
  0
LINE
  5
92A3
  8
0
 10
365.74102035798018
 20
657.00579569527804
 30
0.0
 11
367.94102035797988
 21
657.38063969527821
 31
0.0
  0
LINE
  5
92A4
  8
0
 10
365.74102035798018
 20
675.21697369527806
 30
0.0
 11
363.74102035798018
 21
675.21697369527806
 31
0.0
  0
LINE
  5
92A5
  8
0
 10
365.74102035798018
 20
671.21689369527815
 30
0.0
 11
363.74102035798018
 21
671.21689369527815
 31
0.0
  0
LINE
  5
92A6
  8
0
 10
377.3443743579802
 20
658.98281569527808
 30
0.0
 11
377.3443743579802
 21
675.21697369527806
 31
0.0
  0
LINE
  5
92A7
  8
0
 10
380.54772835798042
 20
659.52861469527795
 30
0.0
 11
380.54772835798042
 21
675.21697369527806
 31
0.0
  0
LINE
  5
92A8
  8
0
 10
379.04772835798042
 20
675.21697369527806
 30
0.0
 11
379.04772835798042
 21
659.27303869527805
 31
0.0
  0
LINE
  5
92A9
  8
0
 10
375.3443743579802
 20
675.21697369527806
 30
0.0
 11
375.3443743579802
 21
658.64204869527805
 31
0.0
  0
LINE
  5
92AA
  8
0
 10
369.44102035797999
 20
657.63621469527811
 30
0.0
 11
369.44102035797999
 21
675.21697369527806
 31
0.0
  0
LINE
  5
92AB
  8
0
 10
371.64102035798032
 20
675.21697369527806
 30
0.0
 11
371.64102035798032
 21
658.01105869527805
 31
0.0
  0
LINE
  5
92AC
  8
0
 10
373.14102035798032
 20
658.26663369527796
 30
0.0
 11
373.14102035798032
 21
675.21697369527806
 31
0.0
  0
LINE
  5
92AD
  8
0
 10
369.44102035797999
 20
657.63621469527811
 30
0.0
 11
371.64102035798032
 21
658.01105869527805
 31
0.0
  0
LINE
  5
92AE
  8
0
 10
373.14102035798032
 20
658.26663369527796
 30
0.0
 11
375.3443743579802
 21
658.64204869527805
 31
0.0
  0
LINE
  5
92AF
  8
0
 10
377.3443743579802
 20
658.98281569527808
 30
0.0
 11
379.04772835798042
 21
659.27303869527805
 31
0.0
  0
LINE
  5
92B0
  8
0
 10
377.3443743579802
 20
675.21697369527806
 30
0.0
 11
375.3443743579802
 21
675.21697369527806
 31
0.0
  0
LINE
  5
92B1
  8
0
 10
377.3443743579802
 20
671.21689369527815
 30
0.0
 11
375.3443743579802
 21
671.21689369527815
 31
0.0
  0
LINE
  5
92B2
  8
0
 10
373.14102035798032
 20
675.21697369527806
 30
0.0
 11
371.64102035798032
 21
675.21697369527806
 31
0.0
  0
LINE
  5
92B3
  8
0
 10
373.14102035798032
 20
671.21689369527815
 30
0.0
 11
371.64102035798032
 21
671.21689369527815
 31
0.0
  0
LINE
  5
92B4
  8
0
 10
380.54772835798042
 20
671.21689369527815
 30
0.0
 11
379.04772835798042
 21
671.21689369527815
 31
0.0
  0
LINE
  5
92B5
  8
0
 10
380.54772835798042
 20
675.21697369527806
 30
0.0
 11
379.04772835798042
 21
675.21697369527806
 31
0.0
  0
LINE
  5
92B6
  8
0
 10
399.87452535798002
 20
646.21639369527804
 30
0.0
 11
399.87452535798002
 21
657.75211469527812
 31
0.0
  0
LINE
  5
92B7
  8
0
 10
391.6577903579801
 20
661.42158569527828
 30
0.0
 11
401.51950035798012
 21
663.10185769527811
 31
0.0
  0
LINE
  5
92B8
  8
0
 10
386.4544363579804
 20
675.21697369527806
 30
0.0
 11
386.4544363579804
 21
660.53501969527804
 31
0.0
  0
LINE
  5
92B9
  8
0
 10
387.9544363579804
 20
660.79059469527795
 30
0.0
 11
387.9544363579804
 21
675.21697369527806
 31
0.0
  0
LINE
  5
92BA
  8
0
 10
390.15779035797999
 20
675.21697369527806
 30
0.0
 11
390.15779035797999
 21
661.16600969527803
 31
0.0
  0
LINE
  5
92BB
  8
0
 10
382.75108235798001
 20
675.21697369527806
 30
0.0
 11
382.75108235798001
 21
659.90402969527804
 31
0.0
  0
LINE
  5
92BC
  8
0
 10
384.25108235798012
 20
660.15960469527806
 30
0.0
 11
384.25108235798012
 21
675.21697369527806
 31
0.0
  0
LINE
  5
92BD
  8
0
 10
391.6577903579801
 20
661.42158569527828
 30
0.0
 11
391.6577903579801
 21
675.21697369527806
 31
0.0
  0
LINE
  5
92BE
  8
0
 10
387.9544363579804
 20
660.79059469527795
 30
0.0
 11
390.15779035797999
 21
661.16600969527803
 31
0.0
  0
LINE
  5
92BF
  8
0
 10
384.25108235798012
 20
660.15960469527806
 30
0.0
 11
386.4544363579804
 21
660.53501969527804
 31
0.0
  0
LINE
  5
92C0
  8
0
 10
387.9544363579804
 20
675.21697369527806
 30
0.0
 11
386.4544363579804
 21
675.21697369527806
 31
0.0
  0
LINE
  5
92C1
  8
0
 10
387.9544363579804
 20
671.21689369527815
 30
0.0
 11
386.4544363579804
 21
671.21689369527815
 31
0.0
  0
LINE
  5
92C2
  8
0
 10
384.25108235798012
 20
675.21697369527806
 30
0.0
 11
382.75108235798001
 21
675.21697369527806
 31
0.0
  0
LINE
  5
92C3
  8
0
 10
384.25108235798012
 20
671.21689369527815
 30
0.0
 11
382.75108235798001
 21
671.21689369527815
 31
0.0
  0
LINE
  5
92C4
  8
0
 10
391.6577903579801
 20
675.21697369527806
 30
0.0
 11
390.15779035797999
 21
675.21697369527806
 31
0.0
  0
LINE
  5
92C5
  8
0
 10
391.6577903579801
 20
671.21689369527815
 30
0.0
 11
390.15779035797999
 21
671.21689369527815
 31
0.0
  0
LINE
  5
92C6
  8
0
 10
400.74437435798012
 20
657.90242169527812
 30
0.0
 11
400.74437435798012
 21
661.95589569527795
 31
0.0
  0
LINE
  5
92C7
  8
0
 10
330.24437435798018
 20
680.21707369527815
 30
0.0
 11
335.04437435798042
 21
680.21707369527815
 31
0.0
  0
POLYLINE
  5
92C8
  8
0
 10
330.24437435798018
 20
680.21707369527803
 30
0.0
 66
     1
 70
     8
  0
VERTEX
  8
0
  5
9982
 10
330.244
 20
680.217
 30
0.000000
  70
    32
  0
VERTEX
  8
0
  5
9983
 10
330.232
 20
680.217
 30
0.000000
  70
    32
  0
VERTEX
  8
0
  5
9984
 10
330.220
 20
680.217
 30
0.000000
  70
    32
  0
VERTEX
  8
0
  5
9985
 10
330.208
 20
680.216
 30
0.000000
  70
    32
  0
VERTEX
  8
0
  5
9986
 10
330.195
 20
680.216
 30
0.000000
  70
    32
  0
VERTEX
  8
0
  5
9987
 10
330.183
 20
680.215
 30
0.000000
  70
    32
  0
VERTEX
  8
0
  5
9988
 10
330.171
 20
680.214
 30
0.000000
  70
    32
  0
VERTEX
  8
0
  5
9989
 10
330.159
 20
680.213
 30
0.000000
  70
    32
  0
VERTEX
  8
0
  5
998A
 10
330.146
 20
680.212
 30
0.000000
  70
    32
  0
VERTEX
  8
0
  5
998B
 10
330.134
 20
680.211
 30
0.000000
  70
    32
  0
VERTEX
  8
0
  5
998C
 10
330.122
 20
680.210
 30
0.000000
  70
    32
  0
VERTEX
  8
0
  5
998D
 10
330.110
 20
680.208
 30
0.000000
  70
    32
  0
VERTEX
  8
0
  5
998E
 10
330.098
 20
680.206
 30
0.000000
  70
    32
  0
VERTEX
  8
0
  5
998F
 10
330.086
 20
680.204
 30
0.000000
  70
    32
  0
VERTEX
  8
0
  5
9990
 10
330.073
 20
680.202
 30
0.000000
  70
    32
  0
VERTEX
  8
0
  5
9991
 10
330.061
 20
680.200
 30
0.000000
  70
    32
  0
VERTEX
  8
0
  5
9992
 10
330.049
 20
680.198
 30
0.000000
  70
    32
  0
VERTEX
  8
0
  5
9993
 10
330.037
 20
680.195
 30
0.000000
  70
    32
  0
VERTEX
  8
0
  5
9994
 10
330.025
 20
680.193
 30
0.000000
  70
    32
  0
VERTEX
  8
0
  5
9995
 10
330.013
 20
680.190
 30
0.000000
  70
    32
  0
VERTEX
  8
0
  5
9996
 10
330.001
 20
680.187
 30
0.000000
  70
    32
  0
VERTEX
  8
0
  5
9997
 10
329.990
 20
680.184
 30
0.000000
  70
    32
  0
VERTEX
  8
0
  5
9998
 10
329.978
 20
680.181
 30
0.000000
  70
    32
  0
VERTEX
  8
0
  5
9999
 10
329.966
 20
680.178
 30
0.000000
  70
    32
  0
VERTEX
  8
0
  5
999A
 10
329.954
 20
680.174
 30
0.000000
  70
    32
  0
VERTEX
  8
0
  5
999B
 10
329.942
 20
680.170
 30
0.000000
  70
    32
  0
VERTEX
  8
0
  5
999C
 10
329.931
 20
680.167
 30
0.000000
  70
    32
  0
VERTEX
  8
0
  5
999D
 10
329.919
 20
680.163
 30
0.000000
  70
    32
  0
VERTEX
  8
0
  5
999E
 10
329.907
 20
680.159
 30
0.000000
  70
    32
  0
VERTEX
  8
0
  5
999F
 10
329.896
 20
680.154
 30
0.000000
  70
    32
  0
VERTEX
  8
0
  5
99A0
 10
329.884
 20
680.150
 30
0.000000
  70
    32
  0
VERTEX
  8
0
  5
99A1
 10
329.873
 20
680.146
 30
0.000000
  70
    32
  0
VERTEX
  8
0
  5
99A2
 10
329.862
 20
680.141
 30
0.000000
  70
    32
  0
VERTEX
  8
0
  5
99A3
 10
329.850
 20
680.136
 30
0.000000
  70
    32
  0
VERTEX
  8
0
  5
99A4
 10
329.839
 20
680.131
 30
0.000000
  70
    32
  0
VERTEX
  8
0
  5
99A5
 10
329.828
 20
680.126
 30
0.000000
  70
    32
  0
VERTEX
  8
0
  5
99A6
 10
329.817
 20
680.121
 30
0.000000
  70
    32
  0
VERTEX
  8
0
  5
99A7
 10
329.806
 20
680.116
 30
0.000000
  70
    32
  0
VERTEX
  8
0
  5
99A8
 10
329.795
 20
680.110
 30
0.000000
  70
    32
  0
VERTEX
  8
0
  5
99A9
 10
329.784
 20
680.105
 30
0.000000
  70
    32
  0
VERTEX
  8
0
  5
99AA
 10
329.773
 20
680.099
 30
0.000000
  70
    32
  0
VERTEX
  8
0
  5
99AB
 10
329.762
 20
680.093
 30
0.000000
  70
    32
  0
VERTEX
  8
0
  5
99AC
 10
329.751
 20
680.087
 30
0.000000
  70
    32
  0
VERTEX
  8
0
  5
99AD
 10
329.741
 20
680.081
 30
0.000000
  70
    32
  0
VERTEX
  8
0
  5
99AE
 10
329.730
 20
680.075
 30
0.000000
  70
    32
  0
VERTEX
  8
0
  5
99AF
 10
329.720
 20
680.068
 30
0.000000
  70
    32
  0
VERTEX
  8
0
  5
99B0
 10
329.709
 20
680.062
 30
0.000000
  70
    32
  0
VERTEX
  8
0
  5
99B1
 10
329.699
 20
680.055
 30
0.000000
  70
    32
  0
VERTEX
  8
0
  5
99B2
 10
329.689
 20
680.049
 30
0.000000
  70
    32
  0
VERTEX
  8
0
  5
99B3
 10
329.679
 20
680.042
 30
0.000000
  70
    32
  0
VERTEX
  8
0
  5
99B4
 10
329.669
 20
680.035
 30
0.000000
  70
    32
  0
VERTEX
  8
0
  5
99B5
 10
329.659
 20
680.028
 30
0.000000
  70
    32
  0
VERTEX
  8
0
  5
99B6
 10
329.649
 20
680.020
 30
0.000000
  70
    32
  0
VERTEX
  8
0
  5
99B7
 10
329.639
 20
680.013
 30
0.000000
  70
    32
  0
VERTEX
  8
0
  5
99B8
 10
329.629
 20
680.005
 30
0.000000
  70
    32
  0
VERTEX
  8
0
  5
99B9
 10
329.620
 20
679.998
 30
0.000000
  70
    32
  0
VERTEX
  8
0
  5
99BA
 10
329.610
 20
679.990
 30
0.000000
  70
    32
  0
VERTEX
  8
0
  5
99BB
 10
329.601
 20
679.982
 30
0.000000
  70
    32
  0
VERTEX
  8
0
  5
99BC
 10
329.591
 20
679.974
 30
0.000000
  70
    32
  0
VERTEX
  8
0
  5
99BD
 10
329.582
 20
679.966
 30
0.000000
  70
    32
  0
VERTEX
  8
0
  5
99BE
 10
329.573
 20
679.958
 30
0.000000
  70
    32
  0
VERTEX
  8
0
  5
99BF
 10
329.564
 20
679.950
 30
0.000000
  70
    32
  0
VERTEX
  8
0
  5
99C0
 10
329.555
 20
679.941
 30
0.000000
  70
    32
  0
VERTEX
  8
0
  5
99C1
 10
329.546
 20
679.933
 30
0.000000
  70
    32
  0
VERTEX
  8
0
  5
99C2
 10
329.537
 20
679.924
 30
0.000000
  70
    32
  0
VERTEX
  8
0
  5
99C3
 10
329.529
 20
679.915
 30
0.000000
  70
    32
  0
VERTEX
  8
0
  5
99C4
 10
329.520
 20
679.907
 30
0.000000
  70
    32
  0
VERTEX
  8
0
  5
99C5
 10
329.512
 20
679.898
 30
0.000000
  70
    32
  0
VERTEX
  8
0
  5
99C6
 10
329.503
 20
679.889
 30
0.000000
  70
    32
  0
VERTEX
  8
0
  5
99C7
 10
329.495
 20
679.879
 30
0.000000
  70
    32
  0
VERTEX
  8
0
  5
99C8
 10
329.487
 20
679.870
 30
0.000000
  70
    32
  0
VERTEX
  8
0
  5
99C9
 10
329.479
 20
679.861
 30
0.000000
  70
    32
  0
VERTEX
  8
0
  5
99CA
 10
329.471
 20
679.851
 30
0.000000
  70
    32
  0
VERTEX
  8
0
  5
99CB
 10
329.464
 20
679.842
 30
0.000000
  70
    32
  0
VERTEX
  8
0
  5
99CC
 10
329.456
 20
679.832
 30
0.000000
  70
    32
  0
VERTEX
  8
0
  5
99CD
 10
329.449
 20
679.823
 30
0.000000
  70
    32
  0
VERTEX
  8
0
  5
99CE
 10
329.441
 20
679.813
 30
0.000000
  70
    32
  0
VERTEX
  8
0
  5
99CF
 10
329.434
 20
679.803
 30
0.000000
  70
    32
  0
VERTEX
  8
0
  5
99D0
 10
329.427
 20
679.793
 30
0.000000
  70
    32
  0
VERTEX
  8
0
  5
99D1
 10
329.420
 20
679.783
 30
0.000000
  70
    32
  0
VERTEX
  8
0
  5
99D2
 10
329.413
 20
679.773
 30
0.000000
  70
    32
  0
VERTEX
  8
0
  5
99D3
 10
329.406
 20
679.762
 30
0.000000
  70
    32
  0
VERTEX
  8
0
  5
99D4
 10
329.400
 20
679.752
 30
0.000000
  70
    32
  0
VERTEX
  8
0
  5
99D5
 10
329.393
 20
679.742
 30
0.000000
  70
    32
  0
VERTEX
  8
0
  5
99D6
 10
329.387
 20
679.731
 30
0.000000
  70
    32
  0
VERTEX
  8
0
  5
99D7
 10
329.380
 20
679.721
 30
0.000000
  70
    32
  0
VERTEX
  8
0
  5
99D8
 10
329.374
 20
679.710
 30
0.000000
  70
    32
  0
VERTEX
  8
0
  5
99D9
 10
329.368
 20
679.699
 30
0.000000
  70
    32
  0
VERTEX
  8
0
  5
99DA
 10
329.362
 20
679.688
 30
0.000000
  70
    32
  0
VERTEX
  8
0
  5
99DB
 10
329.357
 20
679.678
 30
0.000000
  70
    32
  0
VERTEX
  8
0
  5
99DC
 10
329.351
 20
679.667
 30
0.000000
  70
    32
  0
VERTEX
  8
0
  5
99DD
 10
329.346
 20
679.656
 30
0.000000
  70
    32
  0
VERTEX
  8
0
  5
99DE
 10
329.340
 20
679.645
 30
0.000000
  70
    32
  0
VERTEX
  8
0
  5
99DF
 10
329.335
 20
679.633
 30
0.000000
  70
    32
  0
VERTEX
  8
0
  5
99E0
 10
329.330
 20
679.622
 30
0.000000
  70
    32
  0
VERTEX
  8
0
  5
99E1
 10
329.325
 20
679.611
 30
0.000000
  70
    32
  0
VERTEX
  8
0
  5
99E2
 10
329.320
 20
679.600
 30
0.000000
  70
    32
  0
VERTEX
  8
0
  5
99E3
 10
329.316
 20
679.588
 30
0.000000
  70
    32
  0
VERTEX
  8
0
  5
99E4
 10
329.311
 20
679.577
 30
0.000000
  70
    32
  0
VERTEX
  8
0
  5
99E5
 10
329.307
 20
679.565
 30
0.000000
  70
    32
  0
VERTEX
  8
0
  5
99E6
 10
329.303
 20
679.554
 30
0.000000
  70
    32
  0
VERTEX
  8
0
  5
99E7
 10
329.299
 20
679.542
 30
0.000000
  70
    32
  0
VERTEX
  8
0
  5
99E8
 10
329.295
 20
679.531
 30
0.000000
  70
    32
  0
VERTEX
  8
0
  5
99E9
 10
329.291
 20
679.519
 30
0.000000
  70
    32
  0
VERTEX
  8
0
  5
99EA
 10
329.287
 20
679.507
 30
0.000000
  70
    32
  0
VERTEX
  8
0
  5
99EB
 10
329.284
 20
679.496
 30
0.000000
  70
    32
  0
VERTEX
  8
0
  5
99EC
 10
329.281
 20
679.484
 30
0.000000
  70
    32
  0
VERTEX
  8
0
  5
99ED
 10
329.277
 20
679.472
 30
0.000000
  70
    32
  0
VERTEX
  8
0
  5
99EE
 10
329.274
 20
679.460
 30
0.000000
  70
    32
  0
VERTEX
  8
0
  5
99EF
 10
329.271
 20
679.448
 30
0.000000
  70
    32
  0
VERTEX
  8
0
  5
99F0
 10
329.269
 20
679.436
 30
0.000000
  70
    32
  0
VERTEX
  8
0
  5
99F1
 10
329.266
 20
679.424
 30
0.000000
  70
    32
  0
VERTEX
  8
0
  5
99F2
 10
329.264
 20
679.412
 30
0.000000
  70
    32
  0
VERTEX
  8
0
  5
99F3
 10
329.261
 20
679.400
 30
0.000000
  70
    32
  0
VERTEX
  8
0
  5
99F4
 10
329.259
 20
679.388
 30
0.000000
  70
    32
  0
VERTEX
  8
0
  5
99F5
 10
329.257
 20
679.376
 30
0.000000
  70
    32
  0
VERTEX
  8
0
  5
99F6
 10
329.255
 20
679.364
 30
0.000000
  70
    32
  0
VERTEX
  8
0
  5
99F7
 10
329.253
 20
679.352
 30
0.000000
  70
    32
  0
VERTEX
  8
0
  5
99F8
 10
329.252
 20
679.339
 30
0.000000
  70
    32
  0
VERTEX
  8
0
  5
99F9
 10
329.250
 20
679.327
 30
0.000000
  70
    32
  0
VERTEX
  8
0
  5
99FA
 10
329.249
 20
679.315
 30
0.000000
  70
    32
  0
VERTEX
  8
0
  5
99FB
 10
329.248
 20
679.303
 30
0.000000
  70
    32
  0
VERTEX
  8
0
  5
99FC
 10
329.247
 20
679.291
 30
0.000000
  70
    32
  0
VERTEX
  8
0
  5
99FD
 10
329.246
 20
679.278
 30
0.000000
  70
    32
  0
VERTEX
  8
0
  5
99FE
 10
329.246
 20
679.266
 30
0.000000
  70
    32
  0
VERTEX
  8
0
  5
99FF
 10
329.245
 20
679.254
 30
0.000000
  70
    32
  0
VERTEX
  8
0
  5
9A00
 10
329.245
 20
679.242
 30
0.000000
  70
    32
  0
VERTEX
  8
0
  5
9A01
 10
329.244
 20
679.229
 30
0.000000
  70
    32
  0
VERTEX
  8
0
  5
9A02
 10
329.244
 20
679.217
 30
0.000000
  70
    32
  0
SEQEND
  8
0
  5
9A03
  0
LINE
  5
92C9
  8
0
 10
416.51950035798012
 20
663.21673369527821
 30
0.0
 11
416.51950035798012
 21
679.21705369527808
 31
0.0
  0
LINE
  5
92CA
  8
0
 10
410.1443743579801
 20
658.71664369527821
 30
0.0
 11
410.1443743579801
 21
648.71644369527814
 31
0.0
  0
POLYLINE
  5
92CB
  8
0
 10
416.01950035798018
 20
659.21665369527807
 30
0.0
 66
     1
 70
     8
  0
VERTEX
  8
0
  5
9A04
 10
416.020
 20
659.217
 30
0.000000
  70
    32
  0
VERTEX
  8
0
  5
9A05
 10
416.026
 20
659.217
 30
0.000000
  70
    32
  0
VERTEX
  8
0
  5
9A06
 10
416.032
 20
659.217
 30
0.000000
  70
    32
  0
VERTEX
  8
0
  5
9A07
 10
416.038
 20
659.217
 30
0.000000
  70
    32
  0
VERTEX
  8
0
  5
9A08
 10
416.044
 20
659.217
 30
0.000000
  70
    32
  0
VERTEX
  8
0
  5
9A09
 10
416.050
 20
659.218
 30
0.000000
  70
    32
  0
VERTEX
  8
0
  5
9A0A
 10
416.056
 20
659.218
 30
0.000000
  70
    32
  0
VERTEX
  8
0
  5
9A0B
 10
416.062
 20
659.218
 30
0.000000
  70
    32
  0
VERTEX
  8
0
  5
9A0C
 10
416.069
 20
659.219
 30
0.000000
  70
    32
  0
VERTEX
  8
0
  5
9A0D
 10
416.075
 20
659.220
 30
0.000000
  70
    32
  0
VERTEX
  8
0
  5
9A0E
 10
416.081
 20
659.220
 30
0.000000
  70
    32
  0
VERTEX
  8
0
  5
9A0F
 10
416.087
 20
659.221
 30
0.000000
  70
    32
  0
VERTEX
  8
0
  5
9A10
 10
416.093
 20
659.222
 30
0.000000
  70
    32
  0
VERTEX
  8
0
  5
9A11
 10
416.099
 20
659.223
 30
0.000000
  70
    32
  0
VERTEX
  8
0
  5
9A12
 10
416.105
 20
659.224
 30
0.000000
  70
    32
  0
VERTEX
  8
0
  5
9A13
 10
416.111
 20
659.225
 30
0.000000
  70
    32
  0
VERTEX
  8
0
  5
9A14
 10
416.117
 20
659.226
 30
0.000000
  70
    32
  0
VERTEX
  8
0
  5
9A15
 10
416.123
 20
659.227
 30
0.000000
  70
    32
  0
VERTEX
  8
0
  5
9A16
 10
416.129
 20
659.229
 30
0.000000
  70
    32
  0
VERTEX
  8
0
  5
9A17
 10
416.135
 20
659.230
 30
0.000000
  70
    32
  0
VERTEX
  8
0
  5
9A18
 10
416.141
 20
659.232
 30
0.000000
  70
    32
  0
VERTEX
  8
0
  5
9A19
 10
416.147
 20
659.233
 30
0.000000
  70
    32
  0
VERTEX
  8
0
  5
9A1A
 10
416.153
 20
659.235
 30
0.000000
  70
    32
  0
VERTEX
  8
0
  5
9A1B
 10
416.159
 20
659.236
 30
0.000000
  70
    32
  0
VERTEX
  8
0
  5
9A1C
 10
416.165
 20
659.238
 30
0.000000
  70
    32
  0
VERTEX
  8
0
  5
9A1D
 10
416.171
 20
659.240
 30
0.000000
  70
    32
  0
VERTEX
  8
0
  5
9A1E
 10
416.176
 20
659.242
 30
0.000000
  70
    32
  0
VERTEX
  8
0
  5
9A1F
 10
416.182
 20
659.244
 30
0.000000
  70
    32
  0
VERTEX
  8
0
  5
9A20
 10
416.188
 20
659.246
 30
0.000000
  70
    32
  0
VERTEX
  8
0
  5
9A21
 10
416.194
 20
659.248
 30
0.000000
  70
    32
  0
VERTEX
  8
0
  5
9A22
 10
416.199
 20
659.250
 30
0.000000
  70
    32
  0
VERTEX
  8
0
  5
9A23
 10
416.205
 20
659.252
 30
0.000000
  70
    32
  0
VERTEX
  8
0
  5
9A24
 10
416.211
 20
659.255
 30
0.000000
  70
    32
  0
VERTEX
  8
0
  5
9A25
 10
416.216
 20
659.257
 30
0.000000
  70
    32
  0
VERTEX
  8
0
  5
9A26
 10
416.222
 20
659.260
 30
0.000000
  70
    32
  0
VERTEX
  8
0
  5
9A27
 10
416.228
 20
659.262
 30
0.000000
  70
    32
  0
VERTEX
  8
0
  5
9A28
 10
416.233
 20
659.265
 30
0.000000
  70
    32
  0
VERTEX
  8
0
  5
9A29
 10
416.239
 20
659.267
 30
0.000000
  70
    32
  0
VERTEX
  8
0
  5
9A2A
 10
416.244
 20
659.270
 30
0.000000
  70
    32
  0
VERTEX
  8
0
  5
9A2B
 10
416.250
 20
659.273
 30
0.000000
  70
    32
  0
VERTEX
  8
0
  5
9A2C
 10
416.255
 20
659.276
 30
0.000000
  70
    32
  0
VERTEX
  8
0
  5
9A2D
 10
416.261
 20
659.279
 30
0.000000
  70
    32
  0
VERTEX
  8
0
  5
9A2E
 10
416.266
 20
659.282
 30
0.000000
  70
    32
  0
VERTEX
  8
0
  5
9A2F
 10
416.271
 20
659.285
 30
0.000000
  70
    32
  0
VERTEX
  8
0
  5
9A30
 10
416.277
 20
659.288
 30
0.000000
  70
    32
  0
VERTEX
  8
0
  5
9A31
 10
416.282
 20
659.291
 30
0.000000
  70
    32
  0
VERTEX
  8
0
  5
9A32
 10
416.287
 20
659.294
 30
0.000000
  70
    32
  0
VERTEX
  8
0
  5
9A33
 10
416.292
 20
659.298
 30
0.000000
  70
    32
  0
VERTEX
  8
0
  5
9A34
 10
416.297
 20
659.301
 30
0.000000
  70
    32
  0
VERTEX
  8
0
  5
9A35
 10
416.302
 20
659.304
 30
0.000000
  70
    32
  0
VERTEX
  8
0
  5
9A36
 10
416.307
 20
659.308
 30
0.000000
  70
    32
  0
VERTEX
  8
0
  5
9A37
 10
416.312
 20
659.311
 30
0.000000
  70
    32
  0
VERTEX
  8
0
  5
9A38
 10
416.317
 20
659.315
 30
0.000000
  70
    32
  0
VERTEX
  8
0
  5
9A39
 10
416.322
 20
659.319
 30
0.000000
  70
    32
  0
VERTEX
  8
0
  5
9A3A
 10
416.327
 20
659.322
 30
0.000000
  70
    32
  0
VERTEX
  8
0
  5
9A3B
 10
416.332
 20
659.326
 30
0.000000
  70
    32
  0
VERTEX
  8
0
  5
9A3C
 10
416.337
 20
659.330
 30
0.000000
  70
    32
  0
VERTEX
  8
0
  5
9A3D
 10
416.341
 20
659.334
 30
0.000000
  70
    32
  0
VERTEX
  8
0
  5
9A3E
 10
416.346
 20
659.338
 30
0.000000
  70
    32
  0
VERTEX
  8
0
  5
9A3F
 10
416.351
 20
659.342
 30
0.000000
  70
    32
  0
VERTEX
  8
0
  5
9A40
 10
416.355
 20
659.346
 30
0.000000
  70
    32
  0
VERTEX
  8
0
  5
9A41
 10
416.360
 20
659.350
 30
0.000000
  70
    32
  0
VERTEX
  8
0
  5
9A42
 10
416.364
 20
659.355
 30
0.000000
  70
    32
  0
VERTEX
  8
0
  5
9A43
 10
416.369
 20
659.359
 30
0.000000
  70
    32
  0
VERTEX
  8
0
  5
9A44
 10
416.373
 20
659.363
 30
0.000000
  70
    32
  0
VERTEX
  8
0
  5
9A45
 10
416.377
 20
659.367
 30
0.000000
  70
    32
  0
VERTEX
  8
0
  5
9A46
 10
416.382
 20
659.372
 30
0.000000
  70
    32
  0
VERTEX
  8
0
  5
9A47
 10
416.386
 20
659.376
 30
0.000000
  70
    32
  0
VERTEX
  8
0
  5
9A48
 10
416.390
 20
659.381
 30
0.000000
  70
    32
  0
VERTEX
  8
0
  5
9A49
 10
416.394
 20
659.385
 30
0.000000
  70
    32
  0
VERTEX
  8
0
  5
9A4A
 10
416.398
 20
659.390
 30
0.000000
  70
    32
  0
VERTEX
  8
0
  5
9A4B
 10
416.402
 20
659.395
 30
0.000000
  70
    32
  0
VERTEX
  8
0
  5
9A4C
 10
416.406
 20
659.399
 30
0.000000
  70
    32
  0
VERTEX
  8
0
  5
9A4D
 10
416.410
 20
659.404
 30
0.000000
  70
    32
  0
VERTEX
  8
0
  5
9A4E
 10
416.414
 20
659.409
 30
0.000000
  70
    32
  0
VERTEX
  8
0
  5
9A4F
 10
416.417
 20
659.414
 30
0.000000
  70
    32
  0
VERTEX
  8
0
  5
9A50
 10
416.421
 20
659.419
 30
0.000000
  70
    32
  0
VERTEX
  8
0
  5
9A51
 10
416.425
 20
659.424
 30
0.000000
  70
    32
  0
VERTEX
  8
0
  5
9A52
 10
416.428
 20
659.429
 30
0.000000
  70
    32
  0
VERTEX
  8
0
  5
9A53
 10
416.432
 20
659.434
 30
0.000000
  70
    32
  0
VERTEX
  8
0
  5
9A54
 10
416.435
 20
659.439
 30
0.000000
  70
    32
  0
VERTEX
  8
0
  5
9A55
 10
416.439
 20
659.444
 30
0.000000
  70
    32
  0
VERTEX
  8
0
  5
9A56
 10
416.442
 20
659.449
 30
0.000000
  70
    32
  0
VERTEX
  8
0
  5
9A57
 10
416.445
 20
659.454
 30
0.000000
  70
    32
  0
VERTEX
  8
0
  5
9A58
 10
416.448
 20
659.460
 30
0.000000
  70
    32
  0
VERTEX
  8
0
  5
9A59
 10
416.451
 20
659.465
 30
0.000000
  70
    32
  0
VERTEX
  8
0
  5
9A5A
 10
416.455
 20
659.470
 30
0.000000
  70
    32
  0
VERTEX
  8
0
  5
9A5B
 10
416.458
 20
659.476
 30
0.000000
  70
    32
  0
VERTEX
  8
0
  5
9A5C
 10
416.460
 20
659.481
 30
0.000000
  70
    32
  0
VERTEX
  8
0
  5
9A5D
 10
416.463
 20
659.486
 30
0.000000
  70
    32
  0
VERTEX
  8
0
  5
9A5E
 10
416.466
 20
659.492
 30
0.000000
  70
    32
  0
VERTEX
  8
0
  5
9A5F
 10
416.469
 20
659.497
 30
0.000000
  70
    32
  0
VERTEX
  8
0
  5
9A60
 10
416.471
 20
659.503
 30
0.000000
  70
    32
  0
VERTEX
  8
0
  5
9A61
 10
416.474
 20
659.508
 30
0.000000
  70
    32
  0
VERTEX
  8
0
  5
9A62
 10
416.477
 20
659.514
 30
0.000000
  70
    32
  0
VERTEX
  8
0
  5
9A63
 10
416.479
 20
659.520
 30
0.000000
  70
    32
  0
VERTEX
  8
0
  5
9A64
 10
416.481
 20
659.525
 30
0.000000
  70
    32
  0
VERTEX
  8
0
  5
9A65
 10
416.484
 20
659.531
 30
0.000000
  70
    32
  0
VERTEX
  8
0
  5
9A66
 10
416.486
 20
659.537
 30
0.000000
  70
    32
  0
VERTEX
  8
0
  5
9A67
 10
416.488
 20
659.542
 30
0.000000
  70
    32
  0
VERTEX
  8
0
  5
9A68
 10
416.490
 20
659.548
 30
0.000000
  70
    32
  0
VERTEX
  8
0
  5
9A69
 10
416.492
 20
659.554
 30
0.000000
  70
    32
  0
VERTEX
  8
0
  5
9A6A
 10
416.494
 20
659.560
 30
0.000000
  70
    32
  0
VERTEX
  8
0
  5
9A6B
 10
416.496
 20
659.566
 30
0.000000
  70
    32
  0
VERTEX
  8
0
  5
9A6C
 10
416.498
 20
659.572
 30
0.000000
  70
    32
  0
VERTEX
  8
0
  5
9A6D
 10
416.500
 20
659.577
 30
0.000000
  70
    32
  0
VERTEX
  8
0
  5
9A6E
 10
416.501
 20
659.583
 30
0.000000
  70
    32
  0
VERTEX
  8
0
  5
9A6F
 10
416.503
 20
659.589
 30
0.000000
  70
    32
  0
VERTEX
  8
0
  5
9A70
 10
416.505
 20
659.595
 30
0.000000
  70
    32
  0
VERTEX
  8
0
  5
9A71
 10
416.506
 20
659.601
 30
0.000000
  70
    32
  0
VERTEX
  8
0
  5
9A72
 10
416.507
 20
659.607
 30
0.000000
  70
    32
  0
VERTEX
  8
0
  5
9A73
 10
416.509
 20
659.613
 30
0.000000
  70
    32
  0
VERTEX
  8
0
  5
9A74
 10
416.510
 20
659.619
 30
0.000000
  70
    32
  0
VERTEX
  8
0
  5
9A75
 10
416.511
 20
659.625
 30
0.000000
  70
    32
  0
VERTEX
  8
0
  5
9A76
 10
416.512
 20
659.631
 30
0.000000
  70
    32
  0
VERTEX
  8
0
  5
9A77
 10
416.513
 20
659.637
 30
0.000000
  70
    32
  0
VERTEX
  8
0
  5
9A78
 10
416.514
 20
659.643
 30
0.000000
  70
    32
  0
VERTEX
  8
0
  5
9A79
 10
416.515
 20
659.649
 30
0.000000
  70
    32
  0
VERTEX
  8
0
  5
9A7A
 10
416.516
 20
659.655
 30
0.000000
  70
    32
  0
VERTEX
  8
0
  5
9A7B
 10
416.516
 20
659.662
 30
0.000000
  70
    32
  0
VERTEX
  8
0
  5
9A7C
 10
416.517
 20
659.668
 30
0.000000
  70
    32
  0
VERTEX
  8
0
  5
9A7D
 10
416.518
 20
659.674
 30
0.000000
  70
    32
  0
VERTEX
  8
0
  5
9A7E
 10
416.518
 20
659.680
 30
0.000000
  70
    32
  0
VERTEX
  8
0
  5
9A7F
 10
416.519
 20
659.686
 30
0.000000
  70
    32
  0
VERTEX
  8
0
  5
9A80
 10
416.519
 20
659.692
 30
0.000000
  70
    32
  0
VERTEX
  8
0
  5
9A81
 10
416.519
 20
659.698
 30
0.000000
  70
    32
  0
VERTEX
  8
0
  5
9A82
 10
416.519
 20
659.704
 30
0.000000
  70
    32
  0
VERTEX
  8
0
  5
9A83
 10
416.519
 20
659.711
 30
0.000000
  70
    32
  0
VERTEX
  8
0
  5
9A84
 10
416.520
 20
659.717
 30
0.000000
  70
    32
  0
SEQEND
  8
0
  5
9A85
  0
POLYLINE
  5
92CC
  8
0
 10
410.64437435797998
 20
659.21665369527841
 30
0.0
 66
     1
 70
     8
  0
VERTEX
  8
0
  5
9A86
 10
410.644
 20
659.217
 30
0.000000
  70
    32
  0
VERTEX
  8
0
  5
9A87
 10
410.638
 20
659.217
 30
0.000000
  70
    32
  0
VERTEX
  8
0
  5
9A88
 10
410.632
 20
659.217
 30
0.000000
  70
    32
  0
VERTEX
  8
0
  5
9A89
 10
410.626
 20
659.216
 30
0.000000
  70
    32
  0
VERTEX
  8
0
  5
9A8A
 10
410.620
 20
659.216
 30
0.000000
  70
    32
  0
VERTEX
  8
0
  5
9A8B
 10
410.614
 20
659.216
 30
0.000000
  70
    32
  0
VERTEX
  8
0
  5
9A8C
 10
410.608
 20
659.215
 30
0.000000
  70
    32
  0
VERTEX
  8
0
  5
9A8D
 10
410.601
 20
659.215
 30
0.000000
  70
    32
  0
VERTEX
  8
0
  5
9A8E
 10
410.595
 20
659.214
 30
0.000000
  70
    32
  0
VERTEX
  8
0
  5
9A8F
 10
410.589
 20
659.214
 30
0.000000
  70
    32
  0
VERTEX
  8
0
  5
9A90
 10
410.583
 20
659.213
 30
0.000000
  70
    32
  0
VERTEX
  8
0
  5
9A91
 10
410.577
 20
659.212
 30
0.000000
  70
    32
  0
VERTEX
  8
0
  5
9A92
 10
410.571
 20
659.211
 30
0.000000
  70
    32
  0
VERTEX
  8
0
  5
9A93
 10
410.565
 20
659.210
 30
0.000000
  70
    32
  0
VERTEX
  8
0
  5
9A94
 10
410.559
 20
659.209
 30
0.000000
  70
    32
  0
VERTEX
  8
0
  5
9A95
 10
410.553
 20
659.208
 30
0.000000
  70
    32
  0
VERTEX
  8
0
  5
9A96
 10
410.547
 20
659.207
 30
0.000000
  70
    32
  0
VERTEX
  8
0
  5
9A97
 10
410.541
 20
659.206
 30
0.000000
  70
    32
  0
VERTEX
  8
0
  5
9A98
 10
410.535
 20
659.205
 30
0.000000
  70
    32
  0
VERTEX
  8
0
  5
9A99
 10
410.529
 20
659.203
 30
0.000000
  70
    32
  0
VERTEX
  8
0
  5
9A9A
 10
410.523
 20
659.202
 30
0.000000
  70
    32
  0
VERTEX
  8
0
  5
9A9B
 10
410.517
 20
659.200
 30
0.000000
  70
    32
  0
VERTEX
  8
0
  5
9A9C
 10
410.511
 20
659.199
 30
0.000000
  70
    32
  0
VERTEX
  8
0
  5
9A9D
 10
410.505
 20
659.197
 30
0.000000
  70
    32
  0
VERTEX
  8
0
  5
9A9E
 10
410.499
 20
659.195
 30
0.000000
  70
    32
  0
VERTEX
  8
0
  5
9A9F
 10
410.493
 20
659.193
 30
0.000000
  70
    32
  0
VERTEX
  8
0
  5
9AA0
 10
410.488
 20
659.191
 30
0.000000
  70
    32
  0
VERTEX
  8
0
  5
9AA1
 10
410.482
 20
659.189
 30
0.000000
  70
    32
  0
VERTEX
  8
0
  5
9AA2
 10
410.476
 20
659.187
 30
0.000000
  70
    32
  0
VERTEX
  8
0
  5
9AA3
 10
410.470
 20
659.185
 30
0.000000
  70
    32
  0
VERTEX
  8
0
  5
9AA4
 10
410.464
 20
659.183
 30
0.000000
  70
    32
  0
VERTEX
  8
0
  5
9AA5
 10
410.459
 20
659.181
 30
0.000000
  70
    32
  0
VERTEX
  8
0
  5
9AA6
 10
410.453
 20
659.179
 30
0.000000
  70
    32
  0
VERTEX
  8
0
  5
9AA7
 10
410.447
 20
659.176
 30
0.000000
  70
    32
  0
VERTEX
  8
0
  5
9AA8
 10
410.442
 20
659.174
 30
0.000000
  70
    32
  0
VERTEX
  8
0
  5
9AA9
 10
410.436
 20
659.171
 30
0.000000
  70
    32
  0
VERTEX
  8
0
  5
9AAA
 10
410.431
 20
659.169
 30
0.000000
  70
    32
  0
VERTEX
  8
0
  5
9AAB
 10
410.425
 20
659.166
 30
0.000000
  70
    32
  0
VERTEX
  8
0
  5
9AAC
 10
410.420
 20
659.163
 30
0.000000
  70
    32
  0
VERTEX
  8
0
  5
9AAD
 10
410.414
 20
659.160
 30
0.000000
  70
    32
  0
VERTEX
  8
0
  5
9AAE
 10
410.409
 20
659.158
 30
0.000000
  70
    32
  0
VERTEX
  8
0
  5
9AAF
 10
410.403
 20
659.155
 30
0.000000
  70
    32
  0
VERTEX
  8
0
  5
9AB0
 10
410.398
 20
659.152
 30
0.000000
  70
    32
  0
VERTEX
  8
0
  5
9AB1
 10
410.393
 20
659.149
 30
0.000000
  70
    32
  0
VERTEX
  8
0
  5
9AB2
 10
410.387
 20
659.146
 30
0.000000
  70
    32
  0
VERTEX
  8
0
  5
9AB3
 10
410.382
 20
659.142
 30
0.000000
  70
    32
  0
VERTEX
  8
0
  5
9AB4
 10
410.377
 20
659.139
 30
0.000000
  70
    32
  0
VERTEX
  8
0
  5
9AB5
 10
410.372
 20
659.136
 30
0.000000
  70
    32
  0
VERTEX
  8
0
  5
9AB6
 10
410.367
 20
659.132
 30
0.000000
  70
    32
  0
VERTEX
  8
0
  5
9AB7
 10
410.362
 20
659.129
 30
0.000000
  70
    32
  0
VERTEX
  8
0
  5
9AB8
 10
410.356
 20
659.125
 30
0.000000
  70
    32
  0
VERTEX
  8
0
  5
9AB9
 10
410.351
 20
659.122
 30
0.000000
  70
    32
  0
VERTEX
  8
0
  5
9ABA
 10
410.347
 20
659.118
 30
0.000000
  70
    32
  0
VERTEX
  8
0
  5
9ABB
 10
410.342
 20
659.115
 30
0.000000
  70
    32
  0
VERTEX
  8
0
  5
9ABC
 10
410.337
 20
659.111
 30
0.000000
  70
    32
  0
VERTEX
  8
0
  5
9ABD
 10
410.332
 20
659.107
 30
0.000000
  70
    32
  0
VERTEX
  8
0
  5
9ABE
 10
410.327
 20
659.103
 30
0.000000
  70
    32
  0
VERTEX
  8
0
  5
9ABF
 10
410.322
 20
659.099
 30
0.000000
  70
    32
  0
VERTEX
  8
0
  5
9AC0
 10
410.318
 20
659.095
 30
0.000000
  70
    32
  0
VERTEX
  8
0
  5
9AC1
 10
410.313
 20
659.091
 30
0.000000
  70
    32
  0
VERTEX
  8
0
  5
9AC2
 10
410.309
 20
659.087
 30
0.000000
  70
    32
  0
VERTEX
  8
0
  5
9AC3
 10
410.304
 20
659.083
 30
0.000000
  70
    32
  0
VERTEX
  8
0
  5
9AC4
 10
410.300
 20
659.079
 30
0.000000
  70
    32
  0
VERTEX
  8
0
  5
9AC5
 10
410.295
 20
659.075
 30
0.000000
  70
    32
  0
VERTEX
  8
0
  5
9AC6
 10
410.291
 20
659.070
 30
0.000000
  70
    32
  0
VERTEX
  8
0
  5
9AC7
 10
410.287
 20
659.066
 30
0.000000
  70
    32
  0
VERTEX
  8
0
  5
9AC8
 10
410.282
 20
659.061
 30
0.000000
  70
    32
  0
VERTEX
  8
0
  5
9AC9
 10
410.278
 20
659.057
 30
0.000000
  70
    32
  0
VERTEX
  8
0
  5
9ACA
 10
410.274
 20
659.052
 30
0.000000
  70
    32
  0
VERTEX
  8
0
  5
9ACB
 10
410.270
 20
659.048
 30
0.000000
  70
    32
  0
VERTEX
  8
0
  5
9ACC
 10
410.266
 20
659.043
 30
0.000000
  70
    32
  0
VERTEX
  8
0
  5
9ACD
 10
410.262
 20
659.039
 30
0.000000
  70
    32
  0
VERTEX
  8
0
  5
9ACE
 10
410.258
 20
659.034
 30
0.000000
  70
    32
  0
VERTEX
  8
0
  5
9ACF
 10
410.254
 20
659.029
 30
0.000000
  70
    32
  0
VERTEX
  8
0
  5
9AD0
 10
410.250
 20
659.024
 30
0.000000
  70
    32
  0
VERTEX
  8
0
  5
9AD1
 10
410.246
 20
659.019
 30
0.000000
  70
    32
  0
VERTEX
  8
0
  5
9AD2
 10
410.243
 20
659.014
 30
0.000000
  70
    32
  0
VERTEX
  8
0
  5
9AD3
 10
410.239
 20
659.010
 30
0.000000
  70
    32
  0
VERTEX
  8
0
  5
9AD4
 10
410.236
 20
659.005
 30
0.000000
  70
    32
  0
VERTEX
  8
0
  5
9AD5
 10
410.232
 20
659.000
 30
0.000000
  70
    32
  0
VERTEX
  8
0
  5
9AD6
 10
410.229
 20
658.994
 30
0.000000
  70
    32
  0
VERTEX
  8
0
  5
9AD7
 10
410.225
 20
658.989
 30
0.000000
  70
    32
  0
VERTEX
  8
0
  5
9AD8
 10
410.222
 20
658.984
 30
0.000000
  70
    32
  0
VERTEX
  8
0
  5
9AD9
 10
410.219
 20
658.979
 30
0.000000
  70
    32
  0
VERTEX
  8
0
  5
9ADA
 10
410.216
 20
658.974
 30
0.000000
  70
    32
  0
VERTEX
  8
0
  5
9ADB
 10
410.212
 20
658.968
 30
0.000000
  70
    32
  0
VERTEX
  8
0
  5
9ADC
 10
410.209
 20
658.963
 30
0.000000
  70
    32
  0
VERTEX
  8
0
  5
9ADD
 10
410.206
 20
658.958
 30
0.000000
  70
    32
  0
VERTEX
  8
0
  5
9ADE
 10
410.203
 20
658.952
 30
0.000000
  70
    32
  0
VERTEX
  8
0
  5
9ADF
 10
410.201
 20
658.947
 30
0.000000
  70
    32
  0
VERTEX
  8
0
  5
9AE0
 10
410.198
 20
658.941
 30
0.000000
  70
    32
  0
VERTEX
  8
0
  5
9AE1
 10
410.195
 20
658.936
 30
0.000000
  70
    32
  0
VERTEX
  8
0
  5
9AE2
 10
410.192
 20
658.930
 30
0.000000
  70
    32
  0
VERTEX
  8
0
  5
9AE3
 10
410.190
 20
658.925
 30
0.000000
  70
    32
  0
VERTEX
  8
0
  5
9AE4
 10
410.187
 20
658.919
 30
0.000000
  70
    32
  0
VERTEX
  8
0
  5
9AE5
 10
410.185
 20
658.914
 30
0.000000
  70
    32
  0
VERTEX
  8
0
  5
9AE6
 10
410.182
 20
658.908
 30
0.000000
  70
    32
  0
VERTEX
  8
0
  5
9AE7
 10
410.180
 20
658.902
 30
0.000000
  70
    32
  0
VERTEX
  8
0
  5
9AE8
 10
410.178
 20
658.897
 30
0.000000
  70
    32
  0
VERTEX
  8
0
  5
9AE9
 10
410.176
 20
658.891
 30
0.000000
  70
    32
  0
VERTEX
  8
0
  5
9AEA
 10
410.174
 20
658.885
 30
0.000000
  70
    32
  0
VERTEX
  8
0
  5
9AEB
 10
410.172
 20
658.879
 30
0.000000
  70
    32
  0
VERTEX
  8
0
  5
9AEC
 10
410.170
 20
658.873
 30
0.000000
  70
    32
  0
VERTEX
  8
0
  5
9AED
 10
410.168
 20
658.868
 30
0.000000
  70
    32
  0
VERTEX
  8
0
  5
9AEE
 10
410.166
 20
658.862
 30
0.000000
  70
    32
  0
VERTEX
  8
0
  5
9AEF
 10
410.164
 20
658.856
 30
0.000000
  70
    32
  0
VERTEX
  8
0
  5
9AF0
 10
410.162
 20
658.850
 30
0.000000
  70
    32
  0
VERTEX
  8
0
  5
9AF1
 10
410.161
 20
658.844
 30
0.000000
  70
    32
  0
VERTEX
  8
0
  5
9AF2
 10
410.159
 20
658.838
 30
0.000000
  70
    32
  0
VERTEX
  8
0
  5
9AF3
 10
410.158
 20
658.832
 30
0.000000
  70
    32
  0
VERTEX
  8
0
  5
9AF4
 10
410.157
 20
658.826
 30
0.000000
  70
    32
  0
VERTEX
  8
0
  5
9AF5
 10
410.155
 20
658.820
 30
0.000000
  70
    32
  0
VERTEX
  8
0
  5
9AF6
 10
410.154
 20
658.814
 30
0.000000
  70
    32
  0
VERTEX
  8
0
  5
9AF7
 10
410.153
 20
658.808
 30
0.000000
  70
    32
  0
VERTEX
  8
0
  5
9AF8
 10
410.152
 20
658.802
 30
0.000000
  70
    32
  0
VERTEX
  8
0
  5
9AF9
 10
410.151
 20
658.796
 30
0.000000
  70
    32
  0
VERTEX
  8
0
  5
9AFA
 10
410.150
 20
658.790
 30
0.000000
  70
    32
  0
VERTEX
  8
0
  5
9AFB
 10
410.149
 20
658.784
 30
0.000000
  70
    32
  0
VERTEX
  8
0
  5
9AFC
 10
410.148
 20
658.778
 30
0.000000
  70
    32
  0
VERTEX
  8
0
  5
9AFD
 10
410.147
 20
658.772
 30
0.000000
  70
    32
  0
VERTEX
  8
0
  5
9AFE
 10
410.147
 20
658.766
 30
0.000000
  70
    32
  0
VERTEX
  8
0
  5
9AFF
 10
410.146
 20
658.760
 30
0.000000
  70
    32
  0
VERTEX
  8
0
  5
9B00
 10
410.146
 20
658.753
 30
0.000000
  70
    32
  0
VERTEX
  8
0
  5
9B01
 10
410.145
 20
658.747
 30
0.000000
  70
    32
  0
VERTEX
  8
0
  5
9B02
 10
410.145
 20
658.741
 30
0.000000
  70
    32
  0
VERTEX
  8
0
  5
9B03
 10
410.145
 20
658.735
 30
0.000000
  70
    32
  0
VERTEX
  8
0
  5
9B04
 10
410.145
 20
658.729
 30
0.000000
  70
    32
  0
VERTEX
  8
0
  5
9B05
 10
410.144
 20
658.723
 30
0.000000
  70
    32
  0
VERTEX
  8
0
  5
9B06
 10
410.144
 20
658.717
 30
0.000000
  70
    32
  0
SEQEND
  8
0
  5
9B07
  0
LINE
  5
92CD
  8
0
 10
410.64437435797998
 20
659.21665369527796
 30
0.0
 11
416.01950035798018
 21
659.21665369527796
 31
0.0
  0
LINE
  5
92CE
  8
0
 10
416.51950035798012
 20
663.21673369527821
 30
0.0
 11
416.51950035798012
 21
659.71666369527804
 31
0.0
  0
POLYLINE
  5
92CF
  8
0
 10
416.51950035758011
 20
679.21705369527808
 30
0.0
 66
     1
 70
     8
  0
VERTEX
  8
0
  5
9B08
 10
416.520
 20
679.217
 30
0.000000
  70
    32
  0
VERTEX
  8
0
  5
9B09
 10
416.519
 20
679.229
 30
0.000000
  70
    32
  0
VERTEX
  8
0
  5
9B0A
 10
416.519
 20
679.242
 30
0.000000
  70
    32
  0
VERTEX
  8
0
  5
9B0B
 10
416.519
 20
679.254
 30
0.000000
  70
    32
  0
VERTEX
  8
0
  5
9B0C
 10
416.518
 20
679.266
 30
0.000000
  70
    32
  0
VERTEX
  8
0
  5
9B0D
 10
416.518
 20
679.278
 30
0.000000
  70
    32
  0
VERTEX
  8
0
  5
9B0E
 10
416.517
 20
679.291
 30
0.000000
  70
    32
  0
VERTEX
  8
0
  5
9B0F
 10
416.516
 20
679.303
 30
0.000000
  70
    32
  0
VERTEX
  8
0
  5
9B10
 10
416.515
 20
679.315
 30
0.000000
  70
    32
  0
VERTEX
  8
0
  5
9B11
 10
416.513
 20
679.327
 30
0.000000
  70
    32
  0
VERTEX
  8
0
  5
9B12
 10
416.512
 20
679.339
 30
0.000000
  70
    32
  0
VERTEX
  8
0
  5
9B13
 10
416.510
 20
679.352
 30
0.000000
  70
    32
  0
VERTEX
  8
0
  5
9B14
 10
416.509
 20
679.364
 30
0.000000
  70
    32
  0
VERTEX
  8
0
  5
9B15
 10
416.507
 20
679.376
 30
0.000000
  70
    32
  0
VERTEX
  8
0
  5
9B16
 10
416.505
 20
679.388
 30
0.000000
  70
    32
  0
VERTEX
  8
0
  5
9B17
 10
416.503
 20
679.400
 30
0.000000
  70
    32
  0
VERTEX
  8
0
  5
9B18
 10
416.500
 20
679.412
 30
0.000000
  70
    32
  0
VERTEX
  8
0
  5
9B19
 10
416.498
 20
679.424
 30
0.000000
  70
    32
  0
VERTEX
  8
0
  5
9B1A
 10
416.495
 20
679.436
 30
0.000000
  70
    32
  0
VERTEX
  8
0
  5
9B1B
 10
416.492
 20
679.448
 30
0.000000
  70
    32
  0
VERTEX
  8
0
  5
9B1C
 10
416.490
 20
679.460
 30
0.000000
  70
    32
  0
VERTEX
  8
0
  5
9B1D
 10
416.486
 20
679.472
 30
0.000000
  70
    32
  0
VERTEX
  8
0
  5
9B1E
 10
416.483
 20
679.484
 30
0.000000
  70
    32
  0
VERTEX
  8
0
  5
9B1F
 10
416.480
 20
679.496
 30
0.000000
  70
    32
  0
VERTEX
  8
0
  5
9B20
 10
416.476
 20
679.507
 30
0.000000
  70
    32
  0
VERTEX
  8
0
  5
9B21
 10
416.473
 20
679.519
 30
0.000000
  70
    32
  0
VERTEX
  8
0
  5
9B22
 10
416.469
 20
679.531
 30
0.000000
  70
    32
  0
VERTEX
  8
0
  5
9B23
 10
416.465
 20
679.542
 30
0.000000
  70
    32
  0
VERTEX
  8
0
  5
9B24
 10
416.461
 20
679.554
 30
0.000000
  70
    32
  0
VERTEX
  8
0
  5
9B25
 10
416.457
 20
679.565
 30
0.000000
  70
    32
  0
VERTEX
  8
0
  5
9B26
 10
416.452
 20
679.577
 30
0.000000
  70
    32
  0
VERTEX
  8
0
  5
9B27
 10
416.448
 20
679.588
 30
0.000000
  70
    32
  0
VERTEX
  8
0
  5
9B28
 10
416.443
 20
679.600
 30
0.000000
  70
    32
  0
VERTEX
  8
0
  5
9B29
 10
416.439
 20
679.611
 30
0.000000
  70
    32
  0
VERTEX
  8
0
  5
9B2A
 10
416.434
 20
679.622
 30
0.000000
  70
    32
  0
VERTEX
  8
0
  5
9B2B
 10
416.429
 20
679.633
 30
0.000000
  70
    32
  0
VERTEX
  8
0
  5
9B2C
 10
416.423
 20
679.645
 30
0.000000
  70
    32
  0
VERTEX
  8
0
  5
9B2D
 10
416.418
 20
679.656
 30
0.000000
  70
    32
  0
VERTEX
  8
0
  5
9B2E
 10
416.413
 20
679.667
 30
0.000000
  70
    32
  0
VERTEX
  8
0
  5
9B2F
 10
416.407
 20
679.678
 30
0.000000
  70
    32
  0
VERTEX
  8
0
  5
9B30
 10
416.401
 20
679.688
 30
0.000000
  70
    32
  0
VERTEX
  8
0
  5
9B31
 10
416.396
 20
679.699
 30
0.000000
  70
    32
  0
VERTEX
  8
0
  5
9B32
 10
416.390
 20
679.710
 30
0.000000
  70
    32
  0
VERTEX
  8
0
  5
9B33
 10
416.383
 20
679.721
 30
0.000000
  70
    32
  0
VERTEX
  8
0
  5
9B34
 10
416.377
 20
679.731
 30
0.000000
  70
    32
  0
VERTEX
  8
0
  5
9B35
 10
416.371
 20
679.742
 30
0.000000
  70
    32
  0
VERTEX
  8
0
  5
9B36
 10
416.364
 20
679.752
 30
0.000000
  70
    32
  0
VERTEX
  8
0
  5
9B37
 10
416.358
 20
679.762
 30
0.000000
  70
    32
  0
VERTEX
  8
0
  5
9B38
 10
416.351
 20
679.773
 30
0.000000
  70
    32
  0
VERTEX
  8
0
  5
9B39
 10
416.344
 20
679.783
 30
0.000000
  70
    32
  0
VERTEX
  8
0
  5
9B3A
 10
416.337
 20
679.793
 30
0.000000
  70
    32
  0
VERTEX
  8
0
  5
9B3B
 10
416.330
 20
679.803
 30
0.000000
  70
    32
  0
VERTEX
  8
0
  5
9B3C
 10
416.323
 20
679.813
 30
0.000000
  70
    32
  0
VERTEX
  8
0
  5
9B3D
 10
416.315
 20
679.823
 30
0.000000
  70
    32
  0
VERTEX
  8
0
  5
9B3E
 10
416.308
 20
679.832
 30
0.000000
  70
    32
  0
VERTEX
  8
0
  5
9B3F
 10
416.300
 20
679.842
 30
0.000000
  70
    32
  0
VERTEX
  8
0
  5
9B40
 10
416.293
 20
679.851
 30
0.000000
  70
    32
  0
VERTEX
  8
0
  5
9B41
 10
416.285
 20
679.861
 30
0.000000
  70
    32
  0
VERTEX
  8
0
  5
9B42
 10
416.277
 20
679.870
 30
0.000000
  70
    32
  0
VERTEX
  8
0
  5
9B43
 10
416.269
 20
679.879
 30
0.000000
  70
    32
  0
VERTEX
  8
0
  5
9B44
 10
416.260
 20
679.889
 30
0.000000
  70
    32
  0
VERTEX
  8
0
  5
9B45
 10
416.252
 20
679.898
 30
0.000000
  70
    32
  0
VERTEX
  8
0
  5
9B46
 10
416.244
 20
679.907
 30
0.000000
  70
    32
  0
VERTEX
  8
0
  5
9B47
 10
416.235
 20
679.915
 30
0.000000
  70
    32
  0
VERTEX
  8
0
  5
9B48
 10
416.227
 20
679.924
 30
0.000000
  70
    32
  0
VERTEX
  8
0
  5
9B49
 10
416.218
 20
679.933
 30
0.000000
  70
    32
  0
VERTEX
  8
0
  5
9B4A
 10
416.209
 20
679.941
 30
0.000000
  70
    32
  0
VERTEX
  8
0
  5
9B4B
 10
416.200
 20
679.950
 30
0.000000
  70
    32
  0
VERTEX
  8
0
  5
9B4C
 10
416.191
 20
679.958
 30
0.000000
  70
    32
  0
VERTEX
  8
0
  5
9B4D
 10
416.182
 20
679.966
 30
0.000000
  70
    32
  0
VERTEX
  8
0
  5
9B4E
 10
416.173
 20
679.974
 30
0.000000
  70
    32
  0
VERTEX
  8
0
  5
9B4F
 10
416.163
 20
679.982
 30
0.000000
  70
    32
  0
VERTEX
  8
0
  5
9B50
 10
416.154
 20
679.990
 30
0.000000
  70
    32
  0
VERTEX
  8
0
  5
9B51
 10
416.144
 20
679.998
 30
0.000000
  70
    32
  0
VERTEX
  8
0
  5
9B52
 10
416.135
 20
680.005
 30
0.000000
  70
    32
  0
VERTEX
  8
0
  5
9B53
 10
416.125
 20
680.013
 30
0.000000
  70
    32
  0
VERTEX
  8
0
  5
9B54
 10
416.115
 20
680.020
 30
0.000000
  70
    32
  0
VERTEX
  8
0
  5
9B55
 10
416.105
 20
680.028
 30
0.000000
  70
    32
  0
VERTEX
  8
0
  5
9B56
 10
416.095
 20
680.035
 30
0.000000
  70
    32
  0
VERTEX
  8
0
  5
9B57
 10
416.085
 20
680.042
 30
0.000000
  70
    32
  0
VERTEX
  8
0
  5
9B58
 10
416.075
 20
680.049
 30
0.000000
  70
    32
  0
VERTEX
  8
0
  5
9B59
 10
416.065
 20
680.055
 30
0.000000
  70
    32
  0
VERTEX
  8
0
  5
9B5A
 10
416.054
 20
680.062
 30
0.000000
  70
    32
  0
VERTEX
  8
0
  5
9B5B
 10
416.044
 20
680.068
 30
0.000000
  70
    32
  0
VERTEX
  8
0
  5
9B5C
 10
416.034
 20
680.075
 30
0.000000
  70
    32
  0
VERTEX
  8
0
  5
9B5D
 10
416.023
 20
680.081
 30
0.000000
  70
    32
  0
VERTEX
  8
0
  5
9B5E
 10
416.012
 20
680.087
 30
0.000000
  70
    32
  0
VERTEX
  8
0
  5
9B5F
 10
416.002
 20
680.093
 30
0.000000
  70
    32
  0
VERTEX
  8
0
  5
9B60
 10
415.991
 20
680.099
 30
0.000000
  70
    32
  0
VERTEX
  8
0
  5
9B61
 10
415.980
 20
680.105
 30
0.000000
  70
    32
  0
VERTEX
  8
0
  5
9B62
 10
415.969
 20
680.110
 30
0.000000
  70
    32
  0
VERTEX
  8
0
  5
9B63
 10
415.958
 20
680.116
 30
0.000000
  70
    32
  0
VERTEX
  8
0
  5
9B64
 10
415.947
 20
680.121
 30
0.000000
  70
    32
  0
VERTEX
  8
0
  5
9B65
 10
415.936
 20
680.126
 30
0.000000
  70
    32
  0
VERTEX
  8
0
  5
9B66
 10
415.925
 20
680.131
 30
0.000000
  70
    32
  0
VERTEX
  8
0
  5
9B67
 10
415.913
 20
680.136
 30
0.000000
  70
    32
  0
VERTEX
  8
0
  5
9B68
 10
415.902
 20
680.141
 30
0.000000
  70
    32
  0
VERTEX
  8
0
  5
9B69
 10
415.891
 20
680.146
 30
0.000000
  70
    32
  0
VERTEX
  8
0
  5
9B6A
 10
415.879
 20
680.150
 30
0.000000
  70
    32
  0
VERTEX
  8
0
  5
9B6B
 10
415.868
 20
680.154
 30
0.000000
  70
    32
  0
VERTEX
  8
0
  5
9B6C
 10
415.856
 20
680.159
 30
0.000000
  70
    32
  0
VERTEX
  8
0
  5
9B6D
 10
415.845
 20
680.163
 30
0.000000
  70
    32
  0
VERTEX
  8
0
  5
9B6E
 10
415.833
 20
680.167
 30
0.000000
  70
    32
  0
VERTEX
  8
0
  5
9B6F
 10
415.822
 20
680.170
 30
0.000000
  70
    32
  0
VERTEX
  8
0
  5
9B70
 10
415.810
 20
680.174
 30
0.000000
  70
    32
  0
VERTEX
  8
0
  5
9B71
 10
415.798
 20
680.178
 30
0.000000
  70
    32
  0
VERTEX
  8
0
  5
9B72
 10
415.786
 20
680.181
 30
0.000000
  70
    32
  0
VERTEX
  8
0
  5
9B73
 10
415.774
 20
680.184
 30
0.000000
  70
    32
  0
VERTEX
  8
0
  5
9B74
 10
415.762
 20
680.187
 30
0.000000
  70
    32
  0
VERTEX
  8
0
  5
9B75
 10
415.751
 20
680.190
 30
0.000000
  70
    32
  0
VERTEX
  8
0
  5
9B76
 10
415.739
 20
680.193
 30
0.000000
  70
    32
  0
VERTEX
  8
0
  5
9B77
 10
415.727
 20
680.195
 30
0.000000
  70
    32
  0
VERTEX
  8
0
  5
9B78
 10
415.715
 20
680.198
 30
0.000000
  70
    32
  0
VERTEX
  8
0
  5
9B79
 10
415.703
 20
680.200
 30
0.000000
  70
    32
  0
VERTEX
  8
0
  5
9B7A
 10
415.690
 20
680.202
 30
0.000000
  70
    32
  0
VERTEX
  8
0
  5
9B7B
 10
415.678
 20
680.204
 30
0.000000
  70
    32
  0
VERTEX
  8
0
  5
9B7C
 10
415.666
 20
680.206
 30
0.000000
  70
    32
  0
VERTEX
  8
0
  5
9B7D
 10
415.654
 20
680.208
 30
0.000000
  70
    32
  0
VERTEX
  8
0
  5
9B7E
 10
415.642
 20
680.210
 30
0.000000
  70
    32
  0
VERTEX
  8
0
  5
9B7F
 10
415.630
 20
680.211
 30
0.000000
  70
    32
  0
VERTEX
  8
0
  5
9B80
 10
415.618
 20
680.212
 30
0.000000
  70
    32
  0
VERTEX
  8
0
  5
9B81
 10
415.605
 20
680.213
 30
0.000000
  70
    32
  0
VERTEX
  8
0
  5
9B82
 10
415.593
 20
680.214
 30
0.000000
  70
    32
  0
VERTEX
  8
0
  5
9B83
 10
415.581
 20
680.215
 30
0.000000
  70
    32
  0
VERTEX
  8
0
  5
9B84
 10
415.569
 20
680.216
 30
0.000000
  70
    32
  0
VERTEX
  8
0
  5
9B85
 10
415.556
 20
680.216
 30
0.000000
  70
    32
  0
VERTEX
  8
0
  5
9B86
 10
415.544
 20
680.217
 30
0.000000
  70
    32
  0
VERTEX
  8
0
  5
9B87
 10
415.532
 20
680.217
 30
0.000000
  70
    32
  0
VERTEX
  8
0
  5
9B88
 10
415.520
 20
680.217
 30
0.000000
  70
    32
  0
SEQEND
  8
0
  5
9B89
  0
LINE
  5
92D0
  8
0
 10
334.24437435798018
 20
667.71682369527798
 30
0.0
 11
324.24437435798018
 21
667.71682369527798
 31
0.0
  0
LINE
  5
92D1
  8
0
 10
412.01950035798018
 20
680.21707369527815
 30
0.0
 11
412.01950035798018
 21
682.71712369527813
 31
0.0
  0
LINE
  5
92D2
  8
0
 10
345.01950035798018
 20
680.21707369527815
 30
0.0
 11
345.01950035798018
 21
682.71712369527813
 31
0.0
  0
LINE
  5
92D3
  8
0
 10
281.51950035798018
 20
890.71712369527802
 30
0.0
 11
281.51950035798018
 21
884.71712369527825
 31
0.0
  0
LINE
  5
92D4
  8
0
 10
257.01950035798018
 20
891.71712369527802
 30
0.0
 11
257.01950035798018
 21
881.71712369527813
 31
0.0
  0
LINE
  5
92D5
  8
0
 10
268.01950035798018
 20
891.71712369527802
 30
0.0
 11
268.01950035798018
 21
881.71712369527813
 31
0.0
  0
LINE
  5
92D6
  8
0
 10
268.01950035798018
 20
890.71712369527802
 30
0.0
 11
281.51950035798018
 21
890.71712369527802
 31
0.0
  0
LINE
  5
92D7
  8
0
 10
257.01950035798018
 20
891.71712369527802
 30
0.0
 11
268.01950035798018
 21
891.71712369527802
 31
0.0
  0
LINE
  5
92D8
  8
0
 10
179.4195263579802
 20
684.71708269527812
 30
0.0
 11
257.01949635798019
 21
684.71707969527813
 31
0.0
  0
LINE
  5
92D9
  8
0
 10
179.4195263579802
 20
678.71708269527812
 30
0.0
 11
257.01949635798019
 21
678.71707969527813
 31
0.0
  0
LINE
  5
92DA
  8
0
 10
257.01949635798019
 20
677.71707969527813
 30
0.0
 11
257.01949635798019
 21
687.71707969527813
 31
0.0
  0
LINE
  5
92DB
  8
0
 10
257.01949635798019
 20
677.71707969527813
 30
0.0
 11
268.01949635798019
 21
677.71707969527813
 31
0.0
  0
LINE
  5
92DC
  8
0
 10
268.01949635798019
 20
677.71707969527813
 30
0.0
 11
268.01949635798019
 21
687.71707969527813
 31
0.0
  0
LINE
  5
92DD
  8
0
 10
268.01949635798019
 20
678.71707969527813
 30
0.0
 11
281.51949635798019
 21
678.71707969527813
 31
0.0
  0
LINE
  5
92DE
  8
0
 10
281.51949635798019
 20
678.71707969527813
 30
0.0
 11
281.51949635798019
 21
684.71707969527813
 31
0.0
  0
LINE
  5
92DF
  8
0
 10
268.01949635798019
 20
684.71707969527813
 30
0.0
 11
281.51949635798019
 21
684.71707969527813
 31
0.0
  0
LINE
  5
92E0
  8
0
 10
279.01950035798018
 20
792.36089469527815
 30
0.0
 11
284.51950035798018
 21
792.36089469527815
 31
0.0
  0
LINE
  5
92E1
  8
0
 10
279.01950035798018
 20
792.69497269527835
 30
0.0
 11
285.19950035798001
 21
792.69497269527835
 31
0.0
  0
LINE
  5
92E2
  8
0
 10
286.51950035798018
 20
790.36089469527815
 30
0.0
 11
286.51950035798018
 21
784.71712769527812
 31
0.0
  0
LINE
  5
92E3
  8
0
 10
288.1995003579799
 20
795.69497269527835
 30
0.0
 11
288.1995003579799
 21
784.71712769527812
 31
0.0
  0
ARC
  5
92E4
  8
0
 10
285.19950035798001
 20
795.69497269527835
 30
0.0
 40
3.0
 50
270.0
 51
0.0
  0
LINE
  5
92E5
  8
0
 10
279.01950035798018
 20
777.07335969527833
 30
0.0
 11
284.51950035798018
 21
777.07335969527833
 31
0.0
  0
LINE
  5
92E6
  8
0
 10
279.01950035798018
 20
776.73928214703233
 30
0.0
 11
285.19950035798001
 21
776.73928169527812
 31
0.0
  0
LINE
  5
92E7
  8
0
 10
286.51950035798018
 20
779.07335969527833
 30
0.0
 11
286.51950035798018
 21
784.71712769527812
 31
0.0
  0
LINE
  5
92E8
  8
0
 10
288.1995003579799
 20
773.73928169527812
 30
0.0
 11
288.1995003579799
 21
784.71712769527812
 31
0.0
  0
ARC
  5
92E9
  8
0
 10
285.19950035798001
 20
773.73928169527812
 30
0.0
 40
3.0
 50
359.99999799999722
 51
89.999997999997177
  0
TEXT
  5
96AB
  8
0
  6
CONTINUOUS
 62
     0
 10
847.78226257081326
 20
753.89157421698269
 30
0.0
 40
15.0
  1
VX15-040EB~VX15-050EB
  0
ENDSEC
  0
EOF
