  0
SECTION
  2
HEADER
  9
$ACADVER
  1
AC1009
  9
$INSBASE
 10
0.0
 20
0.0
 30
0.0
  9
$EXTMIN
 10
115.0931761366319
 20
417.79275778492718
 30
-0.000000000000013
  9
$EXTMAX
 10
1314.0252128986781
 20
1166.4055325250999
 30
0.0000000000000023
  9
$LIMMIN
 10
0.0186175848889434
 20
0.1428173666272414
  9
$LIMMAX
 10
1707.0186175848889
 20
1110.142817366627
  9
$ORTHOMODE
 70
     0
  9
$REGENMODE
 70
     1
  9
$FILLMODE
 70
     1
  9
$QTEXTMODE
 70
     0
  9
$MIRRTEXT
 70
     0
  9
$DRAGMODE
 70
     2
  9
$LTSCALE
 40
1.0
  9
$OSMODE
 70
   551
  9
$ATTMODE
 70
     1
  9
$TEXTSIZE
 40
2.5
  9
$TRACEWID
 40
1.0
  9
$TEXTSTYLE
  7
STANDARD
  9
$CLAYER
  8
0
  9
$CELTYPE
  6
BYLAYER
  9
$CECOLOR
 62
   256
  9
$DIMSCALE
 40
1.0
  9
$DIMASZ
 40
2.0
  9
$DIMEXO
 40
1.0
  9
$DIMDLI
 40
8.0
  9
$DIMRND
 40
0.0
  9
$DIMDLE
 40
0.0
  9
$DIMEXE
 40
1.0
  9
$DIMTP
 40
-0.025
  9
$DIMTM
 40
0.043
  9
$DIMTXT
 40
2.5
  9
$DIMCEN
 40
0.0
  9
$DIMTSZ
 40
0.0
  9
$DIMTOL
 70
     0
  9
$DIMLIM
 70
     0
  9
$DIMTIH
 70
     0
  9
$DIMTOH
 70
     0
  9
$DIMSE1
 70
     0
  9
$DIMSE2
 70
     0
  9
$DIMTAD
 70
     3
  9
$DIMZIN
 70
     8
  9
$DIMBLK
  1

  9
$DIMASO
 70
     1
  9
$DIMSHO
 70
     1
  9
$DIMPOST
  1

  9
$DIMAPOST
  1
"
  9
$DIMALT
 70
     0
  9
$DIMALTD
 70
     2
  9
$DIMALTF
 40
0.0393701
  9
$DIMLFAC
 40
1.0
  9
$DIMTOFL
 70
     1
  9
$DIMTVP
 40
0.0
  9
$DIMTIX
 70
     0
  9
$DIMSOXD
 70
     0
  9
$DIMSAH
 70
     0
  9
$DIMBLK1
  1

  9
$DIMBLK2
  1

  9
$DIMSTYLE
  2
AM_JIS
  9
$DIMCLRD
 70
     2
  9
$DIMCLRE
 70
     2
  9
$DIMCLRT
 70
     4
  9
$DIMTFAC
 40
0.71
  9
$DIMGAP
 40
1.5
  9
$LUNITS
 70
     2
  9
$LUPREC
 70
     2
  9
$SKETCHINC
 40
1.0
  9
$FILLETRAD
 40
0.0
  9
$AUNITS
 70
     0
  9
$AUPREC
 70
     0
  9
$MENU
  1
.
  9
$ELEVATION
 40
0.0
  9
$PELEVATION
 40
0.0
  9
$THICKNESS
 40
0.0
  9
$LIMCHECK
 70
     0
  9
$BLIPMODE
 70
     0
  9
$CHAMFERA
 40
3.0
  9
$CHAMFERB
 40
3.0
  9
$SKPOLY
 70
     0
  9
$TDCREATE
 40
2456829.3841110538
  9
$TDUPDATE
 40
2458540.7230701852
  9
$TDINDWG
 40
0.6250797106
  9
$TDUSRTIMER
 40
0.6250793056
  9
$USRTIMER
 70
     1
  9
$ANGBASE
 50
0.0
  9
$ANGDIR
 70
     0
  9
$PDMODE
 70
     0
  9
$PDSIZE
 40
0.0
  9
$PLINEWID
 40
0.0
  9
$COORDS
 70
     1
  9
$SPLFRAME
 70
     0
  9
$SPLINETYPE
 70
     6
  9
$SPLINESEGS
 70
     8
  9
$ATTDIA
 70
     1
  9
$ATTREQ
 70
     1
  9
$HANDLING
 70
     1
  9
$HANDSEED
  5
C62A
  9
$SURFTAB1
 70
     6
  9
$SURFTAB2
 70
     6
  9
$SURFTYPE
 70
     6
  9
$SURFU
 70
     6
  9
$SURFV
 70
     6
  9
$UCSNAME
  2

  9
$UCSORG
 10
0.0
 20
0.0
 30
0.0
  9
$UCSXDIR
 10
1.0
 20
0.0
 30
0.0
  9
$UCSYDIR
 10
0.0
 20
1.0
 30
0.0
  9
$PUCSNAME
  2

  9
$PUCSORG
 10
0.0
 20
0.0
 30
0.0
  9
$PUCSXDIR
 10
1.0
 20
0.0
 30
0.0
  9
$PUCSYDIR
 10
0.0
 20
1.0
 30
0.0
  9
$USERI1
 70
     0
  9
$USERI2
 70
     0
  9
$USERI3
 70
     0
  9
$USERI4
 70
     0
  9
$USERI5
 70
     0
  9
$USERR1
 40
0.0
  9
$USERR2
 40
0.0
  9
$USERR3
 40
0.0
  9
$USERR4
 40
0.0
  9
$USERR5
 40
0.0
  9
$WORLDVIEW
 70
     1
  9
$SHADEDGE
 70
     3
  9
$SHADEDIF
 70
    70
  9
$TILEMODE
 70
     1
  9
$MAXACTVP
 70
    64
  9
$PLIMCHECK
 70
     0
  9
$PEXTMIN
 10
1.0000000000000000E+020
 20
1.0000000000000000E+020
 30
1.0000000000000000E+020
  9
$PEXTMAX
 10
-1.0000000000000000E+020
 20
-1.0000000000000000E+020
 30
-1.0000000000000000E+020
  9
$PLIMMIN
 10
0.0
 20
0.0
  9
$PLIMMAX
 10
420.0
 20
297.0
  9
$UNITMODE
 70
     0
  9
$VISRETAIN
 70
     1
  9
$PLINEGEN
 70
     0
  9
$PSLTSCALE
 70
     1
  0
ENDSEC
  0
SECTION
  2
TABLES
  0
TABLE
  2
VPORT
 70
     1
  0
VPORT
  2
*ACTIVE
 70
     0
 10
0.0
 20
0.0
 11
1.0
 21
1.0
 12
714.55919451765487
 22
792.09914515501384
 13
0.0
 23
0.0
 14
15.0
 24
15.0
 15
60.0
 25
60.0
 16
0.0
 26
0.0
 36
1.0
 17
0.0
 27
0.0
 37
0.0
 40
753.75199287340092
 41
1.7571592210767459
 42
50.0
 43
0.0
 44
0.0
 50
0.0
 51
0.0
 71
    16
 72
  1000
 73
     1
 74
     3
 75
     0
 76
     0
 77
     0
 78
     0
  0
ENDTAB
  0
TABLE
  2
LTYPE
 70
    24
  0
LTYPE
  2
CONTINUOUS
 70
     0
  3
Solid line
 72
    65
 73
     0
 40
0.0
  0
LTYPE
  2
CENTER
 70
     0
  3
Center ____ _ ____ _ ____ _ ____ _ ____ _ ____
 72
    65
 73
     4
 40
50.799999999999997
 49
31.75
 49
-6.3499999999999979
 49
6.3499999999999979
 49
-6.3499999999999979
  0
LTYPE
  2
AM_ISO02W050
 70
     0
  3
__ __ __ __ __ __ __ __ __ __ __ __ __ __ __
 72
    65
 73
     2
 40
7.5
 49
6.0
 49
-1.5
  0
LTYPE
  2
AM_ISO08W050
 70
     0
  3
____ . ____ . ____ . ____ . ____ . ____ . ____
 72
    65
 73
     4
 40
18.0
 49
12.0
 49
-1.5
 49
3.0
 49
-1.5
  0
LTYPE
  2
AM_ISO09W050
 70
     0
  3
_____ . . _____ . . _____ . . ____ .. ____
 72
    65
 73
     6
 40
22.5
 49
12.0
 49
-1.5
 49
3.0
 49
-1.5
 49
3.0
 49
-1.5
  0
LTYPE
  2
AMCONSTR
 70
     0
  3
_______________________
 72
    65
 73
     2
 40
9999.0
 49
9999.0
 49
0.0
  0
LTYPE
  2
AM_ISO08W050X2
 70
     0
  3
__ . __ . __ . __ . __ . __
 72
    65
 73
     4
 40
9.0
 49
6.0
 49
-0.75
 49
1.5
 49
-0.75
  0
LTYPE
  2
AM_ISO02W050X2
 70
     0
  3
 _ _ _ _ _ _ _ _ _ _ _ _
 72
    65
 73
     2
 40
3.75
 49
3.0
 49
-0.75
  0
LTYPE
  2
AMZIGZAG
 70
     0
  3
/\/-/\/-/\/-/\/-/\/-/\/
 72
    65
 73
     2
 40
11.0001
 49
0.0001
 49
-11.0
  0
LTYPE
  2
ACANSTGBM
 70
     0
  3
__ . . __ . .
 72
    65
 73
     6
 40
9.0
 49
4.0
 49
-1.0
 49
1.0
 49
-1.0
 49
1.0
 49
-1.0
  0
LTYPE
  2
ACANSTGLM
 70
     0
  3
_ _ _ _ _
 72
    65
 73
     2
 40
3.0
 49
2.0
 49
-1.0
  0
LTYPE
  2
ACISOWELD
 70
     0
  3
_ _ _ _ _
 72
    65
 73
     2
 40
2.0
 49
2.0
 49
-1.0
  0
LTYPE
  2
ACISOTGB
 70
     0
  3
__ . . __ . .
 72
    65
 73
     6
 40
9.0
 49
4.0
 49
-1.0
 49
1.0
 49
-1.0
 49
1.0
 49
-1.0
  0
LTYPE
  2
ACISOTGL
 70
     0
  3
_ _ _ _ _
 72
    65
 73
     2
 40
3.0
 49
2.0
 49
-1.0
  0
LTYPE
  2
ACJISTGB
 70
     0
  3
__ . . __ . .
 72
    65
 73
     6
 40
9.0
 49
4.0
 49
-1.0
 49
1.0
 49
-1.0
 49
1.0
 49
-1.0
  0
LTYPE
  2
ACJISTGL
 70
     0
  3
_ _ _ _ _
 72
    65
 73
     2
 40
3.0
 49
2.0
 49
-1.0
  0
LTYPE
  2
HIDDEN
 70
     0
  3
Hidden __ __ __ __ __ __ __ __ __ __ __ __ __ _
 72
    65
 73
     2
 40
9.5249999999999968
 49
6.349999999999997
 49
-3.174999999999998
  0
LTYPE
  2
PHANTOM2
 70
     0
  3
Phantom (.5x) ___ _ _ ___ _ _ ___ _ _ ___ _ _
 72
    65
 73
     6
 40
31.75
 49
15.875
 49
-3.174999999999998
 49
3.174999999999998
 49
-3.174999999999998
 49
3.174999999999998
 49
-3.174999999999998
  0
LTYPE
  2
CENTER2
 70
     0
  3
Center (.5x) ___ _ ___ _ ___ _ ___ _ ___ _ ___
 72
    65
 73
     4
 40
1.125
 49
0.75
 49
-0.125
 49
0.125
 49
-0.125
  0
LTYPE
  2
HIDDEN2
 70
     0
  3
Hidden (.5x) _ _ _ _ _ _ _ _ _ _ _ _ _ _ _ _ _
 72
    65
 73
     2
 40
0.1875
 49
0.125
 49
-0.0625
  0
LTYPE
  2
AMZIGZAG2
 70
     0
  3
/\/-/\/-/\/-/\/-/\/-/\/
 72
    65
 73
     2
 40
0.4401
 49
0.0001
 49
-0.4400000000000003
  0
LTYPE
  2
ACANSTGB
 70
     0
  3
__ . . __ . .
 72
    65
 73
     6
 40
0.35433070866
 49
0.15748031496
 49
-0.03937007874
 49
0.03937007874
 49
-0.03937007874
 49
0.03937007874
 49
-0.03937007874
  0
LTYPE
  2
ACANSTGL
 70
     0
  3
_ _ _ _ _
 72
    65
 73
     2
 40
0.11811023622
 49
0.07874015748
 49
-0.03937007874
  0
ENDTAB
  0
TABLE
  2
LAYER
 70
     4
  0
LAYER
  2
0
 70
     0
 62
     7
  6
CONTINUOUS
  0
LAYER
  2
DEFPOINTS
 70
     0
 62
     7
  6
CONTINUOUS
  0
LAYER
  2
AM_5
 70
     0
 62
     2
  6
CONTINUOUS
  0
LAYER
  2
AM_CL
 70
     0
 62
     1
  6
AMCONSTR
  0
ENDTAB
  0
TABLE
  2
STYLE
 70
     8
  0
STYLE
  2
STANDARD
 70
     0
 40
0.0
 41
0.7400000000000003
 50
0.0
 71
     0
 42
2.5
  3
txt.shx
  4
bigfont.shx
  0
STYLE
  2

 70
     1
 40
0.0
 41
1.0
 50
0.0
 71
     0
 42
2.5
  3
ltypeshp.shx
  4

  0
STYLE
  2
ACANSTS
 70
     0
 40
1.0
 41
1.0
 50
0.0
 71
     0
 42
2.5
  3
romans.shx
  4
bigfont.shx
  0
STYLE
  2
ACANSGDT
 70
     0
 40
0.0
 41
1.0
 50
0.0
 71
     0
 42
2.5
  3
amgdtans.shx
  4

  0
STYLE
  2
ACISOTS
 70
     0
 40
1.0
 41
1.0
 50
0.0
 71
     0
 42
2.5
  3
isocp.shx
  4
extfont.shx
  0
STYLE
  2
ACISOGDT
 70
     0
 40
0.0
 41
1.0
 50
0.0
 71
     0
 42
2.5
  3
amgdt.shx
  4

  0
STYLE
  2
ACJISGDT
 70
     0
 40
0.0
 41
1.0
 50
0.0
 71
     0
 42
2.5
  3
amgdt.shx
  4

  0
STYLE
  2
ACJISTS
 70
     0
 40
1.0
 41
1.0
 50
0.0
 71
     0
 42
2.5
  3
isocp.shx
  4
extfont.shx
  0
ENDTAB
  0
TABLE
  2
VIEW
 70
     6
  0
VIEW
  2
AM_VIEW1
 70
     0
 40
555.00000000000011
 10
586.62004107243342
 20
832.64281736662736
 41
1173.202846975089
 11
0.0
 21
0.0
 31
1.0
 12
0.0
 22
0.0
 32
0.0
 42
50.0
 43
0.0
 44
0.0
 50
0.0
 71
    16
  0
VIEW
  2
AM_VIEW2
 70
     0
 40
555.00000000000011
 10
1120.417194097344
 20
832.64281736662736
 41
1173.202846975089
 11
0.0
 21
0.0
 31
1.0
 12
0.0
 22
0.0
 32
0.0
 42
50.0
 43
0.0
 44
0.0
 50
0.0
 71
    16
  0
VIEW
  2
AM_VIEW3
 70
     0
 40
555.00000000000011
 10
586.62004107243342
 20
277.6428173666273
 41
1173.202846975089
 11
0.0
 21
0.0
 31
1.0
 12
0.0
 22
0.0
 32
0.0
 42
50.0
 43
0.0
 44
0.0
 50
0.0
 71
    16
  0
VIEW
  2
AM_VIEW4
 70
     0
 40
555.00000000000011
 10
1120.417194097344
 20
277.6428173666273
 41
1173.202846975089
 11
0.0
 21
0.0
 31
1.0
 12
0.0
 22
0.0
 32
0.0
 42
50.0
 43
0.0
 44
0.0
 50
0.0
 71
    16
  0
VIEW
  2
AM_VIEW5
 70
     0
 40
555.00000000000011
 10
853.51861758488894
 20
555.14281736662736
 41
1173.202846975089
 11
0.0
 21
0.0
 31
1.0
 12
0.0
 22
0.0
 32
0.0
 42
50.0
 43
0.0
 44
0.0
 50
0.0
 71
    16
  0
VIEW
  2
AM_VIEW6
 70
     0
 40
1109.9889000000001
 10
853.51861758488894
 20
555.14281736662724
 41
2346.3822298932391
 11
0.0
 21
0.0
 31
1.0
 12
0.0
 22
0.0
 32
0.0
 42
50.0
 43
0.0
 44
0.0
 50
0.0
 71
    16
  0
ENDTAB
  0
TABLE
  2
UCS
 70
     0
  0
ENDTAB
  0
TABLE
  2
APPID
 70
   162
  0
APPID
  2
ACAD
 70
     0
  0
APPID
  2
ACADANNOTATIVE
 70
     0
  0
APPID
  2
ACAD_MLEADERVER
 70
     0
  0
APPID
  2
MCAD_NO_VIS
 70
     0
  0
APPID
  2
ACAD_TEMP_GRAPHIC
 70
     0
  0
APPID
  2
AD_DRAW
 70
     0
  0
APPID
  2
ACATTRIBSERVICES
 70
     0
  0
APPID
  2
DESIGNERASSEMBLIES
 70
     0
  0
APPID
  2
ACADM_DIM_EDIT
 70
     0
  0
APPID
  2
AMDT_DM_ADJ
 70
     0
  0
APPID
  2
GENIUS_GENDIMSH_14
 70
     0
  0
APPID
  2
GEVID1057795304
 70
     0
  0
APPID
  2
GEVDC
 70
     0
  0
APPID
  2
GEVCON
 70
     0
  0
APPID
  2
GENIUS_GENBH_13
 70
     0
  0
APPID
  2
GENIUS_GENOENT_13
 70
     0
  0
APPID
  2
GENIUS_GENOBJ-NBEHI-BHF_13
 70
     0
  0
APPID
  2
GENIUS_GENOLIS_13
 70
     0
  0
APPID
  2
GENIUS_GENODEF_13
 70
     0
  0
APPID
  2
GENIUS_GENOREF_13
 70
     0
  0
APPID
  2
GENIUS_GENOBJ-NBEHI-BHB_13
 70
     0
  0
APPID
  2
GENIUS_GENOBJ-F-SCPASSM_13
 70
     0
  0
APPID
  2
GENIUS_GENDTOL_13
 70
     0
  0
APPID
  2
GENIUS_GENTRA_14
 70
     0
  0
APPID
  2
ASURF_PCURVE_APPNAME
 70
     0
  0
APPID
  2
GENIUS_GENCFG_13
 70
     0
  0
APPID
  2
GENIUS_GE3CFG0_13
 70
     0
  0
APPID
  2
GENIUS_GENCFG0_13
 70
     0
  0
APPID
  2
GENIUS_GENCFG1_13
 70
     0
  0
APPID
  2
GENIUS_GENCFG2_13
 70
     0
  0
APPID
  2
GENIUS_GENCFG3_13
 70
     0
  0
APPID
  2
GENIUS_GENCFG4_13
 70
     0
  0
APPID
  2
GENIUS_GEVCFG0_13
 70
     0
  0
APPID
  2
GENIUS_GENOBJ-N-TIT_13
 70
     0
  0
APPID
  2
GENIUS_GENTITLE_13
 70
     0
  0
APPID
  2
GENIUS_GENSCREG_15
 70
     0
  0
APPID
  2
GENIUS_GENOBJ-N-SDF_13
 70
     0
  0
APPID
  2
GENIUS_GENFIL_13
 70
     0
  0
APPID
  2
GENIUS_GENOBJ-N-CHA_13
 70
     0
  0
APPID
  2
GENIUS_GEFSH_13
 70
     0
  0
APPID
  2
GENIUS_GENOBJ-F-SHS_13
 70
     0
  0
APPID
  2
GENIUS_GENOBJ-N-CEN_13
 70
     0
  0
APPID
  2
GENIUS_GENREC_14
 70
     0
  0
APPID
  2
GENIUS_GENOBJ-N-REC_13
 70
     0
  0
APPID
  2
GENIUS_GENOBJ-N-HTC_13
 70
     0
  0
APPID
  2
GENIUS_GENHATCH_13
 70
     0
  0
APPID
  2
ACAD_PSEXT
 70
     0
  0
APPID
  2
ACAD_EXEMPT_FROM_CAD_STANDARDS
 70
     0
  0
APPID
  2
ACAECLAYERSTANDARD
 70
     0
  0
APPID
  2
GENIUS_GENCEN_19
 70
     0
  0
APPID
  2
ACAD_DSTYLE_DIMINSPECT
 70
     0
  0
APPID
  2
ACAD_DSTYLE_DIMANGULAR_EXT
 70
     0
  0
APPID
  2
ACADANNOPO
 70
     0
  0
APPID
  2
ACAD_NAV_VCDISPLAY
 70
     0
  0
APPID
  2
GENIUS_GENOBJ-N-FIL_13
 70
     0
  0
APPID
  2
ACAUTHENVIRON
 70
     0
  0
APPID
  2
ACDBDYNAMICBLOCKTRUENAME
 70
     0
  0
APPID
  2
ACDBDYNAMICBLOCKGUID
 70
     0
  0
APPID
  2
ACDBBLOCKREPETAG
 70
     0
  0
APPID
  2
ACAD_DSTYLE_DIMBREAK
 70
     0
  0
APPID
  2
ACAD_DSTYLE_DIMJAG
 70
     0
  0
APPID
  2
GENIUS_GENHINW_13
 70
     0
  0
APPID
  2
GENIUS_FIRSTVISTXT_14
 70
     0
  0
APPID
  2
GENIUS_GENOBJ-N-LEADER_13
 70
     0
  0
APPID
  2
ACAD_DSTYLE_DIMRADIAL_EXTENSION
 70
     0
  0
APPID
  2
DCO15
 70
     0
  0
APPID
  2
GENIUS_DUMCFG0_13
 70
     0
  0
APPID
  2
ACAD_DSTYLE_DIMTEXT_FILL
 70
     0
  0
APPID
  2
AMG_2DHIDE
 70
     0
  0
APPID
  2
GENIUS_GEFSHEP_13
 70
     0
  0
APPID
  2
GENIUS_GENOBJ-F-SHE_13
 70
     0
  0
APPID
  2
GENIUS_GEFSHE_13
 70
     0
  0
APPID
  2
ACAD_DIMASSOC_DIMLFAC
 70
     0
  0
APPID
  2
ACAD_DIMASSOC_CALC_DIMLFAC
 70
     0
  0
APPID
  2
ACAD_DIMASSOC_OVERRIDDEN_D
 70
     0
  0
APPID
  2
GENIUS_GENOBJ-F-SHSV_13
 70
     0
  0
APPID
  2
GENIUS_GEFWELD_13
 70
     0
  0
APPID
  2
GENIUS_GENOBJ-N-CRS_13
 70
     0
  0
APPID
  2
GENIUS_GENOBJ-N-RSBK_13
 70
     0
  0
APPID
  2
GENIUS_GENOBJ-N-LIB_13
 70
     0
  0
APPID
  2
GENIUS_GENSCALE_13
 70
     0
  0
APPID
  2
GENIUS_GENDREL_13
 70
     0
  0
APPID
  2
GEVPT
 70
     0
  0
APPID
  2
GEVIT
 70
     0
  0
APPID
  2
VCC
 70
     0
  0
APPID
  2
GENBH
 70
     0
  0
APPID
  2
GEVMK
 70
     0
  0
APPID
  2
GENIUS_GENOBJ-F-DESC_13
 70
     0
  0
APPID
  2
GENIUS_GEFDESC_14
 70
     0
  0
APPID
  2
GENIUS_GENOBJ-F-FEAT_13
 70
     0
  0
APPID
  2
GENIUS_GEFFEAT_14
 70
     0
  0
APPID
  2
GENIUS_GEFPARTINS_13
 70
     0
  0
APPID
  2
GENIUS_GENSCREG_13
 70
     0
  0
APPID
  2
GENIUS_GEFSHP_13
 70
     0
  0
APPID
  2
GEVID1025574798
 70
     0
  0
APPID
  2
GEVID1025574769
 70
     0
  0
APPID
  2
GEVID1025757451
 70
     0
  0
APPID
  2
GEVID1240528327
 70
     0
  0
APPID
  2
AMG_2DSTRUCT_BTR
 70
     0
  0
APPID
  2
ACADM_2DVIEW_IGN_NOTIFY
 70
     0
  0
APPID
  2
GEVID1240528328
 70
     0
  0
APPID
  2
GEVID1240528329
 70
     0
  0
APPID
  2
GEVRADREF
 70
     0
  0
APPID
  2
GEVID1240528330
 70
     0
  0
APPID
  2
GEVID1240528331
 70
     0
  0
APPID
  2
GEVID1240528332
 70
     0
  0
APPID
  2
GEVID1240791080
 70
     0
  0
APPID
  2
GEVID1240791081
 70
     0
  0
APPID
  2
GEVID1240791082
 70
     0
  0
APPID
  2
GEVID1240791083
 70
     0
  0
APPID
  2
GEVID1240791084
 70
     0
  0
APPID
  2
GEVID1240791085
 70
     0
  0
APPID
  2
GEVID1240791086
 70
     0
  0
APPID
  2
GEVID1240791087
 70
     0
  0
APPID
  2
GEVID1240791088
 70
     0
  0
APPID
  2
GEVID1240791089
 70
     0
  0
APPID
  2
GEVID1240791090
 70
     0
  0
APPID
  2
GEVID1240791091
 70
     0
  0
APPID
  2
GEVID1240791092
 70
     0
  0
APPID
  2
GEVID1240791093
 70
     0
  0
APPID
  2
GEVID1240791094
 70
     0
  0
APPID
  2
GEVID1240791095
 70
     0
  0
APPID
  2
GEVID1240791096
 70
     0
  0
APPID
  2
GEVID1240791097
 70
     0
  0
APPID
  2
GEVID1240791098
 70
     0
  0
APPID
  2
GEVID1240791099
 70
     0
  0
APPID
  2
GEVID1240791100
 70
     0
  0
APPID
  2
GEVID1240791101
 70
     0
  0
APPID
  2
GEVID1240791102
 70
     0
  0
APPID
  2
GEVID1240791103
 70
     0
  0
APPID
  2
GEVID1240791104
 70
     0
  0
APPID
  2
GEVID1240791105
 70
     0
  0
APPID
  2
GEVID1240875381
 70
     0
  0
APPID
  2
GEVID1240875382
 70
     0
  0
APPID
  2
GEVID1240875383
 70
     0
  0
APPID
  2
GEVID1240875384
 70
     0
  0
APPID
  2
GEVID1240875385
 70
     0
  0
APPID
  2
GEVID1240875386
 70
     0
  0
APPID
  2
GEVID1240875387
 70
     0
  0
APPID
  2
GEVID1240875388
 70
     0
  0
APPID
  2
GEVID1240875389
 70
     0
  0
APPID
  2
GEVID1240875390
 70
     0
  0
APPID
  2
GEVID1240875391
 70
     0
  0
APPID
  2
GEVID1240875392
 70
     0
  0
APPID
  2
GEVID1240875393
 70
     0
  0
APPID
  2
GEVID1240875394
 70
     0
  0
APPID
  2
GEVID1240875395
 70
     0
  0
APPID
  2
GEVID1240875396
 70
     0
  0
APPID
  2
GEVID1240875397
 70
     0
  0
APPID
  2
GEVID1240875398
 70
     0
  0
APPID
  2
GEVID1240875399
 70
     0
  0
APPID
  2
GEVID1240908996
 70
     0
  0
APPID
  2
GEVID1240908997
 70
     0
  0
APPID
  2
GEVID1240908998
 70
     0
  0
APPID
  2
GEVID1240908999
 70
     0
  0
APPID
  2
GEVID1240909000
 70
     0
  0
APPID
  2
GENIUS_GENOBJ-N-ZOO_13
 70
     0
  0
APPID
  2
GENIUS_GENZOO_17
 70
     0
  0
APPID
  2
GENIUS_GE3SECT_13
 70
     0
  0
APPID
  2
GEV_VCCNULL_SWITCH_OFF
 70
     0
  0
APPID
  2
ACAD_DSTYLE_DIMTALN
 70
     0
  0
APPID
  2
CONTENTBLOCKDESCRIPTION
 70
     0
  0
ENDTAB
  0
TABLE
  2
DIMSTYLE
 70
    21
  0
DIMSTYLE
  2
AM_ANSI
 70
     0
  3

  4
"
  5

  6

  7

 40
1.0
 41
2.5
 42
1.0
 43
10.0
 44
1.0
 45
0.0
 46
0.0
 47
0.1
 48
0.1
140
3.5
141
0.0
142
0.0
143
0.0393701
144
1.0
145
0.0
146
0.71
147
1.5
 71
     0
 72
     0
 73
     1
 74
     1
 75
     0
 76
     0
 77
     0
 78
     8
170
     0
171
     2
172
     0
173
     0
174
     0
175
     0
176
     2
177
     2
178
     4
  0
DIMSTYLE
  2
AM_ANSI$3
 70
     0
  3

  4
"
  5

  6

  7

 40
1.0
 41
2.5
 42
1.0
 43
10.0
 44
1.0
 45
0.0
 46
0.0
 47
0.1
 48
0.1
140
3.5
141
0.0
142
0.0
143
0.0393701
144
1.0
145
0.0
146
0.71
147
1.5
 71
     0
 72
     0
 73
     1
 74
     1
 75
     0
 76
     0
 77
     0
 78
     8
170
     0
171
     2
172
     0
173
     0
174
     0
175
     0
176
     2
177
     2
178
     4
  0
DIMSTYLE
  2
AM_ANSI$4
 70
     0
  3

  4
"
  5

  6

  7

 40
1.0
 41
2.5
 42
1.0
 43
10.0
 44
1.0
 45
0.0
 46
0.0
 47
0.1
 48
0.1
140
3.5
141
0.0
142
0.0
143
0.0393701
144
1.0
145
0.0
146
0.71
147
1.5
 71
     0
 72
     0
 73
     1
 74
     1
 75
     0
 76
     0
 77
     0
 78
     8
170
     0
171
     2
172
     0
173
     0
174
     0
175
     0
176
     2
177
     2
178
     4
  0
DIMSTYLE
  2
AM_ANSI$7
 70
     0
  3

  4
"
  5

  6

  7

 40
1.0
 41
2.5
 42
1.0
 43
10.0
 44
1.0
 45
0.0
 46
0.0
 47
0.1
 48
0.1
140
5.0
141
0.0
142
0.0
143
0.0393701
144
1.0
145
0.0
146
0.71
147
1.5
 71
     0
 72
     0
 73
     1
 74
     1
 75
     0
 76
     0
 77
     0
 78
     8
170
     0
171
     2
172
     0
173
     0
174
     0
175
     0
176
     2
177
     2
178
     4
  0
DIMSTYLE
  2
AM_ANSI$SF
 70
     0
  3

  4
"
  5

  6

  7

 40
1.0
 41
2.5
 42
1.0
 43
10.0
 44
1.0
 45
0.0
 46
0.0
 47
0.1
 48
0.1
140
3.5
141
0.0
142
0.0
143
0.0393701
144
1.0
145
0.0
146
0.71
147
1.5
 71
     0
 72
     0
 73
     1
 74
     1
 75
     1
 76
     1
 77
     0
 78
     8
170
     0
171
     2
172
     0
173
     0
174
     0
175
     0
176
     2
177
     2
178
     4
  0
DIMSTYLE
  2
AM_ANSI$SH
 70
     0
  3

  4
"
  5

  6
GENAXEH
  7

 40
1.0
 41
2.5
 42
1.0
 43
10.0
 44
1.0
 45
0.0
 46
0.0
 47
0.1
 48
0.1
140
3.5
141
0.0
142
0.0
143
0.0393701
144
1.0
145
0.0
146
0.71
147
1.5
 71
     0
 72
     0
 73
     1
 74
     1
 75
     1
 76
     1
 77
     0
 78
     8
170
     0
171
     2
172
     0
173
     1
174
     0
175
     0
176
     2
177
     2
178
     4
  0
DIMSTYLE
  2
AM_ISO
 70
     0
  3

  4
"
  5

  6

  7

 40
1.0
 41
2.5
 42
1.0
 43
10.0
 44
1.0
 45
0.0
 46
0.0
 47
0.1
 48
0.1
140
3.5
141
0.0
142
0.0
143
0.0393701
144
1.0
145
0.0
146
0.71
147
1.5
 71
     0
 72
     0
 73
     0
 74
     0
 75
     0
 76
     0
 77
     1
 78
     8
170
     0
171
     2
172
     1
173
     0
174
     0
175
     0
176
   256
177
   256
178
     2
  0
DIMSTYLE
  2
AM_ISO$3
 70
     0
  3

  4
"
  5

  6

  7

 40
1.0
 41
2.5
 42
1.0
 43
10.0
 44
1.0
 45
0.0
 46
0.0
 47
0.1
 48
0.1
140
3.5
141
0.0
142
0.0
143
0.0393701
144
1.0
145
0.0
146
0.71
147
1.5
 71
     0
 72
     0
 73
     0
 74
     1
 75
     0
 76
     0
 77
     1
 78
     8
170
     0
171
     2
172
     0
173
     0
174
     0
175
     0
176
   256
177
   256
178
     2
  0
DIMSTYLE
  2
AM_ISO$4
 70
     0
  3

  4
"
  5

  6

  7

 40
1.0
 41
2.5
 42
1.0
 43
10.0
 44
1.0
 45
0.0
 46
0.0
 47
0.1
 48
0.1
140
3.5
141
0.0
142
0.0
143
0.0393701
144
1.0
145
0.0
146
0.71
147
1.5
 71
     0
 72
     0
 73
     0
 74
     1
 75
     0
 76
     0
 77
     1
 78
     8
170
     0
171
     2
172
     0
173
     0
174
     0
175
     0
176
   256
177
   256
178
     2
  0
DIMSTYLE
  2
AM_ISO$6
 70
     0
  3

  4
"
  5

  6

  7

 40
1.0
 41
2.5
 42
1.0
 43
10.0
 44
1.0
 45
0.0
 46
0.0
 47
0.1
 48
0.1
140
3.5
141
0.0
142
0.0
143
0.0393701
144
1.0
145
0.0
146
0.71
147
1.5
 71
     0
 72
     0
 73
     0
 74
     0
 75
     0
 76
     0
 77
     0
 78
     8
170
     0
171
     2
172
     1
173
     0
174
     0
175
     0
176
   256
177
   256
178
     2
  0
DIMSTYLE
  2
AM_ISO$7
 70
     0
  3

  4
"
  5

  6

  7

 40
1.0
 41
2.5
 42
1.0
 43
10.0
 44
1.0
 45
0.0
 46
0.0
 47
0.1
 48
0.1
140
5.0
141
0.0
142
0.0
143
0.0393701
144
1.0
145
0.0
146
0.71
147
1.5
 71
     0
 72
     0
 73
     0
 74
     0
 75
     0
 76
     0
 77
     1
 78
     8
170
     0
171
     2
172
     1
173
     0
174
     0
175
     0
176
   256
177
   256
178
     2
  0
DIMSTYLE
  2
AM_ISO$SF
 70
     0
  3

  4
"
  5

  6

  7

 40
1.0
 41
2.5
 42
1.0
 43
10.0
 44
1.0
 45
0.0
 46
0.0
 47
0.1
 48
0.1
140
3.5
141
0.0
142
0.0
143
0.0393701
144
1.0
145
0.0
146
0.71
147
1.5
 71
     0
 72
     0
 73
     0
 74
     0
 75
     1
 76
     1
 77
     1
 78
     8
170
     0
171
     2
172
     1
173
     0
174
     0
175
     0
176
   256
177
   256
178
     2
  0
DIMSTYLE
  2
AM_ISO$SH
 70
     0
  3

  4
"
  5

  6
GENAXEH
  7

 40
1.0
 41
2.5
 42
1.0
 43
10.0
 44
1.0
 45
0.0
 46
0.0
 47
0.1
 48
0.1
140
3.5
141
0.0
142
0.0
143
0.0393701
144
2.0
145
0.0
146
0.71
147
1.5
 71
     0
 72
     0
 73
     0
 74
     0
 75
     1
 76
     1
 77
     1
 78
     8
170
     0
171
     2
172
     1
173
     1
174
     0
175
     0
176
   256
177
   256
178
     2
  0
DIMSTYLE
  2
AM_JIS
 70
     0
  3

  4
"
  5

  6

  7

 40
1.0
 41
2.0
 42
1.0
 43
8.0
 44
1.0
 45
0.0
 46
0.0
 47
0.1
 48
0.1
140
2.5
141
0.0
142
0.0
143
0.0393701
144
1.0
145
0.0
146
0.71
147
1.5
 71
     0
 72
     0
 73
     0
 74
     0
 75
     0
 76
     0
 77
     3
 78
     8
170
     0
171
     2
172
     1
173
     0
174
     0
175
     0
176
     2
177
     2
178
     4
  0
DIMSTYLE
  2
AM_JIS$3
 70
     0
  3

  4
"
  5

  6

  7

 40
1.0
 41
2.0
 42
1.0
 43
10.0
 44
1.0
 45
0.0
 46
0.0
 47
0.1
 48
0.1
140
2.5
141
0.0
142
0.0
143
0.0393701
144
1.0
145
0.0
146
0.71
147
1.5
 71
     0
 72
     0
 73
     0
 74
     1
 75
     0
 76
     0
 77
     3
 78
     8
170
     0
171
     2
172
     0
173
     0
174
     0
175
     0
176
     2
177
     2
178
     4
  0
DIMSTYLE
  2
AM_JIS$4
 70
     0
  3

  4
"
  5

  6

  7

 40
1.0
 41
2.0
 42
1.0
 43
10.0
 44
1.0
 45
0.0
 46
0.0
 47
0.1
 48
0.1
140
2.5
141
0.0
142
0.0
143
0.0393701
144
1.0
145
0.0
146
0.71
147
1.5
 71
     0
 72
     0
 73
     0
 74
     0
 75
     0
 76
     0
 77
     3
 78
     8
170
     0
171
     2
172
     0
173
     0
174
     0
175
     0
176
     2
177
     2
178
     4
  0
DIMSTYLE
  2
AM_JIS$6
 70
     0
  3

  4
"
  5

  6

  7

 40
1.0
 41
2.0
 42
1.0
 43
10.0
 44
1.0
 45
0.0
 46
0.0
 47
0.1
 48
0.1
140
2.5
141
0.0
142
0.0
143
0.0393701
144
1.0
145
0.0
146
0.71
147
1.5
 71
     0
 72
     0
 73
     0
 74
     0
 75
     0
 76
     0
 77
     0
 78
     8
170
     0
171
     2
172
     1
173
     0
174
     0
175
     0
176
     2
177
     2
178
     4
  0
DIMSTYLE
  2
AM_JIS$7
 70
     0
  3

  4
"
  5

  6
OPEN30
  7
OPEN30
 40
1.0
 41
2.0
 42
1.0
 43
10.0
 44
1.0
 45
0.0
 46
0.0
 47
0.1
 48
0.1
140
2.5
141
0.0
142
0.0
143
0.0393701
144
1.0
145
0.0
146
0.71
147
1.5
 71
     0
 72
     0
 73
     0
 74
     0
 75
     0
 76
     0
 77
     3
 78
     8
170
     0
171
     2
172
     1
173
     0
174
     0
175
     0
176
     2
177
     2
178
     4
  0
DIMSTYLE
  2
AM_JIS$SF
 70
     0
  3

  4
"
  5

  6

  7

 40
1.0
 41
2.0
 42
1.0
 43
10.0
 44
1.0
 45
0.0
 46
0.0
 47
0.1
 48
0.1
140
2.5
141
0.0
142
0.0
143
0.0393701
144
1.0
145
0.0
146
0.71
147
1.5
 71
     0
 72
     0
 73
     0
 74
     0
 75
     1
 76
     1
 77
     3
 78
     8
170
     0
171
     2
172
     1
173
     0
174
     0
175
     0
176
     2
177
     2
178
     4
  0
DIMSTYLE
  2
AM_JIS$SH
 70
     0
  3

  4
"
  5

  6
GENAXEH
  7

 40
1.0
 41
2.0
 42
1.0
 43
10.0
 44
1.0
 45
0.0
 46
0.0
 47
0.1
 48
0.1
140
2.5
141
0.0
142
0.0
143
0.0393701
144
2.0
145
0.0
146
0.71
147
1.5
 71
     0
 72
     0
 73
     0
 74
     0
 75
     1
 76
     1
 77
     3
 78
     8
170
     0
171
     2
172
     1
173
     1
174
     0
175
     0
176
     2
177
     2
178
     4
  0
DIMSTYLE
  2
AM_JIS$0
 70
     0
  3

  4
"
  5

  6

  7

 40
1.0
 41
2.0
 42
1.0
 43
8.0
 44
1.0
 45
0.0
 46
0.0
 47
0.1
 48
0.1
140
2.5
141
0.0
142
0.0
143
0.0393701
144
1.0
145
0.0
146
0.71
147
1.5
 71
     0
 72
     0
 73
     0
 74
     0
 75
     0
 76
     0
 77
     3
 78
     8
170
     0
171
     2
172
     1
173
     0
174
     0
175
     0
176
     2
177
     2
178
     4
  0
ENDTAB
  0
ENDSEC
  0
SECTION
  2
BLOCKS
  0
BLOCK
  8
0
  2
$MODEL_SPACE
 70
     0
 10
0.0
 20
0.0
 30
0.0
  3
$MODEL_SPACE
  1

  0
ENDBLK
  5
77
  8
0
  0
BLOCK
 67
     1
  8
0
  2
$PAPER_SPACE
 70
     0
 10
0.0
 20
0.0
 30
0.0
  3
$PAPER_SPACE
  1

  0
ENDBLK
  5
73
 67
     1
  8
0
  0
BLOCK
  8
0
  2
GENAXEH
 70
     0
 10
0.0
 20
0.0
 30
0.0
  3
GENAXEH
  1

  0
LINE
  5
C004
  8
0
 10
-1.0
 20
0.0
 30
0.0
 11
1.0
 21
0.0
 31
0.0
  0
ENDBLK
  5
C005
  8
0
  0
BLOCK
  8
0
  6
BYBLOCK
 62
     0
  2
$6-45
 70
     0
 10
0.0
 20
0.0
 30
0.0
  3
$6-45
  1

  0
ARC
  5
A0DF
  8
0
  6
CONTINUOUS
 62
     0
 10
-2.6499939999999902
 20
2.800201000000015
 30
0.0
 40
2.6003989999999999
 50
89.999982000000799
 51
179.99997799999841
  0
ARC
  5
A0E0
  8
0
  6
CONTINUOUS
 62
     0
 10
2.6499939999999902
 20
2.800201000000015
 30
0.0
 40
2.600403
 50
0.0
 51
89.999982000000799
  0
LINE
  5
A0E1
  8
0
  6
CONTINUOUS
 62
     0
 10
0.0660249999999678
 20
0.0
 30
0.0
 11
-0.7999999999999548
 21
1.5
 31
0.0
  0
LINE
  5
A0E2
  8
0
  6
CONTINUOUS
 62
     0
 10
1.0660249999999669
 20
0.0
 30
0.0
 11
0.2000000000000455
 21
1.5
 31
0.0
  0
LINE
  5
A0E3
  8
0
  6
CONTINUOUS
 62
     0
 10
6.1000000000000218
 20
0.0
 30
0.0
 11
-6.1000000000000218
 21
0.0
 31
0.0
  0
LINE
  5
A0E4
  8
0
  6
CONTINUOUS
 62
     0
 10
6.1000000000000218
 20
1.5
 30
0.0
 11
6.1000000000000218
 21
0.0
 31
0.0
  0
LINE
  5
A0E5
  8
0
  6
CONTINUOUS
 62
     0
 10
-6.1000000000000218
 20
1.5
 30
0.0
 11
-6.1000000000000218
 21
0.0
 31
0.0
  0
LINE
  5
A0E6
  8
0
  6
CONTINUOUS
 62
     0
 10
2.6499939999999902
 20
5.3999939999999906
 30
0.0
 11
-2.6499939999999902
 21
5.3999939999999906
 31
0.0
  0
LINE
  5
A0E7
  8
0
  6
CONTINUOUS
 62
     0
 10
6.1000000000000218
 20
1.5
 30
0.0
 11
-6.1000000000000218
 21
1.5
 31
0.0
  0
LINE
  5
A0E8
  8
0
  6
CONTINUOUS
 62
     0
 10
-5.25
 20
1.5
 30
0.0
 11
-5.25
 21
2.800201000000015
 31
0.0
  0
LINE
  5
A0E9
  8
0
  6
CONTINUOUS
 62
     0
 10
5.25
 20
1.5
 30
0.0
 11
5.25
 21
2.800201000000015
 31
0.0
  0
ENDBLK
  5
A0EA
  8
0
  6
BYBLOCK
 62
     0
  0
BLOCK
  8
0
  2
_OPEN30
 70
     0
 10
0.0
 20
0.0
 30
0.0
  3
_OPEN30
  1

  0
LINE
  5
C04B
  8
0
  6
BYBLOCK
 62
     0
 10
-1.0
 20
0.26794919
 30
0.0
 11
0.0
 21
0.0
 31
0.0
  0
LINE
  5
C04C
  8
0
  6
BYBLOCK
 62
     0
 10
0.0
 20
0.0
 30
0.0
 11
-1.0
 21
-0.26794919
 31
0.0
  0
LINE
  5
C04D
  8
0
  6
BYBLOCK
 62
     0
 10
0.0
 20
0.0
 30
0.0
 11
-1.0
 21
0.0
 31
0.0
  0
ENDBLK
  5
C04E
  8
0
  0
BLOCK
  8
0
  2
_ACMFILLEDHALF
 70
     0
 10
0.0
 20
0.0
 30
0.0
  3
_ACMFILLEDHALF
  1

  0
TRACE
  5
C10E
  8
0
  6
CONTINUOUS
 62
     0
 10
-0.8
 20
0.0
 30
0.0
 11
-1.0
 21
0.166666666
 31
0.0
 12
0.0
 22
0.0
 32
0.0
 13
0.0
 23
0.0
 33
0.0
  0
LINE
  5
C10F
  8
0
  6
CONTINUOUS
 62
     0
 10
-1.0
 20
0.0
 30
0.0
 11
-0.8
 21
0.0
 31
0.0
  0
ENDBLK
  5
C110
  8
0
  0
BLOCK
  8
0
  2
A$C34A33CE2
 70
     0
 10
0.0
 20
0.0
 30
0.0
  3
A$C34A33CE2
  1

  0
TEXT
  5
C149
  8
0
  6
CONTINUOUS
 62
     0
 10
0.0000002429457595
 20
-0.00000023365277
 30
0.0
 40
10.0
  1
VX01-003M~VX01-050M
  0
ENDBLK
  5
C14B
  8
0
  0
ENDSEC
  0
SECTION
  2
ENTITIES
  0
LINE
  5
B025
  8
0
  6
AM_ISO08W050
 10
519.36682387368614
 20
623.79611046808316
 30
0.0
 11
772.80553733048976
 21
623.79611046808316
 31
0.0
  0
LINE
  5
B026
  8
0
 10
1153.9710956690051
 20
755.80484546808304
 30
0.0
 11
1158.4491556690059
 21
754.91709546808261
 31
0.0
  0
LINE
  5
B027
  8
0
 10
1139.4930356690061
 20
754.91709546808261
 30
0.0
 11
1143.9710956690051
 21
755.80484546808304
 31
0.0
  0
LINE
  5
B028
  8
0
 10
1136.3250706690051
 20
745.25114546808311
 30
0.0
 11
1138.7215856690059
 21
754.19499546808265
 31
0.0
  0
LINE
  5
B029
  8
0
 10
1161.6171206690051
 20
745.25114546808311
 30
0.0
 11
1159.220605669005
 21
754.19504546808241
 31
0.0
  0
LINE
  5
B02A
  8
0
 10
1153.9711256690059
 20
791.79609546808319
 30
0.0
 11
1153.9711256690059
 21
749.79609546808263
 31
0.0
  0
LINE
  5
B02B
  8
0
 10
1143.971125669005
 20
791.79609546808319
 30
0.0
 11
1143.971125669005
 21
749.79609546808263
 31
0.0
  0
LINE
  5
B02C
  8
0
 10
705.37668733048963
 20
655.29611046808316
 30
0.0
 11
705.37668733048963
 21
651.29611046808316
 31
0.0
  0
LINE
  5
B02D
  8
0
 10
705.37668733048963
 20
655.29611046808316
 30
0.0
 11
767.37668733048963
 21
655.29611046808316
 31
0.0
  0
LINE
  5
B02E
  8
0
 10
685.37668733048963
 20
596.2961104680827
 30
0.0
 11
767.37668733048963
 21
596.2961104680827
 31
0.0
  0
LINE
  5
B02F
  8
0
 10
767.37668733048963
 20
655.29611046808316
 30
0.0
 11
767.37668733048963
 21
596.2961104680827
 31
0.0
  0
LINE
  5
B030
  8
0
 10
685.37668733048963
 20
653.79611046808327
 30
0.0
 11
685.37668733048963
 21
593.79611046808316
 31
0.0
  0
LINE
  5
B031
  8
0
 10
685.37668733048963
 20
651.29611046808316
 30
0.0
 11
767.37668733048963
 21
651.29611046808316
 31
0.0
  0
LINE
  5
B032
  8
0
 10
679.37668733048963
 20
653.79611046808327
 30
0.0
 11
685.37668733048963
 21
653.79611046808327
 31
0.0
  0
LINE
  5
B033
  8
0
 10
679.37668733048963
 20
593.79611046808316
 30
0.0
 11
685.37668733048963
 21
593.79611046808316
 31
0.0
  0
LINE
  5
B034
  8
0
 10
1140.9710956690051
 20
645.29611046808316
 30
0.0
 11
1156.9710956690051
 21
645.29611046808316
 31
0.0
  0
LINE
  5
B035
  8
0
 10
1140.9710956690051
 20
655.29611046808316
 30
0.0
 11
1156.9710956690051
 21
655.29611046808316
 31
0.0
  0
LINE
  5
B036
  8
0
 10
1140.9710956690051
 20
645.29611046808316
 30
0.0
 11
1140.9710956690051
 21
655.29611046808316
 31
0.0
  0
LINE
  5
B037
  8
0
 10
1156.9710956690051
 20
645.29611046808316
 30
0.0
 11
1156.9710956690051
 21
655.29611046808316
 31
0.0
  0
LINE
  5
B038
  8
0
 10
1015.9711056690051
 20
632.2625104680825
 30
0.0
 11
1015.9711056690051
 21
618.42181046808275
 31
0.0
  0
LINE
  5
B039
  8
0
 10
1048.971125669005
 20
465.79607546808307
 30
0.0
 11
1048.971125669005
 21
608.7961104680827
 31
0.0
  0
LINE
  5
B03A
  8
0
 10
537.37668733048974
 20
615.90209546808239
 30
0.0
 11
557.37668733048974
 21
615.90209546808239
 31
0.0
  0
LINE
  5
B03B
  8
0
 10
676.30693733048952
 20
683.90329546808289
 30
0.0
 11
677.44653733048972
 21
683.86354546808286
 31
0.0
  0
LINE
  5
B03C
  8
0
 10
656.50508733048923
 20
710.35969546808235
 30
0.0
 11
669.81243733048973
 21
709.19544546808265
 31
0.0
  0
LINE
  5
B03D
  8
0
 10
1006.971105669004
 20
453.79610546808209
 30
0.0
 11
1006.971105669004
 21
423.79610546808209
 31
0.0
  0
LINE
  5
B03E
  8
0
 10
1025.9710956690051
 20
453.79610546808209
 30
0.0
 11
1025.9710956690051
 21
423.79610546808209
 31
0.0
  0
LINE
  5
B03F
  8
0
 10
983.9711056690054
 20
453.79610546808209
 30
0.0
 11
983.9711056690054
 21
423.79610546808209
 31
0.0
  0
LINE
  5
B040
  8
0
 10
1048.971125669005
 20
453.79610546808209
 30
0.0
 11
988.9711056690046
 21
453.79610546808209
 31
0.0
  0
LINE
  5
B041
  8
0
 10
1053.9711256690059
 20
423.79610546808209
 30
0.0
 11
983.9711056690054
 21
423.79610546808209
 31
0.0
  0
LINE
  5
B042
  8
0
 10
1148.9711256690059
 20
430.79607546808307
 30
0.0
 11
1058.971125669005
 21
430.79607546808307
 31
0.0
  0
LINE
  5
B043
  8
0
  6
AM_ISO08W050
 10
1016.4711056690051
 20
458.4573604680823
 30
0.0
 11
1016.4711056690051
 21
420.79610546808209
 31
0.0
  0
LINE
  5
B044
  8
0
 10
674.37668733048963
 20
704.21439546808267
 30
0.0
 11
674.37668733048963
 21
457.45635546808319
 31
0.0
  0
LINE
  5
B045
  8
0
 10
624.3766873304894
 20
453.79610546808209
 30
0.0
 11
674.37668733048963
 21
453.79610546808209
 31
0.0
  0
LINE
  5
B046
  8
0
  6
AM_ISO08W050
 10
649.37668733048963
 20
457.70397546808209
 30
0.0
 11
649.37668733048963
 21
420.79610546808209
 31
0.0
  0
LINE
  5
B047
  8
0
 10
679.37668733048963
 20
448.79610546808209
 30
0.0
 11
679.37668733048963
 21
423.79610546808209
 31
0.0
  0
LINE
  5
B048
  8
0
 10
532.37668733048974
 20
745.79609546808263
 30
0.0
 11
552.55118733048937
 21
745.09159546808269
 31
0.0
  0
LINE
  5
B049
  8
0
  6
AM_ISO08W050
 10
479.37668733048957
 20
458.53626565470631
 30
0.0
 11
479.37668733048957
 21
420.79610546808209
 31
0.0
  0
LINE
  5
B04A
  8
0
 10
679.37668733048963
 20
681.86474546808279
 30
0.0
 11
679.37668733048963
 21
565.72750546808277
 31
0.0
  0
LINE
  5
B04B
  8
0
 10
658.87668733048963
 20
453.79610546808209
 30
0.0
 11
658.87668733048963
 21
423.79610546808209
 31
0.0
  0
LINE
  5
B04C
  8
0
 10
639.87668733048963
 20
453.79610546808209
 30
0.0
 11
639.87668733048963
 21
423.79610546808209
 31
0.0
  0
LINE
  5
B04D
  8
0
 10
560.4049873304898
 20
740.81739546808296
 30
0.0
 11
637.72573733048921
 21
738.11724546808227
 31
0.0
  0
LINE
  5
B04E
  8
0
 10
469.87668733048957
 20
453.79610546808209
 30
0.0
 11
469.87668733048957
 21
423.79610546808209
 31
0.0
  0
LINE
  5
B04F
  8
0
 10
449.37668733048957
 20
423.79610546808209
 30
0.0
 11
679.37668733048963
 21
423.79610546808209
 31
0.0
  0
LINE
  5
B050
  8
0
 10
676.30688733048987
 20
563.68887046808288
 30
0.0
 11
677.44643733048974
 21
563.72869546808272
 31
0.0
  0
LINE
  5
B051
  8
0
 10
449.37668733048957
 20
448.79610546808209
 30
0.0
 11
449.37668733048957
 21
423.79610546808209
 31
0.0
  0
LINE
  5
B052
  8
0
  6
AM_ISO08W050
 10
1148.9711256690059
 20
417.79609046808258
 30
0.0
 11
1148.9711256690059
 21
800.92378498877554
 31
0.0
  0
LINE
  5
B053
  8
0
 10
454.37668733048957
 20
453.79610546808209
 30
0.0
 11
501.20608733048959
 21
453.79610546808209
 31
0.0
  0
LINE
  5
B054
  8
0
 10
557.37668733048974
 20
740.09464546808306
 30
0.0
 11
557.37668733048974
 21
615.90209546808239
 31
0.0
  0
LINE
  5
B055
  8
0
 10
537.37668733048974
 20
615.90209546808239
 30
0.0
 11
537.37668733048974
 21
526.03509046808233
 31
0.0
  0
LINE
  5
B056
  8
0
 10
488.87668733048929
 20
453.79610546808209
 30
0.0
 11
488.87668733048929
 21
423.79610546808209
 31
0.0
  0
LINE
  5
B057
  8
0
 10
647.37668733048997
 20
728.12329546808223
 30
0.0
 11
647.37668733048997
 21
480.10311546808282
 31
0.0
  0
LINE
  5
B058
  8
0
 10
1031.9710956690051
 20
530.76000546808245
 30
0.0
 11
1031.9710956690051
 21
674.7298954680823
 31
0.0
  0
LINE
  5
B059
  8
0
 10
629.37668733048929
 20
675.75374546808223
 30
0.0
 11
647.37668733048997
 21
675.75374546808223
 31
0.0
  0
LINE
  5
B05A
  8
0
 10
614.3766873304894
 20
470.10311546808282
 30
0.0
 11
637.37668733048963
 21
470.10311546808282
 31
0.0
  0
LINE
  5
B05B
  8
0
 10
614.3766873304894
 20
660.75375046808267
 30
0.0
 11
614.3766873304894
 21
463.79610546808237
 31
0.0
  0
LINE
  5
B05C
  8
0
 10
1053.9711256690059
 20
448.79610546808209
 30
0.0
 11
1053.9711256690059
 21
423.79610546808209
 31
0.0
  0
LINE
  5
B05D
  8
0
 10
983.9711056690054
 20
453.79610546808209
 30
0.0
 11
1022.168480669005
 21
650.30441046808255
 31
0.0
  0
LINE
  5
B05E
  8
0
 10
505.72873733048948
 20
456.66399546808282
 30
0.0
 11
536.42198733048986
 21
521.77087046808231
 31
0.0
  0
LINE
  5
B05F
  8
0
 10
1148.9711256690059
 20
439.7961054680822
 30
0.0
 11
1089.9617856690049
 21
439.7961054680822
 31
0.0
  0
LINE
  5
B060
  8
0
 10
1056.900020669005
 20
436.7250304680822
 30
0.0
 11
1065.090510669005
 21
444.91552046808249
 31
0.0
  0
LINE
  5
B061
  8
0
 10
1084.2260106690051
 20
441.6045754680822
 30
0.0
 11
1077.897335669004
 21
446.0359754680826
 31
0.0
  0
LINE
  5
B062
  8
0
 10
532.37668733048974
 20
745.79609546808263
 30
0.0
 11
532.37668733048974
 21
513.19002546808281
 31
0.0
  0
LINE
  5
B063
  8
0
 10
1281.971115669005
 20
632.2625104680825
 30
0.0
 11
1281.971115669005
 21
618.42181046808275
 31
0.0
  0
LINE
  5
B064
  8
0
  6
AM_ISO08W050
 10
1298.9711256690059
 20
623.79611046808316
 30
0.0
 11
998.97112566900603
 21
623.79611046808316
 31
0.0
  0
LINE
  5
B065
  8
0
 10
1248.9710956690051
 20
465.79607546808307
 30
0.0
 11
1248.9710956690051
 21
608.7961104680827
 31
0.0
  0
LINE
  5
B066
  8
0
 10
1290.9710956690051
 20
453.79610546808209
 30
0.0
 11
1290.9710956690051
 21
423.79610546808209
 31
0.0
  0
LINE
  5
B067
  8
0
 10
1271.9711106690049
 20
453.79610546808209
 30
0.0
 11
1271.9711106690049
 21
423.79610546808209
 31
0.0
  0
LINE
  5
B068
  8
0
 10
1313.9711006690061
 20
453.79610546808209
 30
0.0
 11
1313.9711006690061
 21
423.79610546808209
 31
0.0
  0
LINE
  5
B069
  8
0
 10
1248.9710956690051
 20
453.79610546808209
 30
0.0
 11
1308.971100669005
 21
453.79610546808209
 31
0.0
  0
LINE
  5
B06A
  8
0
 10
1243.9710956690051
 20
423.79610546808209
 30
0.0
 11
1313.9711006690061
 21
423.79610546808209
 31
0.0
  0
LINE
  5
B06B
  8
0
 10
1148.9711256690059
 20
430.79607546808307
 30
0.0
 11
1238.9710956690051
 21
430.79607546808307
 31
0.0
  0
LINE
  5
B06C
  8
0
  6
AM_ISO08W050
 10
1281.4710956690051
 20
458.4573604680823
 30
0.0
 11
1281.4710956690051
 21
420.79610546808209
 31
0.0
  0
LINE
  5
B06D
  8
0
 10
1265.9710956690051
 20
530.76000546808245
 30
0.0
 11
1265.9710956690051
 21
674.7298954680823
 31
0.0
  0
LINE
  5
B06E
  8
0
 10
1243.9710956690051
 20
448.79610546808209
 30
0.0
 11
1243.9710956690051
 21
423.79610546808209
 31
0.0
  0
LINE
  5
B06F
  8
0
 10
1313.9711006690061
 20
453.79610546808209
 30
0.0
 11
1275.7737556690061
 21
650.30441046808255
 31
0.0
  0
LINE
  5
B070
  8
0
 10
1148.9711256690059
 20
439.7961054680822
 30
0.0
 11
1207.9804356690049
 21
439.7961054680822
 31
0.0
  0
LINE
  5
B071
  8
0
 10
1241.042170669004
 20
436.7250304680822
 30
0.0
 11
1232.851680669005
 21
444.91552046808249
 31
0.0
  0
LINE
  5
B072
  8
0
 10
1213.7161856690061
 20
441.60461046808211
 30
0.0
 11
1220.0448556690051
 21
446.0359754680826
 31
0.0
  0
LINE
  5
B073
  8
0
 10
498.39448733048908
 20
715.42009546808242
 30
0.0
 11
484.34118733048962
 21
696.44804546808302
 31
0.0
  0
LINE
  5
B074
  8
0
 10
463.87668733048929
 20
663.79610546808237
 30
0.0
 11
477.55113733048933
 21
664.27364046808236
 31
0.0
  0
LINE
  5
B075
  8
0
 10
501.37668733048929
 20
745.79609546808263
 30
0.0
 11
532.37668733048974
 21
745.79609546808263
 31
0.0
  0
LINE
  5
B076
  8
0
 10
499.37668733048957
 20
743.79614546808273
 30
0.0
 11
499.37668733048957
 21
718.39624546808272
 31
0.0
  0
LINE
  5
B077
  8
0
 10
504.30688733048981
 20
744.81584546808301
 30
0.0
 11
532.37668733048974
 21
745.79609546808263
 31
0.0
  0
LINE
  5
B078
  8
0
 10
502.37668733048957
 20
742.81714546808234
 30
0.0
 11
502.37668733048957
 21
453.93508546808249
 31
0.0
  0
LINE
  5
B079
  8
0
 10
482.37668733048957
 20
690.49579546808275
 30
0.0
 11
482.37668733048957
 21
479.58355046808322
 31
0.0
  0
LINE
  5
B07A
  8
0
 10
482.37668733048957
 20
479.58355046808322
 30
0.0
 11
482.37668733048957
 21
469.72381046808209
 31
0.0
  0
LINE
  5
B07B
  8
0
 10
463.87668733048929
 20
493.79610546808283
 30
0.0
 11
477.55123733048981
 21
493.3186004680822
 31
0.0
  0
LINE
  5
B07C
  8
0
 10
493.88418733048962
 20
453.79613546808253
 30
0.0
 11
485.19448733048989
 21
462.76568046808228
 31
0.0
  0
LINE
  5
B07D
  8
0
 10
501.39448733048908
 20
719.47009546808295
 30
0.0
 11
498.39448733048908
 21
715.42009546808242
 31
0.0
  0
LINE
  5
B07E
  8
0
 10
504.58263733048972
 20
754.79609546808263
 30
0.0
 11
524.17068733048984
 21
754.79609546808263
 31
0.0
  0
LINE
  5
B07F
  8
0
 10
501.87668733048929
 20
745.79609546808263
 30
0.0
 11
504.12718733048962
 21
754.19499546808265
 31
0.0
  0
LINE
  5
B080
  8
0
 10
526.87673733048939
 20
745.79609546808263
 30
0.0
 11
524.6262373304894
 21
754.19504546808241
 31
0.0
  0
LINE
  5
B081
  8
0
 10
504.89863733048981
 20
754.91709546808261
 30
0.0
 11
514.37668733048906
 21
756.79614546808273
 31
0.0
  0
LINE
  5
B082
  8
0
 10
514.37668733048906
 20
756.79609546808263
 30
0.0
 11
523.8547873304899
 21
754.91709546808261
 31
0.0
  0
LINE
  5
B083
  8
0
  6
AM_ISO08W050
 10
128.04575327416771
 20
578.79610546808215
 30
0.0
 11
529.51938269056984
 21
578.79610546808215
 31
0.0
  0
ARC
  5
B084
  8
0
 10
1141.9710956690051
 20
749.79609546808263
 30
0.0
 40
2.0000000500000001
 50
270.0
 51
0.0
  0
ARC
  5
B085
  8
0
 10
1155.9710956690051
 20
749.79609546808263
 30
0.0
 40
2.0000000500000001
 50
179.999989999999
 51
270.0
  0
ARC
  5
B086
  8
0
 10
1158.2546656690049
 20
753.93619546808316
 30
0.0
 40
1.0
 50
14.999999999994451
 51
78.786710000008227
  0
ARC
  5
B087
  8
0
 10
1139.687525669005
 20
753.93619546808316
 30
0.0
 40
1.0
 50
101.2132899999917
 51
164.99998999998439
  0
ARC
  5
B088
  8
0
 10
1148.9711256690059
 20
791.79609546808319
 30
0.0
 40
5.0
 50
359.999989999999
 51
179.999989999999
  0
ARC
  5
B089
  8
0
 10
1148.9711256690059
 20
623.79611046808316
 30
0.0
 40
27.500000499999999
 50
106.91238999999609
 51
73.087596999997331
  0
ARC
  5
B08A
  8
0
 10
676.37668733048963
 20
561.69015046808215
 30
0.0
 40
2.0000000500000001
 50
91.999997999994051
 51
180.000010000001
  0
ARC
  5
B08B
  8
0
 10
674.37668733048963
 20
448.79610546808209
 30
0.0
 40
5.0
 50
0.0
 51
90.00000299999769
  0
ARC
  5
B08C
  8
0
 10
501.20608733048959
 20
458.79610546808237
 30
0.0
 40
5.0
 50
270.0
 51
334.75946999999019
  0
ARC
  5
B08D
  8
0
 10
676.37668733048963
 20
685.90209546808239
 30
0.0
 40
2.0000000500000001
 50
179.999989999999
 51
268.00000999999207
  0
ARC
  5
B08E
  8
0
 10
637.37668733048963
 20
728.12329546808223
 30
0.0
 40
10.0
 50
0.0
 51
87.999999999996405
  0
ARC
  5
B08F
  8
0
 10
1148.9711256690059
 20
608.7961104680827
 30
0.0
 40
100.0
 50
90.00000299999769
 51
180.000010000001
  0
ARC
  5
B090
  8
0
 10
669.37668733048963
 20
704.21439546808267
 30
0.0
 40
5.0
 50
0.0
 51
84.999996999996981
  0
ARC
  5
B091
  8
0
 10
677.37668733048963
 20
681.86474546808279
 30
0.0
 40
2.0000000500000001
 50
0.0
 51
87.999999999996405
  0
ARC
  5
B092
  8
0
 10
988.9711056690046
 20
448.79610546808209
 30
0.0
 40
5.0
 50
90.00000299999769
 51
180.000010000001
  0
ARC
  5
B093
  8
0
 10
1148.9711256690059
 20
598.79611046808316
 30
0.0
 40
147.0
 50
90.00000299999769
 51
134.5979600000046
  0
ARC
  5
B094
  8
0
 10
1148.9711256690059
 20
598.79611046808316
 30
0.0
 40
142.0
 50
90.00000299999769
 51
136.44564000000469
  0
ARC
  5
B095
  8
0
 10
1148.9711256690059
 20
623.79611046808316
 30
0.0
 40
60.0
 50
90.00000299999769
 51
270.0
  0
ARC
  5
B096
  8
0
 10
624.3766873304894
 20
463.79610546808237
 30
0.0
 40
10.0
 50
179.999989999999
 51
270.0
  0
ARC
  5
B097
  8
0
 10
677.37668733048963
 20
565.72750546808277
 30
0.0
 40
2.0000000500000001
 50
272.00000000000358
 51
0.0
  0
ARC
  5
B098
  8
0
 10
560.57948733048909
 20
745.81434546808259
 30
0.0
 40
5.0
 50
214.88734000000099
 51
267.99999999999642
  0
ARC
  5
B099
  8
0
 10
552.37668733048974
 20
740.09464546808306
 30
0.0
 40
5.0
 50
34.887350000019701
 51
87.999999999996405
  0
ARC
  5
B09A
  8
0
 10
629.37668733048929
 20
660.75375046808267
 30
0.0
 40
15.0
 50
90.00000299999769
 51
180.000010000001
  0
ARC
  5
B09B
  8
0
 10
1148.9711256690059
 20
530.79607546808313
 30
0.0
 40
117.0
 50
179.999989999999
 51
211.27330000001211
  0
ARC
  5
B09C
  8
0
 10
1036.9710956690051
 20
465.79607546808307
 30
0.0
 40
12.0
 50
270.0
 51
0.0
  0
ARC
  5
B09D
  8
0
 10
637.37668733048963
 20
480.10311546808282
 30
0.0
 40
10.0
 50
270.0
 51
0.0
  0
ARC
  5
B09E
  8
0
 10
1113.4598056690049
 20
632.55920046808262
 30
0.0
 40
93.0
 50
136.44564000000469
 51
168.99999999998761
  0
ARC
  5
B09F
  8
0
 10
657.37668733048963
 20
720.32159546808225
 30
0.0
 40
10.0
 50
179.999989999999
 51
264.99999999999949
  0
ARC
  5
B0A0
  8
0
 10
1058.971125669005
 20
425.79607546808307
 30
0.0
 40
5.0
 50
90.00000299999769
 51
180.000010000001
  0
ARC
  5
B0A1
  8
0
 10
1048.971125669005
 20
448.79610546808209
 30
0.0
 40
5.0
 50
0.0
 51
90.00000299999769
  0
ARC
  5
B0A2
  8
0
 10
527.37668733048974
 20
526.03509046808233
 30
0.0
 40
10.0
 50
334.75946999999019
 51
0.0
  0
ARC
  5
B0A3
  8
0
 10
1041.9710956690051
 20
674.7298954680823
 30
0.0
 40
10.0
 50
149.46392000000719
 51
180.000010000001
  0
ARC
  5
B0A4
  8
0
 10
454.37668733048957
 20
448.79610546808209
 30
0.0
 40
5.0
 50
90.00000299999769
 51
180.000010000001
  0
ARC
  5
B0A5
  8
0
 10
679.37668733048963
 20
457.45635546808319
 30
0.0
 40
5.0
 50
179.999989999999
 51
240.00001000001211
  0
ARC
  5
B0A6
  8
0
 10
1115.9710956690051
 20
632.2625104680825
 30
0.0
 40
100.0
 50
134.5979600000046
 51
180.000010000001
  0
ARC
  5
B0A7
  8
0
 10
1089.9617856690049
 20
449.79610546808209
 30
0.0
 40
10.0
 50
235.0000000000241
 51
270.0
  0
ARC
  5
B0A8
  8
0
 10
1063.9711256690059
 20
429.65395546808259
 30
0.0
 40
10.0
 50
134.99999999999079
 51
180.000010000001
  0
ARC
  5
B0A9
  8
0
 10
1072.161585669005
 20
437.8444154680825
 30
0.0
 40
10.0
 50
54.999998999978068
 51
134.99999999999079
  0
ARC
  5
B0AA
  8
0
 10
1148.9711256690059
 20
608.7961104680827
 30
0.0
 40
100.0
 50
0.0
 51
90.00000299999769
  0
ARC
  5
B0AB
  8
0
 10
1308.971100669005
 20
448.79610546808209
 30
0.0
 40
5.0
 50
0.0
 51
90.00000299999769
  0
ARC
  5
B0AC
  8
0
 10
1148.9711256690059
 20
598.79611046808316
 30
0.0
 40
147.0
 50
45.402043000017279
 51
90.00000299999769
  0
ARC
  5
B0AD
  8
0
 10
1148.9711256690059
 20
598.79611046808316
 30
0.0
 40
142.0
 50
43.554364000004838
 51
90.00000299999769
  0
ARC
  5
B0AE
  8
0
 10
1148.9711256690059
 20
623.79611046808316
 30
0.0
 40
60.0
 50
270.0
 51
90.00000299999769
  0
ARC
  5
B0AF
  8
0
 10
1148.9711256690059
 20
530.79607546808313
 30
0.0
 40
117.0
 50
328.72669999998789
 51
0.0
  0
ARC
  5
B0B0
  8
0
 10
1260.9710956690051
 20
465.79607546808307
 30
0.0
 40
12.0
 50
180.000010000001
 51
270.0
  0
ARC
  5
B0B1
  8
0
 10
1184.482385669005
 20
632.55920046808262
 30
0.0
 40
93.0
 50
11.00000000001241
 51
43.554364000004838
  0
ARC
  5
B0B2
  8
0
 10
1238.9710956690051
 20
425.79607546808307
 30
0.0
 40
5.0
 50
0.0
 51
90.00000299999769
  0
ARC
  5
B0B3
  8
0
 10
1248.9710956690051
 20
448.79610546808209
 30
0.0
 40
5.0
 50
90.00000299999769
 51
180.000010000001
  0
ARC
  5
B0B4
  8
0
 10
1255.9710956690051
 20
674.7298954680823
 30
0.0
 40
10.0
 50
0.0
 51
30.536084999989829
  0
ARC
  5
B0B5
  8
0
 10
1181.9710956690051
 20
632.2625104680825
 30
0.0
 40
100.0
 50
0.0
 51
45.402043000017279
  0
ARC
  5
B0B6
  8
0
 10
1207.9804356690049
 20
449.79610546808209
 30
0.0
 40
10.0
 50
270.0
 51
304.99999999997652
  0
ARC
  5
B0B7
  8
0
 10
1233.9710956690051
 20
429.65395546808259
 30
0.0
 40
10.0
 50
0.0
 51
45.000001000013
  0
ARC
  5
B0B8
  8
0
 10
1225.7806056690049
 20
437.8444154680825
 30
0.0
 40
10.0
 50
45.000001000013
 51
124.9999999999759
  0
CIRCLE
  5
B0B9
  8
0
 10
1148.9711256690059
 20
623.79611046808316
 30
0.0
 40
6.0
  0
CIRCLE
  5
B0BA
  8
0
 10
1148.9711256690059
 20
623.79611046808316
 30
0.0
 40
4.500000049999997
  0
ARC
  5
B0BB
  8
0
 10
497.3766873304898
 20
722.44624546808302
 30
0.0
 40
5.0
 50
323.47114000001898
 51
0.0
  0
ARC
  5
B0BC
  8
0
 10
504.37668733048957
 20
742.81714546808234
 30
0.0
 40
2.0000000500000001
 50
91.999997999994051
 51
180.000010000001
  0
ARC
  5
B0BD
  8
0
 10
501.37668733048929
 20
743.79614546808273
 30
0.0
 40
2.0000000500000001
 50
90.00000299999769
 51
180.000010000001
  0
ARC
  5
B0BE
  8
0
 10
492.3766873304898
 20
469.72381046808209
 30
0.0
 40
10.0
 50
179.999989999999
 51
224.09221999999221
  0
ARC
  5
B0BF
  8
0
 10
494.37668733048929
 20
718.39624546808272
 30
0.0
 40
5.0
 50
323.47114000001898
 51
0.0
  0
ARC
  5
B0C0
  8
0
 10
492.3766873304898
 20
690.49579546808275
 30
0.0
 40
10.0
 50
143.47114000001901
 51
180.000010000001
  0
ARC
  5
B0C1
  8
0
 10
477.37668733048957
 20
488.32162046808259
 30
0.0
 40
5.0
 50
0.0
 51
87.999999999996405
  0
CIRCLE
  5
B0C2
  8
0
 10
514.37668733048906
 20
771.79609546808263
 30
0.0
 40
15.0
  0
ARC
  5
B0C3
  8
0
 10
514.37668733048906
 20
771.79609546808263
 30
0.0
 40
25.000000499999999
 50
306.46672000001979
 51
233.5332899999853
  0
ARC
  5
B0C4
  8
0
 10
505.09313733048998
 20
753.93619546808316
 30
0.0
 40
1.0
 50
101.2132899999917
 51
164.99998999998439
  0
ARC
  5
B0C5
  8
0
 10
523.66033733048994
 20
753.93619546808316
 30
0.0
 40
1.0
 50
14.999999999994451
 51
78.786710000008227
  0
ARC
  5
B0C6
  8
0
 10
495.95163733048958
 20
746.86579546808241
 30
0.0
 40
6.0
 50
349.7299499999861
 51
53.53329100000618
  0
ARC
  5
B0C7
  8
0
 10
532.80168733048981
 20
746.86579546808241
 30
0.0
 40
6.0
 50
126.4666999999961
 51
190.27005999999199
  0
ARC
  5
B0C8
  8
0
 10
477.37668733048957
 20
669.2705904680829
 30
0.0
 40
5.0
 50
272.00000000000358
 51
0.0
  0
LINE
  5
B0C9
  8
0
 10
463.87668733048929
 20
498.30039840548358
 30
0.0
 11
463.87668733048929
 21
578.79610546808215
 31
0.0
  0
LINE
  5
B0CA
  8
0
 10
463.87668733048929
 20
659.29181253068293
 30
0.0
 11
463.87668733048929
 21
578.79610546808215
 31
0.0
  0
LINE
  5
B0CB
  8
0
 10
463.87668733048929
 20
493.79610546808232
 30
0.0
 11
463.87668733048929
 21
663.79610546808237
 31
0.0
  0
LINE
  5
B0CC
  8
0
 10
463.87668733048929
 20
493.79610546808232
 30
0.0
 11
463.87668733048929
 21
663.79610546808237
 31
0.0
  0
LINE
  5
B0CD
  8
0
 10
257.3766873304894
 20
576.29610546808317
 30
0.0
 11
257.3766873304894
 21
481.79610546808289
 31
0.0
  0
LINE
  5
B0CE
  8
0
 10
394.37668733048929
 20
603.56405446808299
 30
0.0
 11
394.37668733048929
 21
554.02815646808324
 31
0.0
  0
LINE
  5
B0CF
  8
0
 10
408.83356333048931
 20
627.98110546808266
 30
0.0
 11
408.83356333048931
 21
607.61610546808299
 31
0.0
  0
LINE
  5
B0D0
  8
0
 10
424.87668633048929
 20
627.98110546808266
 30
0.0
 11
424.87668633048929
 21
607.61610546808299
 31
0.0
  0
LINE
  5
B0D1
  8
0
 10
439.42608233048929
 20
522.77530946808292
 30
0.0
 11
424.87668633048929
 21
522.77530946808292
 31
0.0
  0
LINE
  5
B0D2
  8
0
 10
444.37668733048929
 20
534.18765946808287
 30
0.0
 11
424.87668633048929
 21
534.18765946808287
 31
0.0
  0
LINE
  5
B0D3
  8
0
 10
409.58208433048929
 20
527.49039946808318
 30
0.0
 11
424.87668733048929
 21
522.77530946808292
 31
0.0
  0
LINE
  5
B0D4
  8
0
 10
424.87668733048929
 20
534.18765946808287
 30
0.0
 11
409.84074633048931
 21
533.6469084680831
 31
0.0
  0
ARC
  5
B0D5
  8
0
 10
409.87668733048929
 20
532.64755446808283
 30
0.0
 40
1.0
 50
92.059690999997201
 51
180.0
  0
ARC
  5
B0D6
  8
0
 10
409.87668733048929
 20
528.4460194680828
 30
0.0
 40
1.0
 50
180.0
 51
252.86627500000299
  0
LINE
  5
B0D7
  8
0
 10
424.87668733048929
 20
654.64889246808275
 30
0.0
 11
409.5762283304893
 21
649.82902646808316
 31
0.0
  0
ARC
  5
B0D8
  8
0
 10
409.87668733048929
 20
648.87523146808292
 30
0.0
 40
1.0
 50
107.4851790000008
 51
180.0
  0
ARC
  5
B0D9
  8
0
 10
409.87668733048929
 20
646.52416646808308
 30
0.0
 40
1.0
 50
180.0
 51
270.0
  0
LINE
  5
B0DA
  8
0
 10
409.92524233048943
 20
645.52534546808272
 30
0.0
 11
424.87668733048929
 21
646.25216546808269
 31
0.0
  0
LINE
  5
B0DB
  8
0
 10
444.37668733048929
 20
646.25216546808269
 30
0.0
 11
424.87668733048929
 21
646.25216546808269
 31
0.0
  0
LINE
  5
B0DC
  8
0
 10
367.8766873304894
 20
677.08259846808267
 30
0.0
 11
455.32387233048928
 21
677.08259846808267
 31
0.0
  0
ARC
  5
B0DD
  8
0
 10
279.14093233048948
 20
675.08259846808289
 30
0.0
 40
2.0
 50
90.0
 51
156.10179999998891
  0
ARC
  5
B0DE
  8
0
 10
455.32387233048928
 20
675.08259846808289
 30
0.0
 40
2.0
 50
10.00000199999918
 51
90.0
  0
LINE
  5
B0DF
  8
0
 10
458.87668733048929
 20
666.45112246808321
 30
0.0
 11
457.29348733048943
 21
675.42989546808315
 31
0.0
  0
LINE
  5
B0E0
  8
0
 10
458.61587933048929
 20
666.45112246808321
 30
0.0
 11
458.87668733048929
 21
666.45112246808321
 31
0.0
  0
ARC
  5
B0E1
  8
0
 10
264.20790233048939
 20
673.89282446808272
 30
0.0
 40
2.0
 50
90.0
 51
169.999998000001
  0
LINE
  5
B0E2
  8
0
 10
259.8766873304894
 20
660.84682146808268
 30
0.0
 11
262.23828733048941
 21
674.24012146808332
 31
0.0
  0
ARC
  5
B0E3
  8
0
 10
455.27285333048928
 20
673.89282446808272
 30
0.0
 40
2.0
 50
10.00000199999918
 51
90.0
  0
LINE
  5
B0E4
  8
0
 10
458.87668733048929
 20
664.97200446808313
 30
0.0
 11
457.24246833048937
 21
674.24012146808332
 31
0.0
  0
LINE
  5
B0E5
  8
0
 10
259.8766873304894
 20
660.84682146808268
 30
0.0
 11
260.4445933304894
 21
660.84682146808268
 31
0.0
  0
LINE
  5
B0E6
  8
0
 10
458.34071633048927
 20
664.97200446808313
 30
0.0
 11
458.87668733048929
 21
664.97200446808313
 31
0.0
  0
ARC
  5
B0E7
  8
0
 10
455.1869983304893
 20
671.34009046808274
 30
0.0
 40
2.0
 50
10.000001000002239
 51
90.0
  0
ARC
  5
B0E8
  8
0
 10
264.32569333048929
 20
671.34009046808274
 30
0.0
 40
2.0
 50
90.0
 51
169.9999989999979
  0
LINE
  5
B0E9
  8
0
 10
259.8766873304894
 20
657.62606546808331
 30
0.0
 11
262.35607733048948
 21
671.68738646808265
 31
0.0
  0
ARC
  5
B0EA
  8
0
 10
264.50683433048943
 20
667.3749054680826
 30
0.0
 40
2.0
 50
90.0
 51
169.9999999999948
  0
LINE
  5
B0EB
  8
0
 10
259.8766873304894
 20
652.63358046808287
 30
0.0
 11
262.5372183304894
 21
667.72220146808274
 31
0.0
  0
ARC
  5
B0EC
  8
0
 10
264.78806233048942
 20
661.79747746808289
 30
0.0
 40
2.0
 50
90.0
 51
169.9999999999948
  0
LINE
  5
B0ED
  8
0
 10
259.8766873304894
 20
645.46122846808294
 30
0.0
 11
262.81844633048939
 21
662.14477446808326
 31
0.0
  0
ARC
  5
B0EE
  8
0
 10
264.88332633048941
 20
655.79681046808275
 30
0.0
 40
2.0
 50
90.0
 51
169.9999989999979
  0
LINE
  5
B0EF
  8
0
 10
259.8766873304894
 20
638.92029246808272
 30
0.0
 11
262.91371033048949
 21
656.14410646808312
 31
0.0
  0
LINE
  5
B0F0
  8
0
 10
458.74842833048928
 20
662.65975446808329
 30
0.0
 11
457.15661333048928
 21
671.68738646808265
 31
0.0
  0
LINE
  5
B0F1
  8
0
 10
259.8766873304894
 20
657.62606546808331
 30
0.0
 11
260.75699733048941
 21
657.62606546808331
 31
0.0
  0
ARC
  5
B0F2
  8
0
 10
455.05762033048933
 20
667.3749054680826
 30
0.0
 40
2.0
 50
10.00000000000502
 51
90.0
  0
LINE
  5
B0F3
  8
0
 10
457.91988233048932
 20
662.65975446808329
 30
0.0
 11
457.0272363304893
 21
667.72220146808274
 31
0.0
  0
ARC
  5
B0F4
  8
0
 10
390.26570533048942
 20
661.79747746808289
 30
0.0
 40
2.0
 50
5.598652999985676
 51
90.0
  0
ARC
  5
B0F5
  8
0
 10
390.26375033048942
 20
655.79681046808275
 30
0.0
 40
2.0
 50
5.4290190000019001
 51
90.0
  0
LINE
  5
B0F6
  8
0
 10
460.87668733048929
 20
539.07339946808281
 30
0.0
 11
460.87668733048929
 21
640.86203846808314
 31
0.0
  0
LINE
  5
B0F7
  8
0
 10
460.87668733048929
 20
662.65975446808329
 30
0.0
 11
460.87668733048929
 21
666.79610546808328
 31
0.0
  0
LINE
  5
B0F8
  8
0
 10
408.83356333048931
 20
652.63358046808287
 30
0.0
 11
424.87668633048929
 21
657.23344246808313
 31
0.0
  0
LINE
  5
B0F9
  8
0
 10
393.1736023304893
 20
652.63358046808287
 30
0.0
 11
408.83356333048931
 21
652.63358046808287
 31
0.0
  0
LINE
  5
B0FA
  8
0
 10
424.87668633048929
 20
657.23344246808313
 30
0.0
 11
439.5699703304893
 21
657.23344246808313
 31
0.0
  0
INSERT
  5
B0FB
  8
0
  2
$6-45
 10
444.37668733048929
 20
652.92936546808266
 30
0.0
 50
90.0
  0
INSERT
  5
B0FC
  8
0
  2
$6-45
 10
444.37668733048929
 20
526.88743846808313
 30
0.0
 50
90.0
  0
LINE
  5
B0FD
  8
0
 10
225.8766873304894
 20
581.79610546808317
 30
0.0
 11
157.8851553304894
 21
581.79610546808317
 31
0.0
  0
LINE
  5
B0FE
  8
0
 10
458.81585733048951
 20
666.79610546808328
 30
0.0
 11
460.87668733048929
 21
666.79610546808328
 31
0.0
  0
LINE
  5
B0FF
  8
0
 10
264.50683433048943
 20
669.37490546808272
 30
0.0
 11
455.05762033048933
 21
669.37490546808272
 31
0.0
  0
LINE
  5
B100
  8
0
 10
264.32569333048929
 20
673.34009046808308
 30
0.0
 11
455.1869983304893
 21
673.34009046808308
 31
0.0
  0
LINE
  5
B101
  8
0
 10
264.20790233048939
 20
675.89282446808272
 30
0.0
 11
455.27285333048928
 21
675.89282446808272
 31
0.0
  0
LINE
  5
B102
  8
0
 10
257.3766873304894
 20
672.29610546808317
 30
0.0
 11
261.89550533048941
 21
672.29610546808317
 31
0.0
  0
LINE
  5
B103
  8
0
 10
279.14093233048948
 20
677.08259846808267
 30
0.0
 11
345.87668733048929
 21
677.08259846808267
 31
0.0
  0
LINE
  5
B104
  8
0
 10
424.87668633048929
 20
635.95610546808314
 30
0.0
 11
424.87668633048929
 21
630.61110546808288
 31
0.0
  0
LINE
  5
B105
  8
0
 10
408.83356333048931
 20
635.95610546808314
 30
0.0
 11
408.83356333048931
 21
630.61110546808288
 31
0.0
  0
LINE
  5
B106
  8
0
 10
424.87668633048929
 20
646.25216546808269
 30
0.0
 11
424.87668633048929
 21
638.65610546808296
 31
0.0
  0
LINE
  5
B107
  8
0
 10
424.87668633048929
 20
654.64889246808275
 30
0.0
 11
438.9766933304893
 21
654.64889246808275
 31
0.0
  0
LINE
  5
B108
  8
0
 10
259.8766873304894
 20
638.92029246808272
 30
0.0
 11
393.8766873304894
 21
638.92029246808272
 31
0.0
  0
LINE
  5
B109
  8
0
 10
393.19906033048949
 20
645.46122846808294
 30
0.0
 11
393.8766873304894
 21
645.46122846808294
 31
0.0
  0
LINE
  5
B10A
  8
0
 10
264.88332633048941
 20
657.79681046808275
 30
0.0
 11
390.26375033048942
 21
657.79681046808275
 31
0.0
  0
LINE
  5
B10B
  8
0
 10
259.8766873304894
 20
645.46122846808294
 30
0.0
 11
261.03003033048941
 21
645.46122846808294
 31
0.0
  0
LINE
  5
B10C
  8
0
 10
264.78806233048942
 20
663.797477468083
 30
0.0
 11
390.26570533048942
 21
663.797477468083
 31
0.0
  0
LINE
  5
B10D
  8
0
 10
460.87668733048929
 20
640.86203846808314
 30
0.0
 11
463.87668733048929
 21
639.12998746808296
 31
0.0
  0
ARC
  5
B10E
  8
0
 10
443.37668733048929
 20
641.86203846808314
 30
0.0
 40
1.0
 50
270.0
 51
0.0
  0
ARC
  5
B10F
  8
0
 10
446.37668733048929
 20
660.65975446808295
 30
0.0
 40
2.0
 50
90.0
 51
180.0
  0
ARC
  5
B110
  8
0
 10
446.37668733048929
 20
656.53574946808305
 30
0.0
 40
2.0
 50
180.0
 51
270.0
  0
ARC
  5
B111
  8
0
 10
446.37668733048929
 20
652.53574946808305
 30
0.0
 40
2.0
 50
90.0
 51
180.0
  0
LINE
  5
B112
  8
0
 10
446.37668733048929
 20
662.65975446808329
 30
0.0
 11
463.87668733048929
 21
662.65975446808329
 31
0.0
  0
LINE
  5
B113
  8
0
 10
444.37668733048929
 20
640.86203846808314
 30
0.0
 11
460.87668733048929
 21
640.86203846808314
 31
0.0
  0
LINE
  5
B114
  8
0
 10
446.37668733048929
 20
654.53574946808294
 30
0.0
 11
463.87668733048929
 21
654.53574946808294
 31
0.0
  0
LINE
  5
B115
  8
0
 10
444.37668733048929
 20
641.86203846808314
 30
0.0
 11
444.37668733048929
 21
660.65975446808295
 31
0.0
  0
LINE
  5
B116
  8
0
 10
259.8766873304894
 20
494.79610546808289
 30
0.0
 11
257.37668733048929
 21
494.79610546808289
 31
0.0
  0
LINE
  5
B117
  8
0
 10
259.8766873304894
 20
544.43731646808294
 30
0.0
 11
264.48406333048928
 21
538.00571046808284
 31
0.0
  0
LINE
  5
B118
  8
0
 10
264.48406333048928
 20
538.00571046808284
 30
0.0
 11
265.33986333048938
 21
540.63263046808277
 31
0.0
  0
LINE
  5
B119
  8
0
 10
259.8766873304894
 20
544.43731646808294
 30
0.0
 11
265.33986333048938
 21
540.63263046808277
 31
0.0
  0
LINE
  5
B11A
  8
0
 10
265.33986333048938
 20
540.63263046808277
 30
0.0
 11
266.55179333048932
 21
540.07667046808297
 31
0.0
  0
LINE
  5
B11B
  8
0
 10
257.37668733048929
 20
538.00571046808284
 30
0.0
 11
264.48406333048928
 21
538.00571046808284
 31
0.0
  0
LINE
  5
B11C
  8
0
 10
257.37668733048929
 20
544.43731646808294
 30
0.0
 11
259.8766873304894
 21
544.43731646808294
 31
0.0
  0
LINE
  5
B11D
  8
0
 10
259.8766873304894
 20
521.86393046808291
 30
0.0
 11
259.8766873304894
 21
518.67103646808312
 31
0.0
  0
LINE
  5
B11E
  8
0
 10
261.63668733048939
 20
521.29549646808312
 30
0.0
 11
261.63668733048939
 21
519.296714468083
 31
0.0
  0
LINE
  5
B11F
  8
0
 10
276.63668733048939
 20
530.29610546808328
 30
0.0
 11
276.63668733048939
 21
528.296714468083
 31
0.0
  0
LINE
  5
B120
  8
0
 10
274.8766873304894
 20
530.75764746808329
 30
0.0
 11
274.8766873304894
 21
527.68991246808264
 31
0.0
  0
LINE
  5
B121
  8
0
 10
274.8766873304894
 20
530.75764746808329
 30
0.0
 11
356.87668733048929
 21
530.75764746808329
 31
0.0
  0
LINE
  5
B122
  8
0
 10
274.8766873304894
 20
527.68991246808264
 30
0.0
 11
356.87668733048929
 21
527.68991246808264
 31
0.0
  0
LINE
  5
B123
  8
0
 10
259.8766873304894
 20
518.67103646808312
 30
0.0
 11
356.87668733048929
 21
518.67103646808312
 31
0.0
  0
LINE
  5
B124
  8
0
 10
259.8766873304894
 20
521.86393046808291
 30
0.0
 11
356.87668733048929
 21
521.86393046808291
 31
0.0
  0
LINE
  5
B125
  8
0
 10
261.63668733048939
 20
521.29549646808312
 30
0.0
 11
356.87668733048929
 21
521.29549646808312
 31
0.0
  0
LINE
  5
B126
  8
0
 10
261.63668733048939
 20
519.296714468083
 30
0.0
 11
356.87668733048929
 21
519.296714468083
 31
0.0
  0
LINE
  5
B127
  8
0
 10
261.63668733048939
 20
521.29549646808312
 30
0.0
 11
259.8766873304894
 21
521.86393046808291
 31
0.0
  0
LINE
  5
B128
  8
0
 10
261.63668733048939
 20
519.296714468083
 30
0.0
 11
259.8766873304894
 21
518.67103646808312
 31
0.0
  0
LINE
  5
B129
  8
0
 10
264.8199533304894
 20
528.0380264680831
 30
0.0
 11
266.00104433048938
 21
527.80061746808281
 31
0.0
  0
LINE
  5
B12A
  8
0
 10
276.63668733048939
 20
530.29610546808328
 30
0.0
 11
356.87668733048929
 21
530.29610546808328
 31
0.0
  0
LINE
  5
B12B
  8
0
 10
276.63668733048939
 20
528.296714468083
 30
0.0
 11
356.87668733048929
 21
528.296714468083
 31
0.0
  0
LINE
  5
B12C
  8
0
 10
276.63668733048939
 20
530.29610546808328
 30
0.0
 11
274.8766873304894
 21
530.75764746808329
 31
0.0
  0
LINE
  5
B12D
  8
0
 10
276.63668733048939
 20
528.296714468083
 30
0.0
 11
274.8766873304894
 21
527.68991246808264
 31
0.0
  0
LINE
  5
B12E
  8
0
 10
393.8766873304894
 20
530.75764746808329
 30
0.0
 11
356.87668733048929
 21
530.75764746808329
 31
0.0
  0
LINE
  5
B12F
  8
0
 10
393.8766873304894
 20
527.68991246808264
 30
0.0
 11
356.87668733048929
 21
527.68991246808264
 31
0.0
  0
LINE
  5
B130
  8
0
 10
392.11668733048941
 20
530.29610546808328
 30
0.0
 11
356.87668733048929
 21
530.29610546808328
 31
0.0
  0
LINE
  5
B131
  8
0
 10
392.11668733048941
 20
528.296714468083
 30
0.0
 11
356.87668733048929
 21
528.296714468083
 31
0.0
  0
LINE
  5
B132
  8
0
 10
392.11668733048941
 20
528.296714468083
 30
0.0
 11
393.8766873304894
 21
527.68991246808264
 31
0.0
  0
LINE
  5
B133
  8
0
 10
392.11668733048941
 20
530.29610546808328
 30
0.0
 11
393.8766873304894
 21
530.75764746808329
 31
0.0
  0
LINE
  5
B134
  8
0
 10
393.8766873304894
 20
530.75764746808329
 30
0.0
 11
393.8766873304894
 21
527.68991246808264
 31
0.0
  0
LINE
  5
B135
  8
0
 10
392.11668733048941
 20
530.29610546808328
 30
0.0
 11
392.11668733048941
 21
528.296714468083
 31
0.0
  0
LINE
  5
B136
  8
0
 10
393.8766873304894
 20
521.86393046808291
 30
0.0
 11
356.87668733048929
 21
521.86393046808291
 31
0.0
  0
LINE
  5
B137
  8
0
 10
392.11668733048941
 20
521.29549646808312
 30
0.0
 11
356.87668733048929
 21
521.29549646808312
 31
0.0
  0
LINE
  5
B138
  8
0
 10
392.11668733048941
 20
519.296714468083
 30
0.0
 11
356.87668733048929
 21
519.296714468083
 31
0.0
  0
LINE
  5
B139
  8
0
 10
392.11668733048941
 20
519.296714468083
 30
0.0
 11
393.8766873304894
 21
518.67103646808312
 31
0.0
  0
LINE
  5
B13A
  8
0
 10
392.11668733048941
 20
521.29549646808312
 30
0.0
 11
393.8766873304894
 21
521.86393046808291
 31
0.0
  0
LINE
  5
B13B
  8
0
 10
392.11668733048941
 20
521.29549646808312
 30
0.0
 11
392.11668733048941
 21
519.296714468083
 31
0.0
  0
LINE
  5
B13C
  8
0
 10
393.8766873304894
 20
521.86393046808291
 30
0.0
 11
393.8766873304894
 21
518.67103646808312
 31
0.0
  0
LINE
  5
B13D
  8
0
 10
259.8766873304894
 20
518.67103646808312
 30
0.0
 11
261.4694293304895
 21
501.37184946808281
 31
0.0
  0
LINE
  5
B13E
  8
0
 10
259.8766873304894
 20
512.13098246808283
 30
0.0
 11
260.47883233048941
 21
512.13098246808283
 31
0.0
  0
LINE
  5
B13F
  8
0
 10
259.8766873304894
 20
504.95863046808262
 30
0.0
 11
260.55946433048939
 21
504.95863046808262
 31
0.0
  0
LINE
  5
B140
  8
0
 10
259.8766873304894
 20
499.9661454680832
 30
0.0
 11
260.40120033048942
 21
499.9661454680832
 31
0.0
  0
LINE
  5
B141
  8
0
 10
259.8766873304894
 20
496.74538946808258
 30
0.0
 11
260.23662933048939
 21
496.74538946808258
 31
0.0
  0
LINE
  5
B142
  8
0
 10
259.8299103304895
 20
495.17580846808289
 30
0.0
 11
260.06030133048932
 21
495.17580846808289
 31
0.0
  0
LINE
  5
B143
  8
0
 10
259.8766873304894
 20
512.13098246808283
 30
0.0
 11
261.46433933048939
 21
495.45320846808278
 31
0.0
  0
LINE
  5
B144
  8
0
 10
259.8766873304894
 20
504.95863046808262
 30
0.0
 11
261.44852033048937
 21
489.99741946808308
 31
0.0
  0
LINE
  5
B145
  8
0
 10
259.8766873304894
 20
499.9661454680832
 30
0.0
 11
261.43799833048939
 21
485.99555446808262
 31
0.0
  0
LINE
  5
B146
  8
0
 10
259.8766873304894
 20
496.74538946808258
 30
0.0
 11
261.42990633048942
 21
483.46806146808291
 31
0.0
  0
LINE
  5
B147
  8
0
 10
259.8299103304895
 20
495.17580846808289
 30
0.0
 11
261.42042633048942
 21
482.26507446808262
 31
0.0
  0
ARC
  5
B148
  8
0
 10
263.46100533048929
 20
501.55521446808291
 30
0.0
 40
2.0
 50
185.26041099999159
 51
270.0
  0
ARC
  5
B149
  8
0
 10
263.45533733048939
 20
495.64274346808321
 30
0.0
 40
2.0
 50
185.4379219999999
 51
270.0
  0
ARC
  5
B14A
  8
0
 10
263.43757333048939
 20
490.20639046808321
 30
0.0
 40
2.0
 50
185.997525999987
 51
270.0
  0
ARC
  5
B14B
  8
0
 10
263.42562433048943
 20
486.21768546808289
 30
0.0
 40
2.0
 50
186.37674199999441
 51
270.0
  0
ARC
  5
B14C
  8
0
 10
263.4163603304894
 20
483.70044246808322
 30
0.0
 40
2.0
 50
186.67229399998519
 51
270.0
  0
ARC
  5
B14D
  8
0
 10
263.40542033048939
 20
482.50961246808322
 30
0.0
 40
2.0
 50
187.02306899999661
 51
270.0
  0
LINE
  5
B14E
  8
0
 10
266.55179333048932
 20
540.07667046808297
 30
0.0
 11
266.55179333048932
 21
527.68991246808264
 31
0.0
  0
LINE
  5
B14F
  8
0
 10
264.48406333048928
 20
538.00571046808284
 30
0.0
 11
264.48406333048928
 21
528.10554346808294
 31
0.0
  0
LINE
  5
B150
  8
0
 10
257.3766873304894
 20
527.68991246808264
 30
0.0
 11
266.55179333048932
 21
527.68991246808264
 31
0.0
  0
LINE
  5
B151
  8
0
 10
257.37668733048929
 20
528.10554346808294
 30
0.0
 11
264.48406333048928
 21
528.10554346808294
 31
0.0
  0
LINE
  5
B152
  8
0
 10
458.87668733048929
 20
593.97610546808312
 30
0.0
 11
457.11668733048941
 21
594.52610546808273
 31
0.0
  0
LINE
  5
B153
  8
0
 10
458.87668733048929
 20
596.61610546808299
 30
0.0
 11
458.87668733048929
 21
593.97610546808312
 31
0.0
  0
LINE
  5
B154
  8
0
 10
457.11668733048941
 20
596.12610546808298
 30
0.0
 11
458.87668733048929
 21
596.61610546808299
 31
0.0
  0
LINE
  5
B155
  8
0
 10
457.11668733048941
 20
596.12610546808298
 30
0.0
 11
457.11668733048941
 21
594.52610546808273
 31
0.0
  0
LINE
  5
B156
  8
0
 10
458.87668733048929
 20
582.97610546808301
 30
0.0
 11
457.11668733048941
 21
583.52610546808273
 31
0.0
  0
LINE
  5
B157
  8
0
 10
458.87668733048929
 20
585.61610546808276
 30
0.0
 11
458.87668733048929
 21
582.97610546808301
 31
0.0
  0
LINE
  5
B158
  8
0
 10
457.11668733048941
 20
585.12610546808332
 30
0.0
 11
458.87668733048929
 21
585.61610546808276
 31
0.0
  0
LINE
  5
B159
  8
0
 10
457.11668733048941
 20
585.12610546808332
 30
0.0
 11
457.11668733048941
 21
583.52610546808273
 31
0.0
  0
LINE
  5
B15A
  8
0
 10
458.87668733048929
 20
571.97610546808312
 30
0.0
 11
457.11668733048941
 21
572.52610546808273
 31
0.0
  0
LINE
  5
B15B
  8
0
 10
458.87668733048929
 20
574.61610546808299
 30
0.0
 11
458.87668733048929
 21
571.97610546808312
 31
0.0
  0
LINE
  5
B15C
  8
0
 10
457.11668733048941
 20
574.12610546808321
 30
0.0
 11
458.87668733048929
 21
574.61610546808299
 31
0.0
  0
LINE
  5
B15D
  8
0
 10
457.11668733048941
 20
574.12610546808321
 30
0.0
 11
457.11668733048941
 21
572.52610546808273
 31
0.0
  0
LINE
  5
B15E
  8
0
 10
458.87668733048929
 20
560.97610546808312
 30
0.0
 11
457.11668733048941
 21
561.52610546808285
 31
0.0
  0
LINE
  5
B15F
  8
0
 10
458.87668733048929
 20
563.61610546808299
 30
0.0
 11
458.87668733048929
 21
560.97610546808312
 31
0.0
  0
LINE
  5
B160
  8
0
 10
457.11668733048941
 20
563.12610546808332
 30
0.0
 11
458.87668733048929
 21
563.61610546808299
 31
0.0
  0
LINE
  5
B161
  8
0
 10
457.11668733048941
 20
563.12610546808332
 30
0.0
 11
457.11668733048941
 21
561.52610546808285
 31
0.0
  0
LINE
  5
B162
  8
0
 10
458.28835633048942
 20
492.28682546808261
 30
0.0
 11
457.2567273304893
 21
483.46806446808313
 31
0.0
  0
LINE
  5
B163
  8
0
 10
457.2214703304893
 20
485.9952584680828
 30
0.0
 11
458.27642733048953
 21
495.42224546808308
 31
0.0
  0
LINE
  5
B164
  8
0
 10
457.24854033048928
 20
489.99611446808291
 30
0.0
 11
458.34745233048932
 21
500.39028846808287
 31
0.0
  0
LINE
  5
B165
  8
0
 10
458.39839333048928
 20
506.9269084680833
 30
0.0
 11
457.27311233048931
 21
495.44762446808312
 31
0.0
  0
LINE
  5
B166
  8
0
 10
458.43956033048931
 20
514.33665046808312
 30
0.0
 11
457.20684333048928
 21
501.36598946808277
 31
0.0
  0
LINE
  5
B167
  8
0
 10
458.34847933048928
 20
491.15049746808302
 30
0.0
 11
457.27644633048931
 21
482.26991946808312
 31
0.0
  0
LINE
  5
B168
  8
0
 10
457.11668733048941
 20
552.12610546808321
 30
0.0
 11
457.11668733048941
 21
550.52610546808285
 31
0.0
  0
LINE
  5
B169
  8
0
 10
457.11668733048941
 20
552.12610546808321
 30
0.0
 11
458.87668733048929
 21
552.61610546808265
 31
0.0
  0
LINE
  5
B16A
  8
0
 10
458.87668733048929
 20
552.61610546808265
 30
0.0
 11
458.87668733048929
 21
549.97610546808289
 31
0.0
  0
LINE
  5
B16B
  8
0
 10
458.87668733048929
 20
549.97610546808289
 30
0.0
 11
457.11668733048941
 21
550.52610546808285
 31
0.0
  0
LINE
  5
B16C
  8
0
 10
457.11668733048941
 20
607.12610546808321
 30
0.0
 11
457.11668733048941
 21
605.52610546808273
 31
0.0
  0
LINE
  5
B16D
  8
0
 10
457.11668733048941
 20
607.12610546808321
 30
0.0
 11
458.87668733048929
 21
607.61610546808299
 31
0.0
  0
LINE
  5
B16E
  8
0
 10
458.87668733048929
 20
607.61610546808299
 30
0.0
 11
458.87668733048929
 21
604.97610546808312
 31
0.0
  0
LINE
  5
B16F
  8
0
 10
458.87668733048929
 20
604.97610546808312
 30
0.0
 11
457.11668733048941
 21
605.52610546808273
 31
0.0
  0
LINE
  5
B170
  8
0
 10
408.83356333048931
 20
604.97610546808312
 30
0.0
 11
408.83356333048931
 21
596.61610546808299
 31
0.0
  0
LINE
  5
B171
  8
0
 10
424.87668633048929
 20
604.97610546808312
 30
0.0
 11
424.87668633048929
 21
596.61610546808299
 31
0.0
  0
LINE
  5
B172
  8
0
 10
424.87668633048929
 20
593.97610546808312
 30
0.0
 11
424.87668633048929
 21
585.61610546808276
 31
0.0
  0
LINE
  5
B173
  8
0
 10
408.83356333048931
 20
593.97610546808312
 30
0.0
 11
408.83356333048931
 21
585.61610546808276
 31
0.0
  0
LINE
  5
B174
  8
0
 10
408.83356333048931
 20
582.97610546808301
 30
0.0
 11
408.83356333048931
 21
574.61610546808299
 31
0.0
  0
LINE
  5
B175
  8
0
 10
424.87668633048929
 20
582.97610546808301
 30
0.0
 11
424.87668633048929
 21
574.61610546808299
 31
0.0
  0
LINE
  5
B176
  8
0
 10
424.87668633048929
 20
571.97610546808312
 30
0.0
 11
424.87668633048929
 21
563.61610546808299
 31
0.0
  0
LINE
  5
B177
  8
0
 10
408.83356333048931
 20
571.97610546808312
 30
0.0
 11
408.83356333048931
 21
563.61610546808299
 31
0.0
  0
LINE
  5
B178
  8
0
 10
408.83356333048931
 20
560.97610546808312
 30
0.0
 11
408.83356333048931
 21
552.61610546808265
 31
0.0
  0
LINE
  5
B179
  8
0
 10
424.87668633048929
 20
560.97610546808312
 30
0.0
 11
424.87668633048929
 21
552.61610546808265
 31
0.0
  0
LINE
  5
B17A
  8
0
 10
424.87668633048929
 20
549.97610546808289
 30
0.0
 11
424.87668633048929
 21
534.18765946808287
 31
0.0
  0
LINE
  5
B17B
  8
0
 10
408.83356333048931
 20
549.97610546808289
 30
0.0
 11
408.83356333048931
 21
518.67103646808312
 31
0.0
  0
LINE
  5
B17C
  8
0
 10
458.43956033048931
 20
514.33665046808312
 30
0.0
 11
424.87668633048929
 21
514.33665046808312
 31
0.0
  0
LINE
  5
B17D
  8
0
 10
458.39839333048928
 20
506.9269084680833
 30
0.0
 11
457.73534733048928
 21
506.9269084680833
 31
0.0
  0
ARC
  5
B17E
  8
0
 10
455.21581533048931
 20
501.55521446808291
 30
0.0
 40
2.0
 50
270.0
 51
354.57098099999808
  0
ARC
  5
B17F
  8
0
 10
455.28265333048932
 20
495.64274346808321
 30
0.0
 40
2.0
 50
270.0
 51
354.40134699998811
  0
ARC
  5
B180
  8
0
 10
455.25962533048931
 20
490.20639046808321
 30
0.0
 40
2.0
 50
270.0
 51
353.9648860000006
  0
ARC
  5
B181
  8
0
 10
455.23387733048929
 20
486.21768546808289
 30
0.0
 40
2.0
 50
270.0
 51
353.61470100000639
  0
ARC
  5
B182
  8
0
 10
455.27027333048937
 20
483.70044246808322
 30
0.0
 40
2.0
 50
270.0
 51
353.32780000000452
  0
ARC
  5
B183
  8
0
 10
455.29086233048929
 20
482.50961246808322
 30
0.0
 40
2.0
 50
270.0
 51
353.11676000000108
  0
LINE
  5
B184
  8
0
 10
458.34745233048932
 20
500.39028846808287
 30
0.0
 11
457.7576273304893
 21
500.39028846808287
 31
0.0
  0
LINE
  5
B185
  8
0
 10
458.27642733048953
 20
495.42224546808308
 30
0.0
 11
457.82221233048932
 21
495.42224546808308
 31
0.0
  0
LINE
  5
B186
  8
0
 10
458.28835633048942
 20
492.28682546808261
 30
0.0
 11
457.92554833048928
 21
492.28682546808261
 31
0.0
  0
LINE
  5
B187
  8
0
 10
458.34847933048928
 20
491.15049746808302
 30
0.0
 11
458.15542733048932
 21
491.15049746808302
 31
0.0
  0
LINE
  5
B188
  8
0
 10
460.87668733048929
 20
539.07339946808281
 30
0.0
 11
444.37668733048929
 21
539.07339946808281
 31
0.0
  0
LINE
  5
B189
  8
0
 10
463.87668733048929
 20
528.89410746808278
 30
0.0
 11
446.37668733048929
 21
528.89410746808278
 31
0.0
  0
LINE
  5
B18A
  8
0
 10
463.87668733048929
 20
516.60682646808311
 30
0.0
 11
446.37668733048929
 21
516.60682646808311
 31
0.0
  0
LINE
  5
B18B
  8
0
 10
444.37668733048929
 20
538.07339946808281
 30
0.0
 11
444.37668733048929
 21
518.60682646808311
 31
0.0
  0
LINE
  5
B18C
  8
0
 10
460.87668733048929
 20
539.07339946808281
 30
0.0
 11
463.87668733048929
 21
540.80545046808265
 31
0.0
  0
ARC
  5
B18D
  8
0
 10
446.37668733048929
 20
530.89410746808301
 30
0.0
 40
2.0
 50
180.0
 51
270.0
  0
ARC
  5
B18E
  8
0
 10
446.37668733048929
 20
518.60682646808311
 30
0.0
 40
2.0
 50
180.0
 51
270.0
  0
ARC
  5
B18F
  8
0
 10
446.37668733048929
 20
526.89410746808301
 30
0.0
 40
2.0
 50
90.0
 51
180.0
  0
LINE
  5
B190
  8
0
 10
424.87668633048929
 20
522.77530946808292
 30
0.0
 11
424.87668633048929
 21
514.33665046808312
 31
0.0
  0
LINE
  5
B191
  8
0
 10
408.83356333048931
 20
518.67103646808312
 30
0.0
 11
424.87668633048929
 21
514.33665046808312
 31
0.0
  0
ARC
  5
B192
  8
0
 10
443.37668733048929
 20
538.07339946808281
 30
0.0
 40
1.0
 50
0.0
 51
90.0
  0
LINE
  5
B193
  8
0
 10
408.83356333048931
 20
518.67103646808312
 30
0.0
 11
356.87668733048929
 21
518.67103646808312
 31
0.0
  0
LINE
  5
B194
  8
0
 10
455.29086233048929
 20
480.50961246808322
 30
0.0
 11
263.40542033048939
 21
480.50961246808322
 31
0.0
  0
LINE
  5
B195
  8
0
 10
455.27027333048937
 20
481.70044246808288
 30
0.0
 11
263.4163603304894
 21
481.70044246808288
 31
0.0
  0
LINE
  5
B196
  8
0
 10
455.23387733048929
 20
484.21768546808278
 30
0.0
 11
263.42562433048943
 21
484.21768546808278
 31
0.0
  0
LINE
  5
B197
  8
0
 10
455.25962533048931
 20
488.20639046808321
 30
0.0
 11
263.43757333048939
 21
488.20639046808321
 31
0.0
  0
LINE
  5
B198
  8
0
 10
455.28265333048932
 20
493.6427434680831
 30
0.0
 11
263.45533733048939
 21
493.6427434680831
 31
0.0
  0
LINE
  5
B199
  8
0
 10
455.21581533048931
 20
499.55521446808291
 30
0.0
 11
263.46100533048929
 21
499.55521446808291
 31
0.0
  0
LINE
  5
B19A
  8
0
 10
408.83356333048931
 20
652.63358046808287
 30
0.0
 11
408.83356333048931
 21
638.65610546808296
 31
0.0
  0
LINE
  5
B19B
  8
0
 10
424.87668633048929
 20
657.23344246808313
 30
0.0
 11
424.87668633048929
 21
654.64889246808275
 31
0.0
  0
LINE
  5
B19C
  8
0
 10
395.3766873304894
 20
607.61610546808299
 30
0.0
 11
458.87668733048929
 21
607.61610546808299
 31
0.0
  0
LINE
  5
B19D
  8
0
 10
395.3766873304894
 20
607.12610546808321
 30
0.0
 11
457.11668733048941
 21
607.12610546808321
 31
0.0
  0
LINE
  5
B19E
  8
0
 10
395.3766873304894
 20
605.52610546808273
 30
0.0
 11
457.11668733048941
 21
605.52610546808273
 31
0.0
  0
LINE
  5
B19F
  8
0
 10
395.3766873304894
 20
604.97610546808312
 30
0.0
 11
458.87668733048929
 21
604.97610546808312
 31
0.0
  0
LINE
  5
B1A0
  8
0
 10
395.3766873304894
 20
552.61610546808265
 30
0.0
 11
458.87668733048929
 21
552.61610546808265
 31
0.0
  0
LINE
  5
B1A1
  8
0
 10
395.3766873304894
 20
552.12610546808321
 30
0.0
 11
457.11668733048941
 21
552.12610546808321
 31
0.0
  0
LINE
  5
B1A2
  8
0
 10
395.3766873304894
 20
550.52610546808285
 30
0.0
 11
457.11668733048941
 21
550.52610546808285
 31
0.0
  0
LINE
  5
B1A3
  8
0
 10
395.3766873304894
 20
549.97610546808289
 30
0.0
 11
458.87668733048929
 21
549.97610546808289
 31
0.0
  0
LINE
  5
B1A4
  8
0
 10
395.3766873304894
 20
582.97610546808301
 30
0.0
 11
458.87668733048929
 21
582.97610546808301
 31
0.0
  0
LINE
  5
B1A5
  8
0
 10
395.3766873304894
 20
583.52610546808273
 30
0.0
 11
457.11668733048941
 21
583.52610546808273
 31
0.0
  0
LINE
  5
B1A6
  8
0
 10
395.3766873304894
 20
563.61610546808299
 30
0.0
 11
458.87668733048929
 21
563.61610546808299
 31
0.0
  0
LINE
  5
B1A7
  8
0
 10
395.3766873304894
 20
563.12610546808332
 30
0.0
 11
457.11668733048941
 21
563.12610546808332
 31
0.0
  0
LINE
  5
B1A8
  8
0
 10
395.3766873304894
 20
561.52610546808285
 30
0.0
 11
457.11668733048941
 21
561.52610546808285
 31
0.0
  0
LINE
  5
B1A9
  8
0
 10
395.3766873304894
 20
560.97610546808312
 30
0.0
 11
458.87668733048929
 21
560.97610546808312
 31
0.0
  0
LINE
  5
B1AA
  8
0
 10
395.3766873304894
 20
574.61610546808299
 30
0.0
 11
458.87668733048929
 21
574.61610546808299
 31
0.0
  0
LINE
  5
B1AB
  8
0
 10
395.3766873304894
 20
574.12610546808321
 30
0.0
 11
457.11668733048941
 21
574.12610546808321
 31
0.0
  0
LINE
  5
B1AC
  8
0
 10
395.3766873304894
 20
572.52610546808273
 30
0.0
 11
457.11668733048941
 21
572.52610546808273
 31
0.0
  0
LINE
  5
B1AD
  8
0
 10
395.3766873304894
 20
571.97610546808312
 30
0.0
 11
458.87668733048929
 21
571.97610546808312
 31
0.0
  0
LINE
  5
B1AE
  8
0
 10
395.3766873304894
 20
596.61610546808299
 30
0.0
 11
458.87668733048929
 21
596.61610546808299
 31
0.0
  0
LINE
  5
B1AF
  8
0
 10
395.3766873304894
 20
596.12610546808298
 30
0.0
 11
457.11668733048941
 21
596.12610546808298
 31
0.0
  0
LINE
  5
B1B0
  8
0
 10
395.3766873304894
 20
594.52610546808273
 30
0.0
 11
457.11668733048941
 21
594.52610546808273
 31
0.0
  0
LINE
  5
B1B1
  8
0
 10
395.3766873304894
 20
593.97610546808312
 30
0.0
 11
458.87668733048929
 21
593.97610546808312
 31
0.0
  0
LINE
  5
B1B2
  8
0
 10
395.3766873304894
 20
585.61610546808276
 30
0.0
 11
458.87668733048929
 21
585.61610546808276
 31
0.0
  0
LINE
  5
B1B3
  8
0
 10
395.3766873304894
 20
585.12610546808332
 30
0.0
 11
457.11668733048941
 21
585.12610546808332
 31
0.0
  0
LINE
  5
B1B4
  8
0
 10
460.87668733048929
 20
490.79610546808311
 30
0.0
 11
460.87668733048929
 21
516.60682646808311
 31
0.0
  0
LINE
  5
B1B5
  8
0
 10
458.30569833048929
 20
490.79610546808311
 30
0.0
 11
460.87668733048929
 21
490.79610546808311
 31
0.0
  0
LINE
  5
B1B6
  8
0
 10
458.87668733048929
 20
638.65610546808296
 30
0.0
 11
457.11668733048941
 21
638.09610546808301
 31
0.0
  0
LINE
  5
B1B7
  8
0
 10
457.11668733048941
 20
636.4961054680831
 30
0.0
 11
458.87668733048929
 21
635.95610546808314
 31
0.0
  0
LINE
  5
B1B8
  8
0
 10
458.87668733048929
 20
635.95610546808314
 30
0.0
 11
458.87668733048929
 21
638.65610546808296
 31
0.0
  0
LINE
  5
B1B9
  8
0
 10
457.11668733048941
 20
636.4961054680831
 30
0.0
 11
457.11668733048941
 21
638.09610546808301
 31
0.0
  0
LINE
  5
B1BA
  8
0
 10
458.87668733048929
 20
630.61110546808288
 30
0.0
 11
457.11668733048941
 21
630.07110546808292
 31
0.0
  0
LINE
  5
B1BB
  8
0
 10
457.11668733048941
 20
628.47110546808301
 30
0.0
 11
458.87668733048929
 21
627.98110546808266
 31
0.0
  0
LINE
  5
B1BC
  8
0
 10
457.11668733048941
 20
628.47110546808301
 30
0.0
 11
457.11668733048941
 21
630.07110546808292
 31
0.0
  0
LINE
  5
B1BD
  8
0
 10
458.87668733048929
 20
627.98110546808266
 30
0.0
 11
458.87668733048929
 21
630.61110546808288
 31
0.0
  0
LINE
  5
B1BE
  8
0
 10
393.8766873304894
 20
638.92029246808272
 30
0.0
 11
392.25477833048927
 21
655.98603546808272
 31
0.0
  0
LINE
  5
B1BF
  8
0
 10
393.8766873304894
 20
645.46122846808294
 30
0.0
 11
392.25616433048941
 21
661.99259646808275
 31
0.0
  0
LINE
  5
B1C0
  8
0
 10
144.93522033048939
 20
644.12807546808301
 30
0.0
 11
149.93631833048931
 21
672.49068546808314
 31
0.0
  0
LINE
  5
B1C1
  8
0
 10
152.6565333304894
 20
669.36184046808296
 30
0.0
 11
152.6565333304894
 21
580.47399346808299
 31
0.0
  0
ARC
  5
B1C2
  8
0
 10
153.87555833048941
 20
671.79610546808328
 30
0.0
 40
4.0
 50
90.0
 51
170.00018299999641
  0
LINE
  5
B1C3
  8
0
 10
144.8766873304894
 20
636.39608146808268
 30
0.0
 11
144.8766873304894
 21
550.08507746808311
 31
0.0
  0
ARC
  5
B1C4
  8
0
 10
145.8766873304894
 20
640.79610546808317
 30
0.0
 40
3.0
 50
118.7876889999966
 51
180.0
  0
LINE
  5
B1C5
  8
0
 10
142.8766873304894
 20
640.79610546808317
 30
0.0
 11
142.8766873304894
 21
528.94439146808293
 31
0.0
  0
LINE
  5
B1C6
  8
0
 10
152.6565333304894
 20
568.61548046808332
 30
0.0
 11
152.900874607508
 21
483.102545024194
 31
0.0
  0
LINE
  5
B1C7
  8
0
 10
146.5647063304894
 20
504.22278346808281
 30
0.0
 11
149.9865958987844
 21
485.10120840350601
 31
0.0
  0
ARC
  5
B1C8
  8
0
 10
153.9258289474684
 20
485.79578956374218
 30
0.0
 40
4.0
 50
189.9998320000029
 51
270.720092503339
  0
ARC
  5
B1C9
  8
0
 10
143.9504173304893
 20
644.30178146808294
 30
0.0
 40
1.0
 50
298.7879640000001
 51
350.00021399998928
  0
LINE
  5
B1CA
  8
0
 10
146.93405233048941
 20
571.8321274680826
 30
0.0
 11
139.89002333048941
 21
497.37432446808299
 31
0.0
  0
LINE
  5
B1CB
  8
0
 10
152.90738133048939
 20
571.26702446808315
 30
0.0
 11
145.86335133048939
 21
496.80922146808291
 31
0.0
  0
ARC
  5
B1CC
  8
0
 10
157.8851553304894
 20
570.79610546808328
 30
0.0
 40
5.0
 50
90.0
 51
174.59565699998839
  0
ARC
  5
B1CD
  8
0
 10
157.8851553304894
 20
570.79610546808328
 30
0.0
 40
11.0
 50
90.0
 51
174.59565699998839
  0
ARC
  5
B1CE
  8
0
 10
142.8766873304894
 20
497.09177246808298
 30
0.0
 40
3.0
 50
174.59565699998839
 51
354.59565700001451
  0
ARC
  5
B1CF
  8
0
 10
142.8766873304894
 20
497.09177246808298
 30
0.0
 40
3.799999999999998
 50
219.99999999999491
 51
32.14057199998679
  0
LINE
  5
B1D0
  8
0
 10
137.49293433048931
 20
498.4486004680831
 30
0.0
 11
139.9074773304894
 21
494.72791446808287
 31
0.0
  0
LINE
  5
B1D1
  8
0
 10
138.11039733048929
 20
498.96671346808313
 30
0.0
 11
140.5785543304894
 21
495.1634094680831
 31
0.0
  0
LINE
  5
B1D2
  8
0
 10
138.11039733048929
 20
498.96671346808313
 30
0.0
 11
137.49293433048931
 21
498.4486004680831
 31
0.0
  0
LINE
  5
B1D3
  8
0
 10
261.1413663304894
 20
652.63358046808287
 30
0.0
 11
259.8766873304894
 21
652.63358046808287
 31
0.0
  0
LINE
  5
B1D4
  8
0
 10
259.8766873304894
 20
638.65610546808296
 30
0.0
 11
261.63668733048939
 21
638.09610546808301
 31
0.0
  0
LINE
  5
B1D5
  8
0
 10
261.63668733048939
 20
636.4961054680831
 30
0.0
 11
259.8766873304894
 21
635.95610546808314
 31
0.0
  0
LINE
  5
B1D6
  8
0
 10
259.8766873304894
 20
630.61110546808288
 30
0.0
 11
261.63668733048939
 21
630.07110546808292
 31
0.0
  0
LINE
  5
B1D7
  8
0
 10
261.63668733048939
 20
628.47110546808301
 30
0.0
 11
259.8766873304894
 21
627.98110546808266
 31
0.0
  0
LINE
  5
B1D8
  8
0
 10
259.8766873304894
 20
635.95610546808314
 30
0.0
 11
259.8766873304894
 21
638.65610546808296
 31
0.0
  0
LINE
  5
B1D9
  8
0
 10
261.63668733048939
 20
636.4961054680831
 30
0.0
 11
261.63668733048939
 21
638.09610546808301
 31
0.0
  0
LINE
  5
B1DA
  8
0
 10
261.63668733048939
 20
628.47110546808301
 30
0.0
 11
261.63668733048939
 21
630.07110546808292
 31
0.0
  0
LINE
  5
B1DB
  8
0
 10
259.8766873304894
 20
627.98110546808266
 30
0.0
 11
259.8766873304894
 21
630.61110546808288
 31
0.0
  0
LINE
  5
B1DC
  8
0
 10
306.3766873304894
 20
546.2961054680834
 30
0.0
 11
306.3766873304894
 21
611.29610546808317
 31
0.0
  0
LINE
  5
B1DD
  8
0
 10
305.8766873304894
 20
606.79610546808317
 30
0.0
 11
305.8766873304894
 21
596.79610546808328
 31
0.0
  0
ARC
  5
B1DE
  8
0
 10
306.37723433048939
 20
606.7955584680833
 30
0.0
 40
0.5005470000000001
 50
90.0626249999995
 51
179.9373749999875
  0
ARC
  5
B1DF
  8
0
 10
309.87718633048939
 20
611.29560646808295
 30
0.0
 40
3.5004989999999978
 50
90.008164000001173
 51
179.99183600000529
  0
LINE
  5
B1E0
  8
0
 10
310.79668733048931
 20
612.69610546808292
 30
0.0
 11
378.50668733048929
 21
612.69610546808292
 31
0.0
  0
LINE
  5
B1E1
  8
0
 10
310.79668733048931
 20
612.69610546808292
 30
0.0
 11
310.79668733048931
 21
614.79110546808306
 31
0.0
  0
LINE
  5
B1E2
  8
0
 10
309.8766873304894
 20
614.79610546808317
 30
0.0
 11
393.37668733048929
 21
614.79610546808317
 31
0.0
  0
LINE
  5
B1E3
  8
0
 10
378.50668733048929
 20
612.69610546808292
 30
0.0
 11
388.77668733048932
 21
602.42610546808294
 31
0.0
  0
LINE
  5
B1E4
  8
0
 10
380.39668733048933
 20
613.76610546808308
 30
0.0
 11
389.84668733048949
 21
604.3161054680827
 31
0.0
  0
CIRCLE
  5
B1E5
  8
0
 10
389.87668733048929
 20
609.79610546808317
 30
0.0
 40
3.5
  0
CIRCLE
  5
B1E6
  8
0
 10
389.87668733048929
 20
609.79610546808317
 30
0.0
 40
3.299999999999998
  0
LINE
  5
B1E7
  8
0
 10
391.3066873304893
 20
610.47154446808293
 30
0.0
 11
392.88682433048939
 21
610.47154446808293
 31
0.0
  0
LINE
  5
B1E8
  8
0
 10
391.3066873304893
 20
609.12066646808296
 30
0.0
 11
392.88682433048939
 21
609.12066646808296
 31
0.0
  0
LINE
  5
B1E9
  8
0
 10
386.64655033048939
 20
610.25154446808313
 30
0.0
 11
386.64655033048939
 21
609.34066646808299
 31
0.0
  0
ARC
  5
B1EA
  8
0
 10
386.86655033048942
 20
609.34066646808299
 30
0.0
 40
0.22
 50
180.0
 51
270.0
  0
LINE
  5
B1EB
  8
0
 10
391.3066873304893
 20
609.12066646808296
 30
0.0
 11
390.64668733048933
 21
609.12066646808296
 31
0.0
  0
ARC
  5
B1EC
  8
0
 10
391.3066873304893
 20
609.34066646808299
 30
0.0
 40
0.22
 50
270.0
 51
0.0
  0
LINE
  5
B1ED
  8
0
 10
390.4266873304893
 20
608.36610546808276
 30
0.0
 11
390.4266873304893
 21
608.90066646808293
 31
0.0
  0
LINE
  5
B1EE
  8
0
 10
389.32668733048951
 20
608.36610546808276
 30
0.0
 11
389.32668733048951
 21
608.90066646808293
 31
0.0
  0
LINE
  5
B1EF
  8
0
 10
389.10668733048942
 20
609.12066646808296
 30
0.0
 11
388.44668733048951
 21
609.12066646808296
 31
0.0
  0
ARC
  5
B1F0
  8
0
 10
388.44668733048951
 20
609.34066646808299
 30
0.0
 40
0.22
 50
180.0
 51
270.0
  0
ARC
  5
B1F1
  8
0
 10
390.64668733048933
 20
608.90066646808293
 30
0.0
 40
0.22
 50
90.0
 51
180.0
  0
ARC
  5
B1F2
  8
0
 10
389.10668733048942
 20
608.90066646808293
 30
0.0
 40
0.22
 50
0.0
 51
90.0
  0
LINE
  5
B1F3
  8
0
 10
389.54668733048942
 20
608.14610546808331
 30
0.0
 11
390.2066873304895
 21
608.14610546808331
 31
0.0
  0
ARC
  5
B1F4
  8
0
 10
389.54668733048942
 20
608.36610546808276
 30
0.0
 40
0.22
 50
180.0
 51
270.0
  0
ARC
  5
B1F5
  8
0
 10
390.2066873304895
 20
608.36610546808276
 30
0.0
 40
0.22
 50
270.0
 51
0.0
  0
LINE
  5
B1F6
  8
0
 10
388.44668733048951
 20
609.12066646808296
 30
0.0
 11
386.86655033048942
 21
609.12066646808296
 31
0.0
  0
LINE
  5
B1F7
  8
0
 10
390.64668733048933
 20
610.47154446808293
 30
0.0
 11
391.3066873304893
 21
610.47154446808293
 31
0.0
  0
ARC
  5
B1F8
  8
0
 10
391.3066873304893
 20
610.25154446808313
 30
0.0
 40
0.22
 50
0.0
 51
90.0
  0
ARC
  5
B1F9
  8
0
 10
389.54668733048942
 20
611.22610546808312
 30
0.0
 40
0.22
 50
90.0
 51
180.0
  0
ARC
  5
B1FA
  8
0
 10
390.2066873304895
 20
611.22610546808312
 30
0.0
 40
0.22
 50
0.0
 51
90.0
  0
LINE
  5
B1FB
  8
0
 10
388.44668733048951
 20
610.47154446808293
 30
0.0
 11
386.86655033048942
 21
610.47154446808293
 31
0.0
  0
ARC
  5
B1FC
  8
0
 10
390.64668733048933
 20
610.69154446808272
 30
0.0
 40
0.22
 50
180.0
 51
270.0
  0
ARC
  5
B1FD
  8
0
 10
389.10668733048942
 20
610.69154446808272
 30
0.0
 40
0.22
 50
270.0
 51
0.0
  0
LINE
  5
B1FE
  8
0
 10
388.44668733048951
 20
610.47154446808293
 30
0.0
 11
389.10668733048942
 21
610.47154446808293
 31
0.0
  0
ARC
  5
B1FF
  8
0
 10
388.44668733048951
 20
610.25154446808313
 30
0.0
 40
0.22
 50
90.0
 51
180.0
  0
LINE
  5
B200
  8
0
 10
390.4266873304893
 20
611.22610546808312
 30
0.0
 11
390.4266873304893
 21
610.69154446808272
 31
0.0
  0
LINE
  5
B201
  8
0
 10
389.32668733048951
 20
610.69154446808272
 30
0.0
 11
389.32668733048951
 21
611.22610546808312
 31
0.0
  0
LINE
  5
B202
  8
0
 10
389.54668733048942
 20
611.44610546808292
 30
0.0
 11
390.2066873304895
 21
611.44610546808292
 31
0.0
  0
ARC
  5
B203
  8
0
 10
386.86655033048942
 20
610.25154446808313
 30
0.0
 40
0.22
 50
90.0
 51
180.0
  0
LINE
  5
B204
  8
0
 10
388.22668733048943
 20
609.34066646808299
 30
0.0
 11
388.22668733048943
 21
610.25154446808313
 31
0.0
  0
LINE
  5
B205
  8
0
 10
391.52668733048932
 20
609.34066646808299
 30
0.0
 11
391.52668733048932
 21
610.25154446808313
 31
0.0
  0
ARC
  5
B206
  8
0
 10
377.91464233048941
 20
611.29061746808293
 30
0.0
 40
3.5055079999999998
 50
44.924208999994107
 51
89.803122999998919
  0
LINE
  5
B207
  8
0
 10
395.3766873304894
 20
612.79610546808328
 30
0.0
 11
395.3766873304894
 21
605.29610546808328
 31
0.0
  0
ARC
  5
B208
  8
0
 10
392.88682433048939
 20
609.34066646808299
 30
0.0
 40
0.22
 50
270.0
 51
0.0
  0
ARC
  5
B209
  8
0
 10
392.88682433048939
 20
610.25154446808313
 30
0.0
 40
0.22
 50
0.0
 51
90.0
  0
LINE
  5
B20A
  8
0
 10
393.10682433048942
 20
609.34066646808299
 30
0.0
 11
393.10682433048942
 21
610.25154446808313
 31
0.0
  0
ARC
  5
B20B
  8
0
 10
393.37668733048929
 20
612.79610546808328
 30
0.0
 40
2.0
 50
0.0
 51
90.0
  0
LINE
  5
B20C
  8
0
 10
388.77668733048932
 20
602.42610546808294
 30
0.0
 11
388.77668733048932
 21
555.16610546808283
 31
0.0
  0
LINE
  5
B20D
  8
0
 10
390.8766873304894
 20
601.8461054680829
 30
0.0
 11
390.8766873304894
 21
555.7461054680831
 31
0.0
  0
ARC
  5
B20E
  8
0
 10
392.8766873304894
 20
601.29610546808317
 30
0.0
 40
2.0
 50
90.0
 51
180.0
  0
ARC
  5
B20F
  8
0
 10
387.37168333048942
 20
601.8342614680829
 30
0.0
 40
3.5050239999999979
 50
0.1936060000054425
 51
45.079061999992497
  0
ARC
  5
B210
  8
0
 10
393.37668733048929
 20
605.29610546808328
 30
0.0
 40
2.0
 50
270.0
 51
0.0
  0
LINE
  5
B211
  8
0
 10
393.37668733048929
 20
603.29610546808317
 30
0.0
 11
392.8766873304894
 21
603.29610546808317
 31
0.0
  0
ARC
  5
B212
  8
0
 10
390.86917833048938
 20
583.78859646808326
 30
0.0
 40
0.507564
 50
0.8476510000084681
 51
89.152348999997997
  0
LINE
  5
B213
  8
0
 10
391.3766873304894
 20
583.79610546808328
 30
0.0
 11
391.3766873304894
 21
573.79610546808317
 31
0.0
  0
ARC
  5
B214
  8
0
 10
390.87712133048927
 20
573.79567146808267
 30
0.0
 40
0.499566
 50
269.95018499999878
 51
0.0498150000076779
  0
LINE
  5
B215
  8
0
 10
389.84668733048949
 20
553.26610546808286
 30
0.0
 11
380.39668733048933
 21
543.8161054680827
 31
0.0
  0
LINE
  5
B216
  8
0
 10
388.77668733048932
 20
555.16610546808283
 30
0.0
 11
378.50668733048929
 21
544.89610546808319
 31
0.0
  0
ARC
  5
B217
  8
0
 10
392.8766873304894
 20
556.29610546808306
 30
0.0
 40
2.0
 50
180.0
 51
270.0
  0
ARC
  5
B218
  8
0
 10
387.37343233048932
 20
555.74719546808285
 30
0.0
 40
3.5032559999999981
 50
314.90939600000848
 51
359.98217399998191
  0
LINE
  5
B219
  8
0
 10
386.64655033048939
 20
548.25154446808313
 30
0.0
 11
386.64655033048939
 21
547.34066646808299
 31
0.0
  0
ARC
  5
B21A
  8
0
 10
390.2066873304895
 20
549.22610546808312
 30
0.0
 40
0.22
 50
0.0
 51
90.0
  0
ARC
  5
B21B
  8
0
 10
389.54668733048942
 20
549.22610546808312
 30
0.0
 40
0.22
 50
90.0
 51
180.0
  0
LINE
  5
B21C
  8
0
 10
389.54668733048942
 20
549.44610546808292
 30
0.0
 11
390.2066873304895
 21
549.44610546808292
 31
0.0
  0
LINE
  5
B21D
  8
0
 10
391.3066873304893
 20
548.47154446808293
 30
0.0
 11
392.88682433048939
 21
548.47154446808293
 31
0.0
  0
ARC
  5
B21E
  8
0
 10
386.86655033048942
 20
548.25154446808313
 30
0.0
 40
0.22
 50
90.0
 51
180.0
  0
ARC
  5
B21F
  8
0
 10
392.88682433048939
 20
548.25154446808313
 30
0.0
 40
0.22
 50
0.0
 51
90.0
  0
ARC
  5
B220
  8
0
 10
389.10668733048942
 20
548.69154446808284
 30
0.0
 40
0.22
 50
270.0
 51
0.0
  0
ARC
  5
B221
  8
0
 10
390.64668733048933
 20
548.69154446808284
 30
0.0
 40
0.22
 50
180.0
 51
270.0
  0
LINE
  5
B222
  8
0
 10
391.3066873304893
 20
548.47154446808293
 30
0.0
 11
390.64668733048933
 21
548.47154446808293
 31
0.0
  0
ARC
  5
B223
  8
0
 10
388.44668733048951
 20
548.25154446808313
 30
0.0
 40
0.22
 50
90.0
 51
180.0
  0
LINE
  5
B224
  8
0
 10
388.44668733048951
 20
548.47154446808293
 30
0.0
 11
386.86655033048942
 21
548.47154446808293
 31
0.0
  0
LINE
  5
B225
  8
0
 10
389.10668733048942
 20
548.47154446808293
 30
0.0
 11
388.44668733048951
 21
548.47154446808293
 31
0.0
  0
ARC
  5
B226
  8
0
 10
391.3066873304893
 20
548.25154446808313
 30
0.0
 40
0.22
 50
0.0
 51
90.0
  0
LINE
  5
B227
  8
0
 10
389.32668733048951
 20
549.22610546808312
 30
0.0
 11
389.32668733048951
 21
548.69154446808284
 31
0.0
  0
LINE
  5
B228
  8
0
 10
390.4266873304893
 20
549.22610546808312
 30
0.0
 11
390.4266873304893
 21
548.69154446808284
 31
0.0
  0
LINE
  5
B229
  8
0
 10
391.3066873304893
 20
547.12066646808285
 30
0.0
 11
392.88682433048939
 21
547.12066646808285
 31
0.0
  0
ARC
  5
B22A
  8
0
 10
386.86655033048942
 20
547.34066646808299
 30
0.0
 40
0.22
 50
180.0
 51
270.0
  0
LINE
  5
B22B
  8
0
 10
389.32668733048951
 20
546.90066646808293
 30
0.0
 11
389.32668733048951
 21
546.36610546808265
 31
0.0
  0
LINE
  5
B22C
  8
0
 10
390.4266873304893
 20
546.36610546808265
 30
0.0
 11
390.4266873304893
 21
546.90066646808293
 31
0.0
  0
ARC
  5
B22D
  8
0
 10
389.54668733048942
 20
546.36610546808265
 30
0.0
 40
0.22
 50
180.0
 51
270.0
  0
ARC
  5
B22E
  8
0
 10
390.2066873304895
 20
546.36610546808265
 30
0.0
 40
0.22
 50
270.0
 51
0.0
  0
LINE
  5
B22F
  8
0
 10
389.54668733048942
 20
546.14610546808319
 30
0.0
 11
390.2066873304895
 21
546.14610546808319
 31
0.0
  0
LINE
  5
B230
  8
0
 10
390.64668733048933
 20
547.12066646808285
 30
0.0
 11
391.3066873304893
 21
547.12066646808285
 31
0.0
  0
ARC
  5
B231
  8
0
 10
388.44668733048951
 20
547.34066646808299
 30
0.0
 40
0.22
 50
180.0
 51
270.0
  0
LINE
  5
B232
  8
0
 10
388.44668733048951
 20
547.12066646808285
 30
0.0
 11
386.86655033048942
 21
547.12066646808285
 31
0.0
  0
LINE
  5
B233
  8
0
 10
388.44668733048951
 20
547.12066646808285
 30
0.0
 11
389.10668733048942
 21
547.12066646808285
 31
0.0
  0
ARC
  5
B234
  8
0
 10
391.3066873304893
 20
547.34066646808299
 30
0.0
 40
0.22
 50
270.0
 51
0.0
  0
ARC
  5
B235
  8
0
 10
389.10668733048942
 20
546.90066646808293
 30
0.0
 40
0.22
 50
0.0
 51
90.0
  0
ARC
  5
B236
  8
0
 10
390.64668733048933
 20
546.90066646808293
 30
0.0
 40
0.22
 50
90.0
 51
180.0
  0
ARC
  5
B237
  8
0
 10
392.88682433048939
 20
547.34066646808299
 30
0.0
 40
0.22
 50
270.0
 51
0.0
  0
LINE
  5
B238
  8
0
 10
391.52668733048932
 20
548.25154446808313
 30
0.0
 11
391.52668733048932
 21
547.34066646808299
 31
0.0
  0
LINE
  5
B239
  8
0
 10
393.10682433048942
 20
548.25154446808313
 30
0.0
 11
393.10682433048942
 21
547.34066646808299
 31
0.0
  0
LINE
  5
B23A
  8
0
 10
388.22668733048943
 20
548.25154446808313
 30
0.0
 11
388.22668733048943
 21
547.34066646808299
 31
0.0
  0
CIRCLE
  5
B23B
  8
0
 10
389.87668733048929
 20
547.79610546808306
 30
0.0
 40
3.299999999999998
  0
CIRCLE
  5
B23C
  8
0
 10
389.87668733048929
 20
547.79610546808306
 30
0.0
 40
3.5
  0
ARC
  5
B23D
  8
0
 10
393.37668733048929
 20
552.29610546808306
 30
0.0
 40
2.0
 50
0.0
 51
90.0
  0
LINE
  5
B23E
  8
0
 10
395.3766873304894
 20
544.79610546808306
 30
0.0
 11
395.3766873304894
 21
552.29610546808306
 31
0.0
  0
LINE
  5
B23F
  8
0
 10
393.37668733048929
 20
554.2961054680834
 30
0.0
 11
392.8766873304894
 21
554.2961054680834
 31
0.0
  0
ARC
  5
B240
  8
0
 10
393.37668733048929
 20
544.79610546808306
 30
0.0
 40
2.0
 50
270.0
 51
0.0
  0
LINE
  5
B241
  8
0
 10
378.50668733048929
 20
544.89610546808319
 30
0.0
 11
310.79668733048931
 21
544.89610546808319
 31
0.0
  0
LINE
  5
B242
  8
0
 10
309.8766873304894
 20
542.79610546808328
 30
0.0
 11
393.37668733048929
 21
542.79610546808328
 31
0.0
  0
ARC
  5
B243
  8
0
 10
377.92874733048939
 20
546.29175346808324
 30
0.0
 40
3.495648999999998
 50
269.96623299999862
 51
314.91065800000843
  0
LINE
  5
B244
  8
0
 10
310.79668733048931
 20
544.89610546808319
 30
0.0
 11
310.79668733048931
 21
542.79610546808328
 31
0.0
  0
LINE
  5
B245
  8
0
 10
305.8766873304894
 20
560.79610546808306
 30
0.0
 11
305.8766873304894
 21
550.79610546808328
 31
0.0
  0
ARC
  5
B246
  8
0
 10
306.37723433048939
 20
560.79555846808319
 30
0.0
 40
0.5005470000000001
 50
90.0626249999995
 51
179.9373749999875
  0
ARC
  5
B247
  8
0
 10
306.3693313304895
 20
550.78874946808321
 30
0.0
 40
0.492699
 50
179.14456000001019
 51
270.85544000000289
  0
ARC
  5
B248
  8
0
 10
309.86933133048939
 20
546.28874946808321
 30
0.0
 40
3.4926519999999979
 50
179.87932800000809
 51
270.12067199999842
  0
ARC
  5
B249
  8
0
 10
306.36917933048937
 20
596.78859746808314
 30
0.0
 40
0.492549
 50
179.12656199998949
 51
270.87343799999729
  0
LINE
  5
B24A
  8
0
 10
259.8766873304894
 20
617.51554046808326
 30
0.0
 11
392.37668733048929
 21
617.51554046808326
 31
0.0
  0
LINE
  5
B24B
  8
0
 10
268.24668733048941
 20
616.66376746808294
 30
0.0
 11
317.8766873304894
 21
616.66376746808294
 31
0.0
  0
LINE
  5
B24C
  8
0
 10
259.8766873304894
 20
617.51554046808326
 30
0.0
 11
268.24668733048941
 21
616.66376746808294
 31
0.0
  0
LINE
  5
B24D
  8
0
 10
266.55179333048932
 20
540.07667046808297
 30
0.0
 11
392.37668733048929
 21
540.07667046808297
 31
0.0
  0
LINE
  5
B24E
  8
0
 10
268.24668733048941
 20
540.92844346808317
 30
0.0
 11
317.8766873304894
 21
540.92844346808317
 31
0.0
  0
LINE
  5
B24F
  8
0
 10
259.8766873304894
 20
544.43731646808294
 30
0.0
 11
259.8766873304894
 21
617.51554046808326
 31
0.0
  0
LINE
  5
B250
  8
0
 10
265.33986333048938
 20
540.63263046808277
 30
0.0
 11
268.24668733048941
 21
540.92844346808317
 31
0.0
  0
LINE
  5
B251
  8
0
 10
268.24668733048941
 20
540.92844346808317
 30
0.0
 11
268.24668733048941
 21
616.66376746808294
 31
0.0
  0
ARC
  5
B252
  8
0
 10
392.37668733048929
 20
614.51554046808315
 30
0.0
 40
3.0
 50
0.0
 51
90.0
  0
LINE
  5
B253
  8
0
 10
395.3766873304894
 20
614.51554046808315
 30
0.0
 11
395.3766873304894
 21
543.07667046808331
 31
0.0
  0
ARC
  5
B254
  8
0
 10
392.37668733048929
 20
543.07667046808331
 30
0.0
 40
3.0
 50
270.0
 51
0.0
  0
LINE
  5
B255
  8
0
 10
321.3766873304894
 20
616.29610546808328
 30
0.0
 11
392.37668733048929
 21
616.29610546808328
 31
0.0
  0
LINE
  5
B256
  8
0
 10
318.8766873304894
 20
615.66376746808294
 30
0.0
 11
318.8766873304894
 21
614.79610546808317
 31
0.0
  0
ARC
  5
B257
  8
0
 10
321.37141433048942
 20
614.30137846808293
 30
0.0
 40
1.994734
 50
89.848547999999084
 51
165.63982299999881
  0
ARC
  5
B258
  8
0
 10
317.8766873304894
 20
615.66376746808294
 30
0.0
 40
1.0
 50
0.0
 51
90.0
  0
ARC
  5
B259
  8
0
 10
392.37615533048933
 20
614.29557346808315
 30
0.0
 40
2.0005329999999999
 50
6.9164319999882631
 51
89.984749999998257
  0
ARC
  5
B25A
  8
0
 10
317.8766873304894
 20
541.92844346808306
 30
0.0
 40
1.0
 50
270.0
 51
0.0
  0
ARC
  5
B25B
  8
0
 10
321.37141433048942
 20
543.29083246808295
 30
0.0
 40
1.994734
 50
194.36017700000119
 51
270.15145200000092
  0
LINE
  5
B25C
  8
0
 10
321.3766873304894
 20
541.2961054680834
 30
0.0
 11
392.37668733048929
 21
541.2961054680834
 31
0.0
  0
ARC
  5
B25D
  8
0
 10
392.37615533048933
 20
543.2966374680833
 30
0.0
 40
2.0005329999999999
 50
270.01524999999521
 51
353.08356800001172
  0
LINE
  5
B25E
  8
0
 10
257.3766873304894
 20
662.41640246808311
 30
0.0
 11
260.15344633048937
 21
662.41640246808311
 31
0.0
  0
LINE
  5
B25F
  8
0
  6
AM_ISO08W050
 10
240.8766873304894
 20
589.49550646808314
 30
0.0
 11
240.8766873304894
 21
567.81310546808311
 31
0.0
  0
LINE
  5
B260
  8
0
 10
226.3766873304894
 20
581.29610546808317
 30
0.0
 11
257.3766873304894
 21
581.29610546808317
 31
0.0
  0
ARC
  5
B261
  8
0
 10
240.8766873304894
 20
578.79610546808328
 30
0.0
 40
9.0
 50
16.12762000000772
 51
163.8723910000096
  0
ARC
  5
B262
  8
0
 10
240.8766873304894
 20
578.79610546808328
 30
0.0
 40
5.5
 50
27.035691999997152
 51
152.9643080000028
  0
LINE
  5
B263
  8
0
 10
226.3766873304894
 20
576.29610546808317
 30
0.0
 11
257.3766873304894
 21
576.29610546808317
 31
0.0
  0
ARC
  5
B264
  8
0
 10
240.8766873304894
 20
578.79610546808328
 30
0.0
 40
9.0
 50
196.12760899999029
 51
343.87237999999229
  0
ARC
  5
B265
  8
0
 10
240.8766873304894
 20
578.79610546808328
 30
0.0
 40
5.5
 50
207.0356919999972
 51
332.96430800000292
  0
LINE
  5
B266
  8
0
 10
257.3766873304894
 20
675.79610546808328
 30
0.0
 11
257.3766873304894
 21
581.29610546808317
 31
0.0
  0
LINE
  5
B267
  8
0
 10
226.3766873304894
 20
581.29610546808317
 30
0.0
 11
225.8766873304894
 21
581.79610546808317
 31
0.0
  0
LINE
  5
B268
  8
0
 10
226.3766873304894
 20
576.29610546808317
 30
0.0
 11
225.8766873304894
 21
575.79610546808328
 31
0.0
  0
LINE
  5
B269
  8
0
 10
257.3766873304894
 20
581.29610546808317
 30
0.0
 11
257.8766873304894
 21
581.79610546808317
 31
0.0
  0
LINE
  5
B26A
  8
0
 10
257.3766873304894
 20
576.29610546808317
 30
0.0
 11
257.8766873304894
 21
575.79610546808328
 31
0.0
  0
LINE
  5
B26B
  8
0
 10
257.8766873304894
 20
581.79610546808317
 30
0.0
 11
259.8766873304894
 21
581.79610546808317
 31
0.0
  0
LINE
  5
B26C
  8
0
 10
257.8766873304894
 20
575.79610546808328
 30
0.0
 11
259.8766873304894
 21
575.79610546808328
 31
0.0
  0
LINE
  5
B26D
  8
0
 10
259.8766873304894
 20
581.79610546808317
 30
0.0
 11
259.8766873304894
 21
575.79610546808328
 31
0.0
  0
LINE
  5
B26E
  8
0
 10
345.87668733048929
 20
679.79610546808328
 30
0.0
 11
367.8766873304894
 21
679.79610546808328
 31
0.0
  0
LINE
  5
B26F
  8
0
 10
345.87668733048929
 20
679.79610546808328
 30
0.0
 11
345.87668733048929
 21
675.89282446808272
 31
0.0
  0
LINE
  5
B270
  8
0
 10
367.8766873304894
 20
679.79610546808328
 30
0.0
 11
367.8766873304894
 21
675.89282446808272
 31
0.0
  0
LINE
  5
B271
  8
0
 10
225.8766873304894
 20
575.79610546808328
 30
0.0
 11
157.8851553304894
 21
575.79610546808328
 31
0.0
  0
LINE
  5
B272
  8
0
 10
257.3766873304894
 20
481.79610546808289
 30
0.0
 11
153.97609956444319
 21
481.79610546808289
 31
0.0
  0
LINE
  5
B273
  8
0
 10
257.3766873304894
 20
675.79610546808328
 30
0.0
 11
153.87555833048941
 21
675.79610546808328
 31
0.0
  0
LINE
  5
B274
  8
0
 10
261.63668733048939
 20
636.4961054680831
 30
0.0
 11
457.11668733048941
 21
636.4961054680831
 31
0.0
  0
LINE
  5
B275
  8
0
 10
261.63668733048939
 20
638.09610546808301
 30
0.0
 11
457.11668733048941
 21
638.09610546808301
 31
0.0
  0
LINE
  5
B276
  8
0
 10
259.8766873304894
 20
635.95610546808314
 30
0.0
 11
458.87668733048929
 21
635.95610546808314
 31
0.0
  0
LINE
  5
B277
  8
0
 10
259.8766873304894
 20
638.65610546808296
 30
0.0
 11
458.87668733048929
 21
638.65610546808296
 31
0.0
  0
LINE
  5
B278
  8
0
 10
259.8766873304894
 20
627.98110546808266
 30
0.0
 11
458.87668733048929
 21
627.98110546808266
 31
0.0
  0
LINE
  5
B279
  8
0
 10
259.8766873304894
 20
630.61110546808288
 30
0.0
 11
458.87668733048929
 21
630.61110546808288
 31
0.0
  0
LINE
  5
B27A
  8
0
 10
261.63668733048939
 20
628.47110546808301
 30
0.0
 11
457.11668733048941
 21
628.47110546808301
 31
0.0
  0
LINE
  5
B27B
  8
0
 10
261.63668733048939
 20
630.07110546808292
 30
0.0
 11
457.11668733048941
 21
630.07110546808292
 31
0.0
  0
LINE
  5
B27C
  8
0
 10
463.87668733048929
 20
493.79610546808311
 30
0.0
 11
460.87668733048929
 21
490.79610546808311
 31
0.0
  0
LINE
  5
B27D
  8
0
 10
463.87668733048929
 20
493.79610546808311
 30
0.0
 11
463.87668733048929
 21
663.79610546808317
 31
0.0
  0
LINE
  5
B27E
  8
0
 10
463.87668733048929
 20
663.79610546808317
 30
0.0
 11
460.87668733048929
 21
666.79610546808328
 31
0.0
  0
LINE
  5
B27F
  8
0
 10
1009.973440669006
 20
587.56641761367825
 30
0.0
 11
1009.973440669006
 21
614.79610546808317
 31
0.0
  0
LINE
  5
B280
  8
0
 10
1009.973440669006
 20
612.29608546808288
 30
0.0
 11
1014.780404917464
 21
612.29608546808288
 31
0.0
  0
LINE
  5
B281
  8
0
 10
1009.973440669006
 20
614.79610546808317
 30
0.0
 11
1015.266359958639
 21
614.79610546808317
 31
0.0
  0
LINE
  5
B282
  8
0
 10
1012.861871706991
 20
602.4260954680833
 30
0.0
 11
1009.973440669006
 21
602.4260954680833
 31
0.0
  0
LINE
  5
BC21
  8
0
  6
CONTINUOUS
 62
     0
 10
463.87668733048912
 20
939.19223904242676
 30
0.0
 11
481.87667733049079
 21
939.19223904242676
 31
0.0
  0
LINE
  5
BC22
  8
0
  6
CONTINUOUS
 62
     0
 10
463.87668733048912
 20
961.67917004242634
 30
0.0
 11
481.87667733049079
 21
961.67917004242634
 31
0.0
  0
LINE
  5
BC23
  8
0
  6
CONTINUOUS
 62
     0
 10
463.87668733048912
 20
951.49987804242619
 30
0.0
 11
481.87667733049079
 21
951.49987804242619
 31
0.0
  0
LINE
  5
BC24
  8
0
  6
CONTINUOUS
 62
     0
 10
463.87668733048912
 20
1063.4678380424259
 30
0.0
 11
481.87667733049079
 21
1063.4678380424259
 31
0.0
  0
LINE
  5
BC25
  8
0
  6
CONTINUOUS
 62
     0
 10
463.87668733048912
 20
1077.141520042426
 30
0.0
 11
481.87667733049079
 21
1077.141520042426
 31
0.0
  0
LINE
  5
BC26
  8
0
  6
AM_ISO08W050
 10
115.12903896576699
 20
1001.401876042426
 30
0.0
 11
790.09506733048909
 21
1001.401876042426
 31
0.0
  0
LINE
  5
BC27
  8
0
  6
CONTINUOUS
 10
463.87675733048951
 20
927.90187604242658
 30
0.0
 11
463.87675733048951
 21
1074.901876042426
 31
0.0
  0
LINE
  5
BC28
  8
0
  6
CONTINUOUS
 10
679.37674733048925
 20
1031.401876042426
 30
0.0
 11
685.37668733048963
 21
1031.401876042426
 31
0.0
  0
LINE
  5
BC29
  8
0
  6
CONTINUOUS
 10
679.37674733048925
 20
971.40187604242635
 30
0.0
 11
685.37668733048963
 21
971.40187604242635
 31
0.0
  0
LINE
  5
BC2A
  8
0
  6
CONTINUOUS
 10
705.37668733048963
 20
1009.401876042426
 30
0.0
 11
705.37668733048963
 21
993.40181604242616
 31
0.0
  0
LINE
  5
BC2B
  8
0
  6
CONTINUOUS
 10
685.37668733048963
 20
973.90187604242635
 30
0.0
 11
767.37668733048963
 21
973.90187604242635
 31
0.0
  0
LINE
  5
BC2C
  8
0
  6
CONTINUOUS
 10
767.37668733048963
 20
1028.901876042426
 30
0.0
 11
767.37668733048963
 21
973.90187604242635
 31
0.0
  0
LINE
  5
BC2D
  8
0
  6
CONTINUOUS
 10
685.37668733048963
 20
1031.401876042426
 30
0.0
 11
685.37668733048963
 21
971.40187604242635
 31
0.0
  0
LINE
  5
BC2E
  8
0
  6
CONTINUOUS
 10
685.37668733048963
 20
1028.901876042426
 30
0.0
 11
767.37668733048963
 21
1028.901876042426
 31
0.0
  0
LINE
  5
BC2F
  8
0
  6
CONTINUOUS
 10
614.37674733048948
 20
1158.5352960424259
 30
0.0
 11
614.37674733048948
 21
1129.990126042426
 31
0.0
  0
LINE
  5
BC30
  8
0
  6
CONTINUOUS
 10
532.37674733048937
 20
1134.4018160424259
 30
0.0
 11
557.37674733048937
 21
1133.528826042427
 31
0.0
  0
LINE
  5
BC31
  8
0
  6
CONTINUOUS
 10
557.37674733048937
 20
1133.528826042427
 30
0.0
 11
561.52145733048951
 21
1129.3841160424261
 31
0.0
  0
LINE
  5
BC32
  8
0
  6
CONTINUOUS
 10
561.52145733048951
 20
1129.384046042426
 30
0.0
 11
611.21670733048927
 21
1127.6486960424261
 31
0.0
  0
LINE
  5
BC33
  8
0
  6
CONTINUOUS
 10
625.95791733048918
 20
1117.9973960424261
 30
0.0
 11
639.65597733048924
 21
1117.519056042426
 31
0.0
  0
LINE
  5
BC34
  8
0
  6
CONTINUOUS
 10
537.37674733048925
 20
1151.460406042426
 30
0.0
 11
537.37674733048925
 21
1134.227256042426
 31
0.0
  0
LINE
  5
BC35
  8
0
  6
CONTINUOUS
 10
655.09756733048926
 20
1101.1322160424261
 30
0.0
 11
666.65591733048916
 21
1100.728596042426
 31
0.0
  0
LINE
  5
BC36
  8
0
  6
CENTER
 10
632.23642733048951
 20
1133.901876042426
 30
0.0
 11
666.40146733048925
 21
1133.901876042426
 31
0.0
  0
LINE
  5
BC37
  8
0
  6
CONTINUOUS
 10
532.37674733048937
 20
1134.401876042426
 30
0.0
 11
532.37674733048937
 21
1006.401876042426
 31
0.0
  0
LINE
  5
BC38
  8
0
  6
CONTINUOUS
 10
679.37674733048925
 20
1156.6146460424261
 30
0.0
 11
679.37674733048925
 21
1106.1890460424261
 31
0.0
  0
LINE
  5
BC39
  8
0
  6
CONTINUOUS
 10
676.30691733048911
 20
1061.509046042426
 30
0.0
 11
677.44656733048964
 21
1061.469256042426
 31
0.0
  0
LINE
  5
BC3A
  8
0
  6
CONTINUOUS
 10
449.37674733048959
 20
1158.500386042426
 30
0.0
 11
449.37674733048959
 21
1116.114156042426
 31
0.0
  0
LINE
  5
BC3B
  8
0
  6
CONTINUOUS
 10
679.37674733048925
 20
1059.4704760424261
 30
0.0
 11
679.37674733048925
 21
943.33326604242654
 31
0.0
  0
LINE
  5
BC3C
  8
0
  6
CONTINUOUS
 10
674.37674733048937
 20
1098.772846042426
 30
0.0
 11
674.37674733048937
 21
904.03090604242675
 31
0.0
  0
LINE
  5
BC3D
  8
0
  6
CONTINUOUS
 10
453.50851733048933
 20
1111.190076042426
 30
0.0
 11
481.87667733049079
 21
1106.188011799735
 31
0.0
  0
LINE
  5
BC3E
  8
0
  6
CONTINUOUS
 10
537.37674733048925
 20
1166.401876042426
 30
0.0
 11
674.5512473304891
 21
1161.6115860424261
 31
0.0
  0
LINE
  5
BC3F
  8
0
  6
CONTINUOUS
 10
537.37674733048925
 20
1166.401876042426
 30
0.0
 11
454.20218733048932
 21
1163.497336042426
 31
0.0
  0
LINE
  5
BC40
  8
0
  6
CENTER
 10
463.1721573304896
 20
1133.901876042426
 30
0.0
 11
496.44461733048928
 21
1133.901876042426
 31
0.0
  0
LINE
  5
BC41
  8
0
  6
CENTER
 10
479.37674733048931
 20
1150.5593460424259
 30
0.0
 11
479.37674733048931
 21
1116.7501960424261
 31
0.0
  0
LINE
  5
BC42
  8
0
  6
CENTER
 10
649.37674733048937
 20
1149.5335860424259
 30
0.0
 11
649.37674733048937
 21
1116.043716042426
 31
0.0
  0
LINE
  5
BC43
  8
0
  6
CONTINUOUS
 10
508.37674733048931
 20
1153.228536042426
 30
0.0
 11
535.37680733048933
 21
1143.682146042426
 31
0.0
  0
LINE
  5
BC44
  8
0
  6
CONTINUOUS
 10
504.91299733048908
 20
1165.059896042427
 30
0.0
 11
535.37674733048948
 21
1154.2888360424261
 31
0.0
  0
LINE
  5
BC45
  8
0
  6
CENTER
 10
649.37674733048937
 20
851.16639604242664
 30
0.0
 11
649.37674733048937
 21
884.83632604242689
 31
0.0
  0
LINE
  5
BC46
  8
0
  6
CENTER
 10
479.37674733048931
 20
851.44435604242665
 30
0.0
 11
479.37674733048931
 21
885.14943604242671
 31
0.0
  0
LINE
  5
BC47
  8
0
  6
CENTER
 10
463.24740733048952
 20
868.90187604242658
 30
0.0
 11
496.11819733048958
 21
868.90187604242658
 31
0.0
  0
LINE
  5
BC48
  8
0
  6
CONTINUOUS
 10
537.37674733048925
 20
836.40187604242692
 30
0.0
 11
454.20224733048929
 21
839.30641604242658
 31
0.0
  0
LINE
  5
BC49
  8
0
  6
CONTINUOUS
 10
537.37668733048963
 20
836.40181604242684
 30
0.0
 11
674.5512473304891
 21
841.19209604242701
 31
0.0
  0
LINE
  5
BC4A
  8
0
  6
CONTINUOUS
 10
453.50845733048931
 20
891.61360604242657
 30
0.0
 11
481.87667733049079
 21
896.61568086471959
 31
0.0
  0
LINE
  5
BC4B
  8
0
  6
CONTINUOUS
 10
449.37674733048959
 20
844.30336604242655
 30
0.0
 11
449.37674733048959
 21
886.6895960424265
 31
0.0
  0
LINE
  5
BC4C
  8
0
  6
CONTINUOUS
 10
676.30691733048911
 20
941.29469604242672
 30
0.0
 11
677.44656733048964
 21
941.33448604242699
 31
0.0
  0
LINE
  5
BC4D
  8
0
  6
CONTINUOUS
 10
679.37674733048925
 20
846.18904604242664
 30
0.0
 11
679.37674733048925
 21
896.6146460424269
 31
0.0
  0
LINE
  5
BC4E
  8
0
  6
CENTER
 10
632.42288733048974
 20
868.90187604242658
 30
0.0
 11
666.74869733048956
 21
868.90187604242658
 31
0.0
  0
LINE
  5
BC4F
  8
0
  6
CONTINUOUS
 10
647.37674733048948
 20
893.27974604242615
 30
0.0
 11
647.37674733048948
 21
1109.5239460424259
 31
0.0
  0
LINE
  5
BC50
  8
0
  6
CONTINUOUS
 10
655.09756733048926
 20
901.67146604242635
 30
0.0
 11
666.65591733048916
 21
902.07508604242685
 31
0.0
  0
LINE
  5
BC51
  8
0
  6
CONTINUOUS
 10
625.95791733048918
 20
884.80629604242665
 30
0.0
 11
639.65591733048916
 21
885.28462604242679
 31
0.0
  0
LINE
  5
BC52
  8
0
  6
CONTINUOUS
 10
561.52145733048951
 20
873.41963604242665
 30
0.0
 11
611.21670733048927
 21
875.15498604242669
 31
0.0
  0
LINE
  5
BC53
  8
0
  6
CONTINUOUS
 10
557.37674733048937
 20
869.27485604242679
 30
0.0
 11
561.52145733048951
 21
873.41963604242665
 31
0.0
  0
LINE
  5
BC54
  8
0
  6
CONTINUOUS
 10
532.37668733048963
 20
868.40187604242669
 30
0.0
 11
557.37668733048963
 21
869.27485604242679
 31
0.0
  0
LINE
  5
BC55
  8
0
  6
CONTINUOUS
 10
504.91299733048908
 20
837.74385604242661
 30
0.0
 11
535.37674733048948
 21
848.51490604242679
 31
0.0
  0
LINE
  5
BC56
  8
0
  6
CONTINUOUS
 10
508.37674733048931
 20
849.57515604242701
 30
0.0
 11
535.37680733048933
 21
859.12153604242701
 31
0.0
  0
LINE
  5
BC57
  8
0
  6
CONTINUOUS
 10
537.37674733048925
 20
851.34327604242685
 30
0.0
 11
537.37674733048925
 21
868.57643604242674
 31
0.0
  0
LINE
  5
BC58
  8
0
  6
CONTINUOUS
 10
614.37674733048948
 20
844.26838604242687
 30
0.0
 11
614.37674733048948
 21
872.81361604242659
 31
0.0
  0
LINE
  5
BC59
  8
0
  6
CONTINUOUS
 10
557.37668733048963
 20
869.27485604242679
 30
0.0
 11
557.37668733048963
 21
1133.528826042427
 31
0.0
  0
LINE
  5
BC5A
  8
0
  6
CONTINUOUS
 10
705.37674733048925
 20
993.40181604242616
 30
0.0
 11
767.37668733048963
 21
993.40181604242616
 31
0.0
  0
LINE
  5
BC5B
  8
0
  6
CONTINUOUS
 10
705.37674733048925
 20
1009.401876042426
 30
0.0
 11
767.37668733048963
 21
1009.401876042426
 31
0.0
  0
LINE
  5
BC5C
  8
0
  6
CONTINUOUS
 10
532.37674733048937
 20
996.40187604242635
 30
0.0
 11
532.37674733048937
 21
868.40187604242669
 31
0.0
  0
ARC
  5
BC5D
  8
0
  6
CONTINUOUS
 10
639.37674733048948
 20
1109.5239460424259
 30
0.0
 40
8.0
 50
0.0
 51
87.999999999996248
  0
ARC
  5
BC5E
  8
0
  6
CONTINUOUS
 10
655.37674733048925
 20
1109.1273360424259
 30
0.0
 40
8.0
 50
180.000010000001
 51
267.99999999999619
  0
ARC
  5
BC5F
  8
0
  6
CONTINUOUS
 10
507.37674733048942
 20
1150.4001060424259
 30
0.0
 40
3.0
 50
70.527973000001808
 51
180.000010000001
  0
ARC
  5
BC60
  8
0
  6
CONTINUOUS
 10
666.37674733048925
 20
1092.733476042426
 30
0.0
 40
8.0
 50
0.0
 51
87.999999999996248
  0
ARC
  5
BC61
  8
0
  6
CONTINUOUS
 10
619.37674733048948
 20
1158.5352960424259
 30
0.0
 40
5.0
 50
87.999999999996248
 51
180.000010000001
  0
CIRCLE
  5
BC62
  8
0
  6
CONTINUOUS
 10
479.37674733048931
 20
1133.901876042426
 30
0.0
 40
9.5
  0
ARC
  5
BC63
  8
0
  6
CONTINUOUS
 10
677.37674733048948
 20
1059.4704760424261
 30
0.0
 40
2.0
 50
0.0
 51
87.999999999996248
  0
ARC
  5
BC64
  8
0
  6
CONTINUOUS
 10
676.37674733048948
 20
1063.507826042427
 30
0.0
 40
2.0
 50
180.000010000001
 51
267.99999999999619
  0
ARC
  5
BC65
  8
0
  6
CONTINUOUS
 10
454.37674733048931
 20
1158.500386042426
 30
0.0
 40
5.0
 50
91.999997999994051
 51
180.000010000001
  0
ARC
  5
BC66
  8
0
  6
CONTINUOUS
 10
674.37674733048937
 20
1156.6146460424261
 30
0.0
 40
5.0
 50
0.0
 51
87.999999999996248
  0
ARC
  5
BC67
  8
0
  6
CONTINUOUS
 10
674.37674733048937
 20
1106.1890460424261
 30
0.0
 40
5.0
 50
292.02430999999331
 51
0.0
  0
ARC
  5
BC68
  8
0
  6
CONTINUOUS
 10
454.37674733048931
 20
1116.114156042426
 30
0.0
 40
5.0
 50
180.000010000001
 51
259.99998999999877
  0
CIRCLE
  5
BC69
  8
0
  6
CONTINUOUS
 10
649.37674733048937
 20
1133.901876042426
 30
0.0
 40
9.5
  0
ARC
  5
BC6A
  8
0
  6
CONTINUOUS
 10
534.37674733048925
 20
1140.853716042426
 30
0.0
 40
3.0
 50
0.0
 51
70.527973000001808
  0
ARC
  5
BC6B
  8
0
  6
CONTINUOUS
 10
534.37674733048925
 20
1151.460406042426
 30
0.0
 40
3.0
 50
0.0
 51
70.527973000001808
  0
CIRCLE
  5
BC6C
  8
0
  6
CONTINUOUS
 10
649.37674733048937
 20
868.90187604242658
 30
0.0
 40
9.5
  0
ARC
  5
BC6D
  8
0
  6
CONTINUOUS
 10
454.37674733048931
 20
886.6895960424265
 30
0.0
 40
5.0
 50
100.000000000005
 51
180.0
  0
ARC
  5
BC6E
  8
0
  6
CONTINUOUS
 10
674.37674733048937
 20
896.6146460424269
 30
0.0
 40
5.0
 50
0.0
 51
67.975689000004877
  0
ARC
  5
BC6F
  8
0
  6
CONTINUOUS
 10
674.37674733048937
 20
846.18904604242664
 30
0.0
 40
5.0
 50
272.00000000000369
 51
0.0
  0
ARC
  5
BC70
  8
0
  6
CONTINUOUS
 10
454.37674733048931
 20
844.30336604242655
 30
0.0
 40
5.0
 50
180.000010000001
 51
267.99999999999619
  0
ARC
  5
BC71
  8
0
  6
CONTINUOUS
 10
676.37674733048948
 20
939.29591604242671
 30
0.0
 40
2.0
 50
91.999997999994051
 51
180.000010000001
  0
ARC
  5
BC72
  8
0
  6
CONTINUOUS
 10
677.37674733048948
 20
943.33326604242654
 30
0.0
 40
2.0
 50
272.00000000000369
 51
0.0
  0
CIRCLE
  5
BC73
  8
0
  6
CONTINUOUS
 10
479.37674733048931
 20
868.90187604242658
 30
0.0
 40
9.5
  0
ARC
  5
BC74
  8
0
  6
CONTINUOUS
 10
677.37674733048948
 20
1098.772846042426
 30
0.0
 40
3.0
 50
112.02430999999331
 51
180.000010000001
  0
ARC
  5
BC75
  8
0
  6
CONTINUOUS
 10
677.37674733048948
 20
904.03090604242675
 30
0.0
 40
3.0
 50
180.000010000001
 51
247.97569000000661
  0
ARC
  5
BC76
  8
0
  6
CONTINUOUS
 10
666.37674733048925
 20
910.07020604242712
 30
0.0
 40
8.0
 50
272.00000000000369
 51
0.0
  0
ARC
  5
BC77
  8
0
  6
CONTINUOUS
 10
655.37674733048925
 20
893.6763460424263
 30
0.0
 40
8.0
 50
91.999997999994051
 51
180.000010000001
  0
ARC
  5
BC78
  8
0
  6
CONTINUOUS
 10
639.37674733048948
 20
893.27974604242615
 30
0.0
 40
8.0
 50
272.00000000000369
 51
0.0
  0
ARC
  5
BC79
  8
0
  6
CONTINUOUS
 10
534.37674733048925
 20
851.34327604242685
 30
0.0
 40
3.0
 50
289.47202000000192
 51
0.0
  0
ARC
  5
BC7A
  8
0
  6
CONTINUOUS
 10
534.37674733048925
 20
861.94996604242669
 30
0.0
 40
3.0
 50
289.47202000000192
 51
0.0
  0
ARC
  5
BC7B
  8
0
  6
CONTINUOUS
 10
619.37674733048948
 20
844.26838604242687
 30
0.0
 40
5.0
 50
180.000010000001
 51
271.99999000000793
  0
ARC
  5
BC7C
  8
0
  6
CONTINUOUS
 10
507.37674733048942
 20
852.40358604242658
 30
0.0
 40
3.0
 50
180.000010000001
 51
289.47202999999718
  0
ARC
  5
BC7D
  8
0
  6
CONTINUOUS
 10
626.37674733048948
 20
1129.990126042426
 30
0.0
 40
12.0
 50
180.000010000001
 51
267.99999999999619
  0
ARC
  5
BC7E
  8
0
  6
CONTINUOUS
 10
611.04214733048968
 20
1122.6517460424261
 30
0.0
 40
5.0
 50
25.57351699999569
 51
87.999999999996248
  0
ARC
  5
BC7F
  8
0
  6
CONTINUOUS
 10
626.37674733048948
 20
872.81361604242659
 30
0.0
 40
12.0
 50
91.999997999994051
 51
180.000010000001
  0
ARC
  5
BC80
  8
0
  6
CONTINUOUS
 10
611.04214733048968
 20
880.15199604242673
 30
0.0
 40
5.0
 50
272.00000000000369
 51
334.4264800000031
  0
ARC
  5
BC81
  8
0
  6
CONTINUOUS
 10
705.37674733048925
 20
1001.401816042426
 30
0.0
 40
8.0000113999999982
 50
90.00000299999769
 51
270.0
  0
LINE
  5
BC82
  8
0
 10
463.87675733048951
 20
916.40187604242669
 30
0.0
 11
463.87675733048951
 21
1086.401876042426
 31
0.0
  0
LINE
  5
BC83
  8
0
  6
CONTINUOUS
 62
     0
 10
463.87668733048912
 20
1085.419306993489
 30
0.0
 11
477.0511773304903
 21
1085.8793760424271
 31
0.0
  0
LINE
  5
BC84
  8
0
  6
CONTINUOUS
 62
     0
 10
463.87668733048912
 20
917.38438472571306
 30
0.0
 11
477.0511773304903
 21
916.92430604242725
 31
0.0
  0
LINE
  5
BC85
  8
0
  6
CONTINUOUS
 62
     0
 10
531.87673733049007
 20
868.40190604242741
 30
0.0
 11
506.70223733049028
 21
869.28105604242717
 31
0.0
  0
LINE
  5
BC86
  8
0
  6
CONTINUOUS
 62
     0
 10
531.87667733049079
 20
1134.401846042427
 30
0.0
 11
506.7021773304902
 21
1133.5227560424271
 31
0.0
  0
LINE
  5
BC87
  8
0
  6
CONTINUOUS
 62
     0
 10
497.0511773304903
 20
1113.2159260424271
 30
0.0
 11
486.70217733049031
 21
1112.8545360424271
 31
0.0
  0
LINE
  5
BC88
  8
0
  6
CONTINUOUS
 62
     0
 10
497.05123733049049
 20
889.58787604242696
 30
0.0
 11
486.70217733049031
 21
889.94926604242698
 31
0.0
  0
LINE
  5
BC89
  8
0
  6
CONTINUOUS
 62
     0
 10
481.87667733049079
 20
894.94621604242695
 30
0.0
 11
481.87667733049079
 21
1107.8575960424271
 31
0.0
  0
LINE
  5
BC8A
  8
0
  6
CENTER
 62
     0
 10
513.87673733049064
 20
986.22160604242765
 30
0.0
 11
513.87673733049064
 21
1015.956466042427
 31
0.0
  0
LINE
  5
BC8B
  8
0
  6
CONTINUOUS
 62
     0
 10
493.8767373304903
 20
996.40190604242628
 30
0.0
 11
533.8767373304903
 21
996.40190604242628
 31
0.0
  0
LINE
  5
BC8C
  8
0
  6
CONTINUOUS
 62
     0
 10
493.8767373304903
 20
1006.401906042426
 30
0.0
 11
533.8767373304903
 21
1006.401906042426
 31
0.0
  0
LINE
  5
BC8D
  8
0
  6
CONTINUOUS
 62
     0
 10
501.87667733049079
 20
874.27800604242691
 30
0.0
 11
501.87667733049079
 21
990.86631604242621
 31
0.0
  0
LINE
  5
BC8E
  8
0
  6
CONTINUOUS
 62
     0
 10
501.87667733049079
 20
1011.937426042426
 30
0.0
 11
501.87667733049079
 21
1128.5258060424251
 31
0.0
  0
ARC
  5
BC8F
  8
0
  6
CONTINUOUS
 62
     0
 10
486.87667733049051
 20
894.94621604242695
 30
0.0
 40
5.0
 50
180.000010000001
 51
267.99999999999619
  0
ARC
  5
BC90
  8
0
  6
CONTINUOUS
 62
     0
 10
486.87667733049051
 20
1107.8575960424271
 30
0.0
 40
5.0
 50
91.999997999994051
 51
180.000010000001
  0
ARC
  5
BC91
  8
0
  6
CONTINUOUS
 62
     0
 10
513.87673733049064
 20
1001.401906042426
 30
0.0
 40
15.0
 50
148.21198000000069
 51
160.5287699999993
  0
ARC
  5
BC92
  8
0
  6
CONTINUOUS
 62
     0
 10
513.87673733049064
 20
1001.401906042426
 30
0.0
 40
12.5
 50
23.578179999997541
 51
156.42182000000241
  0
ARC
  5
BC93
  8
0
  6
CONTINUOUS
 62
     0
 10
493.8767373304903
 20
1001.401906042426
 30
0.0
 40
5.0
 50
90.000002999984659
 51
270.0
  0
ARC
  5
BC94
  8
0
  6
CONTINUOUS
 62
     0
 10
533.8767373304903
 20
1001.401906042426
 30
0.0
 40
5.0
 50
270.0
 51
90.000002999984659
  0
ARC
  5
BC95
  8
0
  6
CONTINUOUS
 62
     0
 10
513.87673733049064
 20
1001.401906042426
 30
0.0
 40
12.5
 50
203.5781799999975
 51
336.42182999999483
  0
ARC
  5
BC96
  8
0
  6
CONTINUOUS
 62
     0
 10
513.87673733049064
 20
1001.401906042426
 30
0.0
 40
15.0
 50
199.4712300000007
 51
211.78801999999931
  0
ARC
  5
BC97
  8
0
  6
CONTINUOUS
 62
     0
 10
506.87667733049079
 20
874.27800604242691
 30
0.0
 40
5.0
 50
180.000010000001
 51
267.99999999999619
  0
ARC
  5
BC98
  8
0
  6
CONTINUOUS
 62
     0
 10
506.87667733049079
 20
1128.5258060424251
 30
0.0
 40
5.0
 50
91.999997999994051
 51
180.000010000001
  0
ARC
  5
BC99
  8
0
  6
CONTINUOUS
 62
     0
 10
476.87667733049028
 20
911.92735604242716
 30
0.0
 40
5.0
 50
0.0
 51
87.999999999996248
  0
ARC
  5
BC9A
  8
0
  6
CONTINUOUS
 62
     0
 10
476.87667733049028
 20
1090.876386042426
 30
0.0
 40
5.0
 50
272.00000000000369
 51
0.0
  0
ARC
  5
BC9B
  8
0
  6
CONTINUOUS
 62
     0
 10
496.87667733049068
 20
1118.212876042425
 30
0.0
 40
5.0
 50
272.00000000000369
 51
0.0
  0
ARC
  5
BC9C
  8
0
  6
CONTINUOUS
 62
     0
 10
496.87667733049068
 20
884.59086604242691
 30
0.0
 40
5.0
 50
0.0
 51
87.999999999996248
  0
ARC
  5
BC9D
  8
0
  6
CONTINUOUS
 62
     0
 10
496.87667733049068
 20
990.86631604242621
 30
0.0
 40
5.0
 50
0.0
 51
31.788018000003131
  0
ARC
  5
BC9E
  8
0
  6
CONTINUOUS
 62
     0
 10
496.87667733049068
 20
1011.937426042426
 30
0.0
 40
5.0
 50
328.21198000000072
 51
0.0
  0
ARC
  5
BC9F
  8
0
 10
264.82033133048918
 20
919.00119604242616
 30
0.0
 40
2.0
 50
190.000000000005
 51
270.0
  0
LINE
  5
BCA0
  8
0
 10
262.85071633048932
 20
918.65390004242624
 30
0.0
 11
259.8766873304894
 21
935.52045404242642
 31
0.0
  0
LINE
  5
BCA1
  8
0
 10
259.8766873304894
 20
935.52045404242642
 30
0.0
 11
260.93842633048928
 21
935.52045404242642
 31
0.0
  0
LINE
  5
BCA2
  8
0
 10
458.3408283304891
 20
1087.5741830424261
 30
0.0
 11
458.87668733048918
 21
1087.5741830424261
 31
0.0
  0
LINE
  5
BCA3
  8
0
 10
458.60121933048919
 20
1089.1364400424261
 30
0.0
 11
458.87668733048918
 21
1089.1364400424261
 31
0.0
  0
LINE
  5
BCA4
  8
0
 10
460.55488633048918
 20
913.40202704242631
 30
0.0
 11
460.87668733048929
 21
913.40202704242631
 31
0.0
  0
LINE
  5
BCA5
  8
0
 10
456.69729233048912
 20
918.24989004242616
 30
0.0
 11
458.87668733048918
 21
918.24989004242616
 31
0.0
  0
LINE
  5
BCA6
  8
0
 10
457.70337533048928
 20
930.35546004242633
 30
0.0
 11
458.87668733048918
 21
930.35546004242633
 31
0.0
  0
LINE
  5
BCA7
  8
0
 10
356.87668733048929
 20
893.74591104242631
 30
0.0
 11
356.87668733048929
 21
902.92762704242602
 31
0.0
  0
ARC
  5
BCA8
  8
0
 10
455.11956733048908
 20
1090.4101240424261
 30
0.0
 40
2.0
 50
10.00000000000502
 51
90.0
  0
ARC
  5
BCA9
  8
0
 10
455.18558433048912
 20
1093.950923042426
 30
0.0
 40
2.0
 50
10.00000000000502
 51
90.0
  0
ARC
  5
BCAA
  8
0
 10
455.27150233048928
 20
1096.502660042426
 30
0.0
 40
2.0
 50
10.00000000000502
 51
90.0
  0
ARC
  5
BCAB
  8
0
 10
455.30025133048917
 20
1097.901876042426
 30
0.0
 40
2.0
 50
10.00000000000502
 51
90.0
  0
LINE
  5
BCAC
  8
0
 10
463.87669033048911
 20
1086.401876042426
 30
0.0
 11
460.87669033048928
 21
1089.401876042426
 31
0.0
  0
LINE
  5
BCAD
  8
0
 10
257.37668733048929
 20
1098.4018500424261
 30
0.0
 11
257.37668733048929
 21
904.40187604242635
 31
0.0
  0
LINE
  5
BCAE
  8
0
 10
458.82988333048922
 20
1089.401876042426
 30
0.0
 11
460.87668733048929
 21
1089.401876042426
 31
0.0
  0
LINE
  5
BCAF
  8
0
 10
463.87668733048912
 20
916.40187604242635
 30
0.0
 11
460.87668733048929
 21
913.40187604242635
 31
0.0
  0
LINE
  5
BCB0
  8
0
 10
460.87668733048929
 20
913.40187604242635
 30
0.0
 11
460.87668733048929
 21
939.02226204242663
 31
0.0
  0
LINE
  5
BCB1
  8
0
 10
463.87668733048912
 20
916.40187604242635
 30
0.0
 11
463.87668733048912
 21
1086.401876042426
 31
0.0
  0
CIRCLE
  5
BCB2
  8
0
 10
356.87668733048929
 20
1001.401876042426
 30
0.0
 40
11.0
  0
LINE
  5
BCB3
  8
0
 10
264.16280733048927
 20
1099.901876042426
 30
0.0
 11
315.87668733048929
 21
1099.901876042426
 31
0.0
  0
LINE
  5
BCB4
  8
0
 10
395.87668733048929
 20
1092.4101240424261
 30
0.0
 11
395.87668733048929
 21
1097.901876042426
 31
0.0
  0
LINE
  5
BCB5
  8
0
 10
317.87668733048929
 20
1092.4101240424261
 30
0.0
 11
317.87668733048929
 21
1097.901876042426
 31
0.0
  0
ARC
  5
BCB6
  8
0
 10
315.87668733048929
 20
1097.901876042426
 30
0.0
 40
2.0
 50
0.0
 51
90.0
  0
ARC
  5
BCB7
  8
0
 10
397.87668733048929
 20
1097.901876042426
 30
0.0
 40
2.0
 50
90.0
 51
180.0
  0
LINE
  5
BCB8
  8
0
 10
397.87668733048929
 20
1099.901876042426
 30
0.0
 11
455.30025133048917
 21
1099.901876042426
 31
0.0
  0
LINE
  5
BCB9
  8
0
 10
455.27150233048928
 20
1098.502660042426
 30
0.0
 11
397.87668733048929
 21
1098.502660042426
 31
0.0
  0
LINE
  5
BCBA
  8
0
 10
458.87668733048918
 20
1087.5741830424261
 30
0.0
 11
457.24111833048909
 21
1096.8499560424259
 31
0.0
  0
LINE
  5
BCBB
  8
0
 10
458.87668733048918
 20
1089.1364400424261
 30
0.0
 11
457.26986633048932
 21
1098.2491720424259
 31
0.0
  0
LINE
  5
BCBC
  8
0
 10
259.8766873304894
 20
1085.111622042426
 30
0.0
 11
262.19319233048918
 21
1098.2491720424259
 31
0.0
  0
ARC
  5
BCBD
  8
0
 10
264.16280733048927
 20
1097.901876042426
 30
0.0
 40
2.0
 50
90.0
 51
169.99999999999491
  0
LINE
  5
BCBE
  8
0
 10
259.8766873304894
 20
1083.4525610424259
 30
0.0
 11
262.23900933048918
 21
1096.8499560424259
 31
0.0
  0
ARC
  5
BCBF
  8
0
 10
264.20862533048933
 20
1096.502660042426
 30
0.0
 40
2.0
 50
90.0
 51
169.99999999999491
  0
ARC
  5
BCC0
  8
0
 10
315.87668733048929
 20
1096.502660042426
 30
0.0
 40
2.0
 50
0.0
 51
90.0
  0
ARC
  5
BCC1
  8
0
 10
397.87668733048929
 20
1096.502660042426
 30
0.0
 40
2.0
 50
90.0
 51
180.0
  0
LINE
  5
BCC2
  8
0
 10
315.87668733048929
 20
1098.502660042426
 30
0.0
 11
264.20862533048933
 21
1098.502660042426
 31
0.0
  0
LINE
  5
BCC3
  8
0
 10
455.18558433048912
 20
1095.950923042426
 30
0.0
 11
397.87668733048929
 21
1095.950923042426
 31
0.0
  0
LINE
  5
BCC4
  8
0
 10
458.74790733048923
 20
1085.2655250424259
 30
0.0
 11
457.15519933048921
 21
1094.298220042426
 31
0.0
  0
LINE
  5
BCC5
  8
0
 10
259.8766873304894
 20
1080.231770042426
 30
0.0
 11
262.35698233048942
 21
1094.298220042426
 31
0.0
  0
ARC
  5
BCC6
  8
0
 10
264.32659733048922
 20
1093.950923042426
 30
0.0
 40
2.0
 50
90.0
 51
169.99999999999491
  0
ARC
  5
BCC7
  8
0
 10
315.87668733048929
 20
1093.950923042426
 30
0.0
 40
2.0
 50
0.0
 51
90.0
  0
ARC
  5
BCC8
  8
0
 10
397.87668733048929
 20
1093.950923042426
 30
0.0
 40
2.0
 50
90.0
 51
180.0
  0
LINE
  5
BCC9
  8
0
 10
315.87668733048929
 20
1095.950923042426
 30
0.0
 11
264.32659733048922
 21
1095.950923042426
 31
0.0
  0
LINE
  5
BCCA
  8
0
 10
455.11956733048908
 20
1092.4101240424261
 30
0.0
 11
264.48810633048942
 21
1092.4101240424261
 31
0.0
  0
LINE
  5
BCCB
  8
0
 10
458.05755233048927
 20
1085.2655250424259
 30
0.0
 11
457.08918333048928
 21
1090.757420042426
 31
0.0
  0
LINE
  5
BCCC
  8
0
 10
259.8766873304894
 20
1075.7750100424259
 30
0.0
 11
262.51849033048933
 21
1090.757420042426
 31
0.0
  0
ARC
  5
BCCD
  8
0
 10
264.48810633048942
 20
1090.4101240424261
 30
0.0
 40
2.0
 50
90.0
 51
169.99999999999491
  0
LINE
  5
BCCE
  8
0
 10
388.93304333048928
 20
1085.802556042426
 30
0.0
 11
264.82033133048918
 21
1085.802556042426
 31
0.0
  0
LINE
  5
BCCF
  8
0
 10
393.8766873304894
 20
1067.2832980424259
 30
0.0
 11
390.90265833048937
 21
1084.1498520424259
 31
0.0
  0
ARC
  5
BCD0
  8
0
 10
388.93304333048928
 20
1083.802556042426
 30
0.0
 40
2.0
 50
10.00000000000502
 51
90.0
  0
LINE
  5
BCD1
  8
0
 10
259.8766873304894
 20
1067.2832980424259
 30
0.0
 11
262.85071633048932
 21
1084.1498520424259
 31
0.0
  0
ARC
  5
BCD2
  8
0
 10
264.82033133048918
 20
1083.802556042426
 30
0.0
 40
2.0
 50
90.0
 51
169.99999999999491
  0
LINE
  5
BCD3
  8
0
 10
388.60277933048911
 20
1080.400512042426
 30
0.0
 11
265.15059533048952
 21
1080.400512042426
 31
0.0
  0
LINE
  5
BCD4
  8
0
 10
393.65563633048941
 20
1061.261876042427
 30
0.0
 11
390.57239533048943
 21
1078.7478090424261
 31
0.0
  0
ARC
  5
BCD5
  8
0
 10
388.60277933048911
 20
1078.400512042426
 30
0.0
 40
2.0
 50
10.00000000000502
 51
90.0
  0
LINE
  5
BCD6
  8
0
 10
260.15368133048929
 20
1061.5791440424259
 30
0.0
 11
263.18097933048932
 21
1078.7478090424261
 31
0.0
  0
ARC
  5
BCD7
  8
0
 10
265.15059533048952
 20
1078.400512042426
 30
0.0
 40
2.0
 50
90.0
 51
169.99999999999491
  0
LINE
  5
BCD8
  8
0
 10
458.87668733048918
 20
1006.4320280424261
 30
0.0
 11
458.87668733048918
 21
1009.379720042426
 31
0.0
  0
LINE
  5
BCD9
  8
0
 10
458.87668733048918
 20
1016.431504042426
 30
0.0
 11
458.87668733048918
 21
1019.392983042426
 31
0.0
  0
LINE
  5
BCDA
  8
0
 10
458.87668733048918
 20
1027.423684042426
 30
0.0
 11
458.87668733048918
 21
1030.4163110424261
 31
0.0
  0
LINE
  5
BCDB
  8
0
 10
458.87668733048918
 20
1038.4064790424261
 30
0.0
 11
458.87668733048918
 21
1041.452185042426
 31
0.0
  0
LINE
  5
BCDC
  8
0
 10
458.87668733048918
 20
1049.3763580424261
 30
0.0
 11
458.87668733048918
 21
1052.5072710424261
 31
0.0
  0
LINE
  5
BCDD
  8
0
 10
458.87668733048918
 20
1058.3348340424261
 30
0.0
 11
458.87668733048918
 21
1061.5791440424259
 31
0.0
  0
LINE
  5
BCDE
  8
0
 10
408.87668733048918
 20
1075.7750100424259
 30
0.0
 11
392.37936933048928
 21
1075.7750100424259
 31
0.0
  0
LINE
  5
BCDF
  8
0
 10
440.66346433048892
 20
1080.6199780424261
 30
0.0
 11
424.87668733048929
 21
1080.6199780424261
 31
0.0
  0
LINE
  5
BCE0
  8
0
 10
408.87668733048918
 20
1075.7750100424259
 30
0.0
 11
424.87668733048929
 21
1080.6199780424261
 31
0.0
  0
LINE
  5
BCE1
  8
0
 10
424.87668733048929
 20
1080.6199780424261
 30
0.0
 11
424.87668733048929
 21
1077.254663042426
 31
0.0
  0
LINE
  5
BCE2
  8
0
 10
408.87668733048918
 20
1075.7750100424259
 30
0.0
 11
408.87668733048918
 21
1061.5791440424259
 31
0.0
  0
LINE
  5
BCE3
  8
0
 10
444.37668733048929
 20
1064.4678380424259
 30
0.0
 11
444.37668733048929
 21
1083.2655250424259
 31
0.0
  0
ARC
  5
BCE4
  8
0
 10
446.37668733048918
 20
1083.2655250424259
 30
0.0
 40
2.0
 50
90.0
 51
180.0
  0
LINE
  5
BCE5
  8
0
 10
444.37668733048929
 20
1068.857936042426
 30
0.0
 11
424.87668733048929
 21
1068.857936042426
 31
0.0
  0
LINE
  5
BCE6
  8
0
 10
438.9766933304893
 20
1077.254663042426
 30
0.0
 11
424.87668733048929
 21
1077.254663042426
 31
0.0
  0
LINE
  5
BCE7
  8
0
 10
424.87668733048929
 20
1068.857936042426
 30
0.0
 11
424.87668733048929
 21
1061.5791440424259
 31
0.0
  0
ARC
  5
BCE8
  8
0
  6
CONTINUOUS
 10
441.57648633048922
 20
1072.885142042426
 30
0.0
 40
2.6003989999999999
 50
179.99998200000081
 51
269.99997799999522
  0
ARC
  5
BCE9
  8
0
  6
CONTINUOUS
 10
441.57648633048922
 20
1078.185130042426
 30
0.0
 40
2.600403
 50
90.0
 51
179.99998200000081
  0
LINE
  5
BCEA
  8
0
  6
CONTINUOUS
 10
444.37668733048929
 20
1075.6011610424259
 30
0.0
 11
442.87668733048912
 21
1074.7351360424259
 31
0.0
  0
LINE
  5
BCEB
  8
0
  6
CONTINUOUS
 10
444.37668733048929
 20
1076.6011610424259
 30
0.0
 11
442.87668733048912
 21
1075.7351360424259
 31
0.0
  0
LINE
  5
BCEC
  8
0
  6
CONTINUOUS
 10
444.37668733048929
 20
1081.635136042426
 30
0.0
 11
444.37668733048929
 21
1069.4351360424259
 31
0.0
  0
LINE
  5
BCED
  8
0
  6
CONTINUOUS
 10
442.87668733048912
 20
1081.635136042426
 30
0.0
 11
444.37668733048929
 21
1081.635136042426
 31
0.0
  0
LINE
  5
BCEE
  8
0
  6
CONTINUOUS
 10
442.87668733048912
 20
1069.4351360424259
 30
0.0
 11
444.37668733048929
 21
1069.4351360424259
 31
0.0
  0
LINE
  5
BCEF
  8
0
  6
CONTINUOUS
 10
438.9766933304893
 20
1078.185130042426
 30
0.0
 11
438.9766933304893
 21
1072.885142042426
 31
0.0
  0
LINE
  5
BCF0
  8
0
  6
CONTINUOUS
 10
442.87668733048912
 20
1081.635136042426
 30
0.0
 11
442.87668733048912
 21
1069.4351360424259
 31
0.0
  0
LINE
  5
BCF1
  8
0
  6
CONTINUOUS
 10
442.87668733048912
 20
1070.2851360424261
 30
0.0
 11
441.57648633048922
 21
1070.2851360424261
 31
0.0
  0
LINE
  5
BCF2
  8
0
  6
CONTINUOUS
 10
442.87668733048912
 20
1080.7851360424261
 30
0.0
 11
441.57648633048922
 21
1080.7851360424261
 31
0.0
  0
LINE
  5
BCF3
  8
0
 10
463.87668733048912
 20
1085.2655250424259
 30
0.0
 11
446.37668733048918
 21
1085.2655250424259
 31
0.0
  0
LINE
  5
BCF4
  8
0
 10
463.87668733048912
 20
1063.4678380424259
 30
0.0
 11
443.37668733048912
 21
1063.4678380424259
 31
0.0
  0
ARC
  5
BCF5
  8
0
 10
443.37668733048912
 20
1064.4678380424259
 30
0.0
 40
1.0
 50
270.0
 51
0.0
  0
LINE
  5
BCF6
  8
0
 10
463.87668733048912
 20
1077.141520042426
 30
0.0
 11
446.37668733048918
 21
1077.141520042426
 31
0.0
  0
LINE
  5
BCF7
  8
0
 10
257.37668733048929
 20
1085.401876042426
 30
0.0
 11
259.8766873304894
 21
1085.401876042426
 31
0.0
  0
ARC
  5
BCF8
  8
0
 10
460.55488633048918
 20
911.40187604242635
 30
0.0
 40
2.0
 50
90.0
 51
169.99999999999491
  0
ARC
  5
BCF9
  8
0
 10
396.61932933048951
 20
906.40821904242625
 30
0.0
 40
1.9936590000000001
 50
90.075931000003493
 51
178.1702539999921
  0
LINE
  5
BCFA
  8
0
 10
396.61668733048941
 20
908.40187604242635
 30
0.0
 11
456.31685333048932
 21
908.40187604242635
 31
0.0
  0
LINE
  5
BCFB
  8
0
 10
394.37668733048929
 20
899.40187604242635
 30
0.0
 11
394.99271633048937
 21
917.00119604242627
 31
0.0
  0
LINE
  5
BCFC
  8
0
 10
458.58527133048921
 20
911.74917204242627
 30
0.0
 11
458.28646833048907
 21
910.05458004242644
 31
0.0
  0
ARC
  5
BCFD
  8
0
 10
456.31685333048932
 20
910.40187604242635
 30
0.0
 40
2.0
 50
270.0
 51
349.99999999999488
  0
LINE
  5
BCFE
  8
0
 10
260.45403733048943
 20
916.40187604242635
 30
0.0
 11
267.67091633048932
 21
903.90187604242635
 31
0.0
  0
LINE
  5
BCFF
  8
0
 10
269.40296633048951
 20
902.90187604242624
 30
0.0
 11
317.32165833048907
 21
902.90187604242624
 31
0.0
  0
LINE
  5
BD00
  8
0
 10
319.37668733048929
 20
899.40187604242635
 30
0.0
 11
319.32037533048913
 21
900.9734910424263
 31
0.0
  0
ARC
  5
BD01
  8
0
 10
258.7219863304893
 20
915.40187604242624
 30
0.0
 40
2.0
 50
30.000000000000551
 51
90.0
  0
ARC
  5
BD02
  8
0
 10
269.40296633048951
 20
904.90187604242635
 30
0.0
 40
2.0
 50
210.00000000000051
 51
270.0
  0
ARC
  5
BD03
  8
0
 10
317.32165833048907
 20
900.90187604242635
 30
0.0
 40
2.0
 50
2.0520649999985339
 51
90.0
  0
LINE
  5
BD04
  8
0
 10
319.37668733048929
 20
899.40187604242635
 30
0.0
 11
394.37668733048929
 21
899.40187604242635
 31
0.0
  0
LINE
  5
BD05
  8
0
 10
268.40296633048939
 20
903.16982504242628
 30
0.0
 11
268.40296633048939
 21
917.00119604242627
 31
0.0
  0
LINE
  5
BD06
  8
0
 10
454.84377133048912
 20
917.00119604242627
 30
0.0
 11
264.82033133048918
 21
917.00119604242627
 31
0.0
  0
LINE
  5
BD07
  8
0
 10
454.62298533048909
 20
922.40324004242632
 30
0.0
 11
264.92954433048942
 21
922.40324004242632
 31
0.0
  0
LINE
  5
BD08
  8
0
 10
458.87668733048918
 20
937.00964204242655
 30
0.0
 11
424.87668733048929
 21
937.00964204242655
 31
0.0
  0
LINE
  5
BD09
  8
0
 10
458.87668733048918
 20
937.00964204242655
 30
0.0
 11
456.59260033048929
 21
924.05594304242618
 31
0.0
  0
ARC
  5
BD0A
  8
0
 10
454.62298533048909
 20
924.40324004242632
 30
0.0
 40
2.0
 50
270.0
 51
349.99999999999488
  0
LINE
  5
BD0B
  8
0
 10
458.87668733048918
 20
930.35546004242633
 30
0.0
 11
456.81338633048921
 21
918.65390004242624
 31
0.0
  0
ARC
  5
BD0C
  8
0
 10
454.84377133048912
 20
919.00119604242616
 30
0.0
 40
2.0
 50
270.0
 51
349.99999999999488
  0
LINE
  5
BD0D
  8
0
 10
263.61942533048932
 20
917.40187604242635
 30
0.0
 11
257.37668733048929
 21
917.40187604242635
 31
0.0
  0
LINE
  5
BD0E
  8
0
 10
458.87668733048918
 20
918.24989004242616
 30
0.0
 11
457.43163333048909
 21
910.05458004242644
 31
0.0
  0
ARC
  5
BD0F
  8
0
 10
455.46201733048918
 20
910.40187604242635
 30
0.0
 40
2.0
 50
270.0
 51
349.99999999999488
  0
LINE
  5
BD10
  8
0
 10
393.8766873304894
 20
953.24187604242616
 30
0.0
 11
393.8766873304894
 21
950.54187604242622
 31
0.0
  0
LINE
  5
BD11
  8
0
 10
463.87668733048912
 20
939.19223904242665
 30
0.0
 11
446.37668733048918
 21
939.19223904242665
 31
0.0
  0
LINE
  5
BD12
  8
0
 10
463.87668733048912
 20
951.49987804242619
 30
0.0
 11
446.37668733048918
 21
951.49987804242619
 31
0.0
  0
LINE
  5
BD13
  8
0
 10
463.87668733048912
 20
961.67917004242634
 30
0.0
 11
458.87668733048918
 21
961.67917004242634
 31
0.0
  0
LINE
  5
BD14
  8
0
 10
444.37668733048929
 20
960.67917004242634
 30
0.0
 11
444.37668733048929
 21
941.19223904242642
 31
0.0
  0
ARC
  5
BD15
  8
0
 10
443.37668733048912
 20
960.67917004242634
 30
0.0
 40
1.0
 50
0.0
 51
42.252324000004279
  0
ARC
  5
BD16
  8
0
 10
446.37668733048918
 20
941.19223904242642
 30
0.0
 40
2.0
 50
180.0
 51
270.0
  0
LINE
  5
BD17
  8
0
 10
408.87668733048918
 20
1058.3348340424261
 30
0.0
 11
408.87668733048918
 21
1052.5072710424261
 31
0.0
  0
LINE
  5
BD18
  8
0
 10
424.87668733048929
 20
1058.3348340424261
 30
0.0
 11
424.87668733048929
 21
1052.5072710424261
 31
0.0
  0
LINE
  5
BD19
  8
0
 10
408.87668733048918
 20
1049.3763580424261
 30
0.0
 11
408.87668733048918
 21
1041.452185042426
 31
0.0
  0
LINE
  5
BD1A
  8
0
 10
408.87668733048918
 20
1038.4064790424261
 30
0.0
 11
408.87668733048918
 21
1030.4163110424261
 31
0.0
  0
LINE
  5
BD1B
  8
0
 10
408.87668733048918
 20
1027.423684042426
 30
0.0
 11
408.87668733048918
 21
1019.392983042426
 31
0.0
  0
LINE
  5
BD1C
  8
0
 10
408.87668733048918
 20
1016.431504042426
 30
0.0
 11
408.87668733048918
 21
1009.379720042426
 31
0.0
  0
LINE
  5
BD1D
  8
0
 10
408.87668733048918
 20
1006.561876042426
 30
0.0
 11
408.87668733048918
 21
996.37172404242665
 31
0.0
  0
LINE
  5
BD1E
  8
0
 10
424.87668733048929
 20
1006.561876042426
 30
0.0
 11
424.87668733048929
 21
996.37172404242665
 31
0.0
  0
LINE
  5
BD1F
  8
0
 10
424.87668733048929
 20
1016.431504042426
 30
0.0
 11
424.87668733048929
 21
1009.379720042426
 31
0.0
  0
LINE
  5
BD20
  8
0
 10
424.87668733048929
 20
1027.423684042426
 30
0.0
 11
424.87668733048929
 21
1019.392983042426
 31
0.0
  0
LINE
  5
BD21
  8
0
 10
424.87668733048929
 20
1038.4064790424261
 30
0.0
 11
424.87668733048929
 21
1030.4163110424261
 31
0.0
  0
LINE
  5
BD22
  8
0
 10
424.87668733048929
 20
1049.3763580424261
 30
0.0
 11
424.87668733048929
 21
1041.452185042426
 31
0.0
  0
LINE
  5
BD23
  8
0
 10
408.87668733048918
 20
993.42403204242635
 30
0.0
 11
408.87668733048918
 21
986.37224804242635
 31
0.0
  0
LINE
  5
BD24
  8
0
 10
424.87668733048929
 20
993.42403204242635
 30
0.0
 11
424.87668733048929
 21
986.37224804242635
 31
0.0
  0
LINE
  5
BD25
  8
0
 10
424.87668733048929
 20
983.4107690424263
 30
0.0
 11
424.87668733048929
 21
975.38006804242616
 31
0.0
  0
LINE
  5
BD26
  8
0
 10
408.87668733048918
 20
983.4107690424263
 30
0.0
 11
408.87668733048918
 21
975.38006804242616
 31
0.0
  0
LINE
  5
BD27
  8
0
 10
408.87668733048918
 20
972.3874410424263
 30
0.0
 11
408.87668733048918
 21
964.3972730424266
 31
0.0
  0
LINE
  5
BD28
  8
0
 10
424.87668733048929
 20
972.3874410424263
 30
0.0
 11
424.87668733048929
 21
964.3972730424266
 31
0.0
  0
LINE
  5
BD29
  8
0
 10
439.42608233048912
 20
945.38108004242622
 30
0.0
 11
424.87668633048929
 21
945.38108004242622
 31
0.0
  0
LINE
  5
BD2A
  8
0
 10
444.37668733048929
 20
956.79343004242662
 30
0.0
 11
424.87668633048929
 21
956.79343004242662
 31
0.0
  0
LINE
  5
BD2B
  8
0
 10
408.87668733048918
 20
961.35156704242627
 30
0.0
 11
408.87668733048918
 21
941.35156704242615
 31
0.0
  0
LINE
  5
BD2C
  8
0
 10
460.87668733048929
 20
1085.2655250424259
 30
0.0
 11
460.87668733048929
 21
1089.401876042426
 31
0.0
  0
LINE
  5
BD2D
  8
0
 10
458.87668733048918
 20
915.20013204242628
 30
0.0
 11
457.96938733048921
 21
910.05458004242644
 31
0.0
  0
ARC
  5
BD2E
  8
0
 10
455.99977233048912
 20
910.40187604242635
 30
0.0
 40
2.0
 50
270.0
 51
349.99999999999488
  0
LINE
  5
BD2F
  8
0
 10
424.87668733048929
 20
961.35156704242627
 30
0.0
 11
424.87668733048929
 21
956.79343004242662
 31
0.0
  0
LINE
  5
BD30
  8
0
 10
460.87668733048929
 20
961.67917004242634
 30
0.0
 11
460.87668733048929
 21
1063.4678380424259
 31
0.0
  0
LINE
  5
BD31
  8
0
 10
259.8766873304894
 20
941.54187604242622
 30
0.0
 11
262.95992933048939
 21
924.05594304242618
 31
0.0
  0
ARC
  5
BD32
  8
0
 10
264.92954433048942
 20
924.40324004242632
 30
0.0
 40
2.0
 50
190.000000000005
 51
270.0
  0
LINE
  5
BD33
  8
0
 10
409.5820843304889
 20
950.09617004242625
 30
0.0
 11
424.87668733048929
 21
945.38108004242622
 31
0.0
  0
LINE
  5
BD34
  8
0
 10
424.87668733048929
 20
956.79343004242662
 30
0.0
 11
409.84074633048891
 21
956.25267904242628
 31
0.0
  0
LINE
  5
BD35
  8
0
 10
424.87668733048929
 20
945.38108004242622
 30
0.0
 11
424.87668733048929
 21
937.00964204242655
 31
0.0
  0
ARC
  5
BD36
  8
0
 10
409.87668733048912
 20
955.25332504242635
 30
0.0
 40
1.0
 50
92.059691000003568
 51
180.0
  0
ARC
  5
BD37
  8
0
 10
409.87668733048912
 20
951.05179004242632
 30
0.0
 40
1.0
 50
180.0
 51
252.8662750000021
  0
LINE
  5
BD38
  8
0
 10
424.87668733048929
 20
1077.254663042426
 30
0.0
 11
409.5762283304889
 21
1072.434797042426
 31
0.0
  0
LINE
  5
BD39
  8
0
 10
409.92524233048891
 20
1068.1311160424259
 30
0.0
 11
424.87668733048929
 21
1068.857936042426
 31
0.0
  0
ARC
  5
BD3A
  8
0
 10
409.87668733048912
 20
1071.4810020424261
 30
0.0
 40
1.0
 50
107.485179
 51
180.0
  0
ARC
  5
BD3B
  8
0
 10
409.87668733048912
 20
1069.129937042426
 30
0.0
 40
1.0
 50
180.0
 51
270.0
  0
ARC
  5
BD3C
  8
0
  6
CONTINUOUS
 10
441.57648633048922
 20
946.84321504242632
 30
0.0
 40
2.6003989999999999
 50
179.99998200000081
 51
269.99997799999522
  0
ARC
  5
BD3D
  8
0
  6
CONTINUOUS
 10
441.57648633048922
 20
952.14320304242631
 30
0.0
 40
2.600403
 50
90.0
 51
179.99998200000081
  0
LINE
  5
BD3E
  8
0
  6
CONTINUOUS
 10
444.37668733048929
 20
949.55923404242628
 30
0.0
 11
442.87668733048912
 21
948.69320904242659
 31
0.0
  0
LINE
  5
BD3F
  8
0
  6
CONTINUOUS
 10
444.37668733048929
 20
950.55923404242628
 30
0.0
 11
442.87668733048912
 21
949.69320904242659
 31
0.0
  0
LINE
  5
BD40
  8
0
  6
CONTINUOUS
 10
444.37668733048929
 20
955.59320904242634
 30
0.0
 11
444.37668733048929
 21
943.39320904242618
 31
0.0
  0
LINE
  5
BD41
  8
0
  6
CONTINUOUS
 10
442.87668733048912
 20
955.59320904242634
 30
0.0
 11
444.37668733048929
 21
955.59320904242634
 31
0.0
  0
LINE
  5
BD42
  8
0
  6
CONTINUOUS
 10
442.87668733048912
 20
943.39320904242618
 30
0.0
 11
444.37668733048929
 21
943.39320904242618
 31
0.0
  0
LINE
  5
BD43
  8
0
  6
CONTINUOUS
 10
438.9766933304893
 20
952.14320304242631
 30
0.0
 11
438.9766933304893
 21
946.84321504242632
 31
0.0
  0
LINE
  5
BD44
  8
0
  6
CONTINUOUS
 10
442.87668733048912
 20
955.59320904242634
 30
0.0
 11
442.87668733048912
 21
943.39320904242618
 31
0.0
  0
LINE
  5
BD45
  8
0
  6
CONTINUOUS
 10
442.87668733048912
 20
944.24320904242632
 30
0.0
 11
441.57648633048922
 21
944.24320904242632
 31
0.0
  0
LINE
  5
BD46
  8
0
  6
CONTINUOUS
 10
442.87668733048912
 20
954.74320904242643
 30
0.0
 11
441.57648633048922
 21
954.74320904242643
 31
0.0
  0
LINE
  5
BD47
  8
0
 10
458.87668733048918
 20
1061.5791440424259
 30
0.0
 11
259.8766873304894
 21
1061.5791440424259
 31
0.0
  0
LINE
  5
BD48
  8
0
 10
458.87668733048918
 20
1058.3348340424261
 30
0.0
 11
259.8766873304894
 21
1058.3348340424261
 31
0.0
  0
LINE
  5
BD49
  8
0
 10
458.87668733048918
 20
1052.5072710424261
 30
0.0
 11
259.8766873304894
 21
1052.5072710424261
 31
0.0
  0
LINE
  5
BD4A
  8
0
 10
458.87668733048918
 20
1049.3763580424261
 30
0.0
 11
259.8766873304894
 21
1049.3763580424261
 31
0.0
  0
LINE
  5
BD4B
  8
0
 10
458.87668733048918
 20
1041.452185042426
 30
0.0
 11
259.8766873304894
 21
1041.452185042426
 31
0.0
  0
LINE
  5
BD4C
  8
0
 10
458.87668733048918
 20
1038.4064790424261
 30
0.0
 11
259.8766873304894
 21
1038.4064790424261
 31
0.0
  0
LINE
  5
BD4D
  8
0
 10
458.87668733048918
 20
1030.4163110424261
 30
0.0
 11
259.8766873304894
 21
1030.4163110424261
 31
0.0
  0
LINE
  5
BD4E
  8
0
 10
458.87668733048918
 20
1027.423684042426
 30
0.0
 11
259.8766873304894
 21
1027.423684042426
 31
0.0
  0
LINE
  5
BD4F
  8
0
 10
458.87668733048918
 20
1019.392983042426
 30
0.0
 11
259.8766873304894
 21
1019.392983042426
 31
0.0
  0
LINE
  5
BD50
  8
0
 10
458.87668733048918
 20
1016.431504042426
 30
0.0
 11
259.8766873304894
 21
1016.431504042426
 31
0.0
  0
LINE
  5
BD51
  8
0
 10
458.87668733048918
 20
1009.379720042426
 30
0.0
 11
364.44993033048911
 21
1009.379720042426
 31
0.0
  0
LINE
  5
BD52
  8
0
 10
458.87668733048918
 20
1006.4320280424261
 30
0.0
 11
371.26233433048941
 21
1006.4320280424261
 31
0.0
  0
LINE
  5
BD53
  8
0
 10
456.79776633048908
 20
1060.901876042426
 30
0.0
 11
456.79776633048908
 21
1058.901876042426
 31
0.0
  0
LINE
  5
BD54
  8
0
 10
261.95560833048933
 20
1058.901876042426
 30
0.0
 11
456.79776633048908
 21
1058.901876042426
 31
0.0
  0
LINE
  5
BD55
  8
0
 10
261.95560833048933
 20
1060.901876042426
 30
0.0
 11
456.79776633048908
 21
1060.901876042426
 31
0.0
  0
LINE
  5
BD56
  8
0
 10
261.95560833048933
 20
1049.901876042426
 30
0.0
 11
456.79776633048908
 21
1049.901876042426
 31
0.0
  0
LINE
  5
BD57
  8
0
 10
261.95560833048933
 20
1051.901876042426
 30
0.0
 11
456.79776633048908
 21
1051.901876042426
 31
0.0
  0
LINE
  5
BD58
  8
0
 10
261.95560833048933
 20
1038.901876042426
 30
0.0
 11
456.79776633048908
 21
1038.901876042426
 31
0.0
  0
LINE
  5
BD59
  8
0
 10
261.95560833048933
 20
1040.901876042426
 30
0.0
 11
456.79776633048908
 21
1040.901876042426
 31
0.0
  0
LINE
  5
BD5A
  8
0
 10
261.95560833048933
 20
1027.901876042426
 30
0.0
 11
456.79776633048908
 21
1027.901876042426
 31
0.0
  0
LINE
  5
BD5B
  8
0
 10
261.95560833048933
 20
1029.901876042426
 30
0.0
 11
456.79776633048908
 21
1029.901876042426
 31
0.0
  0
LINE
  5
BD5C
  8
0
 10
261.95560833048933
 20
1016.901876042426
 30
0.0
 11
456.79776633048908
 21
1016.901876042426
 31
0.0
  0
LINE
  5
BD5D
  8
0
 10
261.95560833048933
 20
1018.901876042426
 30
0.0
 11
456.79776633048908
 21
1018.901876042426
 31
0.0
  0
LINE
  5
BD5E
  8
0
 10
370.65166433048933
 20
1006.901876042426
 30
0.0
 11
456.79776633048908
 21
1006.901876042426
 31
0.0
  0
LINE
  5
BD5F
  8
0
 10
364.92342533048918
 20
1008.901876042426
 30
0.0
 11
456.79776633048908
 21
1008.901876042426
 31
0.0
  0
LINE
  5
BD60
  8
0
 10
456.79776633048908
 20
1060.901876042426
 30
0.0
 11
458.87668733048918
 21
1061.5791440424259
 31
0.0
  0
LINE
  5
BD61
  8
0
 10
456.79776633048908
 20
1058.901876042426
 30
0.0
 11
458.87668733048918
 21
1058.3348340424261
 31
0.0
  0
LINE
  5
BD62
  8
0
 10
456.79776633048908
 20
1051.901876042426
 30
0.0
 11
458.87668733048918
 21
1052.5072710424261
 31
0.0
  0
LINE
  5
BD63
  8
0
 10
456.79776633048908
 20
1049.901876042426
 30
0.0
 11
458.87668733048918
 21
1049.3763580424261
 31
0.0
  0
LINE
  5
BD64
  8
0
 10
456.79776633048908
 20
1040.901876042426
 30
0.0
 11
458.87668733048918
 21
1041.452185042426
 31
0.0
  0
LINE
  5
BD65
  8
0
 10
456.79776633048908
 20
1038.901876042426
 30
0.0
 11
458.87668733048918
 21
1038.4064790424261
 31
0.0
  0
LINE
  5
BD66
  8
0
 10
456.79776633048908
 20
1029.901876042426
 30
0.0
 11
458.87668733048918
 21
1030.4163110424261
 31
0.0
  0
LINE
  5
BD67
  8
0
 10
456.79776633048908
 20
1027.901876042426
 30
0.0
 11
458.87668733048918
 21
1027.423684042426
 31
0.0
  0
LINE
  5
BD68
  8
0
 10
456.79776633048908
 20
1018.901876042426
 30
0.0
 11
458.87668733048918
 21
1019.392983042426
 31
0.0
  0
LINE
  5
BD69
  8
0
 10
456.79776633048908
 20
1016.901876042426
 30
0.0
 11
458.87668733048918
 21
1016.431504042426
 31
0.0
  0
LINE
  5
BD6A
  8
0
 10
456.79776633048908
 20
1008.901876042426
 30
0.0
 11
458.87668733048918
 21
1009.379720042426
 31
0.0
  0
LINE
  5
BD6B
  8
0
 10
456.79776633048908
 20
1006.901876042426
 30
0.0
 11
458.87668733048918
 21
1006.4320280424261
 31
0.0
  0
LINE
  5
BD6C
  8
0
 10
456.79776633048908
 20
1051.901876042426
 30
0.0
 11
456.79776633048908
 21
1049.901876042426
 31
0.0
  0
LINE
  5
BD6D
  8
0
 10
456.79776633048908
 20
1040.901876042426
 30
0.0
 11
456.79776633048908
 21
1038.901876042426
 31
0.0
  0
LINE
  5
BD6E
  8
0
 10
456.79776633048908
 20
1029.901876042426
 30
0.0
 11
456.79776633048908
 21
1027.901876042426
 31
0.0
  0
LINE
  5
BD6F
  8
0
 10
456.79776633048908
 20
1018.901876042426
 30
0.0
 11
456.79776633048908
 21
1016.901876042426
 31
0.0
  0
LINE
  5
BD70
  8
0
 10
456.79776633048908
 20
1008.901876042426
 30
0.0
 11
456.79776633048908
 21
1006.901876042426
 31
0.0
  0
ARC
  5
BD71
  8
0
 10
370.65166433048933
 20
1003.901876042426
 30
0.0
 40
3.0
 50
90.0
 51
190.28656100000819
  0
ARC
  5
BD72
  8
0
 10
371.26233433048941
 20
1002.962028042426
 30
0.0
 40
3.4700000000000002
 50
90.0
 51
186.1896490000004
  0
LINE
  5
BD73
  8
0
 10
276.95560833048933
 20
1008.901876042426
 30
0.0
 11
276.95560833048933
 21
1006.901876042426
 31
0.0
  0
LINE
  5
BD74
  8
0
 10
261.95560833048933
 20
1018.901876042426
 30
0.0
 11
261.95560833048933
 21
1016.901876042426
 31
0.0
  0
LINE
  5
BD75
  8
0
 10
261.95560833048933
 20
1029.901876042426
 30
0.0
 11
261.95560833048933
 21
1027.901876042426
 31
0.0
  0
LINE
  5
BD76
  8
0
 10
261.95560833048933
 20
1040.901876042426
 30
0.0
 11
261.95560833048933
 21
1038.901876042426
 31
0.0
  0
LINE
  5
BD77
  8
0
 10
261.95560833048933
 20
1051.901876042426
 30
0.0
 11
261.95560833048933
 21
1049.901876042426
 31
0.0
  0
LINE
  5
BD78
  8
0
 10
276.95560833048933
 20
1006.901876042426
 30
0.0
 11
274.87668733048929
 21
1006.4320280424261
 31
0.0
  0
LINE
  5
BD79
  8
0
 10
276.95560833048933
 20
1008.901876042426
 30
0.0
 11
274.87668733048929
 21
1009.379720042426
 31
0.0
  0
LINE
  5
BD7A
  8
0
 10
261.95560833048933
 20
1016.901876042426
 30
0.0
 11
259.8766873304894
 21
1016.431504042426
 31
0.0
  0
LINE
  5
BD7B
  8
0
 10
261.95560833048933
 20
1018.901876042426
 30
0.0
 11
259.8766873304894
 21
1019.392983042426
 31
0.0
  0
LINE
  5
BD7C
  8
0
 10
261.95560833048933
 20
1027.901876042426
 30
0.0
 11
259.8766873304894
 21
1027.423684042426
 31
0.0
  0
LINE
  5
BD7D
  8
0
 10
261.95560833048933
 20
1029.901876042426
 30
0.0
 11
259.8766873304894
 21
1030.4163110424261
 31
0.0
  0
LINE
  5
BD7E
  8
0
 10
261.95560833048933
 20
1038.901876042426
 30
0.0
 11
259.8766873304894
 21
1038.4064790424261
 31
0.0
  0
LINE
  5
BD7F
  8
0
 10
261.95560833048933
 20
1040.901876042426
 30
0.0
 11
259.8766873304894
 21
1041.452185042426
 31
0.0
  0
LINE
  5
BD80
  8
0
 10
261.95560833048933
 20
1049.901876042426
 30
0.0
 11
259.8766873304894
 21
1049.3763580424261
 31
0.0
  0
LINE
  5
BD81
  8
0
 10
261.95560833048933
 20
1051.901876042426
 30
0.0
 11
259.8766873304894
 21
1052.5072710424261
 31
0.0
  0
LINE
  5
BD82
  8
0
 10
261.95560833048933
 20
1058.901876042426
 30
0.0
 11
259.8766873304894
 21
1058.3348340424261
 31
0.0
  0
LINE
  5
BD83
  8
0
 10
261.95560833048933
 20
1060.901876042426
 30
0.0
 11
259.8766873304894
 21
1061.5791440424259
 31
0.0
  0
LINE
  5
BD84
  8
0
 10
261.95560833048933
 20
1060.901876042426
 30
0.0
 11
261.95560833048933
 21
1058.901876042426
 31
0.0
  0
LINE
  5
BD85
  8
0
 10
259.8766873304894
 20
1058.3348340424261
 30
0.0
 11
259.8766873304894
 21
1061.5791440424259
 31
0.0
  0
LINE
  5
BD86
  8
0
 10
259.8766873304894
 20
1049.3763580424261
 30
0.0
 11
259.8766873304894
 21
1052.5072710424261
 31
0.0
  0
LINE
  5
BD87
  8
0
 10
259.8766873304894
 20
1038.4064790424261
 30
0.0
 11
259.8766873304894
 21
1041.452185042426
 31
0.0
  0
LINE
  5
BD88
  8
0
 10
259.8766873304894
 20
1027.423684042426
 30
0.0
 11
259.8766873304894
 21
1030.4163110424261
 31
0.0
  0
LINE
  5
BD89
  8
0
 10
259.8766873304894
 20
1016.431504042426
 30
0.0
 11
259.8766873304894
 21
1019.392983042426
 31
0.0
  0
LINE
  5
BD8A
  8
0
 10
274.87668733048929
 20
1006.4320280424261
 30
0.0
 11
274.87668733048929
 21
1009.379720042426
 31
0.0
  0
LINE
  5
BD8B
  8
0
 10
274.87668733048929
 20
1009.379720042426
 30
0.0
 11
349.30344433048953
 21
1009.379720042426
 31
0.0
  0
LINE
  5
BD8C
  8
0
 10
274.87668733048929
 20
1006.4320280424261
 30
0.0
 11
342.4910403304894
 21
1006.4320280424261
 31
0.0
  0
LINE
  5
BD8D
  8
0
 10
343.1017103304892
 20
1006.901876042426
 30
0.0
 11
276.95560833048933
 21
1006.901876042426
 31
0.0
  0
LINE
  5
BD8E
  8
0
 10
348.82994933048928
 20
1008.901876042426
 30
0.0
 11
276.95560833048933
 21
1008.901876042426
 31
0.0
  0
ARC
  5
BD8F
  8
0
 10
343.1017103304892
 20
1003.901876042426
 30
0.0
 40
3.0
 50
349.71343899999181
 51
90.0
  0
ARC
  5
BD90
  8
0
 10
342.4910403304894
 20
1002.962028042426
 30
0.0
 40
3.4700000000000002
 50
353.81035099999951
 51
90.0
  0
LINE
  5
BD91
  8
0
 10
458.87668733048918
 20
961.35156704242627
 30
0.0
 11
259.8766873304894
 21
961.35156704242627
 31
0.0
  0
LINE
  5
BD92
  8
0
 10
458.87668733048918
 20
964.3972730424266
 30
0.0
 11
259.8766873304894
 21
964.3972730424266
 31
0.0
  0
LINE
  5
BD93
  8
0
 10
458.87668733048918
 20
972.3874410424263
 30
0.0
 11
259.8766873304894
 21
972.3874410424263
 31
0.0
  0
LINE
  5
BD94
  8
0
 10
458.87668733048918
 20
975.38006804242616
 30
0.0
 11
259.8766873304894
 21
975.38006804242616
 31
0.0
  0
LINE
  5
BD95
  8
0
 10
458.87668733048918
 20
983.4107690424263
 30
0.0
 11
259.8766873304894
 21
983.4107690424263
 31
0.0
  0
LINE
  5
BD96
  8
0
 10
458.87668733048918
 20
986.37224804242635
 30
0.0
 11
259.8766873304894
 21
986.37224804242635
 31
0.0
  0
LINE
  5
BD97
  8
0
 10
261.95560833048933
 20
963.90187604242635
 30
0.0
 11
456.79776633048908
 21
963.90187604242635
 31
0.0
  0
LINE
  5
BD98
  8
0
 10
261.95560833048933
 20
961.90187604242635
 30
0.0
 11
456.79776633048908
 21
961.90187604242635
 31
0.0
  0
LINE
  5
BD99
  8
0
 10
261.95560833048933
 20
974.90187604242635
 30
0.0
 11
456.79776633048908
 21
974.90187604242635
 31
0.0
  0
LINE
  5
BD9A
  8
0
 10
261.95560833048933
 20
972.90187604242635
 30
0.0
 11
456.79776633048908
 21
972.90187604242635
 31
0.0
  0
LINE
  5
BD9B
  8
0
 10
261.95560833048933
 20
985.90187604242624
 30
0.0
 11
456.79776633048908
 21
985.90187604242624
 31
0.0
  0
LINE
  5
BD9C
  8
0
 10
261.95560833048933
 20
983.90187604242635
 30
0.0
 11
456.79776633048908
 21
983.90187604242635
 31
0.0
  0
LINE
  5
BD9D
  8
0
 10
274.87668733048929
 20
993.42403204242635
 30
0.0
 11
349.30344433048953
 21
993.42403204242635
 31
0.0
  0
LINE
  5
BD9E
  8
0
 10
274.87668733048929
 20
996.37172404242665
 30
0.0
 11
342.4910403304894
 21
996.37172404242665
 31
0.0
  0
LINE
  5
BD9F
  8
0
 10
343.1017103304892
 20
995.90187604242635
 30
0.0
 11
276.95560833048933
 21
995.90187604242635
 31
0.0
  0
LINE
  5
BDA0
  8
0
 10
348.82994933048928
 20
993.90187604242635
 30
0.0
 11
276.95560833048933
 21
993.90187604242635
 31
0.0
  0
LINE
  5
BDA1
  8
0
 10
274.87668733048929
 20
996.37172404242665
 30
0.0
 11
274.87668733048929
 21
993.42403204242635
 31
0.0
  0
LINE
  5
BDA2
  8
0
 10
259.8766873304894
 20
986.37224804242635
 30
0.0
 11
259.8766873304894
 21
983.4107690424263
 31
0.0
  0
LINE
  5
BDA3
  8
0
 10
259.8766873304894
 20
975.38006804242616
 30
0.0
 11
259.8766873304894
 21
972.3874410424263
 31
0.0
  0
LINE
  5
BDA4
  8
0
 10
259.8766873304894
 20
964.3972730424266
 30
0.0
 11
259.8766873304894
 21
961.35156704242627
 31
0.0
  0
LINE
  5
BDA5
  8
0
 10
261.95560833048933
 20
961.90187604242635
 30
0.0
 11
259.8766873304894
 21
961.35156704242627
 31
0.0
  0
LINE
  5
BDA6
  8
0
 10
261.95560833048933
 20
963.90187604242635
 30
0.0
 11
259.8766873304894
 21
964.3972730424266
 31
0.0
  0
LINE
  5
BDA7
  8
0
 10
261.95560833048933
 20
972.90187604242635
 30
0.0
 11
259.8766873304894
 21
972.3874410424263
 31
0.0
  0
LINE
  5
BDA8
  8
0
 10
261.95560833048933
 20
974.90187604242635
 30
0.0
 11
259.8766873304894
 21
975.38006804242616
 31
0.0
  0
LINE
  5
BDA9
  8
0
 10
261.95560833048933
 20
983.90187604242635
 30
0.0
 11
259.8766873304894
 21
983.4107690424263
 31
0.0
  0
LINE
  5
BDAA
  8
0
 10
261.95560833048933
 20
985.90187604242624
 30
0.0
 11
259.8766873304894
 21
986.37224804242635
 31
0.0
  0
LINE
  5
BDAB
  8
0
 10
276.95560833048933
 20
993.90187604242635
 30
0.0
 11
274.87668733048929
 21
993.42403204242635
 31
0.0
  0
LINE
  5
BDAC
  8
0
 10
276.95560833048933
 20
995.90187604242635
 30
0.0
 11
274.87668733048929
 21
996.37172404242665
 31
0.0
  0
LINE
  5
BDAD
  8
0
 10
261.95560833048933
 20
961.90187604242635
 30
0.0
 11
261.95560833048933
 21
963.90187604242635
 31
0.0
  0
LINE
  5
BDAE
  8
0
 10
261.95560833048933
 20
972.90187604242635
 30
0.0
 11
261.95560833048933
 21
974.90187604242635
 31
0.0
  0
LINE
  5
BDAF
  8
0
 10
261.95560833048933
 20
983.90187604242635
 30
0.0
 11
261.95560833048933
 21
985.90187604242624
 31
0.0
  0
LINE
  5
BDB0
  8
0
 10
276.95560833048933
 20
993.90187604242635
 30
0.0
 11
276.95560833048933
 21
995.90187604242635
 31
0.0
  0
ARC
  5
BDB1
  8
0
 10
343.1017103304892
 20
998.90187604242635
 30
0.0
 40
3.0
 50
270.0
 51
10.28656100000822
  0
ARC
  5
BDB2
  8
0
 10
342.4910403304894
 20
999.84172404242634
 30
0.0
 40
3.4700000000000002
 50
270.0
 51
6.1896490000005366
  0
LINE
  5
BDB3
  8
0
 10
458.87668733048918
 20
993.42403204242635
 30
0.0
 11
364.44993033048911
 21
993.42403204242635
 31
0.0
  0
LINE
  5
BDB4
  8
0
 10
458.87668733048918
 20
996.37172404242665
 30
0.0
 11
371.26233433048941
 21
996.37172404242665
 31
0.0
  0
LINE
  5
BDB5
  8
0
 10
370.65166433048933
 20
995.90187604242635
 30
0.0
 11
456.79776633048908
 21
995.90187604242635
 31
0.0
  0
LINE
  5
BDB6
  8
0
 10
364.92342533048918
 20
993.90187604242635
 30
0.0
 11
456.79776633048908
 21
993.90187604242635
 31
0.0
  0
ARC
  5
BDB7
  8
0
 10
370.65166433048933
 20
998.90187604242635
 30
0.0
 40
3.0
 50
169.71343899999181
 51
270.0
  0
ARC
  5
BDB8
  8
0
 10
371.26233433048941
 20
999.84172404242634
 30
0.0
 40
3.4700000000000002
 50
173.8103509999994
 51
270.0
  0
LINE
  5
BDB9
  8
0
 10
456.79776633048908
 20
993.90187604242635
 30
0.0
 11
456.79776633048908
 21
995.90187604242635
 31
0.0
  0
LINE
  5
BDBA
  8
0
 10
456.79776633048908
 20
983.90187604242635
 30
0.0
 11
456.79776633048908
 21
985.90187604242624
 31
0.0
  0
LINE
  5
BDBB
  8
0
 10
456.79776633048908
 20
972.90187604242635
 30
0.0
 11
456.79776633048908
 21
974.90187604242635
 31
0.0
  0
LINE
  5
BDBC
  8
0
 10
456.79776633048908
 20
961.90187604242635
 30
0.0
 11
456.79776633048908
 21
963.90187604242635
 31
0.0
  0
LINE
  5
BDBD
  8
0
 10
456.79776633048908
 20
995.90187604242635
 30
0.0
 11
458.87668733048918
 21
996.37172404242665
 31
0.0
  0
LINE
  5
BDBE
  8
0
 10
456.79776633048908
 20
993.90187604242635
 30
0.0
 11
458.87668733048918
 21
993.42403204242635
 31
0.0
  0
LINE
  5
BDBF
  8
0
 10
456.79776633048908
 20
985.90187604242624
 30
0.0
 11
458.87668733048918
 21
986.37224804242635
 31
0.0
  0
LINE
  5
BDC0
  8
0
 10
456.79776633048908
 20
983.90187604242635
 30
0.0
 11
458.87668733048918
 21
983.4107690424263
 31
0.0
  0
LINE
  5
BDC1
  8
0
 10
456.79776633048908
 20
974.90187604242635
 30
0.0
 11
458.87668733048918
 21
975.38006804242616
 31
0.0
  0
LINE
  5
BDC2
  8
0
 10
456.79776633048908
 20
972.90187604242635
 30
0.0
 11
458.87668733048918
 21
972.3874410424263
 31
0.0
  0
LINE
  5
BDC3
  8
0
 10
456.79776633048908
 20
963.90187604242635
 30
0.0
 11
458.87668733048918
 21
964.3972730424266
 31
0.0
  0
LINE
  5
BDC4
  8
0
 10
456.79776633048908
 20
961.90187604242635
 30
0.0
 11
458.87668733048918
 21
961.35156704242627
 31
0.0
  0
LINE
  5
BDC5
  8
0
 10
458.87668733048918
 20
964.3972730424266
 30
0.0
 11
458.87668733048918
 21
961.35156704242627
 31
0.0
  0
LINE
  5
BDC6
  8
0
 10
458.87668733048918
 20
975.38006804242616
 30
0.0
 11
458.87668733048918
 21
972.3874410424263
 31
0.0
  0
LINE
  5
BDC7
  8
0
 10
458.87668733048918
 20
986.37224804242635
 30
0.0
 11
458.87668733048918
 21
983.4107690424263
 31
0.0
  0
LINE
  5
BDC8
  8
0
 10
458.87668733048918
 20
996.37172404242665
 30
0.0
 11
458.87668733048918
 21
993.42403204242635
 31
0.0
  0
LINE
  5
BDC9
  8
0
 10
391.79776633048942
 20
952.90187604242624
 30
0.0
 11
393.8766873304894
 21
953.39727304242626
 31
0.0
  0
LINE
  5
BDCA
  8
0
 10
393.8766873304894
 20
953.39727304242626
 30
0.0
 11
259.8766873304894
 21
953.39727304242626
 31
0.0
  0
LINE
  5
BDCB
  8
0
 10
261.95560833048933
 20
952.90187604242624
 30
0.0
 11
391.79776633048942
 21
952.90187604242624
 31
0.0
  0
LINE
  5
BDCC
  8
0
 10
391.79776633048942
 20
950.90187604242635
 30
0.0
 11
391.79776633048942
 21
952.90187604242624
 31
0.0
  0
LINE
  5
BDCD
  8
0
 10
393.8766873304894
 20
950.35156704242615
 30
0.0
 11
259.8766873304894
 21
950.35156704242615
 31
0.0
  0
LINE
  5
BDCE
  8
0
 10
261.95560833048933
 20
950.90187604242635
 30
0.0
 11
391.79776633048942
 21
950.90187604242635
 31
0.0
  0
LINE
  5
BDCF
  8
0
 10
391.79776633048942
 20
950.90187604242635
 30
0.0
 11
393.8766873304894
 21
950.35156704242615
 31
0.0
  0
LINE
  5
BDD0
  8
0
 10
393.8766873304894
 20
944.39727304242604
 30
0.0
 11
259.8766873304894
 21
944.39727304242604
 31
0.0
  0
LINE
  5
BDD1
  8
0
 10
261.95560833048933
 20
943.90187604242635
 30
0.0
 11
391.79776633048942
 21
943.90187604242635
 31
0.0
  0
LINE
  5
BDD2
  8
0
 10
393.8766873304894
 20
941.35156704242615
 30
0.0
 11
259.91024433048932
 21
941.35156704242615
 31
0.0
  0
LINE
  5
BDD3
  8
0
 10
261.95560833048933
 20
941.90187604242635
 30
0.0
 11
391.79776633048942
 21
941.90187604242635
 31
0.0
  0
LINE
  5
BDD4
  8
0
 10
391.79776633048942
 20
941.90187604242635
 30
0.0
 11
393.8766873304894
 21
941.35156704242615
 31
0.0
  0
LINE
  5
BDD5
  8
0
 10
393.8766873304894
 20
944.39727304242604
 30
0.0
 11
393.8766873304894
 21
941.35156704242615
 31
0.0
  0
LINE
  5
BDD6
  8
0
 10
391.79776633048942
 20
941.90187604242635
 30
0.0
 11
391.79776633048942
 21
943.90187604242635
 31
0.0
  0
LINE
  5
BDD7
  8
0
 10
391.79776633048942
 20
943.90187604242635
 30
0.0
 11
393.8766873304894
 21
944.39727304242604
 31
0.0
  0
LINE
  5
BDD8
  8
0
 10
393.8766873304894
 20
941.35156704242615
 30
0.0
 11
408.87668733048918
 21
941.35156704242615
 31
0.0
  0
LINE
  5
BDD9
  8
0
 10
408.87668733048918
 20
941.35156704242615
 30
0.0
 11
424.87668733048929
 21
937.00964204242655
 31
0.0
  0
LINE
  5
BDDA
  8
0
 10
259.8766873304894
 20
953.39727304242626
 30
0.0
 11
259.8766873304894
 21
950.35156704242615
 31
0.0
  0
LINE
  5
BDDB
  8
0
 10
259.8766873304894
 20
944.39727304242604
 30
0.0
 11
259.8766873304894
 21
941.35156704242615
 31
0.0
  0
LINE
  5
BDDC
  8
0
 10
261.95560833048933
 20
950.90187604242635
 30
0.0
 11
261.95560833048933
 21
952.90187604242624
 31
0.0
  0
LINE
  5
BDDD
  8
0
 10
261.95560833048933
 20
952.90187604242624
 30
0.0
 11
259.8766873304894
 21
953.39727304242626
 31
0.0
  0
LINE
  5
BDDE
  8
0
 10
261.95560833048933
 20
950.90187604242635
 30
0.0
 11
259.8766873304894
 21
950.35156704242615
 31
0.0
  0
LINE
  5
BDDF
  8
0
 10
261.95560833048933
 20
943.90187604242635
 30
0.0
 11
259.8766873304894
 21
944.39727304242604
 31
0.0
  0
LINE
  5
BDE0
  8
0
 10
261.95560833048933
 20
941.90187604242635
 30
0.0
 11
261.95560833048933
 21
943.90187604242635
 31
0.0
  0
LINE
  5
BDE1
  8
0
 10
261.95560833048933
 20
941.90187604242635
 30
0.0
 11
259.8766873304894
 21
941.35156704242615
 31
0.0
  0
LINE
  5
BDE2
  8
0
 10
157.77671733048919
 20
1101.401876042426
 30
0.0
 11
235.37668733048929
 21
1101.401876042426
 31
0.0
  0
LINE
  5
BDE3
  8
0
 10
157.77671733048919
 20
1107.401876042426
 30
0.0
 11
235.37668733048929
 21
1107.401876042426
 31
0.0
  0
LINE
  5
BDE4
  8
0
 10
257.37668733048929
 20
1098.401876042426
 30
0.0
 11
153.8766873304892
 21
1098.401876042426
 31
0.0
  0
LINE
  5
BDE5
  8
0
 10
246.3766873304892
 20
1101.401876042426
 30
0.0
 11
259.8766873304894
 21
1101.401876042426
 31
0.0
  0
ARC
  5
BDE6
  8
0
 10
904.16366733048915
 20
1001.401876042426
 30
0.0
 40
764.28698999999995
 50
172.82194999999871
 51
187.17804000000049
  0
LINE
  5
BDE7
  8
0
 10
150.52671733048919
 20
907.80183604242632
 30
0.0
 11
150.52671733048919
 21
1095.0918160424269
 31
0.0
  0
LINE
  5
BDE8
  8
0
 10
144.8766873304892
 20
1063.8418160424269
 30
0.0
 11
144.8766873304892
 21
938.26185604242619
 31
0.0
  0
LINE
  5
BDE9
  8
0
 10
142.8766873304892
 20
1063.8418160424269
 30
0.0
 11
142.8766873304892
 21
938.95179604242617
 31
0.0
  0
LINE
  5
BDEA
  8
0
 10
257.37668733048929
 20
904.40187604242635
 30
0.0
 11
153.8766873304892
 21
904.40187604242635
 31
0.0
  0
LINE
  5
BDEB
  8
0
 10
145.0266573304892
 20
935.57185604242659
 30
0.0
 11
149.93668733048921
 21
907.70185604242624
 31
0.0
  0
ARC
  5
BDEC
  8
0
 10
157.77842733048919
 20
907.39991604242618
 30
0.0
 40
5.9980479999999998
 50
207.05350999999459
 51
269.98324000000241
  0
ARC
  5
BDED
  8
0
 10
157.7791573304892
 20
907.39796604242645
 30
0.0
 40
11.996128000000001
 50
187.16444000000149
 51
269.98821999999512
  0
ARC
  5
BDEE
  8
0
 10
144.03708733048919
 20
935.40492604242627
 30
0.0
 40
1.0035289999999999
 50
9.5734909999996081
 51
62.101815000001061
  0
ARC
  5
BDEF
  8
0
 10
145.87522733048931
 20
938.95985604242617
 30
0.0
 40
2.9985330000000001
 50
180.1533100000014
 51
242.84513000000379
  0
ARC
  5
BDF0
  8
0
 10
153.8760773304893
 20
908.40321604242615
 30
0.0
 40
4.0014059999999976
 50
190.09553000000011
 51
270.00784999999382
  0
LINE
  5
BDF1
  8
0
 10
145.0266573304892
 20
1067.2218160424261
 30
0.0
 11
149.9366273304891
 21
1095.0918160424269
 31
0.0
  0
ARC
  5
BDF2
  8
0
 10
153.87620733048931
 20
1094.4024860424261
 30
0.0
 40
3.9993959999999982
 50
89.993274999998206
 51
170.07406000000469
  0
ARC
  5
BDF3
  8
0
 10
144.03733733048929
 20
1067.4010160424259
 30
0.0
 40
1.0054319999999961
 50
297.82706000000729
 51
349.7352699999982
  0
ARC
  5
BDF4
  8
0
 10
145.8738873304892
 20
1063.8446260424271
 30
0.0
 40
2.997211999999998
 50
117.13965999999481
 51
180.05331000000339
  0
ARC
  5
BDF5
  8
0
 10
157.77756733048921
 20
1095.4051660424259
 30
0.0
 40
5.9966319999999991
 50
90.008472000000225
 51
152.954760000004
  0
ARC
  5
BDF6
  8
0
 10
157.77817733048931
 20
1095.406816042426
 30
0.0
 40
11.995034
 50
90.007167000000024
 51
172.84015999999829
  0
LINE
  5
BDF7
  8
0
 10
137.4866773304893
 20
996.40187604242635
 30
0.0
 11
137.4866773304893
 21
1006.401876042426
 31
0.0
  0
LINE
  5
BDF8
  8
0
 10
139.89670733048919
 20
1006.401876042426
 30
0.0
 11
137.4866773304893
 21
1006.401876042426
 31
0.0
  0
LINE
  5
BDF9
  8
0
 10
139.89670733048919
 20
996.40187604242635
 30
0.0
 11
137.4866773304893
 21
996.40187604242635
 31
0.0
  0
LINE
  5
BDFA
  8
0
 10
389.00156133048932
 20
875.90140604242629
 30
0.0
 11
386.82725633048938
 21
875.90140604242629
 31
0.0
  0
LINE
  5
BDFB
  8
0
 10
394.8766873304894
 20
879.90148604242631
 30
0.0
 11
386.50156133048932
 21
879.90148604242631
 31
0.0
  0
POLYLINE
  5
BDFC
  8
0
 10
386.00156133048932
 20
862.9011460424266
 30
0.0
 66
     1
 70
     8
  0
VERTEX
  8
0
  5
C198
 10
386.002
 20
862.901
 30
0.000000
  70
    32
  0
VERTEX
  8
0
  5
C199
 10
386.032
 20
862.901
 30
0.000000
  70
    32
  0
VERTEX
  8
0
  5
C19A
 10
386.063
 20
862.902
 30
0.000000
  70
    32
  0
VERTEX
  8
0
  5
C19B
 10
386.094
 20
862.903
 30
0.000000
  70
    32
  0
VERTEX
  8
0
  5
C19C
 10
386.124
 20
862.904
 30
0.000000
  70
    32
  0
VERTEX
  8
0
  5
C19D
 10
386.155
 20
862.906
 30
0.000000
  70
    32
  0
VERTEX
  8
0
  5
C19E
 10
386.185
 20
862.908
 30
0.000000
  70
    32
  0
VERTEX
  8
0
  5
C19F
 10
386.216
 20
862.910
 30
0.000000
  70
    32
  0
VERTEX
  8
0
  5
C1A0
 10
386.247
 20
862.913
 30
0.000000
  70
    32
  0
VERTEX
  8
0
  5
C1A1
 10
386.277
 20
862.916
 30
0.000000
  70
    32
  0
VERTEX
  8
0
  5
C1A2
 10
386.308
 20
862.920
 30
0.000000
  70
    32
  0
VERTEX
  8
0
  5
C1A3
 10
386.338
 20
862.924
 30
0.000000
  70
    32
  0
VERTEX
  8
0
  5
C1A4
 10
386.368
 20
862.928
 30
0.000000
  70
    32
  0
VERTEX
  8
0
  5
C1A5
 10
386.399
 20
862.933
 30
0.000000
  70
    32
  0
VERTEX
  8
0
  5
C1A6
 10
386.429
 20
862.938
 30
0.000000
  70
    32
  0
VERTEX
  8
0
  5
C1A7
 10
386.459
 20
862.943
 30
0.000000
  70
    32
  0
VERTEX
  8
0
  5
C1A8
 10
386.489
 20
862.949
 30
0.000000
  70
    32
  0
VERTEX
  8
0
  5
C1A9
 10
386.519
 20
862.955
 30
0.000000
  70
    32
  0
VERTEX
  8
0
  5
C1AA
 10
386.549
 20
862.962
 30
0.000000
  70
    32
  0
VERTEX
  8
0
  5
C1AB
 10
386.579
 20
862.969
 30
0.000000
  70
    32
  0
VERTEX
  8
0
  5
C1AC
 10
386.609
 20
862.976
 30
0.000000
  70
    32
  0
VERTEX
  8
0
  5
C1AD
 10
386.639
 20
862.984
 30
0.000000
  70
    32
  0
VERTEX
  8
0
  5
C1AE
 10
386.668
 20
862.992
 30
0.000000
  70
    32
  0
VERTEX
  8
0
  5
C1AF
 10
386.698
 20
863.000
 30
0.000000
  70
    32
  0
VERTEX
  8
0
  5
C1B0
 10
386.727
 20
863.009
 30
0.000000
  70
    32
  0
VERTEX
  8
0
  5
C1B1
 10
386.757
 20
863.018
 30
0.000000
  70
    32
  0
VERTEX
  8
0
  5
C1B2
 10
386.786
 20
863.027
 30
0.000000
  70
    32
  0
VERTEX
  8
0
  5
C1B3
 10
386.815
 20
863.037
 30
0.000000
  70
    32
  0
VERTEX
  8
0
  5
C1B4
 10
386.844
 20
863.047
 30
0.000000
  70
    32
  0
VERTEX
  8
0
  5
C1B5
 10
386.873
 20
863.058
 30
0.000000
  70
    32
  0
VERTEX
  8
0
  5
C1B6
 10
386.901
 20
863.069
 30
0.000000
  70
    32
  0
VERTEX
  8
0
  5
C1B7
 10
386.930
 20
863.080
 30
0.000000
  70
    32
  0
VERTEX
  8
0
  5
C1B8
 10
386.958
 20
863.091
 30
0.000000
  70
    32
  0
VERTEX
  8
0
  5
C1B9
 10
386.987
 20
863.103
 30
0.000000
  70
    32
  0
VERTEX
  8
0
  5
C1BA
 10
387.015
 20
863.116
 30
0.000000
  70
    32
  0
VERTEX
  8
0
  5
C1BB
 10
387.043
 20
863.128
 30
0.000000
  70
    32
  0
VERTEX
  8
0
  5
C1BC
 10
387.070
 20
863.141
 30
0.000000
  70
    32
  0
VERTEX
  8
0
  5
C1BD
 10
387.098
 20
863.154
 30
0.000000
  70
    32
  0
VERTEX
  8
0
  5
C1BE
 10
387.126
 20
863.168
 30
0.000000
  70
    32
  0
VERTEX
  8
0
  5
C1BF
 10
387.153
 20
863.182
 30
0.000000
  70
    32
  0
VERTEX
  8
0
  5
C1C0
 10
387.180
 20
863.196
 30
0.000000
  70
    32
  0
VERTEX
  8
0
  5
C1C1
 10
387.207
 20
863.211
 30
0.000000
  70
    32
  0
VERTEX
  8
0
  5
C1C2
 10
387.234
 20
863.226
 30
0.000000
  70
    32
  0
VERTEX
  8
0
  5
C1C3
 10
387.260
 20
863.241
 30
0.000000
  70
    32
  0
VERTEX
  8
0
  5
C1C4
 10
387.287
 20
863.257
 30
0.000000
  70
    32
  0
VERTEX
  8
0
  5
C1C5
 10
387.313
 20
863.273
 30
0.000000
  70
    32
  0
VERTEX
  8
0
  5
C1C6
 10
387.339
 20
863.289
 30
0.000000
  70
    32
  0
VERTEX
  8
0
  5
C1C7
 10
387.365
 20
863.306
 30
0.000000
  70
    32
  0
VERTEX
  8
0
  5
C1C8
 10
387.390
 20
863.322
 30
0.000000
  70
    32
  0
VERTEX
  8
0
  5
C1C9
 10
387.416
 20
863.340
 30
0.000000
  70
    32
  0
VERTEX
  8
0
  5
C1CA
 10
387.441
 20
863.357
 30
0.000000
  70
    32
  0
VERTEX
  8
0
  5
C1CB
 10
387.466
 20
863.375
 30
0.000000
  70
    32
  0
VERTEX
  8
0
  5
C1CC
 10
387.491
 20
863.393
 30
0.000000
  70
    32
  0
VERTEX
  8
0
  5
C1CD
 10
387.515
 20
863.412
 30
0.000000
  70
    32
  0
VERTEX
  8
0
  5
C1CE
 10
387.540
 20
863.430
 30
0.000000
  70
    32
  0
VERTEX
  8
0
  5
C1CF
 10
387.564
 20
863.449
 30
0.000000
  70
    32
  0
VERTEX
  8
0
  5
C1D0
 10
387.588
 20
863.469
 30
0.000000
  70
    32
  0
VERTEX
  8
0
  5
C1D1
 10
387.611
 20
863.488
 30
0.000000
  70
    32
  0
VERTEX
  8
0
  5
C1D2
 10
387.634
 20
863.508
 30
0.000000
  70
    32
  0
VERTEX
  8
0
  5
C1D3
 10
387.658
 20
863.528
 30
0.000000
  70
    32
  0
VERTEX
  8
0
  5
C1D4
 10
387.680
 20
863.549
 30
0.000000
  70
    32
  0
VERTEX
  8
0
  5
C1D5
 10
387.703
 20
863.570
 30
0.000000
  70
    32
  0
VERTEX
  8
0
  5
C1D6
 10
387.725
 20
863.591
 30
0.000000
  70
    32
  0
VERTEX
  8
0
  5
C1D7
 10
387.748
 20
863.612
 30
0.000000
  70
    32
  0
VERTEX
  8
0
  5
C1D8
 10
387.769
 20
863.633
 30
0.000000
  70
    32
  0
VERTEX
  8
0
  5
C1D9
 10
387.791
 20
863.655
 30
0.000000
  70
    32
  0
VERTEX
  8
0
  5
C1DA
 10
387.812
 20
863.677
 30
0.000000
  70
    32
  0
VERTEX
  8
0
  5
C1DB
 10
387.833
 20
863.700
 30
0.000000
  70
    32
  0
VERTEX
  8
0
  5
C1DC
 10
387.854
 20
863.722
 30
0.000000
  70
    32
  0
VERTEX
  8
0
  5
C1DD
 10
387.874
 20
863.745
 30
0.000000
  70
    32
  0
VERTEX
  8
0
  5
C1DE
 10
387.895
 20
863.768
 30
0.000000
  70
    32
  0
VERTEX
  8
0
  5
C1DF
 10
387.914
 20
863.792
 30
0.000000
  70
    32
  0
VERTEX
  8
0
  5
C1E0
 10
387.934
 20
863.815
 30
0.000000
  70
    32
  0
VERTEX
  8
0
  5
C1E1
 10
387.953
 20
863.839
 30
0.000000
  70
    32
  0
VERTEX
  8
0
  5
C1E2
 10
387.972
 20
863.863
 30
0.000000
  70
    32
  0
VERTEX
  8
0
  5
C1E3
 10
387.991
 20
863.887
 30
0.000000
  70
    32
  0
VERTEX
  8
0
  5
C1E4
 10
388.010
 20
863.912
 30
0.000000
  70
    32
  0
VERTEX
  8
0
  5
C1E5
 10
388.028
 20
863.937
 30
0.000000
  70
    32
  0
VERTEX
  8
0
  5
C1E6
 10
388.046
 20
863.962
 30
0.000000
  70
    32
  0
VERTEX
  8
0
  5
C1E7
 10
388.063
 20
863.987
 30
0.000000
  70
    32
  0
VERTEX
  8
0
  5
C1E8
 10
388.080
 20
864.012
 30
0.000000
  70
    32
  0
VERTEX
  8
0
  5
C1E9
 10
388.097
 20
864.038
 30
0.000000
  70
    32
  0
VERTEX
  8
0
  5
C1EA
 10
388.114
 20
864.064
 30
0.000000
  70
    32
  0
VERTEX
  8
0
  5
C1EB
 10
388.130
 20
864.090
 30
0.000000
  70
    32
  0
VERTEX
  8
0
  5
C1EC
 10
388.146
 20
864.116
 30
0.000000
  70
    32
  0
VERTEX
  8
0
  5
C1ED
 10
388.161
 20
864.142
 30
0.000000
  70
    32
  0
VERTEX
  8
0
  5
C1EE
 10
388.177
 20
864.169
 30
0.000000
  70
    32
  0
VERTEX
  8
0
  5
C1EF
 10
388.192
 20
864.196
 30
0.000000
  70
    32
  0
VERTEX
  8
0
  5
C1F0
 10
388.206
 20
864.223
 30
0.000000
  70
    32
  0
VERTEX
  8
0
  5
C1F1
 10
388.221
 20
864.250
 30
0.000000
  70
    32
  0
VERTEX
  8
0
  5
C1F2
 10
388.235
 20
864.277
 30
0.000000
  70
    32
  0
VERTEX
  8
0
  5
C1F3
 10
388.248
 20
864.305
 30
0.000000
  70
    32
  0
VERTEX
  8
0
  5
C1F4
 10
388.262
 20
864.332
 30
0.000000
  70
    32
  0
VERTEX
  8
0
  5
C1F5
 10
388.274
 20
864.360
 30
0.000000
  70
    32
  0
VERTEX
  8
0
  5
C1F6
 10
388.287
 20
864.388
 30
0.000000
  70
    32
  0
VERTEX
  8
0
  5
C1F7
 10
388.299
 20
864.416
 30
0.000000
  70
    32
  0
VERTEX
  8
0
  5
C1F8
 10
388.311
 20
864.444
 30
0.000000
  70
    32
  0
VERTEX
  8
0
  5
C1F9
 10
388.323
 20
864.473
 30
0.000000
  70
    32
  0
VERTEX
  8
0
  5
C1FA
 10
388.334
 20
864.501
 30
0.000000
  70
    32
  0
VERTEX
  8
0
  5
C1FB
 10
388.345
 20
864.530
 30
0.000000
  70
    32
  0
VERTEX
  8
0
  5
C1FC
 10
388.355
 20
864.559
 30
0.000000
  70
    32
  0
VERTEX
  8
0
  5
C1FD
 10
388.366
 20
864.588
 30
0.000000
  70
    32
  0
VERTEX
  8
0
  5
C1FE
 10
388.375
 20
864.617
 30
0.000000
  70
    32
  0
VERTEX
  8
0
  5
C1FF
 10
388.385
 20
864.646
 30
0.000000
  70
    32
  0
VERTEX
  8
0
  5
C200
 10
388.394
 20
864.675
 30
0.000000
  70
    32
  0
VERTEX
  8
0
  5
C201
 10
388.403
 20
864.705
 30
0.000000
  70
    32
  0
VERTEX
  8
0
  5
C202
 10
388.411
 20
864.734
 30
0.000000
  70
    32
  0
VERTEX
  8
0
  5
C203
 10
388.419
 20
864.764
 30
0.000000
  70
    32
  0
VERTEX
  8
0
  5
C204
 10
388.427
 20
864.794
 30
0.000000
  70
    32
  0
VERTEX
  8
0
  5
C205
 10
388.434
 20
864.824
 30
0.000000
  70
    32
  0
VERTEX
  8
0
  5
C206
 10
388.441
 20
864.853
 30
0.000000
  70
    32
  0
VERTEX
  8
0
  5
C207
 10
388.447
 20
864.883
 30
0.000000
  70
    32
  0
VERTEX
  8
0
  5
C208
 10
388.454
 20
864.913
 30
0.000000
  70
    32
  0
VERTEX
  8
0
  5
C209
 10
388.459
 20
864.944
 30
0.000000
  70
    32
  0
VERTEX
  8
0
  5
C20A
 10
388.465
 20
864.974
 30
0.000000
  70
    32
  0
VERTEX
  8
0
  5
C20B
 10
388.470
 20
865.004
 30
0.000000
  70
    32
  0
VERTEX
  8
0
  5
C20C
 10
388.475
 20
865.034
 30
0.000000
  70
    32
  0
VERTEX
  8
0
  5
C20D
 10
388.479
 20
865.065
 30
0.000000
  70
    32
  0
VERTEX
  8
0
  5
C20E
 10
388.483
 20
865.095
 30
0.000000
  70
    32
  0
VERTEX
  8
0
  5
C20F
 10
388.486
 20
865.126
 30
0.000000
  70
    32
  0
VERTEX
  8
0
  5
C210
 10
388.490
 20
865.156
 30
0.000000
  70
    32
  0
VERTEX
  8
0
  5
C211
 10
388.492
 20
865.187
 30
0.000000
  70
    32
  0
VERTEX
  8
0
  5
C212
 10
388.495
 20
865.217
 30
0.000000
  70
    32
  0
VERTEX
  8
0
  5
C213
 10
388.497
 20
865.248
 30
0.000000
  70
    32
  0
VERTEX
  8
0
  5
C214
 10
388.499
 20
865.279
 30
0.000000
  70
    32
  0
VERTEX
  8
0
  5
C215
 10
388.500
 20
865.309
 30
0.000000
  70
    32
  0
VERTEX
  8
0
  5
C216
 10
388.501
 20
865.340
 30
0.000000
  70
    32
  0
VERTEX
  8
0
  5
C217
 10
388.501
 20
865.371
 30
0.000000
  70
    32
  0
VERTEX
  8
0
  5
C218
 10
388.502
 20
865.401
 30
0.000000
  70
    32
  0
SEQEND
  8
0
  5
C219
  0
LINE
  5
BDFD
  8
0
 10
313.40156133048953
 20
896.90182604242648
 30
0.0
 11
393.8766873304894
 21
896.90182604242648
 31
0.0
  0
LINE
  5
BDFE
  8
0
 10
379.87668733048929
 20
879.78661004242645
 30
0.0
 11
379.87668733048929
 21
896.90182604242648
 31
0.0
  0
LINE
  5
BDFF
  8
0
 10
332.00156133048932
 20
896.90182604242648
 30
0.0
 11
332.00156133048932
 21
879.90148604242631
 31
0.0
  0
LINE
  5
BE00
  8
0
 10
313.40156133048953
 20
896.90182604242648
 30
0.0
 11
313.40156133048953
 21
879.90148604242631
 31
0.0
  0
LINE
  5
BE01
  8
0
 10
307.60156133048929
 20
895.90180604242653
 30
0.0
 11
307.60156133048929
 21
867.90124604242635
 31
0.0
  0
LINE
  5
BE02
  8
0
 10
310.12013733048929
 20
867.90124604242635
 30
0.0
 11
342.0982073304894
 21
873.34978104242634
 31
0.0
  0
LINE
  5
BE03
  8
0
 10
310.20156133048908
 20
866.90122604242629
 30
0.0
 11
386.50156133048932
 21
879.90148604242631
 31
0.0
  0
LINE
  5
BE04
  8
0
 10
386.00156133048932
 20
862.90114604242615
 30
0.0
 11
310.52725633048908
 21
862.90114604242615
 31
0.0
  0
LINE
  5
BE05
  8
0
 10
386.82725633048938
 20
875.90140604242629
 30
0.0
 11
310.52725633048908
 21
862.90114604242615
 31
0.0
  0
LINE
  5
BE06
  8
0
 10
307.60156133048929
 20
871.90132604242649
 30
0.0
 11
306.40156133048953
 21
871.90132604242649
 31
0.0
  0
LINE
  5
BE07
  8
0
 10
310.12013733048929
 20
867.90124604242635
 30
0.0
 11
306.10156133048929
 21
867.90124604242635
 31
0.0
  0
LINE
  5
BE08
  8
0
 10
306.10156133048929
 20
866.90122604242629
 30
0.0
 11
310.20156133048908
 21
866.90122604242629
 31
0.0
  0
POLYLINE
  5
BE09
  8
0
 10
306.10156133108916
 20
864.4011760424263
 30
0.0
 66
     1
 70
     8
  0
VERTEX
  8
0
  5
C21A
 10
306.102
 20
864.401
 30
0.000000
  70
    32
  0
VERTEX
  8
0
  5
C21B
 10
306.102
 20
864.383
 30
0.000000
  70
    32
  0
VERTEX
  8
0
  5
C21C
 10
306.102
 20
864.364
 30
0.000000
  70
    32
  0
VERTEX
  8
0
  5
C21D
 10
306.103
 20
864.346
 30
0.000000
  70
    32
  0
VERTEX
  8
0
  5
C21E
 10
306.103
 20
864.328
 30
0.000000
  70
    32
  0
VERTEX
  8
0
  5
C21F
 10
306.104
 20
864.309
 30
0.000000
  70
    32
  0
VERTEX
  8
0
  5
C220
 10
306.106
 20
864.291
 30
0.000000
  70
    32
  0
VERTEX
  8
0
  5
C221
 10
306.107
 20
864.272
 30
0.000000
  70
    32
  0
VERTEX
  8
0
  5
C222
 10
306.109
 20
864.254
 30
0.000000
  70
    32
  0
VERTEX
  8
0
  5
C223
 10
306.111
 20
864.236
 30
0.000000
  70
    32
  0
VERTEX
  8
0
  5
C224
 10
306.113
 20
864.218
 30
0.000000
  70
    32
  0
VERTEX
  8
0
  5
C225
 10
306.115
 20
864.199
 30
0.000000
  70
    32
  0
VERTEX
  8
0
  5
C226
 10
306.118
 20
864.181
 30
0.000000
  70
    32
  0
VERTEX
  8
0
  5
C227
 10
306.121
 20
864.163
 30
0.000000
  70
    32
  0
VERTEX
  8
0
  5
C228
 10
306.124
 20
864.145
 30
0.000000
  70
    32
  0
VERTEX
  8
0
  5
C229
 10
306.127
 20
864.127
 30
0.000000
  70
    32
  0
VERTEX
  8
0
  5
C22A
 10
306.130
 20
864.109
 30
0.000000
  70
    32
  0
VERTEX
  8
0
  5
C22B
 10
306.134
 20
864.091
 30
0.000000
  70
    32
  0
VERTEX
  8
0
  5
C22C
 10
306.138
 20
864.073
 30
0.000000
  70
    32
  0
VERTEX
  8
0
  5
C22D
 10
306.142
 20
864.055
 30
0.000000
  70
    32
  0
VERTEX
  8
0
  5
C22E
 10
306.147
 20
864.037
 30
0.000000
  70
    32
  0
VERTEX
  8
0
  5
C22F
 10
306.151
 20
864.019
 30
0.000000
  70
    32
  0
VERTEX
  8
0
  5
C230
 10
306.156
 20
864.001
 30
0.000000
  70
    32
  0
VERTEX
  8
0
  5
C231
 10
306.161
 20
863.983
 30
0.000000
  70
    32
  0
VERTEX
  8
0
  5
C232
 10
306.166
 20
863.966
 30
0.000000
  70
    32
  0
VERTEX
  8
0
  5
C233
 10
306.172
 20
863.948
 30
0.000000
  70
    32
  0
VERTEX
  8
0
  5
C234
 10
306.177
 20
863.931
 30
0.000000
  70
    32
  0
VERTEX
  8
0
  5
C235
 10
306.183
 20
863.913
 30
0.000000
  70
    32
  0
VERTEX
  8
0
  5
C236
 10
306.189
 20
863.896
 30
0.000000
  70
    32
  0
VERTEX
  8
0
  5
C237
 10
306.196
 20
863.879
 30
0.000000
  70
    32
  0
VERTEX
  8
0
  5
C238
 10
306.202
 20
863.861
 30
0.000000
  70
    32
  0
VERTEX
  8
0
  5
C239
 10
306.209
 20
863.844
 30
0.000000
  70
    32
  0
VERTEX
  8
0
  5
C23A
 10
306.216
 20
863.827
 30
0.000000
  70
    32
  0
VERTEX
  8
0
  5
C23B
 10
306.223
 20
863.810
 30
0.000000
  70
    32
  0
VERTEX
  8
0
  5
C23C
 10
306.230
 20
863.793
 30
0.000000
  70
    32
  0
VERTEX
  8
0
  5
C23D
 10
306.238
 20
863.777
 30
0.000000
  70
    32
  0
VERTEX
  8
0
  5
C23E
 10
306.246
 20
863.760
 30
0.000000
  70
    32
  0
VERTEX
  8
0
  5
C23F
 10
306.254
 20
863.743
 30
0.000000
  70
    32
  0
VERTEX
  8
0
  5
C240
 10
306.262
 20
863.727
 30
0.000000
  70
    32
  0
VERTEX
  8
0
  5
C241
 10
306.270
 20
863.710
 30
0.000000
  70
    32
  0
VERTEX
  8
0
  5
C242
 10
306.279
 20
863.694
 30
0.000000
  70
    32
  0
VERTEX
  8
0
  5
C243
 10
306.287
 20
863.678
 30
0.000000
  70
    32
  0
VERTEX
  8
0
  5
C244
 10
306.296
 20
863.662
 30
0.000000
  70
    32
  0
VERTEX
  8
0
  5
C245
 10
306.306
 20
863.646
 30
0.000000
  70
    32
  0
VERTEX
  8
0
  5
C246
 10
306.315
 20
863.630
 30
0.000000
  70
    32
  0
VERTEX
  8
0
  5
C247
 10
306.325
 20
863.614
 30
0.000000
  70
    32
  0
VERTEX
  8
0
  5
C248
 10
306.334
 20
863.599
 30
0.000000
  70
    32
  0
VERTEX
  8
0
  5
C249
 10
306.344
 20
863.583
 30
0.000000
  70
    32
  0
VERTEX
  8
0
  5
C24A
 10
306.354
 20
863.568
 30
0.000000
  70
    32
  0
VERTEX
  8
0
  5
C24B
 10
306.365
 20
863.553
 30
0.000000
  70
    32
  0
VERTEX
  8
0
  5
C24C
 10
306.375
 20
863.537
 30
0.000000
  70
    32
  0
VERTEX
  8
0
  5
C24D
 10
306.386
 20
863.522
 30
0.000000
  70
    32
  0
VERTEX
  8
0
  5
C24E
 10
306.397
 20
863.508
 30
0.000000
  70
    32
  0
VERTEX
  8
0
  5
C24F
 10
306.408
 20
863.493
 30
0.000000
  70
    32
  0
VERTEX
  8
0
  5
C250
 10
306.419
 20
863.478
 30
0.000000
  70
    32
  0
VERTEX
  8
0
  5
C251
 10
306.430
 20
863.464
 30
0.000000
  70
    32
  0
VERTEX
  8
0
  5
C252
 10
306.442
 20
863.450
 30
0.000000
  70
    32
  0
VERTEX
  8
0
  5
C253
 10
306.454
 20
863.435
 30
0.000000
  70
    32
  0
VERTEX
  8
0
  5
C254
 10
306.466
 20
863.421
 30
0.000000
  70
    32
  0
VERTEX
  8
0
  5
C255
 10
306.478
 20
863.408
 30
0.000000
  70
    32
  0
VERTEX
  8
0
  5
C256
 10
306.490
 20
863.394
 30
0.000000
  70
    32
  0
VERTEX
  8
0
  5
C257
 10
306.503
 20
863.380
 30
0.000000
  70
    32
  0
VERTEX
  8
0
  5
C258
 10
306.515
 20
863.367
 30
0.000000
  70
    32
  0
VERTEX
  8
0
  5
C259
 10
306.528
 20
863.354
 30
0.000000
  70
    32
  0
VERTEX
  8
0
  5
C25A
 10
306.541
 20
863.340
 30
0.000000
  70
    32
  0
VERTEX
  8
0
  5
C25B
 10
306.554
 20
863.328
 30
0.000000
  70
    32
  0
VERTEX
  8
0
  5
C25C
 10
306.567
 20
863.315
 30
0.000000
  70
    32
  0
VERTEX
  8
0
  5
C25D
 10
306.581
 20
863.302
 30
0.000000
  70
    32
  0
VERTEX
  8
0
  5
C25E
 10
306.594
 20
863.290
 30
0.000000
  70
    32
  0
VERTEX
  8
0
  5
C25F
 10
306.608
 20
863.277
 30
0.000000
  70
    32
  0
VERTEX
  8
0
  5
C260
 10
306.622
 20
863.265
 30
0.000000
  70
    32
  0
VERTEX
  8
0
  5
C261
 10
306.636
 20
863.253
 30
0.000000
  70
    32
  0
VERTEX
  8
0
  5
C262
 10
306.650
 20
863.242
 30
0.000000
  70
    32
  0
VERTEX
  8
0
  5
C263
 10
306.664
 20
863.230
 30
0.000000
  70
    32
  0
VERTEX
  8
0
  5
C264
 10
306.679
 20
863.219
 30
0.000000
  70
    32
  0
VERTEX
  8
0
  5
C265
 10
306.693
 20
863.207
 30
0.000000
  70
    32
  0
VERTEX
  8
0
  5
C266
 10
306.708
 20
863.196
 30
0.000000
  70
    32
  0
VERTEX
  8
0
  5
C267
 10
306.723
 20
863.185
 30
0.000000
  70
    32
  0
VERTEX
  8
0
  5
C268
 10
306.738
 20
863.175
 30
0.000000
  70
    32
  0
VERTEX
  8
0
  5
C269
 10
306.753
 20
863.164
 30
0.000000
  70
    32
  0
VERTEX
  8
0
  5
C26A
 10
306.768
 20
863.154
 30
0.000000
  70
    32
  0
VERTEX
  8
0
  5
C26B
 10
306.784
 20
863.144
 30
0.000000
  70
    32
  0
VERTEX
  8
0
  5
C26C
 10
306.799
 20
863.134
 30
0.000000
  70
    32
  0
VERTEX
  8
0
  5
C26D
 10
306.815
 20
863.124
 30
0.000000
  70
    32
  0
VERTEX
  8
0
  5
C26E
 10
306.830
 20
863.115
 30
0.000000
  70
    32
  0
VERTEX
  8
0
  5
C26F
 10
306.846
 20
863.105
 30
0.000000
  70
    32
  0
VERTEX
  8
0
  5
C270
 10
306.862
 20
863.096
 30
0.000000
  70
    32
  0
VERTEX
  8
0
  5
C271
 10
306.878
 20
863.087
 30
0.000000
  70
    32
  0
VERTEX
  8
0
  5
C272
 10
306.894
 20
863.078
 30
0.000000
  70
    32
  0
VERTEX
  8
0
  5
C273
 10
306.911
 20
863.070
 30
0.000000
  70
    32
  0
VERTEX
  8
0
  5
C274
 10
306.927
 20
863.061
 30
0.000000
  70
    32
  0
VERTEX
  8
0
  5
C275
 10
306.944
 20
863.053
 30
0.000000
  70
    32
  0
VERTEX
  8
0
  5
C276
 10
306.960
 20
863.045
 30
0.000000
  70
    32
  0
VERTEX
  8
0
  5
C277
 10
306.977
 20
863.037
 30
0.000000
  70
    32
  0
VERTEX
  8
0
  5
C278
 10
306.994
 20
863.030
 30
0.000000
  70
    32
  0
VERTEX
  8
0
  5
C279
 10
307.011
 20
863.022
 30
0.000000
  70
    32
  0
VERTEX
  8
0
  5
C27A
 10
307.028
 20
863.015
 30
0.000000
  70
    32
  0
VERTEX
  8
0
  5
C27B
 10
307.045
 20
863.008
 30
0.000000
  70
    32
  0
VERTEX
  8
0
  5
C27C
 10
307.062
 20
863.002
 30
0.000000
  70
    32
  0
VERTEX
  8
0
  5
C27D
 10
307.079
 20
862.995
 30
0.000000
  70
    32
  0
VERTEX
  8
0
  5
C27E
 10
307.096
 20
862.989
 30
0.000000
  70
    32
  0
VERTEX
  8
0
  5
C27F
 10
307.114
 20
862.983
 30
0.000000
  70
    32
  0
VERTEX
  8
0
  5
C280
 10
307.131
 20
862.977
 30
0.000000
  70
    32
  0
VERTEX
  8
0
  5
C281
 10
307.149
 20
862.971
 30
0.000000
  70
    32
  0
VERTEX
  8
0
  5
C282
 10
307.166
 20
862.966
 30
0.000000
  70
    32
  0
VERTEX
  8
0
  5
C283
 10
307.184
 20
862.961
 30
0.000000
  70
    32
  0
VERTEX
  8
0
  5
C284
 10
307.201
 20
862.955
 30
0.000000
  70
    32
  0
VERTEX
  8
0
  5
C285
 10
307.219
 20
862.951
 30
0.000000
  70
    32
  0
VERTEX
  8
0
  5
C286
 10
307.237
 20
862.946
 30
0.000000
  70
    32
  0
VERTEX
  8
0
  5
C287
 10
307.255
 20
862.942
 30
0.000000
  70
    32
  0
VERTEX
  8
0
  5
C288
 10
307.273
 20
862.938
 30
0.000000
  70
    32
  0
VERTEX
  8
0
  5
C289
 10
307.291
 20
862.934
 30
0.000000
  70
    32
  0
VERTEX
  8
0
  5
C28A
 10
307.309
 20
862.930
 30
0.000000
  70
    32
  0
VERTEX
  8
0
  5
C28B
 10
307.327
 20
862.926
 30
0.000000
  70
    32
  0
VERTEX
  8
0
  5
C28C
 10
307.345
 20
862.923
 30
0.000000
  70
    32
  0
VERTEX
  8
0
  5
C28D
 10
307.363
 20
862.920
 30
0.000000
  70
    32
  0
VERTEX
  8
0
  5
C28E
 10
307.381
 20
862.917
 30
0.000000
  70
    32
  0
VERTEX
  8
0
  5
C28F
 10
307.400
 20
862.915
 30
0.000000
  70
    32
  0
VERTEX
  8
0
  5
C290
 10
307.418
 20
862.912
 30
0.000000
  70
    32
  0
VERTEX
  8
0
  5
C291
 10
307.436
 20
862.910
 30
0.000000
  70
    32
  0
VERTEX
  8
0
  5
C292
 10
307.455
 20
862.908
 30
0.000000
  70
    32
  0
VERTEX
  8
0
  5
C293
 10
307.473
 20
862.907
 30
0.000000
  70
    32
  0
VERTEX
  8
0
  5
C294
 10
307.491
 20
862.905
 30
0.000000
  70
    32
  0
VERTEX
  8
0
  5
C295
 10
307.510
 20
862.904
 30
0.000000
  70
    32
  0
VERTEX
  8
0
  5
C296
 10
307.528
 20
862.903
 30
0.000000
  70
    32
  0
VERTEX
  8
0
  5
C297
 10
307.546
 20
862.902
 30
0.000000
  70
    32
  0
VERTEX
  8
0
  5
C298
 10
307.565
 20
862.902
 30
0.000000
  70
    32
  0
VERTEX
  8
0
  5
C299
 10
307.583
 20
862.901
 30
0.000000
  70
    32
  0
VERTEX
  8
0
  5
C29A
 10
307.602
 20
862.901
 30
0.000000
  70
    32
  0
SEQEND
  8
0
  5
C29B
  0
POLYLINE
  5
BE0A
  8
0
 10
305.60156133108927
 20
864.4011760424263
 30
0.0
 66
     1
 70
     8
  0
VERTEX
  8
0
  5
C29C
 10
305.602
 20
864.401
 30
0.000000
  70
    32
  0
VERTEX
  8
0
  5
C29D
 10
305.602
 20
864.383
 30
0.000000
  70
    32
  0
VERTEX
  8
0
  5
C29E
 10
305.602
 20
864.364
 30
0.000000
  70
    32
  0
VERTEX
  8
0
  5
C29F
 10
305.603
 20
864.346
 30
0.000000
  70
    32
  0
VERTEX
  8
0
  5
C2A0
 10
305.603
 20
864.328
 30
0.000000
  70
    32
  0
VERTEX
  8
0
  5
C2A1
 10
305.604
 20
864.309
 30
0.000000
  70
    32
  0
VERTEX
  8
0
  5
C2A2
 10
305.606
 20
864.291
 30
0.000000
  70
    32
  0
VERTEX
  8
0
  5
C2A3
 10
305.607
 20
864.272
 30
0.000000
  70
    32
  0
VERTEX
  8
0
  5
C2A4
 10
305.609
 20
864.254
 30
0.000000
  70
    32
  0
VERTEX
  8
0
  5
C2A5
 10
305.611
 20
864.236
 30
0.000000
  70
    32
  0
VERTEX
  8
0
  5
C2A6
 10
305.613
 20
864.218
 30
0.000000
  70
    32
  0
VERTEX
  8
0
  5
C2A7
 10
305.615
 20
864.199
 30
0.000000
  70
    32
  0
VERTEX
  8
0
  5
C2A8
 10
305.618
 20
864.181
 30
0.000000
  70
    32
  0
VERTEX
  8
0
  5
C2A9
 10
305.621
 20
864.163
 30
0.000000
  70
    32
  0
VERTEX
  8
0
  5
C2AA
 10
305.624
 20
864.145
 30
0.000000
  70
    32
  0
VERTEX
  8
0
  5
C2AB
 10
305.627
 20
864.127
 30
0.000000
  70
    32
  0
VERTEX
  8
0
  5
C2AC
 10
305.630
 20
864.109
 30
0.000000
  70
    32
  0
VERTEX
  8
0
  5
C2AD
 10
305.634
 20
864.091
 30
0.000000
  70
    32
  0
VERTEX
  8
0
  5
C2AE
 10
305.638
 20
864.073
 30
0.000000
  70
    32
  0
VERTEX
  8
0
  5
C2AF
 10
305.642
 20
864.055
 30
0.000000
  70
    32
  0
VERTEX
  8
0
  5
C2B0
 10
305.647
 20
864.037
 30
0.000000
  70
    32
  0
VERTEX
  8
0
  5
C2B1
 10
305.651
 20
864.019
 30
0.000000
  70
    32
  0
VERTEX
  8
0
  5
C2B2
 10
305.656
 20
864.001
 30
0.000000
  70
    32
  0
VERTEX
  8
0
  5
C2B3
 10
305.661
 20
863.983
 30
0.000000
  70
    32
  0
VERTEX
  8
0
  5
C2B4
 10
305.666
 20
863.966
 30
0.000000
  70
    32
  0
VERTEX
  8
0
  5
C2B5
 10
305.672
 20
863.948
 30
0.000000
  70
    32
  0
VERTEX
  8
0
  5
C2B6
 10
305.677
 20
863.931
 30
0.000000
  70
    32
  0
VERTEX
  8
0
  5
C2B7
 10
305.683
 20
863.913
 30
0.000000
  70
    32
  0
VERTEX
  8
0
  5
C2B8
 10
305.689
 20
863.896
 30
0.000000
  70
    32
  0
VERTEX
  8
0
  5
C2B9
 10
305.696
 20
863.879
 30
0.000000
  70
    32
  0
VERTEX
  8
0
  5
C2BA
 10
305.702
 20
863.861
 30
0.000000
  70
    32
  0
VERTEX
  8
0
  5
C2BB
 10
305.709
 20
863.844
 30
0.000000
  70
    32
  0
VERTEX
  8
0
  5
C2BC
 10
305.716
 20
863.827
 30
0.000000
  70
    32
  0
VERTEX
  8
0
  5
C2BD
 10
305.723
 20
863.810
 30
0.000000
  70
    32
  0
VERTEX
  8
0
  5
C2BE
 10
305.730
 20
863.793
 30
0.000000
  70
    32
  0
VERTEX
  8
0
  5
C2BF
 10
305.738
 20
863.777
 30
0.000000
  70
    32
  0
VERTEX
  8
0
  5
C2C0
 10
305.746
 20
863.760
 30
0.000000
  70
    32
  0
VERTEX
  8
0
  5
C2C1
 10
305.754
 20
863.743
 30
0.000000
  70
    32
  0
VERTEX
  8
0
  5
C2C2
 10
305.762
 20
863.727
 30
0.000000
  70
    32
  0
VERTEX
  8
0
  5
C2C3
 10
305.770
 20
863.710
 30
0.000000
  70
    32
  0
VERTEX
  8
0
  5
C2C4
 10
305.779
 20
863.694
 30
0.000000
  70
    32
  0
VERTEX
  8
0
  5
C2C5
 10
305.787
 20
863.678
 30
0.000000
  70
    32
  0
VERTEX
  8
0
  5
C2C6
 10
305.796
 20
863.662
 30
0.000000
  70
    32
  0
VERTEX
  8
0
  5
C2C7
 10
305.806
 20
863.646
 30
0.000000
  70
    32
  0
VERTEX
  8
0
  5
C2C8
 10
305.815
 20
863.630
 30
0.000000
  70
    32
  0
VERTEX
  8
0
  5
C2C9
 10
305.825
 20
863.614
 30
0.000000
  70
    32
  0
VERTEX
  8
0
  5
C2CA
 10
305.834
 20
863.599
 30
0.000000
  70
    32
  0
VERTEX
  8
0
  5
C2CB
 10
305.844
 20
863.583
 30
0.000000
  70
    32
  0
VERTEX
  8
0
  5
C2CC
 10
305.854
 20
863.568
 30
0.000000
  70
    32
  0
VERTEX
  8
0
  5
C2CD
 10
305.865
 20
863.553
 30
0.000000
  70
    32
  0
VERTEX
  8
0
  5
C2CE
 10
305.875
 20
863.537
 30
0.000000
  70
    32
  0
VERTEX
  8
0
  5
C2CF
 10
305.886
 20
863.522
 30
0.000000
  70
    32
  0
VERTEX
  8
0
  5
C2D0
 10
305.897
 20
863.508
 30
0.000000
  70
    32
  0
VERTEX
  8
0
  5
C2D1
 10
305.908
 20
863.493
 30
0.000000
  70
    32
  0
VERTEX
  8
0
  5
C2D2
 10
305.919
 20
863.478
 30
0.000000
  70
    32
  0
VERTEX
  8
0
  5
C2D3
 10
305.930
 20
863.464
 30
0.000000
  70
    32
  0
VERTEX
  8
0
  5
C2D4
 10
305.942
 20
863.450
 30
0.000000
  70
    32
  0
VERTEX
  8
0
  5
C2D5
 10
305.954
 20
863.435
 30
0.000000
  70
    32
  0
VERTEX
  8
0
  5
C2D6
 10
305.966
 20
863.421
 30
0.000000
  70
    32
  0
VERTEX
  8
0
  5
C2D7
 10
305.978
 20
863.408
 30
0.000000
  70
    32
  0
VERTEX
  8
0
  5
C2D8
 10
305.990
 20
863.394
 30
0.000000
  70
    32
  0
VERTEX
  8
0
  5
C2D9
 10
306.003
 20
863.380
 30
0.000000
  70
    32
  0
VERTEX
  8
0
  5
C2DA
 10
306.015
 20
863.367
 30
0.000000
  70
    32
  0
VERTEX
  8
0
  5
C2DB
 10
306.028
 20
863.354
 30
0.000000
  70
    32
  0
VERTEX
  8
0
  5
C2DC
 10
306.041
 20
863.340
 30
0.000000
  70
    32
  0
VERTEX
  8
0
  5
C2DD
 10
306.054
 20
863.328
 30
0.000000
  70
    32
  0
VERTEX
  8
0
  5
C2DE
 10
306.067
 20
863.315
 30
0.000000
  70
    32
  0
VERTEX
  8
0
  5
C2DF
 10
306.081
 20
863.302
 30
0.000000
  70
    32
  0
VERTEX
  8
0
  5
C2E0
 10
306.094
 20
863.290
 30
0.000000
  70
    32
  0
VERTEX
  8
0
  5
C2E1
 10
306.108
 20
863.277
 30
0.000000
  70
    32
  0
VERTEX
  8
0
  5
C2E2
 10
306.122
 20
863.265
 30
0.000000
  70
    32
  0
VERTEX
  8
0
  5
C2E3
 10
306.136
 20
863.253
 30
0.000000
  70
    32
  0
VERTEX
  8
0
  5
C2E4
 10
306.150
 20
863.242
 30
0.000000
  70
    32
  0
VERTEX
  8
0
  5
C2E5
 10
306.164
 20
863.230
 30
0.000000
  70
    32
  0
VERTEX
  8
0
  5
C2E6
 10
306.179
 20
863.219
 30
0.000000
  70
    32
  0
VERTEX
  8
0
  5
C2E7
 10
306.193
 20
863.207
 30
0.000000
  70
    32
  0
VERTEX
  8
0
  5
C2E8
 10
306.208
 20
863.196
 30
0.000000
  70
    32
  0
VERTEX
  8
0
  5
C2E9
 10
306.223
 20
863.185
 30
0.000000
  70
    32
  0
VERTEX
  8
0
  5
C2EA
 10
306.238
 20
863.175
 30
0.000000
  70
    32
  0
VERTEX
  8
0
  5
C2EB
 10
306.253
 20
863.164
 30
0.000000
  70
    32
  0
VERTEX
  8
0
  5
C2EC
 10
306.268
 20
863.154
 30
0.000000
  70
    32
  0
VERTEX
  8
0
  5
C2ED
 10
306.284
 20
863.144
 30
0.000000
  70
    32
  0
VERTEX
  8
0
  5
C2EE
 10
306.299
 20
863.134
 30
0.000000
  70
    32
  0
VERTEX
  8
0
  5
C2EF
 10
306.315
 20
863.124
 30
0.000000
  70
    32
  0
VERTEX
  8
0
  5
C2F0
 10
306.330
 20
863.115
 30
0.000000
  70
    32
  0
VERTEX
  8
0
  5
C2F1
 10
306.346
 20
863.105
 30
0.000000
  70
    32
  0
VERTEX
  8
0
  5
C2F2
 10
306.362
 20
863.096
 30
0.000000
  70
    32
  0
VERTEX
  8
0
  5
C2F3
 10
306.378
 20
863.087
 30
0.000000
  70
    32
  0
VERTEX
  8
0
  5
C2F4
 10
306.394
 20
863.078
 30
0.000000
  70
    32
  0
VERTEX
  8
0
  5
C2F5
 10
306.411
 20
863.070
 30
0.000000
  70
    32
  0
VERTEX
  8
0
  5
C2F6
 10
306.427
 20
863.061
 30
0.000000
  70
    32
  0
VERTEX
  8
0
  5
C2F7
 10
306.444
 20
863.053
 30
0.000000
  70
    32
  0
VERTEX
  8
0
  5
C2F8
 10
306.460
 20
863.045
 30
0.000000
  70
    32
  0
VERTEX
  8
0
  5
C2F9
 10
306.477
 20
863.037
 30
0.000000
  70
    32
  0
VERTEX
  8
0
  5
C2FA
 10
306.494
 20
863.030
 30
0.000000
  70
    32
  0
VERTEX
  8
0
  5
C2FB
 10
306.511
 20
863.022
 30
0.000000
  70
    32
  0
VERTEX
  8
0
  5
C2FC
 10
306.528
 20
863.015
 30
0.000000
  70
    32
  0
VERTEX
  8
0
  5
C2FD
 10
306.545
 20
863.008
 30
0.000000
  70
    32
  0
VERTEX
  8
0
  5
C2FE
 10
306.562
 20
863.002
 30
0.000000
  70
    32
  0
VERTEX
  8
0
  5
C2FF
 10
306.579
 20
862.995
 30
0.000000
  70
    32
  0
VERTEX
  8
0
  5
C300
 10
306.596
 20
862.989
 30
0.000000
  70
    32
  0
VERTEX
  8
0
  5
C301
 10
306.614
 20
862.983
 30
0.000000
  70
    32
  0
VERTEX
  8
0
  5
C302
 10
306.631
 20
862.977
 30
0.000000
  70
    32
  0
VERTEX
  8
0
  5
C303
 10
306.649
 20
862.971
 30
0.000000
  70
    32
  0
VERTEX
  8
0
  5
C304
 10
306.666
 20
862.966
 30
0.000000
  70
    32
  0
VERTEX
  8
0
  5
C305
 10
306.684
 20
862.961
 30
0.000000
  70
    32
  0
VERTEX
  8
0
  5
C306
 10
306.701
 20
862.955
 30
0.000000
  70
    32
  0
VERTEX
  8
0
  5
C307
 10
306.719
 20
862.951
 30
0.000000
  70
    32
  0
VERTEX
  8
0
  5
C308
 10
306.737
 20
862.946
 30
0.000000
  70
    32
  0
VERTEX
  8
0
  5
C309
 10
306.755
 20
862.942
 30
0.000000
  70
    32
  0
VERTEX
  8
0
  5
C30A
 10
306.773
 20
862.938
 30
0.000000
  70
    32
  0
VERTEX
  8
0
  5
C30B
 10
306.791
 20
862.934
 30
0.000000
  70
    32
  0
VERTEX
  8
0
  5
C30C
 10
306.809
 20
862.930
 30
0.000000
  70
    32
  0
VERTEX
  8
0
  5
C30D
 10
306.827
 20
862.926
 30
0.000000
  70
    32
  0
VERTEX
  8
0
  5
C30E
 10
306.845
 20
862.923
 30
0.000000
  70
    32
  0
VERTEX
  8
0
  5
C30F
 10
306.863
 20
862.920
 30
0.000000
  70
    32
  0
VERTEX
  8
0
  5
C310
 10
306.881
 20
862.917
 30
0.000000
  70
    32
  0
VERTEX
  8
0
  5
C311
 10
306.900
 20
862.915
 30
0.000000
  70
    32
  0
VERTEX
  8
0
  5
C312
 10
306.918
 20
862.912
 30
0.000000
  70
    32
  0
VERTEX
  8
0
  5
C313
 10
306.936
 20
862.910
 30
0.000000
  70
    32
  0
VERTEX
  8
0
  5
C314
 10
306.955
 20
862.908
 30
0.000000
  70
    32
  0
VERTEX
  8
0
  5
C315
 10
306.973
 20
862.907
 30
0.000000
  70
    32
  0
VERTEX
  8
0
  5
C316
 10
306.991
 20
862.905
 30
0.000000
  70
    32
  0
VERTEX
  8
0
  5
C317
 10
307.010
 20
862.904
 30
0.000000
  70
    32
  0
VERTEX
  8
0
  5
C318
 10
307.028
 20
862.903
 30
0.000000
  70
    32
  0
VERTEX
  8
0
  5
C319
 10
307.046
 20
862.902
 30
0.000000
  70
    32
  0
VERTEX
  8
0
  5
C31A
 10
307.065
 20
862.902
 30
0.000000
  70
    32
  0
VERTEX
  8
0
  5
C31B
 10
307.083
 20
862.901
 30
0.000000
  70
    32
  0
VERTEX
  8
0
  5
C31C
 10
307.102
 20
862.901
 30
0.000000
  70
    32
  0
SEQEND
  8
0
  5
C31D
  0
LINE
  5
BE0B
  8
0
 10
306.40156133048953
 20
871.90132604242649
 30
0.0
 11
305.60156133048929
 21
871.90132604242649
 31
0.0
  0
LINE
  5
BE0C
  8
0
 10
305.60156133048929
 20
871.90132604242649
 30
0.0
 11
305.60156133048929
 21
864.4011760424263
 31
0.0
  0
LINE
  5
BE0D
  8
0
 10
306.10156133048929
 20
867.90124604242635
 30
0.0
 11
306.10156133048929
 21
864.4011760424263
 31
0.0
  0
POLYLINE
  5
BE0E
  8
0
 10
313.40156133420936
 20
879.90148604242631
 30
0.0
 66
     1
 70
     8
  0
VERTEX
  8
0
  5
C31E
 10
313.402
 20
879.901
 30
0.000000
  70
    32
  0
VERTEX
  8
0
  5
C31F
 10
313.404
 20
879.673
 30
0.000000
  70
    32
  0
VERTEX
  8
0
  5
C320
 10
313.413
 20
879.445
 30
0.000000
  70
    32
  0
VERTEX
  8
0
  5
C321
 10
313.427
 20
879.217
 30
0.000000
  70
    32
  0
VERTEX
  8
0
  5
C322
 10
313.446
 20
878.990
 30
0.000000
  70
    32
  0
VERTEX
  8
0
  5
C323
 10
313.472
 20
878.763
 30
0.000000
  70
    32
  0
VERTEX
  8
0
  5
C324
 10
313.502
 20
878.537
 30
0.000000
  70
    32
  0
VERTEX
  8
0
  5
C325
 10
313.538
 20
878.312
 30
0.000000
  70
    32
  0
VERTEX
  8
0
  5
C326
 10
313.580
 20
878.087
 30
0.000000
  70
    32
  0
VERTEX
  8
0
  5
C327
 10
313.628
 20
877.864
 30
0.000000
  70
    32
  0
VERTEX
  8
0
  5
C328
 10
313.680
 20
877.642
 30
0.000000
  70
    32
  0
VERTEX
  8
0
  5
C329
 10
313.738
 20
877.421
 30
0.000000
  70
    32
  0
VERTEX
  8
0
  5
C32A
 10
313.802
 20
877.202
 30
0.000000
  70
    32
  0
VERTEX
  8
0
  5
C32B
 10
313.871
 20
876.984
 30
0.000000
  70
    32
  0
VERTEX
  8
0
  5
C32C
 10
313.945
 20
876.768
 30
0.000000
  70
    32
  0
VERTEX
  8
0
  5
C32D
 10
314.025
 20
876.554
 30
0.000000
  70
    32
  0
VERTEX
  8
0
  5
C32E
 10
314.109
 20
876.342
 30
0.000000
  70
    32
  0
VERTEX
  8
0
  5
C32F
 10
314.199
 20
876.133
 30
0.000000
  70
    32
  0
VERTEX
  8
0
  5
C330
 10
314.294
 20
875.925
 30
0.000000
  70
    32
  0
VERTEX
  8
0
  5
C331
 10
314.395
 20
875.720
 30
0.000000
  70
    32
  0
VERTEX
  8
0
  5
C332
 10
314.500
 20
875.517
 30
0.000000
  70
    32
  0
VERTEX
  8
0
  5
C333
 10
314.610
 20
875.317
 30
0.000000
  70
    32
  0
VERTEX
  8
0
  5
C334
 10
314.725
 20
875.120
 30
0.000000
  70
    32
  0
VERTEX
  8
0
  5
C335
 10
314.844
 20
874.926
 30
0.000000
  70
    32
  0
VERTEX
  8
0
  5
C336
 10
314.969
 20
874.735
 30
0.000000
  70
    32
  0
VERTEX
  8
0
  5
C337
 10
315.098
 20
874.546
 30
0.000000
  70
    32
  0
VERTEX
  8
0
  5
C338
 10
315.232
 20
874.361
 30
0.000000
  70
    32
  0
VERTEX
  8
0
  5
C339
 10
315.370
 20
874.180
 30
0.000000
  70
    32
  0
VERTEX
  8
0
  5
C33A
 10
315.513
 20
874.002
 30
0.000000
  70
    32
  0
VERTEX
  8
0
  5
C33B
 10
315.660
 20
873.827
 30
0.000000
  70
    32
  0
VERTEX
  8
0
  5
C33C
 10
315.811
 20
873.656
 30
0.000000
  70
    32
  0
VERTEX
  8
0
  5
C33D
 10
315.966
 20
873.489
 30
0.000000
  70
    32
  0
VERTEX
  8
0
  5
C33E
 10
316.125
 20
873.325
 30
0.000000
  70
    32
  0
VERTEX
  8
0
  5
C33F
 10
316.289
 20
873.166
 30
0.000000
  70
    32
  0
VERTEX
  8
0
  5
C340
 10
316.456
 20
873.011
 30
0.000000
  70
    32
  0
VERTEX
  8
0
  5
C341
 10
316.627
 20
872.859
 30
0.000000
  70
    32
  0
VERTEX
  8
0
  5
C342
 10
316.802
 20
872.712
 30
0.000000
  70
    32
  0
VERTEX
  8
0
  5
C343
 10
316.980
 20
872.570
 30
0.000000
  70
    32
  0
VERTEX
  8
0
  5
C344
 10
317.162
 20
872.432
 30
0.000000
  70
    32
  0
VERTEX
  8
0
  5
C345
 10
317.347
 20
872.298
 30
0.000000
  70
    32
  0
VERTEX
  8
0
  5
C346
 10
317.535
 20
872.169
 30
0.000000
  70
    32
  0
VERTEX
  8
0
  5
C347
 10
317.726
 20
872.044
 30
0.000000
  70
    32
  0
VERTEX
  8
0
  5
C348
 10
317.920
 20
871.924
 30
0.000000
  70
    32
  0
VERTEX
  8
0
  5
C349
 10
318.118
 20
871.810
 30
0.000000
  70
    32
  0
VERTEX
  8
0
  5
C34A
 10
318.318
 20
871.699
 30
0.000000
  70
    32
  0
VERTEX
  8
0
  5
C34B
 10
318.520
 20
871.594
 30
0.000000
  70
    32
  0
VERTEX
  8
0
  5
C34C
 10
318.725
 20
871.494
 30
0.000000
  70
    32
  0
VERTEX
  8
0
  5
C34D
 10
318.933
 20
871.399
 30
0.000000
  70
    32
  0
VERTEX
  8
0
  5
C34E
 10
319.143
 20
871.309
 30
0.000000
  70
    32
  0
VERTEX
  8
0
  5
C34F
 10
319.355
 20
871.224
 30
0.000000
  70
    32
  0
VERTEX
  8
0
  5
C350
 10
319.568
 20
871.145
 30
0.000000
  70
    32
  0
VERTEX
  8
0
  5
C351
 10
319.784
 20
871.071
 30
0.000000
  70
    32
  0
VERTEX
  8
0
  5
C352
 10
320.002
 20
871.002
 30
0.000000
  70
    32
  0
VERTEX
  8
0
  5
C353
 10
320.221
 20
870.938
 30
0.000000
  70
    32
  0
VERTEX
  8
0
  5
C354
 10
320.442
 20
870.880
 30
0.000000
  70
    32
  0
VERTEX
  8
0
  5
C355
 10
320.664
 20
870.827
 30
0.000000
  70
    32
  0
VERTEX
  8
0
  5
C356
 10
320.887
 20
870.780
 30
0.000000
  70
    32
  0
VERTEX
  8
0
  5
C357
 10
321.112
 20
870.738
 30
0.000000
  70
    32
  0
VERTEX
  8
0
  5
C358
 10
321.337
 20
870.702
 30
0.000000
  70
    32
  0
VERTEX
  8
0
  5
C359
 10
321.563
 20
870.671
 30
0.000000
  70
    32
  0
VERTEX
  8
0
  5
C35A
 10
321.790
 20
870.646
 30
0.000000
  70
    32
  0
VERTEX
  8
0
  5
C35B
 10
322.017
 20
870.626
 30
0.000000
  70
    32
  0
VERTEX
  8
0
  5
C35C
 10
322.245
 20
870.613
 30
0.000000
  70
    32
  0
VERTEX
  8
0
  5
C35D
 10
322.473
 20
870.604
 30
0.000000
  70
    32
  0
VERTEX
  8
0
  5
C35E
 10
322.702
 20
870.601
 30
0.000000
  70
    32
  0
VERTEX
  8
0
  5
C35F
 10
322.930
 20
870.604
 30
0.000000
  70
    32
  0
VERTEX
  8
0
  5
C360
 10
323.158
 20
870.613
 30
0.000000
  70
    32
  0
VERTEX
  8
0
  5
C361
 10
323.386
 20
870.626
 30
0.000000
  70
    32
  0
VERTEX
  8
0
  5
C362
 10
323.613
 20
870.646
 30
0.000000
  70
    32
  0
VERTEX
  8
0
  5
C363
 10
323.840
 20
870.671
 30
0.000000
  70
    32
  0
VERTEX
  8
0
  5
C364
 10
324.066
 20
870.702
 30
0.000000
  70
    32
  0
VERTEX
  8
0
  5
C365
 10
324.292
 20
870.738
 30
0.000000
  70
    32
  0
VERTEX
  8
0
  5
C366
 10
324.516
 20
870.780
 30
0.000000
  70
    32
  0
VERTEX
  8
0
  5
C367
 10
324.739
 20
870.827
 30
0.000000
  70
    32
  0
VERTEX
  8
0
  5
C368
 10
324.961
 20
870.880
 30
0.000000
  70
    32
  0
VERTEX
  8
0
  5
C369
 10
325.182
 20
870.938
 30
0.000000
  70
    32
  0
VERTEX
  8
0
  5
C36A
 10
325.401
 20
871.002
 30
0.000000
  70
    32
  0
VERTEX
  8
0
  5
C36B
 10
325.619
 20
871.071
 30
0.000000
  70
    32
  0
VERTEX
  8
0
  5
C36C
 10
325.835
 20
871.145
 30
0.000000
  70
    32
  0
VERTEX
  8
0
  5
C36D
 10
326.049
 20
871.224
 30
0.000000
  70
    32
  0
VERTEX
  8
0
  5
C36E
 10
326.261
 20
871.309
 30
0.000000
  70
    32
  0
VERTEX
  8
0
  5
C36F
 10
326.470
 20
871.399
 30
0.000000
  70
    32
  0
VERTEX
  8
0
  5
C370
 10
326.678
 20
871.494
 30
0.000000
  70
    32
  0
VERTEX
  8
0
  5
C371
 10
326.883
 20
871.594
 30
0.000000
  70
    32
  0
VERTEX
  8
0
  5
C372
 10
327.086
 20
871.699
 30
0.000000
  70
    32
  0
VERTEX
  8
0
  5
C373
 10
327.286
 20
871.810
 30
0.000000
  70
    32
  0
VERTEX
  8
0
  5
C374
 10
327.483
 20
871.924
 30
0.000000
  70
    32
  0
VERTEX
  8
0
  5
C375
 10
327.677
 20
872.044
 30
0.000000
  70
    32
  0
VERTEX
  8
0
  5
C376
 10
327.868
 20
872.169
 30
0.000000
  70
    32
  0
VERTEX
  8
0
  5
C377
 10
328.057
 20
872.298
 30
0.000000
  70
    32
  0
VERTEX
  8
0
  5
C378
 10
328.242
 20
872.432
 30
0.000000
  70
    32
  0
VERTEX
  8
0
  5
C379
 10
328.423
 20
872.570
 30
0.000000
  70
    32
  0
VERTEX
  8
0
  5
C37A
 10
328.601
 20
872.712
 30
0.000000
  70
    32
  0
VERTEX
  8
0
  5
C37B
 10
328.776
 20
872.859
 30
0.000000
  70
    32
  0
VERTEX
  8
0
  5
C37C
 10
328.947
 20
873.011
 30
0.000000
  70
    32
  0
VERTEX
  8
0
  5
C37D
 10
329.114
 20
873.166
 30
0.000000
  70
    32
  0
VERTEX
  8
0
  5
C37E
 10
329.278
 20
873.325
 30
0.000000
  70
    32
  0
VERTEX
  8
0
  5
C37F
 10
329.437
 20
873.489
 30
0.000000
  70
    32
  0
VERTEX
  8
0
  5
C380
 10
329.592
 20
873.656
 30
0.000000
  70
    32
  0
VERTEX
  8
0
  5
C381
 10
329.744
 20
873.827
 30
0.000000
  70
    32
  0
VERTEX
  8
0
  5
C382
 10
329.891
 20
874.002
 30
0.000000
  70
    32
  0
VERTEX
  8
0
  5
C383
 10
330.033
 20
874.180
 30
0.000000
  70
    32
  0
VERTEX
  8
0
  5
C384
 10
330.171
 20
874.361
 30
0.000000
  70
    32
  0
VERTEX
  8
0
  5
C385
 10
330.305
 20
874.546
 30
0.000000
  70
    32
  0
VERTEX
  8
0
  5
C386
 10
330.434
 20
874.735
 30
0.000000
  70
    32
  0
VERTEX
  8
0
  5
C387
 10
330.559
 20
874.926
 30
0.000000
  70
    32
  0
VERTEX
  8
0
  5
C388
 10
330.678
 20
875.120
 30
0.000000
  70
    32
  0
VERTEX
  8
0
  5
C389
 10
330.793
 20
875.317
 30
0.000000
  70
    32
  0
VERTEX
  8
0
  5
C38A
 10
330.903
 20
875.517
 30
0.000000
  70
    32
  0
VERTEX
  8
0
  5
C38B
 10
331.009
 20
875.720
 30
0.000000
  70
    32
  0
VERTEX
  8
0
  5
C38C
 10
331.109
 20
875.925
 30
0.000000
  70
    32
  0
VERTEX
  8
0
  5
C38D
 10
331.204
 20
876.133
 30
0.000000
  70
    32
  0
VERTEX
  8
0
  5
C38E
 10
331.294
 20
876.342
 30
0.000000
  70
    32
  0
VERTEX
  8
0
  5
C38F
 10
331.378
 20
876.554
 30
0.000000
  70
    32
  0
VERTEX
  8
0
  5
C390
 10
331.458
 20
876.768
 30
0.000000
  70
    32
  0
VERTEX
  8
0
  5
C391
 10
331.532
 20
876.984
 30
0.000000
  70
    32
  0
VERTEX
  8
0
  5
C392
 10
331.601
 20
877.202
 30
0.000000
  70
    32
  0
VERTEX
  8
0
  5
C393
 10
331.665
 20
877.421
 30
0.000000
  70
    32
  0
VERTEX
  8
0
  5
C394
 10
331.723
 20
877.642
 30
0.000000
  70
    32
  0
VERTEX
  8
0
  5
C395
 10
331.776
 20
877.864
 30
0.000000
  70
    32
  0
VERTEX
  8
0
  5
C396
 10
331.823
 20
878.087
 30
0.000000
  70
    32
  0
VERTEX
  8
0
  5
C397
 10
331.865
 20
878.312
 30
0.000000
  70
    32
  0
VERTEX
  8
0
  5
C398
 10
331.901
 20
878.537
 30
0.000000
  70
    32
  0
VERTEX
  8
0
  5
C399
 10
331.932
 20
878.763
 30
0.000000
  70
    32
  0
VERTEX
  8
0
  5
C39A
 10
331.957
 20
878.990
 30
0.000000
  70
    32
  0
VERTEX
  8
0
  5
C39B
 10
331.976
 20
879.217
 30
0.000000
  70
    32
  0
VERTEX
  8
0
  5
C39C
 10
331.990
 20
879.445
 30
0.000000
  70
    32
  0
VERTEX
  8
0
  5
C39D
 10
331.999
 20
879.673
 30
0.000000
  70
    32
  0
VERTEX
  8
0
  5
C39E
 10
332.002
 20
879.901
 30
0.000000
  70
    32
  0
SEQEND
  8
0
  5
C39F
  0
LINE
  5
BE0F
  8
0
 10
307.1015613304894
 20
862.90114604242615
 30
0.0
 11
307.4000473304892
 21
862.90114604242615
 31
0.0
  0
LINE
  5
BE10
  8
0
 10
307.60156133048929
 20
862.90114604242615
 30
0.0
 11
310.52725633048908
 21
862.90114604242615
 31
0.0
  0
POLYLINE
  5
BE11
  8
0
 10
322.70156133779341
 20
886.20161204242595
 30
0.0
 66
     1
 70
     8
  0
VERTEX
  8
0
  5
C3A0
 10
322.702
 20
886.202
 30
0.000000
  70
    32
  0
VERTEX
  8
0
  5
C3A1
 10
322.392
 20
886.194
 30
0.000000
  70
    32
  0
VERTEX
  8
0
  5
C3A2
 10
322.084
 20
886.171
 30
0.000000
  70
    32
  0
VERTEX
  8
0
  5
C3A3
 10
321.777
 20
886.133
 30
0.000000
  70
    32
  0
VERTEX
  8
0
  5
C3A4
 10
321.472
 20
886.081
 30
0.000000
  70
    32
  0
VERTEX
  8
0
  5
C3A5
 10
321.171
 20
886.013
 30
0.000000
  70
    32
  0
VERTEX
  8
0
  5
C3A6
 10
320.873
 20
885.930
 30
0.000000
  70
    32
  0
VERTEX
  8
0
  5
C3A7
 10
320.579
 20
885.833
 30
0.000000
  70
    32
  0
VERTEX
  8
0
  5
C3A8
 10
320.291
 20
885.722
 30
0.000000
  70
    32
  0
VERTEX
  8
0
  5
C3A9
 10
320.008
 20
885.597
 30
0.000000
  70
    32
  0
VERTEX
  8
0
  5
C3AA
 10
319.732
 20
885.458
 30
0.000000
  70
    32
  0
VERTEX
  8
0
  5
C3AB
 10
319.463
 20
885.305
 30
0.000000
  70
    32
  0
VERTEX
  8
0
  5
C3AC
 10
319.201
 20
885.140
 30
0.000000
  70
    32
  0
VERTEX
  8
0
  5
C3AD
 10
318.949
 20
884.962
 30
0.000000
  70
    32
  0
VERTEX
  8
0
  5
C3AE
 10
318.705
 20
884.772
 30
0.000000
  70
    32
  0
VERTEX
  8
0
  5
C3AF
 10
318.471
 20
884.570
 30
0.000000
  70
    32
  0
VERTEX
  8
0
  5
C3B0
 10
318.247
 20
884.356
 30
0.000000
  70
    32
  0
VERTEX
  8
0
  5
C3B1
 10
318.034
 20
884.132
 30
0.000000
  70
    32
  0
VERTEX
  8
0
  5
C3B2
 10
317.832
 20
883.898
 30
0.000000
  70
    32
  0
VERTEX
  8
0
  5
C3B3
 10
317.641
 20
883.654
 30
0.000000
  70
    32
  0
VERTEX
  8
0
  5
C3B4
 10
317.463
 20
883.402
 30
0.000000
  70
    32
  0
VERTEX
  8
0
  5
C3B5
 10
317.298
 20
883.140
 30
0.000000
  70
    32
  0
VERTEX
  8
0
  5
C3B6
 10
317.145
 20
882.871
 30
0.000000
  70
    32
  0
VERTEX
  8
0
  5
C3B7
 10
317.006
 20
882.595
 30
0.000000
  70
    32
  0
VERTEX
  8
0
  5
C3B8
 10
316.881
 20
882.312
 30
0.000000
  70
    32
  0
VERTEX
  8
0
  5
C3B9
 10
316.770
 20
882.024
 30
0.000000
  70
    32
  0
VERTEX
  8
0
  5
C3BA
 10
316.673
 20
881.730
 30
0.000000
  70
    32
  0
VERTEX
  8
0
  5
C3BB
 10
316.590
 20
881.432
 30
0.000000
  70
    32
  0
VERTEX
  8
0
  5
C3BC
 10
316.523
 20
881.131
 30
0.000000
  70
    32
  0
VERTEX
  8
0
  5
C3BD
 10
316.470
 20
880.826
 30
0.000000
  70
    32
  0
VERTEX
  8
0
  5
C3BE
 10
316.432
 20
880.519
 30
0.000000
  70
    32
  0
VERTEX
  8
0
  5
C3BF
 10
316.409
 20
880.211
 30
0.000000
  70
    32
  0
VERTEX
  8
0
  5
C3C0
 10
316.402
 20
879.901
 30
0.000000
  70
    32
  0
VERTEX
  8
0
  5
C3C1
 10
316.409
 20
879.592
 30
0.000000
  70
    32
  0
VERTEX
  8
0
  5
C3C2
 10
316.432
 20
879.284
 30
0.000000
  70
    32
  0
VERTEX
  8
0
  5
C3C3
 10
316.470
 20
878.977
 30
0.000000
  70
    32
  0
VERTEX
  8
0
  5
C3C4
 10
316.523
 20
878.672
 30
0.000000
  70
    32
  0
VERTEX
  8
0
  5
C3C5
 10
316.590
 20
878.371
 30
0.000000
  70
    32
  0
VERTEX
  8
0
  5
C3C6
 10
316.673
 20
878.073
 30
0.000000
  70
    32
  0
VERTEX
  8
0
  5
C3C7
 10
316.770
 20
877.779
 30
0.000000
  70
    32
  0
VERTEX
  8
0
  5
C3C8
 10
316.881
 20
877.491
 30
0.000000
  70
    32
  0
VERTEX
  8
0
  5
C3C9
 10
317.006
 20
877.208
 30
0.000000
  70
    32
  0
VERTEX
  8
0
  5
C3CA
 10
317.145
 20
876.932
 30
0.000000
  70
    32
  0
VERTEX
  8
0
  5
C3CB
 10
317.298
 20
876.663
 30
0.000000
  70
    32
  0
VERTEX
  8
0
  5
C3CC
 10
317.463
 20
876.401
 30
0.000000
  70
    32
  0
VERTEX
  8
0
  5
C3CD
 10
317.641
 20
876.149
 30
0.000000
  70
    32
  0
VERTEX
  8
0
  5
C3CE
 10
317.832
 20
875.905
 30
0.000000
  70
    32
  0
VERTEX
  8
0
  5
C3CF
 10
318.034
 20
875.671
 30
0.000000
  70
    32
  0
VERTEX
  8
0
  5
C3D0
 10
318.247
 20
875.447
 30
0.000000
  70
    32
  0
VERTEX
  8
0
  5
C3D1
 10
318.471
 20
875.233
 30
0.000000
  70
    32
  0
VERTEX
  8
0
  5
C3D2
 10
318.705
 20
875.031
 30
0.000000
  70
    32
  0
VERTEX
  8
0
  5
C3D3
 10
318.949
 20
874.841
 30
0.000000
  70
    32
  0
VERTEX
  8
0
  5
C3D4
 10
319.201
 20
874.663
 30
0.000000
  70
    32
  0
VERTEX
  8
0
  5
C3D5
 10
319.463
 20
874.498
 30
0.000000
  70
    32
  0
VERTEX
  8
0
  5
C3D6
 10
319.732
 20
874.345
 30
0.000000
  70
    32
  0
VERTEX
  8
0
  5
C3D7
 10
320.008
 20
874.206
 30
0.000000
  70
    32
  0
VERTEX
  8
0
  5
C3D8
 10
320.291
 20
874.081
 30
0.000000
  70
    32
  0
VERTEX
  8
0
  5
C3D9
 10
320.579
 20
873.970
 30
0.000000
  70
    32
  0
VERTEX
  8
0
  5
C3DA
 10
320.873
 20
873.873
 30
0.000000
  70
    32
  0
VERTEX
  8
0
  5
C3DB
 10
321.171
 20
873.790
 30
0.000000
  70
    32
  0
VERTEX
  8
0
  5
C3DC
 10
321.472
 20
873.722
 30
0.000000
  70
    32
  0
VERTEX
  8
0
  5
C3DD
 10
321.777
 20
873.670
 30
0.000000
  70
    32
  0
VERTEX
  8
0
  5
C3DE
 10
322.084
 20
873.632
 30
0.000000
  70
    32
  0
VERTEX
  8
0
  5
C3DF
 10
322.392
 20
873.609
 30
0.000000
  70
    32
  0
VERTEX
  8
0
  5
C3E0
 10
322.702
 20
873.601
 30
0.000000
  70
    32
  0
VERTEX
  8
0
  5
C3E1
 10
323.011
 20
873.609
 30
0.000000
  70
    32
  0
VERTEX
  8
0
  5
C3E2
 10
323.319
 20
873.632
 30
0.000000
  70
    32
  0
VERTEX
  8
0
  5
C3E3
 10
323.626
 20
873.670
 30
0.000000
  70
    32
  0
VERTEX
  8
0
  5
C3E4
 10
323.931
 20
873.722
 30
0.000000
  70
    32
  0
VERTEX
  8
0
  5
C3E5
 10
324.232
 20
873.790
 30
0.000000
  70
    32
  0
VERTEX
  8
0
  5
C3E6
 10
324.530
 20
873.873
 30
0.000000
  70
    32
  0
VERTEX
  8
0
  5
C3E7
 10
324.824
 20
873.970
 30
0.000000
  70
    32
  0
VERTEX
  8
0
  5
C3E8
 10
325.112
 20
874.081
 30
0.000000
  70
    32
  0
VERTEX
  8
0
  5
C3E9
 10
325.395
 20
874.206
 30
0.000000
  70
    32
  0
VERTEX
  8
0
  5
C3EA
 10
325.671
 20
874.345
 30
0.000000
  70
    32
  0
VERTEX
  8
0
  5
C3EB
 10
325.940
 20
874.498
 30
0.000000
  70
    32
  0
VERTEX
  8
0
  5
C3EC
 10
326.202
 20
874.663
 30
0.000000
  70
    32
  0
VERTEX
  8
0
  5
C3ED
 10
326.454
 20
874.841
 30
0.000000
  70
    32
  0
VERTEX
  8
0
  5
C3EE
 10
326.698
 20
875.031
 30
0.000000
  70
    32
  0
VERTEX
  8
0
  5
C3EF
 10
326.932
 20
875.233
 30
0.000000
  70
    32
  0
VERTEX
  8
0
  5
C3F0
 10
327.156
 20
875.447
 30
0.000000
  70
    32
  0
VERTEX
  8
0
  5
C3F1
 10
327.370
 20
875.671
 30
0.000000
  70
    32
  0
VERTEX
  8
0
  5
C3F2
 10
327.572
 20
875.905
 30
0.000000
  70
    32
  0
VERTEX
  8
0
  5
C3F3
 10
327.762
 20
876.149
 30
0.000000
  70
    32
  0
VERTEX
  8
0
  5
C3F4
 10
327.940
 20
876.401
 30
0.000000
  70
    32
  0
VERTEX
  8
0
  5
C3F5
 10
328.105
 20
876.663
 30
0.000000
  70
    32
  0
VERTEX
  8
0
  5
C3F6
 10
328.258
 20
876.932
 30
0.000000
  70
    32
  0
VERTEX
  8
0
  5
C3F7
 10
328.397
 20
877.208
 30
0.000000
  70
    32
  0
VERTEX
  8
0
  5
C3F8
 10
328.522
 20
877.491
 30
0.000000
  70
    32
  0
VERTEX
  8
0
  5
C3F9
 10
328.633
 20
877.779
 30
0.000000
  70
    32
  0
VERTEX
  8
0
  5
C3FA
 10
328.730
 20
878.073
 30
0.000000
  70
    32
  0
VERTEX
  8
0
  5
C3FB
 10
328.813
 20
878.371
 30
0.000000
  70
    32
  0
VERTEX
  8
0
  5
C3FC
 10
328.881
 20
878.672
 30
0.000000
  70
    32
  0
VERTEX
  8
0
  5
C3FD
 10
328.933
 20
878.977
 30
0.000000
  70
    32
  0
VERTEX
  8
0
  5
C3FE
 10
328.971
 20
879.284
 30
0.000000
  70
    32
  0
VERTEX
  8
0
  5
C3FF
 10
328.994
 20
879.592
 30
0.000000
  70
    32
  0
VERTEX
  8
0
  5
C400
 10
329.002
 20
879.901
 30
0.000000
  70
    32
  0
VERTEX
  8
0
  5
C401
 10
328.994
 20
880.211
 30
0.000000
  70
    32
  0
VERTEX
  8
0
  5
C402
 10
328.971
 20
880.519
 30
0.000000
  70
    32
  0
VERTEX
  8
0
  5
C403
 10
328.933
 20
880.826
 30
0.000000
  70
    32
  0
VERTEX
  8
0
  5
C404
 10
328.881
 20
881.131
 30
0.000000
  70
    32
  0
VERTEX
  8
0
  5
C405
 10
328.813
 20
881.432
 30
0.000000
  70
    32
  0
VERTEX
  8
0
  5
C406
 10
328.730
 20
881.730
 30
0.000000
  70
    32
  0
VERTEX
  8
0
  5
C407
 10
328.633
 20
882.024
 30
0.000000
  70
    32
  0
VERTEX
  8
0
  5
C408
 10
328.522
 20
882.312
 30
0.000000
  70
    32
  0
VERTEX
  8
0
  5
C409
 10
328.397
 20
882.595
 30
0.000000
  70
    32
  0
VERTEX
  8
0
  5
C40A
 10
328.258
 20
882.871
 30
0.000000
  70
    32
  0
VERTEX
  8
0
  5
C40B
 10
328.105
 20
883.140
 30
0.000000
  70
    32
  0
VERTEX
  8
0
  5
C40C
 10
327.940
 20
883.402
 30
0.000000
  70
    32
  0
VERTEX
  8
0
  5
C40D
 10
327.762
 20
883.654
 30
0.000000
  70
    32
  0
VERTEX
  8
0
  5
C40E
 10
327.572
 20
883.898
 30
0.000000
  70
    32
  0
VERTEX
  8
0
  5
C40F
 10
327.370
 20
884.132
 30
0.000000
  70
    32
  0
VERTEX
  8
0
  5
C410
 10
327.156
 20
884.356
 30
0.000000
  70
    32
  0
VERTEX
  8
0
  5
C411
 10
326.932
 20
884.570
 30
0.000000
  70
    32
  0
VERTEX
  8
0
  5
C412
 10
326.698
 20
884.772
 30
0.000000
  70
    32
  0
VERTEX
  8
0
  5
C413
 10
326.454
 20
884.962
 30
0.000000
  70
    32
  0
VERTEX
  8
0
  5
C414
 10
326.202
 20
885.140
 30
0.000000
  70
    32
  0
VERTEX
  8
0
  5
C415
 10
325.940
 20
885.305
 30
0.000000
  70
    32
  0
VERTEX
  8
0
  5
C416
 10
325.671
 20
885.458
 30
0.000000
  70
    32
  0
VERTEX
  8
0
  5
C417
 10
325.395
 20
885.597
 30
0.000000
  70
    32
  0
VERTEX
  8
0
  5
C418
 10
325.112
 20
885.722
 30
0.000000
  70
    32
  0
VERTEX
  8
0
  5
C419
 10
324.824
 20
885.833
 30
0.000000
  70
    32
  0
VERTEX
  8
0
  5
C41A
 10
324.530
 20
885.930
 30
0.000000
  70
    32
  0
VERTEX
  8
0
  5
C41B
 10
324.232
 20
886.013
 30
0.000000
  70
    32
  0
VERTEX
  8
0
  5
C41C
 10
323.931
 20
886.081
 30
0.000000
  70
    32
  0
VERTEX
  8
0
  5
C41D
 10
323.626
 20
886.133
 30
0.000000
  70
    32
  0
VERTEX
  8
0
  5
C41E
 10
323.319
 20
886.171
 30
0.000000
  70
    32
  0
VERTEX
  8
0
  5
C41F
 10
323.011
 20
886.194
 30
0.000000
  70
    32
  0
VERTEX
  8
0
  5
C420
 10
322.702
 20
886.202
 30
0.000000
  70
    32
  0
SEQEND
  8
0
  5
C421
  0
LINE
  5
BE12
  8
0
 10
358.90491533048947
 20
876.21336704242617
 30
0.0
 11
361.10826933048912
 21
876.58878204242615
 31
0.0
  0
LINE
  5
BE13
  8
0
 10
342.0982073304894
 20
891.90172604242628
 30
0.0
 11
342.0982073304894
 21
873.34978104242634
 31
0.0
  0
LINE
  5
BE14
  8
0
 10
347.79820733048899
 20
891.90172604242628
 30
0.0
 11
346.29820733048911
 21
891.90172604242628
 31
0.0
  0
LINE
  5
BE15
  8
0
 10
347.79820733048899
 20
887.90164604242648
 30
0.0
 11
346.29820733048911
 21
887.90164604242648
 31
0.0
  0
LINE
  5
BE16
  8
0
 10
346.29820733048911
 20
891.90172604242628
 30
0.0
 11
346.29820733048911
 21
874.06539204242631
 31
0.0
  0
LINE
  5
BE17
  8
0
 10
344.0982073304894
 20
873.69054804242649
 30
0.0
 11
344.0982073304894
 21
891.90172604242628
 31
0.0
  0
LINE
  5
BE18
  8
0
 10
344.0982073304894
 20
873.69054804242649
 30
0.0
 11
346.29820733048911
 21
874.06539204242631
 31
0.0
  0
LINE
  5
BE19
  8
0
 10
344.0982073304894
 20
891.90172604242628
 30
0.0
 11
342.0982073304894
 21
891.90172604242628
 31
0.0
  0
LINE
  5
BE1A
  8
0
 10
344.0982073304894
 20
887.90164604242648
 30
0.0
 11
342.0982073304894
 21
887.90164604242648
 31
0.0
  0
LINE
  5
BE1B
  8
0
 10
355.7015613304892
 20
875.66756804242641
 30
0.0
 11
355.7015613304892
 21
891.90172604242628
 31
0.0
  0
LINE
  5
BE1C
  8
0
 10
358.90491533048947
 20
876.21336704242617
 30
0.0
 11
358.90491533048947
 21
891.90172604242628
 31
0.0
  0
LINE
  5
BE1D
  8
0
 10
357.40491533048947
 20
891.90172604242628
 30
0.0
 11
357.40491533048947
 21
875.95779104242615
 31
0.0
  0
LINE
  5
BE1E
  8
0
 10
353.7015613304892
 20
891.90172604242628
 30
0.0
 11
353.7015613304892
 21
875.32680104242615
 31
0.0
  0
LINE
  5
BE1F
  8
0
 10
347.79820733048899
 20
874.32096704242633
 30
0.0
 11
347.79820733048899
 21
891.90172604242628
 31
0.0
  0
LINE
  5
BE20
  8
0
 10
349.99820733048949
 20
891.90172604242628
 30
0.0
 11
349.99820733048949
 21
874.69581104242616
 31
0.0
  0
LINE
  5
BE21
  8
0
 10
351.49820733048949
 20
874.95138604242629
 30
0.0
 11
351.49820733048949
 21
891.90172604242628
 31
0.0
  0
LINE
  5
BE22
  8
0
 10
347.79820733048899
 20
874.32096704242633
 30
0.0
 11
349.99820733048949
 21
874.69581104242616
 31
0.0
  0
LINE
  5
BE23
  8
0
 10
351.49820733048949
 20
874.95138604242629
 30
0.0
 11
353.7015613304892
 21
875.32680104242615
 31
0.0
  0
LINE
  5
BE24
  8
0
 10
355.7015613304892
 20
875.66756804242641
 30
0.0
 11
357.40491533048947
 21
875.95779104242615
 31
0.0
  0
LINE
  5
BE25
  8
0
 10
355.7015613304892
 20
891.90172604242628
 30
0.0
 11
353.7015613304892
 21
891.90172604242628
 31
0.0
  0
LINE
  5
BE26
  8
0
 10
355.7015613304892
 20
887.90164604242648
 30
0.0
 11
353.7015613304892
 21
887.90164604242648
 31
0.0
  0
LINE
  5
BE27
  8
0
 10
351.49820733048949
 20
891.90172604242628
 30
0.0
 11
349.99820733048949
 21
891.90172604242628
 31
0.0
  0
LINE
  5
BE28
  8
0
 10
351.49820733048949
 20
887.90164604242648
 30
0.0
 11
349.99820733048949
 21
887.90164604242648
 31
0.0
  0
LINE
  5
BE29
  8
0
 10
358.90491533048947
 20
887.90164604242648
 30
0.0
 11
357.40491533048947
 21
887.90164604242648
 31
0.0
  0
LINE
  5
BE2A
  8
0
 10
358.90491533048947
 20
891.90172604242628
 30
0.0
 11
357.40491533048947
 21
891.90172604242628
 31
0.0
  0
LINE
  5
BE2B
  8
0
 10
378.23171233048919
 20
862.90114604242615
 30
0.0
 11
378.23171233048919
 21
874.43686704242646
 31
0.0
  0
LINE
  5
BE2C
  8
0
 10
370.01497733048899
 20
878.1063380424265
 30
0.0
 11
379.87668733048929
 21
879.78661004242645
 31
0.0
  0
LINE
  5
BE2D
  8
0
 10
364.81162333048928
 20
891.90172604242628
 30
0.0
 11
364.81162333048928
 21
877.21977204242614
 31
0.0
  0
LINE
  5
BE2E
  8
0
 10
366.3116233304894
 20
877.47534704242628
 30
0.0
 11
366.3116233304894
 21
891.90172604242628
 31
0.0
  0
LINE
  5
BE2F
  8
0
 10
368.5149773304891
 20
891.90172604242628
 30
0.0
 11
368.5149773304891
 21
877.85076204242625
 31
0.0
  0
LINE
  5
BE30
  8
0
 10
361.10826933048912
 20
891.90172604242628
 30
0.0
 11
361.10826933048912
 21
876.58878204242615
 31
0.0
  0
LINE
  5
BE31
  8
0
 10
362.60826933048912
 20
876.84435704242651
 30
0.0
 11
362.60826933048912
 21
891.90172604242628
 31
0.0
  0
LINE
  5
BE32
  8
0
 10
370.01497733048899
 20
878.1063380424265
 30
0.0
 11
370.01497733048899
 21
891.90172604242628
 31
0.0
  0
LINE
  5
BE33
  8
0
 10
366.3116233304894
 20
877.47534704242628
 30
0.0
 11
368.5149773304891
 21
877.85076204242625
 31
0.0
  0
LINE
  5
BE34
  8
0
 10
362.60826933048912
 20
876.84435704242651
 30
0.0
 11
364.81162333048928
 21
877.21977204242614
 31
0.0
  0
LINE
  5
BE35
  8
0
 10
366.3116233304894
 20
891.90172604242628
 30
0.0
 11
364.81162333048928
 21
891.90172604242628
 31
0.0
  0
LINE
  5
BE36
  8
0
 10
366.3116233304894
 20
887.90164604242648
 30
0.0
 11
364.81162333048928
 21
887.90164604242648
 31
0.0
  0
LINE
  5
BE37
  8
0
 10
362.60826933048912
 20
891.90172604242628
 30
0.0
 11
361.10826933048912
 21
891.90172604242628
 31
0.0
  0
LINE
  5
BE38
  8
0
 10
362.60826933048912
 20
887.90164604242648
 30
0.0
 11
361.10826933048912
 21
887.90164604242648
 31
0.0
  0
LINE
  5
BE39
  8
0
 10
370.01497733048899
 20
891.90172604242628
 30
0.0
 11
368.5149773304891
 21
891.90172604242628
 31
0.0
  0
LINE
  5
BE3A
  8
0
 10
370.01497733048899
 20
887.90164604242648
 30
0.0
 11
368.5149773304891
 21
887.90164604242648
 31
0.0
  0
LINE
  5
BE3B
  8
0
 10
379.10156133048929
 20
874.58717404242645
 30
0.0
 11
379.10156133048929
 21
878.64064804242651
 31
0.0
  0
LINE
  5
BE3C
  8
0
 10
308.60156133048929
 20
896.90182604242648
 30
0.0
 11
313.40156133048953
 21
896.90182604242648
 31
0.0
  0
POLYLINE
  5
BE3D
  8
0
 10
308.60156133048929
 20
896.90182604242648
 30
0.0
 66
     1
 70
     8
  0
VERTEX
  8
0
  5
C422
 10
308.602
 20
896.902
 30
0.000000
  70
    32
  0
VERTEX
  8
0
  5
C423
 10
308.589
 20
896.902
 30
0.000000
  70
    32
  0
VERTEX
  8
0
  5
C424
 10
308.577
 20
896.902
 30
0.000000
  70
    32
  0
VERTEX
  8
0
  5
C425
 10
308.565
 20
896.901
 30
0.000000
  70
    32
  0
VERTEX
  8
0
  5
C426
 10
308.552
 20
896.901
 30
0.000000
  70
    32
  0
VERTEX
  8
0
  5
C427
 10
308.540
 20
896.900
 30
0.000000
  70
    32
  0
VERTEX
  8
0
  5
C428
 10
308.528
 20
896.899
 30
0.000000
  70
    32
  0
VERTEX
  8
0
  5
C429
 10
308.516
 20
896.898
 30
0.000000
  70
    32
  0
VERTEX
  8
0
  5
C42A
 10
308.504
 20
896.897
 30
0.000000
  70
    32
  0
VERTEX
  8
0
  5
C42B
 10
308.491
 20
896.896
 30
0.000000
  70
    32
  0
VERTEX
  8
0
  5
C42C
 10
308.479
 20
896.894
 30
0.000000
  70
    32
  0
VERTEX
  8
0
  5
C42D
 10
308.467
 20
896.893
 30
0.000000
  70
    32
  0
VERTEX
  8
0
  5
C42E
 10
308.455
 20
896.891
 30
0.000000
  70
    32
  0
VERTEX
  8
0
  5
C42F
 10
308.443
 20
896.889
 30
0.000000
  70
    32
  0
VERTEX
  8
0
  5
C430
 10
308.431
 20
896.887
 30
0.000000
  70
    32
  0
VERTEX
  8
0
  5
C431
 10
308.419
 20
896.885
 30
0.000000
  70
    32
  0
VERTEX
  8
0
  5
C432
 10
308.406
 20
896.883
 30
0.000000
  70
    32
  0
VERTEX
  8
0
  5
C433
 10
308.394
 20
896.880
 30
0.000000
  70
    32
  0
VERTEX
  8
0
  5
C434
 10
308.382
 20
896.878
 30
0.000000
  70
    32
  0
VERTEX
  8
0
  5
C435
 10
308.371
 20
896.875
 30
0.000000
  70
    32
  0
VERTEX
  8
0
  5
C436
 10
308.359
 20
896.872
 30
0.000000
  70
    32
  0
VERTEX
  8
0
  5
C437
 10
308.347
 20
896.869
 30
0.000000
  70
    32
  0
VERTEX
  8
0
  5
C438
 10
308.335
 20
896.866
 30
0.000000
  70
    32
  0
VERTEX
  8
0
  5
C439
 10
308.323
 20
896.862
 30
0.000000
  70
    32
  0
VERTEX
  8
0
  5
C43A
 10
308.311
 20
896.859
 30
0.000000
  70
    32
  0
VERTEX
  8
0
  5
C43B
 10
308.300
 20
896.855
 30
0.000000
  70
    32
  0
VERTEX
  8
0
  5
C43C
 10
308.288
 20
896.851
 30
0.000000
  70
    32
  0
VERTEX
  8
0
  5
C43D
 10
308.276
 20
896.847
 30
0.000000
  70
    32
  0
VERTEX
  8
0
  5
C43E
 10
308.265
 20
896.843
 30
0.000000
  70
    32
  0
VERTEX
  8
0
  5
C43F
 10
308.253
 20
896.839
 30
0.000000
  70
    32
  0
VERTEX
  8
0
  5
C440
 10
308.242
 20
896.835
 30
0.000000
  70
    32
  0
VERTEX
  8
0
  5
C441
 10
308.230
 20
896.830
 30
0.000000
  70
    32
  0
VERTEX
  8
0
  5
C442
 10
308.219
 20
896.826
 30
0.000000
  70
    32
  0
VERTEX
  8
0
  5
C443
 10
308.208
 20
896.821
 30
0.000000
  70
    32
  0
VERTEX
  8
0
  5
C444
 10
308.196
 20
896.816
 30
0.000000
  70
    32
  0
VERTEX
  8
0
  5
C445
 10
308.185
 20
896.811
 30
0.000000
  70
    32
  0
VERTEX
  8
0
  5
C446
 10
308.174
 20
896.806
 30
0.000000
  70
    32
  0
VERTEX
  8
0
  5
C447
 10
308.163
 20
896.800
 30
0.000000
  70
    32
  0
VERTEX
  8
0
  5
C448
 10
308.152
 20
896.795
 30
0.000000
  70
    32
  0
VERTEX
  8
0
  5
C449
 10
308.141
 20
896.789
 30
0.000000
  70
    32
  0
VERTEX
  8
0
  5
C44A
 10
308.130
 20
896.784
 30
0.000000
  70
    32
  0
VERTEX
  8
0
  5
C44B
 10
308.119
 20
896.778
 30
0.000000
  70
    32
  0
VERTEX
  8
0
  5
C44C
 10
308.109
 20
896.772
 30
0.000000
  70
    32
  0
VERTEX
  8
0
  5
C44D
 10
308.098
 20
896.766
 30
0.000000
  70
    32
  0
VERTEX
  8
0
  5
C44E
 10
308.087
 20
896.760
 30
0.000000
  70
    32
  0
VERTEX
  8
0
  5
C44F
 10
308.077
 20
896.753
 30
0.000000
  70
    32
  0
VERTEX
  8
0
  5
C450
 10
308.067
 20
896.747
 30
0.000000
  70
    32
  0
VERTEX
  8
0
  5
C451
 10
308.056
 20
896.740
 30
0.000000
  70
    32
  0
VERTEX
  8
0
  5
C452
 10
308.046
 20
896.733
 30
0.000000
  70
    32
  0
VERTEX
  8
0
  5
C453
 10
308.036
 20
896.726
 30
0.000000
  70
    32
  0
VERTEX
  8
0
  5
C454
 10
308.026
 20
896.719
 30
0.000000
  70
    32
  0
VERTEX
  8
0
  5
C455
 10
308.016
 20
896.712
 30
0.000000
  70
    32
  0
VERTEX
  8
0
  5
C456
 10
308.006
 20
896.705
 30
0.000000
  70
    32
  0
VERTEX
  8
0
  5
C457
 10
307.996
 20
896.698
 30
0.000000
  70
    32
  0
VERTEX
  8
0
  5
C458
 10
307.986
 20
896.690
 30
0.000000
  70
    32
  0
VERTEX
  8
0
  5
C459
 10
307.977
 20
896.683
 30
0.000000
  70
    32
  0
VERTEX
  8
0
  5
C45A
 10
307.967
 20
896.675
 30
0.000000
  70
    32
  0
VERTEX
  8
0
  5
C45B
 10
307.958
 20
896.667
 30
0.000000
  70
    32
  0
VERTEX
  8
0
  5
C45C
 10
307.948
 20
896.659
 30
0.000000
  70
    32
  0
VERTEX
  8
0
  5
C45D
 10
307.939
 20
896.651
 30
0.000000
  70
    32
  0
VERTEX
  8
0
  5
C45E
 10
307.930
 20
896.643
 30
0.000000
  70
    32
  0
VERTEX
  8
0
  5
C45F
 10
307.921
 20
896.634
 30
0.000000
  70
    32
  0
VERTEX
  8
0
  5
C460
 10
307.912
 20
896.626
 30
0.000000
  70
    32
  0
VERTEX
  8
0
  5
C461
 10
307.903
 20
896.618
 30
0.000000
  70
    32
  0
VERTEX
  8
0
  5
C462
 10
307.894
 20
896.609
 30
0.000000
  70
    32
  0
VERTEX
  8
0
  5
C463
 10
307.886
 20
896.600
 30
0.000000
  70
    32
  0
VERTEX
  8
0
  5
C464
 10
307.877
 20
896.591
 30
0.000000
  70
    32
  0
VERTEX
  8
0
  5
C465
 10
307.869
 20
896.582
 30
0.000000
  70
    32
  0
VERTEX
  8
0
  5
C466
 10
307.861
 20
896.573
 30
0.000000
  70
    32
  0
VERTEX
  8
0
  5
C467
 10
307.852
 20
896.564
 30
0.000000
  70
    32
  0
VERTEX
  8
0
  5
C468
 10
307.844
 20
896.555
 30
0.000000
  70
    32
  0
VERTEX
  8
0
  5
C469
 10
307.836
 20
896.546
 30
0.000000
  70
    32
  0
VERTEX
  8
0
  5
C46A
 10
307.829
 20
896.536
 30
0.000000
  70
    32
  0
VERTEX
  8
0
  5
C46B
 10
307.821
 20
896.527
 30
0.000000
  70
    32
  0
VERTEX
  8
0
  5
C46C
 10
307.813
 20
896.517
 30
0.000000
  70
    32
  0
VERTEX
  8
0
  5
C46D
 10
307.806
 20
896.507
 30
0.000000
  70
    32
  0
VERTEX
  8
0
  5
C46E
 10
307.798
 20
896.498
 30
0.000000
  70
    32
  0
VERTEX
  8
0
  5
C46F
 10
307.791
 20
896.488
 30
0.000000
  70
    32
  0
VERTEX
  8
0
  5
C470
 10
307.784
 20
896.478
 30
0.000000
  70
    32
  0
VERTEX
  8
0
  5
C471
 10
307.777
 20
896.468
 30
0.000000
  70
    32
  0
VERTEX
  8
0
  5
C472
 10
307.770
 20
896.457
 30
0.000000
  70
    32
  0
VERTEX
  8
0
  5
C473
 10
307.763
 20
896.447
 30
0.000000
  70
    32
  0
VERTEX
  8
0
  5
C474
 10
307.757
 20
896.437
 30
0.000000
  70
    32
  0
VERTEX
  8
0
  5
C475
 10
307.750
 20
896.426
 30
0.000000
  70
    32
  0
VERTEX
  8
0
  5
C476
 10
307.744
 20
896.416
 30
0.000000
  70
    32
  0
VERTEX
  8
0
  5
C477
 10
307.738
 20
896.405
 30
0.000000
  70
    32
  0
VERTEX
  8
0
  5
C478
 10
307.731
 20
896.395
 30
0.000000
  70
    32
  0
VERTEX
  8
0
  5
C479
 10
307.725
 20
896.384
 30
0.000000
  70
    32
  0
VERTEX
  8
0
  5
C47A
 10
307.720
 20
896.373
 30
0.000000
  70
    32
  0
VERTEX
  8
0
  5
C47B
 10
307.714
 20
896.362
 30
0.000000
  70
    32
  0
VERTEX
  8
0
  5
C47C
 10
307.708
 20
896.351
 30
0.000000
  70
    32
  0
VERTEX
  8
0
  5
C47D
 10
307.703
 20
896.340
 30
0.000000
  70
    32
  0
VERTEX
  8
0
  5
C47E
 10
307.698
 20
896.329
 30
0.000000
  70
    32
  0
VERTEX
  8
0
  5
C47F
 10
307.692
 20
896.318
 30
0.000000
  70
    32
  0
VERTEX
  8
0
  5
C480
 10
307.687
 20
896.307
 30
0.000000
  70
    32
  0
VERTEX
  8
0
  5
C481
 10
307.682
 20
896.296
 30
0.000000
  70
    32
  0
VERTEX
  8
0
  5
C482
 10
307.678
 20
896.284
 30
0.000000
  70
    32
  0
VERTEX
  8
0
  5
C483
 10
307.673
 20
896.273
 30
0.000000
  70
    32
  0
VERTEX
  8
0
  5
C484
 10
307.669
 20
896.262
 30
0.000000
  70
    32
  0
VERTEX
  8
0
  5
C485
 10
307.664
 20
896.250
 30
0.000000
  70
    32
  0
VERTEX
  8
0
  5
C486
 10
307.660
 20
896.239
 30
0.000000
  70
    32
  0
VERTEX
  8
0
  5
C487
 10
307.656
 20
896.227
 30
0.000000
  70
    32
  0
VERTEX
  8
0
  5
C488
 10
307.652
 20
896.215
 30
0.000000
  70
    32
  0
VERTEX
  8
0
  5
C489
 10
307.648
 20
896.204
 30
0.000000
  70
    32
  0
VERTEX
  8
0
  5
C48A
 10
307.645
 20
896.192
 30
0.000000
  70
    32
  0
VERTEX
  8
0
  5
C48B
 10
307.641
 20
896.180
 30
0.000000
  70
    32
  0
VERTEX
  8
0
  5
C48C
 10
307.638
 20
896.169
 30
0.000000
  70
    32
  0
VERTEX
  8
0
  5
C48D
 10
307.635
 20
896.157
 30
0.000000
  70
    32
  0
VERTEX
  8
0
  5
C48E
 10
307.632
 20
896.145
 30
0.000000
  70
    32
  0
VERTEX
  8
0
  5
C48F
 10
307.629
 20
896.133
 30
0.000000
  70
    32
  0
VERTEX
  8
0
  5
C490
 10
307.626
 20
896.121
 30
0.000000
  70
    32
  0
VERTEX
  8
0
  5
C491
 10
307.623
 20
896.109
 30
0.000000
  70
    32
  0
VERTEX
  8
0
  5
C492
 10
307.621
 20
896.097
 30
0.000000
  70
    32
  0
VERTEX
  8
0
  5
C493
 10
307.618
 20
896.085
 30
0.000000
  70
    32
  0
VERTEX
  8
0
  5
C494
 10
307.616
 20
896.073
 30
0.000000
  70
    32
  0
VERTEX
  8
0
  5
C495
 10
307.614
 20
896.061
 30
0.000000
  70
    32
  0
VERTEX
  8
0
  5
C496
 10
307.612
 20
896.049
 30
0.000000
  70
    32
  0
VERTEX
  8
0
  5
C497
 10
307.611
 20
896.036
 30
0.000000
  70
    32
  0
VERTEX
  8
0
  5
C498
 10
307.609
 20
896.024
 30
0.000000
  70
    32
  0
VERTEX
  8
0
  5
C499
 10
307.608
 20
896.012
 30
0.000000
  70
    32
  0
VERTEX
  8
0
  5
C49A
 10
307.606
 20
896.000
 30
0.000000
  70
    32
  0
VERTEX
  8
0
  5
C49B
 10
307.605
 20
895.988
 30
0.000000
  70
    32
  0
VERTEX
  8
0
  5
C49C
 10
307.604
 20
895.975
 30
0.000000
  70
    32
  0
VERTEX
  8
0
  5
C49D
 10
307.603
 20
895.963
 30
0.000000
  70
    32
  0
VERTEX
  8
0
  5
C49E
 10
307.603
 20
895.951
 30
0.000000
  70
    32
  0
VERTEX
  8
0
  5
C49F
 10
307.602
 20
895.939
 30
0.000000
  70
    32
  0
VERTEX
  8
0
  5
C4A0
 10
307.602
 20
895.926
 30
0.000000
  70
    32
  0
VERTEX
  8
0
  5
C4A1
 10
307.602
 20
895.914
 30
0.000000
  70
    32
  0
VERTEX
  8
0
  5
C4A2
 10
307.602
 20
895.902
 30
0.000000
  70
    32
  0
SEQEND
  8
0
  5
C4A3
  0
LINE
  5
BE3E
  8
0
 10
394.8766873304894
 20
879.90148604242631
 30
0.0
 11
394.8766873304894
 21
895.90180604242653
 31
0.0
  0
LINE
  5
BE3F
  8
0
 10
388.50156133048949
 20
875.40139604242654
 30
0.0
 11
388.50156133048949
 21
865.40119604242648
 31
0.0
  0
POLYLINE
  5
BE40
  8
0
 10
394.37668733048929
 20
875.90140604242652
 30
0.0
 66
     1
 70
     8
  0
VERTEX
  8
0
  5
C4A4
 10
394.377
 20
875.901
 30
0.000000
  70
    32
  0
VERTEX
  8
0
  5
C4A5
 10
394.383
 20
875.901
 30
0.000000
  70
    32
  0
VERTEX
  8
0
  5
C4A6
 10
394.389
 20
875.902
 30
0.000000
  70
    32
  0
VERTEX
  8
0
  5
C4A7
 10
394.395
 20
875.902
 30
0.000000
  70
    32
  0
VERTEX
  8
0
  5
C4A8
 10
394.401
 20
875.902
 30
0.000000
  70
    32
  0
VERTEX
  8
0
  5
C4A9
 10
394.407
 20
875.902
 30
0.000000
  70
    32
  0
VERTEX
  8
0
  5
C4AA
 10
394.413
 20
875.903
 30
0.000000
  70
    32
  0
VERTEX
  8
0
  5
C4AB
 10
394.420
 20
875.903
 30
0.000000
  70
    32
  0
VERTEX
  8
0
  5
C4AC
 10
394.426
 20
875.904
 30
0.000000
  70
    32
  0
VERTEX
  8
0
  5
C4AD
 10
394.432
 20
875.904
 30
0.000000
  70
    32
  0
VERTEX
  8
0
  5
C4AE
 10
394.438
 20
875.905
 30
0.000000
  70
    32
  0
VERTEX
  8
0
  5
C4AF
 10
394.444
 20
875.906
 30
0.000000
  70
    32
  0
VERTEX
  8
0
  5
C4B0
 10
394.450
 20
875.907
 30
0.000000
  70
    32
  0
VERTEX
  8
0
  5
C4B1
 10
394.456
 20
875.908
 30
0.000000
  70
    32
  0
VERTEX
  8
0
  5
C4B2
 10
394.462
 20
875.909
 30
0.000000
  70
    32
  0
VERTEX
  8
0
  5
C4B3
 10
394.468
 20
875.910
 30
0.000000
  70
    32
  0
VERTEX
  8
0
  5
C4B4
 10
394.474
 20
875.911
 30
0.000000
  70
    32
  0
VERTEX
  8
0
  5
C4B5
 10
394.480
 20
875.912
 30
0.000000
  70
    32
  0
VERTEX
  8
0
  5
C4B6
 10
394.486
 20
875.914
 30
0.000000
  70
    32
  0
VERTEX
  8
0
  5
C4B7
 10
394.492
 20
875.915
 30
0.000000
  70
    32
  0
VERTEX
  8
0
  5
C4B8
 10
394.498
 20
875.916
 30
0.000000
  70
    32
  0
VERTEX
  8
0
  5
C4B9
 10
394.504
 20
875.918
 30
0.000000
  70
    32
  0
VERTEX
  8
0
  5
C4BA
 10
394.510
 20
875.920
 30
0.000000
  70
    32
  0
VERTEX
  8
0
  5
C4BB
 10
394.516
 20
875.921
 30
0.000000
  70
    32
  0
VERTEX
  8
0
  5
C4BC
 10
394.522
 20
875.923
 30
0.000000
  70
    32
  0
VERTEX
  8
0
  5
C4BD
 10
394.528
 20
875.925
 30
0.000000
  70
    32
  0
VERTEX
  8
0
  5
C4BE
 10
394.534
 20
875.927
 30
0.000000
  70
    32
  0
VERTEX
  8
0
  5
C4BF
 10
394.539
 20
875.929
 30
0.000000
  70
    32
  0
VERTEX
  8
0
  5
C4C0
 10
394.545
 20
875.931
 30
0.000000
  70
    32
  0
VERTEX
  8
0
  5
C4C1
 10
394.551
 20
875.933
 30
0.000000
  70
    32
  0
VERTEX
  8
0
  5
C4C2
 10
394.557
 20
875.935
 30
0.000000
  70
    32
  0
VERTEX
  8
0
  5
C4C3
 10
394.562
 20
875.937
 30
0.000000
  70
    32
  0
VERTEX
  8
0
  5
C4C4
 10
394.568
 20
875.939
 30
0.000000
  70
    32
  0
VERTEX
  8
0
  5
C4C5
 10
394.574
 20
875.942
 30
0.000000
  70
    32
  0
VERTEX
  8
0
  5
C4C6
 10
394.579
 20
875.944
 30
0.000000
  70
    32
  0
VERTEX
  8
0
  5
C4C7
 10
394.585
 20
875.947
 30
0.000000
  70
    32
  0
VERTEX
  8
0
  5
C4C8
 10
394.590
 20
875.949
 30
0.000000
  70
    32
  0
VERTEX
  8
0
  5
C4C9
 10
394.596
 20
875.952
 30
0.000000
  70
    32
  0
VERTEX
  8
0
  5
C4CA
 10
394.601
 20
875.955
 30
0.000000
  70
    32
  0
VERTEX
  8
0
  5
C4CB
 10
394.607
 20
875.958
 30
0.000000
  70
    32
  0
VERTEX
  8
0
  5
C4CC
 10
394.612
 20
875.960
 30
0.000000
  70
    32
  0
VERTEX
  8
0
  5
C4CD
 10
394.618
 20
875.963
 30
0.000000
  70
    32
  0
VERTEX
  8
0
  5
C4CE
 10
394.623
 20
875.966
 30
0.000000
  70
    32
  0
VERTEX
  8
0
  5
C4CF
 10
394.628
 20
875.969
 30
0.000000
  70
    32
  0
VERTEX
  8
0
  5
C4D0
 10
394.634
 20
875.973
 30
0.000000
  70
    32
  0
VERTEX
  8
0
  5
C4D1
 10
394.639
 20
875.976
 30
0.000000
  70
    32
  0
VERTEX
  8
0
  5
C4D2
 10
394.644
 20
875.979
 30
0.000000
  70
    32
  0
VERTEX
  8
0
  5
C4D3
 10
394.649
 20
875.982
 30
0.000000
  70
    32
  0
VERTEX
  8
0
  5
C4D4
 10
394.654
 20
875.986
 30
0.000000
  70
    32
  0
VERTEX
  8
0
  5
C4D5
 10
394.660
 20
875.989
 30
0.000000
  70
    32
  0
VERTEX
  8
0
  5
C4D6
 10
394.665
 20
875.993
 30
0.000000
  70
    32
  0
VERTEX
  8
0
  5
C4D7
 10
394.670
 20
875.996
 30
0.000000
  70
    32
  0
VERTEX
  8
0
  5
C4D8
 10
394.675
 20
876.000
 30
0.000000
  70
    32
  0
VERTEX
  8
0
  5
C4D9
 10
394.679
 20
876.003
 30
0.000000
  70
    32
  0
VERTEX
  8
0
  5
C4DA
 10
394.684
 20
876.007
 30
0.000000
  70
    32
  0
VERTEX
  8
0
  5
C4DB
 10
394.689
 20
876.011
 30
0.000000
  70
    32
  0
VERTEX
  8
0
  5
C4DC
 10
394.694
 20
876.015
 30
0.000000
  70
    32
  0
VERTEX
  8
0
  5
C4DD
 10
394.699
 20
876.019
 30
0.000000
  70
    32
  0
VERTEX
  8
0
  5
C4DE
 10
394.703
 20
876.023
 30
0.000000
  70
    32
  0
VERTEX
  8
0
  5
C4DF
 10
394.708
 20
876.027
 30
0.000000
  70
    32
  0
VERTEX
  8
0
  5
C4E0
 10
394.712
 20
876.031
 30
0.000000
  70
    32
  0
VERTEX
  8
0
  5
C4E1
 10
394.717
 20
876.035
 30
0.000000
  70
    32
  0
VERTEX
  8
0
  5
C4E2
 10
394.721
 20
876.039
 30
0.000000
  70
    32
  0
VERTEX
  8
0
  5
C4E3
 10
394.726
 20
876.044
 30
0.000000
  70
    32
  0
VERTEX
  8
0
  5
C4E4
 10
394.730
 20
876.048
 30
0.000000
  70
    32
  0
VERTEX
  8
0
  5
C4E5
 10
394.735
 20
876.052
 30
0.000000
  70
    32
  0
VERTEX
  8
0
  5
C4E6
 10
394.739
 20
876.057
 30
0.000000
  70
    32
  0
VERTEX
  8
0
  5
C4E7
 10
394.743
 20
876.061
 30
0.000000
  70
    32
  0
VERTEX
  8
0
  5
C4E8
 10
394.747
 20
876.066
 30
0.000000
  70
    32
  0
VERTEX
  8
0
  5
C4E9
 10
394.751
 20
876.070
 30
0.000000
  70
    32
  0
VERTEX
  8
0
  5
C4EA
 10
394.755
 20
876.075
 30
0.000000
  70
    32
  0
VERTEX
  8
0
  5
C4EB
 10
394.759
 20
876.079
 30
0.000000
  70
    32
  0
VERTEX
  8
0
  5
C4EC
 10
394.763
 20
876.084
 30
0.000000
  70
    32
  0
VERTEX
  8
0
  5
C4ED
 10
394.767
 20
876.089
 30
0.000000
  70
    32
  0
VERTEX
  8
0
  5
C4EE
 10
394.771
 20
876.094
 30
0.000000
  70
    32
  0
VERTEX
  8
0
  5
C4EF
 10
394.775
 20
876.099
 30
0.000000
  70
    32
  0
VERTEX
  8
0
  5
C4F0
 10
394.778
 20
876.104
 30
0.000000
  70
    32
  0
VERTEX
  8
0
  5
C4F1
 10
394.782
 20
876.109
 30
0.000000
  70
    32
  0
VERTEX
  8
0
  5
C4F2
 10
394.785
 20
876.114
 30
0.000000
  70
    32
  0
VERTEX
  8
0
  5
C4F3
 10
394.789
 20
876.119
 30
0.000000
  70
    32
  0
VERTEX
  8
0
  5
C4F4
 10
394.792
 20
876.124
 30
0.000000
  70
    32
  0
VERTEX
  8
0
  5
C4F5
 10
394.796
 20
876.129
 30
0.000000
  70
    32
  0
VERTEX
  8
0
  5
C4F6
 10
394.799
 20
876.134
 30
0.000000
  70
    32
  0
VERTEX
  8
0
  5
C4F7
 10
394.802
 20
876.139
 30
0.000000
  70
    32
  0
VERTEX
  8
0
  5
C4F8
 10
394.806
 20
876.144
 30
0.000000
  70
    32
  0
VERTEX
  8
0
  5
C4F9
 10
394.809
 20
876.150
 30
0.000000
  70
    32
  0
VERTEX
  8
0
  5
C4FA
 10
394.812
 20
876.155
 30
0.000000
  70
    32
  0
VERTEX
  8
0
  5
C4FB
 10
394.815
 20
876.160
 30
0.000000
  70
    32
  0
VERTEX
  8
0
  5
C4FC
 10
394.818
 20
876.166
 30
0.000000
  70
    32
  0
VERTEX
  8
0
  5
C4FD
 10
394.821
 20
876.171
 30
0.000000
  70
    32
  0
VERTEX
  8
0
  5
C4FE
 10
394.823
 20
876.177
 30
0.000000
  70
    32
  0
VERTEX
  8
0
  5
C4FF
 10
394.826
 20
876.182
 30
0.000000
  70
    32
  0
VERTEX
  8
0
  5
C500
 10
394.829
 20
876.188
 30
0.000000
  70
    32
  0
VERTEX
  8
0
  5
C501
 10
394.831
 20
876.193
 30
0.000000
  70
    32
  0
VERTEX
  8
0
  5
C502
 10
394.834
 20
876.199
 30
0.000000
  70
    32
  0
VERTEX
  8
0
  5
C503
 10
394.836
 20
876.204
 30
0.000000
  70
    32
  0
VERTEX
  8
0
  5
C504
 10
394.839
 20
876.210
 30
0.000000
  70
    32
  0
VERTEX
  8
0
  5
C505
 10
394.841
 20
876.216
 30
0.000000
  70
    32
  0
VERTEX
  8
0
  5
C506
 10
394.843
 20
876.221
 30
0.000000
  70
    32
  0
VERTEX
  8
0
  5
C507
 10
394.845
 20
876.227
 30
0.000000
  70
    32
  0
VERTEX
  8
0
  5
C508
 10
394.847
 20
876.233
 30
0.000000
  70
    32
  0
VERTEX
  8
0
  5
C509
 10
394.849
 20
876.239
 30
0.000000
  70
    32
  0
VERTEX
  8
0
  5
C50A
 10
394.851
 20
876.245
 30
0.000000
  70
    32
  0
VERTEX
  8
0
  5
C50B
 10
394.853
 20
876.250
 30
0.000000
  70
    32
  0
VERTEX
  8
0
  5
C50C
 10
394.855
 20
876.256
 30
0.000000
  70
    32
  0
VERTEX
  8
0
  5
C50D
 10
394.857
 20
876.262
 30
0.000000
  70
    32
  0
VERTEX
  8
0
  5
C50E
 10
394.859
 20
876.268
 30
0.000000
  70
    32
  0
VERTEX
  8
0
  5
C50F
 10
394.860
 20
876.274
 30
0.000000
  70
    32
  0
VERTEX
  8
0
  5
C510
 10
394.862
 20
876.280
 30
0.000000
  70
    32
  0
VERTEX
  8
0
  5
C511
 10
394.863
 20
876.286
 30
0.000000
  70
    32
  0
VERTEX
  8
0
  5
C512
 10
394.865
 20
876.292
 30
0.000000
  70
    32
  0
VERTEX
  8
0
  5
C513
 10
394.866
 20
876.298
 30
0.000000
  70
    32
  0
VERTEX
  8
0
  5
C514
 10
394.867
 20
876.304
 30
0.000000
  70
    32
  0
VERTEX
  8
0
  5
C515
 10
394.868
 20
876.310
 30
0.000000
  70
    32
  0
VERTEX
  8
0
  5
C516
 10
394.869
 20
876.316
 30
0.000000
  70
    32
  0
VERTEX
  8
0
  5
C517
 10
394.870
 20
876.322
 30
0.000000
  70
    32
  0
VERTEX
  8
0
  5
C518
 10
394.871
 20
876.328
 30
0.000000
  70
    32
  0
VERTEX
  8
0
  5
C519
 10
394.872
 20
876.334
 30
0.000000
  70
    32
  0
VERTEX
  8
0
  5
C51A
 10
394.873
 20
876.340
 30
0.000000
  70
    32
  0
VERTEX
  8
0
  5
C51B
 10
394.874
 20
876.346
 30
0.000000
  70
    32
  0
VERTEX
  8
0
  5
C51C
 10
394.874
 20
876.352
 30
0.000000
  70
    32
  0
VERTEX
  8
0
  5
C51D
 10
394.875
 20
876.359
 30
0.000000
  70
    32
  0
VERTEX
  8
0
  5
C51E
 10
394.875
 20
876.365
 30
0.000000
  70
    32
  0
VERTEX
  8
0
  5
C51F
 10
394.876
 20
876.371
 30
0.000000
  70
    32
  0
VERTEX
  8
0
  5
C520
 10
394.876
 20
876.377
 30
0.000000
  70
    32
  0
VERTEX
  8
0
  5
C521
 10
394.876
 20
876.383
 30
0.000000
  70
    32
  0
VERTEX
  8
0
  5
C522
 10
394.877
 20
876.389
 30
0.000000
  70
    32
  0
VERTEX
  8
0
  5
C523
 10
394.877
 20
876.395
 30
0.000000
  70
    32
  0
VERTEX
  8
0
  5
C524
 10
394.877
 20
876.401
 30
0.000000
  70
    32
  0
SEQEND
  8
0
  5
C525
  0
POLYLINE
  5
BE41
  8
0
 10
389.00156133048932
 20
875.90140604242674
 30
0.0
 66
     1
 70
     8
  0
VERTEX
  8
0
  5
C526
 10
389.002
 20
875.901
 30
0.000000
  70
    32
  0
VERTEX
  8
0
  5
C527
 10
388.995
 20
875.901
 30
0.000000
  70
    32
  0
VERTEX
  8
0
  5
C528
 10
388.989
 20
875.901
 30
0.000000
  70
    32
  0
VERTEX
  8
0
  5
C529
 10
388.983
 20
875.901
 30
0.000000
  70
    32
  0
VERTEX
  8
0
  5
C52A
 10
388.977
 20
875.901
 30
0.000000
  70
    32
  0
VERTEX
  8
0
  5
C52B
 10
388.971
 20
875.900
 30
0.000000
  70
    32
  0
VERTEX
  8
0
  5
C52C
 10
388.965
 20
875.900
 30
0.000000
  70
    32
  0
VERTEX
  8
0
  5
C52D
 10
388.959
 20
875.900
 30
0.000000
  70
    32
  0
VERTEX
  8
0
  5
C52E
 10
388.953
 20
875.899
 30
0.000000
  70
    32
  0
VERTEX
  8
0
  5
C52F
 10
388.946
 20
875.898
 30
0.000000
  70
    32
  0
VERTEX
  8
0
  5
C530
 10
388.940
 20
875.898
 30
0.000000
  70
    32
  0
VERTEX
  8
0
  5
C531
 10
388.934
 20
875.897
 30
0.000000
  70
    32
  0
VERTEX
  8
0
  5
C532
 10
388.928
 20
875.896
 30
0.000000
  70
    32
  0
VERTEX
  8
0
  5
C533
 10
388.922
 20
875.895
 30
0.000000
  70
    32
  0
VERTEX
  8
0
  5
C534
 10
388.916
 20
875.894
 30
0.000000
  70
    32
  0
VERTEX
  8
0
  5
C535
 10
388.910
 20
875.893
 30
0.000000
  70
    32
  0
VERTEX
  8
0
  5
C536
 10
388.904
 20
875.892
 30
0.000000
  70
    32
  0
VERTEX
  8
0
  5
C537
 10
388.898
 20
875.891
 30
0.000000
  70
    32
  0
VERTEX
  8
0
  5
C538
 10
388.892
 20
875.889
 30
0.000000
  70
    32
  0
VERTEX
  8
0
  5
C539
 10
388.886
 20
875.888
 30
0.000000
  70
    32
  0
VERTEX
  8
0
  5
C53A
 10
388.880
 20
875.886
 30
0.000000
  70
    32
  0
VERTEX
  8
0
  5
C53B
 10
388.874
 20
875.885
 30
0.000000
  70
    32
  0
VERTEX
  8
0
  5
C53C
 10
388.868
 20
875.883
 30
0.000000
  70
    32
  0
VERTEX
  8
0
  5
C53D
 10
388.862
 20
875.882
 30
0.000000
  70
    32
  0
VERTEX
  8
0
  5
C53E
 10
388.856
 20
875.880
 30
0.000000
  70
    32
  0
VERTEX
  8
0
  5
C53F
 10
388.851
 20
875.878
 30
0.000000
  70
    32
  0
VERTEX
  8
0
  5
C540
 10
388.845
 20
875.876
 30
0.000000
  70
    32
  0
VERTEX
  8
0
  5
C541
 10
388.839
 20
875.874
 30
0.000000
  70
    32
  0
VERTEX
  8
0
  5
C542
 10
388.833
 20
875.872
 30
0.000000
  70
    32
  0
VERTEX
  8
0
  5
C543
 10
388.827
 20
875.870
 30
0.000000
  70
    32
  0
VERTEX
  8
0
  5
C544
 10
388.822
 20
875.868
 30
0.000000
  70
    32
  0
VERTEX
  8
0
  5
C545
 10
388.816
 20
875.866
 30
0.000000
  70
    32
  0
VERTEX
  8
0
  5
C546
 10
388.810
 20
875.863
 30
0.000000
  70
    32
  0
VERTEX
  8
0
  5
C547
 10
388.805
 20
875.861
 30
0.000000
  70
    32
  0
VERTEX
  8
0
  5
C548
 10
388.799
 20
875.859
 30
0.000000
  70
    32
  0
VERTEX
  8
0
  5
C549
 10
388.793
 20
875.856
 30
0.000000
  70
    32
  0
VERTEX
  8
0
  5
C54A
 10
388.788
 20
875.853
 30
0.000000
  70
    32
  0
VERTEX
  8
0
  5
C54B
 10
388.782
 20
875.851
 30
0.000000
  70
    32
  0
VERTEX
  8
0
  5
C54C
 10
388.777
 20
875.848
 30
0.000000
  70
    32
  0
VERTEX
  8
0
  5
C54D
 10
388.771
 20
875.845
 30
0.000000
  70
    32
  0
VERTEX
  8
0
  5
C54E
 10
388.766
 20
875.842
 30
0.000000
  70
    32
  0
VERTEX
  8
0
  5
C54F
 10
388.760
 20
875.839
 30
0.000000
  70
    32
  0
VERTEX
  8
0
  5
C550
 10
388.755
 20
875.836
 30
0.000000
  70
    32
  0
VERTEX
  8
0
  5
C551
 10
388.750
 20
875.833
 30
0.000000
  70
    32
  0
VERTEX
  8
0
  5
C552
 10
388.745
 20
875.830
 30
0.000000
  70
    32
  0
VERTEX
  8
0
  5
C553
 10
388.739
 20
875.827
 30
0.000000
  70
    32
  0
VERTEX
  8
0
  5
C554
 10
388.734
 20
875.824
 30
0.000000
  70
    32
  0
VERTEX
  8
0
  5
C555
 10
388.729
 20
875.821
 30
0.000000
  70
    32
  0
VERTEX
  8
0
  5
C556
 10
388.724
 20
875.817
 30
0.000000
  70
    32
  0
VERTEX
  8
0
  5
C557
 10
388.719
 20
875.814
 30
0.000000
  70
    32
  0
VERTEX
  8
0
  5
C558
 10
388.714
 20
875.810
 30
0.000000
  70
    32
  0
VERTEX
  8
0
  5
C559
 10
388.709
 20
875.807
 30
0.000000
  70
    32
  0
VERTEX
  8
0
  5
C55A
 10
388.704
 20
875.803
 30
0.000000
  70
    32
  0
VERTEX
  8
0
  5
C55B
 10
388.699
 20
875.799
 30
0.000000
  70
    32
  0
VERTEX
  8
0
  5
C55C
 10
388.694
 20
875.796
 30
0.000000
  70
    32
  0
VERTEX
  8
0
  5
C55D
 10
388.689
 20
875.792
 30
0.000000
  70
    32
  0
VERTEX
  8
0
  5
C55E
 10
388.684
 20
875.788
 30
0.000000
  70
    32
  0
VERTEX
  8
0
  5
C55F
 10
388.680
 20
875.784
 30
0.000000
  70
    32
  0
VERTEX
  8
0
  5
C560
 10
388.675
 20
875.780
 30
0.000000
  70
    32
  0
VERTEX
  8
0
  5
C561
 10
388.670
 20
875.776
 30
0.000000
  70
    32
  0
VERTEX
  8
0
  5
C562
 10
388.666
 20
875.772
 30
0.000000
  70
    32
  0
VERTEX
  8
0
  5
C563
 10
388.661
 20
875.768
 30
0.000000
  70
    32
  0
VERTEX
  8
0
  5
C564
 10
388.657
 20
875.764
 30
0.000000
  70
    32
  0
VERTEX
  8
0
  5
C565
 10
388.652
 20
875.759
 30
0.000000
  70
    32
  0
VERTEX
  8
0
  5
C566
 10
388.648
 20
875.755
 30
0.000000
  70
    32
  0
VERTEX
  8
0
  5
C567
 10
388.644
 20
875.751
 30
0.000000
  70
    32
  0
VERTEX
  8
0
  5
C568
 10
388.639
 20
875.746
 30
0.000000
  70
    32
  0
VERTEX
  8
0
  5
C569
 10
388.635
 20
875.742
 30
0.000000
  70
    32
  0
VERTEX
  8
0
  5
C56A
 10
388.631
 20
875.737
 30
0.000000
  70
    32
  0
VERTEX
  8
0
  5
C56B
 10
388.627
 20
875.733
 30
0.000000
  70
    32
  0
VERTEX
  8
0
  5
C56C
 10
388.623
 20
875.728
 30
0.000000
  70
    32
  0
VERTEX
  8
0
  5
C56D
 10
388.619
 20
875.723
 30
0.000000
  70
    32
  0
VERTEX
  8
0
  5
C56E
 10
388.615
 20
875.719
 30
0.000000
  70
    32
  0
VERTEX
  8
0
  5
C56F
 10
388.611
 20
875.714
 30
0.000000
  70
    32
  0
VERTEX
  8
0
  5
C570
 10
388.607
 20
875.709
 30
0.000000
  70
    32
  0
VERTEX
  8
0
  5
C571
 10
388.604
 20
875.704
 30
0.000000
  70
    32
  0
VERTEX
  8
0
  5
C572
 10
388.600
 20
875.699
 30
0.000000
  70
    32
  0
VERTEX
  8
0
  5
C573
 10
388.596
 20
875.694
 30
0.000000
  70
    32
  0
VERTEX
  8
0
  5
C574
 10
388.593
 20
875.689
 30
0.000000
  70
    32
  0
VERTEX
  8
0
  5
C575
 10
388.589
 20
875.684
 30
0.000000
  70
    32
  0
VERTEX
  8
0
  5
C576
 10
388.586
 20
875.679
 30
0.000000
  70
    32
  0
VERTEX
  8
0
  5
C577
 10
388.582
 20
875.674
 30
0.000000
  70
    32
  0
VERTEX
  8
0
  5
C578
 10
388.579
 20
875.669
 30
0.000000
  70
    32
  0
VERTEX
  8
0
  5
C579
 10
388.576
 20
875.664
 30
0.000000
  70
    32
  0
VERTEX
  8
0
  5
C57A
 10
388.573
 20
875.658
 30
0.000000
  70
    32
  0
VERTEX
  8
0
  5
C57B
 10
388.570
 20
875.653
 30
0.000000
  70
    32
  0
VERTEX
  8
0
  5
C57C
 10
388.567
 20
875.648
 30
0.000000
  70
    32
  0
VERTEX
  8
0
  5
C57D
 10
388.564
 20
875.642
 30
0.000000
  70
    32
  0
VERTEX
  8
0
  5
C57E
 10
388.561
 20
875.637
 30
0.000000
  70
    32
  0
VERTEX
  8
0
  5
C57F
 10
388.558
 20
875.632
 30
0.000000
  70
    32
  0
VERTEX
  8
0
  5
C580
 10
388.555
 20
875.626
 30
0.000000
  70
    32
  0
VERTEX
  8
0
  5
C581
 10
388.552
 20
875.621
 30
0.000000
  70
    32
  0
VERTEX
  8
0
  5
C582
 10
388.550
 20
875.615
 30
0.000000
  70
    32
  0
VERTEX
  8
0
  5
C583
 10
388.547
 20
875.610
 30
0.000000
  70
    32
  0
VERTEX
  8
0
  5
C584
 10
388.544
 20
875.604
 30
0.000000
  70
    32
  0
VERTEX
  8
0
  5
C585
 10
388.542
 20
875.598
 30
0.000000
  70
    32
  0
VERTEX
  8
0
  5
C586
 10
388.540
 20
875.593
 30
0.000000
  70
    32
  0
VERTEX
  8
0
  5
C587
 10
388.537
 20
875.587
 30
0.000000
  70
    32
  0
VERTEX
  8
0
  5
C588
 10
388.535
 20
875.581
 30
0.000000
  70
    32
  0
VERTEX
  8
0
  5
C589
 10
388.533
 20
875.576
 30
0.000000
  70
    32
  0
VERTEX
  8
0
  5
C58A
 10
388.531
 20
875.570
 30
0.000000
  70
    32
  0
VERTEX
  8
0
  5
C58B
 10
388.529
 20
875.564
 30
0.000000
  70
    32
  0
VERTEX
  8
0
  5
C58C
 10
388.527
 20
875.558
 30
0.000000
  70
    32
  0
VERTEX
  8
0
  5
C58D
 10
388.525
 20
875.552
 30
0.000000
  70
    32
  0
VERTEX
  8
0
  5
C58E
 10
388.523
 20
875.547
 30
0.000000
  70
    32
  0
VERTEX
  8
0
  5
C58F
 10
388.521
 20
875.541
 30
0.000000
  70
    32
  0
VERTEX
  8
0
  5
C590
 10
388.520
 20
875.535
 30
0.000000
  70
    32
  0
VERTEX
  8
0
  5
C591
 10
388.518
 20
875.529
 30
0.000000
  70
    32
  0
VERTEX
  8
0
  5
C592
 10
388.517
 20
875.523
 30
0.000000
  70
    32
  0
VERTEX
  8
0
  5
C593
 10
388.515
 20
875.517
 30
0.000000
  70
    32
  0
VERTEX
  8
0
  5
C594
 10
388.514
 20
875.511
 30
0.000000
  70
    32
  0
VERTEX
  8
0
  5
C595
 10
388.512
 20
875.505
 30
0.000000
  70
    32
  0
VERTEX
  8
0
  5
C596
 10
388.511
 20
875.499
 30
0.000000
  70
    32
  0
VERTEX
  8
0
  5
C597
 10
388.510
 20
875.493
 30
0.000000
  70
    32
  0
VERTEX
  8
0
  5
C598
 10
388.509
 20
875.487
 30
0.000000
  70
    32
  0
VERTEX
  8
0
  5
C599
 10
388.508
 20
875.481
 30
0.000000
  70
    32
  0
VERTEX
  8
0
  5
C59A
 10
388.507
 20
875.475
 30
0.000000
  70
    32
  0
VERTEX
  8
0
  5
C59B
 10
388.506
 20
875.469
 30
0.000000
  70
    32
  0
VERTEX
  8
0
  5
C59C
 10
388.505
 20
875.463
 30
0.000000
  70
    32
  0
VERTEX
  8
0
  5
C59D
 10
388.505
 20
875.457
 30
0.000000
  70
    32
  0
VERTEX
  8
0
  5
C59E
 10
388.504
 20
875.450
 30
0.000000
  70
    32
  0
VERTEX
  8
0
  5
C59F
 10
388.503
 20
875.444
 30
0.000000
  70
    32
  0
VERTEX
  8
0
  5
C5A0
 10
388.503
 20
875.438
 30
0.000000
  70
    32
  0
VERTEX
  8
0
  5
C5A1
 10
388.503
 20
875.432
 30
0.000000
  70
    32
  0
VERTEX
  8
0
  5
C5A2
 10
388.502
 20
875.426
 30
0.000000
  70
    32
  0
VERTEX
  8
0
  5
C5A3
 10
388.502
 20
875.420
 30
0.000000
  70
    32
  0
VERTEX
  8
0
  5
C5A4
 10
388.502
 20
875.414
 30
0.000000
  70
    32
  0
VERTEX
  8
0
  5
C5A5
 10
388.502
 20
875.408
 30
0.000000
  70
    32
  0
VERTEX
  8
0
  5
C5A6
 10
388.502
 20
875.401
 30
0.000000
  70
    32
  0
SEQEND
  8
0
  5
C5A7
  0
LINE
  5
BE42
  8
0
 10
389.00156133048932
 20
875.90140604242629
 30
0.0
 11
394.37668733048929
 21
875.90140604242629
 31
0.0
  0
LINE
  5
BE43
  8
0
 10
394.8766873304894
 20
879.90148604242631
 30
0.0
 11
394.8766873304894
 21
876.40141604242649
 31
0.0
  0
POLYLINE
  5
BE44
  8
0
 10
394.87668733008934
 20
895.90180604242653
 30
0.0
 66
     1
 70
     8
  0
VERTEX
  8
0
  5
C5A8
 10
394.877
 20
895.902
 30
0.000000
  70
    32
  0
VERTEX
  8
0
  5
C5A9
 10
394.877
 20
895.914
 30
0.000000
  70
    32
  0
VERTEX
  8
0
  5
C5AA
 10
394.876
 20
895.926
 30
0.000000
  70
    32
  0
VERTEX
  8
0
  5
C5AB
 10
394.876
 20
895.939
 30
0.000000
  70
    32
  0
VERTEX
  8
0
  5
C5AC
 10
394.875
 20
895.951
 30
0.000000
  70
    32
  0
VERTEX
  8
0
  5
C5AD
 10
394.875
 20
895.963
 30
0.000000
  70
    32
  0
VERTEX
  8
0
  5
C5AE
 10
394.874
 20
895.975
 30
0.000000
  70
    32
  0
VERTEX
  8
0
  5
C5AF
 10
394.873
 20
895.988
 30
0.000000
  70
    32
  0
VERTEX
  8
0
  5
C5B0
 10
394.872
 20
896.000
 30
0.000000
  70
    32
  0
VERTEX
  8
0
  5
C5B1
 10
394.871
 20
896.012
 30
0.000000
  70
    32
  0
VERTEX
  8
0
  5
C5B2
 10
394.869
 20
896.024
 30
0.000000
  70
    32
  0
VERTEX
  8
0
  5
C5B3
 10
394.868
 20
896.036
 30
0.000000
  70
    32
  0
VERTEX
  8
0
  5
C5B4
 10
394.866
 20
896.049
 30
0.000000
  70
    32
  0
VERTEX
  8
0
  5
C5B5
 10
394.864
 20
896.061
 30
0.000000
  70
    32
  0
VERTEX
  8
0
  5
C5B6
 10
394.862
 20
896.073
 30
0.000000
  70
    32
  0
VERTEX
  8
0
  5
C5B7
 10
394.860
 20
896.085
 30
0.000000
  70
    32
  0
VERTEX
  8
0
  5
C5B8
 10
394.857
 20
896.097
 30
0.000000
  70
    32
  0
VERTEX
  8
0
  5
C5B9
 10
394.855
 20
896.109
 30
0.000000
  70
    32
  0
VERTEX
  8
0
  5
C5BA
 10
394.852
 20
896.121
 30
0.000000
  70
    32
  0
VERTEX
  8
0
  5
C5BB
 10
394.850
 20
896.133
 30
0.000000
  70
    32
  0
VERTEX
  8
0
  5
C5BC
 10
394.847
 20
896.145
 30
0.000000
  70
    32
  0
VERTEX
  8
0
  5
C5BD
 10
394.844
 20
896.157
 30
0.000000
  70
    32
  0
VERTEX
  8
0
  5
C5BE
 10
394.840
 20
896.169
 30
0.000000
  70
    32
  0
VERTEX
  8
0
  5
C5BF
 10
394.837
 20
896.180
 30
0.000000
  70
    32
  0
VERTEX
  8
0
  5
C5C0
 10
394.834
 20
896.192
 30
0.000000
  70
    32
  0
VERTEX
  8
0
  5
C5C1
 10
394.830
 20
896.204
 30
0.000000
  70
    32
  0
VERTEX
  8
0
  5
C5C2
 10
394.826
 20
896.215
 30
0.000000
  70
    32
  0
VERTEX
  8
0
  5
C5C3
 10
394.822
 20
896.227
 30
0.000000
  70
    32
  0
VERTEX
  8
0
  5
C5C4
 10
394.818
 20
896.239
 30
0.000000
  70
    32
  0
VERTEX
  8
0
  5
C5C5
 10
394.814
 20
896.250
 30
0.000000
  70
    32
  0
VERTEX
  8
0
  5
C5C6
 10
394.810
 20
896.262
 30
0.000000
  70
    32
  0
VERTEX
  8
0
  5
C5C7
 10
394.805
 20
896.273
 30
0.000000
  70
    32
  0
VERTEX
  8
0
  5
C5C8
 10
394.801
 20
896.284
 30
0.000000
  70
    32
  0
VERTEX
  8
0
  5
C5C9
 10
394.796
 20
896.296
 30
0.000000
  70
    32
  0
VERTEX
  8
0
  5
C5CA
 10
394.791
 20
896.307
 30
0.000000
  70
    32
  0
VERTEX
  8
0
  5
C5CB
 10
394.786
 20
896.318
 30
0.000000
  70
    32
  0
VERTEX
  8
0
  5
C5CC
 10
394.781
 20
896.329
 30
0.000000
  70
    32
  0
VERTEX
  8
0
  5
C5CD
 10
394.775
 20
896.340
 30
0.000000
  70
    32
  0
VERTEX
  8
0
  5
C5CE
 10
394.770
 20
896.351
 30
0.000000
  70
    32
  0
VERTEX
  8
0
  5
C5CF
 10
394.764
 20
896.362
 30
0.000000
  70
    32
  0
VERTEX
  8
0
  5
C5D0
 10
394.759
 20
896.373
 30
0.000000
  70
    32
  0
VERTEX
  8
0
  5
C5D1
 10
394.753
 20
896.384
 30
0.000000
  70
    32
  0
VERTEX
  8
0
  5
C5D2
 10
394.747
 20
896.395
 30
0.000000
  70
    32
  0
VERTEX
  8
0
  5
C5D3
 10
394.741
 20
896.405
 30
0.000000
  70
    32
  0
VERTEX
  8
0
  5
C5D4
 10
394.734
 20
896.416
 30
0.000000
  70
    32
  0
VERTEX
  8
0
  5
C5D5
 10
394.728
 20
896.426
 30
0.000000
  70
    32
  0
VERTEX
  8
0
  5
C5D6
 10
394.722
 20
896.437
 30
0.000000
  70
    32
  0
VERTEX
  8
0
  5
C5D7
 10
394.715
 20
896.447
 30
0.000000
  70
    32
  0
VERTEX
  8
0
  5
C5D8
 10
394.708
 20
896.457
 30
0.000000
  70
    32
  0
VERTEX
  8
0
  5
C5D9
 10
394.701
 20
896.468
 30
0.000000
  70
    32
  0
VERTEX
  8
0
  5
C5DA
 10
394.694
 20
896.478
 30
0.000000
  70
    32
  0
VERTEX
  8
0
  5
C5DB
 10
394.687
 20
896.488
 30
0.000000
  70
    32
  0
VERTEX
  8
0
  5
C5DC
 10
394.680
 20
896.498
 30
0.000000
  70
    32
  0
VERTEX
  8
0
  5
C5DD
 10
394.673
 20
896.507
 30
0.000000
  70
    32
  0
VERTEX
  8
0
  5
C5DE
 10
394.665
 20
896.517
 30
0.000000
  70
    32
  0
VERTEX
  8
0
  5
C5DF
 10
394.657
 20
896.527
 30
0.000000
  70
    32
  0
VERTEX
  8
0
  5
C5E0
 10
394.650
 20
896.536
 30
0.000000
  70
    32
  0
VERTEX
  8
0
  5
C5E1
 10
394.642
 20
896.546
 30
0.000000
  70
    32
  0
VERTEX
  8
0
  5
C5E2
 10
394.634
 20
896.555
 30
0.000000
  70
    32
  0
VERTEX
  8
0
  5
C5E3
 10
394.626
 20
896.564
 30
0.000000
  70
    32
  0
VERTEX
  8
0
  5
C5E4
 10
394.618
 20
896.573
 30
0.000000
  70
    32
  0
VERTEX
  8
0
  5
C5E5
 10
394.609
 20
896.582
 30
0.000000
  70
    32
  0
VERTEX
  8
0
  5
C5E6
 10
394.601
 20
896.591
 30
0.000000
  70
    32
  0
VERTEX
  8
0
  5
C5E7
 10
394.592
 20
896.600
 30
0.000000
  70
    32
  0
VERTEX
  8
0
  5
C5E8
 10
394.584
 20
896.609
 30
0.000000
  70
    32
  0
VERTEX
  8
0
  5
C5E9
 10
394.575
 20
896.618
 30
0.000000
  70
    32
  0
VERTEX
  8
0
  5
C5EA
 10
394.566
 20
896.626
 30
0.000000
  70
    32
  0
VERTEX
  8
0
  5
C5EB
 10
394.557
 20
896.634
 30
0.000000
  70
    32
  0
VERTEX
  8
0
  5
C5EC
 10
394.548
 20
896.643
 30
0.000000
  70
    32
  0
VERTEX
  8
0
  5
C5ED
 10
394.539
 20
896.651
 30
0.000000
  70
    32
  0
VERTEX
  8
0
  5
C5EE
 10
394.530
 20
896.659
 30
0.000000
  70
    32
  0
VERTEX
  8
0
  5
C5EF
 10
394.521
 20
896.667
 30
0.000000
  70
    32
  0
VERTEX
  8
0
  5
C5F0
 10
394.511
 20
896.675
 30
0.000000
  70
    32
  0
VERTEX
  8
0
  5
C5F1
 10
394.502
 20
896.683
 30
0.000000
  70
    32
  0
VERTEX
  8
0
  5
C5F2
 10
394.492
 20
896.690
 30
0.000000
  70
    32
  0
VERTEX
  8
0
  5
C5F3
 10
394.482
 20
896.698
 30
0.000000
  70
    32
  0
VERTEX
  8
0
  5
C5F4
 10
394.472
 20
896.705
 30
0.000000
  70
    32
  0
VERTEX
  8
0
  5
C5F5
 10
394.462
 20
896.712
 30
0.000000
  70
    32
  0
VERTEX
  8
0
  5
C5F6
 10
394.452
 20
896.719
 30
0.000000
  70
    32
  0
VERTEX
  8
0
  5
C5F7
 10
394.442
 20
896.726
 30
0.000000
  70
    32
  0
VERTEX
  8
0
  5
C5F8
 10
394.432
 20
896.733
 30
0.000000
  70
    32
  0
VERTEX
  8
0
  5
C5F9
 10
394.422
 20
896.740
 30
0.000000
  70
    32
  0
VERTEX
  8
0
  5
C5FA
 10
394.412
 20
896.747
 30
0.000000
  70
    32
  0
VERTEX
  8
0
  5
C5FB
 10
394.401
 20
896.753
 30
0.000000
  70
    32
  0
VERTEX
  8
0
  5
C5FC
 10
394.391
 20
896.760
 30
0.000000
  70
    32
  0
VERTEX
  8
0
  5
C5FD
 10
394.380
 20
896.766
 30
0.000000
  70
    32
  0
VERTEX
  8
0
  5
C5FE
 10
394.370
 20
896.772
 30
0.000000
  70
    32
  0
VERTEX
  8
0
  5
C5FF
 10
394.359
 20
896.778
 30
0.000000
  70
    32
  0
VERTEX
  8
0
  5
C600
 10
394.348
 20
896.784
 30
0.000000
  70
    32
  0
VERTEX
  8
0
  5
C601
 10
394.337
 20
896.789
 30
0.000000
  70
    32
  0
VERTEX
  8
0
  5
C602
 10
394.326
 20
896.795
 30
0.000000
  70
    32
  0
VERTEX
  8
0
  5
C603
 10
394.315
 20
896.800
 30
0.000000
  70
    32
  0
VERTEX
  8
0
  5
C604
 10
394.304
 20
896.806
 30
0.000000
  70
    32
  0
VERTEX
  8
0
  5
C605
 10
394.293
 20
896.811
 30
0.000000
  70
    32
  0
VERTEX
  8
0
  5
C606
 10
394.282
 20
896.816
 30
0.000000
  70
    32
  0
VERTEX
  8
0
  5
C607
 10
394.271
 20
896.821
 30
0.000000
  70
    32
  0
VERTEX
  8
0
  5
C608
 10
394.259
 20
896.826
 30
0.000000
  70
    32
  0
VERTEX
  8
0
  5
C609
 10
394.248
 20
896.830
 30
0.000000
  70
    32
  0
VERTEX
  8
0
  5
C60A
 10
394.237
 20
896.835
 30
0.000000
  70
    32
  0
VERTEX
  8
0
  5
C60B
 10
394.225
 20
896.839
 30
0.000000
  70
    32
  0
VERTEX
  8
0
  5
C60C
 10
394.214
 20
896.843
 30
0.000000
  70
    32
  0
VERTEX
  8
0
  5
C60D
 10
394.202
 20
896.847
 30
0.000000
  70
    32
  0
VERTEX
  8
0
  5
C60E
 10
394.190
 20
896.851
 30
0.000000
  70
    32
  0
VERTEX
  8
0
  5
C60F
 10
394.179
 20
896.855
 30
0.000000
  70
    32
  0
VERTEX
  8
0
  5
C610
 10
394.167
 20
896.859
 30
0.000000
  70
    32
  0
VERTEX
  8
0
  5
C611
 10
394.155
 20
896.862
 30
0.000000
  70
    32
  0
VERTEX
  8
0
  5
C612
 10
394.143
 20
896.866
 30
0.000000
  70
    32
  0
VERTEX
  8
0
  5
C613
 10
394.132
 20
896.869
 30
0.000000
  70
    32
  0
VERTEX
  8
0
  5
C614
 10
394.120
 20
896.872
 30
0.000000
  70
    32
  0
VERTEX
  8
0
  5
C615
 10
394.108
 20
896.875
 30
0.000000
  70
    32
  0
VERTEX
  8
0
  5
C616
 10
394.096
 20
896.878
 30
0.000000
  70
    32
  0
VERTEX
  8
0
  5
C617
 10
394.084
 20
896.880
 30
0.000000
  70
    32
  0
VERTEX
  8
0
  5
C618
 10
394.072
 20
896.883
 30
0.000000
  70
    32
  0
VERTEX
  8
0
  5
C619
 10
394.060
 20
896.885
 30
0.000000
  70
    32
  0
VERTEX
  8
0
  5
C61A
 10
394.048
 20
896.887
 30
0.000000
  70
    32
  0
VERTEX
  8
0
  5
C61B
 10
394.036
 20
896.889
 30
0.000000
  70
    32
  0
VERTEX
  8
0
  5
C61C
 10
394.023
 20
896.891
 30
0.000000
  70
    32
  0
VERTEX
  8
0
  5
C61D
 10
394.011
 20
896.893
 30
0.000000
  70
    32
  0
VERTEX
  8
0
  5
C61E
 10
393.999
 20
896.894
 30
0.000000
  70
    32
  0
VERTEX
  8
0
  5
C61F
 10
393.987
 20
896.896
 30
0.000000
  70
    32
  0
VERTEX
  8
0
  5
C620
 10
393.975
 20
896.897
 30
0.000000
  70
    32
  0
VERTEX
  8
0
  5
C621
 10
393.962
 20
896.898
 30
0.000000
  70
    32
  0
VERTEX
  8
0
  5
C622
 10
393.950
 20
896.899
 30
0.000000
  70
    32
  0
VERTEX
  8
0
  5
C623
 10
393.938
 20
896.900
 30
0.000000
  70
    32
  0
VERTEX
  8
0
  5
C624
 10
393.926
 20
896.901
 30
0.000000
  70
    32
  0
VERTEX
  8
0
  5
C625
 10
393.913
 20
896.901
 30
0.000000
  70
    32
  0
VERTEX
  8
0
  5
C626
 10
393.901
 20
896.902
 30
0.000000
  70
    32
  0
VERTEX
  8
0
  5
C627
 10
393.889
 20
896.902
 30
0.000000
  70
    32
  0
VERTEX
  8
0
  5
C628
 10
393.877
 20
896.902
 30
0.000000
  70
    32
  0
SEQEND
  8
0
  5
C629
  0
LINE
  5
BE45
  8
0
 10
312.60156133048929
 20
884.40157604242665
 30
0.0
 11
302.6015613304894
 21
884.40157604242665
 31
0.0
  0
LINE
  5
BE46
  8
0
 10
390.37668733048929
 20
896.90182604242648
 30
0.0
 11
390.37668733048929
 21
899.40187604242635
 31
0.0
  0
LINE
  5
BE47
  8
0
 10
323.37668733048929
 20
896.90182604242648
 30
0.0
 11
323.37668733048929
 21
899.40187604242635
 31
0.0
  0
LINE
  5
BE48
  8
0
 10
259.8766873304894
 20
1107.401876042426
 30
0.0
 11
259.8766873304894
 21
1101.401876042426
 31
0.0
  0
LINE
  5
BE49
  8
0
 10
235.37668733048929
 20
1108.401876042426
 30
0.0
 11
235.37668733048929
 21
1098.401876042426
 31
0.0
  0
LINE
  5
BE4A
  8
0
 10
246.3766873304892
 20
1108.401876042426
 30
0.0
 11
246.3766873304892
 21
1098.401876042426
 31
0.0
  0
LINE
  5
BE4B
  8
0
 10
246.3766873304892
 20
1107.401876042426
 30
0.0
 11
259.8766873304894
 21
1107.401876042426
 31
0.0
  0
LINE
  5
BE4C
  8
0
 10
235.37668733048929
 20
1108.401876042426
 30
0.0
 11
246.3766873304892
 21
1108.401876042426
 31
0.0
  0
LINE
  5
BE4D
  8
0
 10
157.7767133304892
 20
901.40183504242634
 30
0.0
 11
235.3766833304893
 21
901.40183204242635
 31
0.0
  0
LINE
  5
BE4E
  8
0
 10
157.7767133304892
 20
895.40183504242646
 30
0.0
 11
235.3766833304893
 21
895.40183204242635
 31
0.0
  0
LINE
  5
BE4F
  8
0
 10
235.3766833304893
 20
894.40183204242624
 30
0.0
 11
235.3766833304893
 21
904.40183204242635
 31
0.0
  0
LINE
  5
BE50
  8
0
 10
235.3766833304893
 20
894.40183204242624
 30
0.0
 11
246.3766833304893
 21
894.40183204242624
 31
0.0
  0
LINE
  5
BE51
  8
0
 10
246.3766833304893
 20
894.40183204242624
 30
0.0
 11
246.3766833304893
 21
904.40183204242635
 31
0.0
  0
LINE
  5
BE52
  8
0
 10
246.3766833304893
 20
895.40183204242635
 30
0.0
 11
259.87668333048919
 21
895.40183204242635
 31
0.0
  0
LINE
  5
BE53
  8
0
 10
259.87668333048919
 20
895.40183204242635
 30
0.0
 11
259.87668333048919
 21
901.40183204242635
 31
0.0
  0
LINE
  5
BE54
  8
0
 10
246.3766833304893
 20
901.40183204242635
 30
0.0
 11
259.87668333048919
 21
901.40183204242635
 31
0.0
  0
LINE
  5
BE55
  8
0
 10
257.37668733048929
 20
1009.045647042426
 30
0.0
 11
262.87668733048929
 21
1009.045647042426
 31
0.0
  0
LINE
  5
BE56
  8
0
 10
257.37668733048929
 20
1009.379725042427
 30
0.0
 11
263.55668733048913
 21
1009.379725042427
 31
0.0
  0
LINE
  5
BE57
  8
0
 10
264.87668733048929
 20
1007.045647042426
 30
0.0
 11
264.87668733048929
 21
1001.401880042426
 31
0.0
  0
LINE
  5
BE58
  8
0
 10
266.55668733048913
 20
1012.379725042426
 30
0.0
 11
266.55668733048913
 21
1001.401880042426
 31
0.0
  0
ARC
  5
BE59
  8
0
 10
263.55668733048913
 20
1012.379725042426
 30
0.0
 40
3.0
 50
270.0
 51
0.0
  0
LINE
  5
BE5A
  8
0
 10
257.37668733048929
 20
993.75811204242643
 30
0.0
 11
262.87668733048929
 21
993.75811204242643
 31
0.0
  0
LINE
  5
BE5B
  8
0
 10
257.37668733048929
 20
993.42403449418066
 30
0.0
 11
263.55668733048913
 21
993.42403404242634
 31
0.0
  0
LINE
  5
BE5C
  8
0
 10
264.87668733048929
 20
995.75811204242632
 30
0.0
 11
264.87668733048929
 21
1001.401880042426
 31
0.0
  0
LINE
  5
BE5D
  8
0
 10
266.55668733048913
 20
990.42403404242646
 30
0.0
 11
266.55668733048913
 21
1001.401880042426
 31
0.0
  0
ARC
  5
BE5E
  8
0
 10
263.55668733048913
 20
990.42403404242646
 30
0.0
 40
3.0
 50
359.99999799999722
 51
89.999997999997177
  0
LINE
  5
BE5F
  8
0
 10
482.37668733048957
 20
662.65975446808329
 30
0.0
 11
463.87668733048929
 21
662.65975446808329
 31
0.0
  0
LINE
  5
BE60
  8
0
 10
482.37668733048957
 20
654.53574946808294
 30
0.0
 11
463.87668733048929
 21
654.53574946808294
 31
0.0
  0
LINE
  5
BE61
  8
0
 10
482.37668733048957
 20
640.86203846808314
 30
0.0
 11
463.87668733048929
 21
640.86203846808314
 31
0.0
  0
LINE
  5
BE62
  8
0
 10
482.37668733048957
 20
539.07339946808281
 30
0.0
 11
463.87668733048929
 21
539.07339946808281
 31
0.0
  0
LINE
  5
BE63
  8
0
 10
482.37668733048957
 20
528.89410746808278
 30
0.0
 11
463.87668733048929
 21
528.89410746808278
 31
0.0
  0
LINE
  5
BE64
  8
0
 10
482.37668733048957
 20
516.60682646808311
 30
0.0
 11
463.87668733048929
 21
516.60682646808311
 31
0.0
  0
TEXT
  5
C146
  8
0
  6
CONTINUOUS
 62
     0
 10
945.18696173811475
 20
948.83900964810402
 30
0.0
 40
15.0
  1
VX15-120EB~VX15-200EB
  0
ENDSEC
  0
EOF
