  0
SECTION
  2
HEADER
  9
$ACADVER
  1
AC1009
  9
$INSBASE
 10
0.0
 20
0.0
 30
0.0
  9
$EXTMIN
 10
181.51002796498821
 20
435.30227037611837
 30
-0.0000000000000053
  9
$EXTMAX
 10
1406.358583922244
 20
1230.328248385453
 30
0.0000000000000099
  9
$LIMMIN
 10
-2.7186596955807532
 20
0.0935949875579354
  9
$LIMMAX
 10
1704.281340304419
 20
1110.0935949875579
  9
$ORTHOMODE
 70
     1
  9
$REGENMODE
 70
     1
  9
$FILLMODE
 70
     1
  9
$QTEXTMODE
 70
     0
  9
$MIRRTEXT
 70
     0
  9
$DRAGMODE
 70
     2
  9
$LTSCALE
 40
1.0
  9
$OSMODE
 70
   551
  9
$ATTMODE
 70
     1
  9
$TEXTSIZE
 40
2.5
  9
$TRACEWID
 40
1.0
  9
$TEXTSTYLE
  7
STANDARD
  9
$CLAYER
  8
0
  9
$CELTYPE
  6
BYLAYER
  9
$CECOLOR
 62
   256
  9
$DIMSCALE
 40
1.0
  9
$DIMASZ
 40
2.0
  9
$DIMEXO
 40
1.0
  9
$DIMDLI
 40
8.0
  9
$DIMRND
 40
0.0
  9
$DIMDLE
 40
0.0
  9
$DIMEXE
 40
1.0
  9
$DIMTP
 40
-0.025
  9
$DIMTM
 40
0.043
  9
$DIMTXT
 40
2.5
  9
$DIMCEN
 40
0.0
  9
$DIMTSZ
 40
0.0
  9
$DIMTOL
 70
     0
  9
$DIMLIM
 70
     0
  9
$DIMTIH
 70
     0
  9
$DIMTOH
 70
     0
  9
$DIMSE1
 70
     0
  9
$DIMSE2
 70
     0
  9
$DIMTAD
 70
     3
  9
$DIMZIN
 70
     8
  9
$DIMBLK
  1

  9
$DIMASO
 70
     1
  9
$DIMSHO
 70
     1
  9
$DIMPOST
  1

  9
$DIMAPOST
  1
"
  9
$DIMALT
 70
     0
  9
$DIMALTD
 70
     2
  9
$DIMALTF
 40
0.0393701
  9
$DIMLFAC
 40
1.0
  9
$DIMTOFL
 70
     1
  9
$DIMTVP
 40
0.0
  9
$DIMTIX
 70
     0
  9
$DIMSOXD
 70
     0
  9
$DIMSAH
 70
     0
  9
$DIMBLK1
  1

  9
$DIMBLK2
  1

  9
$DIMSTYLE
  2
AM_JIS
  9
$DIMCLRD
 70
     2
  9
$DIMCLRE
 70
     2
  9
$DIMCLRT
 70
     4
  9
$DIMTFAC
 40
0.71
  9
$DIMGAP
 40
1.5
  9
$LUNITS
 70
     2
  9
$LUPREC
 70
     2
  9
$SKETCHINC
 40
1.0
  9
$FILLETRAD
 40
0.0
  9
$AUNITS
 70
     0
  9
$AUPREC
 70
     0
  9
$MENU
  1
.
  9
$ELEVATION
 40
0.0
  9
$PELEVATION
 40
0.0
  9
$THICKNESS
 40
0.0
  9
$LIMCHECK
 70
     0
  9
$BLIPMODE
 70
     0
  9
$CHAMFERA
 40
3.0
  9
$CHAMFERB
 40
3.0
  9
$SKPOLY
 70
     0
  9
$TDCREATE
 40
2456829.3841110538
  9
$TDUPDATE
 40
2458540.723420382
  9
$TDINDWG
 40
0.6290394907
  9
$TDUSRTIMER
 40
0.6290390972
  9
$USRTIMER
 70
     1
  9
$ANGBASE
 50
0.0
  9
$ANGDIR
 70
     0
  9
$PDMODE
 70
     0
  9
$PDSIZE
 40
0.0
  9
$PLINEWID
 40
0.0
  9
$COORDS
 70
     1
  9
$SPLFRAME
 70
     0
  9
$SPLINETYPE
 70
     6
  9
$SPLINESEGS
 70
     8
  9
$ATTDIA
 70
     1
  9
$ATTREQ
 70
     1
  9
$HANDLING
 70
     1
  9
$HANDSEED
  5
BD98
  9
$SURFTAB1
 70
     6
  9
$SURFTAB2
 70
     6
  9
$SURFTYPE
 70
     6
  9
$SURFU
 70
     6
  9
$SURFV
 70
     6
  9
$UCSNAME
  2

  9
$UCSORG
 10
0.0
 20
0.0
 30
0.0
  9
$UCSXDIR
 10
1.0
 20
0.0
 30
0.0
  9
$UCSYDIR
 10
0.0
 20
1.0
 30
0.0
  9
$PUCSNAME
  2

  9
$PUCSORG
 10
0.0
 20
0.0
 30
0.0
  9
$PUCSXDIR
 10
1.0
 20
0.0
 30
0.0
  9
$PUCSYDIR
 10
0.0
 20
1.0
 30
0.0
  9
$USERI1
 70
     0
  9
$USERI2
 70
     0
  9
$USERI3
 70
     0
  9
$USERI4
 70
     0
  9
$USERI5
 70
     0
  9
$USERR1
 40
0.0
  9
$USERR2
 40
0.0
  9
$USERR3
 40
0.0
  9
$USERR4
 40
0.0
  9
$USERR5
 40
0.0
  9
$WORLDVIEW
 70
     1
  9
$SHADEDGE
 70
     3
  9
$SHADEDIF
 70
    70
  9
$TILEMODE
 70
     1
  9
$MAXACTVP
 70
    64
  9
$PLIMCHECK
 70
     0
  9
$PEXTMIN
 10
1.0000000000000000E+020
 20
1.0000000000000000E+020
 30
1.0000000000000000E+020
  9
$PEXTMAX
 10
-1.0000000000000000E+020
 20
-1.0000000000000000E+020
 30
-1.0000000000000000E+020
  9
$PLIMMIN
 10
0.0
 20
0.0
  9
$PLIMMAX
 10
420.0
 20
297.0
  9
$UNITMODE
 70
     0
  9
$VISRETAIN
 70
     1
  9
$PLINEGEN
 70
     0
  9
$PSLTSCALE
 70
     1
  0
ENDSEC
  0
SECTION
  2
TABLES
  0
TABLE
  2
VPORT
 70
     1
  0
VPORT
  2
*ACTIVE
 70
     0
 10
0.0
 20
0.0
 11
1.0
 21
1.0
 12
793.93430594361632
 22
832.81525938078585
 13
0.0
 23
0.0
 14
15.0
 24
15.0
 15
60.0
 25
60.0
 16
0.0
 26
0.0
 36
1.0
 17
0.0
 27
0.0
 37
0.0
 40
800.48382225196156
 41
1.7571592210767459
 42
50.0
 43
0.0
 44
0.0
 50
0.0
 51
0.0
 71
    16
 72
  1000
 73
     1
 74
     3
 75
     0
 76
     0
 77
     0
 78
     0
  0
ENDTAB
  0
TABLE
  2
LTYPE
 70
    24
  0
LTYPE
  2
CONTINUOUS
 70
     0
  3
Solid line
 72
    65
 73
     0
 40
0.0
  0
LTYPE
  2
CENTER
 70
     0
  3
Center ____ _ ____ _ ____ _ ____ _ ____ _ ____
 72
    65
 73
     4
 40
50.799999999999997
 49
31.75
 49
-6.3499999999999979
 49
6.3499999999999979
 49
-6.3499999999999979
  0
LTYPE
  2
AM_ISO02W050
 70
     0
  3
__ __ __ __ __ __ __ __ __ __ __ __ __ __ __
 72
    65
 73
     2
 40
7.5
 49
6.0
 49
-1.5
  0
LTYPE
  2
AM_ISO08W050
 70
     0
  3
____ . ____ . ____ . ____ . ____ . ____ . ____
 72
    65
 73
     4
 40
18.0
 49
12.0
 49
-1.5
 49
3.0
 49
-1.5
  0
LTYPE
  2
AM_ISO09W050
 70
     0
  3
_____ . . _____ . . _____ . . ____ .. ____
 72
    65
 73
     6
 40
22.5
 49
12.0
 49
-1.5
 49
3.0
 49
-1.5
 49
3.0
 49
-1.5
  0
LTYPE
  2
AMCONSTR
 70
     0
  3
_______________________
 72
    65
 73
     2
 40
9999.0
 49
9999.0
 49
0.0
  0
LTYPE
  2
AM_ISO08W050X2
 70
     0
  3
__ . __ . __ . __ . __ . __
 72
    65
 73
     4
 40
9.0
 49
6.0
 49
-0.75
 49
1.5
 49
-0.75
  0
LTYPE
  2
AM_ISO02W050X2
 70
     0
  3
 _ _ _ _ _ _ _ _ _ _ _ _
 72
    65
 73
     2
 40
3.75
 49
3.0
 49
-0.75
  0
LTYPE
  2
AMZIGZAG
 70
     0
  3
/\/-/\/-/\/-/\/-/\/-/\/
 72
    65
 73
     2
 40
11.0001
 49
0.0001
 49
-11.0
  0
LTYPE
  2
ACANSTGBM
 70
     0
  3
__ . . __ . .
 72
    65
 73
     6
 40
9.0
 49
4.0
 49
-1.0
 49
1.0
 49
-1.0
 49
1.0
 49
-1.0
  0
LTYPE
  2
ACANSTGLM
 70
     0
  3
_ _ _ _ _
 72
    65
 73
     2
 40
3.0
 49
2.0
 49
-1.0
  0
LTYPE
  2
ACISOWELD
 70
     0
  3
_ _ _ _ _
 72
    65
 73
     2
 40
2.0
 49
2.0
 49
-1.0
  0
LTYPE
  2
ACISOTGB
 70
     0
  3
__ . . __ . .
 72
    65
 73
     6
 40
9.0
 49
4.0
 49
-1.0
 49
1.0
 49
-1.0
 49
1.0
 49
-1.0
  0
LTYPE
  2
ACISOTGL
 70
     0
  3
_ _ _ _ _
 72
    65
 73
     2
 40
3.0
 49
2.0
 49
-1.0
  0
LTYPE
  2
ACJISTGB
 70
     0
  3
__ . . __ . .
 72
    65
 73
     6
 40
9.0
 49
4.0
 49
-1.0
 49
1.0
 49
-1.0
 49
1.0
 49
-1.0
  0
LTYPE
  2
ACJISTGL
 70
     0
  3
_ _ _ _ _
 72
    65
 73
     2
 40
3.0
 49
2.0
 49
-1.0
  0
LTYPE
  2
HIDDEN
 70
     0
  3
Hidden __ __ __ __ __ __ __ __ __ __ __ __ __ _
 72
    65
 73
     2
 40
9.5249999999999968
 49
6.349999999999997
 49
-3.174999999999998
  0
LTYPE
  2
PHANTOM2
 70
     0
  3
Phantom (.5x) ___ _ _ ___ _ _ ___ _ _ ___ _ _
 72
    65
 73
     6
 40
31.75
 49
15.875
 49
-3.174999999999998
 49
3.174999999999998
 49
-3.174999999999998
 49
3.174999999999998
 49
-3.174999999999998
  0
LTYPE
  2
CENTER2
 70
     0
  3
Center (.5x) ___ _ ___ _ ___ _ ___ _ ___ _ ___
 72
    65
 73
     4
 40
1.125
 49
0.75
 49
-0.125
 49
0.125
 49
-0.125
  0
LTYPE
  2
HIDDEN2
 70
     0
  3
Hidden (.5x) _ _ _ _ _ _ _ _ _ _ _ _ _ _ _ _ _
 72
    65
 73
     2
 40
0.1875
 49
0.125
 49
-0.0625
  0
LTYPE
  2
AMZIGZAG2
 70
     0
  3
/\/-/\/-/\/-/\/-/\/-/\/
 72
    65
 73
     2
 40
0.4401
 49
0.0001
 49
-0.4400000000000003
  0
LTYPE
  2
ACANSTGB
 70
     0
  3
__ . . __ . .
 72
    65
 73
     6
 40
0.35433070866
 49
0.15748031496
 49
-0.03937007874
 49
0.03937007874
 49
-0.03937007874
 49
0.03937007874
 49
-0.03937007874
  0
LTYPE
  2
ACANSTGL
 70
     0
  3
_ _ _ _ _
 72
    65
 73
     2
 40
0.11811023622
 49
0.07874015748
 49
-0.03937007874
  0
ENDTAB
  0
TABLE
  2
LAYER
 70
     4
  0
LAYER
  2
0
 70
     0
 62
     7
  6
CONTINUOUS
  0
LAYER
  2
DEFPOINTS
 70
     0
 62
     7
  6
CONTINUOUS
  0
LAYER
  2
AM_5
 70
     0
 62
     2
  6
CONTINUOUS
  0
LAYER
  2
AM_CL
 70
     0
 62
     1
  6
AMCONSTR
  0
ENDTAB
  0
TABLE
  2
STYLE
 70
     8
  0
STYLE
  2
STANDARD
 70
     0
 40
0.0
 41
0.7400000000000003
 50
0.0
 71
     0
 42
2.5
  3
txt.shx
  4
bigfont.shx
  0
STYLE
  2

 70
     1
 40
0.0
 41
1.0
 50
0.0
 71
     0
 42
2.5
  3
ltypeshp.shx
  4

  0
STYLE
  2
ACANSTS
 70
     0
 40
1.0
 41
1.0
 50
0.0
 71
     0
 42
2.5
  3
romans.shx
  4
bigfont.shx
  0
STYLE
  2
ACANSGDT
 70
     0
 40
0.0
 41
1.0
 50
0.0
 71
     0
 42
2.5
  3
amgdtans.shx
  4

  0
STYLE
  2
ACISOTS
 70
     0
 40
1.0
 41
1.0
 50
0.0
 71
     0
 42
2.5
  3
isocp.shx
  4
extfont.shx
  0
STYLE
  2
ACISOGDT
 70
     0
 40
0.0
 41
1.0
 50
0.0
 71
     0
 42
2.5
  3
amgdt.shx
  4

  0
STYLE
  2
ACJISGDT
 70
     0
 40
0.0
 41
1.0
 50
0.0
 71
     0
 42
2.5
  3
amgdt.shx
  4

  0
STYLE
  2
ACJISTS
 70
     0
 40
1.0
 41
1.0
 50
0.0
 71
     0
 42
2.5
  3
isocp.shx
  4
extfont.shx
  0
ENDTAB
  0
TABLE
  2
VIEW
 70
     6
  0
VIEW
  2
AM_VIEW1
 70
     0
 40
555.00000000000011
 10
583.88276379196373
 20
832.59359498755816
 41
1173.202846975089
 11
0.0
 21
0.0
 31
1.0
 12
0.0
 22
0.0
 32
0.0
 42
50.0
 43
0.0
 44
0.0
 50
0.0
 71
    16
  0
VIEW
  2
AM_VIEW2
 70
     0
 40
555.00000000000011
 10
1117.6799168168741
 20
832.59359498755816
 41
1173.202846975089
 11
0.0
 21
0.0
 31
1.0
 12
0.0
 22
0.0
 32
0.0
 42
50.0
 43
0.0
 44
0.0
 50
0.0
 71
    16
  0
VIEW
  2
AM_VIEW3
 70
     0
 40
555.00000000000011
 10
583.88276379196373
 20
277.59359498755799
 41
1173.202846975089
 11
0.0
 21
0.0
 31
1.0
 12
0.0
 22
0.0
 32
0.0
 42
50.0
 43
0.0
 44
0.0
 50
0.0
 71
    16
  0
VIEW
  2
AM_VIEW4
 70
     0
 40
555.00000000000011
 10
1117.6799168168741
 20
277.59359498755799
 41
1173.202846975089
 11
0.0
 21
0.0
 31
1.0
 12
0.0
 22
0.0
 32
0.0
 42
50.0
 43
0.0
 44
0.0
 50
0.0
 71
    16
  0
VIEW
  2
AM_VIEW5
 70
     0
 40
555.00000000000011
 10
850.78134030441925
 20
555.09359498755794
 41
1173.202846975089
 11
0.0
 21
0.0
 31
1.0
 12
0.0
 22
0.0
 32
0.0
 42
50.0
 43
0.0
 44
0.0
 50
0.0
 71
    16
  0
VIEW
  2
AM_VIEW6
 70
     0
 40
1109.9889000000001
 10
850.78134030441925
 20
555.09359498755794
 41
2346.3822298932391
 11
0.0
 21
0.0
 31
1.0
 12
0.0
 22
0.0
 32
0.0
 42
50.0
 43
0.0
 44
0.0
 50
0.0
 71
    16
  0
ENDTAB
  0
TABLE
  2
UCS
 70
     0
  0
ENDTAB
  0
TABLE
  2
APPID
 70
   162
  0
APPID
  2
ACAD
 70
     0
  0
APPID
  2
ACADANNOTATIVE
 70
     0
  0
APPID
  2
ACAD_MLEADERVER
 70
     0
  0
APPID
  2
MCAD_NO_VIS
 70
     0
  0
APPID
  2
ACAD_TEMP_GRAPHIC
 70
     0
  0
APPID
  2
AD_DRAW
 70
     0
  0
APPID
  2
ACATTRIBSERVICES
 70
     0
  0
APPID
  2
DESIGNERASSEMBLIES
 70
     0
  0
APPID
  2
ACADM_DIM_EDIT
 70
     0
  0
APPID
  2
AMDT_DM_ADJ
 70
     0
  0
APPID
  2
GENIUS_GENDIMSH_14
 70
     0
  0
APPID
  2
GEVID1057795304
 70
     0
  0
APPID
  2
GEVDC
 70
     0
  0
APPID
  2
GEVCON
 70
     0
  0
APPID
  2
GENIUS_GENBH_13
 70
     0
  0
APPID
  2
GENIUS_GENOENT_13
 70
     0
  0
APPID
  2
GENIUS_GENOBJ-NBEHI-BHF_13
 70
     0
  0
APPID
  2
GENIUS_GENOLIS_13
 70
     0
  0
APPID
  2
GENIUS_GENODEF_13
 70
     0
  0
APPID
  2
GENIUS_GENOREF_13
 70
     0
  0
APPID
  2
GENIUS_GENOBJ-NBEHI-BHB_13
 70
     0
  0
APPID
  2
GENIUS_GENOBJ-F-SCPASSM_13
 70
     0
  0
APPID
  2
GENIUS_GENDTOL_13
 70
     0
  0
APPID
  2
GENIUS_GENTRA_14
 70
     0
  0
APPID
  2
ASURF_PCURVE_APPNAME
 70
     0
  0
APPID
  2
GENIUS_GENCFG_13
 70
     0
  0
APPID
  2
GENIUS_GE3CFG0_13
 70
     0
  0
APPID
  2
GENIUS_GENCFG0_13
 70
     0
  0
APPID
  2
GENIUS_GENCFG1_13
 70
     0
  0
APPID
  2
GENIUS_GENCFG2_13
 70
     0
  0
APPID
  2
GENIUS_GENCFG3_13
 70
     0
  0
APPID
  2
GENIUS_GENCFG4_13
 70
     0
  0
APPID
  2
GENIUS_GEVCFG0_13
 70
     0
  0
APPID
  2
GENIUS_GENOBJ-N-TIT_13
 70
     0
  0
APPID
  2
GENIUS_GENTITLE_13
 70
     0
  0
APPID
  2
GENIUS_GENSCREG_15
 70
     0
  0
APPID
  2
GENIUS_GENOBJ-N-SDF_13
 70
     0
  0
APPID
  2
GENIUS_GENFIL_13
 70
     0
  0
APPID
  2
GENIUS_GENOBJ-N-CHA_13
 70
     0
  0
APPID
  2
GENIUS_GEFSH_13
 70
     0
  0
APPID
  2
GENIUS_GENOBJ-F-SHS_13
 70
     0
  0
APPID
  2
GENIUS_GENOBJ-N-CEN_13
 70
     0
  0
APPID
  2
GENIUS_GENREC_14
 70
     0
  0
APPID
  2
GENIUS_GENOBJ-N-REC_13
 70
     0
  0
APPID
  2
GENIUS_GENOBJ-N-HTC_13
 70
     0
  0
APPID
  2
GENIUS_GENHATCH_13
 70
     0
  0
APPID
  2
ACAD_PSEXT
 70
     0
  0
APPID
  2
ACAD_EXEMPT_FROM_CAD_STANDARDS
 70
     0
  0
APPID
  2
ACAECLAYERSTANDARD
 70
     0
  0
APPID
  2
GENIUS_GENCEN_19
 70
     0
  0
APPID
  2
ACAD_DSTYLE_DIMINSPECT
 70
     0
  0
APPID
  2
ACAD_DSTYLE_DIMANGULAR_EXT
 70
     0
  0
APPID
  2
ACADANNOPO
 70
     0
  0
APPID
  2
ACAD_NAV_VCDISPLAY
 70
     0
  0
APPID
  2
GENIUS_GENOBJ-N-FIL_13
 70
     0
  0
APPID
  2
ACAUTHENVIRON
 70
     0
  0
APPID
  2
ACDBDYNAMICBLOCKTRUENAME
 70
     0
  0
APPID
  2
ACDBDYNAMICBLOCKGUID
 70
     0
  0
APPID
  2
ACDBBLOCKREPETAG
 70
     0
  0
APPID
  2
ACAD_DSTYLE_DIMBREAK
 70
     0
  0
APPID
  2
ACAD_DSTYLE_DIMJAG
 70
     0
  0
APPID
  2
GENIUS_GENHINW_13
 70
     0
  0
APPID
  2
GENIUS_FIRSTVISTXT_14
 70
     0
  0
APPID
  2
GENIUS_GENOBJ-N-LEADER_13
 70
     0
  0
APPID
  2
DCO15
 70
     0
  0
APPID
  2
GENIUS_DUMCFG0_13
 70
     0
  0
APPID
  2
ACAD_DSTYLE_DIMTEXT_FILL
 70
     0
  0
APPID
  2
AMG_2DHIDE
 70
     0
  0
APPID
  2
GENIUS_GEFSHEP_13
 70
     0
  0
APPID
  2
GENIUS_GENOBJ-F-SHE_13
 70
     0
  0
APPID
  2
GENIUS_GEFSHE_13
 70
     0
  0
APPID
  2
ACAD_DIMASSOC_DIMLFAC
 70
     0
  0
APPID
  2
ACAD_DIMASSOC_CALC_DIMLFAC
 70
     0
  0
APPID
  2
ACAD_DIMASSOC_OVERRIDDEN_D
 70
     0
  0
APPID
  2
GENIUS_GENOBJ-F-SHSV_13
 70
     0
  0
APPID
  2
GENIUS_GEFWELD_13
 70
     0
  0
APPID
  2
GENIUS_GENOBJ-N-CRS_13
 70
     0
  0
APPID
  2
GENIUS_GENOBJ-N-RSBK_13
 70
     0
  0
APPID
  2
GENIUS_GENOBJ-N-LIB_13
 70
     0
  0
APPID
  2
GENIUS_GENSCALE_13
 70
     0
  0
APPID
  2
GENIUS_GENDREL_13
 70
     0
  0
APPID
  2
GEVPT
 70
     0
  0
APPID
  2
GEVIT
 70
     0
  0
APPID
  2
VCC
 70
     0
  0
APPID
  2
GENBH
 70
     0
  0
APPID
  2
GEVMK
 70
     0
  0
APPID
  2
GENIUS_GENOBJ-F-DESC_13
 70
     0
  0
APPID
  2
GENIUS_GEFDESC_14
 70
     0
  0
APPID
  2
GENIUS_GENOBJ-F-FEAT_13
 70
     0
  0
APPID
  2
GENIUS_GEFFEAT_14
 70
     0
  0
APPID
  2
GENIUS_GEFPARTINS_13
 70
     0
  0
APPID
  2
GENIUS_GENSCREG_13
 70
     0
  0
APPID
  2
GENIUS_GEFSHP_13
 70
     0
  0
APPID
  2
GEVID1025574798
 70
     0
  0
APPID
  2
GEVID1025574769
 70
     0
  0
APPID
  2
GEVID1025757451
 70
     0
  0
APPID
  2
GEVID1240528327
 70
     0
  0
APPID
  2
AMG_2DSTRUCT_BTR
 70
     0
  0
APPID
  2
ACADM_2DVIEW_IGN_NOTIFY
 70
     0
  0
APPID
  2
GEVID1240528328
 70
     0
  0
APPID
  2
GEVID1240528329
 70
     0
  0
APPID
  2
GEVRADREF
 70
     0
  0
APPID
  2
GEVID1240528330
 70
     0
  0
APPID
  2
GEVID1240528331
 70
     0
  0
APPID
  2
GEVID1240528332
 70
     0
  0
APPID
  2
GEVID1240791080
 70
     0
  0
APPID
  2
GEVID1240791081
 70
     0
  0
APPID
  2
GEVID1240791082
 70
     0
  0
APPID
  2
GEVID1240791083
 70
     0
  0
APPID
  2
GEVID1240791084
 70
     0
  0
APPID
  2
GEVID1240791085
 70
     0
  0
APPID
  2
GEVID1240791086
 70
     0
  0
APPID
  2
GEVID1240791087
 70
     0
  0
APPID
  2
GEVID1240791088
 70
     0
  0
APPID
  2
GEVID1240791089
 70
     0
  0
APPID
  2
GEVID1240791090
 70
     0
  0
APPID
  2
GEVID1240791091
 70
     0
  0
APPID
  2
GEVID1240791092
 70
     0
  0
APPID
  2
GEVID1240791093
 70
     0
  0
APPID
  2
GEVID1240791094
 70
     0
  0
APPID
  2
GEVID1240791095
 70
     0
  0
APPID
  2
GEVID1240791096
 70
     0
  0
APPID
  2
GEVID1240791097
 70
     0
  0
APPID
  2
GEVID1240791098
 70
     0
  0
APPID
  2
GEVID1240791099
 70
     0
  0
APPID
  2
GEVID1240791100
 70
     0
  0
APPID
  2
GEVID1240791101
 70
     0
  0
APPID
  2
GEVID1240791102
 70
     0
  0
APPID
  2
GEVID1240791103
 70
     0
  0
APPID
  2
GEVID1240791104
 70
     0
  0
APPID
  2
GEVID1240791105
 70
     0
  0
APPID
  2
GEVID1240875381
 70
     0
  0
APPID
  2
GEVID1240875382
 70
     0
  0
APPID
  2
GEVID1240875383
 70
     0
  0
APPID
  2
GEVID1240875384
 70
     0
  0
APPID
  2
GEVID1240875385
 70
     0
  0
APPID
  2
GEVID1240875386
 70
     0
  0
APPID
  2
GEVID1240875387
 70
     0
  0
APPID
  2
GEVID1240875388
 70
     0
  0
APPID
  2
GEVID1240875389
 70
     0
  0
APPID
  2
GEVID1240875390
 70
     0
  0
APPID
  2
GEVID1240875391
 70
     0
  0
APPID
  2
GEVID1240875392
 70
     0
  0
APPID
  2
GEVID1240875393
 70
     0
  0
APPID
  2
GEVID1240875394
 70
     0
  0
APPID
  2
GEVID1240875395
 70
     0
  0
APPID
  2
GEVID1240875396
 70
     0
  0
APPID
  2
GEVID1240875397
 70
     0
  0
APPID
  2
GEVID1240875398
 70
     0
  0
APPID
  2
GEVID1240875399
 70
     0
  0
APPID
  2
GEVID1240908996
 70
     0
  0
APPID
  2
GEVID1240908997
 70
     0
  0
APPID
  2
GEVID1240908998
 70
     0
  0
APPID
  2
GEVID1240908999
 70
     0
  0
APPID
  2
GEVID1240909000
 70
     0
  0
APPID
  2
GENIUS_GENOBJ-N-ZOO_13
 70
     0
  0
APPID
  2
GENIUS_GENZOO_17
 70
     0
  0
APPID
  2
ACAD_DSTYLE_DIMRADIAL_EXTENSION
 70
     0
  0
APPID
  2
GENIUS_GE3SECT_13
 70
     0
  0
APPID
  2
GEV_VCCNULL_SWITCH_OFF
 70
     0
  0
APPID
  2
ACAD_DSTYLE_DIMTALN
 70
     0
  0
APPID
  2
CONTENTBLOCKDESCRIPTION
 70
     0
  0
ENDTAB
  0
TABLE
  2
DIMSTYLE
 70
    21
  0
DIMSTYLE
  2
AM_ANSI
 70
     0
  3

  4
"
  5

  6

  7

 40
1.0
 41
2.5
 42
1.0
 43
10.0
 44
1.0
 45
0.0
 46
0.0
 47
0.1
 48
0.1
140
3.5
141
0.0
142
0.0
143
0.0393701
144
1.0
145
0.0
146
0.71
147
1.5
 71
     0
 72
     0
 73
     1
 74
     1
 75
     0
 76
     0
 77
     0
 78
     8
170
     0
171
     2
172
     0
173
     0
174
     0
175
     0
176
     2
177
     2
178
     4
  0
DIMSTYLE
  2
AM_ANSI$3
 70
     0
  3

  4
"
  5

  6

  7

 40
1.0
 41
2.5
 42
1.0
 43
10.0
 44
1.0
 45
0.0
 46
0.0
 47
0.1
 48
0.1
140
3.5
141
0.0
142
0.0
143
0.0393701
144
1.0
145
0.0
146
0.71
147
1.5
 71
     0
 72
     0
 73
     1
 74
     1
 75
     0
 76
     0
 77
     0
 78
     8
170
     0
171
     2
172
     0
173
     0
174
     0
175
     0
176
     2
177
     2
178
     4
  0
DIMSTYLE
  2
AM_ANSI$4
 70
     0
  3

  4
"
  5

  6

  7

 40
1.0
 41
2.5
 42
1.0
 43
10.0
 44
1.0
 45
0.0
 46
0.0
 47
0.1
 48
0.1
140
3.5
141
0.0
142
0.0
143
0.0393701
144
1.0
145
0.0
146
0.71
147
1.5
 71
     0
 72
     0
 73
     1
 74
     1
 75
     0
 76
     0
 77
     0
 78
     8
170
     0
171
     2
172
     0
173
     0
174
     0
175
     0
176
     2
177
     2
178
     4
  0
DIMSTYLE
  2
AM_ANSI$7
 70
     0
  3

  4
"
  5

  6

  7

 40
1.0
 41
2.5
 42
1.0
 43
10.0
 44
1.0
 45
0.0
 46
0.0
 47
0.1
 48
0.1
140
5.0
141
0.0
142
0.0
143
0.0393701
144
1.0
145
0.0
146
0.71
147
1.5
 71
     0
 72
     0
 73
     1
 74
     1
 75
     0
 76
     0
 77
     0
 78
     8
170
     0
171
     2
172
     0
173
     0
174
     0
175
     0
176
     2
177
     2
178
     4
  0
DIMSTYLE
  2
AM_ANSI$SF
 70
     0
  3

  4
"
  5

  6

  7

 40
1.0
 41
2.5
 42
1.0
 43
10.0
 44
1.0
 45
0.0
 46
0.0
 47
0.1
 48
0.1
140
3.5
141
0.0
142
0.0
143
0.0393701
144
1.0
145
0.0
146
0.71
147
1.5
 71
     0
 72
     0
 73
     1
 74
     1
 75
     1
 76
     1
 77
     0
 78
     8
170
     0
171
     2
172
     0
173
     0
174
     0
175
     0
176
     2
177
     2
178
     4
  0
DIMSTYLE
  2
AM_ANSI$SH
 70
     0
  3

  4
"
  5

  6
GENAXEH
  7

 40
1.0
 41
2.5
 42
1.0
 43
10.0
 44
1.0
 45
0.0
 46
0.0
 47
0.1
 48
0.1
140
3.5
141
0.0
142
0.0
143
0.0393701
144
1.0
145
0.0
146
0.71
147
1.5
 71
     0
 72
     0
 73
     1
 74
     1
 75
     1
 76
     1
 77
     0
 78
     8
170
     0
171
     2
172
     0
173
     1
174
     0
175
     0
176
     2
177
     2
178
     4
  0
DIMSTYLE
  2
AM_ISO
 70
     0
  3

  4
"
  5

  6

  7

 40
1.0
 41
2.5
 42
1.0
 43
10.0
 44
1.0
 45
0.0
 46
0.0
 47
0.1
 48
0.1
140
3.5
141
0.0
142
0.0
143
0.0393701
144
1.0
145
0.0
146
0.71
147
1.5
 71
     0
 72
     0
 73
     0
 74
     0
 75
     0
 76
     0
 77
     1
 78
     8
170
     0
171
     2
172
     1
173
     0
174
     0
175
     0
176
   256
177
   256
178
     2
  0
DIMSTYLE
  2
AM_ISO$3
 70
     0
  3

  4
"
  5

  6

  7

 40
1.0
 41
2.5
 42
1.0
 43
10.0
 44
1.0
 45
0.0
 46
0.0
 47
0.1
 48
0.1
140
3.5
141
0.0
142
0.0
143
0.0393701
144
1.0
145
0.0
146
0.71
147
1.5
 71
     0
 72
     0
 73
     0
 74
     1
 75
     0
 76
     0
 77
     1
 78
     8
170
     0
171
     2
172
     0
173
     0
174
     0
175
     0
176
   256
177
   256
178
     2
  0
DIMSTYLE
  2
AM_ISO$4
 70
     0
  3

  4
"
  5

  6

  7

 40
1.0
 41
2.5
 42
1.0
 43
10.0
 44
1.0
 45
0.0
 46
0.0
 47
0.1
 48
0.1
140
3.5
141
0.0
142
0.0
143
0.0393701
144
1.0
145
0.0
146
0.71
147
1.5
 71
     0
 72
     0
 73
     0
 74
     1
 75
     0
 76
     0
 77
     1
 78
     8
170
     0
171
     2
172
     0
173
     0
174
     0
175
     0
176
   256
177
   256
178
     2
  0
DIMSTYLE
  2
AM_ISO$6
 70
     0
  3

  4
"
  5

  6

  7

 40
1.0
 41
2.5
 42
1.0
 43
10.0
 44
1.0
 45
0.0
 46
0.0
 47
0.1
 48
0.1
140
3.5
141
0.0
142
0.0
143
0.0393701
144
1.0
145
0.0
146
0.71
147
1.5
 71
     0
 72
     0
 73
     0
 74
     0
 75
     0
 76
     0
 77
     0
 78
     8
170
     0
171
     2
172
     1
173
     0
174
     0
175
     0
176
   256
177
   256
178
     2
  0
DIMSTYLE
  2
AM_ISO$7
 70
     0
  3

  4
"
  5

  6

  7

 40
1.0
 41
2.5
 42
1.0
 43
10.0
 44
1.0
 45
0.0
 46
0.0
 47
0.1
 48
0.1
140
5.0
141
0.0
142
0.0
143
0.0393701
144
1.0
145
0.0
146
0.71
147
1.5
 71
     0
 72
     0
 73
     0
 74
     0
 75
     0
 76
     0
 77
     1
 78
     8
170
     0
171
     2
172
     1
173
     0
174
     0
175
     0
176
   256
177
   256
178
     2
  0
DIMSTYLE
  2
AM_ISO$SF
 70
     0
  3

  4
"
  5

  6

  7

 40
1.0
 41
2.5
 42
1.0
 43
10.0
 44
1.0
 45
0.0
 46
0.0
 47
0.1
 48
0.1
140
3.5
141
0.0
142
0.0
143
0.0393701
144
1.0
145
0.0
146
0.71
147
1.5
 71
     0
 72
     0
 73
     0
 74
     0
 75
     1
 76
     1
 77
     1
 78
     8
170
     0
171
     2
172
     1
173
     0
174
     0
175
     0
176
   256
177
   256
178
     2
  0
DIMSTYLE
  2
AM_ISO$SH
 70
     0
  3

  4
"
  5

  6
GENAXEH
  7

 40
1.0
 41
2.5
 42
1.0
 43
10.0
 44
1.0
 45
0.0
 46
0.0
 47
0.1
 48
0.1
140
3.5
141
0.0
142
0.0
143
0.0393701
144
2.0
145
0.0
146
0.71
147
1.5
 71
     0
 72
     0
 73
     0
 74
     0
 75
     1
 76
     1
 77
     1
 78
     8
170
     0
171
     2
172
     1
173
     1
174
     0
175
     0
176
   256
177
   256
178
     2
  0
DIMSTYLE
  2
AM_JIS
 70
     0
  3

  4
"
  5

  6

  7

 40
1.0
 41
2.0
 42
1.0
 43
8.0
 44
1.0
 45
0.0
 46
0.0
 47
0.1
 48
0.1
140
2.5
141
0.0
142
0.0
143
0.0393701
144
1.0
145
0.0
146
0.71
147
1.5
 71
     0
 72
     0
 73
     0
 74
     0
 75
     0
 76
     0
 77
     3
 78
     8
170
     0
171
     2
172
     1
173
     0
174
     0
175
     0
176
     2
177
     2
178
     4
  0
DIMSTYLE
  2
AM_JIS$3
 70
     0
  3

  4
"
  5

  6

  7

 40
1.0
 41
2.0
 42
1.0
 43
10.0
 44
1.0
 45
0.0
 46
0.0
 47
0.1
 48
0.1
140
2.5
141
0.0
142
0.0
143
0.0393701
144
1.0
145
0.0
146
0.71
147
1.5
 71
     0
 72
     0
 73
     0
 74
     1
 75
     0
 76
     0
 77
     3
 78
     8
170
     0
171
     2
172
     0
173
     0
174
     0
175
     0
176
     2
177
     2
178
     4
  0
DIMSTYLE
  2
AM_JIS$4
 70
     0
  3

  4
"
  5

  6

  7

 40
1.0
 41
2.0
 42
1.0
 43
10.0
 44
1.0
 45
0.0
 46
0.0
 47
0.1
 48
0.1
140
2.5
141
0.0
142
0.0
143
0.0393701
144
1.0
145
0.0
146
0.71
147
1.5
 71
     0
 72
     0
 73
     0
 74
     0
 75
     0
 76
     0
 77
     3
 78
     8
170
     0
171
     2
172
     0
173
     0
174
     0
175
     0
176
     2
177
     2
178
     4
  0
DIMSTYLE
  2
AM_JIS$6
 70
     0
  3

  4
"
  5

  6

  7

 40
1.0
 41
2.0
 42
1.0
 43
10.0
 44
1.0
 45
0.0
 46
0.0
 47
0.1
 48
0.1
140
2.5
141
0.0
142
0.0
143
0.0393701
144
1.0
145
0.0
146
0.71
147
1.5
 71
     0
 72
     0
 73
     0
 74
     0
 75
     0
 76
     0
 77
     0
 78
     8
170
     0
171
     2
172
     1
173
     0
174
     0
175
     0
176
     2
177
     2
178
     4
  0
DIMSTYLE
  2
AM_JIS$7
 70
     0
  3

  4
"
  5

  6
OPEN30
  7
OPEN30
 40
1.0
 41
2.0
 42
1.0
 43
10.0
 44
1.0
 45
0.0
 46
0.0
 47
0.1
 48
0.1
140
2.5
141
0.0
142
0.0
143
0.0393701
144
1.0
145
0.0
146
0.71
147
1.5
 71
     0
 72
     0
 73
     0
 74
     0
 75
     0
 76
     0
 77
     3
 78
     8
170
     0
171
     2
172
     1
173
     0
174
     0
175
     0
176
     2
177
     2
178
     4
  0
DIMSTYLE
  2
AM_JIS$SF
 70
     0
  3

  4
"
  5

  6

  7

 40
1.0
 41
2.0
 42
1.0
 43
10.0
 44
1.0
 45
0.0
 46
0.0
 47
0.1
 48
0.1
140
2.5
141
0.0
142
0.0
143
0.0393701
144
1.0
145
0.0
146
0.71
147
1.5
 71
     0
 72
     0
 73
     0
 74
     0
 75
     1
 76
     1
 77
     3
 78
     8
170
     0
171
     2
172
     1
173
     0
174
     0
175
     0
176
     2
177
     2
178
     4
  0
DIMSTYLE
  2
AM_JIS$SH
 70
     0
  3

  4
"
  5

  6
GENAXEH
  7

 40
1.0
 41
2.0
 42
1.0
 43
10.0
 44
1.0
 45
0.0
 46
0.0
 47
0.1
 48
0.1
140
2.5
141
0.0
142
0.0
143
0.0393701
144
2.0
145
0.0
146
0.71
147
1.5
 71
     0
 72
     0
 73
     0
 74
     0
 75
     1
 76
     1
 77
     3
 78
     8
170
     0
171
     2
172
     1
173
     1
174
     0
175
     0
176
     2
177
     2
178
     4
  0
DIMSTYLE
  2
AM_JIS$0
 70
     0
  3

  4
"
  5

  6

  7

 40
1.0
 41
2.0
 42
1.0
 43
8.0
 44
1.0
 45
0.0
 46
0.0
 47
0.1
 48
0.1
140
2.5
141
0.0
142
0.0
143
0.0393701
144
1.0
145
0.0
146
0.71
147
1.5
 71
     0
 72
     0
 73
     0
 74
     0
 75
     0
 76
     0
 77
     3
 78
     8
170
     0
171
     2
172
     1
173
     0
174
     0
175
     0
176
     2
177
     2
178
     4
  0
ENDTAB
  0
ENDSEC
  0
SECTION
  2
BLOCKS
  0
BLOCK
  8
0
  2
$MODEL_SPACE
 70
     0
 10
0.0
 20
0.0
 30
0.0
  3
$MODEL_SPACE
  1

  0
ENDBLK
  5
77
  8
0
  0
BLOCK
 67
     1
  8
0
  2
$PAPER_SPACE
 70
     0
 10
0.0
 20
0.0
 30
0.0
  3
$PAPER_SPACE
  1

  0
ENDBLK
  5
73
 67
     1
  8
0
  0
BLOCK
  8
0
  2
GENAXEH
 70
     0
 10
0.0
 20
0.0
 30
0.0
  3
GENAXEH
  1

  0
LINE
  5
B778
  8
0
 10
-1.0
 20
0.0
 30
0.0
 11
1.0
 21
0.0
 31
0.0
  0
ENDBLK
  5
B779
  8
0
  0
BLOCK
  8
0
  6
BYBLOCK
 62
     0
  2
$6-45
 70
     0
 10
0.0
 20
0.0
 30
0.0
  3
$6-45
  1

  0
ARC
  5
957E
  8
0
  6
CONTINUOUS
 62
     0
 10
-2.6499939999999902
 20
2.800201000000015
 30
0.0
 40
2.6003989999999999
 50
89.999982000000799
 51
179.99997799999841
  0
ARC
  5
957F
  8
0
  6
CONTINUOUS
 62
     0
 10
2.6499939999999902
 20
2.8002010000000692
 30
0.0
 40
2.600403
 50
0.0
 51
89.999982000000799
  0
LINE
  5
9580
  8
0
  6
CONTINUOUS
 62
     0
 10
0.0660249999999678
 20
0.0
 30
0.0
 11
-0.7999999999999548
 21
1.5
 31
0.0
  0
LINE
  5
9581
  8
0
  6
CONTINUOUS
 62
     0
 10
1.0660249999999669
 20
0.0
 30
0.0
 11
0.2000000000000455
 21
1.5
 31
0.0
  0
LINE
  5
9582
  8
0
  6
CONTINUOUS
 62
     0
 10
6.1000000000000218
 20
0.0000000000000568
 30
0.0
 11
-6.1000000000000218
 21
0.0
 31
0.0
  0
LINE
  5
9583
  8
0
  6
CONTINUOUS
 62
     0
 10
6.1000000000000218
 20
1.500000000000054
 30
0.0
 11
6.1000000000000218
 21
0.0000000000000568
 31
0.0
  0
LINE
  5
9584
  8
0
  6
CONTINUOUS
 62
     0
 10
-6.1000000000000218
 20
1.5
 30
0.0
 11
-6.1000000000000218
 21
0.0
 31
0.0
  0
LINE
  5
9585
  8
0
  6
CONTINUOUS
 62
     0
 10
2.6499939999999902
 20
5.3999940000000493
 30
0.0
 11
-2.6499939999999902
 21
5.3999939999999906
 31
0.0
  0
LINE
  5
9586
  8
0
  6
CONTINUOUS
 62
     0
 10
6.1000000000000218
 20
1.500000000000054
 30
0.0
 11
-6.1000000000000218
 21
1.5
 31
0.0
  0
LINE
  5
9587
  8
0
  6
CONTINUOUS
 62
     0
 10
-5.25
 20
1.5
 30
0.0
 11
-5.25
 21
2.800201000000015
 31
0.0
  0
LINE
  5
9588
  8
0
  6
CONTINUOUS
 62
     0
 10
5.25
 20
1.500000000000054
 30
0.0
 11
5.25
 21
2.8002010000000692
 31
0.0
  0
ENDBLK
  5
9589
  8
0
  6
BYBLOCK
 62
     0
  0
BLOCK
  8
0
  2
_OPEN30
 70
     0
 10
0.0
 20
0.0
 30
0.0
  3
_OPEN30
  1

  0
LINE
  5
B7BF
  8
0
  6
BYBLOCK
 62
     0
 10
-1.0
 20
0.26794919
 30
0.0
 11
0.0
 21
0.0
 31
0.0
  0
LINE
  5
B7C0
  8
0
  6
BYBLOCK
 62
     0
 10
0.0
 20
0.0
 30
0.0
 11
-1.0
 21
-0.26794919
 31
0.0
  0
LINE
  5
B7C1
  8
0
  6
BYBLOCK
 62
     0
 10
0.0
 20
0.0
 30
0.0
 11
-1.0
 21
0.0
 31
0.0
  0
ENDBLK
  5
B7C2
  8
0
  0
BLOCK
  8
0
  2
_ACMFILLEDHALF
 70
     0
 10
0.0
 20
0.0
 30
0.0
  3
_ACMFILLEDHALF
  1

  0
TRACE
  5
B881
  8
0
  6
CONTINUOUS
 62
     0
 10
-0.8
 20
0.0
 30
0.0
 11
-1.0
 21
0.166666666
 31
0.0
 12
0.0
 22
0.0
 32
0.0
 13
0.0
 23
0.0
 33
0.0
  0
LINE
  5
B882
  8
0
  6
CONTINUOUS
 62
     0
 10
-1.0
 20
0.0
 30
0.0
 11
-0.8
 21
0.0
 31
0.0
  0
ENDBLK
  5
B883
  8
0
  0
ENDSEC
  0
SECTION
  2
ENTITIES
  0
LINE
  5
A660
  8
0
  6
AM_ISO08W050
 10
574.00190275868317
 20
641.36326911420213
 30
0.0
 11
938.24440275868392
 21
641.36326911420213
 31
0.0
  0
LINE
  5
A661
  8
0
 10
1246.319727904048
 20
773.37195411420225
 30
0.0
 11
1250.7977879040491
 21
772.48420411420136
 31
0.0
  0
LINE
  5
A662
  8
0
 10
1231.8416729040489
 20
772.48435411420223
 30
0.0
 11
1236.3197279040489
 21
773.37210411420222
 31
0.0
  0
LINE
  5
A663
  8
0
 10
1228.6737029040489
 20
762.81830411420151
 30
0.0
 11
1231.070187904048
 21
771.7621541142023
 31
0.0
  0
LINE
  5
A664
  8
0
 10
1253.9657529040489
 20
762.81830411420151
 30
0.0
 11
1251.569237904049
 21
771.76220411420184
 31
0.0
  0
LINE
  5
A665
  8
0
 10
1246.3197579040479
 20
809.36325411420205
 30
0.0
 11
1246.3197579040479
 21
767.36325411420182
 31
0.0
  0
LINE
  5
A666
  8
0
 10
1236.3197579040491
 20
809.36325411420205
 30
0.0
 11
1236.3197579040491
 21
767.36325411420182
 31
0.0
  0
LINE
  5
A667
  8
0
 10
869.31555275868243
 20
672.86325411420137
 30
0.0
 11
869.31555275868243
 21
668.86326911420213
 31
0.0
  0
LINE
  5
A668
  8
0
 10
869.31555275868243
 20
672.86325411420137
 30
0.0
 11
931.31555275868266
 21
672.86325411420137
 31
0.0
  0
LINE
  5
A669
  8
0
 10
849.31555275868266
 20
613.86326911420213
 30
0.0
 11
931.31555275868266
 21
613.86326911420213
 31
0.0
  0
LINE
  5
A66A
  8
0
 10
931.31555275868266
 20
672.86325411420137
 30
0.0
 11
931.31555275868266
 21
613.86326911420213
 31
0.0
  0
LINE
  5
A66B
  8
0
 10
849.31555275868266
 20
671.36326911420213
 30
0.0
 11
849.31555275868266
 21
611.36326911420213
 31
0.0
  0
LINE
  5
A66C
  8
0
 10
849.31555275868266
 20
668.86326911420213
 30
0.0
 11
931.31555275868266
 21
668.86326911420213
 31
0.0
  0
LINE
  5
A66D
  8
0
 10
617.31560275868344
 20
693.86330411420124
 30
0.0
 11
617.31560275868344
 21
498.86326411420129
 31
0.0
  0
LINE
  5
A66E
  8
0
 10
843.31555275868254
 20
671.36326911420213
 30
0.0
 11
849.31555275868266
 21
671.36326911420213
 31
0.0
  0
LINE
  5
A66F
  8
0
 10
678.31555275868322
 20
774.36325411420182
 30
0.0
 11
687.79370275868314
 21
772.48420411420136
 31
0.0
  0
LINE
  5
A670
  8
0
 10
668.83745275868353
 20
772.48435411420223
 30
0.0
 11
678.31550275868324
 21
774.36330411420158
 31
0.0
  0
LINE
  5
A671
  8
0
 10
690.81555275868334
 20
763.36325411420182
 30
0.0
 11
688.56505275868335
 21
771.76220411420184
 31
0.0
  0
LINE
  5
A672
  8
0
 10
665.81560275868344
 20
763.36325411420182
 30
0.0
 11
668.06610275868343
 21
771.7621541142023
 31
0.0
  0
LINE
  5
A673
  8
0
 10
668.52150275868325
 20
772.36325411420182
 30
0.0
 11
688.10955275868332
 21
772.36325411420182
 31
0.0
  0
LINE
  5
A674
  8
0
 10
843.31555275868254
 20
611.36326911420213
 30
0.0
 11
849.31555275868266
 21
611.36326911420213
 31
0.0
  0
LINE
  5
A675
  8
0
 10
1233.3197279040489
 20
662.86326911420133
 30
0.0
 11
1249.3197279040489
 21
662.86326911420133
 31
0.0
  0
LINE
  5
A676
  8
0
 10
1233.3197279040489
 20
672.86325411420137
 30
0.0
 11
1249.3197279040489
 21
672.86325411420137
 31
0.0
  0
LINE
  5
A677
  8
0
 10
1233.3197279040489
 20
662.86326911420133
 30
0.0
 11
1233.3197279040489
 21
672.86325411420137
 31
0.0
  0
LINE
  5
A678
  8
0
 10
1249.3197279040489
 20
662.86326911420133
 30
0.0
 11
1249.3197279040489
 21
672.86325411420137
 31
0.0
  0
LINE
  5
A679
  8
0
 10
1108.3197279040489
 20
649.82966911420124
 30
0.0
 11
1108.3197279040489
 21
635.98896911420172
 31
0.0
  0
LINE
  5
A67A
  8
0
 10
1141.3197579040491
 20
483.3632341142021
 30
0.0
 11
1141.3197579040491
 21
626.36326911420213
 31
0.0
  0
LINE
  5
A67B
  8
0
 10
701.31555275868334
 20
633.46925411420125
 30
0.0
 11
721.31555275868311
 21
633.46925411420125
 31
0.0
  0
LINE
  5
A67C
  8
0
 10
840.24575275868403
 20
701.47045411420197
 30
0.0
 11
841.38530275868368
 21
701.43070411420183
 31
0.0
  0
LINE
  5
A67D
  8
0
 10
820.44405275868269
 20
727.926854114202
 30
0.0
 11
833.75135275868388
 21
726.76260411420105
 31
0.0
  0
LINE
  5
A67E
  8
0
 10
1099.3197279040489
 20
471.36326411420112
 30
0.0
 11
1099.3197279040489
 21
441.36326411420129
 31
0.0
  0
LINE
  5
A67F
  8
0
 10
1118.3197279040489
 20
471.36326411420112
 30
0.0
 11
1118.3197279040489
 21
441.36326411420129
 31
0.0
  0
LINE
  5
A680
  8
0
 10
1076.31973790405
 20
471.36326411420112
 30
0.0
 11
1076.31973790405
 21
441.36326411420129
 31
0.0
  0
LINE
  5
A681
  8
0
 10
1141.3197579040491
 20
471.36326411420112
 30
0.0
 11
1081.3197379040489
 21
471.36326411420112
 31
0.0
  0
LINE
  5
A682
  8
0
 10
1146.3197579040491
 20
441.36326411420129
 30
0.0
 11
1076.31973790405
 21
441.36326411420129
 31
0.0
  0
LINE
  5
A683
  8
0
 10
1241.3197579040479
 20
448.3632341142021
 30
0.0
 11
1151.3197579040491
 21
448.3632341142021
 31
0.0
  0
LINE
  5
A684
  8
0
  6
AM_ISO08W050
 10
1108.8197579040491
 20
476.02451911420098
 30
0.0
 11
1108.8197579040491
 21
438.36326411420117
 31
0.0
  0
LINE
  5
A685
  8
0
 10
838.31555275868266
 20
721.78155411420187
 30
0.0
 11
838.31555275868266
 21
475.02351411420108
 31
0.0
  0
LINE
  5
A686
  8
0
 10
788.31555275868311
 20
471.36326411420112
 30
0.0
 11
838.31555275868266
 21
471.36326411420112
 31
0.0
  0
LINE
  5
A687
  8
0
  6
AM_ISO08W050
 10
813.31555275868266
 20
475.27113411420117
 30
0.0
 11
813.31555275868266
 21
438.36326411420117
 31
0.0
  0
LINE
  5
A688
  8
0
 10
843.31555275868254
 20
466.36326411420129
 30
0.0
 11
843.31555275868254
 21
441.36326411420129
 31
0.0
  0
LINE
  5
A689
  8
0
 10
696.31550275868335
 20
763.36325411420182
 30
0.0
 11
716.49000275868332
 21
762.65875411420222
 31
0.0
  0
LINE
  5
A68A
  8
0
  6
AM_ISO08W050
 10
643.31555275868322
 20
474.36326411420129
 30
0.0
 11
643.31555275868322
 21
438.36326411420117
 31
0.0
  0
LINE
  5
A68B
  8
0
 10
843.31555275868254
 20
699.43190411420176
 30
0.0
 11
843.31555275868254
 21
583.29466411420174
 31
0.0
  0
LINE
  5
A68C
  8
0
 10
822.81555275868254
 20
471.36326411420112
 30
0.0
 11
822.81555275868254
 21
441.36326411420129
 31
0.0
  0
LINE
  5
A68D
  8
0
 10
803.81555275868266
 20
471.36326411420112
 30
0.0
 11
803.81555275868266
 21
441.36326411420129
 31
0.0
  0
LINE
  5
A68E
  8
0
 10
724.3438027586833
 20
758.38455411420216
 30
0.0
 11
801.66455275868282
 21
755.68440411420181
 31
0.0
  0
LINE
  5
A68F
  8
0
 10
633.81555275868311
 20
471.36326411420112
 30
0.0
 11
633.81555275868311
 21
441.36326411420129
 31
0.0
  0
LINE
  5
A690
  8
0
 10
613.31555275868311
 20
441.36326411420129
 30
0.0
 11
843.31555275868254
 21
441.36326411420129
 31
0.0
  0
LINE
  5
A691
  8
0
 10
840.24580275868254
 20
581.25608911420215
 30
0.0
 11
841.38540275868286
 21
581.29588411420173
 31
0.0
  0
LINE
  5
A692
  8
0
 10
613.31555275868311
 20
466.36326411420129
 30
0.0
 11
613.31555275868311
 21
441.36326411420129
 31
0.0
  0
LINE
  5
A693
  8
0
  6
AM_ISO08W050
 10
1241.3197579040479
 20
435.36326411420117
 30
0.0
 11
1241.3197579040479
 21
817.36255411420154
 31
0.0
  0
LINE
  5
A694
  8
0
 10
618.31555275868322
 20
471.36326411420112
 30
0.0
 11
665.14495275868342
 21
471.36326411420112
 31
0.0
  0
LINE
  5
A695
  8
0
 10
721.31555275868311
 20
757.66180411420123
 30
0.0
 11
721.31555275868311
 21
633.46925411420125
 31
0.0
  0
LINE
  5
A696
  8
0
 10
701.31555275868334
 20
633.46925411420125
 30
0.0
 11
701.31555275868334
 21
543.60224911420096
 31
0.0
  0
LINE
  5
A697
  8
0
 10
652.81555275868322
 20
471.36326411420112
 30
0.0
 11
652.81555275868322
 21
441.36326411420129
 31
0.0
  0
LINE
  5
A698
  8
0
 10
811.31555275868243
 20
745.69045411420097
 30
0.0
 11
811.31555275868243
 21
497.67027411420179
 31
0.0
  0
LINE
  5
A699
  8
0
 10
1124.3197279040489
 20
548.32716411420165
 30
0.0
 11
1124.3197279040489
 21
692.29705411420139
 31
0.0
  0
LINE
  5
A69A
  8
0
 10
793.31555275868334
 20
693.32090411420165
 30
0.0
 11
811.31555275868243
 21
693.32090411420165
 31
0.0
  0
LINE
  5
A69B
  8
0
 10
778.31555275868334
 20
487.67027411420162
 30
0.0
 11
801.31555275868254
 21
487.67027411420162
 31
0.0
  0
LINE
  5
A69C
  8
0
 10
778.31555275868334
 20
678.32090411420177
 30
0.0
 11
778.31555275868334
 21
481.36326411420129
 31
0.0
  0
LINE
  5
A69D
  8
0
 10
1146.3197579040491
 20
466.36326411420129
 30
0.0
 11
1146.3197579040491
 21
441.36326411420129
 31
0.0
  0
LINE
  5
A69E
  8
0
 10
1076.31973790405
 20
471.36329411420149
 30
0.0
 11
1114.5170829040489
 21
667.87153911420148
 31
0.0
  0
LINE
  5
A69F
  8
0
 10
669.66755275868297
 20
474.23115411420179
 30
0.0
 11
700.36080275868335
 21
539.33805911420131
 31
0.0
  0
LINE
  5
A6A0
  8
0
 10
1241.3197579040479
 20
457.36326411420129
 30
0.0
 11
1182.310417904049
 21
457.36326411420129
 31
0.0
  0
LINE
  5
A6A1
  8
0
 10
1149.2486829040481
 20
454.29218911420151
 30
0.0
 11
1157.439142904049
 21
462.48267911420118
 31
0.0
  0
LINE
  5
A6A2
  8
0
 10
1176.5746429040489
 20
459.17176911420131
 30
0.0
 11
1170.2459679040489
 21
463.60313411420162
 31
0.0
  0
LINE
  5
A6A3
  8
0
 10
619.31555275868311
 20
679.55840411420206
 30
0.0
 11
619.31555275868311
 21
653.13905411420194
 31
0.0
  0
LINE
  5
A6A4
  8
0
 10
617.31550275868358
 20
498.86326411420129
 30
0.0
 11
635.4900027586832
 21
498.22858911420178
 31
0.0
  0
LINE
  5
A6A5
  8
0
 10
696.31555275868311
 20
763.36325411420182
 30
0.0
 11
696.31555275868311
 21
530.75718911420165
 31
0.0
  0
LINE
  5
A6A6
  8
0
 10
665.31555275868322
 20
763.36325411420182
 30
0.0
 11
696.31555275868311
 21
763.36325411420182
 31
0.0
  0
LINE
  5
A6A7
  8
0
 10
661.91710275868297
 20
733.79565411420117
 30
0.0
 11
664.91710275868343
 21
736.91110411420152
 31
0.0
  0
LINE
  5
A6A8
  8
0
 10
663.31555275868311
 20
761.36330411420158
 30
0.0
 11
663.31555275868311
 21
737.26385411420154
 31
0.0
  0
LINE
  5
A6A9
  8
0
 10
668.24580275868323
 20
762.38305411420185
 30
0.0
 11
696.31560275868333
 21
763.36330411420181
 31
0.0
  0
LINE
  5
A6AA
  8
0
 10
666.31555275868322
 20
760.38430411420222
 30
0.0
 11
666.31555275868322
 21
471.50224411420089
 31
0.0
  0
LINE
  5
A6AB
  8
0
 10
617.31560275868344
 20
693.86330411420124
 30
0.0
 11
635.49010275868341
 21
694.49795411420121
 31
0.0
  0
LINE
  5
A6AC
  8
0
 10
641.71395275868315
 20
712.8154541142012
 30
0.0
 11
661.91710275868297
 21
733.79565411420117
 31
0.0
  0
LINE
  5
A6AD
  8
0
 10
654.17055275868324
 20
471.36323411420199
 30
0.0
 11
642.38935275868323
 21
479.86649911420147
 31
0.0
  0
LINE
  5
A6AE
  8
0
 10
640.31555275868322
 20
709.34725411420197
 30
0.0
 11
640.31555275868322
 21
483.92075911420108
 31
0.0
  0
LINE
  5
A6AF
  8
0
 10
1374.319747904048
 20
649.82966911420124
 30
0.0
 11
1374.319747904048
 21
635.98896911420172
 31
0.0
  0
LINE
  5
A6B0
  8
0
  6
AM_ISO08W050
 10
1376.522242904048
 20
641.36326911420213
 30
0.0
 11
1106.1172729040491
 21
641.36326911420213
 31
0.0
  0
LINE
  5
A6B1
  8
0
 10
1341.319727904048
 20
483.3632341142021
 30
0.0
 11
1341.319727904048
 21
626.36326911420213
 31
0.0
  0
LINE
  5
A6B2
  8
0
 10
1383.3197329040479
 20
471.36326411420112
 30
0.0
 11
1383.3197329040479
 21
441.36326411420129
 31
0.0
  0
LINE
  5
A6B3
  8
0
 10
1364.319747904048
 20
471.36326411420112
 30
0.0
 11
1364.319747904048
 21
441.36326411420129
 31
0.0
  0
LINE
  5
A6B4
  8
0
 10
1406.319732904049
 20
471.36326411420112
 30
0.0
 11
1406.319732904049
 21
441.36326411420129
 31
0.0
  0
LINE
  5
A6B5
  8
0
 10
1341.319727904048
 20
471.36326411420112
 30
0.0
 11
1401.319732904049
 21
471.36326411420112
 31
0.0
  0
LINE
  5
A6B6
  8
0
 10
1336.3197279040489
 20
441.36326411420129
 30
0.0
 11
1406.319732904049
 21
441.36326411420129
 31
0.0
  0
LINE
  5
A6B7
  8
0
 10
1241.3197579040479
 20
448.3632341142021
 30
0.0
 11
1331.319727904048
 21
448.3632341142021
 31
0.0
  0
LINE
  5
A6B8
  8
0
  6
AM_ISO08W050
 10
1373.819732904049
 20
476.02451911420098
 30
0.0
 11
1373.819732904049
 21
438.36326411420117
 31
0.0
  0
LINE
  5
A6B9
  8
0
 10
1358.3197279040489
 20
548.32716411420165
 30
0.0
 11
1358.3197279040489
 21
692.29705411420139
 31
0.0
  0
LINE
  5
A6BA
  8
0
 10
1336.3197279040489
 20
466.36326411420129
 30
0.0
 11
1336.3197279040489
 21
441.36326411420129
 31
0.0
  0
LINE
  5
A6BB
  8
0
 10
1406.319747904048
 20
471.36323411420199
 30
0.0
 11
1368.122387904049
 21
667.87156911420163
 31
0.0
  0
LINE
  5
A6BC
  8
0
 10
1241.3197579040479
 20
457.36326411420129
 30
0.0
 11
1300.329067904049
 21
457.36326411420129
 31
0.0
  0
LINE
  5
A6BD
  8
0
 10
1333.390802904049
 20
454.29218911420151
 30
0.0
 11
1325.200312904049
 21
462.48267911420118
 31
0.0
  0
LINE
  5
A6BE
  8
0
 10
1306.0648179040491
 20
459.17173411420129
 30
0.0
 11
1312.393492904049
 21
463.60313411420162
 31
0.0
  0
LINE
  5
A6BF
  8
0
 10
619.31555275868311
 20
679.55840411420206
 30
0.0
 11
640.31555275868322
 21
679.55840411420206
 31
0.0
  0
LINE
  5
A6C0
  8
0
 10
619.31555275868311
 20
669.36946411420206
 30
0.0
 11
640.31555275868322
 21
669.36946411420206
 31
0.0
  0
LINE
  5
A6C1
  8
0
 10
619.31555275868311
 20
653.13905411420194
 30
0.0
 11
640.31555275868322
 21
653.13905411420194
 31
0.0
  0
LINE
  5
A6C2
  8
0
 10
619.31555275868311
 20
539.58744911420138
 30
0.0
 11
640.31555275868322
 21
539.58744911420138
 31
0.0
  0
LINE
  5
A6C3
  8
0
 10
619.31555275868311
 20
523.35706911420141
 30
0.0
 11
640.31555275868322
 21
523.35706911420141
 31
0.0
  0
LINE
  5
A6C4
  8
0
 10
619.31555275868311
 20
513.16807411420189
 30
0.0
 11
640.31555275868322
 21
513.16807411420189
 31
0.0
  0
LINE
  5
A6C5
  8
0
 10
619.31555275868311
 20
539.58744911420138
 30
0.0
 11
619.31555275868311
 21
513.16807411420189
 31
0.0
  0
LINE
  5
A6C6
  8
0
 10
615.31560275868344
 20
496.86323411420187
 30
0.0
 11
617.31555275868322
 21
498.86323411420119
 31
0.0
  0
LINE
  5
A6C7
  8
0
 10
522.31560275868344
 20
468.86326411420129
 30
0.0
 11
531.72577871597525
 21
468.86326411420129
 31
0.0
  0
LINE
  5
A6C8
  8
0
 10
605.31555275868311
 20
695.86325411420182
 30
0.0
 11
615.31555275868322
 21
695.86325411420182
 31
0.0
  0
LINE
  5
A6C9
  8
0
 10
604.31555275868322
 20
496.86326411420117
 30
0.0
 11
615.31555275868322
 21
496.86326411420117
 31
0.0
  0
LINE
  5
A6CA
  8
0
 10
602.31560275868344
 20
498.86326411420129
 30
0.0
 11
602.31560275868344
 21
692.86325411420148
 31
0.0
  0
LINE
  5
A6CB
  8
0
 10
522.31560275868344
 20
638.86329411420149
 30
0.0
 11
552.98716642904355
 21
639.9343760685241
 31
0.0
  0
LINE
  5
A6CC
  8
0
 10
552.01272180733815
 20
505.36326411420117
 30
0.0
 11
599.31555275868322
 21
505.36326411420117
 31
0.0
  0
ARC
  5
A6CD
  8
0
 10
552.01272180733815
 20
500.36326411420117
 30
0.0
 40
5.0
 50
90.0
 51
160.00007751546309
1001
GENIUS_GENODEF_13
1002
{
1000
HIER
1070
     0
1002
}
1002
{
1000
MANEDIT
1070
     0
1002
}
1002
{
1000
NOSEL
1070
     0
1002
}
1002
{
1000
BEHIND
1070
     0
1002
}
1002
{
1000
OTHER
1070
     0
1002
}
1002
{
1000
REACTOR
1002
}
1001
GENIUS_GENOBJ-N-FIL_13
1002
{
1000
OWNER
1000
GEN
1002
}
  0
LINE
  5
A6CE
  8
0
 10
615.31560275868344
 20
695.86325411420182
 30
0.0
 11
617.31555275868322
 21
693.86325411420125
 31
0.0
  0
LINE
  5
A6CF
  8
0
 10
556.34819993777262
 20
641.39579453813337
 30
0.0
 11
600.85115275868327
 21
685.89870411420191
 31
0.0
  0
ARC
  5
A6D0
  8
0
 10
552.81266774963285
 20
644.93133016185823
 30
0.0
 40
5.0
 50
272.00001371234168
 51
314.99997216197312
1001
GENIUS_GENODEF_13
1002
{
1000
HIER
1070
     0
1002
}
1002
{
1000
MANEDIT
1070
     0
1002
}
1002
{
1000
NOSEL
1070
     0
1002
}
1002
{
1000
BEHIND
1070
     0
1002
}
1002
{
1000
OTHER
1070
     0
1002
}
1002
{
1000
REACTOR
1002
}
1001
GENIUS_GENOBJ-N-FIL_13
1002
{
1000
OWNER
1000
GEN
1002
}
  0
LINE
  5
A6D1
  8
0
 10
536.42424413349636
 20
472.15316975412679
 30
0.0
 11
547.31425638981705
 21
502.07335847427657
 31
0.0
  0
ARC
  5
A6D2
  8
0
 10
531.72577871597525
 20
473.86326411420129
 30
0.0
 40
5.0
 50
270.0
 51
340.0000775154632
1001
GENIUS_GENOBJ-N-FIL_13
1002
{
1000
OWNER
1000
GEN
1002
}
1001
GENIUS_GENODEF_13
1002
{
1000
HIER
1070
     0
1002
}
1002
{
1000
MANEDIT
1070
     0
1002
}
1002
{
1000
NOSEL
1070
     0
1002
}
1002
{
1000
BEHIND
1070
     0
1002
}
1002
{
1000
OTHER
1070
     0
1002
}
1002
{
1000
REACTOR
1002
}
  0
LINE
  5
A6D3
  8
0
 10
602.31560275868344
 20
679.55840411420206
 30
0.0
 11
617.31560275868344
 21
679.55840411420206
 31
0.0
  0
LINE
  5
A6D4
  8
0
 10
602.31560275868344
 20
669.36946411420206
 30
0.0
 11
617.31560275868344
 21
669.36946411420206
 31
0.0
  0
LINE
  5
A6D5
  8
0
 10
602.31560275868344
 20
653.13905411420194
 30
0.0
 11
617.31560275868344
 21
653.13905411420194
 31
0.0
  0
LINE
  5
A6D6
  8
0
 10
602.31560275868344
 20
539.58744911420138
 30
0.0
 11
617.31560275868344
 21
539.58744911420138
 31
0.0
  0
LINE
  5
A6D7
  8
0
 10
602.31560275868344
 20
523.35706911420141
 30
0.0
 11
617.31560275868344
 21
523.35706911420141
 31
0.0
  0
LINE
  5
A6D8
  8
0
 10
602.31560275868344
 20
513.16807411420189
 30
0.0
 11
617.31560275868344
 21
513.16807411420189
 31
0.0
  0
ARC
  5
A6DE
  8
0
 10
1234.319727904048
 20
767.36325411420182
 30
0.0
 40
2.0000000500000001
 50
270.0
 51
0.0
  0
ARC
  5
A6DF
  8
0
 10
1248.319727904048
 20
767.36325411420182
 30
0.0
 40
2.0000000500000001
 50
179.999989999999
 51
270.0
  0
ARC
  5
A6E0
  8
0
 10
1250.603297904049
 20
771.50335411420156
 30
0.0
 40
1.0
 50
14.999999999994451
 51
78.786709999973439
  0
ARC
  5
A6E1
  8
0
 10
1232.0361579040491
 20
771.50335411420156
 30
0.0
 40
1.0
 50
101.2132900000266
 51
164.99999000001131
  0
ARC
  5
A6E2
  8
0
 10
1241.3197579040479
 20
809.36325411420205
 30
0.0
 40
5.0
 50
359.999989999999
 51
179.999989999999
  0
ARC
  5
A6E3
  8
0
 10
696.74055275868329
 20
764.43295411420195
 30
0.0
 40
6.0
 50
126.46670000000719
 51
190.27005999999221
  0
ARC
  5
A6E4
  8
0
 10
659.8905027586834
 20
764.43295411420195
 30
0.0
 40
6.0
 50
349.72995000001248
 51
53.53329100000618
  0
ARC
  5
A6E5
  8
0
 10
687.5992027586833
 20
771.50335411420156
 30
0.0
 40
1.0
 50
14.999999999994451
 51
78.786709999973439
  0
ARC
  5
A6E6
  8
0
 10
669.03200275868312
 20
771.50335411420156
 30
0.0
 40
1.0
 50
101.2132900000266
 51
164.99999000001131
  0
ARC
  5
A6E7
  8
0
 10
678.31555275868322
 20
789.36325411420182
 30
0.0
 40
25.000000499999999
 50
306.46672000001979
 51
233.53328999998391
  0
CIRCLE
  5
A6E8
  8
0
 10
678.31555275868322
 20
789.36325411420182
 30
0.0
 40
15.0
  0
ARC
  5
A6E9
  8
0
 10
1241.3197579040479
 20
641.36326911420213
 30
0.0
 40
27.500000499999999
 50
106.9123900000063
 51
73.087596999987014
  0
ARC
  5
A6EA
  8
0
 10
840.31555275868266
 20
579.25730911420158
 30
0.0
 40
2.0000000500000001
 50
91.999997999994051
 51
180.000010000001
  0
ARC
  5
A6EB
  8
0
 10
838.31555275868266
 20
466.36326411420129
 30
0.0
 40
5.0
 50
0.0
 51
90.000002999984659
  0
ARC
  5
A6EC
  8
0
 10
665.14495275868342
 20
476.36326411420117
 30
0.0
 40
5.0
 50
270.0
 51
334.75946999999019
  0
ARC
  5
A6ED
  8
0
 10
840.31555275868266
 20
703.46925411420125
 30
0.0
 40
2.0000000500000001
 50
179.999989999999
 51
268.00000999999378
  0
ARC
  5
A6EE
  8
0
 10
801.31555275868254
 20
745.69045411420097
 30
0.0
 40
10.0
 50
0.0
 51
87.999999999996405
  0
ARC
  5
A6EF
  8
0
 10
1241.3197579040479
 20
626.36326911420213
 30
0.0
 40
100.0
 50
90.000002999984659
 51
180.000010000001
  0
ARC
  5
A6F0
  8
0
 10
833.31555275868266
 20
721.78155411420187
 30
0.0
 40
5.0
 50
0.0
 51
84.999997000010254
  0
ARC
  5
A6F1
  8
0
 10
841.31555275868266
 20
699.43190411420176
 30
0.0
 40
2.0000000500000001
 50
0.0
 51
87.999999999996405
  0
ARC
  5
A6F2
  8
0
 10
1081.3197379040489
 20
466.36326411420129
 30
0.0
 40
5.0
 50
90.000002999984659
 51
180.000010000001
  0
ARC
  5
A6F3
  8
0
 10
1241.3197579040479
 20
616.36326911420213
 30
0.0
 40
147.0
 50
90.000002999984659
 51
134.5979600000046
  0
ARC
  5
A6F4
  8
0
 10
1241.3197579040479
 20
616.36326911420213
 30
0.0
 40
142.0
 50
90.000002999984659
 51
136.44564000000531
  0
ARC
  5
A6F5
  8
0
 10
1241.3197579040479
 20
641.36326911420213
 30
0.0
 40
60.0
 50
90.000002999984659
 51
270.0
  0
ARC
  5
A6F6
  8
0
 10
788.31555275868311
 20
481.36326411420129
 30
0.0
 40
10.0
 50
179.999989999999
 51
270.0
  0
ARC
  5
A6F7
  8
0
 10
841.31555275868266
 20
583.29466411420174
 30
0.0
 40
2.0000000500000001
 50
272.00000000000358
 51
0.0
  0
ARC
  5
A6F8
  8
0
 10
724.51835275868325
 20
763.38150411420213
 30
0.0
 40
5.0
 50
214.88734000000099
 51
267.99999999999642
  0
ARC
  5
A6F9
  8
0
 10
716.31555275868334
 20
757.66180411420123
 30
0.0
 40
5.0
 50
34.887349999988082
 51
87.999999999996405
  0
ARC
  5
A6FA
  8
0
 10
793.31555275868334
 20
678.32090411420177
 30
0.0
 40
15.0
 50
90.000002999984659
 51
180.000010000001
  0
ARC
  5
A6FB
  8
0
 10
1241.3197579040479
 20
548.3632341142021
 30
0.0
 40
117.0
 50
179.999989999999
 51
211.27330000001211
  0
ARC
  5
A6FC
  8
0
 10
1129.3197279040489
 20
483.3632341142021
 30
0.0
 40
12.0
 50
270.0
 51
0.0
  0
ARC
  5
A6FD
  8
0
 10
801.31555275868254
 20
497.67027411420179
 30
0.0
 40
10.0
 50
270.0
 51
0.0
  0
ARC
  5
A6FE
  8
0
 10
1205.808437904049
 20
650.12635911420159
 30
0.0
 40
93.0
 50
136.44564000000531
 51
168.99999999998761
  0
ARC
  5
A6FF
  8
0
 10
821.31555275868266
 20
737.88875411420122
 30
0.0
 40
10.0
 50
179.999989999999
 51
264.99999999999869
  0
ARC
  5
A700
  8
0
 10
1151.3197579040491
 20
443.3632341142021
 30
0.0
 40
5.0
 50
90.000002999984659
 51
180.000010000001
  0
ARC
  5
A701
  8
0
 10
1141.3197579040491
 20
466.36326411420129
 30
0.0
 40
5.0
 50
0.0
 51
90.000002999984659
  0
ARC
  5
A702
  8
0
 10
691.31555275868334
 20
543.60224911420096
 30
0.0
 40
10.0
 50
334.75946999999019
 51
0.0
  0
ARC
  5
A703
  8
0
 10
1134.3197279040489
 20
692.29705411420139
 30
0.0
 40
10.0
 50
149.46392000000719
 51
180.000010000001
  0
ARC
  5
A704
  8
0
 10
618.31555275868322
 20
466.36326411420129
 30
0.0
 40
5.0
 50
90.000002999984659
 51
180.000010000001
  0
ARC
  5
A705
  8
0
 10
843.31555275868254
 20
475.02351411420108
 30
0.0
 40
5.0
 50
179.999989999999
 51
240.0000100000025
  0
ARC
  5
A706
  8
0
 10
1208.319727904048
 20
649.82966911420124
 30
0.0
 40
100.0
 50
134.5979600000046
 51
180.000010000001
  0
ARC
  5
A707
  8
0
 10
1182.310417904049
 20
467.36326411420117
 30
0.0
 40
10.0
 50
234.9999999999792
 51
270.0
  0
ARC
  5
A708
  8
0
 10
1156.3197579040491
 20
447.22111411420161
 30
0.0
 40
10.0
 50
134.99999999999079
 51
180.000010000001
  0
ARC
  5
A709
  8
0
 10
1164.5102179040489
 20
455.4115741142013
 30
0.0
 40
10.0
 50
54.999998999979397
 51
134.99999999999079
  0
ARC
  5
A70A
  8
0
 10
661.31555275868322
 20
740.37930411420177
 30
0.0
 40
5.0
 50
316.08091999998948
 51
0.0
  0
ARC
  5
A70B
  8
0
 10
658.31555275868322
 20
737.26385411420154
 30
0.0
 40
5.0
 50
316.08091999998948
 51
0.0
  0
ARC
  5
A70C
  8
0
 10
668.31555275868322
 20
760.38430411420222
 30
0.0
 40
2.0000000500000001
 50
91.999997999994051
 51
180.000010000001
  0
ARC
  5
A70D
  8
0
 10
645.31555275868322
 20
709.34725411420197
 30
0.0
 40
5.0
 50
136.0809199999895
 51
180.000010000001
  0
ARC
  5
A70E
  8
0
 10
665.31555275868322
 20
761.36330411420158
 30
0.0
 40
2.0000000500000001
 50
90.000002999984659
 51
180.000010000001
  0
ARC
  5
A70F
  8
0
 10
645.31555275868322
 20
483.92075911420108
 30
0.0
 40
5.0
 50
179.999989999999
 51
234.1795700000132
  0
ARC
  5
A710
  8
0
 10
1241.3197579040479
 20
626.36326911420213
 30
0.0
 40
100.0
 50
0.0
 51
90.000002999984659
  0
ARC
  5
A711
  8
0
 10
1401.319732904049
 20
466.36326411420129
 30
0.0
 40
5.0
 50
0.0
 51
90.000002999984659
  0
ARC
  5
A712
  8
0
 10
1241.3197579040479
 20
616.36326911420213
 30
0.0
 40
147.0
 50
45.402043000017279
 51
90.000002999984659
  0
ARC
  5
A713
  8
0
 10
1241.3197579040479
 20
616.36326911420213
 30
0.0
 40
142.0
 50
43.554364000004838
 51
90.000002999984659
  0
ARC
  5
A714
  8
0
 10
1241.3197579040479
 20
641.36326911420213
 30
0.0
 40
60.0
 50
270.0
 51
90.000002999984659
  0
ARC
  5
A715
  8
0
 10
1241.3197579040479
 20
548.3632341142021
 30
0.0
 40
117.0
 50
328.72669999998789
 51
0.0
  0
ARC
  5
A716
  8
0
 10
1353.3197279040489
 20
483.3632341142021
 30
0.0
 40
12.0
 50
180.000010000001
 51
270.0
  0
ARC
  5
A717
  8
0
 10
1276.831052904048
 20
650.12635911420159
 30
0.0
 40
93.0
 50
11.00000000001241
 51
43.554364000004838
  0
ARC
  5
A718
  8
0
 10
1331.319727904048
 20
443.3632341142021
 30
0.0
 40
5.0
 50
0.0
 51
90.000002999984659
  0
ARC
  5
A719
  8
0
 10
1341.319727904048
 20
466.36326411420129
 30
0.0
 40
5.0
 50
90.000002999984659
 51
180.000010000001
  0
ARC
  5
A71A
  8
0
 10
1348.3197279040489
 20
692.29705411420139
 30
0.0
 40
10.0
 50
0.0
 51
30.536084999989829
  0
ARC
  5
A71B
  8
0
 10
1274.3197279040489
 20
649.82966911420124
 30
0.0
 40
100.0
 50
0.0
 51
45.402043000017279
  0
ARC
  5
A71C
  8
0
 10
1300.329067904049
 20
467.36326411420117
 30
0.0
 40
10.0
 50
270.0
 51
305.0000000000208
  0
ARC
  5
A71D
  8
0
 10
1326.3197279040489
 20
447.22111411420161
 30
0.0
 40
10.0
 50
0.0
 51
45.000001000013
  0
ARC
  5
A71E
  8
0
 10
1318.129237904049
 20
455.4115741142013
 30
0.0
 40
10.0
 50
45.000001000013
 51
125.0000000000208
  0
CIRCLE
  5
A71F
  8
0
 10
1241.3197579040479
 20
641.36326911420213
 30
0.0
 40
6.0
  0
CIRCLE
  5
A720
  8
0
 10
1241.3197579040479
 20
641.36326911420213
 30
0.0
 40
4.500000049999997
  0
ARC
  5
A721
  8
0
 10
597.31560275868344
 20
689.43435411420182
 30
0.0
 40
5.0
 50
314.99999999999079
 51
0.0
  0
ARC
  5
A722
  8
0
 10
605.31555275868311
 20
692.86325411420148
 30
0.0
 40
3.0000000500000001
 50
90.000002999984659
 51
180.000010000001
  0
ARC
  5
A723
  8
0
 10
599.31555275868322
 20
502.36326411420129
 30
0.0
 40
3.0000000500000001
 50
0.0
 51
90.000002999984659
  0
ARC
  5
A724
  8
0
 10
604.31555275868322
 20
498.86326411420129
 30
0.0
 40
2.0000000500000001
 50
179.999989999999
 51
270.0
  0
ARC
  5
A725
  8
0
 10
635.31555275868322
 20
699.49490411420174
 30
0.0
 40
5.0
 50
272.00000000000358
 51
0.0
  0
ARC
  5
A726
  8
0
 10
635.31555275868322
 20
493.23164411420112
 30
0.0
 40
5.0
 50
0.0
 51
87.999999999996405
  0
LINE
  5
A727
  8
0
 10
548.89157374330364
 20
504.82071908308001
 30
0.0
 11
548.89157374330364
 21
639.79135383903861
 31
0.0
  0
LINE
  5
A728
  8
0
 10
522.31560275868344
 20
473.36758705160281
 30
0.0
 11
522.31560275868344
 21
553.86329411420115
 31
0.0
  0
LINE
  5
A729
  8
0
 10
522.31560275868344
 20
634.35900117680205
 30
0.0
 11
522.31560275868344
 21
553.86329411420115
 31
0.0
  0
LINE
  5
A72A
  8
0
 10
522.31560275868344
 20
468.86329411420149
 30
0.0
 11
522.31560275868344
 21
638.86329411420149
 31
0.0
  0
LINE
  5
A72B
  8
0
 10
522.31560275868344
 20
468.86329411420149
 30
0.0
 11
522.31560275868344
 21
638.86329411420149
 31
0.0
  0
LINE
  5
A72C
  8
0
 10
315.8156027586835
 20
551.36326411420123
 30
0.0
 11
315.8156027586835
 21
456.86326411420129
 31
0.0
  0
LINE
  5
A72D
  8
0
 10
452.81560275868338
 20
578.63121311420139
 30
0.0
 11
452.81560275868338
 21
529.09531511420096
 31
0.0
  0
LINE
  5
A72E
  8
0
 10
467.27247875868341
 20
603.04826411420174
 30
0.0
 11
467.27247875868341
 21
582.68326411420151
 31
0.0
  0
LINE
  5
A72F
  8
0
 10
483.31560175868327
 20
603.04826411420174
 30
0.0
 11
483.31560175868327
 21
582.68326411420151
 31
0.0
  0
LINE
  5
A730
  8
0
 10
497.86499775868327
 20
497.84246811420149
 30
0.0
 11
483.31560175868327
 21
497.84246811420149
 31
0.0
  0
LINE
  5
A731
  8
0
 10
502.81560275868338
 20
509.2548181142015
 30
0.0
 11
483.31560175868327
 21
509.2548181142015
 31
0.0
  0
LINE
  5
A732
  8
0
 10
468.02099975868339
 20
502.55755811420158
 30
0.0
 11
483.31560275868333
 21
497.84246811420149
 31
0.0
  0
LINE
  5
A733
  8
0
 10
483.31560275868333
 20
509.2548181142015
 30
0.0
 11
468.27966175868329
 21
508.71406711420161
 31
0.0
  0
ARC
  5
A734
  8
0
 10
468.31560275868333
 20
507.71471311420152
 30
0.0
 40
1.0
 50
92.059691000003724
 51
180.0
  0
ARC
  5
A735
  8
0
 10
468.31560275868333
 20
503.5131781142012
 30
0.0
 40
1.0
 50
180.0
 51
252.86627500000529
  0
LINE
  5
A736
  8
0
 10
483.31560275868333
 20
629.7160511142016
 30
0.0
 11
468.01514375868328
 21
624.89618511420133
 31
0.0
  0
ARC
  5
A737
  8
0
 10
468.31560275868333
 20
623.9423901142012
 30
0.0
 40
1.0
 50
107.4851790000032
 51
180.0
  0
ARC
  5
A738
  8
0
 10
468.31560275868333
 20
621.5913251142016
 30
0.0
 40
1.0
 50
180.0
 51
270.0
  0
LINE
  5
A739
  8
0
 10
468.3641577586834
 20
620.59250411420123
 30
0.0
 11
483.31560275868333
 21
621.31932411420166
 31
0.0
  0
LINE
  5
A73A
  8
0
 10
502.81560275868338
 20
621.31932411420166
 30
0.0
 11
483.31560275868333
 21
621.31932411420166
 31
0.0
  0
LINE
  5
A73B
  8
0
 10
426.31560275868333
 20
652.14975711420186
 30
0.0
 11
513.76278775868343
 21
652.14975711420186
 31
0.0
  0
ARC
  5
A73C
  8
0
 10
337.57984775868351
 20
650.14975711420175
 30
0.0
 40
2.0
 50
90.0
 51
156.10180000001441
  0
ARC
  5
A73D
  8
0
 10
513.76278775868343
 20
650.14975711420175
 30
0.0
 40
2.0
 50
10.00000199999918
 51
90.0
  0
LINE
  5
A73E
  8
0
 10
517.31560275868344
 20
641.51828111420116
 30
0.0
 11
515.73240275868341
 21
650.49705411420155
 31
0.0
  0
LINE
  5
A73F
  8
0
 10
517.05479475868344
 20
641.51828111420116
 30
0.0
 11
517.31560275868344
 21
641.51828111420116
 31
0.0
  0
ARC
  5
A740
  8
0
 10
322.64681775868348
 20
648.95998311420124
 30
0.0
 40
2.0
 50
90.0
 51
169.9999980000008
  0
LINE
  5
A741
  8
0
 10
318.31560275868338
 20
635.91398011420154
 30
0.0
 11
320.67720275868328
 21
649.30728011420172
 31
0.0
  0
ARC
  5
A742
  8
0
 10
513.71176875868343
 20
648.95998311420124
 30
0.0
 40
2.0
 50
10.00000199999918
 51
90.0
  0
LINE
  5
A743
  8
0
 10
517.31560275868344
 20
640.03916311420164
 30
0.0
 11
515.68138375868341
 21
649.30728011420172
 31
0.0
  0
LINE
  5
A744
  8
0
 10
318.31560275868338
 20
635.91398011420154
 30
0.0
 11
318.88350875868338
 21
635.91398011420154
 31
0.0
  0
LINE
  5
A745
  8
0
 10
516.77963175868342
 20
640.03916311420164
 30
0.0
 11
517.31560275868344
 21
640.03916311420164
 31
0.0
  0
ARC
  5
A746
  8
0
 10
513.6259137586834
 20
646.40724911420125
 30
0.0
 40
2.0
 50
10.000001000002239
 51
90.0
  0
ARC
  5
A747
  8
0
 10
322.76460875868338
 20
646.40724911420125
 30
0.0
 40
2.0
 50
90.0
 51
169.9999989999977
  0
LINE
  5
A748
  8
0
 10
318.31560275868338
 20
632.69322411420137
 30
0.0
 11
320.79499275868352
 21
646.75454511420151
 31
0.0
  0
ARC
  5
A749
  8
0
 10
322.94574975868329
 20
642.44206411420123
 30
0.0
 40
2.0
 50
90.0
 51
169.99999999999491
  0
LINE
  5
A74A
  8
0
 10
318.31560275868338
 20
627.7007391142015
 30
0.0
 11
320.97613375868337
 21
642.78936011420149
 31
0.0
  0
ARC
  5
A74B
  8
0
 10
323.2269777586834
 20
636.8646361142014
 30
0.0
 40
2.0
 50
90.0
 51
169.99999999999491
  0
LINE
  5
A74C
  8
0
 10
318.31560275868338
 20
620.52838711420145
 30
0.0
 11
321.25736175868337
 21
637.21193311420132
 31
0.0
  0
ARC
  5
A74D
  8
0
 10
323.32224175868339
 20
630.86396911420172
 30
0.0
 40
2.0
 50
90.0
 51
169.9999989999977
  0
LINE
  5
A74E
  8
0
 10
318.31560275868338
 20
613.98745111420169
 30
0.0
 11
321.35262575868347
 21
631.21126511420164
 31
0.0
  0
LINE
  5
A74F
  8
0
 10
517.18734375868337
 20
637.72691311420169
 30
0.0
 11
515.59552875868326
 21
646.75454511420151
 31
0.0
  0
LINE
  5
A750
  8
0
 10
318.31560275868338
 20
632.69322411420137
 30
0.0
 11
319.19591275868351
 21
632.69322411420137
 31
0.0
  0
ARC
  5
A751
  8
0
 10
513.49653575868342
 20
642.44206411420123
 30
0.0
 40
2.0
 50
10.00000000000502
 51
90.0
  0
LINE
  5
A752
  8
0
 10
516.35879775868341
 20
637.72691311420169
 30
0.0
 11
515.46615175868305
 21
642.78936011420149
 31
0.0
  0
ARC
  5
A753
  8
0
 10
448.7046207586834
 20
636.8646361142014
 30
0.0
 40
2.0
 50
5.5986530000119261
 51
90.0
  0
ARC
  5
A754
  8
0
 10
448.70266575868339
 20
630.86396911420172
 30
0.0
 40
2.0
 50
5.4290190000019001
 51
90.0
  0
LINE
  5
A755
  8
0
 10
519.31560275868344
 20
514.14055811420155
 30
0.0
 11
519.31560275868344
 21
615.92919711420166
 31
0.0
  0
LINE
  5
A756
  8
0
 10
519.31560275868344
 20
637.72691311420169
 30
0.0
 11
519.31560275868344
 21
641.86326411420123
 31
0.0
  0
LINE
  5
A757
  8
0
 10
467.27247875868341
 20
627.7007391142015
 30
0.0
 11
483.31560175868327
 21
632.30060111420164
 31
0.0
  0
LINE
  5
A758
  8
0
 10
451.61251775868328
 20
627.7007391142015
 30
0.0
 11
467.27247875868341
 21
627.7007391142015
 31
0.0
  0
LINE
  5
A759
  8
0
 10
483.31560175868327
 20
632.30060111420164
 30
0.0
 11
498.00888575868328
 21
632.30060111420164
 31
0.0
  0
INSERT
  5
A75A
  8
0
  2
$6-45
 10
502.81560275868338
 20
627.99652411420186
 30
0.0
 50
90.0
  0
INSERT
  5
A75B
  8
0
  2
$6-45
 10
502.81560275868338
 20
501.95459711420159
 30
0.0
 50
90.0
  0
POINT
  5
A75C
  8
0
 10
415.31560275868338
 20
553.86326411420123
 30
0.0
  0
LINE
  5
A75D
  8
0
 10
284.31560275868338
 20
556.86326411420123
 30
0.0
 11
216.3240707586834
 21
556.86326411420123
 31
0.0
  0
LINE
  5
A75E
  8
0
 10
517.25477275868343
 20
641.86326411420123
 30
0.0
 11
519.31560275868344
 21
641.86326411420123
 31
0.0
  0
LINE
  5
A75F
  8
0
 10
322.94574975868329
 20
644.44206411420146
 30
0.0
 11
513.49653575868342
 21
644.44206411420146
 31
0.0
  0
LINE
  5
A760
  8
0
 10
322.76460875868338
 20
648.4072491142017
 30
0.0
 11
513.6259137586834
 21
648.4072491142017
 31
0.0
  0
LINE
  5
A761
  8
0
 10
322.64681775868348
 20
650.95998311420124
 30
0.0
 11
513.71176875868343
 21
650.95998311420124
 31
0.0
  0
LINE
  5
A762
  8
0
 10
315.8156027586835
 20
647.36326411420123
 30
0.0
 11
320.33442075868328
 21
647.36326411420123
 31
0.0
  0
LINE
  5
A763
  8
0
 10
337.57984775868351
 20
652.14975711420186
 30
0.0
 11
404.31560275868333
 21
652.14975711420186
 31
0.0
  0
LINE
  5
A764
  8
0
 10
483.31560175868327
 20
611.02326411420165
 30
0.0
 11
483.31560175868327
 21
605.67826411420174
 31
0.0
  0
LINE
  5
A765
  8
0
 10
467.27247875868341
 20
611.02326411420165
 30
0.0
 11
467.27247875868341
 21
605.67826411420174
 31
0.0
  0
LINE
  5
A766
  8
0
 10
483.31560175868327
 20
621.31932411420166
 30
0.0
 11
483.31560175868327
 21
613.72326411420147
 31
0.0
  0
LINE
  5
A767
  8
0
 10
483.31560175868327
 20
629.7160511142016
 30
0.0
 11
497.41560875868328
 21
629.7160511142016
 31
0.0
  0
LINE
  5
A768
  8
0
 10
318.31560275868338
 20
613.98745111420169
 30
0.0
 11
452.31560275868338
 21
613.98745111420169
 31
0.0
  0
LINE
  5
A769
  8
0
 10
451.63797575868318
 20
620.52838711420145
 30
0.0
 11
452.31560275868338
 21
620.52838711420145
 31
0.0
  0
LINE
  5
A76A
  8
0
 10
323.32224175868339
 20
632.86396911420172
 30
0.0
 11
448.70266575868339
 21
632.86396911420172
 31
0.0
  0
LINE
  5
A76B
  8
0
 10
318.31560275868338
 20
620.52838711420145
 30
0.0
 11
319.46894575868328
 21
620.52838711420145
 31
0.0
  0
LINE
  5
A76C
  8
0
 10
323.2269777586834
 20
638.86463611420152
 30
0.0
 11
448.7046207586834
 21
638.86463611420152
 31
0.0
  0
LINE
  5
A76D
  8
0
 10
519.31560275868344
 20
615.92919711420166
 30
0.0
 11
522.31560275868344
 21
614.19714611420159
 31
0.0
  0
ARC
  5
A76E
  8
0
 10
501.81560275868333
 20
616.92919711420166
 30
0.0
 40
1.0
 50
270.0
 51
0.0
  0
ARC
  5
A76F
  8
0
 10
504.81560275868333
 20
635.72691311420158
 30
0.0
 40
2.0
 50
90.0
 51
180.0
  0
ARC
  5
A770
  8
0
 10
504.81560275868333
 20
631.60290811420157
 30
0.0
 40
2.0
 50
180.0
 51
270.0
  0
ARC
  5
A771
  8
0
 10
504.81560275868333
 20
627.60290811420157
 30
0.0
 40
2.0
 50
90.0
 51
180.0
  0
LINE
  5
A772
  8
0
 10
504.81560275868333
 20
637.72691311420169
 30
0.0
 11
522.31560275868344
 21
637.72691311420169
 31
0.0
  0
LINE
  5
A773
  8
0
 10
502.81560275868338
 20
615.92919711420166
 30
0.0
 11
519.31560275868344
 21
615.92919711420166
 31
0.0
  0
LINE
  5
A774
  8
0
 10
504.81560275868333
 20
629.60290811420123
 30
0.0
 11
522.31560275868344
 21
629.60290811420123
 31
0.0
  0
LINE
  5
A775
  8
0
 10
502.81560275868338
 20
616.92919711420166
 30
0.0
 11
502.81560275868338
 21
635.72691311420158
 31
0.0
  0
LINE
  5
A776
  8
0
 10
318.31560275868338
 20
469.86326411420129
 30
0.0
 11
315.81560275868333
 21
469.86326411420129
 31
0.0
  0
LINE
  5
A777
  8
0
 10
318.31560275868338
 20
519.50447511420123
 30
0.0
 11
322.92297875868343
 21
513.07286911420124
 31
0.0
  0
LINE
  5
A778
  8
0
 10
322.92297875868343
 20
513.07286911420124
 30
0.0
 11
323.7787787586833
 21
515.69978911420139
 31
0.0
  0
LINE
  5
A779
  8
0
 10
318.31560275868338
 20
519.50447511420123
 30
0.0
 11
323.7787787586833
 21
515.69978911420139
 31
0.0
  0
LINE
  5
A77A
  8
0
 10
323.7787787586833
 20
515.69978911420139
 30
0.0
 11
324.99070875868341
 21
515.14382911420125
 31
0.0
  0
LINE
  5
A77B
  8
0
 10
315.81560275868333
 20
513.07286911420124
 30
0.0
 11
322.92297875868343
 21
513.07286911420124
 31
0.0
  0
LINE
  5
A77C
  8
0
 10
315.81560275868333
 20
519.50447511420123
 30
0.0
 11
318.31560275868338
 21
519.50447511420123
 31
0.0
  0
LINE
  5
A77D
  8
0
 10
318.31560275868338
 20
496.93108911420109
 30
0.0
 11
318.31560275868338
 21
493.73819511420157
 31
0.0
  0
LINE
  5
A77E
  8
0
 10
320.07560275868337
 20
496.36265511420169
 30
0.0
 11
320.07560275868337
 21
494.36387311420151
 31
0.0
  0
LINE
  5
A77F
  8
0
 10
335.07560275868337
 20
505.36326411420117
 30
0.0
 11
335.07560275868337
 21
503.36387311420151
 31
0.0
  0
LINE
  5
A780
  8
0
 10
333.31560275868338
 20
505.82480611420129
 30
0.0
 11
333.31560275868338
 21
502.75707111420172
 31
0.0
  0
LINE
  5
A781
  8
0
 10
333.31560275868338
 20
505.82480611420129
 30
0.0
 11
415.31560275868338
 21
505.82480611420129
 31
0.0
  0
LINE
  5
A782
  8
0
 10
333.31560275868338
 20
502.75707111420172
 30
0.0
 11
415.31560275868338
 21
502.75707111420172
 31
0.0
  0
LINE
  5
A783
  8
0
 10
318.31560275868338
 20
493.73819511420157
 30
0.0
 11
415.31560275868338
 21
493.73819511420157
 31
0.0
  0
LINE
  5
A784
  8
0
 10
318.31560275868338
 20
496.93108911420109
 30
0.0
 11
415.31560275868338
 21
496.93108911420109
 31
0.0
  0
LINE
  5
A785
  8
0
 10
320.07560275868337
 20
496.36265511420169
 30
0.0
 11
415.31560275868338
 21
496.36265511420169
 31
0.0
  0
LINE
  5
A786
  8
0
 10
320.07560275868337
 20
494.36387311420151
 30
0.0
 11
415.31560275868338
 21
494.36387311420151
 31
0.0
  0
LINE
  5
A787
  8
0
 10
320.07560275868337
 20
496.36265511420169
 30
0.0
 11
318.31560275868338
 21
496.93108911420109
 31
0.0
  0
LINE
  5
A788
  8
0
 10
320.07560275868337
 20
494.36387311420151
 30
0.0
 11
318.31560275868338
 21
493.73819511420157
 31
0.0
  0
LINE
  5
A789
  8
0
 10
323.25886875868338
 20
503.10518511420167
 30
0.0
 11
324.43995975868347
 21
502.86777611420172
 31
0.0
  0
LINE
  5
A78A
  8
0
 10
335.07560275868337
 20
505.36326411420117
 30
0.0
 11
415.31560275868338
 21
505.36326411420117
 31
0.0
  0
LINE
  5
A78B
  8
0
 10
335.07560275868337
 20
503.36387311420151
 30
0.0
 11
415.31560275868338
 21
503.36387311420151
 31
0.0
  0
LINE
  5
A78C
  8
0
 10
335.07560275868337
 20
505.36326411420117
 30
0.0
 11
333.31560275868338
 21
505.82480611420129
 31
0.0
  0
LINE
  5
A78D
  8
0
 10
335.07560275868337
 20
503.36387311420151
 30
0.0
 11
333.31560275868338
 21
502.75707111420172
 31
0.0
  0
LINE
  5
A78E
  8
0
 10
452.31560275868338
 20
505.82480611420129
 30
0.0
 11
415.31560275868338
 21
505.82480611420129
 31
0.0
  0
LINE
  5
A78F
  8
0
 10
452.31560275868338
 20
502.75707111420172
 30
0.0
 11
415.31560275868338
 21
502.75707111420172
 31
0.0
  0
LINE
  5
A790
  8
0
 10
450.55560275868328
 20
505.36326411420117
 30
0.0
 11
415.31560275868338
 21
505.36326411420117
 31
0.0
  0
LINE
  5
A791
  8
0
 10
450.55560275868328
 20
503.36387311420151
 30
0.0
 11
415.31560275868338
 21
503.36387311420151
 31
0.0
  0
LINE
  5
A792
  8
0
 10
450.55560275868328
 20
503.36387311420151
 30
0.0
 11
452.31560275868338
 21
502.75707111420172
 31
0.0
  0
LINE
  5
A793
  8
0
 10
450.55560275868328
 20
505.36326411420117
 30
0.0
 11
452.31560275868338
 21
505.82480611420129
 31
0.0
  0
LINE
  5
A794
  8
0
 10
452.31560275868338
 20
505.82480611420129
 30
0.0
 11
452.31560275868338
 21
502.75707111420172
 31
0.0
  0
LINE
  5
A795
  8
0
 10
450.55560275868328
 20
505.36326411420117
 30
0.0
 11
450.55560275868328
 21
503.36387311420151
 31
0.0
  0
LINE
  5
A796
  8
0
 10
452.31560275868338
 20
496.93108911420109
 30
0.0
 11
415.31560275868338
 21
496.93108911420109
 31
0.0
  0
LINE
  5
A797
  8
0
 10
450.55560275868328
 20
496.36265511420169
 30
0.0
 11
415.31560275868338
 21
496.36265511420169
 31
0.0
  0
LINE
  5
A798
  8
0
 10
450.55560275868328
 20
494.36387311420151
 30
0.0
 11
415.31560275868338
 21
494.36387311420151
 31
0.0
  0
LINE
  5
A799
  8
0
 10
450.55560275868328
 20
494.36387311420151
 30
0.0
 11
452.31560275868338
 21
493.73819511420157
 31
0.0
  0
LINE
  5
A79A
  8
0
 10
450.55560275868328
 20
496.36265511420169
 30
0.0
 11
452.31560275868338
 21
496.93108911420109
 31
0.0
  0
LINE
  5
A79B
  8
0
 10
450.55560275868328
 20
496.36265511420169
 30
0.0
 11
450.55560275868328
 21
494.36387311420151
 31
0.0
  0
LINE
  5
A79C
  8
0
 10
452.31560275868338
 20
496.93108911420109
 30
0.0
 11
452.31560275868338
 21
493.73819511420157
 31
0.0
  0
LINE
  5
A79D
  8
0
 10
318.31560275868338
 20
493.73819511420157
 30
0.0
 11
319.90834475868348
 21
476.4390081142015
 31
0.0
  0
LINE
  5
A79E
  8
0
 10
318.31560275868338
 20
487.19814111420152
 30
0.0
 11
318.9177477586835
 21
487.19814111420152
 31
0.0
  0
LINE
  5
A79F
  8
0
 10
318.31560275868338
 20
480.02578911420147
 30
0.0
 11
318.99837975868343
 21
480.02578911420147
 31
0.0
  0
LINE
  5
A7A0
  8
0
 10
318.31560275868338
 20
475.03330411420109
 30
0.0
 11
318.8401157586834
 21
475.03330411420109
 31
0.0
  0
LINE
  5
A7A1
  8
0
 10
318.31560275868338
 20
471.8125481142016
 30
0.0
 11
318.67554475868349
 21
471.8125481142016
 31
0.0
  0
LINE
  5
A7A2
  8
0
 10
318.26882575868359
 20
470.24296711420112
 30
0.0
 11
318.49921675868342
 21
470.24296711420112
 31
0.0
  0
LINE
  5
A7A3
  8
0
 10
318.31560275868338
 20
487.19814111420152
 30
0.0
 11
319.90325475868337
 21
470.5203671142018
 31
0.0
  0
LINE
  5
A7A4
  8
0
 10
318.31560275868338
 20
480.02578911420147
 30
0.0
 11
319.8874357586833
 21
465.06457811420159
 31
0.0
  0
LINE
  5
A7A5
  8
0
 10
318.31560275868338
 20
475.03330411420109
 30
0.0
 11
319.87691375868349
 21
461.06271311420147
 31
0.0
  0
LINE
  5
A7A6
  8
0
 10
318.31560275868338
 20
471.8125481142016
 30
0.0
 11
319.8688217586834
 21
458.53522011420108
 31
0.0
  0
LINE
  5
A7A7
  8
0
 10
318.26882575868359
 20
470.24296711420112
 30
0.0
 11
319.85934175868329
 21
457.33223311420159
 31
0.0
  0
ARC
  5
A7A8
  8
0
 10
321.89992075868338
 20
476.62237311420108
 30
0.0
 40
2.0
 50
185.26041099999171
 51
270.0
  0
ARC
  5
A7A9
  8
0
 10
321.89425275868348
 20
470.70990211420121
 30
0.0
 40
2.0
 50
185.4379219999999
 51
270.0
  0
ARC
  5
A7AA
  8
0
 10
321.87648875868331
 20
465.27354911420161
 30
0.0
 40
2.0
 50
185.99752600001329
 51
270.0
  0
ARC
  5
A7AB
  8
0
 10
321.86453975868341
 20
461.28484411420129
 30
0.0
 40
2.0
 50
186.37674199999441
 51
270.0
  0
ARC
  5
A7AC
  8
0
 10
321.85527575868338
 20
458.76760111420168
 30
0.0
 40
2.0
 50
186.67229400001139
 51
270.0
  0
ARC
  5
A7AD
  8
0
 10
321.84433575868343
 20
457.57677111420168
 30
0.0
 40
2.0
 50
187.02306899999661
 51
270.0
  0
LINE
  5
A7AE
  8
0
 10
324.99070875868341
 20
515.14382911420125
 30
0.0
 11
324.99070875868341
 21
502.75707111420172
 31
0.0
  0
LINE
  5
A7AF
  8
0
 10
322.92297875868343
 20
513.07286911420124
 30
0.0
 11
322.92297875868343
 21
503.17270211420168
 31
0.0
  0
LINE
  5
A7B0
  8
0
 10
315.8156027586835
 20
502.75707111420172
 30
0.0
 11
324.99070875868341
 21
502.75707111420172
 31
0.0
  0
LINE
  5
A7B1
  8
0
 10
315.81560275868333
 20
503.17270211420168
 30
0.0
 11
322.92297875868343
 21
503.17270211420168
 31
0.0
  0
LINE
  5
A7B2
  8
0
 10
517.31560275868344
 20
569.04326411420163
 30
0.0
 11
515.55560275868345
 21
569.59326411420159
 31
0.0
  0
LINE
  5
A7B3
  8
0
 10
517.31560275868344
 20
571.68326411420151
 30
0.0
 11
517.31560275868344
 21
569.04326411420163
 31
0.0
  0
LINE
  5
A7B4
  8
0
 10
515.55560275868345
 20
571.19326411420172
 30
0.0
 11
517.31560275868344
 21
571.68326411420151
 31
0.0
  0
LINE
  5
A7B5
  8
0
 10
515.55560275868345
 20
571.19326411420172
 30
0.0
 11
515.55560275868345
 21
569.59326411420159
 31
0.0
  0
LINE
  5
A7B6
  8
0
 10
517.31560275868344
 20
558.04326411420163
 30
0.0
 11
515.55560275868345
 21
558.59326411420182
 31
0.0
  0
LINE
  5
A7B7
  8
0
 10
517.31560275868344
 20
560.68326411420128
 30
0.0
 11
517.31560275868344
 21
558.04326411420163
 31
0.0
  0
LINE
  5
A7B8
  8
0
 10
515.55560275868345
 20
560.19326411420161
 30
0.0
 11
517.31560275868344
 21
560.68326411420128
 31
0.0
  0
LINE
  5
A7B9
  8
0
 10
515.55560275868345
 20
560.19326411420161
 30
0.0
 11
515.55560275868345
 21
558.59326411420182
 31
0.0
  0
LINE
  5
A7BA
  8
0
 10
517.31560275868344
 20
547.04326411420163
 30
0.0
 11
515.55560275868345
 21
547.5932641142017
 31
0.0
  0
LINE
  5
A7BB
  8
0
 10
517.31560275868344
 20
549.68326411420151
 30
0.0
 11
517.31560275868344
 21
547.04326411420163
 31
0.0
  0
LINE
  5
A7BC
  8
0
 10
515.55560275868345
 20
549.19326411420161
 30
0.0
 11
517.31560275868344
 21
549.68326411420151
 31
0.0
  0
LINE
  5
A7BD
  8
0
 10
515.55560275868345
 20
549.19326411420161
 30
0.0
 11
515.55560275868345
 21
547.5932641142017
 31
0.0
  0
LINE
  5
A7BE
  8
0
 10
517.31560275868344
 20
536.04326411420163
 30
0.0
 11
515.55560275868345
 21
536.59326411420182
 31
0.0
  0
LINE
  5
A7BF
  8
0
 10
517.31560275868344
 20
538.68326411420151
 30
0.0
 11
517.31560275868344
 21
536.04326411420163
 31
0.0
  0
LINE
  5
A7C0
  8
0
 10
515.55560275868345
 20
538.19326411420138
 30
0.0
 11
517.31560275868344
 21
538.68326411420151
 31
0.0
  0
LINE
  5
A7C1
  8
0
 10
515.55560275868345
 20
538.19326411420138
 30
0.0
 11
515.55560275868345
 21
536.59326411420182
 31
0.0
  0
LINE
  5
A7C2
  8
0
 10
516.7272717586834
 20
467.35398411420152
 30
0.0
 11
515.69564275868345
 21
458.53522311420159
 31
0.0
  0
LINE
  5
A7C3
  8
0
 10
515.66038575868345
 20
461.06241711420182
 30
0.0
 11
516.71534275868351
 21
470.48940411420159
 31
0.0
  0
LINE
  5
A7C4
  8
0
 10
515.68745575868343
 20
465.06327311420148
 30
0.0
 11
516.78636775868347
 21
475.4574471142015
 31
0.0
  0
LINE
  5
A7C5
  8
0
 10
516.83730875868343
 20
481.99406711420119
 30
0.0
 11
515.71202775868335
 21
470.51478311420129
 31
0.0
  0
LINE
  5
A7C6
  8
0
 10
516.87847575868352
 20
489.40380911420158
 30
0.0
 11
515.64575875868343
 21
476.4331481142018
 31
0.0
  0
LINE
  5
A7C7
  8
0
 10
516.78739475868338
 20
466.21765611420147
 30
0.0
 11
515.71536175868334
 21
457.33707811420157
 31
0.0
  0
LINE
  5
A7C8
  8
0
 10
515.55560275868345
 20
527.19326411420116
 30
0.0
 11
515.55560275868345
 21
525.59326411420182
 31
0.0
  0
LINE
  5
A7C9
  8
0
 10
515.55560275868345
 20
527.19326411420116
 30
0.0
 11
517.31560275868344
 21
527.68326411420128
 31
0.0
  0
LINE
  5
A7CA
  8
0
 10
517.31560275868344
 20
527.68326411420128
 30
0.0
 11
517.31560275868344
 21
525.04326411420163
 31
0.0
  0
LINE
  5
A7CB
  8
0
 10
517.31560275868344
 20
525.04326411420163
 30
0.0
 11
515.55560275868345
 21
525.59326411420182
 31
0.0
  0
LINE
  5
A7CC
  8
0
 10
515.55560275868345
 20
582.19326411420172
 30
0.0
 11
515.55560275868345
 21
580.5932641142017
 31
0.0
  0
LINE
  5
A7CD
  8
0
 10
515.55560275868345
 20
582.19326411420172
 30
0.0
 11
517.31560275868344
 21
582.68326411420151
 31
0.0
  0
LINE
  5
A7CE
  8
0
 10
517.31560275868344
 20
582.68326411420151
 30
0.0
 11
517.31560275868344
 21
580.04326411420163
 31
0.0
  0
LINE
  5
A7CF
  8
0
 10
517.31560275868344
 20
580.04326411420163
 30
0.0
 11
515.55560275868345
 21
580.5932641142017
 31
0.0
  0
LINE
  5
A7D0
  8
0
 10
467.27247875868341
 20
580.04326411420163
 30
0.0
 11
467.27247875868341
 21
571.68326411420151
 31
0.0
  0
LINE
  5
A7D1
  8
0
 10
483.31560175868327
 20
580.04326411420163
 30
0.0
 11
483.31560175868327
 21
571.68326411420151
 31
0.0
  0
LINE
  5
A7D2
  8
0
 10
483.31560175868327
 20
569.04326411420163
 30
0.0
 11
483.31560175868327
 21
560.68326411420128
 31
0.0
  0
LINE
  5
A7D3
  8
0
 10
467.27247875868341
 20
569.04326411420163
 30
0.0
 11
467.27247875868341
 21
560.68326411420128
 31
0.0
  0
LINE
  5
A7D4
  8
0
 10
467.27247875868341
 20
558.04326411420163
 30
0.0
 11
467.27247875868341
 21
549.68326411420151
 31
0.0
  0
LINE
  5
A7D5
  8
0
 10
483.31560175868327
 20
558.04326411420163
 30
0.0
 11
483.31560175868327
 21
549.68326411420151
 31
0.0
  0
LINE
  5
A7D6
  8
0
 10
483.31560175868327
 20
547.04326411420163
 30
0.0
 11
483.31560175868327
 21
538.68326411420151
 31
0.0
  0
LINE
  5
A7D7
  8
0
 10
467.27247875868341
 20
547.04326411420163
 30
0.0
 11
467.27247875868341
 21
538.68326411420151
 31
0.0
  0
LINE
  5
A7D8
  8
0
 10
467.27247875868341
 20
536.04326411420163
 30
0.0
 11
467.27247875868341
 21
527.68326411420128
 31
0.0
  0
LINE
  5
A7D9
  8
0
 10
483.31560175868327
 20
536.04326411420163
 30
0.0
 11
483.31560175868327
 21
527.68326411420128
 31
0.0
  0
LINE
  5
A7DA
  8
0
 10
483.31560175868327
 20
525.04326411420163
 30
0.0
 11
483.31560175868327
 21
509.2548181142015
 31
0.0
  0
LINE
  5
A7DB
  8
0
 10
467.27247875868341
 20
525.04326411420163
 30
0.0
 11
467.27247875868341
 21
493.73819511420157
 31
0.0
  0
LINE
  5
A7DC
  8
0
 10
516.87847575868352
 20
489.40380911420158
 30
0.0
 11
483.31560175868327
 21
489.40380911420158
 31
0.0
  0
LINE
  5
A7DD
  8
0
 10
516.83730875868343
 20
481.99406711420119
 30
0.0
 11
516.17426275868343
 21
481.99406711420119
 31
0.0
  0
ARC
  5
A7DE
  8
0
 10
513.65473075868351
 20
476.62237311420108
 30
0.0
 40
2.0
 50
270.0
 51
354.57098099999808
  0
ARC
  5
A7DF
  8
0
 10
513.72156875868336
 20
470.70990211420121
 30
0.0
 40
2.0
 50
270.0
 51
354.40134699998811
  0
ARC
  5
A7E0
  8
0
 10
513.69854075868307
 20
465.27354911420161
 30
0.0
 40
2.0
 50
270.0
 51
353.9648860000006
  0
ARC
  5
A7E1
  8
0
 10
513.6727927586835
 20
461.28484411420129
 30
0.0
 40
2.0
 50
270.0
 51
353.61470100000639
  0
ARC
  5
A7E2
  8
0
 10
513.70918875868335
 20
458.76760111420168
 30
0.0
 40
2.0
 50
270.0
 51
353.32780000000452
  0
ARC
  5
A7E3
  8
0
 10
513.72977775868344
 20
457.57677111420168
 30
0.0
 40
2.0
 50
270.0
 51
353.11676000000108
  0
LINE
  5
A7E4
  8
0
 10
516.78636775868347
 20
475.4574471142015
 30
0.0
 11
516.19654275868345
 21
475.4574471142015
 31
0.0
  0
LINE
  5
A7E5
  8
0
 10
516.71534275868351
 20
470.48940411420159
 30
0.0
 11
516.26112775868341
 21
470.48940411420159
 31
0.0
  0
LINE
  5
A7E6
  8
0
 10
516.7272717586834
 20
467.35398411420152
 30
0.0
 11
516.36446375868343
 21
467.35398411420152
 31
0.0
  0
LINE
  5
A7E7
  8
0
 10
516.78739475868338
 20
466.21765611420147
 30
0.0
 11
516.5943427586833
 21
466.21765611420147
 31
0.0
  0
LINE
  5
A7E8
  8
0
 10
519.31560275868344
 20
514.14055811420155
 30
0.0
 11
502.81560275868338
 21
514.14055811420155
 31
0.0
  0
LINE
  5
A7E9
  8
0
 10
522.31560275868344
 20
503.96126611420141
 30
0.0
 11
504.81560275868333
 21
503.96126611420141
 31
0.0
  0
LINE
  5
A7EA
  8
0
 10
522.31560275868344
 20
491.67398511420168
 30
0.0
 11
504.81560275868333
 21
491.67398511420168
 31
0.0
  0
LINE
  5
A7EB
  8
0
 10
502.81560275868338
 20
513.14055811420178
 30
0.0
 11
502.81560275868338
 21
493.67398511420163
 31
0.0
  0
LINE
  5
A7EC
  8
0
 10
519.31560275868344
 20
514.14055811420155
 30
0.0
 11
522.31560275868344
 21
515.87260911420162
 31
0.0
  0
ARC
  5
A7ED
  8
0
 10
504.81560275868333
 20
505.96126611420152
 30
0.0
 40
2.0
 50
180.0
 51
270.0
  0
ARC
  5
A7EE
  8
0
 10
504.81560275868333
 20
493.67398511420163
 30
0.0
 40
2.0
 50
180.0
 51
270.0
  0
ARC
  5
A7EF
  8
0
 10
504.81560275868333
 20
501.96126611420152
 30
0.0
 40
2.0
 50
90.0
 51
180.0
  0
LINE
  5
A7F0
  8
0
 10
483.31560175868327
 20
497.84246811420149
 30
0.0
 11
483.31560175868327
 21
489.40380911420158
 31
0.0
  0
LINE
  5
A7F1
  8
0
 10
467.27247875868341
 20
493.73819511420157
 30
0.0
 11
483.31560175868327
 21
489.40380911420158
 31
0.0
  0
ARC
  5
A7F2
  8
0
 10
501.81560275868333
 20
513.14055811420178
 30
0.0
 40
1.0
 50
0.0
 51
90.0
  0
LINE
  5
A7F3
  8
0
 10
467.27247875868341
 20
493.73819511420157
 30
0.0
 11
415.31560275868338
 21
493.73819511420157
 31
0.0
  0
LINE
  5
A7F4
  8
0
 10
513.72977775868344
 20
455.57677111420162
 30
0.0
 11
321.84433575868343
 21
455.57677111420162
 31
0.0
  0
LINE
  5
A7F5
  8
0
 10
513.70918875868335
 20
456.76760111420163
 30
0.0
 11
321.85527575868338
 21
456.76760111420163
 31
0.0
  0
LINE
  5
A7F6
  8
0
 10
513.6727927586835
 20
459.28484411420152
 30
0.0
 11
321.86453975868341
 21
459.28484411420152
 31
0.0
  0
LINE
  5
A7F7
  8
0
 10
513.69854075868307
 20
463.27354911420173
 30
0.0
 11
321.87648875868331
 21
463.27354911420173
 31
0.0
  0
LINE
  5
A7F8
  8
0
 10
513.72156875868336
 20
468.70990211420121
 30
0.0
 11
321.89425275868348
 21
468.70990211420121
 31
0.0
  0
LINE
  5
A7F9
  8
0
 10
513.65473075868351
 20
474.62237311420142
 30
0.0
 11
321.89992075868338
 21
474.62237311420142
 31
0.0
  0
LINE
  5
A7FA
  8
0
 10
467.27247875868341
 20
627.7007391142015
 30
0.0
 11
467.27247875868341
 21
613.72326411420147
 31
0.0
  0
LINE
  5
A7FB
  8
0
 10
483.31560175868327
 20
632.30060111420164
 30
0.0
 11
483.31560175868327
 21
629.7160511142016
 31
0.0
  0
LINE
  5
A7FC
  8
0
 10
453.81560275868338
 20
582.68326411420151
 30
0.0
 11
517.31560275868344
 21
582.68326411420151
 31
0.0
  0
LINE
  5
A7FD
  8
0
 10
453.81560275868338
 20
582.19326411420172
 30
0.0
 11
515.55560275868345
 21
582.19326411420172
 31
0.0
  0
LINE
  5
A7FE
  8
0
 10
453.81560275868338
 20
580.5932641142017
 30
0.0
 11
515.55560275868345
 21
580.5932641142017
 31
0.0
  0
LINE
  5
A7FF
  8
0
 10
453.81560275868338
 20
580.04326411420163
 30
0.0
 11
517.31560275868344
 21
580.04326411420163
 31
0.0
  0
LINE
  5
A800
  8
0
 10
453.81560275868338
 20
527.68326411420128
 30
0.0
 11
517.31560275868344
 21
527.68326411420128
 31
0.0
  0
LINE
  5
A801
  8
0
 10
453.81560275868338
 20
527.19326411420116
 30
0.0
 11
515.55560275868345
 21
527.19326411420116
 31
0.0
  0
LINE
  5
A802
  8
0
 10
453.81560275868338
 20
525.59326411420182
 30
0.0
 11
515.55560275868345
 21
525.59326411420182
 31
0.0
  0
LINE
  5
A803
  8
0
 10
453.81560275868338
 20
525.04326411420163
 30
0.0
 11
517.31560275868344
 21
525.04326411420163
 31
0.0
  0
LINE
  5
A804
  8
0
 10
453.81560275868338
 20
558.04326411420163
 30
0.0
 11
517.31560275868344
 21
558.04326411420163
 31
0.0
  0
LINE
  5
A805
  8
0
 10
453.81560275868338
 20
558.59326411420182
 30
0.0
 11
515.55560275868345
 21
558.59326411420182
 31
0.0
  0
LINE
  5
A806
  8
0
 10
453.81560275868338
 20
538.68326411420151
 30
0.0
 11
517.31560275868344
 21
538.68326411420151
 31
0.0
  0
LINE
  5
A807
  8
0
 10
453.81560275868338
 20
538.19326411420138
 30
0.0
 11
515.55560275868345
 21
538.19326411420138
 31
0.0
  0
LINE
  5
A808
  8
0
 10
453.81560275868338
 20
536.59326411420182
 30
0.0
 11
515.55560275868345
 21
536.59326411420182
 31
0.0
  0
LINE
  5
A809
  8
0
 10
453.81560275868338
 20
536.04326411420163
 30
0.0
 11
517.31560275868344
 21
536.04326411420163
 31
0.0
  0
LINE
  5
A80A
  8
0
 10
453.81560275868338
 20
549.68326411420151
 30
0.0
 11
517.31560275868344
 21
549.68326411420151
 31
0.0
  0
LINE
  5
A80B
  8
0
 10
453.81560275868338
 20
549.19326411420161
 30
0.0
 11
515.55560275868345
 21
549.19326411420161
 31
0.0
  0
LINE
  5
A80C
  8
0
 10
453.81560275868338
 20
547.5932641142017
 30
0.0
 11
515.55560275868345
 21
547.5932641142017
 31
0.0
  0
LINE
  5
A80D
  8
0
 10
453.81560275868338
 20
547.04326411420163
 30
0.0
 11
517.31560275868344
 21
547.04326411420163
 31
0.0
  0
LINE
  5
A80E
  8
0
 10
453.81560275868338
 20
571.68326411420151
 30
0.0
 11
517.31560275868344
 21
571.68326411420151
 31
0.0
  0
LINE
  5
A80F
  8
0
 10
453.81560275868338
 20
571.19326411420172
 30
0.0
 11
515.55560275868345
 21
571.19326411420172
 31
0.0
  0
LINE
  5
A810
  8
0
 10
453.81560275868338
 20
569.59326411420159
 30
0.0
 11
515.55560275868345
 21
569.59326411420159
 31
0.0
  0
LINE
  5
A811
  8
0
 10
453.81560275868338
 20
569.04326411420163
 30
0.0
 11
517.31560275868344
 21
569.04326411420163
 31
0.0
  0
LINE
  5
A812
  8
0
 10
453.81560275868338
 20
560.68326411420128
 30
0.0
 11
517.31560275868344
 21
560.68326411420128
 31
0.0
  0
LINE
  5
A813
  8
0
 10
453.81560275868338
 20
560.19326411420161
 30
0.0
 11
515.55560275868345
 21
560.19326411420161
 31
0.0
  0
LINE
  5
A814
  8
0
  6
AM_ISO08W050
 10
196.87161271355771
 20
553.86326411420123
 30
0.0
 11
594.76197577022674
 21
553.86326411420123
 31
0.0
  0
LINE
  5
A815
  8
0
 10
519.31560275868344
 20
465.86326411420129
 30
0.0
 11
519.31560275868344
 21
491.67398511420168
 31
0.0
  0
LINE
  5
A816
  8
0
 10
516.7446137586835
 20
465.86326411420129
 30
0.0
 11
519.31560275868344
 21
465.86326411420129
 31
0.0
  0
LINE
  5
A817
  8
0
 10
517.31560275868344
 20
613.72326411420147
 30
0.0
 11
515.55560275868345
 21
613.16326411420152
 31
0.0
  0
LINE
  5
A818
  8
0
 10
515.55560275868345
 20
611.56326411420162
 30
0.0
 11
517.31560275868344
 21
611.02326411420165
 31
0.0
  0
LINE
  5
A819
  8
0
 10
517.31560275868344
 20
611.02326411420165
 30
0.0
 11
517.31560275868344
 21
613.72326411420147
 31
0.0
  0
LINE
  5
A81A
  8
0
 10
515.55560275868345
 20
611.56326411420162
 30
0.0
 11
515.55560275868345
 21
613.16326411420152
 31
0.0
  0
LINE
  5
A81B
  8
0
 10
517.31560275868344
 20
605.67826411420174
 30
0.0
 11
515.55560275868345
 21
605.13826411420132
 31
0.0
  0
LINE
  5
A81C
  8
0
 10
515.55560275868345
 20
603.53826411420152
 30
0.0
 11
517.31560275868344
 21
603.04826411420174
 31
0.0
  0
LINE
  5
A81D
  8
0
 10
515.55560275868345
 20
603.53826411420152
 30
0.0
 11
515.55560275868345
 21
605.13826411420132
 31
0.0
  0
LINE
  5
A81E
  8
0
 10
517.31560275868344
 20
603.04826411420174
 30
0.0
 11
517.31560275868344
 21
605.67826411420174
 31
0.0
  0
LINE
  5
A81F
  8
0
 10
452.31560275868338
 20
613.98745111420169
 30
0.0
 11
450.69369375868348
 21
631.05319411420157
 31
0.0
  0
LINE
  5
A820
  8
0
 10
452.31560275868338
 20
620.52838711420145
 30
0.0
 11
450.69507975868328
 21
637.05975511420115
 31
0.0
  0
LINE
  5
A821
  8
0
 10
203.37413575868339
 20
619.19523411420153
 30
0.0
 11
208.37523375868341
 21
647.55784411420154
 31
0.0
  0
LINE
  5
A822
  8
0
 10
211.0954487586834
 20
644.42899911420147
 30
0.0
 11
211.0954487586834
 21
555.54115211420151
 31
0.0
  0
ARC
  5
A823
  8
0
 10
212.31447375868339
 20
646.86326411420123
 30
0.0
 40
4.0
 50
90.0
 51
170.00018299999621
  0
LINE
  5
A824
  8
0
 10
203.31560275868341
 20
611.46324011420165
 30
0.0
 11
203.31560275868341
 21
525.15223611420163
 31
0.0
  0
ARC
  5
A825
  8
0
 10
204.31560275868341
 20
615.86326411420123
 30
0.0
 40
3.0
 50
118.78768900000171
 51
180.0
  0
LINE
  5
A826
  8
0
 10
201.31560275868341
 20
615.86326411420123
 30
0.0
 11
201.31560275868341
 21
504.01155011420121
 31
0.0
  0
LINE
  5
A827
  8
0
 10
211.0954487586834
 20
543.68263911420115
 30
0.0
 11
211.0891238765376
 21
459.62141037719488
 31
0.0
  0
LINE
  5
A828
  8
0
 10
205.10880909360679
 20
480.40180807019817
 30
0.0
 11
208.37524070999939
 21
460.168682953965
 31
0.0
  0
ARC
  5
A829
  8
0
 10
212.31447375868339
 20
460.86326411420129
 30
0.0
 40
4.0
 50
189.9998320000029
 51
270.0
  0
ARC
  5
A82A
  8
0
 10
202.38933275868339
 20
619.36894011420145
 30
0.0
 40
1.0
 50
298.7879640000001
 51
350.00021399998928
  0
LINE
  5
A82B
  8
0
 10
205.37296775868339
 20
546.89928611420112
 30
0.0
 11
198.32893875868339
 21
472.44148311420122
 31
0.0
  0
LINE
  5
A82C
  8
0
 10
211.34629675868339
 20
546.33418311420155
 30
0.0
 11
204.3022667586834
 21
471.87638011420142
 31
0.0
  0
ARC
  5
A82D
  8
0
 10
216.3240707586834
 20
545.86326411420123
 30
0.0
 40
5.0
 50
90.0
 51
174.59565699998839
  0
ARC
  5
A82E
  8
0
 10
216.3240707586834
 20
545.86326411420123
 30
0.0
 40
11.0
 50
90.0
 51
174.59565699998839
  0
ARC
  5
A82F
  8
0
 10
201.31560275868341
 20
472.15893111420161
 30
0.0
 40
3.0
 50
174.59565699998839
 51
354.59565699998842
  0
ARC
  5
A830
  8
0
 10
201.31560275868341
 20
472.15893111420161
 30
0.0
 40
3.799999999999998
 50
219.99999999999099
 51
32.14057200001389
  0
LINE
  5
A831
  8
0
 10
195.93184975868331
 20
473.51575911420173
 30
0.0
 11
198.34639275868341
 21
469.7950731142015
 31
0.0
  0
LINE
  5
A832
  8
0
 10
196.54931275868341
 20
474.03387211420159
 30
0.0
 11
199.0174697586834
 21
470.23056811420162
 31
0.0
  0
LINE
  5
A833
  8
0
 10
196.54931275868341
 20
474.03387211420159
 30
0.0
 11
195.93184975868331
 21
473.51575911420173
 31
0.0
  0
LINE
  5
A834
  8
0
 10
319.58028175868338
 20
627.7007391142015
 30
0.0
 11
318.31560275868338
 21
627.7007391142015
 31
0.0
  0
LINE
  5
A835
  8
0
 10
318.31560275868338
 20
613.72326411420147
 30
0.0
 11
320.07560275868337
 21
613.16326411420152
 31
0.0
  0
LINE
  5
A836
  8
0
 10
320.07560275868337
 20
611.56326411420162
 30
0.0
 11
318.31560275868338
 21
611.02326411420165
 31
0.0
  0
LINE
  5
A837
  8
0
 10
318.31560275868338
 20
605.67826411420174
 30
0.0
 11
320.07560275868337
 21
605.13826411420132
 31
0.0
  0
LINE
  5
A838
  8
0
 10
320.07560275868337
 20
603.53826411420152
 30
0.0
 11
318.31560275868338
 21
603.04826411420174
 31
0.0
  0
LINE
  5
A839
  8
0
 10
318.31560275868338
 20
611.02326411420165
 30
0.0
 11
318.31560275868338
 21
613.72326411420147
 31
0.0
  0
LINE
  5
A83A
  8
0
 10
320.07560275868337
 20
611.56326411420162
 30
0.0
 11
320.07560275868337
 21
613.16326411420152
 31
0.0
  0
LINE
  5
A83B
  8
0
 10
320.07560275868337
 20
603.53826411420152
 30
0.0
 11
320.07560275868337
 21
605.13826411420132
 31
0.0
  0
LINE
  5
A83C
  8
0
 10
318.31560275868338
 20
603.04826411420174
 30
0.0
 11
318.31560275868338
 21
605.67826411420174
 31
0.0
  0
LINE
  5
A83D
  8
0
 10
364.81560275868338
 20
521.36326411420112
 30
0.0
 11
364.81560275868338
 21
586.36326411420123
 31
0.0
  0
LINE
  5
A83E
  8
0
 10
364.31560275868338
 20
581.86326411420123
 30
0.0
 11
364.31560275868338
 21
571.86326411420123
 31
0.0
  0
ARC
  5
A83F
  8
0
 10
364.81614975868342
 20
581.8627171142017
 30
0.0
 40
0.5005470000000001
 50
90.0626249999995
 51
179.9373749999875
  0
ARC
  5
A840
  8
0
 10
368.31610175868337
 20
586.36276511420158
 30
0.0
 40
3.5004989999999978
 50
90.008164000007696
 51
179.99183600000529
  0
LINE
  5
A841
  8
0
 10
369.2356027586834
 20
587.76326411420132
 30
0.0
 11
436.94560275868332
 21
587.76326411420132
 31
0.0
  0
LINE
  5
A842
  8
0
 10
369.2356027586834
 20
587.76326411420132
 30
0.0
 11
369.2356027586834
 21
589.85826411420169
 31
0.0
  0
LINE
  5
A843
  8
0
 10
368.31560275868338
 20
589.86326411420123
 30
0.0
 11
451.81560275868333
 21
589.86326411420123
 31
0.0
  0
LINE
  5
A844
  8
0
 10
436.94560275868332
 20
587.76326411420132
 30
0.0
 11
447.21560275868342
 21
577.49326411420122
 31
0.0
  0
LINE
  5
A845
  8
0
 10
438.83560275868342
 20
588.8332641142016
 30
0.0
 11
448.28560275868341
 21
579.38326411420167
 31
0.0
  0
CIRCLE
  5
A846
  8
0
 10
448.31560275868338
 20
584.86326411420123
 30
0.0
 40
3.5
  0
CIRCLE
  5
A847
  8
0
 10
448.31560275868338
 20
584.86326411420123
 30
0.0
 40
3.299999999999998
  0
LINE
  5
A848
  8
0
 10
449.74560275868328
 20
585.53870311420133
 30
0.0
 11
451.32573975868331
 21
585.53870311420133
 31
0.0
  0
LINE
  5
A849
  8
0
 10
449.74560275868328
 20
584.18782511420159
 30
0.0
 11
451.32573975868331
 21
584.18782511420159
 31
0.0
  0
LINE
  5
A84A
  8
0
 10
445.08546575868331
 20
585.31870311420164
 30
0.0
 11
445.08546575868331
 21
584.4078251142015
 31
0.0
  0
ARC
  5
A84B
  8
0
 10
445.30546575868328
 20
584.4078251142015
 30
0.0
 40
0.22
 50
180.0
 51
270.0
  0
LINE
  5
A84C
  8
0
 10
449.74560275868328
 20
584.18782511420159
 30
0.0
 11
449.08560275868342
 21
584.18782511420159
 31
0.0
  0
ARC
  5
A84D
  8
0
 10
449.74560275868328
 20
584.4078251142015
 30
0.0
 40
0.22
 50
270.0
 51
0.0
  0
LINE
  5
A84E
  8
0
 10
448.86560275868328
 20
583.43326411420128
 30
0.0
 11
448.86560275868328
 21
583.96782511420133
 31
0.0
  0
LINE
  5
A84F
  8
0
 10
447.76560275868309
 20
583.43326411420128
 30
0.0
 11
447.76560275868309
 21
583.96782511420133
 31
0.0
  0
LINE
  5
A850
  8
0
 10
447.5456027586834
 20
584.18782511420159
 30
0.0
 11
446.88560275868309
 21
584.18782511420159
 31
0.0
  0
ARC
  5
A851
  8
0
 10
446.88560275868309
 20
584.4078251142015
 30
0.0
 40
0.22
 50
180.0
 51
270.0
  0
ARC
  5
A852
  8
0
 10
449.08560275868342
 20
583.96782511420133
 30
0.0
 40
0.22
 50
90.0
 51
180.0
  0
ARC
  5
A853
  8
0
 10
447.5456027586834
 20
583.96782511420133
 30
0.0
 40
0.22
 50
0.0
 51
90.0
  0
LINE
  5
A854
  8
0
 10
447.98560275868329
 20
583.21326411420171
 30
0.0
 11
448.64560275868308
 21
583.21326411420171
 31
0.0
  0
ARC
  5
A855
  8
0
 10
447.98560275868329
 20
583.43326411420128
 30
0.0
 40
0.22
 50
180.0
 51
270.0
  0
ARC
  5
A856
  8
0
 10
448.64560275868308
 20
583.43326411420128
 30
0.0
 40
0.22
 50
270.0
 51
0.0
  0
LINE
  5
A857
  8
0
 10
446.88560275868309
 20
584.18782511420159
 30
0.0
 11
445.30546575868328
 21
584.18782511420159
 31
0.0
  0
LINE
  5
A858
  8
0
 10
449.08560275868342
 20
585.53870311420133
 30
0.0
 11
449.74560275868328
 21
585.53870311420133
 31
0.0
  0
ARC
  5
A859
  8
0
 10
449.74560275868328
 20
585.31870311420164
 30
0.0
 40
0.22
 50
0.0
 51
90.0
  0
ARC
  5
A85A
  8
0
 10
447.98560275868329
 20
586.29326411420163
 30
0.0
 40
0.22
 50
90.0
 51
180.0
  0
ARC
  5
A85B
  8
0
 10
448.64560275868308
 20
586.29326411420163
 30
0.0
 40
0.22
 50
0.0
 51
90.0
  0
LINE
  5
A85C
  8
0
 10
446.88560275868309
 20
585.53870311420133
 30
0.0
 11
445.30546575868328
 21
585.53870311420133
 31
0.0
  0
ARC
  5
A85D
  8
0
 10
449.08560275868342
 20
585.75870311420158
 30
0.0
 40
0.22
 50
180.0
 51
270.0
  0
ARC
  5
A85E
  8
0
 10
447.5456027586834
 20
585.75870311420158
 30
0.0
 40
0.22
 50
270.0
 51
0.0
  0
LINE
  5
A85F
  8
0
 10
446.88560275868309
 20
585.53870311420133
 30
0.0
 11
447.5456027586834
 21
585.53870311420133
 31
0.0
  0
ARC
  5
A860
  8
0
 10
446.88560275868309
 20
585.31870311420164
 30
0.0
 40
0.22
 50
90.0
 51
180.0
  0
LINE
  5
A861
  8
0
 10
448.86560275868328
 20
586.29326411420163
 30
0.0
 11
448.86560275868328
 21
585.75870311420158
 31
0.0
  0
LINE
  5
A862
  8
0
 10
447.76560275868309
 20
585.75870311420158
 30
0.0
 11
447.76560275868309
 21
586.29326411420163
 31
0.0
  0
LINE
  5
A863
  8
0
 10
447.98560275868329
 20
586.51326411420132
 30
0.0
 11
448.64560275868308
 21
586.51326411420132
 31
0.0
  0
ARC
  5
A864
  8
0
 10
445.30546575868328
 20
585.31870311420164
 30
0.0
 40
0.22
 50
90.0
 51
180.0
  0
LINE
  5
A865
  8
0
 10
446.66560275868341
 20
584.4078251142015
 30
0.0
 11
446.66560275868341
 21
585.31870311420164
 31
0.0
  0
LINE
  5
A866
  8
0
 10
449.96560275868342
 20
584.4078251142015
 30
0.0
 11
449.96560275868342
 21
585.31870311420164
 31
0.0
  0
ARC
  5
A867
  8
0
 10
436.35355775868339
 20
586.35777611420156
 30
0.0
 40
3.5055079999999998
 50
44.924208999994107
 51
89.803122999998919
  0
LINE
  5
A868
  8
0
 10
453.81560275868338
 20
587.86326411420123
 30
0.0
 11
453.81560275868338
 21
580.36326411420123
 31
0.0
  0
ARC
  5
A869
  8
0
 10
451.32573975868331
 20
584.4078251142015
 30
0.0
 40
0.22
 50
270.0
 51
0.0
  0
ARC
  5
A86A
  8
0
 10
451.32573975868331
 20
585.31870311420164
 30
0.0
 40
0.22
 50
0.0
 51
90.0
  0
LINE
  5
A86B
  8
0
 10
451.54573975868351
 20
584.4078251142015
 30
0.0
 11
451.54573975868351
 21
585.31870311420164
 31
0.0
  0
ARC
  5
A86C
  8
0
 10
451.81560275868333
 20
587.86326411420123
 30
0.0
 40
2.0
 50
0.0
 51
90.0
  0
LINE
  5
A86D
  8
0
 10
447.21560275868342
 20
577.49326411420122
 30
0.0
 11
447.21560275868342
 21
530.23326411420157
 31
0.0
  0
LINE
  5
A86E
  8
0
 10
449.31560275868338
 20
576.91326411420141
 30
0.0
 11
449.31560275868338
 21
530.81326411420162
 31
0.0
  0
ARC
  5
A86F
  8
0
 10
451.31560275868333
 20
576.36326411420123
 30
0.0
 40
2.0
 50
90.0
 51
180.0
  0
ARC
  5
A870
  8
0
 10
445.8105987586834
 20
576.90142011420176
 30
0.0
 40
3.5050239999999979
 50
0.1936060000054425
 51
45.079061999992497
  0
ARC
  5
A871
  8
0
 10
451.81560275868333
 20
580.36326411420123
 30
0.0
 40
2.0
 50
270.0
 51
0.0
  0
LINE
  5
A872
  8
0
 10
451.81560275868333
 20
578.36326411420123
 30
0.0
 11
451.31560275868333
 21
578.36326411420123
 31
0.0
  0
ARC
  5
A873
  8
0
 10
449.3080937586833
 20
558.85575511420132
 30
0.0
 40
0.507564
 50
0.8476510000084681
 51
89.152348999991517
  0
LINE
  5
A874
  8
0
 10
449.81560275868333
 20
558.86326411420112
 30
0.0
 11
449.81560275868333
 21
548.86326411420123
 31
0.0
  0
ARC
  5
A875
  8
0
 10
449.31603675868348
 20
548.86283011420164
 30
0.0
 40
0.499566
 50
269.9501849999923
 51
0.0498150000076779
  0
LINE
  5
A876
  8
0
 10
448.28560275868341
 20
528.33326411420171
 30
0.0
 11
438.83560275868342
 21
518.88326411420178
 31
0.0
  0
LINE
  5
A877
  8
0
 10
447.21560275868342
 20
530.23326411420157
 30
0.0
 11
436.94560275868332
 21
519.96326411420171
 31
0.0
  0
ARC
  5
A878
  8
0
 10
451.31560275868333
 20
531.36326411420123
 30
0.0
 40
2.0
 50
180.0
 51
270.0
  0
ARC
  5
A879
  8
0
 10
445.81234775868342
 20
530.81435411420182
 30
0.0
 40
3.5032559999999981
 50
314.90939599998438
 51
359.982174000008
  0
LINE
  5
A87A
  8
0
 10
445.08546575868331
 20
523.31870311420164
 30
0.0
 11
445.08546575868331
 21
522.4078251142015
 31
0.0
  0
ARC
  5
A87B
  8
0
 10
448.64560275868308
 20
524.29326411420163
 30
0.0
 40
0.22
 50
0.0
 51
90.0
  0
ARC
  5
A87C
  8
0
 10
447.98560275868329
 20
524.29326411420163
 30
0.0
 40
0.22
 50
90.0
 51
180.0
  0
LINE
  5
A87D
  8
0
 10
447.98560275868329
 20
524.51326411420132
 30
0.0
 11
448.64560275868308
 21
524.51326411420132
 31
0.0
  0
LINE
  5
A87E
  8
0
 10
449.74560275868328
 20
523.53870311420133
 30
0.0
 11
451.32573975868331
 21
523.53870311420133
 31
0.0
  0
ARC
  5
A87F
  8
0
 10
445.30546575868328
 20
523.31870311420164
 30
0.0
 40
0.22
 50
90.0
 51
180.0
  0
ARC
  5
A880
  8
0
 10
451.32573975868331
 20
523.31870311420164
 30
0.0
 40
0.22
 50
0.0
 51
90.0
  0
ARC
  5
A881
  8
0
 10
447.5456027586834
 20
523.75870311420169
 30
0.0
 40
0.22
 50
270.0
 51
0.0
  0
ARC
  5
A882
  8
0
 10
449.08560275868342
 20
523.75870311420169
 30
0.0
 40
0.22
 50
180.0
 51
270.0
  0
LINE
  5
A883
  8
0
 10
449.74560275868328
 20
523.53870311420133
 30
0.0
 11
449.08560275868342
 21
523.53870311420133
 31
0.0
  0
ARC
  5
A884
  8
0
 10
446.88560275868309
 20
523.31870311420164
 30
0.0
 40
0.22
 50
90.0
 51
180.0
  0
LINE
  5
A885
  8
0
 10
446.88560275868309
 20
523.53870311420133
 30
0.0
 11
445.30546575868328
 21
523.53870311420133
 31
0.0
  0
LINE
  5
A886
  8
0
 10
447.5456027586834
 20
523.53870311420133
 30
0.0
 11
446.88560275868309
 21
523.53870311420133
 31
0.0
  0
ARC
  5
A887
  8
0
 10
449.74560275868328
 20
523.31870311420164
 30
0.0
 40
0.22
 50
0.0
 51
90.0
  0
LINE
  5
A888
  8
0
 10
447.76560275868309
 20
524.29326411420163
 30
0.0
 11
447.76560275868309
 21
523.75870311420169
 31
0.0
  0
LINE
  5
A889
  8
0
 10
448.86560275868328
 20
524.29326411420163
 30
0.0
 11
448.86560275868328
 21
523.75870311420169
 31
0.0
  0
LINE
  5
A88A
  8
0
 10
449.74560275868328
 20
522.18782511420159
 30
0.0
 11
451.32573975868331
 21
522.18782511420159
 31
0.0
  0
ARC
  5
A88B
  8
0
 10
445.30546575868328
 20
522.4078251142015
 30
0.0
 40
0.22
 50
180.0
 51
270.0
  0
LINE
  5
A88C
  8
0
 10
447.76560275868309
 20
521.96782511420133
 30
0.0
 11
447.76560275868309
 21
521.43326411420128
 31
0.0
  0
LINE
  5
A88D
  8
0
 10
448.86560275868328
 20
521.43326411420128
 30
0.0
 11
448.86560275868328
 21
521.96782511420133
 31
0.0
  0
ARC
  5
A88E
  8
0
 10
447.98560275868329
 20
521.43326411420128
 30
0.0
 40
0.22
 50
180.0
 51
270.0
  0
ARC
  5
A88F
  8
0
 10
448.64560275868308
 20
521.43326411420128
 30
0.0
 40
0.22
 50
270.0
 51
0.0
  0
LINE
  5
A890
  8
0
 10
447.98560275868329
 20
521.21326411420171
 30
0.0
 11
448.64560275868308
 21
521.21326411420171
 31
0.0
  0
LINE
  5
A891
  8
0
 10
449.08560275868342
 20
522.18782511420159
 30
0.0
 11
449.74560275868328
 21
522.18782511420159
 31
0.0
  0
ARC
  5
A892
  8
0
 10
446.88560275868309
 20
522.4078251142015
 30
0.0
 40
0.22
 50
180.0
 51
270.0
  0
LINE
  5
A893
  8
0
 10
446.88560275868309
 20
522.18782511420159
 30
0.0
 11
445.30546575868328
 21
522.18782511420159
 31
0.0
  0
LINE
  5
A894
  8
0
 10
446.88560275868309
 20
522.18782511420159
 30
0.0
 11
447.5456027586834
 21
522.18782511420159
 31
0.0
  0
ARC
  5
A895
  8
0
 10
449.74560275868328
 20
522.4078251142015
 30
0.0
 40
0.22
 50
270.0
 51
0.0
  0
ARC
  5
A896
  8
0
 10
447.5456027586834
 20
521.96782511420133
 30
0.0
 40
0.22
 50
0.0
 51
90.0
  0
ARC
  5
A897
  8
0
 10
449.08560275868342
 20
521.96782511420133
 30
0.0
 40
0.22
 50
90.0
 51
180.0
  0
ARC
  5
A898
  8
0
 10
451.32573975868331
 20
522.4078251142015
 30
0.0
 40
0.22
 50
270.0
 51
0.0
  0
LINE
  5
A899
  8
0
 10
449.96560275868342
 20
523.31870311420164
 30
0.0
 11
449.96560275868342
 21
522.4078251142015
 31
0.0
  0
LINE
  5
A89A
  8
0
 10
451.54573975868351
 20
523.31870311420164
 30
0.0
 11
451.54573975868351
 21
522.4078251142015
 31
0.0
  0
LINE
  5
A89B
  8
0
 10
446.66560275868341
 20
523.31870311420164
 30
0.0
 11
446.66560275868341
 21
522.4078251142015
 31
0.0
  0
CIRCLE
  5
A89C
  8
0
 10
448.31560275868338
 20
522.86326411420123
 30
0.0
 40
3.299999999999998
  0
CIRCLE
  5
A89D
  8
0
 10
448.31560275868338
 20
522.86326411420123
 30
0.0
 40
3.5
  0
ARC
  5
A89E
  8
0
 10
451.81560275868333
 20
527.36326411420123
 30
0.0
 40
2.0
 50
0.0
 51
90.0
  0
LINE
  5
A89F
  8
0
 10
453.81560275868338
 20
519.86326411420123
 30
0.0
 11
453.81560275868338
 21
527.36326411420123
 31
0.0
  0
LINE
  5
A8A0
  8
0
 10
451.81560275868333
 20
529.36326411420123
 30
0.0
 11
451.31560275868333
 21
529.36326411420123
 31
0.0
  0
ARC
  5
A8A1
  8
0
 10
451.81560275868333
 20
519.86326411420123
 30
0.0
 40
2.0
 50
270.0
 51
0.0
  0
LINE
  5
A8A2
  8
0
 10
436.94560275868332
 20
519.96326411420171
 30
0.0
 11
369.2356027586834
 21
519.96326411420171
 31
0.0
  0
LINE
  5
A8A3
  8
0
 10
368.31560275868338
 20
517.86326411420123
 30
0.0
 11
451.81560275868333
 21
517.86326411420123
 31
0.0
  0
ARC
  5
A8A4
  8
0
 10
436.36766275868331
 20
521.3589121142013
 30
0.0
 40
3.495648999999998
 50
269.96623299999862
 51
314.91065800000843
  0
LINE
  5
A8A5
  8
0
 10
369.2356027586834
 20
519.96326411420171
 30
0.0
 11
369.2356027586834
 21
517.86326411420123
 31
0.0
  0
LINE
  5
A8A6
  8
0
 10
364.31560275868338
 20
535.86326411420123
 30
0.0
 11
364.31560275868338
 21
525.86326411420123
 31
0.0
  0
ARC
  5
A8A7
  8
0
 10
364.81614975868342
 20
535.8627171142017
 30
0.0
 40
0.5005470000000001
 50
90.0626249999995
 51
179.9373749999875
  0
ARC
  5
A8A8
  8
0
 10
364.80824675868348
 20
525.85590811420127
 30
0.0
 40
0.492699
 50
179.14456000001019
 51
270.85544000000289
  0
ARC
  5
A8A9
  8
0
 10
368.30824675868348
 20
521.35590811420127
 30
0.0
 40
3.4926519999999979
 50
179.87932800000809
 51
270.12067199999188
  0
ARC
  5
A8AA
  8
0
 10
364.80809475868341
 20
571.85575611420165
 30
0.0
 40
0.492549
 50
179.12656199998949
 51
270.87343799999729
  0
LINE
  5
A8AB
  8
0
 10
318.31560275868338
 20
592.58269911420132
 30
0.0
 11
450.81560275868333
 21
592.58269911420132
 31
0.0
  0
LINE
  5
A8AC
  8
0
 10
326.68560275868327
 20
591.73092611420145
 30
0.0
 11
376.31560275868338
 21
591.73092611420145
 31
0.0
  0
LINE
  5
A8AD
  8
0
 10
318.31560275868338
 20
592.58269911420132
 30
0.0
 11
326.68560275868327
 21
591.73092611420145
 31
0.0
  0
LINE
  5
A8AE
  8
0
 10
324.99070875868341
 20
515.14382911420125
 30
0.0
 11
450.81560275868333
 21
515.14382911420125
 31
0.0
  0
LINE
  5
A8AF
  8
0
 10
326.68560275868327
 20
515.99560211420169
 30
0.0
 11
376.31560275868338
 21
515.99560211420169
 31
0.0
  0
LINE
  5
A8B0
  8
0
 10
318.31560275868338
 20
519.50447511420123
 30
0.0
 11
318.31560275868338
 21
592.58269911420132
 31
0.0
  0
LINE
  5
A8B1
  8
0
 10
323.7787787586833
 20
515.69978911420139
 30
0.0
 11
326.68560275868327
 21
515.99560211420169
 31
0.0
  0
LINE
  5
A8B2
  8
0
 10
326.68560275868327
 20
515.99560211420169
 30
0.0
 11
326.68560275868327
 21
591.73092611420145
 31
0.0
  0
ARC
  5
A8B3
  8
0
 10
450.81560275868333
 20
589.58269911420132
 30
0.0
 40
3.0
 50
0.0
 51
90.0
  0
LINE
  5
A8B4
  8
0
 10
453.81560275868338
 20
589.58269911420132
 30
0.0
 11
453.81560275868338
 21
518.14382911420125
 31
0.0
  0
ARC
  5
A8B5
  8
0
 10
450.81560275868333
 20
518.14382911420125
 30
0.0
 40
3.0
 50
270.0
 51
0.0
  0
LINE
  5
A8B6
  8
0
 10
379.8156027586835
 20
591.36326411420123
 30
0.0
 11
450.81560275868333
 21
591.36326411420123
 31
0.0
  0
LINE
  5
A8B7
  8
0
 10
377.31560275868338
 20
590.73092611420122
 30
0.0
 11
377.31560275868338
 21
589.86326411420123
 31
0.0
  0
ARC
  5
A8B8
  8
0
 10
379.81032975868339
 20
589.36853711420144
 30
0.0
 40
1.994734
 50
89.848548000005621
 51
165.63982299999881
  0
ARC
  5
A8B9
  8
0
 10
376.31560275868338
 20
590.73092611420122
 30
0.0
 40
1.0
 50
0.0
 51
90.0
  0
ARC
  5
A8BA
  8
0
 10
450.81507075868342
 20
589.36273211420121
 30
0.0
 40
2.0005329999999999
 50
6.9164319999882631
 51
89.984749999991735
  0
ARC
  5
A8BB
  8
0
 10
376.31560275868338
 20
516.99560211420169
 30
0.0
 40
1.0
 50
270.0
 51
0.0
  0
ARC
  5
A8BC
  8
0
 10
379.81032975868339
 20
518.35799111420147
 30
0.0
 40
1.994734
 50
194.36017700000119
 51
270.15145199999438
  0
LINE
  5
A8BD
  8
0
 10
379.8156027586835
 20
516.36326411420123
 30
0.0
 11
450.81560275868333
 21
516.36326411420123
 31
0.0
  0
ARC
  5
A8BE
  8
0
 10
450.81507075868342
 20
518.36379611420136
 30
0.0
 40
2.0005329999999999
 50
270.01524999999521
 51
353.08356800001172
  0
LINE
  5
A8BF
  8
0
 10
315.8156027586835
 20
637.48356111420173
 30
0.0
 11
318.5923617586833
 21
637.48356111420173
 31
0.0
  0
LINE
  5
A8C0
  8
0
  6
AM_ISO08W050
 10
299.31560275868338
 20
564.56266511420165
 30
0.0
 11
299.31560275868338
 21
542.88026411420162
 31
0.0
  0
LINE
  5
A8C1
  8
0
 10
284.8156027586835
 20
556.36326411420123
 30
0.0
 11
315.8156027586835
 21
556.36326411420123
 31
0.0
  0
ARC
  5
A8C2
  8
0
 10
299.31560275868338
 20
553.86326411420123
 30
0.0
 40
9.0
 50
16.127620000008179
 51
163.87239100000991
  0
ARC
  5
A8C3
  8
0
 10
299.31560275868338
 20
553.86326411420123
 30
0.0
 40
5.5
 50
27.035691999997152
 51
152.9643080000028
  0
LINE
  5
A8C4
  8
0
 10
284.8156027586835
 20
551.36326411420123
 30
0.0
 11
315.8156027586835
 21
551.36326411420123
 31
0.0
  0
ARC
  5
A8C5
  8
0
 10
299.31560275868338
 20
553.86326411420123
 30
0.0
 40
9.0
 50
196.12760899999009
 51
343.87237999999178
  0
ARC
  5
A8C6
  8
0
 10
299.31560275868338
 20
553.86326411420123
 30
0.0
 40
5.5
 50
207.0356919999972
 51
332.96430800000292
  0
LINE
  5
A8C7
  8
0
 10
315.8156027586835
 20
650.86326411420123
 30
0.0
 11
315.8156027586835
 21
556.36326411420123
 31
0.0
  0
LINE
  5
A8C8
  8
0
 10
284.8156027586835
 20
556.36326411420123
 30
0.0
 11
284.31560275868338
 21
556.86326411420123
 31
0.0
  0
LINE
  5
A8C9
  8
0
 10
284.8156027586835
 20
551.36326411420123
 30
0.0
 11
284.31560275868338
 21
550.86326411420123
 31
0.0
  0
LINE
  5
A8CA
  8
0
 10
315.8156027586835
 20
556.36326411420123
 30
0.0
 11
316.31560275868338
 21
556.86326411420123
 31
0.0
  0
LINE
  5
A8CB
  8
0
 10
315.8156027586835
 20
551.36326411420123
 30
0.0
 11
316.31560275868338
 21
550.86326411420123
 31
0.0
  0
LINE
  5
A8CC
  8
0
 10
316.31560275868338
 20
556.86326411420123
 30
0.0
 11
318.31560275868338
 21
556.86326411420123
 31
0.0
  0
LINE
  5
A8CD
  8
0
 10
316.31560275868338
 20
550.86326411420123
 30
0.0
 11
318.31560275868338
 21
550.86326411420123
 31
0.0
  0
LINE
  5
A8CE
  8
0
 10
318.31560275868338
 20
556.86326411420123
 30
0.0
 11
318.31560275868338
 21
550.86326411420123
 31
0.0
  0
LINE
  5
A8CF
  8
0
 10
404.31560275868333
 20
654.86326411420123
 30
0.0
 11
426.31560275868333
 21
654.86326411420123
 31
0.0
  0
LINE
  5
A8D0
  8
0
 10
404.31560275868333
 20
654.86326411420123
 30
0.0
 11
404.31560275868333
 21
650.95998311420124
 31
0.0
  0
LINE
  5
A8D1
  8
0
 10
426.31560275868333
 20
654.86326411420123
 30
0.0
 11
426.31560275868333
 21
650.95998311420124
 31
0.0
  0
LINE
  5
A8D2
  8
0
 10
284.31560275868338
 20
550.86326411420123
 30
0.0
 11
216.3240707586834
 21
550.86326411420123
 31
0.0
  0
LINE
  5
A8D3
  8
0
 10
315.8156027586835
 20
456.86326411420129
 30
0.0
 11
212.31447375868339
 21
456.86326411420129
 31
0.0
  0
LINE
  5
A8D4
  8
0
 10
315.8156027586835
 20
650.86326411420123
 30
0.0
 11
212.31447375868339
 21
650.86326411420123
 31
0.0
  0
LINE
  5
A8D5
  8
0
 10
320.07560275868337
 20
611.56326411420162
 30
0.0
 11
515.55560275868345
 21
611.56326411420162
 31
0.0
  0
LINE
  5
A8D6
  8
0
 10
320.07560275868337
 20
613.16326411420152
 30
0.0
 11
515.55560275868345
 21
613.16326411420152
 31
0.0
  0
LINE
  5
A8D7
  8
0
 10
318.31560275868338
 20
611.02326411420165
 30
0.0
 11
517.31560275868344
 21
611.02326411420165
 31
0.0
  0
LINE
  5
A8D8
  8
0
 10
318.31560275868338
 20
613.72326411420147
 30
0.0
 11
517.31560275868344
 21
613.72326411420147
 31
0.0
  0
LINE
  5
A8D9
  8
0
 10
318.31560275868338
 20
603.04826411420174
 30
0.0
 11
517.31560275868344
 21
603.04826411420174
 31
0.0
  0
LINE
  5
A8DA
  8
0
 10
318.31560275868338
 20
605.67826411420174
 30
0.0
 11
517.31560275868344
 21
605.67826411420174
 31
0.0
  0
LINE
  5
A8DB
  8
0
 10
320.07560275868337
 20
603.53826411420152
 30
0.0
 11
515.55560275868345
 21
603.53826411420152
 31
0.0
  0
LINE
  5
A8DC
  8
0
 10
320.07560275868337
 20
605.13826411420132
 30
0.0
 11
515.55560275868345
 21
605.13826411420132
 31
0.0
  0
LINE
  5
A8DD
  8
0
 10
522.31560275868344
 20
468.86326411420129
 30
0.0
 11
519.31560275868344
 21
465.86326411420129
 31
0.0
  0
LINE
  5
A8DE
  8
0
 10
522.31560275868344
 20
468.86326411420129
 30
0.0
 11
522.31560275868344
 21
638.86326411420123
 31
0.0
  0
LINE
  5
A8DF
  8
0
 10
522.31560275868344
 20
638.86326411420123
 30
0.0
 11
519.31560275868344
 21
641.86326411420123
 31
0.0
  0
LINE
  5
B363
  8
0
 10
522.31560275868299
 20
1003.1023737040369
 30
0.0
 11
539.31560275868287
 21
1003.1023737040369
 31
0.0
  0
LINE
  5
B364
  8
0
 10
522.31560275868299
 20
1015.4100127040369
 30
0.0
 11
539.31560275868287
 21
1015.4100127040369
 31
0.0
  0
LINE
  5
B365
  8
0
 10
522.31560275868299
 20
1025.589304704037
 30
0.0
 11
539.31560275868287
 21
1025.589304704037
 31
0.0
  0
LINE
  5
B366
  8
0
 10
522.31560275868299
 20
1127.3779727040369
 30
0.0
 11
539.31560275868287
 21
1127.3779727040369
 31
0.0
  0
LINE
  5
B367
  8
0
 10
522.31560275868299
 20
1141.051654704037
 30
0.0
 11
539.31560275868287
 21
1141.051654704037
 31
0.0
  0
LINE
  5
B368
  8
0
 10
522.31560275868299
 20
1149.1756597040369
 30
0.0
 11
539.31560275868287
 21
1149.1756597040369
 31
0.0
  0
LINE
  5
B369
  8
0
  6
AM_ISO08W050
 10
181.52433433036271
 20
1065.312010704037
 30
0.0
 11
941.93280275868199
 21
1065.312010704037
 31
0.0
  0
LINE
  5
B36A
  8
0
  6
CONTINUOUS
 10
843.31561275868228
 20
1095.312010704037
 30
0.0
 11
849.31555275868266
 21
1095.312010704037
 31
0.0
  0
LINE
  5
B36B
  8
0
  6
CONTINUOUS
 10
843.31561275868228
 20
1035.312010704037
 30
0.0
 11
849.31555275868266
 21
1035.312010704037
 31
0.0
  0
LINE
  5
B36C
  8
0
  6
CONTINUOUS
 10
869.31555275868243
 20
1073.312010704037
 30
0.0
 11
869.31555275868243
 21
1057.3119507040369
 31
0.0
  0
LINE
  5
B36D
  8
0
  6
CONTINUOUS
 10
849.31555275868266
 20
1037.812010704037
 30
0.0
 11
931.31555275868266
 21
1037.812010704037
 31
0.0
  0
LINE
  5
B36E
  8
0
  6
CONTINUOUS
 10
931.31555275868266
 20
1092.812010704037
 30
0.0
 11
931.31555275868266
 21
1037.812010704037
 31
0.0
  0
LINE
  5
B36F
  8
0
  6
CONTINUOUS
 10
849.31555275868266
 20
1095.312010704037
 30
0.0
 11
849.31555275868266
 21
1035.312010704037
 31
0.0
  0
LINE
  5
B370
  8
0
  6
CONTINUOUS
 10
849.31555275868266
 20
1092.812010704037
 30
0.0
 11
931.31555275868266
 21
1092.812010704037
 31
0.0
  0
LINE
  5
B371
  8
0
  6
CONTINUOUS
 10
778.31561275868205
 20
1222.4454307040371
 30
0.0
 11
778.31561275868205
 21
1193.900260704037
 31
0.0
  0
LINE
  5
B372
  8
0
  6
CONTINUOUS
 10
696.31561275868194
 20
1198.3119507040369
 30
0.0
 11
721.31561275868194
 21
1197.4389607040371
 31
0.0
  0
LINE
  5
B373
  8
0
  6
CONTINUOUS
 10
721.31561275868194
 20
1197.4389607040371
 30
0.0
 11
725.46032275868254
 21
1193.294250704037
 31
0.0
  0
LINE
  5
B374
  8
0
  6
CONTINUOUS
 10
725.46032275868254
 20
1193.294180704037
 30
0.0
 11
775.15557275868252
 21
1191.5588307040371
 31
0.0
  0
LINE
  5
B375
  8
0
  6
CONTINUOUS
 10
789.89678275868255
 20
1181.9075307040359
 30
0.0
 11
803.59484275868249
 21
1181.429190704037
 31
0.0
  0
LINE
  5
B376
  8
0
  6
CONTINUOUS
 10
701.31561275868194
 20
1215.370540704037
 30
0.0
 11
701.31561275868194
 21
1198.137390704037
 31
0.0
  0
LINE
  5
B377
  8
0
  6
CONTINUOUS
 10
819.03643275868251
 20
1165.0423507040371
 30
0.0
 11
830.59478275868253
 21
1164.638730704037
 31
0.0
  0
LINE
  5
B378
  8
0
  6
CENTER
 10
796.63873275868229
 20
1197.812010704037
 30
0.0
 11
830.24438275868215
 21
1197.812010704037
 31
0.0
  0
LINE
  5
B379
  8
0
  6
CONTINUOUS
 10
696.31561275868194
 20
1198.312010704037
 30
0.0
 11
696.31561275868194
 21
1070.312010704037
 31
0.0
  0
LINE
  5
B37A
  8
0
  6
CONTINUOUS
 10
843.31561275868228
 20
1220.5247807040371
 30
0.0
 11
843.31561275868228
 21
1170.0991807040371
 31
0.0
  0
LINE
  5
B37B
  8
0
  6
CONTINUOUS
 10
840.24578275868248
 20
1125.419180704037
 30
0.0
 11
841.38543275868267
 21
1125.379390704037
 31
0.0
  0
LINE
  5
B37C
  8
0
  6
CONTINUOUS
 10
613.31561275868216
 20
1222.410520704037
 30
0.0
 11
613.31561275868216
 21
1180.024290704037
 31
0.0
  0
LINE
  5
B37D
  8
0
  6
CONTINUOUS
 10
843.31561275868228
 20
1123.3806107040371
 30
0.0
 11
843.31561275868228
 21
1007.243400704037
 31
0.0
  0
LINE
  5
B37E
  8
0
  6
CONTINUOUS
 10
838.31561275868216
 20
1162.6829807040369
 30
0.0
 11
838.31561275868216
 21
967.94104070403773
 31
0.0
  0
LINE
  5
B37F
  8
0
  6
CONTINUOUS
 10
617.44738275868224
 20
1175.100210704037
 30
0.0
 11
640.31555275868243
 21
1171.0679307040371
 31
0.0
  0
LINE
  5
B380
  8
0
  6
CONTINUOUS
 10
701.31561275868194
 20
1230.312010704037
 30
0.0
 11
838.49011275868224
 21
1225.5217207040371
 31
0.0
  0
LINE
  5
B381
  8
0
  6
CONTINUOUS
 10
701.31561275868194
 20
1230.312010704037
 30
0.0
 11
618.14105275868258
 21
1227.407470704037
 31
0.0
  0
LINE
  5
B382
  8
0
  6
CENTER
 10
626.52075275868253
 20
1197.812010704037
 30
0.0
 11
659.70196275868216
 21
1197.812010704037
 31
0.0
  0
LINE
  5
B383
  8
0
  6
CENTER
 10
643.31561275868239
 20
1215.1735207040369
 30
0.0
 11
643.31561275868239
 21
1180.352530704037
 31
0.0
  0
LINE
  5
B384
  8
0
  6
CENTER
 10
813.31561275868216
 20
1215.263550704037
 30
0.0
 11
813.31561275868216
 21
1180.365410704037
 31
0.0
  0
LINE
  5
B385
  8
0
  6
CONTINUOUS
 10
672.31561275868205
 20
1217.1386707040369
 30
0.0
 11
699.31567275868213
 21
1207.592280704037
 31
0.0
  0
LINE
  5
B386
  8
0
  6
CONTINUOUS
 10
668.85186275868261
 20
1228.9700307040371
 30
0.0
 11
699.31561275868205
 21
1218.198970704037
 31
0.0
  0
LINE
  5
B387
  8
0
  6
CENTER
 10
813.31561275868216
 20
915.22045070403772
 30
0.0
 11
813.31561275868216
 21
949.76586070403755
 31
0.0
  0
LINE
  5
B388
  8
0
  6
CENTER
 10
643.31561275868239
 20
916.25939070403717
 30
0.0
 11
643.31561275868239
 21
949.76586070403755
 31
0.0
  0
LINE
  5
B389
  8
0
  6
CENTER
 10
627.56390275868216
 20
932.81201070403733
 30
0.0
 11
660.55090275868235
 21
932.81201070403733
 31
0.0
  0
LINE
  5
B38A
  8
0
  6
CONTINUOUS
 10
701.31561275868194
 20
900.3120107040379
 30
0.0
 11
618.14111275868186
 21
903.21655070403733
 31
0.0
  0
LINE
  5
B38B
  8
0
  6
CONTINUOUS
 10
701.31555275868254
 20
900.31195070403749
 30
0.0
 11
838.49011275868224
 21
905.10223070403765
 31
0.0
  0
LINE
  5
B38C
  8
0
  6
CONTINUOUS
 10
617.44732275868262
 20
955.52374070403721
 30
0.0
 11
640.31555275868243
 21
959.55603070403788
 31
0.0
  0
LINE
  5
B38D
  8
0
  6
CONTINUOUS
 10
613.31561275868216
 20
908.21350070403719
 30
0.0
 11
613.31561275868216
 21
950.59973070403737
 31
0.0
  0
LINE
  5
B38E
  8
0
  6
CONTINUOUS
 10
840.24578275868248
 20
1005.204830704037
 30
0.0
 11
841.38543275868267
 21
1005.2446207040369
 31
0.0
  0
LINE
  5
B38F
  8
0
  6
CONTINUOUS
 10
843.31561275868228
 20
910.09918070403717
 30
0.0
 11
843.31561275868228
 21
960.52478070403765
 31
0.0
  0
LINE
  5
B390
  8
0
  6
CENTER
 10
795.35595275868252
 20
932.81201070403733
 30
0.0
 11
830.94030275868261
 21
932.81201070403733
 31
0.0
  0
LINE
  5
B391
  8
0
  6
CONTINUOUS
 10
811.31561275868216
 20
957.18988070403668
 30
0.0
 11
811.31561275868216
 21
1173.4340807040369
 31
0.0
  0
LINE
  5
B392
  8
0
  6
CONTINUOUS
 10
819.03643275868251
 20
965.58160070403733
 30
0.0
 11
830.59478275868253
 21
965.9852207040376
 31
0.0
  0
LINE
  5
B393
  8
0
  6
CONTINUOUS
 10
789.89678275868255
 20
948.71643070403729
 30
0.0
 11
803.59478275868253
 21
949.19476070403755
 31
0.0
  0
LINE
  5
B394
  8
0
  6
CONTINUOUS
 10
725.46032275868254
 20
937.32977070403774
 30
0.0
 11
775.15557275868252
 21
939.06512070403744
 31
0.0
  0
LINE
  5
B395
  8
0
  6
CONTINUOUS
 10
721.31561275868194
 20
933.18499070403766
 30
0.0
 11
725.46032275868254
 21
937.32977070403774
 31
0.0
  0
LINE
  5
B396
  8
0
  6
CONTINUOUS
 10
696.31555275868266
 20
932.31201070403745
 30
0.0
 11
721.31555275868266
 21
933.18499070403766
 31
0.0
  0
LINE
  5
B397
  8
0
  6
CONTINUOUS
 10
668.85186275868261
 20
901.65399070403726
 30
0.0
 11
699.31561275868205
 21
912.4250407040372
 31
0.0
  0
LINE
  5
B398
  8
0
  6
CONTINUOUS
 10
672.31561275868205
 20
913.48529070403765
 30
0.0
 11
699.31567275868213
 21
923.03167070403765
 31
0.0
  0
LINE
  5
B399
  8
0
  6
CONTINUOUS
 10
701.31561275868194
 20
915.25341070403749
 30
0.0
 11
701.31561275868194
 21
932.48657070403749
 31
0.0
  0
LINE
  5
B39A
  8
0
  6
CONTINUOUS
 10
778.31561275868205
 20
908.17852070403751
 30
0.0
 11
778.31561275868205
 21
936.72375070403734
 31
0.0
  0
LINE
  5
B39B
  8
0
  6
CONTINUOUS
 10
721.31555275868266
 20
933.18499070403766
 30
0.0
 11
721.31555275868266
 21
1197.4389607040371
 31
0.0
  0
LINE
  5
B39C
  8
0
  6
CONTINUOUS
 10
869.31561275868216
 20
1057.3119507040369
 30
0.0
 11
931.31555275868266
 21
1057.3119507040369
 31
0.0
  0
LINE
  5
B39D
  8
0
  6
CONTINUOUS
 10
869.31561275868216
 20
1073.312010704037
 30
0.0
 11
931.31555275868266
 21
1073.312010704037
 31
0.0
  0
LINE
  5
B39E
  8
0
  6
CONTINUOUS
 10
696.31561275868194
 20
932.31201070403745
 30
0.0
 11
671.14111275868265
 21
933.19116070403766
 31
0.0
  0
LINE
  5
B39F
  8
0
  6
CONTINUOUS
 10
696.31555275868266
 20
1198.312010704037
 30
0.0
 11
671.14105275868224
 21
1197.432860704037
 31
0.0
  0
LINE
  5
B3A0
  8
0
  6
CONTINUOUS
 10
661.49005275868217
 20
1177.335510704037
 30
0.0
 11
645.14105275868224
 21
1176.7645807040369
 31
0.0
  0
LINE
  5
B3A1
  8
0
  6
CONTINUOUS
 10
661.49005275868217
 20
953.28845070403725
 30
0.0
 11
645.14105275868224
 21
953.85937070403656
 31
0.0
  0
LINE
  5
B3A2
  8
0
  6
CONTINUOUS
 10
640.31555275868243
 20
958.85632070403733
 30
0.0
 11
640.31555275868243
 21
1171.767700704037
 31
0.0
  0
LINE
  5
B3A3
  8
0
  6
CENTER
 10
678.31561275868205
 20
1050.131710704037
 30
0.0
 11
678.31561275868205
 21
1079.866570704037
 31
0.0
  0
LINE
  5
B3A4
  8
0
  6
CONTINUOUS
 10
658.31561275868216
 20
1060.312010704037
 30
0.0
 11
698.31561275868228
 21
1060.312010704037
 31
0.0
  0
LINE
  5
B3A5
  8
0
  6
CONTINUOUS
 10
658.31561275868216
 20
1070.312010704037
 30
0.0
 11
698.31561275868228
 21
1070.312010704037
 31
0.0
  0
LINE
  5
B3A6
  8
0
  6
CONTINUOUS
 10
696.31561275868194
 20
1060.312010704037
 30
0.0
 11
696.31561275868194
 21
932.31201070403745
 31
0.0
  0
LINE
  5
B3A7
  8
0
  6
CONTINUOUS
 10
666.31555275868209
 20
938.18811070403763
 30
0.0
 11
666.31555275868209
 21
1054.776420704037
 31
0.0
  0
LINE
  5
B3A8
  8
0
  6
CONTINUOUS
 10
666.31555275868209
 20
1075.8475307040369
 30
0.0
 11
666.31555275868209
 21
1192.435910704037
 31
0.0
  0
LINE
  5
B3A9
  8
0
  6
CONTINUOUS
 10
619.31555275868243
 20
992.30578070403703
 30
0.0
 11
640.31555275868243
 21
992.30578070403703
 31
0.0
  0
LINE
  5
B3AA
  8
0
  6
CONTINUOUS
 10
619.31555275868243
 20
1008.536190704037
 30
0.0
 11
640.31555275868243
 21
1008.536190704037
 31
0.0
  0
LINE
  5
B3AB
  8
0
  6
CONTINUOUS
 10
619.31555275868243
 20
1122.087760704037
 30
0.0
 11
640.31555275868243
 21
1122.087760704037
 31
0.0
  0
LINE
  5
B3AC
  8
0
  6
CONTINUOUS
 10
619.31555275868243
 20
1148.5071407040371
 30
0.0
 11
640.31555275868243
 21
1148.5071407040371
 31
0.0
  0
LINE
  5
B3AD
  8
0
  6
CONTINUOUS
 10
619.31555275868243
 20
1148.5071407040371
 30
0.0
 11
619.31555275868243
 21
1122.087760704037
 31
0.0
  0
LINE
  5
B3AE
  8
0
  6
CONTINUOUS
 10
619.31555275868243
 20
1008.536190704037
 30
0.0
 11
619.31555275868243
 21
982.11682070403788
 31
0.0
  0
LINE
  5
B3AF
  8
0
  6
CONTINUOUS
 10
619.31555275868243
 20
982.11682070403788
 30
0.0
 11
640.31555275868243
 21
982.11682070403788
 31
0.0
  0
LINE
  5
B3B0
  8
0
  6
CONTINUOUS
 10
617.31561275868216
 20
967.8119507040376
 30
0.0
 11
635.49011275868259
 21
967.17730070403775
 31
0.0
  0
LINE
  5
B3B1
  8
0
  6
CONTINUOUS
 10
619.31555275868243
 20
1138.3181707040369
 30
0.0
 11
640.31555275868243
 21
1138.3181707040369
 31
0.0
  0
LINE
  5
B3B2
  8
0
  6
CONTINUOUS
 10
617.31567275868213
 20
1162.812010704037
 30
0.0
 11
635.49017275868243
 21
1163.446650704037
 31
0.0
  0
LINE
  5
B3B3
  8
0
  6
CONTINUOUS
 10
617.31567275868213
 20
1162.812010704037
 30
0.0
 11
617.31567275868213
 21
967.8120107040379
 31
0.0
  0
LINE
  5
B3B4
  8
0
  6
CONTINUOUS
 10
602.31561275868228
 20
982.61682070403776
 30
0.0
 11
617.31561275868216
 21
982.61682070403776
 31
0.0
  0
LINE
  5
B3B5
  8
0
  6
CONTINUOUS
 10
602.31561275868228
 20
992.8057807040376
 30
0.0
 11
617.31561275868216
 21
992.8057807040376
 31
0.0
  0
LINE
  5
B3B6
  8
0
  6
CONTINUOUS
 10
602.31561275868228
 20
1009.036190704037
 30
0.0
 11
617.31561275868216
 21
1009.036190704037
 31
0.0
  0
LINE
  5
B3B7
  8
0
  6
CONTINUOUS
 10
602.31561275868228
 20
1122.587760704037
 30
0.0
 11
617.31561275868216
 21
1122.587760704037
 31
0.0
  0
LINE
  5
B3B8
  8
0
  6
CONTINUOUS
 10
602.31561275868228
 20
1138.8181707040369
 30
0.0
 11
617.31561275868216
 21
1138.8181707040369
 31
0.0
  0
LINE
  5
B3B9
  8
0
  6
CONTINUOUS
 10
602.31561275868228
 20
1149.0071407040371
 30
0.0
 11
617.31561275868216
 21
1149.0071407040371
 31
0.0
  0
LINE
  5
B3BA
  8
0
  6
CONTINUOUS
 10
615.31561275868216
 20
966.31201070403745
 30
0.0
 11
617.31561275868216
 21
968.31201070403779
 31
0.0
  0
LINE
  5
B3BB
  8
0
  6
CONTINUOUS
 10
605.31555275868243
 20
1165.3119507040369
 30
0.0
 11
615.31555275868243
 21
1165.3119507040369
 31
0.0
  0
LINE
  5
B3BC
  8
0
  6
CONTINUOUS
 10
604.31561275868216
 20
966.31201070403745
 30
0.0
 11
615.31555275868243
 21
966.31201070403745
 31
0.0
  0
LINE
  5
B3BD
  8
0
  6
CONTINUOUS
 10
602.31561275868228
 20
968.31201070403779
 30
0.0
 11
602.31561275868228
 21
1162.312010704037
 31
0.0
  0
LINE
  5
B3BE
  8
0
  6
CONTINUOUS
 10
615.31561275868216
 20
1165.312010704037
 30
0.0
 11
617.31561275868216
 21
1163.312010704037
 31
0.0
  0
LINE
  5
B3BF
  8
0
  6
CONTINUOUS
 10
586.37811275868228
 20
1140.874510704037
 30
0.0
 11
600.85113275868218
 21
1155.3475307040369
 31
0.0
  0
LINE
  5
B3C0
  8
0
  6
CONTINUOUS
 10
522.31560275868299
 20
991.81201070403733
 30
0.0
 11
522.31560275868299
 21
1138.812010704037
 31
0.0
  0
LINE
  5
B3C1
  8
0
  6
CONTINUOUS
 10
586.37817275868213
 20
989.74951070403745
 30
0.0
 11
600.85113275868218
 21
975.27648070403734
 31
0.0
  0
ARC
  5
B3C2
  8
0
  6
CONTINUOUS
 10
803.31561275868216
 20
1173.4340807040369
 30
0.0
 40
8.0
 50
0.0
 51
87.999999999996476
  0
ARC
  5
B3C3
  8
0
  6
CONTINUOUS
 10
819.31561275868216
 20
1173.0374707040371
 30
0.0
 40
8.0
 50
180.000010000001
 51
267.99999999999648
  0
ARC
  5
B3C4
  8
0
  6
CONTINUOUS
 10
671.31561275868205
 20
1214.3102407040369
 30
0.0
 40
3.0
 50
70.527973000001808
 51
180.000010000001
  0
ARC
  5
B3C5
  8
0
  6
CONTINUOUS
 10
830.31561275868216
 20
1156.643610704037
 30
0.0
 40
8.0
 50
0.0
 51
87.999999999996476
  0
ARC
  5
B3C6
  8
0
  6
CONTINUOUS
 10
783.31561275868194
 20
1222.4454307040371
 30
0.0
 40
5.0
 50
87.999999999996476
 51
180.000010000001
  0
CIRCLE
  5
B3C7
  8
0
  6
CONTINUOUS
 10
643.31561275868239
 20
1197.812010704037
 30
0.0
 40
9.5
  0
ARC
  5
B3C8
  8
0
  6
CONTINUOUS
 10
841.31561275868228
 20
1123.3806107040371
 30
0.0
 40
2.0
 50
0.0
 51
87.999999999996476
  0
ARC
  5
B3C9
  8
0
  6
CONTINUOUS
 10
840.31561275868216
 20
1127.417960704038
 30
0.0
 40
2.0
 50
180.000010000001
 51
267.99999999999648
  0
ARC
  5
B3CA
  8
0
  6
CONTINUOUS
 10
618.31561275868239
 20
1222.410520704037
 30
0.0
 40
5.0
 50
91.999997999994306
 51
180.000010000001
  0
ARC
  5
B3CB
  8
0
  6
CONTINUOUS
 10
838.31561275868216
 20
1220.5247807040371
 30
0.0
 40
5.0
 50
0.0
 51
87.999999999996476
  0
ARC
  5
B3CC
  8
0
  6
CONTINUOUS
 10
838.31561275868216
 20
1170.0991807040371
 30
0.0
 40
5.0
 50
292.02430999999331
 51
0.0
  0
ARC
  5
B3CD
  8
0
  6
CONTINUOUS
 10
618.31561275868239
 20
1180.024290704037
 30
0.0
 40
5.0
 50
180.000010000001
 51
259.99998999999769
  0
CIRCLE
  5
B3CE
  8
0
  6
CONTINUOUS
 10
813.31561275868216
 20
1197.812010704037
 30
0.0
 40
9.5
  0
ARC
  5
B3CF
  8
0
  6
CONTINUOUS
 10
698.31561275868228
 20
1204.7638507040369
 30
0.0
 40
3.0
 50
0.0
 51
70.527973000001808
  0
ARC
  5
B3D0
  8
0
  6
CONTINUOUS
 10
698.31561275868228
 20
1215.370540704037
 30
0.0
 40
3.0
 50
0.0
 51
70.527973000001808
  0
CIRCLE
  5
B3D1
  8
0
  6
CONTINUOUS
 10
813.31561275868216
 20
932.81201070403733
 30
0.0
 40
9.5
  0
ARC
  5
B3D2
  8
0
  6
CONTINUOUS
 10
618.31561275868239
 20
950.59973070403737
 30
0.0
 40
5.0
 50
100.0000000000061
 51
180.000010000001
  0
ARC
  5
B3D3
  8
0
  6
CONTINUOUS
 10
838.31561275868216
 20
960.52478070403765
 30
0.0
 40
5.0
 50
0.0
 51
67.975689000004877
  0
ARC
  5
B3D4
  8
0
  6
CONTINUOUS
 10
838.31561275868216
 20
910.09918070403717
 30
0.0
 40
5.0
 50
272.00000000000352
 51
0.0
  0
ARC
  5
B3D5
  8
0
  6
CONTINUOUS
 10
618.31561275868239
 20
908.21350070403719
 30
0.0
 40
5.0
 50
180.000010000001
 51
267.99999999999648
  0
ARC
  5
B3D6
  8
0
  6
CONTINUOUS
 10
840.31561275868216
 20
1003.206050704037
 30
0.0
 40
2.0
 50
91.999997999994306
 51
180.000010000001
  0
ARC
  5
B3D7
  8
0
  6
CONTINUOUS
 10
841.31561275868228
 20
1007.243400704037
 30
0.0
 40
2.0
 50
272.00000000000352
 51
0.0
  0
CIRCLE
  5
B3D8
  8
0
  6
CONTINUOUS
 10
643.31561275868239
 20
932.81201070403733
 30
0.0
 40
9.5
  0
ARC
  5
B3D9
  8
0
  6
CONTINUOUS
 10
841.31561275868228
 20
1162.6829807040369
 30
0.0
 40
3.0
 50
112.02430999999331
 51
180.000010000001
  0
ARC
  5
B3DA
  8
0
  6
CONTINUOUS
 10
841.31561275868228
 20
967.94104070403773
 30
0.0
 40
3.0
 50
180.000010000001
 51
247.97569000000661
  0
ARC
  5
B3DB
  8
0
  6
CONTINUOUS
 10
830.31561275868216
 20
973.98034070403821
 30
0.0
 40
8.0
 50
272.00000000000352
 51
0.0
  0
ARC
  5
B3DC
  8
0
  6
CONTINUOUS
 10
819.31561275868216
 20
957.58648070403729
 30
0.0
 40
8.0
 50
91.999997999994306
 51
180.000010000001
  0
ARC
  5
B3DD
  8
0
  6
CONTINUOUS
 10
803.31561275868216
 20
957.18988070403668
 30
0.0
 40
8.0
 50
272.00000000000352
 51
0.0
  0
ARC
  5
B3DE
  8
0
  6
CONTINUOUS
 10
698.31561275868228
 20
915.25341070403749
 30
0.0
 40
3.0
 50
289.47202000000402
 51
0.0
  0
ARC
  5
B3DF
  8
0
  6
CONTINUOUS
 10
698.31561275868228
 20
925.86010070403745
 30
0.0
 40
3.0
 50
289.47202000000402
 51
0.0
  0
ARC
  5
B3E0
  8
0
  6
CONTINUOUS
 10
783.31561275868194
 20
908.17852070403751
 30
0.0
 40
5.0
 50
180.000010000001
 51
271.99999000000759
  0
ARC
  5
B3E1
  8
0
  6
CONTINUOUS
 10
671.31561275868205
 20
916.31372070403734
 30
0.0
 40
3.0
 50
180.000010000001
 51
289.47202999999951
  0
ARC
  5
B3E2
  8
0
  6
CONTINUOUS
 10
790.31561275868251
 20
1193.900260704037
 30
0.0
 40
12.0
 50
180.000010000001
 51
267.99999999999648
  0
ARC
  5
B3E3
  8
0
  6
CONTINUOUS
 10
774.9810127586826
 20
1186.5618807040371
 30
0.0
 40
5.0
 50
25.57351699999569
 51
87.999999999996476
  0
ARC
  5
B3E4
  8
0
  6
CONTINUOUS
 10
790.31561275868251
 20
936.72375070403734
 30
0.0
 40
12.0
 50
91.999997999994306
 51
180.000010000001
  0
ARC
  5
B3E5
  8
0
  6
CONTINUOUS
 10
774.9810127586826
 20
944.06213070403749
 30
0.0
 40
5.0
 50
272.00000000000352
 51
334.4264800000031
  0
ARC
  5
B3E6
  8
0
  6
CONTINUOUS
 10
869.31561275868216
 20
1065.3119507040369
 30
0.0
 40
8.0000113999999982
 50
90.00000299999769
 51
270.0
  0
ARC
  5
B3E7
  8
0
  6
CONTINUOUS
 10
645.31555275868209
 20
958.85632070403733
 30
0.0
 40
5.0
 50
180.000010000001
 51
267.99999999999648
  0
ARC
  5
B3E8
  8
0
  6
CONTINUOUS
 10
645.31555275868209
 20
1171.767700704037
 30
0.0
 40
5.0
 50
91.999997999994306
 51
180.000010000001
  0
ARC
  5
B3E9
  8
0
  6
CONTINUOUS
 10
678.31561275868205
 20
1065.312010704037
 30
0.0
 40
15.0
 50
148.21198000000069
 51
160.5287699999993
  0
ARC
  5
B3EA
  8
0
  6
CONTINUOUS
 10
678.31561275868205
 20
1065.312010704037
 30
0.0
 40
12.5
 50
23.578179999997541
 51
156.42182000000241
  0
ARC
  5
B3EB
  8
0
  6
CONTINUOUS
 10
658.31561275868216
 20
1065.312010704037
 30
0.0
 40
5.0
 50
90.00000299999769
 51
270.0
  0
ARC
  5
B3EC
  8
0
  6
CONTINUOUS
 10
698.31561275868228
 20
1065.312010704037
 30
0.0
 40
5.0
 50
270.0
 51
90.00000299999769
  0
ARC
  5
B3ED
  8
0
  6
CONTINUOUS
 10
678.31561275868205
 20
1065.312010704037
 30
0.0
 40
12.5
 50
203.5781799999975
 51
336.42182999999483
  0
ARC
  5
B3EE
  8
0
  6
CONTINUOUS
 10
678.31561275868205
 20
1065.312010704037
 30
0.0
 40
15.0
 50
199.4712300000007
 51
211.78801999999931
  0
ARC
  5
B3EF
  8
0
  6
CONTINUOUS
 10
671.31555275868266
 20
938.18811070403763
 30
0.0
 40
5.0
 50
180.000010000001
 51
267.99999999999648
  0
ARC
  5
B3F0
  8
0
  6
CONTINUOUS
 10
671.31555275868266
 20
1192.435910704037
 30
0.0
 40
5.0
 50
91.999997999994306
 51
180.000010000001
  0
ARC
  5
B3F1
  8
0
  6
CONTINUOUS
 10
661.31555275868243
 20
1054.776420704037
 30
0.0
 40
5.0
 50
0.0
 51
31.788018000003131
  0
ARC
  5
B3F2
  8
0
  6
CONTINUOUS
 10
661.31555275868243
 20
1075.8475307040369
 30
0.0
 40
5.0
 50
328.21198000000072
 51
0.0
  0
ARC
  5
B3F3
  8
0
  6
CONTINUOUS
 10
635.31561275868239
 20
1168.443600704037
 30
0.0
 40
5.0
 50
272.00000000000352
 51
0.0
  0
ARC
  5
B3F4
  8
0
  6
CONTINUOUS
 10
635.31561275868239
 20
962.18035070403744
 30
0.0
 40
5.0
 50
0.0
 51
87.999999999996476
  0
ARC
  5
B3F5
  8
0
  6
CONTINUOUS
 10
661.31555275868243
 20
948.2915007040375
 30
0.0
 40
5.0
 50
0.0
 51
87.999999999996476
  0
ARC
  5
B3F6
  8
0
  6
CONTINUOUS
 10
661.31555275868243
 20
1182.3325107040371
 30
0.0
 40
5.0
 50
272.00000000000352
 51
0.0
  0
ARC
  5
B3F7
  8
0
  6
CONTINUOUS
 10
597.31561275868228
 20
1158.883050704037
 30
0.0
 40
5.0
 50
315.00000000000921
 51
0.0
  0
ARC
  5
B3F8
  8
0
  6
CONTINUOUS
 10
605.31555275868243
 20
1162.312010704037
 30
0.0
 40
3.0
 50
90.00000299999769
 51
180.000010000001
  0
ARC
  5
B3F9
  8
0
  6
CONTINUOUS
 10
604.31561275868216
 20
968.31201070403779
 30
0.0
 40
2.0
 50
179.999989999999
 51
270.0
  0
ARC
  5
B3FA
  8
0
  6
CONTINUOUS
 10
597.31561275868228
 20
971.74096070403732
 30
0.0
 40
5.0
 50
0.0
 51
45.000000999994569
  0
POLYLINE
  5
B3FB
  8
0
  6
CONTINUOUS
 66
     1
 10
0.0
 20
0.0
 30
0.0
  0
VERTEX
  5
B3FC
  8
0
  6
CONTINUOUS
 10
586.37823275868175
 20
989.74945070403669
 30
0.0
 42
-0.1596124473007499
  0
VERTEX
  5
B3FD
  8
0
  6
CONTINUOUS
 10
550.81141747621461
 20
1035.9751407040369
 30
0.0
 42
-0.0654413168720544
  0
VERTEX
  5
B3FE
  8
0
  6
CONTINUOUS
 10
550.81141747621461
 20
1094.648890704048
 30
0.0
 42
-0.1601798227091995
  0
VERTEX
  5
B3FF
  8
0
  6
CONTINUOUS
 10
586.37817275868213
 20
1140.874510704037
 30
0.0
  0
SEQEND
  5
B400
  8
0
  0
LINE
  5
B401
  8
0
 10
522.31560275868299
 20
979.81201070403733
 30
0.0
 11
522.31560275868299
 21
1150.812010704037
 31
0.0
  0
LINE
  5
B402
  8
0
 10
539.31560275868287
 20
979.21835762267756
 30
0.0
 11
539.31560275868287
 21
1151.4056637853971
 31
0.0
  0
LINE
  5
B403
  8
0
 10
522.31560275868299
 20
1150.812010704037
 30
0.0
 11
598.99325539143899
 21
1153.4896533367939
 31
0.0
  0
LINE
  5
B404
  8
0
 10
522.31560275868299
 20
979.81201070403733
 30
0.0
 11
598.99325434056641
 21
977.13436810797839
 31
0.0
  0
ARC
  5
B405
  8
0
 10
323.25917675868288
 20
982.91133070403725
 30
0.0
 40
2.0
 50
190.000000000005
 51
270.0
  0
LINE
  5
B406
  8
0
 10
321.28956175868279
 20
982.56403470403734
 30
0.0
 11
318.31553275868288
 21
999.43058870403718
 31
0.0
  0
LINE
  5
B407
  8
0
 10
318.31553275868288
 20
999.43058870403718
 30
0.0
 11
319.37727175868292
 21
999.43058870403718
 31
0.0
  0
LINE
  5
B408
  8
0
 10
516.77967375868286
 20
1151.484317704037
 30
0.0
 11
517.31553275868282
 21
1151.484317704037
 31
0.0
  0
LINE
  5
B409
  8
0
 10
517.04006475868289
 20
1153.0465747040371
 30
0.0
 11
517.31553275868282
 21
1153.0465747040371
 31
0.0
  0
LINE
  5
B40A
  8
0
 10
518.99373175868288
 20
977.31216170403718
 30
0.0
 11
519.31553275868282
 21
977.31216170403718
 31
0.0
  0
LINE
  5
B40B
  8
0
 10
515.13613775868282
 20
982.16002470403737
 30
0.0
 11
517.31553275868282
 21
982.16002470403737
 31
0.0
  0
LINE
  5
B40C
  8
0
 10
516.14222075868304
 20
994.26559470403731
 30
0.0
 11
517.31553275868282
 21
994.26559470403731
 31
0.0
  0
LINE
  5
B40D
  8
0
 10
415.31553275868259
 20
957.65604570403718
 30
0.0
 11
415.31553275868259
 21
966.83776170403735
 31
0.0
  0
ARC
  5
B40E
  8
0
 10
513.55841275868283
 20
1154.3202587040371
 30
0.0
 40
2.0
 50
10.00000000000502
 51
90.0
  0
ARC
  5
B40F
  8
0
 10
513.62442975868282
 20
1157.861057704037
 30
0.0
 40
2.0
 50
10.00000000000502
 51
90.0
  0
ARC
  5
B410
  8
0
 10
513.71034775868304
 20
1160.412794704037
 30
0.0
 40
2.0
 50
10.00000000000502
 51
90.0
  0
ARC
  5
B411
  8
0
 10
513.73909675868288
 20
1161.812010704037
 30
0.0
 40
2.0
 50
10.00000000000502
 51
90.0
  0
LINE
  5
B412
  8
0
 10
522.31553575868304
 20
1150.312010704037
 30
0.0
 11
519.31553575868304
 21
1153.312010704037
 31
0.0
  0
LINE
  5
B413
  8
0
 10
315.81553275868288
 20
1162.3119847040371
 30
0.0
 11
315.81553275868288
 21
968.31201070403733
 31
0.0
  0
LINE
  5
B414
  8
0
 10
517.26872875868276
 20
1153.312010704037
 30
0.0
 11
519.31553275868282
 21
1153.312010704037
 31
0.0
  0
LINE
  5
B415
  8
0
 10
522.31553275868282
 20
980.31201070403722
 30
0.0
 11
519.31553275868282
 21
977.31201070403733
 31
0.0
  0
LINE
  5
B416
  8
0
 10
519.31553275868282
 20
977.31201070403733
 30
0.0
 11
519.31553275868282
 21
1002.932396704037
 31
0.0
  0
LINE
  5
B417
  8
0
 10
522.31553275868282
 20
980.31201070403722
 30
0.0
 11
522.31553275868282
 21
1150.312010704037
 31
0.0
  0
CIRCLE
  5
B418
  8
0
 10
415.31553275868259
 20
1065.312010704037
 30
0.0
 40
11.0
  0
LINE
  5
B419
  8
0
 10
322.60165275868292
 20
1163.812010704037
 30
0.0
 11
374.31553275868288
 21
1163.812010704037
 31
0.0
  0
LINE
  5
B41A
  8
0
 10
454.31553275868288
 20
1156.3202587040371
 30
0.0
 11
454.31553275868288
 21
1161.812010704037
 31
0.0
  0
LINE
  5
B41B
  8
0
 10
376.31553275868288
 20
1156.3202587040371
 30
0.0
 11
376.31553275868288
 21
1161.812010704037
 31
0.0
  0
ARC
  5
B41C
  8
0
 10
374.31553275868288
 20
1161.812010704037
 30
0.0
 40
2.0
 50
0.0
 51
90.0
  0
ARC
  5
B41D
  8
0
 10
456.31553275868271
 20
1161.812010704037
 30
0.0
 40
2.0
 50
90.0
 51
180.0
  0
LINE
  5
B41E
  8
0
 10
456.31553275868271
 20
1163.812010704037
 30
0.0
 11
513.73909675868288
 21
1163.812010704037
 31
0.0
  0
LINE
  5
B41F
  8
0
 10
513.71034775868304
 20
1162.412794704037
 30
0.0
 11
456.31553275868271
 21
1162.412794704037
 31
0.0
  0
LINE
  5
B420
  8
0
 10
517.31553275868282
 20
1151.484317704037
 30
0.0
 11
515.6799637586829
 21
1160.7600907040371
 31
0.0
  0
LINE
  5
B421
  8
0
 10
517.31553275868282
 20
1153.0465747040371
 30
0.0
 11
515.70871175868274
 21
1162.1593067040369
 31
0.0
  0
LINE
  5
B422
  8
0
 10
318.31553275868288
 20
1149.021756704037
 30
0.0
 11
320.632037758683
 21
1162.1593067040369
 31
0.0
  0
ARC
  5
B423
  8
0
 10
322.60165275868292
 20
1161.812010704037
 30
0.0
 40
2.0
 50
90.0
 51
169.99999999999491
  0
LINE
  5
B424
  8
0
 10
318.31553275868288
 20
1147.3626957040369
 30
0.0
 11
320.67785475868288
 21
1160.7600907040371
 31
0.0
  0
ARC
  5
B425
  8
0
 10
322.64747075868303
 20
1160.412794704037
 30
0.0
 40
2.0
 50
90.0
 51
169.99999999999491
  0
ARC
  5
B426
  8
0
 10
374.31553275868288
 20
1160.412794704037
 30
0.0
 40
2.0
 50
0.0
 51
90.0
  0
ARC
  5
B427
  8
0
 10
456.31553275868271
 20
1160.412794704037
 30
0.0
 40
2.0
 50
90.0
 51
180.0
  0
LINE
  5
B428
  8
0
 10
374.31553275868288
 20
1162.412794704037
 30
0.0
 11
322.64747075868303
 21
1162.412794704037
 31
0.0
  0
LINE
  5
B429
  8
0
 10
513.62442975868282
 20
1159.861057704037
 30
0.0
 11
456.31553275868271
 21
1159.861057704037
 31
0.0
  0
LINE
  5
B42A
  8
0
 10
517.18675275868281
 20
1149.1756597040369
 30
0.0
 11
515.59404475868303
 21
1158.208354704037
 31
0.0
  0
LINE
  5
B42B
  8
0
 10
318.31553275868288
 20
1144.141904704037
 30
0.0
 11
320.795827758683
 21
1158.208354704037
 31
0.0
  0
ARC
  5
B42C
  8
0
 10
322.7654427586827
 20
1157.861057704037
 30
0.0
 40
2.0
 50
90.0
 51
169.99999999999491
  0
ARC
  5
B42D
  8
0
 10
374.31553275868288
 20
1157.861057704037
 30
0.0
 40
2.0
 50
0.0
 51
90.0
  0
ARC
  5
B42E
  8
0
 10
456.31553275868271
 20
1157.861057704037
 30
0.0
 40
2.0
 50
90.0
 51
180.0
  0
LINE
  5
B42F
  8
0
 10
374.31553275868288
 20
1159.861057704037
 30
0.0
 11
322.7654427586827
 21
1159.861057704037
 31
0.0
  0
LINE
  5
B430
  8
0
 10
513.55841275868283
 20
1156.3202587040371
 30
0.0
 11
322.926951758683
 21
1156.3202587040371
 31
0.0
  0
LINE
  5
B431
  8
0
 10
516.49639775868275
 20
1149.1756597040369
 30
0.0
 11
515.52802875868304
 21
1154.667554704037
 31
0.0
  0
LINE
  5
B432
  8
0
 10
318.31553275868288
 20
1139.6851447040369
 30
0.0
 11
320.95733575868292
 21
1154.667554704037
 31
0.0
  0
ARC
  5
B433
  8
0
 10
322.926951758683
 20
1154.3202587040371
 30
0.0
 40
2.0
 50
90.0
 51
169.99999999999491
  0
LINE
  5
B434
  8
0
 10
447.3718887586827
 20
1149.712690704037
 30
0.0
 11
323.25917675868288
 21
1149.712690704037
 31
0.0
  0
LINE
  5
B435
  8
0
 10
452.31553275868271
 20
1131.1934327040369
 30
0.0
 11
449.34150375868268
 21
1148.0599867040371
 31
0.0
  0
ARC
  5
B436
  8
0
 10
447.3718887586827
 20
1147.712690704037
 30
0.0
 40
2.0
 50
10.00000000000502
 51
90.0
  0
LINE
  5
B437
  8
0
 10
318.31553275868288
 20
1131.1934327040369
 30
0.0
 11
321.28956175868279
 21
1148.0599867040371
 31
0.0
  0
ARC
  5
B438
  8
0
 10
323.25917675868288
 20
1147.712690704037
 30
0.0
 40
2.0
 50
90.0
 51
169.99999999999491
  0
LINE
  5
B439
  8
0
 10
447.04162475868259
 20
1144.310646704037
 30
0.0
 11
323.58944075868311
 21
1144.310646704037
 31
0.0
  0
LINE
  5
B43A
  8
0
 10
452.09448175868289
 20
1125.1720107040369
 30
0.0
 11
449.01124075868279
 21
1142.6579437040371
 31
0.0
  0
ARC
  5
B43B
  8
0
 10
447.04162475868259
 20
1142.310646704037
 30
0.0
 40
2.0
 50
10.00000000000502
 51
90.0
  0
LINE
  5
B43C
  8
0
 10
318.59252675868299
 20
1125.4892787040369
 30
0.0
 11
321.61982475868302
 21
1142.6579437040371
 31
0.0
  0
ARC
  5
B43D
  8
0
 10
323.58944075868311
 20
1142.310646704037
 30
0.0
 40
2.0
 50
90.0
 51
169.99999999999491
  0
LINE
  5
B43E
  8
0
 10
517.31553275868282
 20
1070.342162704037
 30
0.0
 11
517.31553275868282
 21
1073.289854704037
 31
0.0
  0
LINE
  5
B43F
  8
0
 10
517.31553275868282
 20
1080.341638704037
 30
0.0
 11
517.31553275868282
 21
1083.303117704037
 31
0.0
  0
LINE
  5
B440
  8
0
 10
517.31553275868282
 20
1091.333818704037
 30
0.0
 11
517.31553275868282
 21
1094.326445704037
 31
0.0
  0
LINE
  5
B441
  8
0
 10
517.31553275868282
 20
1102.3166137040371
 30
0.0
 11
517.31553275868282
 21
1105.362319704037
 31
0.0
  0
LINE
  5
B442
  8
0
 10
517.31553275868282
 20
1113.2864927040371
 30
0.0
 11
517.31553275868282
 21
1116.417405704037
 31
0.0
  0
LINE
  5
B443
  8
0
 10
517.31553275868282
 20
1122.2449687040371
 30
0.0
 11
517.31553275868282
 21
1125.4892787040369
 31
0.0
  0
LINE
  5
B444
  8
0
 10
467.31553275868288
 20
1139.6851447040369
 30
0.0
 11
450.81821475868259
 21
1139.6851447040369
 31
0.0
  0
LINE
  5
B445
  8
0
 10
499.10230975868268
 20
1144.530112704037
 30
0.0
 11
483.31553275868288
 21
1144.530112704037
 31
0.0
  0
LINE
  5
B446
  8
0
 10
467.31553275868288
 20
1139.6851447040369
 30
0.0
 11
483.31553275868288
 21
1144.530112704037
 31
0.0
  0
LINE
  5
B447
  8
0
 10
483.31553275868288
 20
1144.530112704037
 30
0.0
 11
483.31553275868288
 21
1141.164797704037
 31
0.0
  0
LINE
  5
B448
  8
0
 10
467.31553275868288
 20
1139.6851447040369
 30
0.0
 11
467.31553275868288
 21
1125.4892787040369
 31
0.0
  0
LINE
  5
B449
  8
0
 10
502.81553275868259
 20
1128.3779727040369
 30
0.0
 11
502.81553275868259
 21
1147.1756597040369
 31
0.0
  0
ARC
  5
B44A
  8
0
 10
504.81553275868288
 20
1147.1756597040369
 30
0.0
 40
2.0
 50
90.0
 51
180.0
  0
LINE
  5
B44B
  8
0
 10
502.81553275868259
 20
1132.768070704037
 30
0.0
 11
483.31553275868288
 21
1132.768070704037
 31
0.0
  0
LINE
  5
B44C
  8
0
 10
497.41553875868283
 20
1141.164797704037
 30
0.0
 11
483.31553275868288
 21
1141.164797704037
 31
0.0
  0
LINE
  5
B44D
  8
0
 10
483.31553275868288
 20
1132.768070704037
 30
0.0
 11
483.31553275868288
 21
1125.4892787040369
 31
0.0
  0
ARC
  5
B44E
  8
0
  6
CONTINUOUS
 10
500.01533175868281
 20
1136.795276704037
 30
0.0
 40
2.6003989999999999
 50
179.99998200000081
 51
269.99997799999522
  0
ARC
  5
B44F
  8
0
  6
CONTINUOUS
 10
500.01533175868281
 20
1142.0952647040369
 30
0.0
 40
2.600403
 50
90.0
 51
179.99998200000081
  0
LINE
  5
B450
  8
0
  6
CONTINUOUS
 10
502.81553275868259
 20
1139.5112957040369
 30
0.0
 11
501.31553275868288
 21
1138.6452707040371
 31
0.0
  0
LINE
  5
B451
  8
0
  6
CONTINUOUS
 10
502.81553275868259
 20
1140.5112957040369
 30
0.0
 11
501.31553275868288
 21
1139.6452707040371
 31
0.0
  0
LINE
  5
B452
  8
0
  6
CONTINUOUS
 10
502.81553275868259
 20
1145.545270704037
 30
0.0
 11
502.81553275868259
 21
1133.3452707040369
 31
0.0
  0
LINE
  5
B453
  8
0
  6
CONTINUOUS
 10
501.31553275868288
 20
1145.545270704037
 30
0.0
 11
502.81553275868259
 21
1145.545270704037
 31
0.0
  0
LINE
  5
B454
  8
0
  6
CONTINUOUS
 10
501.31553275868288
 20
1133.3452707040369
 30
0.0
 11
502.81553275868259
 21
1133.3452707040369
 31
0.0
  0
LINE
  5
B455
  8
0
  6
CONTINUOUS
 10
497.41553875868283
 20
1142.0952647040369
 30
0.0
 11
497.41553875868283
 21
1136.795276704037
 31
0.0
  0
LINE
  5
B456
  8
0
  6
CONTINUOUS
 10
501.31553275868288
 20
1145.545270704037
 30
0.0
 11
501.31553275868288
 21
1133.3452707040369
 31
0.0
  0
LINE
  5
B457
  8
0
  6
CONTINUOUS
 10
501.31553275868288
 20
1134.1952707040371
 30
0.0
 11
500.01533175868281
 21
1134.1952707040371
 31
0.0
  0
LINE
  5
B458
  8
0
  6
CONTINUOUS
 10
501.31553275868288
 20
1144.6952707040371
 30
0.0
 11
500.01533175868281
 21
1144.6952707040371
 31
0.0
  0
LINE
  5
B459
  8
0
 10
522.31553275868282
 20
1149.1756597040369
 30
0.0
 11
504.81553275868288
 21
1149.1756597040369
 31
0.0
  0
LINE
  5
B45A
  8
0
 10
522.31553275868282
 20
1127.3779727040369
 30
0.0
 11
501.81553275868282
 21
1127.3779727040369
 31
0.0
  0
ARC
  5
B45B
  8
0
 10
501.81553275868282
 20
1128.3779727040369
 30
0.0
 40
1.0
 50
270.0
 51
0.0
  0
LINE
  5
B45C
  8
0
 10
522.31553275868282
 20
1141.051654704037
 30
0.0
 11
504.81553275868288
 21
1141.051654704037
 31
0.0
  0
LINE
  5
B45D
  8
0
 10
315.81553275868288
 20
1149.312010704037
 30
0.0
 11
318.31553275868288
 21
1149.312010704037
 31
0.0
  0
ARC
  5
B45E
  8
0
 10
518.99373175868288
 20
975.31201070403733
 30
0.0
 40
2.0
 50
90.0
 51
169.99999999999491
  0
ARC
  5
B45F
  8
0
 10
455.05817475868298
 20
970.31835370403735
 30
0.0
 40
1.9936590000000001
 50
90.075931000003507
 51
178.1702539999921
  0
LINE
  5
B460
  8
0
 10
455.05553275868277
 20
972.31201070403722
 30
0.0
 11
514.75569875868302
 21
972.31201070403722
 31
0.0
  0
LINE
  5
B461
  8
0
 10
452.81553275868259
 20
963.31201070403722
 30
0.0
 11
453.43156175868279
 21
980.91133070403725
 31
0.0
  0
LINE
  5
B462
  8
0
 10
517.02411675868291
 20
975.65930670403725
 30
0.0
 11
516.72531375868255
 21
973.96471470403719
 31
0.0
  0
ARC
  5
B463
  8
0
 10
514.75569875868302
 20
974.31201070403745
 30
0.0
 40
2.0
 50
270.0
 51
349.99999999999488
  0
LINE
  5
B464
  8
0
 10
318.8928827586829
 20
980.31201070403722
 30
0.0
 11
326.10976175868302
 21
967.81201070403722
 31
0.0
  0
LINE
  5
B465
  8
0
 10
327.84181175868321
 20
966.81201070403733
 30
0.0
 11
375.76050375868277
 21
966.81201070403733
 31
0.0
  0
LINE
  5
B466
  8
0
 10
377.81553275868299
 20
963.31201070403722
 30
0.0
 11
377.75922075868277
 21
964.88362570403717
 31
0.0
  0
ARC
  5
B467
  8
0
 10
317.160831758683
 20
979.31201070403733
 30
0.0
 40
2.0
 50
30.000000000000551
 51
90.0
  0
ARC
  5
B468
  8
0
 10
327.84181175868321
 20
968.81201070403745
 30
0.0
 40
2.0
 50
210.00000000000051
 51
270.0
  0
ARC
  5
B469
  8
0
 10
375.76050375868277
 20
964.81201070403733
 30
0.0
 40
2.0
 50
2.0520649999985339
 51
90.0
  0
LINE
  5
B46A
  8
0
 10
377.81553275868299
 20
963.31201070403722
 30
0.0
 11
452.81553275868259
 21
963.31201070403722
 31
0.0
  0
LINE
  5
B46B
  8
0
 10
326.84181175868309
 20
967.07995970403726
 30
0.0
 11
326.84181175868309
 21
980.91133070403725
 31
0.0
  0
LINE
  5
B46C
  8
0
 10
513.28261675868282
 20
980.91133070403725
 30
0.0
 11
323.25917675868288
 21
980.91133070403725
 31
0.0
  0
LINE
  5
B46D
  8
0
 10
513.06183075868273
 20
986.3133747040373
 30
0.0
 11
323.36838975868312
 21
986.3133747040373
 31
0.0
  0
LINE
  5
B46E
  8
0
 10
517.31553275868282
 20
1000.919776704037
 30
0.0
 11
483.31553275868288
 21
1000.919776704037
 31
0.0
  0
LINE
  5
B46F
  8
0
 10
517.31553275868282
 20
1000.919776704037
 30
0.0
 11
515.03144575868282
 21
987.96607770403716
 31
0.0
  0
ARC
  5
B470
  8
0
 10
513.06183075868273
 20
988.3133747040373
 30
0.0
 40
2.0
 50
270.0
 51
349.99999999999488
  0
LINE
  5
B471
  8
0
 10
517.31553275868282
 20
994.26559470403731
 30
0.0
 11
515.25223175868291
 21
982.56403470403734
 31
0.0
  0
ARC
  5
B472
  8
0
 10
513.28261675868282
 20
982.91133070403725
 30
0.0
 40
2.0
 50
270.0
 51
349.99999999999488
  0
LINE
  5
B473
  8
0
 10
322.0582707586828
 20
981.31201070403745
 30
0.0
 11
315.81553275868288
 21
981.31201070403745
 31
0.0
  0
LINE
  5
B474
  8
0
 10
517.31553275868282
 20
982.16002470403737
 30
0.0
 11
515.87047875868268
 21
973.96471470403719
 31
0.0
  0
ARC
  5
B475
  8
0
 10
513.90086275868282
 20
974.31201070403745
 30
0.0
 40
2.0
 50
270.0
 51
349.99999999999488
  0
LINE
  5
B476
  8
0
 10
452.31553275868271
 20
1017.152010704037
 30
0.0
 11
452.31553275868271
 21
1014.452010704037
 31
0.0
  0
LINE
  5
B477
  8
0
 10
522.31553275868282
 20
1003.1023737040369
 30
0.0
 11
504.81553275868288
 21
1003.1023737040369
 31
0.0
  0
LINE
  5
B478
  8
0
 10
522.31553275868282
 20
1015.4100127040369
 30
0.0
 11
504.81553275868288
 21
1015.4100127040369
 31
0.0
  0
LINE
  5
B479
  8
0
 10
522.31553275868282
 20
1025.589304704037
 30
0.0
 11
517.31553275868282
 21
1025.589304704037
 31
0.0
  0
LINE
  5
B47A
  8
0
 10
502.81553275868259
 20
1024.589304704037
 30
0.0
 11
502.81553275868259
 21
1005.1023737040369
 31
0.0
  0
ARC
  5
B47B
  8
0
 10
501.81553275868282
 20
1024.589304704037
 30
0.0
 40
1.0
 50
0.0
 51
42.252324000004279
  0
ARC
  5
B47C
  8
0
 10
504.81553275868288
 20
1005.1023737040369
 30
0.0
 40
2.0
 50
180.0
 51
270.0
  0
LINE
  5
B47D
  8
0
 10
467.31553275868288
 20
1122.2449687040371
 30
0.0
 11
467.31553275868288
 21
1116.417405704037
 31
0.0
  0
LINE
  5
B47E
  8
0
 10
483.31553275868288
 20
1122.2449687040371
 30
0.0
 11
483.31553275868288
 21
1116.417405704037
 31
0.0
  0
LINE
  5
B47F
  8
0
 10
467.31553275868288
 20
1113.2864927040371
 30
0.0
 11
467.31553275868288
 21
1105.362319704037
 31
0.0
  0
LINE
  5
B480
  8
0
 10
467.31553275868288
 20
1102.3166137040371
 30
0.0
 11
467.31553275868288
 21
1094.326445704037
 31
0.0
  0
LINE
  5
B481
  8
0
 10
467.31553275868288
 20
1091.333818704037
 30
0.0
 11
467.31553275868288
 21
1083.303117704037
 31
0.0
  0
LINE
  5
B482
  8
0
 10
467.31553275868288
 20
1080.341638704037
 30
0.0
 11
467.31553275868288
 21
1073.289854704037
 31
0.0
  0
LINE
  5
B483
  8
0
 10
467.31553275868288
 20
1070.4720107040371
 30
0.0
 11
467.31553275868288
 21
1060.2818587040369
 31
0.0
  0
LINE
  5
B484
  8
0
 10
483.31553275868288
 20
1070.4720107040371
 30
0.0
 11
483.31553275868288
 21
1060.2818587040369
 31
0.0
  0
LINE
  5
B485
  8
0
 10
483.31553275868288
 20
1080.341638704037
 30
0.0
 11
483.31553275868288
 21
1073.289854704037
 31
0.0
  0
LINE
  5
B486
  8
0
 10
483.31553275868288
 20
1091.333818704037
 30
0.0
 11
483.31553275868288
 21
1083.303117704037
 31
0.0
  0
LINE
  5
B487
  8
0
 10
483.31553275868288
 20
1102.3166137040371
 30
0.0
 11
483.31553275868288
 21
1094.326445704037
 31
0.0
  0
LINE
  5
B488
  8
0
 10
483.31553275868288
 20
1113.2864927040371
 30
0.0
 11
483.31553275868288
 21
1105.362319704037
 31
0.0
  0
LINE
  5
B489
  8
0
 10
467.31553275868288
 20
1057.334166704037
 30
0.0
 11
467.31553275868288
 21
1050.282382704037
 31
0.0
  0
LINE
  5
B48A
  8
0
 10
483.31553275868288
 20
1057.334166704037
 30
0.0
 11
483.31553275868288
 21
1050.282382704037
 31
0.0
  0
LINE
  5
B48B
  8
0
 10
483.31553275868288
 20
1047.3209037040369
 30
0.0
 11
483.31553275868288
 21
1039.290202704037
 31
0.0
  0
LINE
  5
B48C
  8
0
 10
467.31553275868288
 20
1047.3209037040369
 30
0.0
 11
467.31553275868288
 21
1039.290202704037
 31
0.0
  0
LINE
  5
B48D
  8
0
 10
467.31553275868288
 20
1036.2975757040369
 30
0.0
 11
467.31553275868288
 21
1028.3074077040369
 31
0.0
  0
LINE
  5
B48E
  8
0
 10
483.31553275868288
 20
1036.2975757040369
 30
0.0
 11
483.31553275868288
 21
1028.3074077040369
 31
0.0
  0
LINE
  5
B48F
  8
0
 10
497.86492775868282
 20
1009.291214704037
 30
0.0
 11
483.31553175868299
 21
1009.291214704037
 31
0.0
  0
LINE
  5
B490
  8
0
 10
502.81553275868259
 20
1020.703564704037
 30
0.0
 11
483.31553175868299
 21
1020.703564704037
 31
0.0
  0
LINE
  5
B491
  8
0
 10
467.31553275868288
 20
1025.261701704037
 30
0.0
 11
467.31553275868288
 21
1005.261701704037
 31
0.0
  0
LINE
  5
B492
  8
0
 10
519.31553275868282
 20
1149.1756597040369
 30
0.0
 11
519.31553275868282
 21
1153.312010704037
 31
0.0
  0
LINE
  5
B493
  8
0
 10
517.31553275868282
 20
979.11026670403726
 30
0.0
 11
516.40823275868274
 21
973.96471470403719
 31
0.0
  0
ARC
  5
B494
  8
0
 10
514.43861775868265
 20
974.31201070403745
 30
0.0
 40
2.0
 50
270.0
 51
349.99999999999488
  0
LINE
  5
B495
  8
0
 10
483.31553275868288
 20
1025.261701704037
 30
0.0
 11
483.31553275868288
 21
1020.703564704037
 31
0.0
  0
LINE
  5
B496
  8
0
 10
519.31553275868282
 20
1025.589304704037
 30
0.0
 11
519.31553275868282
 21
1127.3779727040369
 31
0.0
  0
LINE
  5
B497
  8
0
 10
318.31553275868288
 20
1005.452010704037
 30
0.0
 11
321.39877475868309
 21
987.96607770403716
 31
0.0
  0
ARC
  5
B498
  8
0
 10
323.36838975868312
 20
988.3133747040373
 30
0.0
 40
2.0
 50
190.000000000005
 51
270.0
  0
LINE
  5
B499
  8
0
 10
468.0209297586826
 20
1014.006304704037
 30
0.0
 11
483.31553275868288
 21
1009.291214704037
 31
0.0
  0
LINE
  5
B49A
  8
0
 10
483.31553275868288
 20
1020.703564704037
 30
0.0
 11
468.27959175868278
 21
1020.162813704037
 31
0.0
  0
LINE
  5
B49B
  8
0
 10
483.31553275868288
 20
1009.291214704037
 30
0.0
 11
483.31553275868288
 21
1000.919776704037
 31
0.0
  0
ARC
  5
B49C
  8
0
 10
468.31553275868282
 20
1019.163459704037
 30
0.0
 40
1.0
 50
92.059691000003568
 51
180.0
  0
ARC
  5
B49D
  8
0
 10
468.31553275868282
 20
1014.961924704037
 30
0.0
 40
1.0
 50
180.0
 51
252.86627500000029
  0
LINE
  5
B49E
  8
0
 10
483.31553275868288
 20
1141.164797704037
 30
0.0
 11
468.01507375868289
 21
1136.344931704037
 31
0.0
  0
LINE
  5
B49F
  8
0
 10
468.36408775868267
 20
1132.0412507040371
 30
0.0
 11
483.31553275868288
 21
1132.768070704037
 31
0.0
  0
ARC
  5
B4A0
  8
0
 10
468.31553275868282
 20
1135.3911367040371
 30
0.0
 40
1.0
 50
107.4851789999981
 51
180.0
  0
ARC
  5
B4A1
  8
0
 10
468.31553275868282
 20
1133.040071704037
 30
0.0
 40
1.0
 50
180.0
 51
270.0
  0
ARC
  5
B4A2
  8
0
  6
CONTINUOUS
 10
500.01533175868281
 20
1010.753349704037
 30
0.0
 40
2.6003989999999999
 50
179.99998200000081
 51
269.99997799999522
  0
ARC
  5
B4A3
  8
0
  6
CONTINUOUS
 10
500.01533175868281
 20
1016.0533377040369
 30
0.0
 40
2.600403
 50
90.0
 51
179.99998200000081
  0
LINE
  5
B4A4
  8
0
  6
CONTINUOUS
 10
502.81553275868259
 20
1013.469368704037
 30
0.0
 11
501.31553275868288
 21
1012.603343704037
 31
0.0
  0
LINE
  5
B4A5
  8
0
  6
CONTINUOUS
 10
502.81553275868259
 20
1014.469368704037
 30
0.0
 11
501.31553275868288
 21
1013.603343704037
 31
0.0
  0
LINE
  5
B4A6
  8
0
  6
CONTINUOUS
 10
502.81553275868259
 20
1019.503343704037
 30
0.0
 11
502.81553275868259
 21
1007.303343704037
 31
0.0
  0
LINE
  5
B4A7
  8
0
  6
CONTINUOUS
 10
501.31553275868288
 20
1019.503343704037
 30
0.0
 11
502.81553275868259
 21
1019.503343704037
 31
0.0
  0
LINE
  5
B4A8
  8
0
  6
CONTINUOUS
 10
501.31553275868288
 20
1007.303343704037
 30
0.0
 11
502.81553275868259
 21
1007.303343704037
 31
0.0
  0
LINE
  5
B4A9
  8
0
  6
CONTINUOUS
 10
497.41553875868283
 20
1016.0533377040369
 30
0.0
 11
497.41553875868283
 21
1010.753349704037
 31
0.0
  0
LINE
  5
B4AA
  8
0
  6
CONTINUOUS
 10
501.31553275868288
 20
1019.503343704037
 30
0.0
 11
501.31553275868288
 21
1007.303343704037
 31
0.0
  0
LINE
  5
B4AB
  8
0
  6
CONTINUOUS
 10
501.31553275868288
 20
1008.153343704037
 30
0.0
 11
500.01533175868281
 21
1008.153343704037
 31
0.0
  0
LINE
  5
B4AC
  8
0
  6
CONTINUOUS
 10
501.31553275868288
 20
1018.653343704037
 30
0.0
 11
500.01533175868281
 21
1018.653343704037
 31
0.0
  0
LINE
  5
B4AD
  8
0
 10
517.31553275868282
 20
1125.4892787040369
 30
0.0
 11
318.31553275868288
 21
1125.4892787040369
 31
0.0
  0
LINE
  5
B4AE
  8
0
 10
517.31553275868282
 20
1122.2449687040371
 30
0.0
 11
318.31553275868288
 21
1122.2449687040371
 31
0.0
  0
LINE
  5
B4AF
  8
0
 10
517.31553275868282
 20
1116.417405704037
 30
0.0
 11
318.31553275868288
 21
1116.417405704037
 31
0.0
  0
LINE
  5
B4B0
  8
0
 10
517.31553275868282
 20
1113.2864927040371
 30
0.0
 11
318.31553275868288
 21
1113.2864927040371
 31
0.0
  0
LINE
  5
B4B1
  8
0
 10
517.31553275868282
 20
1105.362319704037
 30
0.0
 11
318.31553275868288
 21
1105.362319704037
 31
0.0
  0
LINE
  5
B4B2
  8
0
 10
517.31553275868282
 20
1102.3166137040371
 30
0.0
 11
318.31553275868288
 21
1102.3166137040371
 31
0.0
  0
LINE
  5
B4B3
  8
0
 10
517.31553275868282
 20
1094.326445704037
 30
0.0
 11
318.31553275868288
 21
1094.326445704037
 31
0.0
  0
LINE
  5
B4B4
  8
0
 10
517.31553275868282
 20
1091.333818704037
 30
0.0
 11
318.31553275868288
 21
1091.333818704037
 31
0.0
  0
LINE
  5
B4B5
  8
0
 10
517.31553275868282
 20
1083.303117704037
 30
0.0
 11
318.31553275868288
 21
1083.303117704037
 31
0.0
  0
LINE
  5
B4B6
  8
0
 10
517.31553275868282
 20
1080.341638704037
 30
0.0
 11
318.31553275868288
 21
1080.341638704037
 31
0.0
  0
LINE
  5
B4B7
  8
0
 10
517.31553275868282
 20
1073.289854704037
 30
0.0
 11
422.8887757586827
 21
1073.289854704037
 31
0.0
  0
LINE
  5
B4B8
  8
0
 10
517.31553275868282
 20
1070.342162704037
 30
0.0
 11
429.70117975868283
 21
1070.342162704037
 31
0.0
  0
LINE
  5
B4B9
  8
0
 10
515.23661175868278
 20
1124.812010704037
 30
0.0
 11
515.23661175868278
 21
1122.812010704037
 31
0.0
  0
LINE
  5
B4BA
  8
0
 10
320.39445375868303
 20
1122.812010704037
 30
0.0
 11
515.23661175868278
 21
1122.812010704037
 31
0.0
  0
LINE
  5
B4BB
  8
0
 10
320.39445375868303
 20
1124.812010704037
 30
0.0
 11
515.23661175868278
 21
1124.812010704037
 31
0.0
  0
LINE
  5
B4BC
  8
0
 10
320.39445375868303
 20
1113.812010704037
 30
0.0
 11
515.23661175868278
 21
1113.812010704037
 31
0.0
  0
LINE
  5
B4BD
  8
0
 10
320.39445375868303
 20
1115.812010704037
 30
0.0
 11
515.23661175868278
 21
1115.812010704037
 31
0.0
  0
LINE
  5
B4BE
  8
0
 10
320.39445375868303
 20
1102.812010704037
 30
0.0
 11
515.23661175868278
 21
1102.812010704037
 31
0.0
  0
LINE
  5
B4BF
  8
0
 10
320.39445375868303
 20
1104.812010704037
 30
0.0
 11
515.23661175868278
 21
1104.812010704037
 31
0.0
  0
LINE
  5
B4C0
  8
0
 10
320.39445375868303
 20
1091.812010704037
 30
0.0
 11
515.23661175868278
 21
1091.812010704037
 31
0.0
  0
LINE
  5
B4C1
  8
0
 10
320.39445375868303
 20
1093.812010704037
 30
0.0
 11
515.23661175868278
 21
1093.812010704037
 31
0.0
  0
LINE
  5
B4C2
  8
0
 10
320.39445375868303
 20
1080.812010704037
 30
0.0
 11
515.23661175868278
 21
1080.812010704037
 31
0.0
  0
LINE
  5
B4C3
  8
0
 10
320.39445375868303
 20
1082.812010704037
 30
0.0
 11
515.23661175868278
 21
1082.812010704037
 31
0.0
  0
LINE
  5
B4C4
  8
0
 10
429.09050975868269
 20
1070.812010704037
 30
0.0
 11
515.23661175868278
 21
1070.812010704037
 31
0.0
  0
LINE
  5
B4C5
  8
0
 10
423.3622707586826
 20
1072.812010704037
 30
0.0
 11
515.23661175868278
 21
1072.812010704037
 31
0.0
  0
LINE
  5
B4C6
  8
0
 10
515.23661175868278
 20
1124.812010704037
 30
0.0
 11
517.31553275868282
 21
1125.4892787040369
 31
0.0
  0
LINE
  5
B4C7
  8
0
 10
515.23661175868278
 20
1122.812010704037
 30
0.0
 11
517.31553275868282
 21
1122.2449687040371
 31
0.0
  0
LINE
  5
B4C8
  8
0
 10
515.23661175868278
 20
1115.812010704037
 30
0.0
 11
517.31553275868282
 21
1116.417405704037
 31
0.0
  0
LINE
  5
B4C9
  8
0
 10
515.23661175868278
 20
1113.812010704037
 30
0.0
 11
517.31553275868282
 21
1113.2864927040371
 31
0.0
  0
LINE
  5
B4CA
  8
0
 10
515.23661175868278
 20
1104.812010704037
 30
0.0
 11
517.31553275868282
 21
1105.362319704037
 31
0.0
  0
LINE
  5
B4CB
  8
0
 10
515.23661175868278
 20
1102.812010704037
 30
0.0
 11
517.31553275868282
 21
1102.3166137040371
 31
0.0
  0
LINE
  5
B4CC
  8
0
 10
515.23661175868278
 20
1093.812010704037
 30
0.0
 11
517.31553275868282
 21
1094.326445704037
 31
0.0
  0
LINE
  5
B4CD
  8
0
 10
515.23661175868278
 20
1091.812010704037
 30
0.0
 11
517.31553275868282
 21
1091.333818704037
 31
0.0
  0
LINE
  5
B4CE
  8
0
 10
515.23661175868278
 20
1082.812010704037
 30
0.0
 11
517.31553275868282
 21
1083.303117704037
 31
0.0
  0
LINE
  5
B4CF
  8
0
 10
515.23661175868278
 20
1080.812010704037
 30
0.0
 11
517.31553275868282
 21
1080.341638704037
 31
0.0
  0
LINE
  5
B4D0
  8
0
 10
515.23661175868278
 20
1072.812010704037
 30
0.0
 11
517.31553275868282
 21
1073.289854704037
 31
0.0
  0
LINE
  5
B4D1
  8
0
 10
515.23661175868278
 20
1070.812010704037
 30
0.0
 11
517.31553275868282
 21
1070.342162704037
 31
0.0
  0
LINE
  5
B4D2
  8
0
 10
515.23661175868278
 20
1115.812010704037
 30
0.0
 11
515.23661175868278
 21
1113.812010704037
 31
0.0
  0
LINE
  5
B4D3
  8
0
 10
515.23661175868278
 20
1104.812010704037
 30
0.0
 11
515.23661175868278
 21
1102.812010704037
 31
0.0
  0
LINE
  5
B4D4
  8
0
 10
515.23661175868278
 20
1093.812010704037
 30
0.0
 11
515.23661175868278
 21
1091.812010704037
 31
0.0
  0
LINE
  5
B4D5
  8
0
 10
515.23661175868278
 20
1082.812010704037
 30
0.0
 11
515.23661175868278
 21
1080.812010704037
 31
0.0
  0
LINE
  5
B4D6
  8
0
 10
515.23661175868278
 20
1072.812010704037
 30
0.0
 11
515.23661175868278
 21
1070.812010704037
 31
0.0
  0
ARC
  5
B4D7
  8
0
 10
429.09050975868269
 20
1067.812010704037
 30
0.0
 40
3.0
 50
90.0
 51
190.28656100000819
  0
ARC
  5
B4D8
  8
0
 10
429.70117975868283
 20
1066.872162704037
 30
0.0
 40
3.4700000000000002
 50
90.0
 51
186.1896490000004
  0
LINE
  5
B4D9
  8
0
 10
335.39445375868303
 20
1072.812010704037
 30
0.0
 11
335.39445375868303
 21
1070.812010704037
 31
0.0
  0
LINE
  5
B4DA
  8
0
 10
320.39445375868303
 20
1082.812010704037
 30
0.0
 11
320.39445375868303
 21
1080.812010704037
 31
0.0
  0
LINE
  5
B4DB
  8
0
 10
320.39445375868303
 20
1093.812010704037
 30
0.0
 11
320.39445375868303
 21
1091.812010704037
 31
0.0
  0
LINE
  5
B4DC
  8
0
 10
320.39445375868303
 20
1104.812010704037
 30
0.0
 11
320.39445375868303
 21
1102.812010704037
 31
0.0
  0
LINE
  5
B4DD
  8
0
 10
320.39445375868303
 20
1115.812010704037
 30
0.0
 11
320.39445375868303
 21
1113.812010704037
 31
0.0
  0
LINE
  5
B4DE
  8
0
 10
335.39445375868303
 20
1070.812010704037
 30
0.0
 11
333.31553275868288
 21
1070.342162704037
 31
0.0
  0
LINE
  5
B4DF
  8
0
 10
335.39445375868303
 20
1072.812010704037
 30
0.0
 11
333.31553275868288
 21
1073.289854704037
 31
0.0
  0
LINE
  5
B4E0
  8
0
 10
320.39445375868303
 20
1080.812010704037
 30
0.0
 11
318.31553275868288
 21
1080.341638704037
 31
0.0
  0
LINE
  5
B4E1
  8
0
 10
320.39445375868303
 20
1082.812010704037
 30
0.0
 11
318.31553275868288
 21
1083.303117704037
 31
0.0
  0
LINE
  5
B4E2
  8
0
 10
320.39445375868303
 20
1091.812010704037
 30
0.0
 11
318.31553275868288
 21
1091.333818704037
 31
0.0
  0
LINE
  5
B4E3
  8
0
 10
320.39445375868303
 20
1093.812010704037
 30
0.0
 11
318.31553275868288
 21
1094.326445704037
 31
0.0
  0
LINE
  5
B4E4
  8
0
 10
320.39445375868303
 20
1102.812010704037
 30
0.0
 11
318.31553275868288
 21
1102.3166137040371
 31
0.0
  0
LINE
  5
B4E5
  8
0
 10
320.39445375868303
 20
1104.812010704037
 30
0.0
 11
318.31553275868288
 21
1105.362319704037
 31
0.0
  0
LINE
  5
B4E6
  8
0
 10
320.39445375868303
 20
1113.812010704037
 30
0.0
 11
318.31553275868288
 21
1113.2864927040371
 31
0.0
  0
LINE
  5
B4E7
  8
0
 10
320.39445375868303
 20
1115.812010704037
 30
0.0
 11
318.31553275868288
 21
1116.417405704037
 31
0.0
  0
LINE
  5
B4E8
  8
0
 10
320.39445375868303
 20
1122.812010704037
 30
0.0
 11
318.31553275868288
 21
1122.2449687040371
 31
0.0
  0
LINE
  5
B4E9
  8
0
 10
320.39445375868303
 20
1124.812010704037
 30
0.0
 11
318.31553275868288
 21
1125.4892787040369
 31
0.0
  0
LINE
  5
B4EA
  8
0
 10
320.39445375868303
 20
1124.812010704037
 30
0.0
 11
320.39445375868303
 21
1122.812010704037
 31
0.0
  0
LINE
  5
B4EB
  8
0
 10
318.31553275868288
 20
1122.2449687040371
 30
0.0
 11
318.31553275868288
 21
1125.4892787040369
 31
0.0
  0
LINE
  5
B4EC
  8
0
 10
318.31553275868288
 20
1113.2864927040371
 30
0.0
 11
318.31553275868288
 21
1116.417405704037
 31
0.0
  0
LINE
  5
B4ED
  8
0
 10
318.31553275868288
 20
1102.3166137040371
 30
0.0
 11
318.31553275868288
 21
1105.362319704037
 31
0.0
  0
LINE
  5
B4EE
  8
0
 10
318.31553275868288
 20
1091.333818704037
 30
0.0
 11
318.31553275868288
 21
1094.326445704037
 31
0.0
  0
LINE
  5
B4EF
  8
0
 10
318.31553275868288
 20
1080.341638704037
 30
0.0
 11
318.31553275868288
 21
1083.303117704037
 31
0.0
  0
LINE
  5
B4F0
  8
0
 10
333.31553275868288
 20
1070.342162704037
 30
0.0
 11
333.31553275868288
 21
1073.289854704037
 31
0.0
  0
LINE
  5
B4F1
  8
0
 10
333.31553275868288
 20
1073.289854704037
 30
0.0
 11
407.742289758683
 21
1073.289854704037
 31
0.0
  0
LINE
  5
B4F2
  8
0
 10
333.31553275868288
 20
1070.342162704037
 30
0.0
 11
400.92988575868259
 21
1070.342162704037
 31
0.0
  0
LINE
  5
B4F3
  8
0
 10
401.54055575868267
 20
1070.812010704037
 30
0.0
 11
335.39445375868303
 21
1070.812010704037
 31
0.0
  0
LINE
  5
B4F4
  8
0
 10
407.26879475868259
 20
1072.812010704037
 30
0.0
 11
335.39445375868303
 21
1072.812010704037
 31
0.0
  0
ARC
  5
B4F5
  8
0
 10
401.54055575868267
 20
1067.812010704037
 30
0.0
 40
3.0
 50
349.71343899999181
 51
90.0
  0
ARC
  5
B4F6
  8
0
 10
400.92988575868259
 20
1066.872162704037
 30
0.0
 40
3.4700000000000002
 50
353.81035099999951
 51
90.0
  0
LINE
  5
B4F7
  8
0
 10
517.31553275868282
 20
1025.261701704037
 30
0.0
 11
318.31553275868288
 21
1025.261701704037
 31
0.0
  0
LINE
  5
B4F8
  8
0
 10
517.31553275868282
 20
1028.3074077040369
 30
0.0
 11
318.31553275868288
 21
1028.3074077040369
 31
0.0
  0
LINE
  5
B4F9
  8
0
 10
517.31553275868282
 20
1036.2975757040369
 30
0.0
 11
318.31553275868288
 21
1036.2975757040369
 31
0.0
  0
LINE
  5
B4FA
  8
0
 10
517.31553275868282
 20
1039.290202704037
 30
0.0
 11
318.31553275868288
 21
1039.290202704037
 31
0.0
  0
LINE
  5
B4FB
  8
0
 10
517.31553275868282
 20
1047.3209037040369
 30
0.0
 11
318.31553275868288
 21
1047.3209037040369
 31
0.0
  0
LINE
  5
B4FC
  8
0
 10
517.31553275868282
 20
1050.282382704037
 30
0.0
 11
318.31553275868288
 21
1050.282382704037
 31
0.0
  0
LINE
  5
B4FD
  8
0
 10
320.39445375868303
 20
1027.812010704037
 30
0.0
 11
515.23661175868278
 21
1027.812010704037
 31
0.0
  0
LINE
  5
B4FE
  8
0
 10
320.39445375868303
 20
1025.812010704037
 30
0.0
 11
515.23661175868278
 21
1025.812010704037
 31
0.0
  0
LINE
  5
B4FF
  8
0
 10
320.39445375868303
 20
1038.812010704037
 30
0.0
 11
515.23661175868278
 21
1038.812010704037
 31
0.0
  0
LINE
  5
B500
  8
0
 10
320.39445375868303
 20
1036.812010704037
 30
0.0
 11
515.23661175868278
 21
1036.812010704037
 31
0.0
  0
LINE
  5
B501
  8
0
 10
320.39445375868303
 20
1049.812010704037
 30
0.0
 11
515.23661175868278
 21
1049.812010704037
 31
0.0
  0
LINE
  5
B502
  8
0
 10
320.39445375868303
 20
1047.812010704037
 30
0.0
 11
515.23661175868278
 21
1047.812010704037
 31
0.0
  0
LINE
  5
B503
  8
0
 10
333.31553275868288
 20
1057.334166704037
 30
0.0
 11
407.742289758683
 21
1057.334166704037
 31
0.0
  0
LINE
  5
B504
  8
0
 10
333.31553275868288
 20
1060.2818587040369
 30
0.0
 11
400.92988575868259
 21
1060.2818587040369
 31
0.0
  0
LINE
  5
B505
  8
0
 10
401.54055575868267
 20
1059.812010704037
 30
0.0
 11
335.39445375868303
 21
1059.812010704037
 31
0.0
  0
LINE
  5
B506
  8
0
 10
407.26879475868259
 20
1057.812010704037
 30
0.0
 11
335.39445375868303
 21
1057.812010704037
 31
0.0
  0
LINE
  5
B507
  8
0
 10
333.31553275868288
 20
1060.2818587040369
 30
0.0
 11
333.31553275868288
 21
1057.334166704037
 31
0.0
  0
LINE
  5
B508
  8
0
 10
318.31553275868288
 20
1050.282382704037
 30
0.0
 11
318.31553275868288
 21
1047.3209037040369
 31
0.0
  0
LINE
  5
B509
  8
0
 10
318.31553275868288
 20
1039.290202704037
 30
0.0
 11
318.31553275868288
 21
1036.2975757040369
 31
0.0
  0
LINE
  5
B50A
  8
0
 10
318.31553275868288
 20
1028.3074077040369
 30
0.0
 11
318.31553275868288
 21
1025.261701704037
 31
0.0
  0
LINE
  5
B50B
  8
0
 10
320.39445375868303
 20
1025.812010704037
 30
0.0
 11
318.31553275868288
 21
1025.261701704037
 31
0.0
  0
LINE
  5
B50C
  8
0
 10
320.39445375868303
 20
1027.812010704037
 30
0.0
 11
318.31553275868288
 21
1028.3074077040369
 31
0.0
  0
LINE
  5
B50D
  8
0
 10
320.39445375868303
 20
1036.812010704037
 30
0.0
 11
318.31553275868288
 21
1036.2975757040369
 31
0.0
  0
LINE
  5
B50E
  8
0
 10
320.39445375868303
 20
1038.812010704037
 30
0.0
 11
318.31553275868288
 21
1039.290202704037
 31
0.0
  0
LINE
  5
B50F
  8
0
 10
320.39445375868303
 20
1047.812010704037
 30
0.0
 11
318.31553275868288
 21
1047.3209037040369
 31
0.0
  0
LINE
  5
B510
  8
0
 10
320.39445375868303
 20
1049.812010704037
 30
0.0
 11
318.31553275868288
 21
1050.282382704037
 31
0.0
  0
LINE
  5
B511
  8
0
 10
335.39445375868303
 20
1057.812010704037
 30
0.0
 11
333.31553275868288
 21
1057.334166704037
 31
0.0
  0
LINE
  5
B512
  8
0
 10
335.39445375868303
 20
1059.812010704037
 30
0.0
 11
333.31553275868288
 21
1060.2818587040369
 31
0.0
  0
LINE
  5
B513
  8
0
 10
320.39445375868303
 20
1025.812010704037
 30
0.0
 11
320.39445375868303
 21
1027.812010704037
 31
0.0
  0
LINE
  5
B514
  8
0
 10
320.39445375868303
 20
1036.812010704037
 30
0.0
 11
320.39445375868303
 21
1038.812010704037
 31
0.0
  0
LINE
  5
B515
  8
0
 10
320.39445375868303
 20
1047.812010704037
 30
0.0
 11
320.39445375868303
 21
1049.812010704037
 31
0.0
  0
LINE
  5
B516
  8
0
 10
335.39445375868303
 20
1057.812010704037
 30
0.0
 11
335.39445375868303
 21
1059.812010704037
 31
0.0
  0
ARC
  5
B517
  8
0
 10
401.54055575868267
 20
1062.812010704037
 30
0.0
 40
3.0
 50
270.0
 51
10.28656100000822
  0
ARC
  5
B518
  8
0
 10
400.92988575868259
 20
1063.751858704037
 30
0.0
 40
3.4700000000000002
 50
270.0
 51
6.1896490000005366
  0
LINE
  5
B519
  8
0
 10
517.31553275868282
 20
1057.334166704037
 30
0.0
 11
422.8887757586827
 21
1057.334166704037
 31
0.0
  0
LINE
  5
B51A
  8
0
 10
517.31553275868282
 20
1060.2818587040369
 30
0.0
 11
429.70117975868283
 21
1060.2818587040369
 31
0.0
  0
LINE
  5
B51B
  8
0
 10
429.09050975868269
 20
1059.812010704037
 30
0.0
 11
515.23661175868278
 21
1059.812010704037
 31
0.0
  0
LINE
  5
B51C
  8
0
 10
423.3622707586826
 20
1057.812010704037
 30
0.0
 11
515.23661175868278
 21
1057.812010704037
 31
0.0
  0
ARC
  5
B51D
  8
0
 10
429.09050975868269
 20
1062.812010704037
 30
0.0
 40
3.0
 50
169.71343899999181
 51
270.0
  0
ARC
  5
B51E
  8
0
 10
429.70117975868283
 20
1063.751858704037
 30
0.0
 40
3.4700000000000002
 50
173.8103509999994
 51
270.0
  0
LINE
  5
B51F
  8
0
 10
515.23661175868278
 20
1057.812010704037
 30
0.0
 11
515.23661175868278
 21
1059.812010704037
 31
0.0
  0
LINE
  5
B520
  8
0
 10
515.23661175868278
 20
1047.812010704037
 30
0.0
 11
515.23661175868278
 21
1049.812010704037
 31
0.0
  0
LINE
  5
B521
  8
0
 10
515.23661175868278
 20
1036.812010704037
 30
0.0
 11
515.23661175868278
 21
1038.812010704037
 31
0.0
  0
LINE
  5
B522
  8
0
 10
515.23661175868278
 20
1025.812010704037
 30
0.0
 11
515.23661175868278
 21
1027.812010704037
 31
0.0
  0
LINE
  5
B523
  8
0
 10
515.23661175868278
 20
1059.812010704037
 30
0.0
 11
517.31553275868282
 21
1060.2818587040369
 31
0.0
  0
LINE
  5
B524
  8
0
 10
515.23661175868278
 20
1057.812010704037
 30
0.0
 11
517.31553275868282
 21
1057.334166704037
 31
0.0
  0
LINE
  5
B525
  8
0
 10
515.23661175868278
 20
1049.812010704037
 30
0.0
 11
517.31553275868282
 21
1050.282382704037
 31
0.0
  0
LINE
  5
B526
  8
0
 10
515.23661175868278
 20
1047.812010704037
 30
0.0
 11
517.31553275868282
 21
1047.3209037040369
 31
0.0
  0
LINE
  5
B527
  8
0
 10
515.23661175868278
 20
1038.812010704037
 30
0.0
 11
517.31553275868282
 21
1039.290202704037
 31
0.0
  0
LINE
  5
B528
  8
0
 10
515.23661175868278
 20
1036.812010704037
 30
0.0
 11
517.31553275868282
 21
1036.2975757040369
 31
0.0
  0
LINE
  5
B529
  8
0
 10
515.23661175868278
 20
1027.812010704037
 30
0.0
 11
517.31553275868282
 21
1028.3074077040369
 31
0.0
  0
LINE
  5
B52A
  8
0
 10
515.23661175868278
 20
1025.812010704037
 30
0.0
 11
517.31553275868282
 21
1025.261701704037
 31
0.0
  0
LINE
  5
B52B
  8
0
 10
517.31553275868282
 20
1028.3074077040369
 30
0.0
 11
517.31553275868282
 21
1025.261701704037
 31
0.0
  0
LINE
  5
B52C
  8
0
 10
517.31553275868282
 20
1039.290202704037
 30
0.0
 11
517.31553275868282
 21
1036.2975757040369
 31
0.0
  0
LINE
  5
B52D
  8
0
 10
517.31553275868282
 20
1050.282382704037
 30
0.0
 11
517.31553275868282
 21
1047.3209037040369
 31
0.0
  0
LINE
  5
B52E
  8
0
 10
517.31553275868282
 20
1060.2818587040369
 30
0.0
 11
517.31553275868282
 21
1057.334166704037
 31
0.0
  0
LINE
  5
B52F
  8
0
 10
450.23661175868273
 20
1016.812010704037
 30
0.0
 11
452.31553275868271
 21
1017.307407704037
 31
0.0
  0
LINE
  5
B530
  8
0
 10
452.31553275868271
 20
1017.307407704037
 30
0.0
 11
318.31553275868288
 21
1017.307407704037
 31
0.0
  0
LINE
  5
B531
  8
0
 10
320.39445375868303
 20
1016.812010704037
 30
0.0
 11
450.23661175868273
 21
1016.812010704037
 31
0.0
  0
LINE
  5
B532
  8
0
 10
450.23661175868273
 20
1014.812010704037
 30
0.0
 11
450.23661175868273
 21
1016.812010704037
 31
0.0
  0
LINE
  5
B533
  8
0
 10
452.31553275868271
 20
1014.261701704037
 30
0.0
 11
318.31553275868288
 21
1014.261701704037
 31
0.0
  0
LINE
  5
B534
  8
0
 10
320.39445375868303
 20
1014.812010704037
 30
0.0
 11
450.23661175868273
 21
1014.812010704037
 31
0.0
  0
LINE
  5
B535
  8
0
 10
450.23661175868273
 20
1014.812010704037
 30
0.0
 11
452.31553275868271
 21
1014.261701704037
 31
0.0
  0
LINE
  5
B536
  8
0
 10
452.31553275868271
 20
1008.307407704037
 30
0.0
 11
318.31553275868288
 21
1008.307407704037
 31
0.0
  0
LINE
  5
B537
  8
0
 10
320.39445375868303
 20
1007.812010704037
 30
0.0
 11
450.23661175868273
 21
1007.812010704037
 31
0.0
  0
LINE
  5
B538
  8
0
 10
452.31553275868271
 20
1005.261701704037
 30
0.0
 11
318.34908975868291
 21
1005.261701704037
 31
0.0
  0
LINE
  5
B539
  8
0
 10
320.39445375868303
 20
1005.812010704037
 30
0.0
 11
450.23661175868273
 21
1005.812010704037
 31
0.0
  0
LINE
  5
B53A
  8
0
 10
450.23661175868273
 20
1005.812010704037
 30
0.0
 11
452.31553275868271
 21
1005.261701704037
 31
0.0
  0
LINE
  5
B53B
  8
0
 10
452.31553275868271
 20
1008.307407704037
 30
0.0
 11
452.31553275868271
 21
1005.261701704037
 31
0.0
  0
LINE
  5
B53C
  8
0
 10
450.23661175868273
 20
1005.812010704037
 30
0.0
 11
450.23661175868273
 21
1007.812010704037
 31
0.0
  0
LINE
  5
B53D
  8
0
 10
450.23661175868273
 20
1007.812010704037
 30
0.0
 11
452.31553275868271
 21
1008.307407704037
 31
0.0
  0
LINE
  5
B53E
  8
0
 10
452.31553275868271
 20
1005.261701704037
 30
0.0
 11
467.31553275868288
 21
1005.261701704037
 31
0.0
  0
LINE
  5
B53F
  8
0
 10
467.31553275868288
 20
1005.261701704037
 30
0.0
 11
483.31553275868288
 21
1000.919776704037
 31
0.0
  0
LINE
  5
B540
  8
0
 10
318.31553275868288
 20
1017.307407704037
 30
0.0
 11
318.31553275868288
 21
1014.261701704037
 31
0.0
  0
LINE
  5
B541
  8
0
 10
318.31553275868288
 20
1008.307407704037
 30
0.0
 11
318.31553275868288
 21
1005.261701704037
 31
0.0
  0
LINE
  5
B542
  8
0
 10
320.39445375868303
 20
1014.812010704037
 30
0.0
 11
320.39445375868303
 21
1016.812010704037
 31
0.0
  0
LINE
  5
B543
  8
0
 10
320.39445375868303
 20
1016.812010704037
 30
0.0
 11
318.31553275868288
 21
1017.307407704037
 31
0.0
  0
LINE
  5
B544
  8
0
 10
320.39445375868303
 20
1014.812010704037
 30
0.0
 11
318.31553275868288
 21
1014.261701704037
 31
0.0
  0
LINE
  5
B545
  8
0
 10
320.39445375868303
 20
1007.812010704037
 30
0.0
 11
318.31553275868288
 21
1008.307407704037
 31
0.0
  0
LINE
  5
B546
  8
0
 10
320.39445375868303
 20
1005.812010704037
 30
0.0
 11
320.39445375868303
 21
1007.812010704037
 31
0.0
  0
LINE
  5
B547
  8
0
 10
320.39445375868303
 20
1005.812010704037
 30
0.0
 11
318.31553275868288
 21
1005.261701704037
 31
0.0
  0
LINE
  5
B548
  8
0
 10
216.21556275868289
 20
1165.312010704037
 30
0.0
 11
293.81553275868288
 21
1165.312010704037
 31
0.0
  0
LINE
  5
B549
  8
0
 10
216.21556275868289
 20
1171.312010704037
 30
0.0
 11
293.81553275868288
 21
1171.312010704037
 31
0.0
  0
LINE
  5
B54A
  8
0
 10
315.81553275868288
 20
1162.312010704037
 30
0.0
 11
212.31553275868291
 21
1162.312010704037
 31
0.0
  0
LINE
  5
B54B
  8
0
 10
304.81553275868299
 20
1165.312010704037
 30
0.0
 11
318.31553275868288
 21
1165.312010704037
 31
0.0
  0
ARC
  5
B54C
  8
0
 10
962.60251275868256
 20
1065.312010704037
 30
0.0
 40
764.28698999999995
 50
172.82194999999871
 51
187.17804000000049
  0
LINE
  5
B54D
  8
0
 10
208.96556275868301
 20
971.7119707040373
 30
0.0
 11
208.96556275868301
 21
1159.001950704037
 31
0.0
  0
LINE
  5
B54E
  8
0
 10
203.31553275868291
 20
1127.751950704037
 30
0.0
 11
203.31553275868291
 21
1002.1719907040369
 31
0.0
  0
LINE
  5
B54F
  8
0
 10
201.31553275868291
 20
1127.751950704037
 30
0.0
 11
201.31553275868291
 21
1002.861930704037
 31
0.0
  0
LINE
  5
B550
  8
0
 10
315.81553275868288
 20
968.31201070403733
 30
0.0
 11
212.31553275868291
 21
968.31201070403733
 31
0.0
  0
LINE
  5
B551
  8
0
 10
203.46550275868299
 20
999.48199070403734
 30
0.0
 11
208.37553275868291
 21
971.61199070403745
 31
0.0
  0
ARC
  5
B552
  8
0
 10
216.2172727586829
 20
971.31005070403728
 30
0.0
 40
5.9980479999999998
 50
207.05350999999459
 51
269.98324000000241
  0
ARC
  5
B553
  8
0
 10
216.2180027586829
 20
971.3081007040372
 30
0.0
 40
11.996128000000001
 50
187.16444000000149
 51
269.98821999999512
  0
ARC
  5
B554
  8
0
 10
202.47593275868289
 20
999.31506070403725
 30
0.0
 40
1.0035289999999999
 50
9.5734909999996063
 51
62.101815000001061
  0
ARC
  5
B555
  8
0
 10
204.31407275868301
 20
1002.869990704037
 30
0.0
 40
2.9985330000000001
 50
180.1533100000014
 51
242.84513000000379
  0
ARC
  5
B556
  8
0
 10
212.314922758683
 20
972.31335070403725
 30
0.0
 40
4.0014059999999976
 50
190.09553000000011
 51
270.00784999999382
  0
LINE
  5
B557
  8
0
 10
203.46550275868299
 20
1131.1319507040371
 30
0.0
 11
208.37547275868289
 21
1159.001950704037
 31
0.0
  0
ARC
  5
B558
  8
0
 10
212.31505275868301
 20
1158.312620704037
 30
0.0
 40
3.9993959999999982
 50
89.993274999998206
 51
170.07406000000469
  0
ARC
  5
B559
  8
0
 10
202.47618275868291
 20
1131.3111507040369
 30
0.0
 40
1.0054319999999961
 50
297.82706000000439
 51
349.7352699999982
  0
ARC
  5
B55A
  8
0
 10
204.31273275868301
 20
1127.7547607040369
 30
0.0
 40
2.997211999999998
 50
117.13965999999481
 51
180.05331000000339
  0
ARC
  5
B55B
  8
0
 10
216.21641275868299
 20
1159.3153007040371
 30
0.0
 40
5.9966319999999991
 50
90.008472000000253
 51
152.954760000004
  0
ARC
  5
B55C
  8
0
 10
216.21702275868299
 20
1159.316950704037
 30
0.0
 40
11.995034
 50
90.007167000000024
 51
172.84015999999829
  0
LINE
  5
B55D
  8
0
 10
195.925522758683
 20
1060.312010704037
 30
0.0
 11
195.925522758683
 21
1070.312010704037
 31
0.0
  0
LINE
  5
B55E
  8
0
 10
198.33555275868289
 20
1070.312010704037
 30
0.0
 11
195.925522758683
 21
1070.312010704037
 31
0.0
  0
LINE
  5
B55F
  8
0
 10
198.33555275868289
 20
1060.312010704037
 30
0.0
 11
195.925522758683
 21
1060.312010704037
 31
0.0
  0
LINE
  5
B560
  8
0
 10
447.44040675868303
 20
939.81154070403727
 30
0.0
 11
445.26610175868302
 21
939.81154070403727
 31
0.0
  0
LINE
  5
B561
  8
0
 10
453.31553275868259
 20
943.8116207040373
 30
0.0
 11
444.94040675868303
 21
943.8116207040373
 31
0.0
  0
POLYLINE
  5
B562
  8
0
 10
444.44040675868291
 20
926.81128070403747
 30
0.0
 66
     1
 70
     8
  0
VERTEX
  8
0
  5
B906
 10
444.440
 20
926.811
 30
0.000000
  70
    32
  0
VERTEX
  8
0
  5
B907
 10
444.471
 20
926.811
 30
0.000000
  70
    32
  0
VERTEX
  8
0
  5
B908
 10
444.502
 20
926.812
 30
0.000000
  70
    32
  0
VERTEX
  8
0
  5
B909
 10
444.532
 20
926.813
 30
0.000000
  70
    32
  0
VERTEX
  8
0
  5
B90A
 10
444.563
 20
926.814
 30
0.000000
  70
    32
  0
VERTEX
  8
0
  5
B90B
 10
444.594
 20
926.816
 30
0.000000
  70
    32
  0
VERTEX
  8
0
  5
B90C
 10
444.624
 20
926.818
 30
0.000000
  70
    32
  0
VERTEX
  8
0
  5
B90D
 10
444.655
 20
926.820
 30
0.000000
  70
    32
  0
VERTEX
  8
0
  5
B90E
 10
444.685
 20
926.823
 30
0.000000
  70
    32
  0
VERTEX
  8
0
  5
B90F
 10
444.716
 20
926.827
 30
0.000000
  70
    32
  0
VERTEX
  8
0
  5
B910
 10
444.746
 20
926.830
 30
0.000000
  70
    32
  0
VERTEX
  8
0
  5
B911
 10
444.777
 20
926.834
 30
0.000000
  70
    32
  0
VERTEX
  8
0
  5
B912
 10
444.807
 20
926.838
 30
0.000000
  70
    32
  0
VERTEX
  8
0
  5
B913
 10
444.838
 20
926.843
 30
0.000000
  70
    32
  0
VERTEX
  8
0
  5
B914
 10
444.868
 20
926.848
 30
0.000000
  70
    32
  0
VERTEX
  8
0
  5
B915
 10
444.898
 20
926.854
 30
0.000000
  70
    32
  0
VERTEX
  8
0
  5
B916
 10
444.928
 20
926.859
 30
0.000000
  70
    32
  0
VERTEX
  8
0
  5
B917
 10
444.958
 20
926.865
 30
0.000000
  70
    32
  0
VERTEX
  8
0
  5
B918
 10
444.988
 20
926.872
 30
0.000000
  70
    32
  0
VERTEX
  8
0
  5
B919
 10
445.018
 20
926.879
 30
0.000000
  70
    32
  0
VERTEX
  8
0
  5
B91A
 10
445.048
 20
926.886
 30
0.000000
  70
    32
  0
VERTEX
  8
0
  5
B91B
 10
445.078
 20
926.894
 30
0.000000
  70
    32
  0
VERTEX
  8
0
  5
B91C
 10
445.107
 20
926.902
 30
0.000000
  70
    32
  0
VERTEX
  8
0
  5
B91D
 10
445.137
 20
926.910
 30
0.000000
  70
    32
  0
VERTEX
  8
0
  5
B91E
 10
445.166
 20
926.919
 30
0.000000
  70
    32
  0
VERTEX
  8
0
  5
B91F
 10
445.195
 20
926.928
 30
0.000000
  70
    32
  0
VERTEX
  8
0
  5
B920
 10
445.225
 20
926.937
 30
0.000000
  70
    32
  0
VERTEX
  8
0
  5
B921
 10
445.254
 20
926.947
 30
0.000000
  70
    32
  0
VERTEX
  8
0
  5
B922
 10
445.283
 20
926.957
 30
0.000000
  70
    32
  0
VERTEX
  8
0
  5
B923
 10
445.311
 20
926.968
 30
0.000000
  70
    32
  0
VERTEX
  8
0
  5
B924
 10
445.340
 20
926.979
 30
0.000000
  70
    32
  0
VERTEX
  8
0
  5
B925
 10
445.369
 20
926.990
 30
0.000000
  70
    32
  0
VERTEX
  8
0
  5
B926
 10
445.397
 20
927.002
 30
0.000000
  70
    32
  0
VERTEX
  8
0
  5
B927
 10
445.425
 20
927.014
 30
0.000000
  70
    32
  0
VERTEX
  8
0
  5
B928
 10
445.454
 20
927.026
 30
0.000000
  70
    32
  0
VERTEX
  8
0
  5
B929
 10
445.481
 20
927.038
 30
0.000000
  70
    32
  0
VERTEX
  8
0
  5
B92A
 10
445.509
 20
927.051
 30
0.000000
  70
    32
  0
VERTEX
  8
0
  5
B92B
 10
445.537
 20
927.065
 30
0.000000
  70
    32
  0
VERTEX
  8
0
  5
B92C
 10
445.564
 20
927.078
 30
0.000000
  70
    32
  0
VERTEX
  8
0
  5
B92D
 10
445.592
 20
927.092
 30
0.000000
  70
    32
  0
VERTEX
  8
0
  5
B92E
 10
445.619
 20
927.106
 30
0.000000
  70
    32
  0
VERTEX
  8
0
  5
B92F
 10
445.646
 20
927.121
 30
0.000000
  70
    32
  0
VERTEX
  8
0
  5
B930
 10
445.673
 20
927.136
 30
0.000000
  70
    32
  0
VERTEX
  8
0
  5
B931
 10
445.699
 20
927.151
 30
0.000000
  70
    32
  0
VERTEX
  8
0
  5
B932
 10
445.726
 20
927.167
 30
0.000000
  70
    32
  0
VERTEX
  8
0
  5
B933
 10
445.752
 20
927.183
 30
0.000000
  70
    32
  0
VERTEX
  8
0
  5
B934
 10
445.778
 20
927.199
 30
0.000000
  70
    32
  0
VERTEX
  8
0
  5
B935
 10
445.804
 20
927.216
 30
0.000000
  70
    32
  0
VERTEX
  8
0
  5
B936
 10
445.829
 20
927.233
 30
0.000000
  70
    32
  0
VERTEX
  8
0
  5
B937
 10
445.855
 20
927.250
 30
0.000000
  70
    32
  0
VERTEX
  8
0
  5
B938
 10
445.880
 20
927.267
 30
0.000000
  70
    32
  0
VERTEX
  8
0
  5
B939
 10
445.905
 20
927.285
 30
0.000000
  70
    32
  0
VERTEX
  8
0
  5
B93A
 10
445.930
 20
927.303
 30
0.000000
  70
    32
  0
VERTEX
  8
0
  5
B93B
 10
445.954
 20
927.322
 30
0.000000
  70
    32
  0
VERTEX
  8
0
  5
B93C
 10
445.978
 20
927.340
 30
0.000000
  70
    32
  0
VERTEX
  8
0
  5
B93D
 10
446.003
 20
927.359
 30
0.000000
  70
    32
  0
VERTEX
  8
0
  5
B93E
 10
446.026
 20
927.379
 30
0.000000
  70
    32
  0
VERTEX
  8
0
  5
B93F
 10
446.050
 20
927.398
 30
0.000000
  70
    32
  0
VERTEX
  8
0
  5
B940
 10
446.073
 20
927.418
 30
0.000000
  70
    32
  0
VERTEX
  8
0
  5
B941
 10
446.096
 20
927.438
 30
0.000000
  70
    32
  0
VERTEX
  8
0
  5
B942
 10
446.119
 20
927.459
 30
0.000000
  70
    32
  0
VERTEX
  8
0
  5
B943
 10
446.142
 20
927.480
 30
0.000000
  70
    32
  0
VERTEX
  8
0
  5
B944
 10
446.164
 20
927.501
 30
0.000000
  70
    32
  0
VERTEX
  8
0
  5
B945
 10
446.186
 20
927.522
 30
0.000000
  70
    32
  0
VERTEX
  8
0
  5
B946
 10
446.208
 20
927.544
 30
0.000000
  70
    32
  0
VERTEX
  8
0
  5
B947
 10
446.230
 20
927.565
 30
0.000000
  70
    32
  0
VERTEX
  8
0
  5
B948
 10
446.251
 20
927.587
 30
0.000000
  70
    32
  0
VERTEX
  8
0
  5
B949
 10
446.272
 20
927.610
 30
0.000000
  70
    32
  0
VERTEX
  8
0
  5
B94A
 10
446.293
 20
927.632
 30
0.000000
  70
    32
  0
VERTEX
  8
0
  5
B94B
 10
446.313
 20
927.655
 30
0.000000
  70
    32
  0
VERTEX
  8
0
  5
B94C
 10
446.333
 20
927.678
 30
0.000000
  70
    32
  0
VERTEX
  8
0
  5
B94D
 10
446.353
 20
927.702
 30
0.000000
  70
    32
  0
VERTEX
  8
0
  5
B94E
 10
446.373
 20
927.725
 30
0.000000
  70
    32
  0
VERTEX
  8
0
  5
B94F
 10
446.392
 20
927.749
 30
0.000000
  70
    32
  0
VERTEX
  8
0
  5
B950
 10
446.411
 20
927.773
 30
0.000000
  70
    32
  0
VERTEX
  8
0
  5
B951
 10
446.430
 20
927.798
 30
0.000000
  70
    32
  0
VERTEX
  8
0
  5
B952
 10
446.448
 20
927.822
 30
0.000000
  70
    32
  0
VERTEX
  8
0
  5
B953
 10
446.467
 20
927.847
 30
0.000000
  70
    32
  0
VERTEX
  8
0
  5
B954
 10
446.484
 20
927.872
 30
0.000000
  70
    32
  0
VERTEX
  8
0
  5
B955
 10
446.502
 20
927.897
 30
0.000000
  70
    32
  0
VERTEX
  8
0
  5
B956
 10
446.519
 20
927.922
 30
0.000000
  70
    32
  0
VERTEX
  8
0
  5
B957
 10
446.536
 20
927.948
 30
0.000000
  70
    32
  0
VERTEX
  8
0
  5
B958
 10
446.553
 20
927.974
 30
0.000000
  70
    32
  0
VERTEX
  8
0
  5
B959
 10
446.569
 20
928.000
 30
0.000000
  70
    32
  0
VERTEX
  8
0
  5
B95A
 10
446.585
 20
928.026
 30
0.000000
  70
    32
  0
VERTEX
  8
0
  5
B95B
 10
446.600
 20
928.052
 30
0.000000
  70
    32
  0
VERTEX
  8
0
  5
B95C
 10
446.616
 20
928.079
 30
0.000000
  70
    32
  0
VERTEX
  8
0
  5
B95D
 10
446.631
 20
928.106
 30
0.000000
  70
    32
  0
VERTEX
  8
0
  5
B95E
 10
446.645
 20
928.133
 30
0.000000
  70
    32
  0
VERTEX
  8
0
  5
B95F
 10
446.660
 20
928.160
 30
0.000000
  70
    32
  0
VERTEX
  8
0
  5
B960
 10
446.673
 20
928.187
 30
0.000000
  70
    32
  0
VERTEX
  8
0
  5
B961
 10
446.687
 20
928.215
 30
0.000000
  70
    32
  0
VERTEX
  8
0
  5
B962
 10
446.700
 20
928.242
 30
0.000000
  70
    32
  0
VERTEX
  8
0
  5
B963
 10
446.713
 20
928.270
 30
0.000000
  70
    32
  0
VERTEX
  8
0
  5
B964
 10
446.726
 20
928.298
 30
0.000000
  70
    32
  0
VERTEX
  8
0
  5
B965
 10
446.738
 20
928.326
 30
0.000000
  70
    32
  0
VERTEX
  8
0
  5
B966
 10
446.750
 20
928.355
 30
0.000000
  70
    32
  0
VERTEX
  8
0
  5
B967
 10
446.762
 20
928.383
 30
0.000000
  70
    32
  0
VERTEX
  8
0
  5
B968
 10
446.773
 20
928.412
 30
0.000000
  70
    32
  0
VERTEX
  8
0
  5
B969
 10
446.784
 20
928.440
 30
0.000000
  70
    32
  0
VERTEX
  8
0
  5
B96A
 10
446.794
 20
928.469
 30
0.000000
  70
    32
  0
VERTEX
  8
0
  5
B96B
 10
446.804
 20
928.498
 30
0.000000
  70
    32
  0
VERTEX
  8
0
  5
B96C
 10
446.814
 20
928.527
 30
0.000000
  70
    32
  0
VERTEX
  8
0
  5
B96D
 10
446.824
 20
928.556
 30
0.000000
  70
    32
  0
VERTEX
  8
0
  5
B96E
 10
446.833
 20
928.586
 30
0.000000
  70
    32
  0
VERTEX
  8
0
  5
B96F
 10
446.841
 20
928.615
 30
0.000000
  70
    32
  0
VERTEX
  8
0
  5
B970
 10
446.850
 20
928.645
 30
0.000000
  70
    32
  0
VERTEX
  8
0
  5
B971
 10
446.858
 20
928.674
 30
0.000000
  70
    32
  0
VERTEX
  8
0
  5
B972
 10
446.865
 20
928.704
 30
0.000000
  70
    32
  0
VERTEX
  8
0
  5
B973
 10
446.873
 20
928.734
 30
0.000000
  70
    32
  0
VERTEX
  8
0
  5
B974
 10
446.880
 20
928.764
 30
0.000000
  70
    32
  0
VERTEX
  8
0
  5
B975
 10
446.886
 20
928.794
 30
0.000000
  70
    32
  0
VERTEX
  8
0
  5
B976
 10
446.892
 20
928.824
 30
0.000000
  70
    32
  0
VERTEX
  8
0
  5
B977
 10
446.898
 20
928.854
 30
0.000000
  70
    32
  0
VERTEX
  8
0
  5
B978
 10
446.904
 20
928.884
 30
0.000000
  70
    32
  0
VERTEX
  8
0
  5
B979
 10
446.909
 20
928.914
 30
0.000000
  70
    32
  0
VERTEX
  8
0
  5
B97A
 10
446.913
 20
928.944
 30
0.000000
  70
    32
  0
VERTEX
  8
0
  5
B97B
 10
446.918
 20
928.975
 30
0.000000
  70
    32
  0
VERTEX
  8
0
  5
B97C
 10
446.922
 20
929.005
 30
0.000000
  70
    32
  0
VERTEX
  8
0
  5
B97D
 10
446.925
 20
929.036
 30
0.000000
  70
    32
  0
VERTEX
  8
0
  5
B97E
 10
446.928
 20
929.066
 30
0.000000
  70
    32
  0
VERTEX
  8
0
  5
B97F
 10
446.931
 20
929.097
 30
0.000000
  70
    32
  0
VERTEX
  8
0
  5
B980
 10
446.934
 20
929.127
 30
0.000000
  70
    32
  0
VERTEX
  8
0
  5
B981
 10
446.936
 20
929.158
 30
0.000000
  70
    32
  0
VERTEX
  8
0
  5
B982
 10
446.937
 20
929.189
 30
0.000000
  70
    32
  0
VERTEX
  8
0
  5
B983
 10
446.939
 20
929.219
 30
0.000000
  70
    32
  0
VERTEX
  8
0
  5
B984
 10
446.940
 20
929.250
 30
0.000000
  70
    32
  0
VERTEX
  8
0
  5
B985
 10
446.940
 20
929.281
 30
0.000000
  70
    32
  0
VERTEX
  8
0
  5
B986
 10
446.940
 20
929.311
 30
0.000000
  70
    32
  0
SEQEND
  8
0
  5
B987
  0
LINE
  5
B563
  8
0
 10
371.84040675868312
 20
960.81196070403735
 30
0.0
 11
452.31553275868271
 21
960.81196070403735
 31
0.0
  0
LINE
  5
B564
  8
0
 10
438.31553275868288
 20
943.69674470403731
 30
0.0
 11
438.31553275868288
 21
960.81196070403735
 31
0.0
  0
LINE
  5
B565
  8
0
 10
390.44040675868303
 20
960.81196070403735
 30
0.0
 11
390.44040675868303
 21
943.8116207040373
 31
0.0
  0
LINE
  5
B566
  8
0
 10
371.84040675868312
 20
960.81196070403735
 30
0.0
 11
371.84040675868312
 21
943.8116207040373
 31
0.0
  0
LINE
  5
B567
  8
0
 10
366.04040675868288
 20
959.81194070403728
 30
0.0
 11
366.04040675868288
 21
931.81138070403745
 31
0.0
  0
LINE
  5
B568
  8
0
 10
368.55898275868287
 20
931.81138070403745
 30
0.0
 11
400.53705275868299
 21
937.25991570403721
 31
0.0
  0
LINE
  5
B569
  8
0
 10
368.6404067586829
 20
930.81136070403716
 30
0.0
 11
444.94040675868303
 21
943.8116207040373
 31
0.0
  0
LINE
  5
B56A
  8
0
 10
444.44040675868291
 20
926.81128070403736
 30
0.0
 11
368.96610175868278
 21
926.81128070403736
 31
0.0
  0
LINE
  5
B56B
  8
0
 10
445.26610175868302
 20
939.81154070403727
 30
0.0
 11
368.96610175868278
 21
926.81128070403736
 31
0.0
  0
LINE
  5
B56C
  8
0
 10
366.04040675868288
 20
935.81146070403736
 30
0.0
 11
364.84040675868312
 21
935.81146070403736
 31
0.0
  0
LINE
  5
B56D
  8
0
 10
368.55898275868287
 20
931.81138070403745
 30
0.0
 11
364.54040675868288
 21
931.81138070403745
 31
0.0
  0
LINE
  5
B56E
  8
0
 10
364.54040675868288
 20
930.81136070403716
 30
0.0
 11
368.6404067586829
 21
930.81136070403716
 31
0.0
  0
POLYLINE
  5
B56F
  8
0
 10
364.54040675928275
 20
928.31131070403728
 30
0.0
 66
     1
 70
     8
  0
VERTEX
  8
0
  5
B988
 10
364.540
 20
928.311
 30
0.000000
  70
    32
  0
VERTEX
  8
0
  5
B989
 10
364.541
 20
928.293
 30
0.000000
  70
    32
  0
VERTEX
  8
0
  5
B98A
 10
364.541
 20
928.274
 30
0.000000
  70
    32
  0
VERTEX
  8
0
  5
B98B
 10
364.541
 20
928.256
 30
0.000000
  70
    32
  0
VERTEX
  8
0
  5
B98C
 10
364.542
 20
928.238
 30
0.000000
  70
    32
  0
VERTEX
  8
0
  5
B98D
 10
364.543
 20
928.219
 30
0.000000
  70
    32
  0
VERTEX
  8
0
  5
B98E
 10
364.544
 20
928.201
 30
0.000000
  70
    32
  0
VERTEX
  8
0
  5
B98F
 10
364.546
 20
928.183
 30
0.000000
  70
    32
  0
VERTEX
  8
0
  5
B990
 10
364.548
 20
928.164
 30
0.000000
  70
    32
  0
VERTEX
  8
0
  5
B991
 10
364.550
 20
928.146
 30
0.000000
  70
    32
  0
VERTEX
  8
0
  5
B992
 10
364.552
 20
928.128
 30
0.000000
  70
    32
  0
VERTEX
  8
0
  5
B993
 10
364.554
 20
928.109
 30
0.000000
  70
    32
  0
VERTEX
  8
0
  5
B994
 10
364.557
 20
928.091
 30
0.000000
  70
    32
  0
VERTEX
  8
0
  5
B995
 10
364.559
 20
928.073
 30
0.000000
  70
    32
  0
VERTEX
  8
0
  5
B996
 10
364.562
 20
928.055
 30
0.000000
  70
    32
  0
VERTEX
  8
0
  5
B997
 10
364.566
 20
928.037
 30
0.000000
  70
    32
  0
VERTEX
  8
0
  5
B998
 10
364.569
 20
928.019
 30
0.000000
  70
    32
  0
VERTEX
  8
0
  5
B999
 10
364.573
 20
928.001
 30
0.000000
  70
    32
  0
VERTEX
  8
0
  5
B99A
 10
364.577
 20
927.983
 30
0.000000
  70
    32
  0
VERTEX
  8
0
  5
B99B
 10
364.581
 20
927.965
 30
0.000000
  70
    32
  0
VERTEX
  8
0
  5
B99C
 10
364.585
 20
927.947
 30
0.000000
  70
    32
  0
VERTEX
  8
0
  5
B99D
 10
364.590
 20
927.929
 30
0.000000
  70
    32
  0
VERTEX
  8
0
  5
B99E
 10
364.595
 20
927.911
 30
0.000000
  70
    32
  0
VERTEX
  8
0
  5
B99F
 10
364.600
 20
927.894
 30
0.000000
  70
    32
  0
VERTEX
  8
0
  5
B9A0
 10
364.605
 20
927.876
 30
0.000000
  70
    32
  0
VERTEX
  8
0
  5
B9A1
 10
364.610
 20
927.858
 30
0.000000
  70
    32
  0
VERTEX
  8
0
  5
B9A2
 10
364.616
 20
927.841
 30
0.000000
  70
    32
  0
VERTEX
  8
0
  5
B9A3
 10
364.622
 20
927.823
 30
0.000000
  70
    32
  0
VERTEX
  8
0
  5
B9A4
 10
364.628
 20
927.806
 30
0.000000
  70
    32
  0
VERTEX
  8
0
  5
B9A5
 10
364.634
 20
927.789
 30
0.000000
  70
    32
  0
VERTEX
  8
0
  5
B9A6
 10
364.641
 20
927.771
 30
0.000000
  70
    32
  0
VERTEX
  8
0
  5
B9A7
 10
364.648
 20
927.754
 30
0.000000
  70
    32
  0
VERTEX
  8
0
  5
B9A8
 10
364.655
 20
927.737
 30
0.000000
  70
    32
  0
VERTEX
  8
0
  5
B9A9
 10
364.662
 20
927.720
 30
0.000000
  70
    32
  0
VERTEX
  8
0
  5
B9AA
 10
364.669
 20
927.703
 30
0.000000
  70
    32
  0
VERTEX
  8
0
  5
B9AB
 10
364.677
 20
927.687
 30
0.000000
  70
    32
  0
VERTEX
  8
0
  5
B9AC
 10
364.684
 20
927.670
 30
0.000000
  70
    32
  0
VERTEX
  8
0
  5
B9AD
 10
364.692
 20
927.653
 30
0.000000
  70
    32
  0
VERTEX
  8
0
  5
B9AE
 10
364.701
 20
927.637
 30
0.000000
  70
    32
  0
VERTEX
  8
0
  5
B9AF
 10
364.709
 20
927.620
 30
0.000000
  70
    32
  0
VERTEX
  8
0
  5
B9B0
 10
364.718
 20
927.604
 30
0.000000
  70
    32
  0
VERTEX
  8
0
  5
B9B1
 10
364.726
 20
927.588
 30
0.000000
  70
    32
  0
VERTEX
  8
0
  5
B9B2
 10
364.735
 20
927.572
 30
0.000000
  70
    32
  0
VERTEX
  8
0
  5
B9B3
 10
364.744
 20
927.556
 30
0.000000
  70
    32
  0
VERTEX
  8
0
  5
B9B4
 10
364.754
 20
927.540
 30
0.000000
  70
    32
  0
VERTEX
  8
0
  5
B9B5
 10
364.763
 20
927.524
 30
0.000000
  70
    32
  0
VERTEX
  8
0
  5
B9B6
 10
364.773
 20
927.509
 30
0.000000
  70
    32
  0
VERTEX
  8
0
  5
B9B7
 10
364.783
 20
927.493
 30
0.000000
  70
    32
  0
VERTEX
  8
0
  5
B9B8
 10
364.793
 20
927.478
 30
0.000000
  70
    32
  0
VERTEX
  8
0
  5
B9B9
 10
364.804
 20
927.463
 30
0.000000
  70
    32
  0
VERTEX
  8
0
  5
B9BA
 10
364.814
 20
927.448
 30
0.000000
  70
    32
  0
VERTEX
  8
0
  5
B9BB
 10
364.825
 20
927.433
 30
0.000000
  70
    32
  0
VERTEX
  8
0
  5
B9BC
 10
364.836
 20
927.418
 30
0.000000
  70
    32
  0
VERTEX
  8
0
  5
B9BD
 10
364.847
 20
927.403
 30
0.000000
  70
    32
  0
VERTEX
  8
0
  5
B9BE
 10
364.858
 20
927.388
 30
0.000000
  70
    32
  0
VERTEX
  8
0
  5
B9BF
 10
364.869
 20
927.374
 30
0.000000
  70
    32
  0
VERTEX
  8
0
  5
B9C0
 10
364.881
 20
927.360
 30
0.000000
  70
    32
  0
VERTEX
  8
0
  5
B9C1
 10
364.893
 20
927.346
 30
0.000000
  70
    32
  0
VERTEX
  8
0
  5
B9C2
 10
364.905
 20
927.332
 30
0.000000
  70
    32
  0
VERTEX
  8
0
  5
B9C3
 10
364.917
 20
927.318
 30
0.000000
  70
    32
  0
VERTEX
  8
0
  5
B9C4
 10
364.929
 20
927.304
 30
0.000000
  70
    32
  0
VERTEX
  8
0
  5
B9C5
 10
364.941
 20
927.290
 30
0.000000
  70
    32
  0
VERTEX
  8
0
  5
B9C6
 10
364.954
 20
927.277
 30
0.000000
  70
    32
  0
VERTEX
  8
0
  5
B9C7
 10
364.967
 20
927.264
 30
0.000000
  70
    32
  0
VERTEX
  8
0
  5
B9C8
 10
364.980
 20
927.251
 30
0.000000
  70
    32
  0
VERTEX
  8
0
  5
B9C9
 10
364.993
 20
927.238
 30
0.000000
  70
    32
  0
VERTEX
  8
0
  5
B9CA
 10
365.006
 20
927.225
 30
0.000000
  70
    32
  0
VERTEX
  8
0
  5
B9CB
 10
365.020
 20
927.212
 30
0.000000
  70
    32
  0
VERTEX
  8
0
  5
B9CC
 10
365.033
 20
927.200
 30
0.000000
  70
    32
  0
VERTEX
  8
0
  5
B9CD
 10
365.047
 20
927.188
 30
0.000000
  70
    32
  0
VERTEX
  8
0
  5
B9CE
 10
365.061
 20
927.175
 30
0.000000
  70
    32
  0
VERTEX
  8
0
  5
B9CF
 10
365.075
 20
927.164
 30
0.000000
  70
    32
  0
VERTEX
  8
0
  5
B9D0
 10
365.089
 20
927.152
 30
0.000000
  70
    32
  0
VERTEX
  8
0
  5
B9D1
 10
365.103
 20
927.140
 30
0.000000
  70
    32
  0
VERTEX
  8
0
  5
B9D2
 10
365.118
 20
927.129
 30
0.000000
  70
    32
  0
VERTEX
  8
0
  5
B9D3
 10
365.132
 20
927.118
 30
0.000000
  70
    32
  0
VERTEX
  8
0
  5
B9D4
 10
365.147
 20
927.106
 30
0.000000
  70
    32
  0
VERTEX
  8
0
  5
B9D5
 10
365.162
 20
927.096
 30
0.000000
  70
    32
  0
VERTEX
  8
0
  5
B9D6
 10
365.177
 20
927.085
 30
0.000000
  70
    32
  0
VERTEX
  8
0
  5
B9D7
 10
365.192
 20
927.074
 30
0.000000
  70
    32
  0
VERTEX
  8
0
  5
B9D8
 10
365.207
 20
927.064
 30
0.000000
  70
    32
  0
VERTEX
  8
0
  5
B9D9
 10
365.222
 20
927.054
 30
0.000000
  70
    32
  0
VERTEX
  8
0
  5
B9DA
 10
365.238
 20
927.044
 30
0.000000
  70
    32
  0
VERTEX
  8
0
  5
B9DB
 10
365.254
 20
927.034
 30
0.000000
  70
    32
  0
VERTEX
  8
0
  5
B9DC
 10
365.269
 20
927.025
 30
0.000000
  70
    32
  0
VERTEX
  8
0
  5
B9DD
 10
365.285
 20
927.015
 30
0.000000
  70
    32
  0
VERTEX
  8
0
  5
B9DE
 10
365.301
 20
927.006
 30
0.000000
  70
    32
  0
VERTEX
  8
0
  5
B9DF
 10
365.317
 20
926.997
 30
0.000000
  70
    32
  0
VERTEX
  8
0
  5
B9E0
 10
365.333
 20
926.988
 30
0.000000
  70
    32
  0
VERTEX
  8
0
  5
B9E1
 10
365.350
 20
926.980
 30
0.000000
  70
    32
  0
VERTEX
  8
0
  5
B9E2
 10
365.366
 20
926.971
 30
0.000000
  70
    32
  0
VERTEX
  8
0
  5
B9E3
 10
365.382
 20
926.963
 30
0.000000
  70
    32
  0
VERTEX
  8
0
  5
B9E4
 10
365.399
 20
926.955
 30
0.000000
  70
    32
  0
VERTEX
  8
0
  5
B9E5
 10
365.416
 20
926.948
 30
0.000000
  70
    32
  0
VERTEX
  8
0
  5
B9E6
 10
365.433
 20
926.940
 30
0.000000
  70
    32
  0
VERTEX
  8
0
  5
B9E7
 10
365.449
 20
926.933
 30
0.000000
  70
    32
  0
VERTEX
  8
0
  5
B9E8
 10
365.466
 20
926.925
 30
0.000000
  70
    32
  0
VERTEX
  8
0
  5
B9E9
 10
365.483
 20
926.919
 30
0.000000
  70
    32
  0
VERTEX
  8
0
  5
B9EA
 10
365.501
 20
926.912
 30
0.000000
  70
    32
  0
VERTEX
  8
0
  5
B9EB
 10
365.518
 20
926.905
 30
0.000000
  70
    32
  0
VERTEX
  8
0
  5
B9EC
 10
365.535
 20
926.899
 30
0.000000
  70
    32
  0
VERTEX
  8
0
  5
B9ED
 10
365.552
 20
926.893
 30
0.000000
  70
    32
  0
VERTEX
  8
0
  5
B9EE
 10
365.570
 20
926.887
 30
0.000000
  70
    32
  0
VERTEX
  8
0
  5
B9EF
 10
365.587
 20
926.881
 30
0.000000
  70
    32
  0
VERTEX
  8
0
  5
B9F0
 10
365.605
 20
926.876
 30
0.000000
  70
    32
  0
VERTEX
  8
0
  5
B9F1
 10
365.623
 20
926.871
 30
0.000000
  70
    32
  0
VERTEX
  8
0
  5
B9F2
 10
365.640
 20
926.866
 30
0.000000
  70
    32
  0
VERTEX
  8
0
  5
B9F3
 10
365.658
 20
926.861
 30
0.000000
  70
    32
  0
VERTEX
  8
0
  5
B9F4
 10
365.676
 20
926.856
 30
0.000000
  70
    32
  0
VERTEX
  8
0
  5
B9F5
 10
365.694
 20
926.852
 30
0.000000
  70
    32
  0
VERTEX
  8
0
  5
B9F6
 10
365.712
 20
926.848
 30
0.000000
  70
    32
  0
VERTEX
  8
0
  5
B9F7
 10
365.730
 20
926.844
 30
0.000000
  70
    32
  0
VERTEX
  8
0
  5
B9F8
 10
365.748
 20
926.840
 30
0.000000
  70
    32
  0
VERTEX
  8
0
  5
B9F9
 10
365.766
 20
926.837
 30
0.000000
  70
    32
  0
VERTEX
  8
0
  5
B9FA
 10
365.784
 20
926.833
 30
0.000000
  70
    32
  0
VERTEX
  8
0
  5
B9FB
 10
365.802
 20
926.830
 30
0.000000
  70
    32
  0
VERTEX
  8
0
  5
B9FC
 10
365.820
 20
926.828
 30
0.000000
  70
    32
  0
VERTEX
  8
0
  5
B9FD
 10
365.839
 20
926.825
 30
0.000000
  70
    32
  0
VERTEX
  8
0
  5
B9FE
 10
365.857
 20
926.823
 30
0.000000
  70
    32
  0
VERTEX
  8
0
  5
B9FF
 10
365.875
 20
926.820
 30
0.000000
  70
    32
  0
VERTEX
  8
0
  5
BA00
 10
365.893
 20
926.819
 30
0.000000
  70
    32
  0
VERTEX
  8
0
  5
BA01
 10
365.912
 20
926.817
 30
0.000000
  70
    32
  0
VERTEX
  8
0
  5
BA02
 10
365.930
 20
926.815
 30
0.000000
  70
    32
  0
VERTEX
  8
0
  5
BA03
 10
365.948
 20
926.814
 30
0.000000
  70
    32
  0
VERTEX
  8
0
  5
BA04
 10
365.967
 20
926.813
 30
0.000000
  70
    32
  0
VERTEX
  8
0
  5
BA05
 10
365.985
 20
926.812
 30
0.000000
  70
    32
  0
VERTEX
  8
0
  5
BA06
 10
366.004
 20
926.812
 30
0.000000
  70
    32
  0
VERTEX
  8
0
  5
BA07
 10
366.022
 20
926.811
 30
0.000000
  70
    32
  0
VERTEX
  8
0
  5
BA08
 10
366.040
 20
926.811
 30
0.000000
  70
    32
  0
SEQEND
  8
0
  5
BA09
  0
POLYLINE
  5
B570
  8
0
 10
364.04040675928275
 20
928.31131070403728
 30
0.0
 66
     1
 70
     8
  0
VERTEX
  8
0
  5
BA0A
 10
364.040
 20
928.311
 30
0.000000
  70
    32
  0
VERTEX
  8
0
  5
BA0B
 10
364.041
 20
928.293
 30
0.000000
  70
    32
  0
VERTEX
  8
0
  5
BA0C
 10
364.041
 20
928.274
 30
0.000000
  70
    32
  0
VERTEX
  8
0
  5
BA0D
 10
364.041
 20
928.256
 30
0.000000
  70
    32
  0
VERTEX
  8
0
  5
BA0E
 10
364.042
 20
928.238
 30
0.000000
  70
    32
  0
VERTEX
  8
0
  5
BA0F
 10
364.043
 20
928.219
 30
0.000000
  70
    32
  0
VERTEX
  8
0
  5
BA10
 10
364.044
 20
928.201
 30
0.000000
  70
    32
  0
VERTEX
  8
0
  5
BA11
 10
364.046
 20
928.183
 30
0.000000
  70
    32
  0
VERTEX
  8
0
  5
BA12
 10
364.048
 20
928.164
 30
0.000000
  70
    32
  0
VERTEX
  8
0
  5
BA13
 10
364.050
 20
928.146
 30
0.000000
  70
    32
  0
VERTEX
  8
0
  5
BA14
 10
364.052
 20
928.128
 30
0.000000
  70
    32
  0
VERTEX
  8
0
  5
BA15
 10
364.054
 20
928.109
 30
0.000000
  70
    32
  0
VERTEX
  8
0
  5
BA16
 10
364.057
 20
928.091
 30
0.000000
  70
    32
  0
VERTEX
  8
0
  5
BA17
 10
364.059
 20
928.073
 30
0.000000
  70
    32
  0
VERTEX
  8
0
  5
BA18
 10
364.062
 20
928.055
 30
0.000000
  70
    32
  0
VERTEX
  8
0
  5
BA19
 10
364.066
 20
928.037
 30
0.000000
  70
    32
  0
VERTEX
  8
0
  5
BA1A
 10
364.069
 20
928.019
 30
0.000000
  70
    32
  0
VERTEX
  8
0
  5
BA1B
 10
364.073
 20
928.001
 30
0.000000
  70
    32
  0
VERTEX
  8
0
  5
BA1C
 10
364.077
 20
927.983
 30
0.000000
  70
    32
  0
VERTEX
  8
0
  5
BA1D
 10
364.081
 20
927.965
 30
0.000000
  70
    32
  0
VERTEX
  8
0
  5
BA1E
 10
364.085
 20
927.947
 30
0.000000
  70
    32
  0
VERTEX
  8
0
  5
BA1F
 10
364.090
 20
927.929
 30
0.000000
  70
    32
  0
VERTEX
  8
0
  5
BA20
 10
364.095
 20
927.911
 30
0.000000
  70
    32
  0
VERTEX
  8
0
  5
BA21
 10
364.100
 20
927.894
 30
0.000000
  70
    32
  0
VERTEX
  8
0
  5
BA22
 10
364.105
 20
927.876
 30
0.000000
  70
    32
  0
VERTEX
  8
0
  5
BA23
 10
364.110
 20
927.858
 30
0.000000
  70
    32
  0
VERTEX
  8
0
  5
BA24
 10
364.116
 20
927.841
 30
0.000000
  70
    32
  0
VERTEX
  8
0
  5
BA25
 10
364.122
 20
927.823
 30
0.000000
  70
    32
  0
VERTEX
  8
0
  5
BA26
 10
364.128
 20
927.806
 30
0.000000
  70
    32
  0
VERTEX
  8
0
  5
BA27
 10
364.134
 20
927.789
 30
0.000000
  70
    32
  0
VERTEX
  8
0
  5
BA28
 10
364.141
 20
927.771
 30
0.000000
  70
    32
  0
VERTEX
  8
0
  5
BA29
 10
364.148
 20
927.754
 30
0.000000
  70
    32
  0
VERTEX
  8
0
  5
BA2A
 10
364.155
 20
927.737
 30
0.000000
  70
    32
  0
VERTEX
  8
0
  5
BA2B
 10
364.162
 20
927.720
 30
0.000000
  70
    32
  0
VERTEX
  8
0
  5
BA2C
 10
364.169
 20
927.703
 30
0.000000
  70
    32
  0
VERTEX
  8
0
  5
BA2D
 10
364.177
 20
927.687
 30
0.000000
  70
    32
  0
VERTEX
  8
0
  5
BA2E
 10
364.184
 20
927.670
 30
0.000000
  70
    32
  0
VERTEX
  8
0
  5
BA2F
 10
364.192
 20
927.653
 30
0.000000
  70
    32
  0
VERTEX
  8
0
  5
BA30
 10
364.201
 20
927.637
 30
0.000000
  70
    32
  0
VERTEX
  8
0
  5
BA31
 10
364.209
 20
927.620
 30
0.000000
  70
    32
  0
VERTEX
  8
0
  5
BA32
 10
364.218
 20
927.604
 30
0.000000
  70
    32
  0
VERTEX
  8
0
  5
BA33
 10
364.226
 20
927.588
 30
0.000000
  70
    32
  0
VERTEX
  8
0
  5
BA34
 10
364.235
 20
927.572
 30
0.000000
  70
    32
  0
VERTEX
  8
0
  5
BA35
 10
364.244
 20
927.556
 30
0.000000
  70
    32
  0
VERTEX
  8
0
  5
BA36
 10
364.254
 20
927.540
 30
0.000000
  70
    32
  0
VERTEX
  8
0
  5
BA37
 10
364.263
 20
927.524
 30
0.000000
  70
    32
  0
VERTEX
  8
0
  5
BA38
 10
364.273
 20
927.509
 30
0.000000
  70
    32
  0
VERTEX
  8
0
  5
BA39
 10
364.283
 20
927.493
 30
0.000000
  70
    32
  0
VERTEX
  8
0
  5
BA3A
 10
364.293
 20
927.478
 30
0.000000
  70
    32
  0
VERTEX
  8
0
  5
BA3B
 10
364.304
 20
927.463
 30
0.000000
  70
    32
  0
VERTEX
  8
0
  5
BA3C
 10
364.314
 20
927.448
 30
0.000000
  70
    32
  0
VERTEX
  8
0
  5
BA3D
 10
364.325
 20
927.433
 30
0.000000
  70
    32
  0
VERTEX
  8
0
  5
BA3E
 10
364.336
 20
927.418
 30
0.000000
  70
    32
  0
VERTEX
  8
0
  5
BA3F
 10
364.347
 20
927.403
 30
0.000000
  70
    32
  0
VERTEX
  8
0
  5
BA40
 10
364.358
 20
927.388
 30
0.000000
  70
    32
  0
VERTEX
  8
0
  5
BA41
 10
364.369
 20
927.374
 30
0.000000
  70
    32
  0
VERTEX
  8
0
  5
BA42
 10
364.381
 20
927.360
 30
0.000000
  70
    32
  0
VERTEX
  8
0
  5
BA43
 10
364.393
 20
927.346
 30
0.000000
  70
    32
  0
VERTEX
  8
0
  5
BA44
 10
364.405
 20
927.332
 30
0.000000
  70
    32
  0
VERTEX
  8
0
  5
BA45
 10
364.417
 20
927.318
 30
0.000000
  70
    32
  0
VERTEX
  8
0
  5
BA46
 10
364.429
 20
927.304
 30
0.000000
  70
    32
  0
VERTEX
  8
0
  5
BA47
 10
364.441
 20
927.290
 30
0.000000
  70
    32
  0
VERTEX
  8
0
  5
BA48
 10
364.454
 20
927.277
 30
0.000000
  70
    32
  0
VERTEX
  8
0
  5
BA49
 10
364.467
 20
927.264
 30
0.000000
  70
    32
  0
VERTEX
  8
0
  5
BA4A
 10
364.480
 20
927.251
 30
0.000000
  70
    32
  0
VERTEX
  8
0
  5
BA4B
 10
364.493
 20
927.238
 30
0.000000
  70
    32
  0
VERTEX
  8
0
  5
BA4C
 10
364.506
 20
927.225
 30
0.000000
  70
    32
  0
VERTEX
  8
0
  5
BA4D
 10
364.520
 20
927.212
 30
0.000000
  70
    32
  0
VERTEX
  8
0
  5
BA4E
 10
364.533
 20
927.200
 30
0.000000
  70
    32
  0
VERTEX
  8
0
  5
BA4F
 10
364.547
 20
927.188
 30
0.000000
  70
    32
  0
VERTEX
  8
0
  5
BA50
 10
364.561
 20
927.175
 30
0.000000
  70
    32
  0
VERTEX
  8
0
  5
BA51
 10
364.575
 20
927.164
 30
0.000000
  70
    32
  0
VERTEX
  8
0
  5
BA52
 10
364.589
 20
927.152
 30
0.000000
  70
    32
  0
VERTEX
  8
0
  5
BA53
 10
364.603
 20
927.140
 30
0.000000
  70
    32
  0
VERTEX
  8
0
  5
BA54
 10
364.618
 20
927.129
 30
0.000000
  70
    32
  0
VERTEX
  8
0
  5
BA55
 10
364.632
 20
927.118
 30
0.000000
  70
    32
  0
VERTEX
  8
0
  5
BA56
 10
364.647
 20
927.106
 30
0.000000
  70
    32
  0
VERTEX
  8
0
  5
BA57
 10
364.662
 20
927.096
 30
0.000000
  70
    32
  0
VERTEX
  8
0
  5
BA58
 10
364.677
 20
927.085
 30
0.000000
  70
    32
  0
VERTEX
  8
0
  5
BA59
 10
364.692
 20
927.074
 30
0.000000
  70
    32
  0
VERTEX
  8
0
  5
BA5A
 10
364.707
 20
927.064
 30
0.000000
  70
    32
  0
VERTEX
  8
0
  5
BA5B
 10
364.722
 20
927.054
 30
0.000000
  70
    32
  0
VERTEX
  8
0
  5
BA5C
 10
364.738
 20
927.044
 30
0.000000
  70
    32
  0
VERTEX
  8
0
  5
BA5D
 10
364.754
 20
927.034
 30
0.000000
  70
    32
  0
VERTEX
  8
0
  5
BA5E
 10
364.769
 20
927.025
 30
0.000000
  70
    32
  0
VERTEX
  8
0
  5
BA5F
 10
364.785
 20
927.015
 30
0.000000
  70
    32
  0
VERTEX
  8
0
  5
BA60
 10
364.801
 20
927.006
 30
0.000000
  70
    32
  0
VERTEX
  8
0
  5
BA61
 10
364.817
 20
926.997
 30
0.000000
  70
    32
  0
VERTEX
  8
0
  5
BA62
 10
364.833
 20
926.988
 30
0.000000
  70
    32
  0
VERTEX
  8
0
  5
BA63
 10
364.850
 20
926.980
 30
0.000000
  70
    32
  0
VERTEX
  8
0
  5
BA64
 10
364.866
 20
926.971
 30
0.000000
  70
    32
  0
VERTEX
  8
0
  5
BA65
 10
364.882
 20
926.963
 30
0.000000
  70
    32
  0
VERTEX
  8
0
  5
BA66
 10
364.899
 20
926.955
 30
0.000000
  70
    32
  0
VERTEX
  8
0
  5
BA67
 10
364.916
 20
926.948
 30
0.000000
  70
    32
  0
VERTEX
  8
0
  5
BA68
 10
364.933
 20
926.940
 30
0.000000
  70
    32
  0
VERTEX
  8
0
  5
BA69
 10
364.949
 20
926.933
 30
0.000000
  70
    32
  0
VERTEX
  8
0
  5
BA6A
 10
364.966
 20
926.925
 30
0.000000
  70
    32
  0
VERTEX
  8
0
  5
BA6B
 10
364.983
 20
926.919
 30
0.000000
  70
    32
  0
VERTEX
  8
0
  5
BA6C
 10
365.001
 20
926.912
 30
0.000000
  70
    32
  0
VERTEX
  8
0
  5
BA6D
 10
365.018
 20
926.905
 30
0.000000
  70
    32
  0
VERTEX
  8
0
  5
BA6E
 10
365.035
 20
926.899
 30
0.000000
  70
    32
  0
VERTEX
  8
0
  5
BA6F
 10
365.052
 20
926.893
 30
0.000000
  70
    32
  0
VERTEX
  8
0
  5
BA70
 10
365.070
 20
926.887
 30
0.000000
  70
    32
  0
VERTEX
  8
0
  5
BA71
 10
365.087
 20
926.881
 30
0.000000
  70
    32
  0
VERTEX
  8
0
  5
BA72
 10
365.105
 20
926.876
 30
0.000000
  70
    32
  0
VERTEX
  8
0
  5
BA73
 10
365.123
 20
926.871
 30
0.000000
  70
    32
  0
VERTEX
  8
0
  5
BA74
 10
365.140
 20
926.866
 30
0.000000
  70
    32
  0
VERTEX
  8
0
  5
BA75
 10
365.158
 20
926.861
 30
0.000000
  70
    32
  0
VERTEX
  8
0
  5
BA76
 10
365.176
 20
926.856
 30
0.000000
  70
    32
  0
VERTEX
  8
0
  5
BA77
 10
365.194
 20
926.852
 30
0.000000
  70
    32
  0
VERTEX
  8
0
  5
BA78
 10
365.212
 20
926.848
 30
0.000000
  70
    32
  0
VERTEX
  8
0
  5
BA79
 10
365.230
 20
926.844
 30
0.000000
  70
    32
  0
VERTEX
  8
0
  5
BA7A
 10
365.248
 20
926.840
 30
0.000000
  70
    32
  0
VERTEX
  8
0
  5
BA7B
 10
365.266
 20
926.837
 30
0.000000
  70
    32
  0
VERTEX
  8
0
  5
BA7C
 10
365.284
 20
926.833
 30
0.000000
  70
    32
  0
VERTEX
  8
0
  5
BA7D
 10
365.302
 20
926.830
 30
0.000000
  70
    32
  0
VERTEX
  8
0
  5
BA7E
 10
365.320
 20
926.828
 30
0.000000
  70
    32
  0
VERTEX
  8
0
  5
BA7F
 10
365.339
 20
926.825
 30
0.000000
  70
    32
  0
VERTEX
  8
0
  5
BA80
 10
365.357
 20
926.823
 30
0.000000
  70
    32
  0
VERTEX
  8
0
  5
BA81
 10
365.375
 20
926.820
 30
0.000000
  70
    32
  0
VERTEX
  8
0
  5
BA82
 10
365.393
 20
926.819
 30
0.000000
  70
    32
  0
VERTEX
  8
0
  5
BA83
 10
365.412
 20
926.817
 30
0.000000
  70
    32
  0
VERTEX
  8
0
  5
BA84
 10
365.430
 20
926.815
 30
0.000000
  70
    32
  0
VERTEX
  8
0
  5
BA85
 10
365.448
 20
926.814
 30
0.000000
  70
    32
  0
VERTEX
  8
0
  5
BA86
 10
365.467
 20
926.813
 30
0.000000
  70
    32
  0
VERTEX
  8
0
  5
BA87
 10
365.485
 20
926.812
 30
0.000000
  70
    32
  0
VERTEX
  8
0
  5
BA88
 10
365.504
 20
926.812
 30
0.000000
  70
    32
  0
VERTEX
  8
0
  5
BA89
 10
365.522
 20
926.811
 30
0.000000
  70
    32
  0
VERTEX
  8
0
  5
BA8A
 10
365.540
 20
926.811
 30
0.000000
  70
    32
  0
SEQEND
  8
0
  5
BA8B
  0
LINE
  5
B571
  8
0
 10
364.84040675868312
 20
935.81146070403736
 30
0.0
 11
364.04040675868288
 21
935.81146070403736
 31
0.0
  0
LINE
  5
B572
  8
0
 10
364.04040675868288
 20
935.81146070403736
 30
0.0
 11
364.04040675868288
 21
928.31131070403728
 31
0.0
  0
LINE
  5
B573
  8
0
 10
364.54040675868288
 20
931.81138070403745
 30
0.0
 11
364.54040675868288
 21
928.31131070403728
 31
0.0
  0
POLYLINE
  5
B574
  8
0
 10
371.84040676240318
 20
943.8116207040373
 30
0.0
 66
     1
 70
     8
  0
VERTEX
  8
0
  5
BA8C
 10
371.840
 20
943.812
 30
0.000000
  70
    32
  0
VERTEX
  8
0
  5
BA8D
 10
371.843
 20
943.583
 30
0.000000
  70
    32
  0
VERTEX
  8
0
  5
BA8E
 10
371.852
 20
943.355
 30
0.000000
  70
    32
  0
VERTEX
  8
0
  5
BA8F
 10
371.866
 20
943.127
 30
0.000000
  70
    32
  0
VERTEX
  8
0
  5
BA90
 10
371.885
 20
942.900
 30
0.000000
  70
    32
  0
VERTEX
  8
0
  5
BA91
 10
371.910
 20
942.673
 30
0.000000
  70
    32
  0
VERTEX
  8
0
  5
BA92
 10
371.941
 20
942.447
 30
0.000000
  70
    32
  0
VERTEX
  8
0
  5
BA93
 10
371.977
 20
942.222
 30
0.000000
  70
    32
  0
VERTEX
  8
0
  5
BA94
 10
372.019
 20
941.997
 30
0.000000
  70
    32
  0
VERTEX
  8
0
  5
BA95
 10
372.066
 20
941.774
 30
0.000000
  70
    32
  0
VERTEX
  8
0
  5
BA96
 10
372.119
 20
941.552
 30
0.000000
  70
    32
  0
VERTEX
  8
0
  5
BA97
 10
372.177
 20
941.331
 30
0.000000
  70
    32
  0
VERTEX
  8
0
  5
BA98
 10
372.241
 20
941.112
 30
0.000000
  70
    32
  0
VERTEX
  8
0
  5
BA99
 10
372.310
 20
940.894
 30
0.000000
  70
    32
  0
VERTEX
  8
0
  5
BA9A
 10
372.384
 20
940.678
 30
0.000000
  70
    32
  0
VERTEX
  8
0
  5
BA9B
 10
372.464
 20
940.465
 30
0.000000
  70
    32
  0
VERTEX
  8
0
  5
BA9C
 10
372.548
 20
940.253
 30
0.000000
  70
    32
  0
VERTEX
  8
0
  5
BA9D
 10
372.638
 20
940.043
 30
0.000000
  70
    32
  0
VERTEX
  8
0
  5
BA9E
 10
372.733
 20
939.835
 30
0.000000
  70
    32
  0
VERTEX
  8
0
  5
BA9F
 10
372.833
 20
939.630
 30
0.000000
  70
    32
  0
VERTEX
  8
0
  5
BAA0
 10
372.939
 20
939.428
 30
0.000000
  70
    32
  0
VERTEX
  8
0
  5
BAA1
 10
373.049
 20
939.228
 30
0.000000
  70
    32
  0
VERTEX
  8
0
  5
BAA2
 10
373.164
 20
939.030
 30
0.000000
  70
    32
  0
VERTEX
  8
0
  5
BAA3
 10
373.283
 20
938.836
 30
0.000000
  70
    32
  0
VERTEX
  8
0
  5
BAA4
 10
373.408
 20
938.645
 30
0.000000
  70
    32
  0
VERTEX
  8
0
  5
BAA5
 10
373.537
 20
938.456
 30
0.000000
  70
    32
  0
VERTEX
  8
0
  5
BAA6
 10
373.671
 20
938.272
 30
0.000000
  70
    32
  0
VERTEX
  8
0
  5
BAA7
 10
373.809
 20
938.090
 30
0.000000
  70
    32
  0
VERTEX
  8
0
  5
BAA8
 10
373.951
 20
937.912
 30
0.000000
  70
    32
  0
VERTEX
  8
0
  5
BAA9
 10
374.098
 20
937.737
 30
0.000000
  70
    32
  0
VERTEX
  8
0
  5
BAAA
 10
374.250
 20
937.566
 30
0.000000
  70
    32
  0
VERTEX
  8
0
  5
BAAB
 10
374.405
 20
937.399
 30
0.000000
  70
    32
  0
VERTEX
  8
0
  5
BAAC
 10
374.564
 20
937.235
 30
0.000000
  70
    32
  0
VERTEX
  8
0
  5
BAAD
 10
374.728
 20
937.076
 30
0.000000
  70
    32
  0
VERTEX
  8
0
  5
BAAE
 10
374.895
 20
936.921
 30
0.000000
  70
    32
  0
VERTEX
  8
0
  5
BAAF
 10
375.066
 20
936.769
 30
0.000000
  70
    32
  0
VERTEX
  8
0
  5
BAB0
 10
375.241
 20
936.622
 30
0.000000
  70
    32
  0
VERTEX
  8
0
  5
BAB1
 10
375.419
 20
936.480
 30
0.000000
  70
    32
  0
VERTEX
  8
0
  5
BAB2
 10
375.600
 20
936.342
 30
0.000000
  70
    32
  0
VERTEX
  8
0
  5
BAB3
 10
375.785
 20
936.208
 30
0.000000
  70
    32
  0
VERTEX
  8
0
  5
BAB4
 10
375.974
 20
936.079
 30
0.000000
  70
    32
  0
VERTEX
  8
0
  5
BAB5
 10
376.165
 20
935.954
 30
0.000000
  70
    32
  0
VERTEX
  8
0
  5
BAB6
 10
376.359
 20
935.835
 30
0.000000
  70
    32
  0
VERTEX
  8
0
  5
BAB7
 10
376.556
 20
935.720
 30
0.000000
  70
    32
  0
VERTEX
  8
0
  5
BAB8
 10
376.756
 20
935.610
 30
0.000000
  70
    32
  0
VERTEX
  8
0
  5
BAB9
 10
376.959
 20
935.504
 30
0.000000
  70
    32
  0
VERTEX
  8
0
  5
BABA
 10
377.164
 20
935.404
 30
0.000000
  70
    32
  0
VERTEX
  8
0
  5
BABB
 10
377.372
 20
935.309
 30
0.000000
  70
    32
  0
VERTEX
  8
0
  5
BABC
 10
377.581
 20
935.219
 30
0.000000
  70
    32
  0
VERTEX
  8
0
  5
BABD
 10
377.793
 20
935.135
 30
0.000000
  70
    32
  0
VERTEX
  8
0
  5
BABE
 10
378.007
 20
935.055
 30
0.000000
  70
    32
  0
VERTEX
  8
0
  5
BABF
 10
378.223
 20
934.981
 30
0.000000
  70
    32
  0
VERTEX
  8
0
  5
BAC0
 10
378.441
 20
934.912
 30
0.000000
  70
    32
  0
VERTEX
  8
0
  5
BAC1
 10
378.660
 20
934.848
 30
0.000000
  70
    32
  0
VERTEX
  8
0
  5
BAC2
 10
378.881
 20
934.790
 30
0.000000
  70
    32
  0
VERTEX
  8
0
  5
BAC3
 10
379.103
 20
934.737
 30
0.000000
  70
    32
  0
VERTEX
  8
0
  5
BAC4
 10
379.326
 20
934.690
 30
0.000000
  70
    32
  0
VERTEX
  8
0
  5
BAC5
 10
379.550
 20
934.648
 30
0.000000
  70
    32
  0
VERTEX
  8
0
  5
BAC6
 10
379.776
 20
934.612
 30
0.000000
  70
    32
  0
VERTEX
  8
0
  5
BAC7
 10
380.002
 20
934.581
 30
0.000000
  70
    32
  0
VERTEX
  8
0
  5
BAC8
 10
380.229
 20
934.556
 30
0.000000
  70
    32
  0
VERTEX
  8
0
  5
BAC9
 10
380.456
 20
934.537
 30
0.000000
  70
    32
  0
VERTEX
  8
0
  5
BACA
 10
380.684
 20
934.523
 30
0.000000
  70
    32
  0
VERTEX
  8
0
  5
BACB
 10
380.912
 20
934.514
 30
0.000000
  70
    32
  0
VERTEX
  8
0
  5
BACC
 10
381.140
 20
934.511
 30
0.000000
  70
    32
  0
VERTEX
  8
0
  5
BACD
 10
381.369
 20
934.514
 30
0.000000
  70
    32
  0
VERTEX
  8
0
  5
BACE
 10
381.597
 20
934.523
 30
0.000000
  70
    32
  0
VERTEX
  8
0
  5
BACF
 10
381.825
 20
934.537
 30
0.000000
  70
    32
  0
VERTEX
  8
0
  5
BAD0
 10
382.052
 20
934.556
 30
0.000000
  70
    32
  0
VERTEX
  8
0
  5
BAD1
 10
382.279
 20
934.581
 30
0.000000
  70
    32
  0
VERTEX
  8
0
  5
BAD2
 10
382.505
 20
934.612
 30
0.000000
  70
    32
  0
VERTEX
  8
0
  5
BAD3
 10
382.730
 20
934.648
 30
0.000000
  70
    32
  0
VERTEX
  8
0
  5
BAD4
 10
382.955
 20
934.690
 30
0.000000
  70
    32
  0
VERTEX
  8
0
  5
BAD5
 10
383.178
 20
934.737
 30
0.000000
  70
    32
  0
VERTEX
  8
0
  5
BAD6
 10
383.400
 20
934.790
 30
0.000000
  70
    32
  0
VERTEX
  8
0
  5
BAD7
 10
383.621
 20
934.848
 30
0.000000
  70
    32
  0
VERTEX
  8
0
  5
BAD8
 10
383.840
 20
934.912
 30
0.000000
  70
    32
  0
VERTEX
  8
0
  5
BAD9
 10
384.058
 20
934.981
 30
0.000000
  70
    32
  0
VERTEX
  8
0
  5
BADA
 10
384.273
 20
935.055
 30
0.000000
  70
    32
  0
VERTEX
  8
0
  5
BADB
 10
384.487
 20
935.135
 30
0.000000
  70
    32
  0
VERTEX
  8
0
  5
BADC
 10
384.699
 20
935.219
 30
0.000000
  70
    32
  0
VERTEX
  8
0
  5
BADD
 10
384.909
 20
935.309
 30
0.000000
  70
    32
  0
VERTEX
  8
0
  5
BADE
 10
385.117
 20
935.404
 30
0.000000
  70
    32
  0
VERTEX
  8
0
  5
BADF
 10
385.322
 20
935.504
 30
0.000000
  70
    32
  0
VERTEX
  8
0
  5
BAE0
 10
385.524
 20
935.610
 30
0.000000
  70
    32
  0
VERTEX
  8
0
  5
BAE1
 10
385.724
 20
935.720
 30
0.000000
  70
    32
  0
VERTEX
  8
0
  5
BAE2
 10
385.922
 20
935.835
 30
0.000000
  70
    32
  0
VERTEX
  8
0
  5
BAE3
 10
386.116
 20
935.954
 30
0.000000
  70
    32
  0
VERTEX
  8
0
  5
BAE4
 10
386.307
 20
936.079
 30
0.000000
  70
    32
  0
VERTEX
  8
0
  5
BAE5
 10
386.495
 20
936.208
 30
0.000000
  70
    32
  0
VERTEX
  8
0
  5
BAE6
 10
386.680
 20
936.342
 30
0.000000
  70
    32
  0
VERTEX
  8
0
  5
BAE7
 10
386.862
 20
936.480
 30
0.000000
  70
    32
  0
VERTEX
  8
0
  5
BAE8
 10
387.040
 20
936.622
 30
0.000000
  70
    32
  0
VERTEX
  8
0
  5
BAE9
 10
387.215
 20
936.769
 30
0.000000
  70
    32
  0
VERTEX
  8
0
  5
BAEA
 10
387.386
 20
936.921
 30
0.000000
  70
    32
  0
VERTEX
  8
0
  5
BAEB
 10
387.553
 20
937.076
 30
0.000000
  70
    32
  0
VERTEX
  8
0
  5
BAEC
 10
387.716
 20
937.235
 30
0.000000
  70
    32
  0
VERTEX
  8
0
  5
BAED
 10
387.876
 20
937.399
 30
0.000000
  70
    32
  0
VERTEX
  8
0
  5
BAEE
 10
388.031
 20
937.566
 30
0.000000
  70
    32
  0
VERTEX
  8
0
  5
BAEF
 10
388.182
 20
937.737
 30
0.000000
  70
    32
  0
VERTEX
  8
0
  5
BAF0
 10
388.329
 20
937.912
 30
0.000000
  70
    32
  0
VERTEX
  8
0
  5
BAF1
 10
388.472
 20
938.090
 30
0.000000
  70
    32
  0
VERTEX
  8
0
  5
BAF2
 10
388.610
 20
938.272
 30
0.000000
  70
    32
  0
VERTEX
  8
0
  5
BAF3
 10
388.744
 20
938.456
 30
0.000000
  70
    32
  0
VERTEX
  8
0
  5
BAF4
 10
388.873
 20
938.645
 30
0.000000
  70
    32
  0
VERTEX
  8
0
  5
BAF5
 10
388.998
 20
938.836
 30
0.000000
  70
    32
  0
VERTEX
  8
0
  5
BAF6
 10
389.117
 20
939.030
 30
0.000000
  70
    32
  0
VERTEX
  8
0
  5
BAF7
 10
389.232
 20
939.228
 30
0.000000
  70
    32
  0
VERTEX
  8
0
  5
BAF8
 10
389.342
 20
939.428
 30
0.000000
  70
    32
  0
VERTEX
  8
0
  5
BAF9
 10
389.447
 20
939.630
 30
0.000000
  70
    32
  0
VERTEX
  8
0
  5
BAFA
 10
389.548
 20
939.835
 30
0.000000
  70
    32
  0
VERTEX
  8
0
  5
BAFB
 10
389.643
 20
940.043
 30
0.000000
  70
    32
  0
VERTEX
  8
0
  5
BAFC
 10
389.732
 20
940.253
 30
0.000000
  70
    32
  0
VERTEX
  8
0
  5
BAFD
 10
389.817
 20
940.465
 30
0.000000
  70
    32
  0
VERTEX
  8
0
  5
BAFE
 10
389.897
 20
940.678
 30
0.000000
  70
    32
  0
VERTEX
  8
0
  5
BAFF
 10
389.971
 20
940.894
 30
0.000000
  70
    32
  0
VERTEX
  8
0
  5
BB00
 10
390.040
 20
941.112
 30
0.000000
  70
    32
  0
VERTEX
  8
0
  5
BB01
 10
390.104
 20
941.331
 30
0.000000
  70
    32
  0
VERTEX
  8
0
  5
BB02
 10
390.162
 20
941.552
 30
0.000000
  70
    32
  0
VERTEX
  8
0
  5
BB03
 10
390.214
 20
941.774
 30
0.000000
  70
    32
  0
VERTEX
  8
0
  5
BB04
 10
390.262
 20
941.997
 30
0.000000
  70
    32
  0
VERTEX
  8
0
  5
BB05
 10
390.303
 20
942.222
 30
0.000000
  70
    32
  0
VERTEX
  8
0
  5
BB06
 10
390.340
 20
942.447
 30
0.000000
  70
    32
  0
VERTEX
  8
0
  5
BB07
 10
390.370
 20
942.673
 30
0.000000
  70
    32
  0
VERTEX
  8
0
  5
BB08
 10
390.396
 20
942.900
 30
0.000000
  70
    32
  0
VERTEX
  8
0
  5
BB09
 10
390.415
 20
943.127
 30
0.000000
  70
    32
  0
VERTEX
  8
0
  5
BB0A
 10
390.429
 20
943.355
 30
0.000000
  70
    32
  0
VERTEX
  8
0
  5
BB0B
 10
390.438
 20
943.583
 30
0.000000
  70
    32
  0
VERTEX
  8
0
  5
BB0C
 10
390.440
 20
943.812
 30
0.000000
  70
    32
  0
SEQEND
  8
0
  5
BB0D
  0
LINE
  5
B575
  8
0
 10
365.54040675868288
 20
926.81128070403736
 30
0.0
 11
365.8388927586829
 21
926.81128070403736
 31
0.0
  0
LINE
  5
B576
  8
0
 10
366.04040675868288
 20
926.81128070403736
 30
0.0
 11
368.96610175868278
 21
926.81128070403736
 31
0.0
  0
POLYLINE
  5
B577
  8
0
 10
381.14040676598722
 20
950.11174670403693
 30
0.0
 66
     1
 70
     8
  0
VERTEX
  8
0
  5
BB0E
 10
381.140
 20
950.112
 30
0.000000
  70
    32
  0
VERTEX
  8
0
  5
BB0F
 10
380.831
 20
950.104
 30
0.000000
  70
    32
  0
VERTEX
  8
0
  5
BB10
 10
380.523
 20
950.081
 30
0.000000
  70
    32
  0
VERTEX
  8
0
  5
BB11
 10
380.216
 20
950.044
 30
0.000000
  70
    32
  0
VERTEX
  8
0
  5
BB12
 10
379.911
 20
949.991
 30
0.000000
  70
    32
  0
VERTEX
  8
0
  5
BB13
 10
379.610
 20
949.923
 30
0.000000
  70
    32
  0
VERTEX
  8
0
  5
BB14
 10
379.312
 20
949.840
 30
0.000000
  70
    32
  0
VERTEX
  8
0
  5
BB15
 10
379.018
 20
949.743
 30
0.000000
  70
    32
  0
VERTEX
  8
0
  5
BB16
 10
378.730
 20
949.632
 30
0.000000
  70
    32
  0
VERTEX
  8
0
  5
BB17
 10
378.447
 20
949.507
 30
0.000000
  70
    32
  0
VERTEX
  8
0
  5
BB18
 10
378.171
 20
949.368
 30
0.000000
  70
    32
  0
VERTEX
  8
0
  5
BB19
 10
377.902
 20
949.215
 30
0.000000
  70
    32
  0
VERTEX
  8
0
  5
BB1A
 10
377.640
 20
949.050
 30
0.000000
  70
    32
  0
VERTEX
  8
0
  5
BB1B
 10
377.388
 20
948.872
 30
0.000000
  70
    32
  0
VERTEX
  8
0
  5
BB1C
 10
377.144
 20
948.682
 30
0.000000
  70
    32
  0
VERTEX
  8
0
  5
BB1D
 10
376.910
 20
948.480
 30
0.000000
  70
    32
  0
VERTEX
  8
0
  5
BB1E
 10
376.686
 20
948.266
 30
0.000000
  70
    32
  0
VERTEX
  8
0
  5
BB1F
 10
376.472
 20
948.043
 30
0.000000
  70
    32
  0
VERTEX
  8
0
  5
BB20
 10
376.270
 20
947.808
 30
0.000000
  70
    32
  0
VERTEX
  8
0
  5
BB21
 10
376.080
 20
947.565
 30
0.000000
  70
    32
  0
VERTEX
  8
0
  5
BB22
 10
375.902
 20
947.312
 30
0.000000
  70
    32
  0
VERTEX
  8
0
  5
BB23
 10
375.737
 20
947.051
 30
0.000000
  70
    32
  0
VERTEX
  8
0
  5
BB24
 10
375.584
 20
946.781
 30
0.000000
  70
    32
  0
VERTEX
  8
0
  5
BB25
 10
375.445
 20
946.505
 30
0.000000
  70
    32
  0
VERTEX
  8
0
  5
BB26
 10
375.320
 20
946.223
 30
0.000000
  70
    32
  0
VERTEX
  8
0
  5
BB27
 10
375.209
 20
945.934
 30
0.000000
  70
    32
  0
VERTEX
  8
0
  5
BB28
 10
375.112
 20
945.640
 30
0.000000
  70
    32
  0
VERTEX
  8
0
  5
BB29
 10
375.029
 20
945.342
 30
0.000000
  70
    32
  0
VERTEX
  8
0
  5
BB2A
 10
374.961
 20
945.041
 30
0.000000
  70
    32
  0
VERTEX
  8
0
  5
BB2B
 10
374.909
 20
944.736
 30
0.000000
  70
    32
  0
VERTEX
  8
0
  5
BB2C
 10
374.871
 20
944.429
 30
0.000000
  70
    32
  0
VERTEX
  8
0
  5
BB2D
 10
374.848
 20
944.121
 30
0.000000
  70
    32
  0
VERTEX
  8
0
  5
BB2E
 10
374.840
 20
943.812
 30
0.000000
  70
    32
  0
VERTEX
  8
0
  5
BB2F
 10
374.848
 20
943.502
 30
0.000000
  70
    32
  0
VERTEX
  8
0
  5
BB30
 10
374.871
 20
943.194
 30
0.000000
  70
    32
  0
VERTEX
  8
0
  5
BB31
 10
374.909
 20
942.887
 30
0.000000
  70
    32
  0
VERTEX
  8
0
  5
BB32
 10
374.961
 20
942.583
 30
0.000000
  70
    32
  0
VERTEX
  8
0
  5
BB33
 10
375.029
 20
942.281
 30
0.000000
  70
    32
  0
VERTEX
  8
0
  5
BB34
 10
375.112
 20
941.983
 30
0.000000
  70
    32
  0
VERTEX
  8
0
  5
BB35
 10
375.209
 20
941.689
 30
0.000000
  70
    32
  0
VERTEX
  8
0
  5
BB36
 10
375.320
 20
941.401
 30
0.000000
  70
    32
  0
VERTEX
  8
0
  5
BB37
 10
375.445
 20
941.118
 30
0.000000
  70
    32
  0
VERTEX
  8
0
  5
BB38
 10
375.584
 20
940.842
 30
0.000000
  70
    32
  0
VERTEX
  8
0
  5
BB39
 10
375.737
 20
940.573
 30
0.000000
  70
    32
  0
VERTEX
  8
0
  5
BB3A
 10
375.902
 20
940.311
 30
0.000000
  70
    32
  0
VERTEX
  8
0
  5
BB3B
 10
376.080
 20
940.059
 30
0.000000
  70
    32
  0
VERTEX
  8
0
  5
BB3C
 10
376.270
 20
939.815
 30
0.000000
  70
    32
  0
VERTEX
  8
0
  5
BB3D
 10
376.472
 20
939.581
 30
0.000000
  70
    32
  0
VERTEX
  8
0
  5
BB3E
 10
376.686
 20
939.357
 30
0.000000
  70
    32
  0
VERTEX
  8
0
  5
BB3F
 10
376.910
 20
939.144
 30
0.000000
  70
    32
  0
VERTEX
  8
0
  5
BB40
 10
377.144
 20
938.942
 30
0.000000
  70
    32
  0
VERTEX
  8
0
  5
BB41
 10
377.388
 20
938.751
 30
0.000000
  70
    32
  0
VERTEX
  8
0
  5
BB42
 10
377.640
 20
938.573
 30
0.000000
  70
    32
  0
VERTEX
  8
0
  5
BB43
 10
377.902
 20
938.408
 30
0.000000
  70
    32
  0
VERTEX
  8
0
  5
BB44
 10
378.171
 20
938.255
 30
0.000000
  70
    32
  0
VERTEX
  8
0
  5
BB45
 10
378.447
 20
938.116
 30
0.000000
  70
    32
  0
VERTEX
  8
0
  5
BB46
 10
378.730
 20
937.991
 30
0.000000
  70
    32
  0
VERTEX
  8
0
  5
BB47
 10
379.018
 20
937.880
 30
0.000000
  70
    32
  0
VERTEX
  8
0
  5
BB48
 10
379.312
 20
937.783
 30
0.000000
  70
    32
  0
VERTEX
  8
0
  5
BB49
 10
379.610
 20
937.700
 30
0.000000
  70
    32
  0
VERTEX
  8
0
  5
BB4A
 10
379.911
 20
937.633
 30
0.000000
  70
    32
  0
VERTEX
  8
0
  5
BB4B
 10
380.216
 20
937.580
 30
0.000000
  70
    32
  0
VERTEX
  8
0
  5
BB4C
 10
380.523
 20
937.542
 30
0.000000
  70
    32
  0
VERTEX
  8
0
  5
BB4D
 10
380.831
 20
937.519
 30
0.000000
  70
    32
  0
VERTEX
  8
0
  5
BB4E
 10
381.140
 20
937.511
 30
0.000000
  70
    32
  0
VERTEX
  8
0
  5
BB4F
 10
381.450
 20
937.519
 30
0.000000
  70
    32
  0
VERTEX
  8
0
  5
BB50
 10
381.758
 20
937.542
 30
0.000000
  70
    32
  0
VERTEX
  8
0
  5
BB51
 10
382.065
 20
937.580
 30
0.000000
  70
    32
  0
VERTEX
  8
0
  5
BB52
 10
382.369
 20
937.633
 30
0.000000
  70
    32
  0
VERTEX
  8
0
  5
BB53
 10
382.671
 20
937.700
 30
0.000000
  70
    32
  0
VERTEX
  8
0
  5
BB54
 10
382.969
 20
937.783
 30
0.000000
  70
    32
  0
VERTEX
  8
0
  5
BB55
 10
383.263
 20
937.880
 30
0.000000
  70
    32
  0
VERTEX
  8
0
  5
BB56
 10
383.551
 20
937.991
 30
0.000000
  70
    32
  0
VERTEX
  8
0
  5
BB57
 10
383.834
 20
938.116
 30
0.000000
  70
    32
  0
VERTEX
  8
0
  5
BB58
 10
384.110
 20
938.255
 30
0.000000
  70
    32
  0
VERTEX
  8
0
  5
BB59
 10
384.379
 20
938.408
 30
0.000000
  70
    32
  0
VERTEX
  8
0
  5
BB5A
 10
384.640
 20
938.573
 30
0.000000
  70
    32
  0
VERTEX
  8
0
  5
BB5B
 10
384.893
 20
938.751
 30
0.000000
  70
    32
  0
VERTEX
  8
0
  5
BB5C
 10
385.137
 20
938.942
 30
0.000000
  70
    32
  0
VERTEX
  8
0
  5
BB5D
 10
385.371
 20
939.144
 30
0.000000
  70
    32
  0
VERTEX
  8
0
  5
BB5E
 10
385.595
 20
939.357
 30
0.000000
  70
    32
  0
VERTEX
  8
0
  5
BB5F
 10
385.808
 20
939.581
 30
0.000000
  70
    32
  0
VERTEX
  8
0
  5
BB60
 10
386.010
 20
939.815
 30
0.000000
  70
    32
  0
VERTEX
  8
0
  5
BB61
 10
386.201
 20
940.059
 30
0.000000
  70
    32
  0
VERTEX
  8
0
  5
BB62
 10
386.379
 20
940.311
 30
0.000000
  70
    32
  0
VERTEX
  8
0
  5
BB63
 10
386.544
 20
940.573
 30
0.000000
  70
    32
  0
VERTEX
  8
0
  5
BB64
 10
386.697
 20
940.842
 30
0.000000
  70
    32
  0
VERTEX
  8
0
  5
BB65
 10
386.836
 20
941.118
 30
0.000000
  70
    32
  0
VERTEX
  8
0
  5
BB66
 10
386.961
 20
941.401
 30
0.000000
  70
    32
  0
VERTEX
  8
0
  5
BB67
 10
387.072
 20
941.689
 30
0.000000
  70
    32
  0
VERTEX
  8
0
  5
BB68
 10
387.169
 20
941.983
 30
0.000000
  70
    32
  0
VERTEX
  8
0
  5
BB69
 10
387.252
 20
942.281
 30
0.000000
  70
    32
  0
VERTEX
  8
0
  5
BB6A
 10
387.319
 20
942.583
 30
0.000000
  70
    32
  0
VERTEX
  8
0
  5
BB6B
 10
387.372
 20
942.887
 30
0.000000
  70
    32
  0
VERTEX
  8
0
  5
BB6C
 10
387.410
 20
943.194
 30
0.000000
  70
    32
  0
VERTEX
  8
0
  5
BB6D
 10
387.433
 20
943.502
 30
0.000000
  70
    32
  0
VERTEX
  8
0
  5
BB6E
 10
387.440
 20
943.812
 30
0.000000
  70
    32
  0
VERTEX
  8
0
  5
BB6F
 10
387.433
 20
944.121
 30
0.000000
  70
    32
  0
VERTEX
  8
0
  5
BB70
 10
387.410
 20
944.429
 30
0.000000
  70
    32
  0
VERTEX
  8
0
  5
BB71
 10
387.372
 20
944.736
 30
0.000000
  70
    32
  0
VERTEX
  8
0
  5
BB72
 10
387.319
 20
945.041
 30
0.000000
  70
    32
  0
VERTEX
  8
0
  5
BB73
 10
387.252
 20
945.342
 30
0.000000
  70
    32
  0
VERTEX
  8
0
  5
BB74
 10
387.169
 20
945.640
 30
0.000000
  70
    32
  0
VERTEX
  8
0
  5
BB75
 10
387.072
 20
945.934
 30
0.000000
  70
    32
  0
VERTEX
  8
0
  5
BB76
 10
386.961
 20
946.223
 30
0.000000
  70
    32
  0
VERTEX
  8
0
  5
BB77
 10
386.836
 20
946.505
 30
0.000000
  70
    32
  0
VERTEX
  8
0
  5
BB78
 10
386.697
 20
946.781
 30
0.000000
  70
    32
  0
VERTEX
  8
0
  5
BB79
 10
386.544
 20
947.051
 30
0.000000
  70
    32
  0
VERTEX
  8
0
  5
BB7A
 10
386.379
 20
947.312
 30
0.000000
  70
    32
  0
VERTEX
  8
0
  5
BB7B
 10
386.201
 20
947.565
 30
0.000000
  70
    32
  0
VERTEX
  8
0
  5
BB7C
 10
386.010
 20
947.808
 30
0.000000
  70
    32
  0
VERTEX
  8
0
  5
BB7D
 10
385.808
 20
948.043
 30
0.000000
  70
    32
  0
VERTEX
  8
0
  5
BB7E
 10
385.595
 20
948.266
 30
0.000000
  70
    32
  0
VERTEX
  8
0
  5
BB7F
 10
385.371
 20
948.480
 30
0.000000
  70
    32
  0
VERTEX
  8
0
  5
BB80
 10
385.137
 20
948.682
 30
0.000000
  70
    32
  0
VERTEX
  8
0
  5
BB81
 10
384.893
 20
948.872
 30
0.000000
  70
    32
  0
VERTEX
  8
0
  5
BB82
 10
384.640
 20
949.050
 30
0.000000
  70
    32
  0
VERTEX
  8
0
  5
BB83
 10
384.379
 20
949.215
 30
0.000000
  70
    32
  0
VERTEX
  8
0
  5
BB84
 10
384.110
 20
949.368
 30
0.000000
  70
    32
  0
VERTEX
  8
0
  5
BB85
 10
383.834
 20
949.507
 30
0.000000
  70
    32
  0
VERTEX
  8
0
  5
BB86
 10
383.551
 20
949.632
 30
0.000000
  70
    32
  0
VERTEX
  8
0
  5
BB87
 10
383.263
 20
949.743
 30
0.000000
  70
    32
  0
VERTEX
  8
0
  5
BB88
 10
382.969
 20
949.840
 30
0.000000
  70
    32
  0
VERTEX
  8
0
  5
BB89
 10
382.671
 20
949.923
 30
0.000000
  70
    32
  0
VERTEX
  8
0
  5
BB8A
 10
382.369
 20
949.991
 30
0.000000
  70
    32
  0
VERTEX
  8
0
  5
BB8B
 10
382.065
 20
950.044
 30
0.000000
  70
    32
  0
VERTEX
  8
0
  5
BB8C
 10
381.758
 20
950.081
 30
0.000000
  70
    32
  0
VERTEX
  8
0
  5
BB8D
 10
381.450
 20
950.104
 30
0.000000
  70
    32
  0
VERTEX
  8
0
  5
BB8E
 10
381.140
 20
950.112
 30
0.000000
  70
    32
  0
SEQEND
  8
0
  5
BB8F
  0
LINE
  5
B578
  8
0
 10
417.343760758683
 20
940.12350170403715
 30
0.0
 11
419.54711475868271
 21
940.49891670403736
 31
0.0
  0
LINE
  5
B579
  8
0
 10
400.53705275868299
 20
955.81186070403726
 30
0.0
 11
400.53705275868299
 21
937.25991570403721
 31
0.0
  0
LINE
  5
B57A
  8
0
 10
406.23705275868281
 20
955.81186070403726
 30
0.0
 11
404.73705275868281
 21
955.81186070403726
 31
0.0
  0
LINE
  5
B57B
  8
0
 10
406.23705275868281
 20
951.81178070403701
 30
0.0
 11
404.73705275868281
 21
951.81178070403701
 31
0.0
  0
LINE
  5
B57C
  8
0
 10
404.73705275868281
 20
955.81186070403726
 30
0.0
 11
404.73705275868281
 21
937.97552670403729
 31
0.0
  0
LINE
  5
B57D
  8
0
 10
402.53705275868288
 20
937.60068270403735
 30
0.0
 11
402.53705275868288
 21
955.81186070403726
 31
0.0
  0
LINE
  5
B57E
  8
0
 10
402.53705275868288
 20
937.60068270403735
 30
0.0
 11
404.73705275868281
 21
937.97552670403729
 31
0.0
  0
LINE
  5
B57F
  8
0
 10
402.53705275868288
 20
955.81186070403726
 30
0.0
 11
400.53705275868299
 21
955.81186070403726
 31
0.0
  0
LINE
  5
B580
  8
0
 10
402.53705275868288
 20
951.81178070403701
 30
0.0
 11
400.53705275868299
 21
951.81178070403701
 31
0.0
  0
LINE
  5
B581
  8
0
 10
414.14040675868279
 20
939.57770270403716
 30
0.0
 11
414.14040675868279
 21
955.81186070403726
 31
0.0
  0
LINE
  5
B582
  8
0
 10
417.343760758683
 20
940.12350170403715
 30
0.0
 11
417.343760758683
 21
955.81186070403726
 31
0.0
  0
LINE
  5
B583
  8
0
 10
415.84376075868278
 20
955.81186070403726
 30
0.0
 11
415.84376075868278
 21
939.86792570403702
 31
0.0
  0
LINE
  5
B584
  8
0
 10
412.14040675868267
 20
955.81186070403726
 30
0.0
 11
412.14040675868267
 21
939.23693570403736
 31
0.0
  0
LINE
  5
B585
  8
0
 10
406.23705275868281
 20
938.23110170403743
 30
0.0
 11
406.23705275868281
 21
955.81186070403726
 31
0.0
  0
LINE
  5
B586
  8
0
 10
408.43705275868302
 20
955.81186070403726
 30
0.0
 11
408.43705275868302
 21
938.60594570403725
 31
0.0
  0
LINE
  5
B587
  8
0
 10
409.93705275868302
 20
938.86152070403716
 30
0.0
 11
409.93705275868302
 21
955.81186070403726
 31
0.0
  0
LINE
  5
B588
  8
0
 10
406.23705275868281
 20
938.23110170403743
 30
0.0
 11
408.43705275868302
 21
938.60594570403725
 31
0.0
  0
LINE
  5
B589
  8
0
 10
409.93705275868302
 20
938.86152070403716
 30
0.0
 11
412.14040675868267
 21
939.23693570403736
 31
0.0
  0
LINE
  5
B58A
  8
0
 10
414.14040675868279
 20
939.57770270403716
 30
0.0
 11
415.84376075868278
 21
939.86792570403702
 31
0.0
  0
LINE
  5
B58B
  8
0
 10
414.14040675868279
 20
955.81186070403726
 30
0.0
 11
412.14040675868267
 21
955.81186070403726
 31
0.0
  0
LINE
  5
B58C
  8
0
 10
414.14040675868279
 20
951.81178070403701
 30
0.0
 11
412.14040675868267
 21
951.81178070403701
 31
0.0
  0
LINE
  5
B58D
  8
0
 10
409.93705275868302
 20
955.81186070403726
 30
0.0
 11
408.43705275868302
 21
955.81186070403726
 31
0.0
  0
LINE
  5
B58E
  8
0
 10
409.93705275868302
 20
951.81178070403701
 30
0.0
 11
408.43705275868302
 21
951.81178070403701
 31
0.0
  0
LINE
  5
B58F
  8
0
 10
417.343760758683
 20
951.81178070403701
 30
0.0
 11
415.84376075868278
 21
951.81178070403701
 31
0.0
  0
LINE
  5
B590
  8
0
 10
417.343760758683
 20
955.81186070403726
 30
0.0
 11
415.84376075868278
 21
955.81186070403726
 31
0.0
  0
LINE
  5
B591
  8
0
 10
436.67055775868249
 20
926.81128070403736
 30
0.0
 11
436.67055775868249
 21
938.34700170403732
 31
0.0
  0
LINE
  5
B592
  8
0
 10
428.4538227586828
 20
942.01647270403737
 30
0.0
 11
438.31553275868288
 21
943.69674470403731
 31
0.0
  0
LINE
  5
B593
  8
0
 10
423.25046875868298
 20
955.81186070403726
 30
0.0
 11
423.25046875868298
 21
941.12990670403724
 31
0.0
  0
LINE
  5
B594
  8
0
 10
424.75046875868298
 20
941.38548170403726
 30
0.0
 11
424.75046875868298
 21
955.81186070403726
 31
0.0
  0
LINE
  5
B595
  8
0
 10
426.9538227586828
 20
955.81186070403726
 30
0.0
 11
426.9538227586828
 21
941.76089670403701
 31
0.0
  0
LINE
  5
B596
  8
0
 10
419.54711475868271
 20
955.81186070403726
 30
0.0
 11
419.54711475868271
 21
940.49891670403736
 31
0.0
  0
LINE
  5
B597
  8
0
 10
421.04711475868282
 20
940.75449170403726
 30
0.0
 11
421.04711475868282
 21
955.81186070403726
 31
0.0
  0
LINE
  5
B598
  8
0
 10
428.4538227586828
 20
942.01647270403737
 30
0.0
 11
428.4538227586828
 21
955.81186070403726
 31
0.0
  0
LINE
  5
B599
  8
0
 10
424.75046875868298
 20
941.38548170403726
 30
0.0
 11
426.9538227586828
 21
941.76089670403701
 31
0.0
  0
LINE
  5
B59A
  8
0
 10
421.04711475868282
 20
940.75449170403726
 30
0.0
 11
423.25046875868298
 21
941.12990670403724
 31
0.0
  0
LINE
  5
B59B
  8
0
 10
424.75046875868298
 20
955.81186070403726
 30
0.0
 11
423.25046875868298
 21
955.81186070403726
 31
0.0
  0
LINE
  5
B59C
  8
0
 10
424.75046875868298
 20
951.81178070403701
 30
0.0
 11
423.25046875868298
 21
951.81178070403701
 31
0.0
  0
LINE
  5
B59D
  8
0
 10
421.04711475868282
 20
955.81186070403726
 30
0.0
 11
419.54711475868271
 21
955.81186070403726
 31
0.0
  0
LINE
  5
B59E
  8
0
 10
421.04711475868282
 20
951.81178070403701
 30
0.0
 11
419.54711475868271
 21
951.81178070403701
 31
0.0
  0
LINE
  5
B59F
  8
0
 10
428.4538227586828
 20
955.81186070403726
 30
0.0
 11
426.9538227586828
 21
955.81186070403726
 31
0.0
  0
LINE
  5
B5A0
  8
0
 10
428.4538227586828
 20
951.81178070403701
 30
0.0
 11
426.9538227586828
 21
951.81178070403701
 31
0.0
  0
LINE
  5
B5A1
  8
0
 10
437.54040675868288
 20
938.49730870403732
 30
0.0
 11
437.54040675868288
 21
942.55078270403726
 31
0.0
  0
LINE
  5
B5A2
  8
0
 10
367.04040675868288
 20
960.81196070403735
 30
0.0
 11
371.84040675868312
 21
960.81196070403735
 31
0.0
  0
POLYLINE
  5
B5A3
  8
0
 10
367.04040675868288
 20
960.81196070403723
 30
0.0
 66
     1
 70
     8
  0
VERTEX
  8
0
  5
BB90
 10
367.040
 20
960.812
 30
0.000000
  70
    32
  0
VERTEX
  8
0
  5
BB91
 10
367.028
 20
960.812
 30
0.000000
  70
    32
  0
VERTEX
  8
0
  5
BB92
 10
367.016
 20
960.812
 30
0.000000
  70
    32
  0
VERTEX
  8
0
  5
BB93
 10
367.004
 20
960.811
 30
0.000000
  70
    32
  0
VERTEX
  8
0
  5
BB94
 10
366.991
 20
960.811
 30
0.000000
  70
    32
  0
VERTEX
  8
0
  5
BB95
 10
366.979
 20
960.810
 30
0.000000
  70
    32
  0
VERTEX
  8
0
  5
BB96
 10
366.967
 20
960.809
 30
0.000000
  70
    32
  0
VERTEX
  8
0
  5
BB97
 10
366.955
 20
960.808
 30
0.000000
  70
    32
  0
VERTEX
  8
0
  5
BB98
 10
366.942
 20
960.807
 30
0.000000
  70
    32
  0
VERTEX
  8
0
  5
BB99
 10
366.930
 20
960.806
 30
0.000000
  70
    32
  0
VERTEX
  8
0
  5
BB9A
 10
366.918
 20
960.804
 30
0.000000
  70
    32
  0
VERTEX
  8
0
  5
BB9B
 10
366.906
 20
960.803
 30
0.000000
  70
    32
  0
VERTEX
  8
0
  5
BB9C
 10
366.894
 20
960.801
 30
0.000000
  70
    32
  0
VERTEX
  8
0
  5
BB9D
 10
366.882
 20
960.799
 30
0.000000
  70
    32
  0
VERTEX
  8
0
  5
BB9E
 10
366.869
 20
960.797
 30
0.000000
  70
    32
  0
VERTEX
  8
0
  5
BB9F
 10
366.857
 20
960.795
 30
0.000000
  70
    32
  0
VERTEX
  8
0
  5
BBA0
 10
366.845
 20
960.793
 30
0.000000
  70
    32
  0
VERTEX
  8
0
  5
BBA1
 10
366.833
 20
960.790
 30
0.000000
  70
    32
  0
VERTEX
  8
0
  5
BBA2
 10
366.821
 20
960.788
 30
0.000000
  70
    32
  0
VERTEX
  8
0
  5
BBA3
 10
366.809
 20
960.785
 30
0.000000
  70
    32
  0
VERTEX
  8
0
  5
BBA4
 10
366.797
 20
960.782
 30
0.000000
  70
    32
  0
VERTEX
  8
0
  5
BBA5
 10
366.786
 20
960.779
 30
0.000000
  70
    32
  0
VERTEX
  8
0
  5
BBA6
 10
366.774
 20
960.776
 30
0.000000
  70
    32
  0
VERTEX
  8
0
  5
BBA7
 10
366.762
 20
960.772
 30
0.000000
  70
    32
  0
VERTEX
  8
0
  5
BBA8
 10
366.750
 20
960.769
 30
0.000000
  70
    32
  0
VERTEX
  8
0
  5
BBA9
 10
366.738
 20
960.765
 30
0.000000
  70
    32
  0
VERTEX
  8
0
  5
BBAA
 10
366.727
 20
960.761
 30
0.000000
  70
    32
  0
VERTEX
  8
0
  5
BBAB
 10
366.715
 20
960.758
 30
0.000000
  70
    32
  0
VERTEX
  8
0
  5
BBAC
 10
366.704
 20
960.754
 30
0.000000
  70
    32
  0
VERTEX
  8
0
  5
BBAD
 10
366.692
 20
960.749
 30
0.000000
  70
    32
  0
VERTEX
  8
0
  5
BBAE
 10
366.681
 20
960.745
 30
0.000000
  70
    32
  0
VERTEX
  8
0
  5
BBAF
 10
366.669
 20
960.740
 30
0.000000
  70
    32
  0
VERTEX
  8
0
  5
BBB0
 10
366.658
 20
960.736
 30
0.000000
  70
    32
  0
VERTEX
  8
0
  5
BBB1
 10
366.646
 20
960.731
 30
0.000000
  70
    32
  0
VERTEX
  8
0
  5
BBB2
 10
366.635
 20
960.726
 30
0.000000
  70
    32
  0
VERTEX
  8
0
  5
BBB3
 10
366.624
 20
960.721
 30
0.000000
  70
    32
  0
VERTEX
  8
0
  5
BBB4
 10
366.613
 20
960.716
 30
0.000000
  70
    32
  0
VERTEX
  8
0
  5
BBB5
 10
366.602
 20
960.711
 30
0.000000
  70
    32
  0
VERTEX
  8
0
  5
BBB6
 10
366.591
 20
960.705
 30
0.000000
  70
    32
  0
VERTEX
  8
0
  5
BBB7
 10
366.580
 20
960.700
 30
0.000000
  70
    32
  0
VERTEX
  8
0
  5
BBB8
 10
366.569
 20
960.694
 30
0.000000
  70
    32
  0
VERTEX
  8
0
  5
BBB9
 10
366.558
 20
960.688
 30
0.000000
  70
    32
  0
VERTEX
  8
0
  5
BBBA
 10
366.548
 20
960.682
 30
0.000000
  70
    32
  0
VERTEX
  8
0
  5
BBBB
 10
366.537
 20
960.676
 30
0.000000
  70
    32
  0
VERTEX
  8
0
  5
BBBC
 10
366.526
 20
960.670
 30
0.000000
  70
    32
  0
VERTEX
  8
0
  5
BBBD
 10
366.516
 20
960.663
 30
0.000000
  70
    32
  0
VERTEX
  8
0
  5
BBBE
 10
366.505
 20
960.657
 30
0.000000
  70
    32
  0
VERTEX
  8
0
  5
BBBF
 10
366.495
 20
960.650
 30
0.000000
  70
    32
  0
VERTEX
  8
0
  5
BBC0
 10
366.485
 20
960.643
 30
0.000000
  70
    32
  0
VERTEX
  8
0
  5
BBC1
 10
366.475
 20
960.637
 30
0.000000
  70
    32
  0
VERTEX
  8
0
  5
BBC2
 10
366.465
 20
960.630
 30
0.000000
  70
    32
  0
VERTEX
  8
0
  5
BBC3
 10
366.455
 20
960.622
 30
0.000000
  70
    32
  0
VERTEX
  8
0
  5
BBC4
 10
366.445
 20
960.615
 30
0.000000
  70
    32
  0
VERTEX
  8
0
  5
BBC5
 10
366.435
 20
960.608
 30
0.000000
  70
    32
  0
VERTEX
  8
0
  5
BBC6
 10
366.425
 20
960.600
 30
0.000000
  70
    32
  0
VERTEX
  8
0
  5
BBC7
 10
366.416
 20
960.593
 30
0.000000
  70
    32
  0
VERTEX
  8
0
  5
BBC8
 10
366.406
 20
960.585
 30
0.000000
  70
    32
  0
VERTEX
  8
0
  5
BBC9
 10
366.397
 20
960.577
 30
0.000000
  70
    32
  0
VERTEX
  8
0
  5
BBCA
 10
366.387
 20
960.569
 30
0.000000
  70
    32
  0
VERTEX
  8
0
  5
BBCB
 10
366.378
 20
960.561
 30
0.000000
  70
    32
  0
VERTEX
  8
0
  5
BBCC
 10
366.369
 20
960.553
 30
0.000000
  70
    32
  0
VERTEX
  8
0
  5
BBCD
 10
366.360
 20
960.545
 30
0.000000
  70
    32
  0
VERTEX
  8
0
  5
BBCE
 10
366.351
 20
960.536
 30
0.000000
  70
    32
  0
VERTEX
  8
0
  5
BBCF
 10
366.342
 20
960.528
 30
0.000000
  70
    32
  0
VERTEX
  8
0
  5
BBD0
 10
366.333
 20
960.519
 30
0.000000
  70
    32
  0
VERTEX
  8
0
  5
BBD1
 10
366.325
 20
960.510
 30
0.000000
  70
    32
  0
VERTEX
  8
0
  5
BBD2
 10
366.316
 20
960.501
 30
0.000000
  70
    32
  0
VERTEX
  8
0
  5
BBD3
 10
366.308
 20
960.493
 30
0.000000
  70
    32
  0
VERTEX
  8
0
  5
BBD4
 10
366.299
 20
960.484
 30
0.000000
  70
    32
  0
VERTEX
  8
0
  5
BBD5
 10
366.291
 20
960.474
 30
0.000000
  70
    32
  0
VERTEX
  8
0
  5
BBD6
 10
366.283
 20
960.465
 30
0.000000
  70
    32
  0
VERTEX
  8
0
  5
BBD7
 10
366.275
 20
960.456
 30
0.000000
  70
    32
  0
VERTEX
  8
0
  5
BBD8
 10
366.267
 20
960.446
 30
0.000000
  70
    32
  0
VERTEX
  8
0
  5
BBD9
 10
366.260
 20
960.437
 30
0.000000
  70
    32
  0
VERTEX
  8
0
  5
BBDA
 10
366.252
 20
960.427
 30
0.000000
  70
    32
  0
VERTEX
  8
0
  5
BBDB
 10
366.245
 20
960.417
 30
0.000000
  70
    32
  0
VERTEX
  8
0
  5
BBDC
 10
366.237
 20
960.408
 30
0.000000
  70
    32
  0
VERTEX
  8
0
  5
BBDD
 10
366.230
 20
960.398
 30
0.000000
  70
    32
  0
VERTEX
  8
0
  5
BBDE
 10
366.223
 20
960.388
 30
0.000000
  70
    32
  0
VERTEX
  8
0
  5
BBDF
 10
366.216
 20
960.378
 30
0.000000
  70
    32
  0
VERTEX
  8
0
  5
BBE0
 10
366.209
 20
960.368
 30
0.000000
  70
    32
  0
VERTEX
  8
0
  5
BBE1
 10
366.202
 20
960.357
 30
0.000000
  70
    32
  0
VERTEX
  8
0
  5
BBE2
 10
366.196
 20
960.347
 30
0.000000
  70
    32
  0
VERTEX
  8
0
  5
BBE3
 10
366.189
 20
960.337
 30
0.000000
  70
    32
  0
VERTEX
  8
0
  5
BBE4
 10
366.183
 20
960.326
 30
0.000000
  70
    32
  0
VERTEX
  8
0
  5
BBE5
 10
366.176
 20
960.315
 30
0.000000
  70
    32
  0
VERTEX
  8
0
  5
BBE6
 10
366.170
 20
960.305
 30
0.000000
  70
    32
  0
VERTEX
  8
0
  5
BBE7
 10
366.164
 20
960.294
 30
0.000000
  70
    32
  0
VERTEX
  8
0
  5
BBE8
 10
366.158
 20
960.283
 30
0.000000
  70
    32
  0
VERTEX
  8
0
  5
BBE9
 10
366.153
 20
960.272
 30
0.000000
  70
    32
  0
VERTEX
  8
0
  5
BBEA
 10
366.147
 20
960.262
 30
0.000000
  70
    32
  0
VERTEX
  8
0
  5
BBEB
 10
366.142
 20
960.251
 30
0.000000
  70
    32
  0
VERTEX
  8
0
  5
BBEC
 10
366.136
 20
960.240
 30
0.000000
  70
    32
  0
VERTEX
  8
0
  5
BBED
 10
366.131
 20
960.228
 30
0.000000
  70
    32
  0
VERTEX
  8
0
  5
BBEE
 10
366.126
 20
960.217
 30
0.000000
  70
    32
  0
VERTEX
  8
0
  5
BBEF
 10
366.121
 20
960.206
 30
0.000000
  70
    32
  0
VERTEX
  8
0
  5
BBF0
 10
366.117
 20
960.195
 30
0.000000
  70
    32
  0
VERTEX
  8
0
  5
BBF1
 10
366.112
 20
960.183
 30
0.000000
  70
    32
  0
VERTEX
  8
0
  5
BBF2
 10
366.107
 20
960.172
 30
0.000000
  70
    32
  0
VERTEX
  8
0
  5
BBF3
 10
366.103
 20
960.160
 30
0.000000
  70
    32
  0
VERTEX
  8
0
  5
BBF4
 10
366.099
 20
960.149
 30
0.000000
  70
    32
  0
VERTEX
  8
0
  5
BBF5
 10
366.095
 20
960.137
 30
0.000000
  70
    32
  0
VERTEX
  8
0
  5
BBF6
 10
366.091
 20
960.126
 30
0.000000
  70
    32
  0
VERTEX
  8
0
  5
BBF7
 10
366.087
 20
960.114
 30
0.000000
  70
    32
  0
VERTEX
  8
0
  5
BBF8
 10
366.083
 20
960.102
 30
0.000000
  70
    32
  0
VERTEX
  8
0
  5
BBF9
 10
366.080
 20
960.090
 30
0.000000
  70
    32
  0
VERTEX
  8
0
  5
BBFA
 10
366.077
 20
960.079
 30
0.000000
  70
    32
  0
VERTEX
  8
0
  5
BBFB
 10
366.073
 20
960.067
 30
0.000000
  70
    32
  0
VERTEX
  8
0
  5
BBFC
 10
366.070
 20
960.055
 30
0.000000
  70
    32
  0
VERTEX
  8
0
  5
BBFD
 10
366.067
 20
960.043
 30
0.000000
  70
    32
  0
VERTEX
  8
0
  5
BBFE
 10
366.065
 20
960.031
 30
0.000000
  70
    32
  0
VERTEX
  8
0
  5
BBFF
 10
366.062
 20
960.019
 30
0.000000
  70
    32
  0
VERTEX
  8
0
  5
BC00
 10
366.060
 20
960.007
 30
0.000000
  70
    32
  0
VERTEX
  8
0
  5
BC01
 10
366.057
 20
959.995
 30
0.000000
  70
    32
  0
VERTEX
  8
0
  5
BC02
 10
366.055
 20
959.983
 30
0.000000
  70
    32
  0
VERTEX
  8
0
  5
BC03
 10
366.053
 20
959.971
 30
0.000000
  70
    32
  0
VERTEX
  8
0
  5
BC04
 10
366.051
 20
959.959
 30
0.000000
  70
    32
  0
VERTEX
  8
0
  5
BC05
 10
366.050
 20
959.947
 30
0.000000
  70
    32
  0
VERTEX
  8
0
  5
BC06
 10
366.048
 20
959.934
 30
0.000000
  70
    32
  0
VERTEX
  8
0
  5
BC07
 10
366.046
 20
959.922
 30
0.000000
  70
    32
  0
VERTEX
  8
0
  5
BC08
 10
366.045
 20
959.910
 30
0.000000
  70
    32
  0
VERTEX
  8
0
  5
BC09
 10
366.044
 20
959.898
 30
0.000000
  70
    32
  0
VERTEX
  8
0
  5
BC0A
 10
366.043
 20
959.886
 30
0.000000
  70
    32
  0
VERTEX
  8
0
  5
BC0B
 10
366.042
 20
959.873
 30
0.000000
  70
    32
  0
VERTEX
  8
0
  5
BC0C
 10
366.042
 20
959.861
 30
0.000000
  70
    32
  0
VERTEX
  8
0
  5
BC0D
 10
366.041
 20
959.849
 30
0.000000
  70
    32
  0
VERTEX
  8
0
  5
BC0E
 10
366.041
 20
959.836
 30
0.000000
  70
    32
  0
VERTEX
  8
0
  5
BC0F
 10
366.040
 20
959.824
 30
0.000000
  70
    32
  0
VERTEX
  8
0
  5
BC10
 10
366.040
 20
959.812
 30
0.000000
  70
    32
  0
SEQEND
  8
0
  5
BC11
  0
LINE
  5
B5A4
  8
0
 10
453.31553275868259
 20
943.8116207040373
 30
0.0
 11
453.31553275868259
 21
959.81194070403728
 31
0.0
  0
LINE
  5
B5A5
  8
0
 10
446.94040675868303
 20
939.3115307040373
 30
0.0
 11
446.94040675868303
 21
929.31133070403735
 31
0.0
  0
POLYLINE
  5
B5A6
  8
0
 10
452.81553275868259
 20
939.81154070403727
 30
0.0
 66
     1
 70
     8
  0
VERTEX
  8
0
  5
BC12
 10
452.816
 20
939.812
 30
0.000000
  70
    32
  0
VERTEX
  8
0
  5
BC13
 10
452.822
 20
939.812
 30
0.000000
  70
    32
  0
VERTEX
  8
0
  5
BC14
 10
452.828
 20
939.812
 30
0.000000
  70
    32
  0
VERTEX
  8
0
  5
BC15
 10
452.834
 20
939.812
 30
0.000000
  70
    32
  0
VERTEX
  8
0
  5
BC16
 10
452.840
 20
939.812
 30
0.000000
  70
    32
  0
VERTEX
  8
0
  5
BC17
 10
452.846
 20
939.812
 30
0.000000
  70
    32
  0
VERTEX
  8
0
  5
BC18
 10
452.852
 20
939.813
 30
0.000000
  70
    32
  0
VERTEX
  8
0
  5
BC19
 10
452.858
 20
939.813
 30
0.000000
  70
    32
  0
VERTEX
  8
0
  5
BC1A
 10
452.865
 20
939.814
 30
0.000000
  70
    32
  0
VERTEX
  8
0
  5
BC1B
 10
452.871
 20
939.815
 30
0.000000
  70
    32
  0
VERTEX
  8
0
  5
BC1C
 10
452.877
 20
939.815
 30
0.000000
  70
    32
  0
VERTEX
  8
0
  5
BC1D
 10
452.883
 20
939.816
 30
0.000000
  70
    32
  0
VERTEX
  8
0
  5
BC1E
 10
452.889
 20
939.817
 30
0.000000
  70
    32
  0
VERTEX
  8
0
  5
BC1F
 10
452.895
 20
939.818
 30
0.000000
  70
    32
  0
VERTEX
  8
0
  5
BC20
 10
452.901
 20
939.819
 30
0.000000
  70
    32
  0
VERTEX
  8
0
  5
BC21
 10
452.907
 20
939.820
 30
0.000000
  70
    32
  0
VERTEX
  8
0
  5
BC22
 10
452.913
 20
939.821
 30
0.000000
  70
    32
  0
VERTEX
  8
0
  5
BC23
 10
452.919
 20
939.822
 30
0.000000
  70
    32
  0
VERTEX
  8
0
  5
BC24
 10
452.925
 20
939.824
 30
0.000000
  70
    32
  0
VERTEX
  8
0
  5
BC25
 10
452.931
 20
939.825
 30
0.000000
  70
    32
  0
VERTEX
  8
0
  5
BC26
 10
452.937
 20
939.827
 30
0.000000
  70
    32
  0
VERTEX
  8
0
  5
BC27
 10
452.943
 20
939.828
 30
0.000000
  70
    32
  0
VERTEX
  8
0
  5
BC28
 10
452.949
 20
939.830
 30
0.000000
  70
    32
  0
VERTEX
  8
0
  5
BC29
 10
452.955
 20
939.831
 30
0.000000
  70
    32
  0
VERTEX
  8
0
  5
BC2A
 10
452.961
 20
939.833
 30
0.000000
  70
    32
  0
VERTEX
  8
0
  5
BC2B
 10
452.967
 20
939.835
 30
0.000000
  70
    32
  0
VERTEX
  8
0
  5
BC2C
 10
452.972
 20
939.837
 30
0.000000
  70
    32
  0
VERTEX
  8
0
  5
BC2D
 10
452.978
 20
939.839
 30
0.000000
  70
    32
  0
VERTEX
  8
0
  5
BC2E
 10
452.984
 20
939.841
 30
0.000000
  70
    32
  0
VERTEX
  8
0
  5
BC2F
 10
452.990
 20
939.843
 30
0.000000
  70
    32
  0
VERTEX
  8
0
  5
BC30
 10
452.995
 20
939.845
 30
0.000000
  70
    32
  0
VERTEX
  8
0
  5
BC31
 10
453.001
 20
939.847
 30
0.000000
  70
    32
  0
VERTEX
  8
0
  5
BC32
 10
453.007
 20
939.850
 30
0.000000
  70
    32
  0
VERTEX
  8
0
  5
BC33
 10
453.013
 20
939.852
 30
0.000000
  70
    32
  0
VERTEX
  8
0
  5
BC34
 10
453.018
 20
939.854
 30
0.000000
  70
    32
  0
VERTEX
  8
0
  5
BC35
 10
453.024
 20
939.857
 30
0.000000
  70
    32
  0
VERTEX
  8
0
  5
BC36
 10
453.029
 20
939.860
 30
0.000000
  70
    32
  0
VERTEX
  8
0
  5
BC37
 10
453.035
 20
939.862
 30
0.000000
  70
    32
  0
VERTEX
  8
0
  5
BC38
 10
453.040
 20
939.865
 30
0.000000
  70
    32
  0
VERTEX
  8
0
  5
BC39
 10
453.046
 20
939.868
 30
0.000000
  70
    32
  0
VERTEX
  8
0
  5
BC3A
 10
453.051
 20
939.871
 30
0.000000
  70
    32
  0
VERTEX
  8
0
  5
BC3B
 10
453.057
 20
939.874
 30
0.000000
  70
    32
  0
VERTEX
  8
0
  5
BC3C
 10
453.062
 20
939.876
 30
0.000000
  70
    32
  0
VERTEX
  8
0
  5
BC3D
 10
453.067
 20
939.880
 30
0.000000
  70
    32
  0
VERTEX
  8
0
  5
BC3E
 10
453.073
 20
939.883
 30
0.000000
  70
    32
  0
VERTEX
  8
0
  5
BC3F
 10
453.078
 20
939.886
 30
0.000000
  70
    32
  0
VERTEX
  8
0
  5
BC40
 10
453.083
 20
939.889
 30
0.000000
  70
    32
  0
VERTEX
  8
0
  5
BC41
 10
453.088
 20
939.892
 30
0.000000
  70
    32
  0
VERTEX
  8
0
  5
BC42
 10
453.093
 20
939.896
 30
0.000000
  70
    32
  0
VERTEX
  8
0
  5
BC43
 10
453.098
 20
939.899
 30
0.000000
  70
    32
  0
VERTEX
  8
0
  5
BC44
 10
453.103
 20
939.903
 30
0.000000
  70
    32
  0
VERTEX
  8
0
  5
BC45
 10
453.108
 20
939.906
 30
0.000000
  70
    32
  0
VERTEX
  8
0
  5
BC46
 10
453.113
 20
939.910
 30
0.000000
  70
    32
  0
VERTEX
  8
0
  5
BC47
 10
453.118
 20
939.914
 30
0.000000
  70
    32
  0
VERTEX
  8
0
  5
BC48
 10
453.123
 20
939.917
 30
0.000000
  70
    32
  0
VERTEX
  8
0
  5
BC49
 10
453.128
 20
939.921
 30
0.000000
  70
    32
  0
VERTEX
  8
0
  5
BC4A
 10
453.133
 20
939.925
 30
0.000000
  70
    32
  0
VERTEX
  8
0
  5
BC4B
 10
453.137
 20
939.929
 30
0.000000
  70
    32
  0
VERTEX
  8
0
  5
BC4C
 10
453.142
 20
939.933
 30
0.000000
  70
    32
  0
VERTEX
  8
0
  5
BC4D
 10
453.147
 20
939.937
 30
0.000000
  70
    32
  0
VERTEX
  8
0
  5
BC4E
 10
453.151
 20
939.941
 30
0.000000
  70
    32
  0
VERTEX
  8
0
  5
BC4F
 10
453.156
 20
939.945
 30
0.000000
  70
    32
  0
VERTEX
  8
0
  5
BC50
 10
453.160
 20
939.949
 30
0.000000
  70
    32
  0
VERTEX
  8
0
  5
BC51
 10
453.165
 20
939.954
 30
0.000000
  70
    32
  0
VERTEX
  8
0
  5
BC52
 10
453.169
 20
939.958
 30
0.000000
  70
    32
  0
VERTEX
  8
0
  5
BC53
 10
453.173
 20
939.962
 30
0.000000
  70
    32
  0
VERTEX
  8
0
  5
BC54
 10
453.178
 20
939.967
 30
0.000000
  70
    32
  0
VERTEX
  8
0
  5
BC55
 10
453.182
 20
939.971
 30
0.000000
  70
    32
  0
VERTEX
  8
0
  5
BC56
 10
453.186
 20
939.976
 30
0.000000
  70
    32
  0
VERTEX
  8
0
  5
BC57
 10
453.190
 20
939.980
 30
0.000000
  70
    32
  0
VERTEX
  8
0
  5
BC58
 10
453.194
 20
939.985
 30
0.000000
  70
    32
  0
VERTEX
  8
0
  5
BC59
 10
453.198
 20
939.990
 30
0.000000
  70
    32
  0
VERTEX
  8
0
  5
BC5A
 10
453.202
 20
939.994
 30
0.000000
  70
    32
  0
VERTEX
  8
0
  5
BC5B
 10
453.206
 20
939.999
 30
0.000000
  70
    32
  0
VERTEX
  8
0
  5
BC5C
 10
453.210
 20
940.004
 30
0.000000
  70
    32
  0
VERTEX
  8
0
  5
BC5D
 10
453.213
 20
940.009
 30
0.000000
  70
    32
  0
VERTEX
  8
0
  5
BC5E
 10
453.217
 20
940.014
 30
0.000000
  70
    32
  0
VERTEX
  8
0
  5
BC5F
 10
453.221
 20
940.019
 30
0.000000
  70
    32
  0
VERTEX
  8
0
  5
BC60
 10
453.224
 20
940.024
 30
0.000000
  70
    32
  0
VERTEX
  8
0
  5
BC61
 10
453.228
 20
940.029
 30
0.000000
  70
    32
  0
VERTEX
  8
0
  5
BC62
 10
453.231
 20
940.034
 30
0.000000
  70
    32
  0
VERTEX
  8
0
  5
BC63
 10
453.235
 20
940.039
 30
0.000000
  70
    32
  0
VERTEX
  8
0
  5
BC64
 10
453.238
 20
940.044
 30
0.000000
  70
    32
  0
VERTEX
  8
0
  5
BC65
 10
453.241
 20
940.049
 30
0.000000
  70
    32
  0
VERTEX
  8
0
  5
BC66
 10
453.244
 20
940.054
 30
0.000000
  70
    32
  0
VERTEX
  8
0
  5
BC67
 10
453.248
 20
940.060
 30
0.000000
  70
    32
  0
VERTEX
  8
0
  5
BC68
 10
453.251
 20
940.065
 30
0.000000
  70
    32
  0
VERTEX
  8
0
  5
BC69
 10
453.254
 20
940.070
 30
0.000000
  70
    32
  0
VERTEX
  8
0
  5
BC6A
 10
453.256
 20
940.076
 30
0.000000
  70
    32
  0
VERTEX
  8
0
  5
BC6B
 10
453.259
 20
940.081
 30
0.000000
  70
    32
  0
VERTEX
  8
0
  5
BC6C
 10
453.262
 20
940.087
 30
0.000000
  70
    32
  0
VERTEX
  8
0
  5
BC6D
 10
453.265
 20
940.092
 30
0.000000
  70
    32
  0
VERTEX
  8
0
  5
BC6E
 10
453.268
 20
940.098
 30
0.000000
  70
    32
  0
VERTEX
  8
0
  5
BC6F
 10
453.270
 20
940.103
 30
0.000000
  70
    32
  0
VERTEX
  8
0
  5
BC70
 10
453.273
 20
940.109
 30
0.000000
  70
    32
  0
VERTEX
  8
0
  5
BC71
 10
453.275
 20
940.115
 30
0.000000
  70
    32
  0
VERTEX
  8
0
  5
BC72
 10
453.277
 20
940.120
 30
0.000000
  70
    32
  0
VERTEX
  8
0
  5
BC73
 10
453.280
 20
940.126
 30
0.000000
  70
    32
  0
VERTEX
  8
0
  5
BC74
 10
453.282
 20
940.132
 30
0.000000
  70
    32
  0
VERTEX
  8
0
  5
BC75
 10
453.284
 20
940.137
 30
0.000000
  70
    32
  0
VERTEX
  8
0
  5
BC76
 10
453.286
 20
940.143
 30
0.000000
  70
    32
  0
VERTEX
  8
0
  5
BC77
 10
453.288
 20
940.149
 30
0.000000
  70
    32
  0
VERTEX
  8
0
  5
BC78
 10
453.290
 20
940.155
 30
0.000000
  70
    32
  0
VERTEX
  8
0
  5
BC79
 10
453.292
 20
940.161
 30
0.000000
  70
    32
  0
VERTEX
  8
0
  5
BC7A
 10
453.294
 20
940.166
 30
0.000000
  70
    32
  0
VERTEX
  8
0
  5
BC7B
 10
453.296
 20
940.172
 30
0.000000
  70
    32
  0
VERTEX
  8
0
  5
BC7C
 10
453.297
 20
940.178
 30
0.000000
  70
    32
  0
VERTEX
  8
0
  5
BC7D
 10
453.299
 20
940.184
 30
0.000000
  70
    32
  0
VERTEX
  8
0
  5
BC7E
 10
453.301
 20
940.190
 30
0.000000
  70
    32
  0
VERTEX
  8
0
  5
BC7F
 10
453.302
 20
940.196
 30
0.000000
  70
    32
  0
VERTEX
  8
0
  5
BC80
 10
453.303
 20
940.202
 30
0.000000
  70
    32
  0
VERTEX
  8
0
  5
BC81
 10
453.305
 20
940.208
 30
0.000000
  70
    32
  0
VERTEX
  8
0
  5
BC82
 10
453.306
 20
940.214
 30
0.000000
  70
    32
  0
VERTEX
  8
0
  5
BC83
 10
453.307
 20
940.220
 30
0.000000
  70
    32
  0
VERTEX
  8
0
  5
BC84
 10
453.308
 20
940.226
 30
0.000000
  70
    32
  0
VERTEX
  8
0
  5
BC85
 10
453.309
 20
940.232
 30
0.000000
  70
    32
  0
VERTEX
  8
0
  5
BC86
 10
453.310
 20
940.238
 30
0.000000
  70
    32
  0
VERTEX
  8
0
  5
BC87
 10
453.311
 20
940.244
 30
0.000000
  70
    32
  0
VERTEX
  8
0
  5
BC88
 10
453.312
 20
940.250
 30
0.000000
  70
    32
  0
VERTEX
  8
0
  5
BC89
 10
453.312
 20
940.256
 30
0.000000
  70
    32
  0
VERTEX
  8
0
  5
BC8A
 10
453.313
 20
940.263
 30
0.000000
  70
    32
  0
VERTEX
  8
0
  5
BC8B
 10
453.314
 20
940.269
 30
0.000000
  70
    32
  0
VERTEX
  8
0
  5
BC8C
 10
453.314
 20
940.275
 30
0.000000
  70
    32
  0
VERTEX
  8
0
  5
BC8D
 10
453.315
 20
940.281
 30
0.000000
  70
    32
  0
VERTEX
  8
0
  5
BC8E
 10
453.315
 20
940.287
 30
0.000000
  70
    32
  0
VERTEX
  8
0
  5
BC8F
 10
453.315
 20
940.293
 30
0.000000
  70
    32
  0
VERTEX
  8
0
  5
BC90
 10
453.315
 20
940.299
 30
0.000000
  70
    32
  0
VERTEX
  8
0
  5
BC91
 10
453.315
 20
940.305
 30
0.000000
  70
    32
  0
VERTEX
  8
0
  5
BC92
 10
453.316
 20
940.312
 30
0.000000
  70
    32
  0
SEQEND
  8
0
  5
BC93
  0
POLYLINE
  5
B5A7
  8
0
 10
447.44040675868303
 20
939.8115407040375
 30
0.0
 66
     1
 70
     8
  0
VERTEX
  8
0
  5
BC94
 10
447.440
 20
939.812
 30
0.000000
  70
    32
  0
VERTEX
  8
0
  5
BC95
 10
447.434
 20
939.812
 30
0.000000
  70
    32
  0
VERTEX
  8
0
  5
BC96
 10
447.428
 20
939.811
 30
0.000000
  70
    32
  0
VERTEX
  8
0
  5
BC97
 10
447.422
 20
939.811
 30
0.000000
  70
    32
  0
VERTEX
  8
0
  5
BC98
 10
447.416
 20
939.811
 30
0.000000
  70
    32
  0
VERTEX
  8
0
  5
BC99
 10
447.410
 20
939.811
 30
0.000000
  70
    32
  0
VERTEX
  8
0
  5
BC9A
 10
447.404
 20
939.810
 30
0.000000
  70
    32
  0
VERTEX
  8
0
  5
BC9B
 10
447.398
 20
939.810
 30
0.000000
  70
    32
  0
VERTEX
  8
0
  5
BC9C
 10
447.391
 20
939.809
 30
0.000000
  70
    32
  0
VERTEX
  8
0
  5
BC9D
 10
447.385
 20
939.808
 30
0.000000
  70
    32
  0
VERTEX
  8
0
  5
BC9E
 10
447.379
 20
939.808
 30
0.000000
  70
    32
  0
VERTEX
  8
0
  5
BC9F
 10
447.373
 20
939.807
 30
0.000000
  70
    32
  0
VERTEX
  8
0
  5
BCA0
 10
447.367
 20
939.806
 30
0.000000
  70
    32
  0
VERTEX
  8
0
  5
BCA1
 10
447.361
 20
939.805
 30
0.000000
  70
    32
  0
VERTEX
  8
0
  5
BCA2
 10
447.355
 20
939.804
 30
0.000000
  70
    32
  0
VERTEX
  8
0
  5
BCA3
 10
447.349
 20
939.803
 30
0.000000
  70
    32
  0
VERTEX
  8
0
  5
BCA4
 10
447.343
 20
939.802
 30
0.000000
  70
    32
  0
VERTEX
  8
0
  5
BCA5
 10
447.337
 20
939.801
 30
0.000000
  70
    32
  0
VERTEX
  8
0
  5
BCA6
 10
447.331
 20
939.799
 30
0.000000
  70
    32
  0
VERTEX
  8
0
  5
BCA7
 10
447.325
 20
939.798
 30
0.000000
  70
    32
  0
VERTEX
  8
0
  5
BCA8
 10
447.319
 20
939.797
 30
0.000000
  70
    32
  0
VERTEX
  8
0
  5
BCA9
 10
447.313
 20
939.795
 30
0.000000
  70
    32
  0
VERTEX
  8
0
  5
BCAA
 10
447.307
 20
939.793
 30
0.000000
  70
    32
  0
VERTEX
  8
0
  5
BCAB
 10
447.301
 20
939.792
 30
0.000000
  70
    32
  0
VERTEX
  8
0
  5
BCAC
 10
447.295
 20
939.790
 30
0.000000
  70
    32
  0
VERTEX
  8
0
  5
BCAD
 10
447.289
 20
939.788
 30
0.000000
  70
    32
  0
VERTEX
  8
0
  5
BCAE
 10
447.284
 20
939.786
 30
0.000000
  70
    32
  0
VERTEX
  8
0
  5
BCAF
 10
447.278
 20
939.784
 30
0.000000
  70
    32
  0
VERTEX
  8
0
  5
BCB0
 10
447.272
 20
939.782
 30
0.000000
  70
    32
  0
VERTEX
  8
0
  5
BCB1
 10
447.266
 20
939.780
 30
0.000000
  70
    32
  0
VERTEX
  8
0
  5
BCB2
 10
447.260
 20
939.778
 30
0.000000
  70
    32
  0
VERTEX
  8
0
  5
BCB3
 10
447.255
 20
939.776
 30
0.000000
  70
    32
  0
VERTEX
  8
0
  5
BCB4
 10
447.249
 20
939.773
 30
0.000000
  70
    32
  0
VERTEX
  8
0
  5
BCB5
 10
447.243
 20
939.771
 30
0.000000
  70
    32
  0
VERTEX
  8
0
  5
BCB6
 10
447.238
 20
939.769
 30
0.000000
  70
    32
  0
VERTEX
  8
0
  5
BCB7
 10
447.232
 20
939.766
 30
0.000000
  70
    32
  0
VERTEX
  8
0
  5
BCB8
 10
447.227
 20
939.764
 30
0.000000
  70
    32
  0
VERTEX
  8
0
  5
BCB9
 10
447.221
 20
939.761
 30
0.000000
  70
    32
  0
VERTEX
  8
0
  5
BCBA
 10
447.216
 20
939.758
 30
0.000000
  70
    32
  0
VERTEX
  8
0
  5
BCBB
 10
447.210
 20
939.755
 30
0.000000
  70
    32
  0
VERTEX
  8
0
  5
BCBC
 10
447.205
 20
939.753
 30
0.000000
  70
    32
  0
VERTEX
  8
0
  5
BCBD
 10
447.199
 20
939.750
 30
0.000000
  70
    32
  0
VERTEX
  8
0
  5
BCBE
 10
447.194
 20
939.747
 30
0.000000
  70
    32
  0
VERTEX
  8
0
  5
BCBF
 10
447.189
 20
939.744
 30
0.000000
  70
    32
  0
VERTEX
  8
0
  5
BCC0
 10
447.183
 20
939.740
 30
0.000000
  70
    32
  0
VERTEX
  8
0
  5
BCC1
 10
447.178
 20
939.737
 30
0.000000
  70
    32
  0
VERTEX
  8
0
  5
BCC2
 10
447.173
 20
939.734
 30
0.000000
  70
    32
  0
VERTEX
  8
0
  5
BCC3
 10
447.168
 20
939.731
 30
0.000000
  70
    32
  0
VERTEX
  8
0
  5
BCC4
 10
447.163
 20
939.727
 30
0.000000
  70
    32
  0
VERTEX
  8
0
  5
BCC5
 10
447.158
 20
939.724
 30
0.000000
  70
    32
  0
VERTEX
  8
0
  5
BCC6
 10
447.153
 20
939.720
 30
0.000000
  70
    32
  0
VERTEX
  8
0
  5
BCC7
 10
447.148
 20
939.717
 30
0.000000
  70
    32
  0
VERTEX
  8
0
  5
BCC8
 10
447.143
 20
939.713
 30
0.000000
  70
    32
  0
VERTEX
  8
0
  5
BCC9
 10
447.138
 20
939.709
 30
0.000000
  70
    32
  0
VERTEX
  8
0
  5
BCCA
 10
447.133
 20
939.706
 30
0.000000
  70
    32
  0
VERTEX
  8
0
  5
BCCB
 10
447.128
 20
939.702
 30
0.000000
  70
    32
  0
VERTEX
  8
0
  5
BCCC
 10
447.123
 20
939.698
 30
0.000000
  70
    32
  0
VERTEX
  8
0
  5
BCCD
 10
447.118
 20
939.694
 30
0.000000
  70
    32
  0
VERTEX
  8
0
  5
BCCE
 10
447.114
 20
939.690
 30
0.000000
  70
    32
  0
VERTEX
  8
0
  5
BCCF
 10
447.109
 20
939.686
 30
0.000000
  70
    32
  0
VERTEX
  8
0
  5
BCD0
 10
447.105
 20
939.682
 30
0.000000
  70
    32
  0
VERTEX
  8
0
  5
BCD1
 10
447.100
 20
939.678
 30
0.000000
  70
    32
  0
VERTEX
  8
0
  5
BCD2
 10
447.096
 20
939.674
 30
0.000000
  70
    32
  0
VERTEX
  8
0
  5
BCD3
 10
447.091
 20
939.669
 30
0.000000
  70
    32
  0
VERTEX
  8
0
  5
BCD4
 10
447.087
 20
939.665
 30
0.000000
  70
    32
  0
VERTEX
  8
0
  5
BCD5
 10
447.083
 20
939.661
 30
0.000000
  70
    32
  0
VERTEX
  8
0
  5
BCD6
 10
447.078
 20
939.656
 30
0.000000
  70
    32
  0
VERTEX
  8
0
  5
BCD7
 10
447.074
 20
939.652
 30
0.000000
  70
    32
  0
VERTEX
  8
0
  5
BCD8
 10
447.070
 20
939.647
 30
0.000000
  70
    32
  0
VERTEX
  8
0
  5
BCD9
 10
447.066
 20
939.643
 30
0.000000
  70
    32
  0
VERTEX
  8
0
  5
BCDA
 10
447.062
 20
939.638
 30
0.000000
  70
    32
  0
VERTEX
  8
0
  5
BCDB
 10
447.058
 20
939.633
 30
0.000000
  70
    32
  0
VERTEX
  8
0
  5
BCDC
 10
447.054
 20
939.629
 30
0.000000
  70
    32
  0
VERTEX
  8
0
  5
BCDD
 10
447.050
 20
939.624
 30
0.000000
  70
    32
  0
VERTEX
  8
0
  5
BCDE
 10
447.046
 20
939.619
 30
0.000000
  70
    32
  0
VERTEX
  8
0
  5
BCDF
 10
447.042
 20
939.614
 30
0.000000
  70
    32
  0
VERTEX
  8
0
  5
BCE0
 10
447.039
 20
939.609
 30
0.000000
  70
    32
  0
VERTEX
  8
0
  5
BCE1
 10
447.035
 20
939.604
 30
0.000000
  70
    32
  0
VERTEX
  8
0
  5
BCE2
 10
447.032
 20
939.599
 30
0.000000
  70
    32
  0
VERTEX
  8
0
  5
BCE3
 10
447.028
 20
939.594
 30
0.000000
  70
    32
  0
VERTEX
  8
0
  5
BCE4
 10
447.025
 20
939.589
 30
0.000000
  70
    32
  0
VERTEX
  8
0
  5
BCE5
 10
447.021
 20
939.584
 30
0.000000
  70
    32
  0
VERTEX
  8
0
  5
BCE6
 10
447.018
 20
939.579
 30
0.000000
  70
    32
  0
VERTEX
  8
0
  5
BCE7
 10
447.015
 20
939.574
 30
0.000000
  70
    32
  0
VERTEX
  8
0
  5
BCE8
 10
447.012
 20
939.569
 30
0.000000
  70
    32
  0
VERTEX
  8
0
  5
BCE9
 10
447.008
 20
939.563
 30
0.000000
  70
    32
  0
VERTEX
  8
0
  5
BCEA
 10
447.005
 20
939.558
 30
0.000000
  70
    32
  0
VERTEX
  8
0
  5
BCEB
 10
447.002
 20
939.553
 30
0.000000
  70
    32
  0
VERTEX
  8
0
  5
BCEC
 10
446.999
 20
939.547
 30
0.000000
  70
    32
  0
VERTEX
  8
0
  5
BCED
 10
446.997
 20
939.542
 30
0.000000
  70
    32
  0
VERTEX
  8
0
  5
BCEE
 10
446.994
 20
939.536
 30
0.000000
  70
    32
  0
VERTEX
  8
0
  5
BCEF
 10
446.991
 20
939.531
 30
0.000000
  70
    32
  0
VERTEX
  8
0
  5
BCF0
 10
446.988
 20
939.525
 30
0.000000
  70
    32
  0
VERTEX
  8
0
  5
BCF1
 10
446.986
 20
939.520
 30
0.000000
  70
    32
  0
VERTEX
  8
0
  5
BCF2
 10
446.983
 20
939.514
 30
0.000000
  70
    32
  0
VERTEX
  8
0
  5
BCF3
 10
446.981
 20
939.509
 30
0.000000
  70
    32
  0
VERTEX
  8
0
  5
BCF4
 10
446.978
 20
939.503
 30
0.000000
  70
    32
  0
VERTEX
  8
0
  5
BCF5
 10
446.976
 20
939.497
 30
0.000000
  70
    32
  0
VERTEX
  8
0
  5
BCF6
 10
446.974
 20
939.491
 30
0.000000
  70
    32
  0
VERTEX
  8
0
  5
BCF7
 10
446.972
 20
939.486
 30
0.000000
  70
    32
  0
VERTEX
  8
0
  5
BCF8
 10
446.970
 20
939.480
 30
0.000000
  70
    32
  0
VERTEX
  8
0
  5
BCF9
 10
446.968
 20
939.474
 30
0.000000
  70
    32
  0
VERTEX
  8
0
  5
BCFA
 10
446.966
 20
939.468
 30
0.000000
  70
    32
  0
VERTEX
  8
0
  5
BCFB
 10
446.964
 20
939.463
 30
0.000000
  70
    32
  0
VERTEX
  8
0
  5
BCFC
 10
446.962
 20
939.457
 30
0.000000
  70
    32
  0
VERTEX
  8
0
  5
BCFD
 10
446.960
 20
939.451
 30
0.000000
  70
    32
  0
VERTEX
  8
0
  5
BCFE
 10
446.959
 20
939.445
 30
0.000000
  70
    32
  0
VERTEX
  8
0
  5
BCFF
 10
446.957
 20
939.439
 30
0.000000
  70
    32
  0
VERTEX
  8
0
  5
BD00
 10
446.955
 20
939.433
 30
0.000000
  70
    32
  0
VERTEX
  8
0
  5
BD01
 10
446.954
 20
939.427
 30
0.000000
  70
    32
  0
VERTEX
  8
0
  5
BD02
 10
446.953
 20
939.421
 30
0.000000
  70
    32
  0
VERTEX
  8
0
  5
BD03
 10
446.951
 20
939.415
 30
0.000000
  70
    32
  0
VERTEX
  8
0
  5
BD04
 10
446.950
 20
939.409
 30
0.000000
  70
    32
  0
VERTEX
  8
0
  5
BD05
 10
446.949
 20
939.403
 30
0.000000
  70
    32
  0
VERTEX
  8
0
  5
BD06
 10
446.948
 20
939.397
 30
0.000000
  70
    32
  0
VERTEX
  8
0
  5
BD07
 10
446.947
 20
939.391
 30
0.000000
  70
    32
  0
VERTEX
  8
0
  5
BD08
 10
446.946
 20
939.385
 30
0.000000
  70
    32
  0
VERTEX
  8
0
  5
BD09
 10
446.945
 20
939.379
 30
0.000000
  70
    32
  0
VERTEX
  8
0
  5
BD0A
 10
446.944
 20
939.373
 30
0.000000
  70
    32
  0
VERTEX
  8
0
  5
BD0B
 10
446.943
 20
939.367
 30
0.000000
  70
    32
  0
VERTEX
  8
0
  5
BD0C
 10
446.943
 20
939.361
 30
0.000000
  70
    32
  0
VERTEX
  8
0
  5
BD0D
 10
446.942
 20
939.354
 30
0.000000
  70
    32
  0
VERTEX
  8
0
  5
BD0E
 10
446.942
 20
939.348
 30
0.000000
  70
    32
  0
VERTEX
  8
0
  5
BD0F
 10
446.941
 20
939.342
 30
0.000000
  70
    32
  0
VERTEX
  8
0
  5
BD10
 10
446.941
 20
939.336
 30
0.000000
  70
    32
  0
VERTEX
  8
0
  5
BD11
 10
446.941
 20
939.330
 30
0.000000
  70
    32
  0
VERTEX
  8
0
  5
BD12
 10
446.941
 20
939.324
 30
0.000000
  70
    32
  0
VERTEX
  8
0
  5
BD13
 10
446.940
 20
939.318
 30
0.000000
  70
    32
  0
VERTEX
  8
0
  5
BD14
 10
446.940
 20
939.312
 30
0.000000
  70
    32
  0
SEQEND
  8
0
  5
BD15
  0
LINE
  5
B5A8
  8
0
 10
447.44040675868303
 20
939.81154070403727
 30
0.0
 11
452.81553275868259
 21
939.81154070403727
 31
0.0
  0
LINE
  5
B5A9
  8
0
 10
453.31553275868259
 20
943.8116207040373
 30
0.0
 11
453.31553275868259
 21
940.31155070403724
 31
0.0
  0
POLYLINE
  5
B5AA
  8
0
 10
453.31553275828264
 20
959.81194070403728
 30
0.0
 66
     1
 70
     8
  0
VERTEX
  8
0
  5
BD16
 10
453.316
 20
959.812
 30
0.000000
  70
    32
  0
VERTEX
  8
0
  5
BD17
 10
453.315
 20
959.824
 30
0.000000
  70
    32
  0
VERTEX
  8
0
  5
BD18
 10
453.315
 20
959.836
 30
0.000000
  70
    32
  0
VERTEX
  8
0
  5
BD19
 10
453.315
 20
959.849
 30
0.000000
  70
    32
  0
VERTEX
  8
0
  5
BD1A
 10
453.314
 20
959.861
 30
0.000000
  70
    32
  0
VERTEX
  8
0
  5
BD1B
 10
453.314
 20
959.873
 30
0.000000
  70
    32
  0
VERTEX
  8
0
  5
BD1C
 10
453.313
 20
959.886
 30
0.000000
  70
    32
  0
VERTEX
  8
0
  5
BD1D
 10
453.312
 20
959.898
 30
0.000000
  70
    32
  0
VERTEX
  8
0
  5
BD1E
 10
453.311
 20
959.910
 30
0.000000
  70
    32
  0
VERTEX
  8
0
  5
BD1F
 10
453.309
 20
959.922
 30
0.000000
  70
    32
  0
VERTEX
  8
0
  5
BD20
 10
453.308
 20
959.934
 30
0.000000
  70
    32
  0
VERTEX
  8
0
  5
BD21
 10
453.306
 20
959.947
 30
0.000000
  70
    32
  0
VERTEX
  8
0
  5
BD22
 10
453.305
 20
959.959
 30
0.000000
  70
    32
  0
VERTEX
  8
0
  5
BD23
 10
453.303
 20
959.971
 30
0.000000
  70
    32
  0
VERTEX
  8
0
  5
BD24
 10
453.301
 20
959.983
 30
0.000000
  70
    32
  0
VERTEX
  8
0
  5
BD25
 10
453.299
 20
959.995
 30
0.000000
  70
    32
  0
VERTEX
  8
0
  5
BD26
 10
453.296
 20
960.007
 30
0.000000
  70
    32
  0
VERTEX
  8
0
  5
BD27
 10
453.294
 20
960.019
 30
0.000000
  70
    32
  0
VERTEX
  8
0
  5
BD28
 10
453.291
 20
960.031
 30
0.000000
  70
    32
  0
VERTEX
  8
0
  5
BD29
 10
453.288
 20
960.043
 30
0.000000
  70
    32
  0
VERTEX
  8
0
  5
BD2A
 10
453.286
 20
960.055
 30
0.000000
  70
    32
  0
VERTEX
  8
0
  5
BD2B
 10
453.283
 20
960.067
 30
0.000000
  70
    32
  0
VERTEX
  8
0
  5
BD2C
 10
453.279
 20
960.079
 30
0.000000
  70
    32
  0
VERTEX
  8
0
  5
BD2D
 10
453.276
 20
960.090
 30
0.000000
  70
    32
  0
VERTEX
  8
0
  5
BD2E
 10
453.272
 20
960.102
 30
0.000000
  70
    32
  0
VERTEX
  8
0
  5
BD2F
 10
453.269
 20
960.114
 30
0.000000
  70
    32
  0
VERTEX
  8
0
  5
BD30
 10
453.265
 20
960.126
 30
0.000000
  70
    32
  0
VERTEX
  8
0
  5
BD31
 10
453.261
 20
960.137
 30
0.000000
  70
    32
  0
VERTEX
  8
0
  5
BD32
 10
453.257
 20
960.149
 30
0.000000
  70
    32
  0
VERTEX
  8
0
  5
BD33
 10
453.253
 20
960.160
 30
0.000000
  70
    32
  0
VERTEX
  8
0
  5
BD34
 10
453.249
 20
960.172
 30
0.000000
  70
    32
  0
VERTEX
  8
0
  5
BD35
 10
453.244
 20
960.183
 30
0.000000
  70
    32
  0
VERTEX
  8
0
  5
BD36
 10
453.239
 20
960.195
 30
0.000000
  70
    32
  0
VERTEX
  8
0
  5
BD37
 10
453.235
 20
960.206
 30
0.000000
  70
    32
  0
VERTEX
  8
0
  5
BD38
 10
453.230
 20
960.217
 30
0.000000
  70
    32
  0
VERTEX
  8
0
  5
BD39
 10
453.225
 20
960.228
 30
0.000000
  70
    32
  0
VERTEX
  8
0
  5
BD3A
 10
453.220
 20
960.240
 30
0.000000
  70
    32
  0
VERTEX
  8
0
  5
BD3B
 10
453.214
 20
960.251
 30
0.000000
  70
    32
  0
VERTEX
  8
0
  5
BD3C
 10
453.209
 20
960.262
 30
0.000000
  70
    32
  0
VERTEX
  8
0
  5
BD3D
 10
453.203
 20
960.272
 30
0.000000
  70
    32
  0
VERTEX
  8
0
  5
BD3E
 10
453.197
 20
960.283
 30
0.000000
  70
    32
  0
VERTEX
  8
0
  5
BD3F
 10
453.192
 20
960.294
 30
0.000000
  70
    32
  0
VERTEX
  8
0
  5
BD40
 10
453.186
 20
960.305
 30
0.000000
  70
    32
  0
VERTEX
  8
0
  5
BD41
 10
453.180
 20
960.315
 30
0.000000
  70
    32
  0
VERTEX
  8
0
  5
BD42
 10
453.173
 20
960.326
 30
0.000000
  70
    32
  0
VERTEX
  8
0
  5
BD43
 10
453.167
 20
960.337
 30
0.000000
  70
    32
  0
VERTEX
  8
0
  5
BD44
 10
453.160
 20
960.347
 30
0.000000
  70
    32
  0
VERTEX
  8
0
  5
BD45
 10
453.154
 20
960.357
 30
0.000000
  70
    32
  0
VERTEX
  8
0
  5
BD46
 10
453.147
 20
960.368
 30
0.000000
  70
    32
  0
VERTEX
  8
0
  5
BD47
 10
453.140
 20
960.378
 30
0.000000
  70
    32
  0
VERTEX
  8
0
  5
BD48
 10
453.133
 20
960.388
 30
0.000000
  70
    32
  0
VERTEX
  8
0
  5
BD49
 10
453.126
 20
960.398
 30
0.000000
  70
    32
  0
VERTEX
  8
0
  5
BD4A
 10
453.119
 20
960.408
 30
0.000000
  70
    32
  0
VERTEX
  8
0
  5
BD4B
 10
453.111
 20
960.417
 30
0.000000
  70
    32
  0
VERTEX
  8
0
  5
BD4C
 10
453.104
 20
960.427
 30
0.000000
  70
    32
  0
VERTEX
  8
0
  5
BD4D
 10
453.096
 20
960.437
 30
0.000000
  70
    32
  0
VERTEX
  8
0
  5
BD4E
 10
453.089
 20
960.446
 30
0.000000
  70
    32
  0
VERTEX
  8
0
  5
BD4F
 10
453.081
 20
960.456
 30
0.000000
  70
    32
  0
VERTEX
  8
0
  5
BD50
 10
453.073
 20
960.465
 30
0.000000
  70
    32
  0
VERTEX
  8
0
  5
BD51
 10
453.065
 20
960.474
 30
0.000000
  70
    32
  0
VERTEX
  8
0
  5
BD52
 10
453.056
 20
960.484
 30
0.000000
  70
    32
  0
VERTEX
  8
0
  5
BD53
 10
453.048
 20
960.493
 30
0.000000
  70
    32
  0
VERTEX
  8
0
  5
BD54
 10
453.040
 20
960.501
 30
0.000000
  70
    32
  0
VERTEX
  8
0
  5
BD55
 10
453.031
 20
960.510
 30
0.000000
  70
    32
  0
VERTEX
  8
0
  5
BD56
 10
453.023
 20
960.519
 30
0.000000
  70
    32
  0
VERTEX
  8
0
  5
BD57
 10
453.014
 20
960.528
 30
0.000000
  70
    32
  0
VERTEX
  8
0
  5
BD58
 10
453.005
 20
960.536
 30
0.000000
  70
    32
  0
VERTEX
  8
0
  5
BD59
 10
452.996
 20
960.545
 30
0.000000
  70
    32
  0
VERTEX
  8
0
  5
BD5A
 10
452.987
 20
960.553
 30
0.000000
  70
    32
  0
VERTEX
  8
0
  5
BD5B
 10
452.978
 20
960.561
 30
0.000000
  70
    32
  0
VERTEX
  8
0
  5
BD5C
 10
452.969
 20
960.569
 30
0.000000
  70
    32
  0
VERTEX
  8
0
  5
BD5D
 10
452.959
 20
960.577
 30
0.000000
  70
    32
  0
VERTEX
  8
0
  5
BD5E
 10
452.950
 20
960.585
 30
0.000000
  70
    32
  0
VERTEX
  8
0
  5
BD5F
 10
452.940
 20
960.593
 30
0.000000
  70
    32
  0
VERTEX
  8
0
  5
BD60
 10
452.931
 20
960.600
 30
0.000000
  70
    32
  0
VERTEX
  8
0
  5
BD61
 10
452.921
 20
960.608
 30
0.000000
  70
    32
  0
VERTEX
  8
0
  5
BD62
 10
452.911
 20
960.615
 30
0.000000
  70
    32
  0
VERTEX
  8
0
  5
BD63
 10
452.901
 20
960.622
 30
0.000000
  70
    32
  0
VERTEX
  8
0
  5
BD64
 10
452.891
 20
960.630
 30
0.000000
  70
    32
  0
VERTEX
  8
0
  5
BD65
 10
452.881
 20
960.637
 30
0.000000
  70
    32
  0
VERTEX
  8
0
  5
BD66
 10
452.871
 20
960.643
 30
0.000000
  70
    32
  0
VERTEX
  8
0
  5
BD67
 10
452.861
 20
960.650
 30
0.000000
  70
    32
  0
VERTEX
  8
0
  5
BD68
 10
452.851
 20
960.657
 30
0.000000
  70
    32
  0
VERTEX
  8
0
  5
BD69
 10
452.840
 20
960.663
 30
0.000000
  70
    32
  0
VERTEX
  8
0
  5
BD6A
 10
452.830
 20
960.670
 30
0.000000
  70
    32
  0
VERTEX
  8
0
  5
BD6B
 10
452.819
 20
960.676
 30
0.000000
  70
    32
  0
VERTEX
  8
0
  5
BD6C
 10
452.808
 20
960.682
 30
0.000000
  70
    32
  0
VERTEX
  8
0
  5
BD6D
 10
452.798
 20
960.688
 30
0.000000
  70
    32
  0
VERTEX
  8
0
  5
BD6E
 10
452.787
 20
960.694
 30
0.000000
  70
    32
  0
VERTEX
  8
0
  5
BD6F
 10
452.776
 20
960.700
 30
0.000000
  70
    32
  0
VERTEX
  8
0
  5
BD70
 10
452.765
 20
960.705
 30
0.000000
  70
    32
  0
VERTEX
  8
0
  5
BD71
 10
452.754
 20
960.711
 30
0.000000
  70
    32
  0
VERTEX
  8
0
  5
BD72
 10
452.743
 20
960.716
 30
0.000000
  70
    32
  0
VERTEX
  8
0
  5
BD73
 10
452.732
 20
960.721
 30
0.000000
  70
    32
  0
VERTEX
  8
0
  5
BD74
 10
452.721
 20
960.726
 30
0.000000
  70
    32
  0
VERTEX
  8
0
  5
BD75
 10
452.710
 20
960.731
 30
0.000000
  70
    32
  0
VERTEX
  8
0
  5
BD76
 10
452.698
 20
960.736
 30
0.000000
  70
    32
  0
VERTEX
  8
0
  5
BD77
 10
452.687
 20
960.740
 30
0.000000
  70
    32
  0
VERTEX
  8
0
  5
BD78
 10
452.675
 20
960.745
 30
0.000000
  70
    32
  0
VERTEX
  8
0
  5
BD79
 10
452.664
 20
960.749
 30
0.000000
  70
    32
  0
VERTEX
  8
0
  5
BD7A
 10
452.652
 20
960.754
 30
0.000000
  70
    32
  0
VERTEX
  8
0
  5
BD7B
 10
452.641
 20
960.758
 30
0.000000
  70
    32
  0
VERTEX
  8
0
  5
BD7C
 10
452.629
 20
960.761
 30
0.000000
  70
    32
  0
VERTEX
  8
0
  5
BD7D
 10
452.618
 20
960.765
 30
0.000000
  70
    32
  0
VERTEX
  8
0
  5
BD7E
 10
452.606
 20
960.769
 30
0.000000
  70
    32
  0
VERTEX
  8
0
  5
BD7F
 10
452.594
 20
960.772
 30
0.000000
  70
    32
  0
VERTEX
  8
0
  5
BD80
 10
452.582
 20
960.776
 30
0.000000
  70
    32
  0
VERTEX
  8
0
  5
BD81
 10
452.570
 20
960.779
 30
0.000000
  70
    32
  0
VERTEX
  8
0
  5
BD82
 10
452.559
 20
960.782
 30
0.000000
  70
    32
  0
VERTEX
  8
0
  5
BD83
 10
452.547
 20
960.785
 30
0.000000
  70
    32
  0
VERTEX
  8
0
  5
BD84
 10
452.535
 20
960.788
 30
0.000000
  70
    32
  0
VERTEX
  8
0
  5
BD85
 10
452.523
 20
960.790
 30
0.000000
  70
    32
  0
VERTEX
  8
0
  5
BD86
 10
452.511
 20
960.793
 30
0.000000
  70
    32
  0
VERTEX
  8
0
  5
BD87
 10
452.499
 20
960.795
 30
0.000000
  70
    32
  0
VERTEX
  8
0
  5
BD88
 10
452.486
 20
960.797
 30
0.000000
  70
    32
  0
VERTEX
  8
0
  5
BD89
 10
452.474
 20
960.799
 30
0.000000
  70
    32
  0
VERTEX
  8
0
  5
BD8A
 10
452.462
 20
960.801
 30
0.000000
  70
    32
  0
VERTEX
  8
0
  5
BD8B
 10
452.450
 20
960.803
 30
0.000000
  70
    32
  0
VERTEX
  8
0
  5
BD8C
 10
452.438
 20
960.804
 30
0.000000
  70
    32
  0
VERTEX
  8
0
  5
BD8D
 10
452.426
 20
960.806
 30
0.000000
  70
    32
  0
VERTEX
  8
0
  5
BD8E
 10
452.414
 20
960.807
 30
0.000000
  70
    32
  0
VERTEX
  8
0
  5
BD8F
 10
452.401
 20
960.808
 30
0.000000
  70
    32
  0
VERTEX
  8
0
  5
BD90
 10
452.389
 20
960.809
 30
0.000000
  70
    32
  0
VERTEX
  8
0
  5
BD91
 10
452.377
 20
960.810
 30
0.000000
  70
    32
  0
VERTEX
  8
0
  5
BD92
 10
452.365
 20
960.811
 30
0.000000
  70
    32
  0
VERTEX
  8
0
  5
BD93
 10
452.352
 20
960.811
 30
0.000000
  70
    32
  0
VERTEX
  8
0
  5
BD94
 10
452.340
 20
960.812
 30
0.000000
  70
    32
  0
VERTEX
  8
0
  5
BD95
 10
452.328
 20
960.812
 30
0.000000
  70
    32
  0
VERTEX
  8
0
  5
BD96
 10
452.316
 20
960.812
 30
0.000000
  70
    32
  0
SEQEND
  8
0
  5
BD97
  0
LINE
  5
B5AB
  8
0
 10
371.04040675868288
 20
948.3117107040373
 30
0.0
 11
361.04040675868288
 21
948.3117107040373
 31
0.0
  0
LINE
  5
B5AC
  8
0
 10
448.81553275868259
 20
960.81196070403735
 30
0.0
 11
448.81553275868259
 21
963.31201070403722
 31
0.0
  0
LINE
  5
B5AD
  8
0
 10
381.81553275868288
 20
960.81196070403735
 30
0.0
 11
381.81553275868288
 21
963.31201070403722
 31
0.0
  0
LINE
  5
B5AE
  8
0
 10
318.31553275868288
 20
1171.312010704037
 30
0.0
 11
318.31553275868288
 21
1165.312010704037
 31
0.0
  0
LINE
  5
B5AF
  8
0
 10
293.81553275868288
 20
1172.312010704037
 30
0.0
 11
293.81553275868288
 21
1162.312010704037
 31
0.0
  0
LINE
  5
B5B0
  8
0
 10
304.81553275868299
 20
1172.312010704037
 30
0.0
 11
304.81553275868299
 21
1162.312010704037
 31
0.0
  0
LINE
  5
B5B1
  8
0
 10
304.81553275868299
 20
1171.312010704037
 30
0.0
 11
318.31553275868288
 21
1171.312010704037
 31
0.0
  0
LINE
  5
B5B2
  8
0
 10
293.81553275868288
 20
1172.312010704037
 30
0.0
 11
304.81553275868299
 21
1172.312010704037
 31
0.0
  0
LINE
  5
B5B3
  8
0
 10
216.21555875868299
 20
965.31196970403744
 30
0.0
 11
293.81552875868289
 21
965.31196670403733
 31
0.0
  0
LINE
  5
B5B4
  8
0
 10
216.21555875868299
 20
959.31196970403732
 30
0.0
 11
293.81552875868289
 21
959.31196670403722
 31
0.0
  0
LINE
  5
B5B5
  8
0
 10
293.81552875868289
 20
958.31196670403733
 30
0.0
 11
293.81552875868289
 21
968.31196670403722
 31
0.0
  0
LINE
  5
B5B6
  8
0
 10
293.81552875868289
 20
958.31196670403733
 30
0.0
 11
304.81552875868289
 21
958.31196670403733
 31
0.0
  0
LINE
  5
B5B7
  8
0
 10
304.81552875868289
 20
958.31196670403733
 30
0.0
 11
304.81552875868289
 21
968.31196670403722
 31
0.0
  0
LINE
  5
B5B8
  8
0
 10
304.81552875868289
 20
959.31196670403722
 30
0.0
 11
318.315528758683
 21
959.31196670403722
 31
0.0
  0
LINE
  5
B5B9
  8
0
 10
318.315528758683
 20
959.31196670403722
 30
0.0
 11
318.315528758683
 21
965.31196670403733
 31
0.0
  0
LINE
  5
B5BA
  8
0
 10
304.81552875868289
 20
965.31196670403733
 30
0.0
 11
318.315528758683
 21
965.31196670403733
 31
0.0
  0
LINE
  5
B5BB
  8
0
 10
315.81553275868288
 20
1072.955781704037
 30
0.0
 11
321.31553275868288
 21
1072.955781704037
 31
0.0
  0
LINE
  5
B5BC
  8
0
 10
315.81553275868288
 20
1073.2898597040371
 30
0.0
 11
321.99553275868283
 21
1073.2898597040371
 31
0.0
  0
LINE
  5
B5BD
  8
0
 10
323.31553275868288
 20
1070.955781704037
 30
0.0
 11
323.31553275868288
 21
1065.312014704037
 31
0.0
  0
LINE
  5
B5BE
  8
0
 10
324.99553275868283
 20
1076.2898597040371
 30
0.0
 11
324.99553275868283
 21
1065.312014704037
 31
0.0
  0
ARC
  5
B5BF
  8
0
 10
321.99553275868283
 20
1076.2898597040371
 30
0.0
 40
3.0
 50
270.0
 51
0.0
  0
LINE
  5
B5C0
  8
0
 10
315.81553275868288
 20
1057.6682467040371
 30
0.0
 11
321.31553275868288
 21
1057.6682467040371
 31
0.0
  0
LINE
  5
B5C1
  8
0
 10
315.81553275868288
 20
1057.334169155791
 30
0.0
 11
321.99553275868283
 21
1057.334168704037
 31
0.0
  0
LINE
  5
B5C2
  8
0
 10
323.31553275868288
 20
1059.6682467040371
 30
0.0
 11
323.31553275868288
 21
1065.312014704037
 31
0.0
  0
LINE
  5
B5C3
  8
0
 10
324.99553275868283
 20
1054.334168704037
 30
0.0
 11
324.99553275868283
 21
1065.312014704037
 31
0.0
  0
ARC
  5
B5C4
  8
0
 10
321.99553275868283
 20
1054.334168704037
 30
0.0
 40
3.0
 50
359.99999799999722
 51
89.999997999997177
  0
LINE
  5
B5D3
  8
0
 10
522.31560275868344
 20
615.92922711420169
 30
0.0
 11
548.89157374330364
 21
615.92922711420169
 31
0.0
  0
LINE
  5
B5D4
  8
0
 10
522.31560275868344
 20
637.72694311420162
 30
0.0
 11
548.89157374330364
 21
637.72694311420162
 31
0.0
  0
LINE
  5
B5D5
  8
0
 10
522.31560275868344
 20
629.60293811420115
 30
0.0
 11
548.89157374330364
 21
629.60293811420115
 31
0.0
  0
LINE
  5
B5D6
  8
0
 10
522.31560275868344
 20
491.6740151142015
 30
0.0
 11
534.31560275868344
 21
491.6740151142015
 31
0.0
  0
LINE
  5
B5D7
  8
0
 10
522.31560275868344
 20
503.96129611420128
 30
0.0
 11
534.31560275868344
 21
503.96129611420128
 31
0.0
  0
LINE
  5
B5D8
  8
0
 10
522.31560275868344
 20
514.14058811420159
 30
0.0
 11
534.31560275868344
 21
514.14058811420159
 31
0.0
  0
LINE
  5
B5D9
  8
0
 10
534.31560275868344
 20
532.9077841142016
 30
0.0
 11
534.31560275868344
 21
469.58625447804059
 31
0.0
  0
TEXT
  5
B8B9
  8
0
  6
CONTINUOUS
 62
     0
 10
1094.1889940741989
 20
1023.076366694974
 30
0.0
 40
15.0
  1
VX15-240EB~VX15-300EB
  0
ENDSEC
  0
EOF
