  0
SECTION
  2
HEADER
  9
$ACADVER
  1
AC1009
  9
$INSBASE
 10
0.0
 20
0.0
 30
0.0
  9
$EXTMIN
 10
-10.99310529215108
 20
30.181836058166478
 30
-0.0000000000000053
  9
$EXTMAX
 10
904.513293136264
 20
590.72562098678657
 30
0.0000000000000099
  9
$LIMMIN
 10
0.0000006092027434
 20
-0.0000002453298293
  9
$LIMMAX
 10
853.50000060920274
 20
554.99999975466994
  9
$ORTHOMODE
 70
     1
  9
$REGENMODE
 70
     1
  9
$FILLMODE
 70
     1
  9
$QTEXTMODE
 70
     0
  9
$MIRRTEXT
 70
     0
  9
$DRAGMODE
 70
     2
  9
$LTSCALE
 40
3.0
  9
$OSMODE
 70
   551
  9
$ATTMODE
 70
     1
  9
$TEXTSIZE
 40
2.5
  9
$TRACEWID
 40
1.0
  9
$TEXTSTYLE
  7
STANDARD
  9
$CLAYER
  8
0
  9
$CELTYPE
  6
BYLAYER
  9
$CECOLOR
 62
   256
  9
$DIMSCALE
 40
1.0
  9
$DIMASZ
 40
2.0
  9
$DIMEXO
 40
1.0
  9
$DIMDLI
 40
8.0
  9
$DIMRND
 40
0.0
  9
$DIMDLE
 40
0.0
  9
$DIMEXE
 40
1.0
  9
$DIMTP
 40
0.1
  9
$DIMTM
 40
0.1
  9
$DIMTXT
 40
2.5
  9
$DIMCEN
 40
0.0
  9
$DIMTSZ
 40
0.0
  9
$DIMTOL
 70
     0
  9
$DIMLIM
 70
     0
  9
$DIMTIH
 70
     0
  9
$DIMTOH
 70
     0
  9
$DIMSE1
 70
     0
  9
$DIMSE2
 70
     0
  9
$DIMTAD
 70
     3
  9
$DIMZIN
 70
     8
  9
$DIMBLK
  1

  9
$DIMASO
 70
     1
  9
$DIMSHO
 70
     1
  9
$DIMPOST
  1

  9
$DIMAPOST
  1
"
  9
$DIMALT
 70
     0
  9
$DIMALTD
 70
     2
  9
$DIMALTF
 40
0.0393701
  9
$DIMLFAC
 40
1.0
  9
$DIMTOFL
 70
     1
  9
$DIMTVP
 40
0.0
  9
$DIMTIX
 70
     0
  9
$DIMSOXD
 70
     0
  9
$DIMSAH
 70
     0
  9
$DIMBLK1
  1

  9
$DIMBLK2
  1

  9
$DIMSTYLE
  2
AM_JIS
  9
$DIMCLRD
 70
     2
  9
$DIMCLRE
 70
     2
  9
$DIMCLRT
 70
     4
  9
$DIMTFAC
 40
0.71
  9
$DIMGAP
 40
1.5
  9
$LUNITS
 70
     2
  9
$LUPREC
 70
     2
  9
$SKETCHINC
 40
1.0
  9
$FILLETRAD
 40
0.0
  9
$AUNITS
 70
     0
  9
$AUPREC
 70
     0
  9
$MENU
  1
.
  9
$ELEVATION
 40
0.0
  9
$PELEVATION
 40
0.0
  9
$THICKNESS
 40
0.0
  9
$LIMCHECK
 70
     0
  9
$BLIPMODE
 70
     0
  9
$CHAMFERA
 40
3.0
  9
$CHAMFERB
 40
3.0
  9
$SKPOLY
 70
     0
  9
$TDCREATE
 40
2456902.3609024659
  9
$TDUPDATE
 40
2458540.7237631138
  9
$TDINDWG
 40
0.0691237731
  9
$TDUSRTIMER
 40
0.0691235301
  9
$USRTIMER
 70
     1
  9
$ANGBASE
 50
0.0
  9
$ANGDIR
 70
     0
  9
$PDMODE
 70
     0
  9
$PDSIZE
 40
0.0
  9
$PLINEWID
 40
0.0
  9
$COORDS
 70
     1
  9
$SPLFRAME
 70
     0
  9
$SPLINETYPE
 70
     6
  9
$SPLINESEGS
 70
     8
  9
$ATTDIA
 70
     1
  9
$ATTREQ
 70
     1
  9
$HANDLING
 70
     1
  9
$HANDSEED
  5
2260
  9
$SURFTAB1
 70
     6
  9
$SURFTAB2
 70
     6
  9
$SURFTYPE
 70
     6
  9
$SURFU
 70
     6
  9
$SURFV
 70
     6
  9
$UCSNAME
  2

  9
$UCSORG
 10
0.0
 20
0.0
 30
0.0
  9
$UCSXDIR
 10
1.0
 20
0.0
 30
0.0
  9
$UCSYDIR
 10
0.0
 20
1.0
 30
0.0
  9
$PUCSNAME
  2

  9
$PUCSORG
 10
0.0
 20
0.0
 30
0.0
  9
$PUCSXDIR
 10
1.0
 20
0.0
 30
0.0
  9
$PUCSYDIR
 10
0.0
 20
1.0
 30
0.0
  9
$USERI1
 70
     0
  9
$USERI2
 70
     0
  9
$USERI3
 70
     0
  9
$USERI4
 70
     0
  9
$USERI5
 70
     0
  9
$USERR1
 40
0.0
  9
$USERR2
 40
0.0
  9
$USERR3
 40
0.0
  9
$USERR4
 40
0.0
  9
$USERR5
 40
0.0
  9
$WORLDVIEW
 70
     1
  9
$SHADEDGE
 70
     3
  9
$SHADEDIF
 70
    70
  9
$TILEMODE
 70
     1
  9
$MAXACTVP
 70
    64
  9
$PLIMCHECK
 70
     0
  9
$PEXTMIN
 10
1.0000000000000000E+020
 20
1.0000000000000000E+020
 30
1.0000000000000000E+020
  9
$PEXTMAX
 10
-1.0000000000000000E+020
 20
-1.0000000000000000E+020
 30
-1.0000000000000000E+020
  9
$PLIMMIN
 10
0.0
 20
0.0
  9
$PLIMMAX
 10
420.0
 20
297.0
  9
$UNITMODE
 70
     0
  9
$VISRETAIN
 70
     1
  9
$PLINEGEN
 70
     0
  9
$PSLTSCALE
 70
     1
  0
ENDSEC
  0
SECTION
  2
TABLES
  0
TABLE
  2
VPORT
 70
     1
  0
VPORT
  2
*ACTIVE
 70
     0
 10
0.0
 20
0.0
 11
1.0
 21
1.0
 12
446.76009392205663
 22
310.45372852247658
 13
0.0
 23
0.0
 14
7.5
 24
7.5
 15
30.0
 25
30.0
 16
0.0
 26
0.0
 36
1.0
 17
0.0
 27
0.0
 37
0.0
 40
564.3919115986107
 41
1.7571592210767459
 42
50.0
 43
0.0
 44
0.0
 50
0.0
 51
0.0
 71
    16
 72
  1000
 73
     1
 74
     3
 75
     0
 76
     0
 77
     0
 78
     0
  0
ENDTAB
  0
TABLE
  2
LTYPE
 70
    24
  0
LTYPE
  2
CONTINUOUS
 70
     0
  3
Solid line
 72
    65
 73
     0
 40
0.0
  0
LTYPE
  2
AM_ISO08W050X2
 70
     0
  3
__ . __ . __ . __ . __ . __
 72
    65
 73
     4
 40
9.0
 49
6.0
 49
-0.75
 49
1.5
 49
-0.75
  0
LTYPE
  2
AM_ISO08W050
 70
     0
  3
____ . ____ . ____ . ____ . ____ . ____ . ____
 72
    65
 73
     4
 40
18.0
 49
12.0
 49
-1.5
 49
3.0
 49
-1.5
  0
LTYPE
  2
AM_ISO02W050
 70
     0
  3
__ __ __ __ __ __ __ __ __ __ __ __ __ __ __
 72
    65
 73
     2
 40
7.5
 49
6.0
 49
-1.5
  0
LTYPE
  2
AM_ISO09W050
 70
     0
  3
_____ . . _____ . . _____ . . ____ .. ____
 72
    65
 73
     6
 40
22.5
 49
12.0
 49
-1.5
 49
3.0
 49
-1.5
 49
3.0
 49
-1.5
  0
LTYPE
  2
AMCONSTR
 70
     0
  3
_______________________
 72
    65
 73
     2
 40
9999.0
 49
9999.0
 49
0.0
  0
LTYPE
  2
AM_ISO02W050X2
 70
     0
  3
 _ _ _ _ _ _ _ _ _ _ _ _
 72
    65
 73
     2
 40
3.75
 49
3.0
 49
-0.75
  0
LTYPE
  2
AMZIGZAG
 70
     0
  3
/\/-/\/-/\/-/\/-/\/-/\/
 72
    65
 73
     2
 40
11.0001
 49
0.0001
 49
-11.0
  0
LTYPE
  2
CENTER
 70
     0
  3
Center ____ _ ____ _ ____ _ ____ _ ____ _ ____
 72
    65
 73
     4
 40
50.799999999999997
 49
31.75
 49
-6.3499999999999979
 49
6.3499999999999979
 49
-6.3499999999999979
  0
LTYPE
  2
ACANSTGBM
 70
     0
  3
__ . . __ . .
 72
    65
 73
     6
 40
9.0
 49
4.0
 49
-1.0
 49
1.0
 49
-1.0
 49
1.0
 49
-1.0
  0
LTYPE
  2
ACANSTGLM
 70
     0
  3
_ _ _ _ _
 72
    65
 73
     2
 40
3.0
 49
2.0
 49
-1.0
  0
LTYPE
  2
ACISOWELD
 70
     0
  3
_ _ _ _ _
 72
    65
 73
     2
 40
2.0
 49
2.0
 49
-1.0
  0
LTYPE
  2
ACISOTGB
 70
     0
  3
__ . . __ . .
 72
    65
 73
     6
 40
9.0
 49
4.0
 49
-1.0
 49
1.0
 49
-1.0
 49
1.0
 49
-1.0
  0
LTYPE
  2
ACISOTGL
 70
     0
  3
_ _ _ _ _
 72
    65
 73
     2
 40
3.0
 49
2.0
 49
-1.0
  0
LTYPE
  2
ACJISTGB
 70
     0
  3
__ . . __ . .
 72
    65
 73
     6
 40
9.0
 49
4.0
 49
-1.0
 49
1.0
 49
-1.0
 49
1.0
 49
-1.0
  0
LTYPE
  2
ACJISTGL
 70
     0
  3
_ _ _ _ _
 72
    65
 73
     2
 40
3.0
 49
2.0
 49
-1.0
  0
LTYPE
  2
HIDDEN
 70
     0
  3
Hidden __ __ __ __ __ __ __ __ __ __ __ __ __ _
 72
    65
 73
     2
 40
9.5249999999999968
 49
6.349999999999997
 49
-3.174999999999998
  0
LTYPE
  2
PHANTOM2
 70
     0
  3
Phantom (.5x) ___ _ _ ___ _ _ ___ _ _ ___ _ _
 72
    65
 73
     6
 40
31.75
 49
15.875
 49
-3.174999999999998
 49
3.174999999999998
 49
-3.174999999999998
 49
3.174999999999998
 49
-3.174999999999998
  0
LTYPE
  2
CENTER2
 70
     0
  3
Center (.5x) ___ _ ___ _ ___ _ ___ _ ___ _ ___
 72
    65
 73
     4
 40
1.125
 49
0.75
 49
-0.125
 49
0.125
 49
-0.125
  0
LTYPE
  2
HIDDEN2
 70
     0
  3
Hidden (.5x) _ _ _ _ _ _ _ _ _ _ _ _ _ _ _ _ _
 72
    65
 73
     2
 40
0.1875
 49
0.125
 49
-0.0625
  0
LTYPE
  2
AMZIGZAG2
 70
     0
  3
/\/-/\/-/\/-/\/-/\/-/\/
 72
    65
 73
     2
 40
0.4401
 49
0.0001
 49
-0.4400000000000003
  0
LTYPE
  2
ACANSTGB
 70
     0
  3
__ . . __ . .
 72
    65
 73
     6
 40
0.35433070866
 49
0.15748031496
 49
-0.03937007874
 49
0.03937007874
 49
-0.03937007874
 49
0.03937007874
 49
-0.03937007874
  0
LTYPE
  2
ACANSTGL
 70
     0
  3
_ _ _ _ _
 72
    65
 73
     2
 40
0.11811023622
 49
0.07874015748
 49
-0.03937007874
  0
ENDTAB
  0
TABLE
  2
LAYER
 70
     4
  0
LAYER
  2
0
 70
     0
 62
     7
  6
CONTINUOUS
  0
LAYER
  2
DEFPOINTS
 70
     0
 62
     7
  6
CONTINUOUS
  0
LAYER
  2
AM_5
 70
     0
 62
     2
  6
CONTINUOUS
  0
LAYER
  2
AM_CL
 70
     0
 62
     1
  6
AMCONSTR
  0
ENDTAB
  0
TABLE
  2
STYLE
 70
     8
  0
STYLE
  2
STANDARD
 70
     0
 40
0.0
 41
0.84
 50
0.0
 71
     0
 42
2.5
  3
txt.shx
  4
bigfont.shx
  0
STYLE
  2

 70
     1
 40
0.0
 41
1.0
 50
0.0
 71
     0
 42
2.5
  3
ltypeshp.shx
  4

  0
STYLE
  2
ACANSTS
 70
     0
 40
1.0
 41
1.0
 50
0.0
 71
     0
 42
2.5
  3
romans.shx
  4
bigfont.shx
  0
STYLE
  2
ACANSGDT
 70
     0
 40
0.0
 41
1.0
 50
0.0
 71
     0
 42
2.5
  3
amgdtans.shx
  4

  0
STYLE
  2
ACISOTS
 70
     0
 40
1.0
 41
1.0
 50
0.0
 71
     0
 42
2.5
  3
isocp.shx
  4
extfont.shx
  0
STYLE
  2
ACISOGDT
 70
     0
 40
0.0
 41
1.0
 50
0.0
 71
     0
 42
2.5
  3
amgdt.shx
  4

  0
STYLE
  2
ACJISGDT
 70
     0
 40
0.0
 41
1.0
 50
0.0
 71
     0
 42
2.5
  3
amgdt.shx
  4

  0
STYLE
  2
ACJISTS
 70
     0
 40
1.0
 41
1.0
 50
0.0
 71
     0
 42
2.5
  3
isocp.shx
  4
extfont.shx
  0
ENDTAB
  0
TABLE
  2
VIEW
 70
     6
  0
VIEW
  2
AM_VIEW1
 70
     0
 40
313.20707831325302
 10
213.37500060920269
 20
398.3964605980438
 41
426.75
 11
0.0
 21
0.0
 31
1.0
 12
0.0
 22
0.0
 32
0.0
 42
50.0
 43
0.0
 44
0.0
 50
0.0
 71
    16
  0
VIEW
  2
AM_VIEW2
 70
     0
 40
313.20707831325302
 10
640.12500060920274
 20
398.3964605980438
 41
426.75
 11
0.0
 21
0.0
 31
1.0
 12
0.0
 22
0.0
 32
0.0
 42
50.0
 43
0.0
 44
0.0
 50
0.0
 71
    16
  0
VIEW
  2
AM_VIEW3
 70
     0
 40
313.20707831325302
 10
213.37500060920269
 20
156.60353891129671
 41
426.75
 11
0.0
 21
0.0
 31
1.0
 12
0.0
 22
0.0
 32
0.0
 42
50.0
 43
0.0
 44
0.0
 50
0.0
 71
    16
  0
VIEW
  2
AM_VIEW4
 70
     0
 40
313.20707831325302
 10
640.12500060920274
 20
156.60353891129671
 41
426.75
 11
0.0
 21
0.0
 31
1.0
 12
0.0
 22
0.0
 32
0.0
 42
50.0
 43
0.0
 44
0.0
 50
0.0
 71
    16
  0
VIEW
  2
AM_VIEW5
 70
     0
 40
313.20707831325302
 10
426.75000060920257
 20
277.49999975467023
 41
426.75
 11
0.0
 21
0.0
 31
1.0
 12
0.0
 22
0.0
 32
0.0
 42
50.0
 43
0.0
 44
0.0
 50
0.0
 71
    16
  0
VIEW
  2
AM_VIEW6
 70
     0
 40
626.40789248493957
 10
426.75000060920257
 20
277.49999975467028
 41
853.49146500000018
 11
0.0
 21
0.0
 31
1.0
 12
0.0
 22
0.0
 32
0.0
 42
50.0
 43
0.0
 44
0.0
 50
0.0
 71
    16
  0
ENDTAB
  0
TABLE
  2
UCS
 70
     0
  0
ENDTAB
  0
TABLE
  2
APPID
 70
   161
  0
APPID
  2
ACAD
 70
     0
  0
APPID
  2
MCAD_NO_VIS
 70
     0
  0
APPID
  2
ACAD_TEMP_GRAPHIC
 70
     0
  0
APPID
  2
AD_DRAW
 70
     0
  0
APPID
  2
ACATTRIBSERVICES
 70
     0
  0
APPID
  2
DESIGNERASSEMBLIES
 70
     0
  0
APPID
  2
ACADM_DIM_EDIT
 70
     0
  0
APPID
  2
AMDT_DM_ADJ
 70
     0
  0
APPID
  2
GENIUS_GENDIMSH_14
 70
     0
  0
APPID
  2
GEVID1057795304
 70
     0
  0
APPID
  2
GEVDC
 70
     0
  0
APPID
  2
GEVCON
 70
     0
  0
APPID
  2
GENIUS_GENBH_13
 70
     0
  0
APPID
  2
GENIUS_GENOENT_13
 70
     0
  0
APPID
  2
GENIUS_GENOBJ-NBEHI-BHF_13
 70
     0
  0
APPID
  2
GENIUS_GENOLIS_13
 70
     0
  0
APPID
  2
GENIUS_GENODEF_13
 70
     0
  0
APPID
  2
GENIUS_GENOREF_13
 70
     0
  0
APPID
  2
GENIUS_GENOBJ-NBEHI-BHB_13
 70
     0
  0
APPID
  2
GENIUS_GENOBJ-F-SCPASSM_13
 70
     0
  0
APPID
  2
GENIUS_GENDTOL_13
 70
     0
  0
APPID
  2
GENIUS_GENTRA_14
 70
     0
  0
APPID
  2
ASURF_PCURVE_APPNAME
 70
     0
  0
APPID
  2
GENIUS_GENCFG_13
 70
     0
  0
APPID
  2
GENIUS_GE3CFG0_13
 70
     0
  0
APPID
  2
GENIUS_GENCFG0_13
 70
     0
  0
APPID
  2
GENIUS_GENCFG1_13
 70
     0
  0
APPID
  2
GENIUS_GENCFG2_13
 70
     0
  0
APPID
  2
GENIUS_GENCFG3_13
 70
     0
  0
APPID
  2
GENIUS_GENCFG4_13
 70
     0
  0
APPID
  2
GENIUS_GEVCFG0_13
 70
     0
  0
APPID
  2
GENIUS_GENOBJ-N-TIT_13
 70
     0
  0
APPID
  2
GENIUS_GENTITLE_13
 70
     0
  0
APPID
  2
GENIUS_GENSCREG_15
 70
     0
  0
APPID
  2
GENIUS_GENOBJ-N-SDF_13
 70
     0
  0
APPID
  2
GENIUS_GENFIL_13
 70
     0
  0
APPID
  2
GENIUS_GENOBJ-N-CHA_13
 70
     0
  0
APPID
  2
GENIUS_GEFSH_13
 70
     0
  0
APPID
  2
GENIUS_GENOBJ-F-SHS_13
 70
     0
  0
APPID
  2
GENIUS_GENOBJ-N-CEN_13
 70
     0
  0
APPID
  2
GENIUS_GENOBJ-N-FIL_13
 70
     0
  0
APPID
  2
GENIUS_GENOBJ-N-CRS_13
 70
     0
  0
APPID
  2
GENIUS_GENOBJ-N-HTC_13
 70
     0
  0
APPID
  2
GENIUS_GENHATCH_13
 70
     0
  0
APPID
  2
GEVID1113451354
 70
     0
  0
APPID
  2
AMG_2DHIDE
 70
     0
  0
APPID
  2
AMG_2DSTRUCT_BTR
 70
     0
  0
APPID
  2
ACADM_2DVIEW_IGN_NOTIFY
 70
     0
  0
APPID
  2
GEVID1113451355
 70
     0
  0
APPID
  2
GEVID1118112805
 70
     0
  0
APPID
  2
GEVID1118112806
 70
     0
  0
APPID
  2
GENIUS_GENREC_14
 70
     0
  0
APPID
  2
GENIUS_GENOBJ-N-REC_13
 70
     0
  0
APPID
  2
ACAD_MLEADERVER
 70
     0
  0
APPID
  2
ACAD_PSEXT
 70
     0
  0
APPID
  2
ACAD_DSTYLE_DIMINSPECT
 70
     0
  0
APPID
  2
ACAECLAYERSTANDARD
 70
     0
  0
APPID
  2
GENIUS_GENCEN_19
 70
     0
  0
APPID
  2
ACAD_NAV_VCDISPLAY
 70
     0
  0
APPID
  2
CONTENTBLOCKDESCRIPTION
 70
     0
  0
APPID
  2
ACADANNOTATIVE
 70
     0
  0
APPID
  2
ACADANNOPO
 70
     0
  0
APPID
  2
ACAD_DSTYLE_DIMBREAK
 70
     0
  0
APPID
  2
ACAD_DSTYLE_DIMJAG
 70
     0
  0
APPID
  2
ACAD_EXEMPT_FROM_CAD_STANDARDS
 70
     0
  0
APPID
  2
GENIUS_DUMCFG0_13
 70
     0
  0
APPID
  2
ACAD_DSTYLE_DIMTEXT_FILL
 70
     0
  0
APPID
  2
GENIUS_GEFSHEP_13
 70
     0
  0
APPID
  2
GENIUS_GENOBJ-F-SHE_13
 70
     0
  0
APPID
  2
GENIUS_GEFSHE_13
 70
     0
  0
APPID
  2
ACAD_DIMASSOC_DIMLFAC
 70
     0
  0
APPID
  2
ACAD_DIMASSOC_CALC_DIMLFAC
 70
     0
  0
APPID
  2
ACAD_DIMASSOC_OVERRIDDEN_D
 70
     0
  0
APPID
  2
GENIUS_GENOBJ-F-SHSV_13
 70
     0
  0
APPID
  2
GENIUS_GEFWELD_13
 70
     0
  0
APPID
  2
GENIUS_GENOBJ-N-RSBK_13
 70
     0
  0
APPID
  2
GENIUS_GENOBJ-N-LIB_13
 70
     0
  0
APPID
  2
GENIUS_GENSCALE_13
 70
     0
  0
APPID
  2
GENIUS_GENHINW_13
 70
     0
  0
APPID
  2
GENIUS_FIRSTVISTXT_14
 70
     0
  0
APPID
  2
GENIUS_GENOBJ-N-LEADER_13
 70
     0
  0
APPID
  2
GENIUS_GENDREL_13
 70
     0
  0
APPID
  2
GEVPT
 70
     0
  0
APPID
  2
GEVIT
 70
     0
  0
APPID
  2
VCC
 70
     0
  0
APPID
  2
GENBH
 70
     0
  0
APPID
  2
GEVMK
 70
     0
  0
APPID
  2
GENIUS_GENOBJ-F-DESC_13
 70
     0
  0
APPID
  2
GENIUS_GEFDESC_14
 70
     0
  0
APPID
  2
GENIUS_GENOBJ-F-FEAT_13
 70
     0
  0
APPID
  2
GENIUS_GEFFEAT_14
 70
     0
  0
APPID
  2
GENIUS_GEFPARTINS_13
 70
     0
  0
APPID
  2
GENIUS_GENSCREG_13
 70
     0
  0
APPID
  2
GENIUS_GEFSHP_13
 70
     0
  0
APPID
  2
GEVID1025574798
 70
     0
  0
APPID
  2
GEVID1025574769
 70
     0
  0
APPID
  2
GEVID1025757451
 70
     0
  0
APPID
  2
GEVID1240528327
 70
     0
  0
APPID
  2
GEVID1240528328
 70
     0
  0
APPID
  2
GEVID1240528329
 70
     0
  0
APPID
  2
GEVRADREF
 70
     0
  0
APPID
  2
GEVID1240528330
 70
     0
  0
APPID
  2
GEVID1240528331
 70
     0
  0
APPID
  2
GEVID1240528332
 70
     0
  0
APPID
  2
GEVID1240791080
 70
     0
  0
APPID
  2
GEVID1240791081
 70
     0
  0
APPID
  2
GEVID1240791082
 70
     0
  0
APPID
  2
GEVID1240791083
 70
     0
  0
APPID
  2
GEVID1240791084
 70
     0
  0
APPID
  2
GEVID1240791085
 70
     0
  0
APPID
  2
GEVID1240791086
 70
     0
  0
APPID
  2
GEVID1240791087
 70
     0
  0
APPID
  2
GEVID1240791088
 70
     0
  0
APPID
  2
GEVID1240791089
 70
     0
  0
APPID
  2
GEVID1240791090
 70
     0
  0
APPID
  2
GEVID1240791091
 70
     0
  0
APPID
  2
GEVID1240791092
 70
     0
  0
APPID
  2
GEVID1240791093
 70
     0
  0
APPID
  2
GEVID1240791094
 70
     0
  0
APPID
  2
GEVID1240791095
 70
     0
  0
APPID
  2
GEVID1240791096
 70
     0
  0
APPID
  2
GEVID1240791097
 70
     0
  0
APPID
  2
GEVID1240791098
 70
     0
  0
APPID
  2
GEVID1240791099
 70
     0
  0
APPID
  2
GEVID1240791100
 70
     0
  0
APPID
  2
GEVID1240791101
 70
     0
  0
APPID
  2
GEVID1240791102
 70
     0
  0
APPID
  2
GEVID1240791103
 70
     0
  0
APPID
  2
GEVID1240791104
 70
     0
  0
APPID
  2
GEVID1240791105
 70
     0
  0
APPID
  2
GEVID1240875381
 70
     0
  0
APPID
  2
GEVID1240875382
 70
     0
  0
APPID
  2
GEVID1240875383
 70
     0
  0
APPID
  2
GEVID1240875384
 70
     0
  0
APPID
  2
GEVID1240875385
 70
     0
  0
APPID
  2
GEVID1240875386
 70
     0
  0
APPID
  2
GEVID1240875387
 70
     0
  0
APPID
  2
GEVID1240875388
 70
     0
  0
APPID
  2
GEVID1240875389
 70
     0
  0
APPID
  2
GEVID1240875390
 70
     0
  0
APPID
  2
GEVID1240875391
 70
     0
  0
APPID
  2
GEVID1240875392
 70
     0
  0
APPID
  2
GEVID1240875393
 70
     0
  0
APPID
  2
GEVID1240875394
 70
     0
  0
APPID
  2
GEVID1240875395
 70
     0
  0
APPID
  2
GEVID1240875396
 70
     0
  0
APPID
  2
GEVID1240875397
 70
     0
  0
APPID
  2
GEVID1240875398
 70
     0
  0
APPID
  2
GEVID1240875399
 70
     0
  0
APPID
  2
GEVID1240908996
 70
     0
  0
APPID
  2
GEVID1240908997
 70
     0
  0
APPID
  2
GEVID1240908998
 70
     0
  0
APPID
  2
GEVID1240908999
 70
     0
  0
APPID
  2
GEVID1240909000
 70
     0
  0
APPID
  2
GENIUS_GENOBJ-N-ZOO_13
 70
     0
  0
APPID
  2
GENIUS_GENZOO_17
 70
     0
  0
APPID
  2
ACAD_DSTYLE_DIMRADIAL_EXTENSION
 70
     0
  0
APPID
  2
GENIUS_GE3SECT_13
 70
     0
  0
APPID
  2
GEV_VCCNULL_SWITCH_OFF
 70
     0
  0
APPID
  2
ACAD_DSTYLE_DIMTALN
 70
     0
  0
APPID
  2
DCO15
 70
     0
  0
ENDTAB
  0
TABLE
  2
DIMSTYLE
 70
    21
  0
DIMSTYLE
  2
AM_ANSI
 70
     0
  3

  4
"
  5

  6

  7

 40
1.0
 41
2.5
 42
1.0
 43
10.0
 44
1.0
 45
0.0
 46
0.0
 47
0.1
 48
0.1
140
3.5
141
0.0
142
0.0
143
0.0393701
144
1.0
145
0.0
146
0.71
147
1.5
 71
     0
 72
     0
 73
     1
 74
     1
 75
     0
 76
     0
 77
     0
 78
     8
170
     0
171
     2
172
     0
173
     0
174
     0
175
     0
176
     2
177
     2
178
     4
  0
DIMSTYLE
  2
AM_ANSI$3
 70
     0
  3

  4
"
  5

  6

  7

 40
1.0
 41
2.5
 42
1.0
 43
10.0
 44
1.0
 45
0.0
 46
0.0
 47
0.1
 48
0.1
140
3.5
141
0.0
142
0.0
143
0.0393701
144
1.0
145
0.0
146
0.71
147
1.5
 71
     0
 72
     0
 73
     1
 74
     1
 75
     0
 76
     0
 77
     0
 78
     8
170
     0
171
     2
172
     0
173
     0
174
     0
175
     0
176
     2
177
     2
178
     4
  0
DIMSTYLE
  2
AM_ANSI$4
 70
     0
  3

  4
"
  5

  6

  7

 40
1.0
 41
2.5
 42
1.0
 43
10.0
 44
1.0
 45
0.0
 46
0.0
 47
0.1
 48
0.1
140
3.5
141
0.0
142
0.0
143
0.0393701
144
1.0
145
0.0
146
0.71
147
1.5
 71
     0
 72
     0
 73
     1
 74
     1
 75
     0
 76
     0
 77
     0
 78
     8
170
     0
171
     2
172
     0
173
     0
174
     0
175
     0
176
     2
177
     2
178
     4
  0
DIMSTYLE
  2
AM_ANSI$7
 70
     0
  3

  4
"
  5

  6

  7

 40
1.0
 41
2.5
 42
1.0
 43
10.0
 44
1.0
 45
0.0
 46
0.0
 47
0.1
 48
0.1
140
5.0
141
0.0
142
0.0
143
0.0393701
144
1.0
145
0.0
146
0.71
147
1.5
 71
     0
 72
     0
 73
     1
 74
     1
 75
     0
 76
     0
 77
     0
 78
     8
170
     0
171
     2
172
     0
173
     0
174
     0
175
     0
176
     2
177
     2
178
     4
  0
DIMSTYLE
  2
AM_ANSI$SF
 70
     0
  3

  4
"
  5

  6

  7

 40
1.0
 41
2.5
 42
1.0
 43
10.0
 44
1.0
 45
0.0
 46
0.0
 47
0.1
 48
0.1
140
3.5
141
0.0
142
0.0
143
0.0393701
144
1.0
145
0.0
146
0.71
147
1.5
 71
     0
 72
     0
 73
     1
 74
     1
 75
     1
 76
     1
 77
     0
 78
     8
170
     0
171
     2
172
     0
173
     0
174
     0
175
     0
176
     2
177
     2
178
     4
  0
DIMSTYLE
  2
AM_ANSI$SH
 70
     0
  3

  4
"
  5

  6
GENAXEH
  7

 40
1.0
 41
2.5
 42
1.0
 43
10.0
 44
1.0
 45
0.0
 46
0.0
 47
0.1
 48
0.1
140
3.5
141
0.0
142
0.0
143
0.0393701
144
1.0
145
0.0
146
0.71
147
1.5
 71
     0
 72
     0
 73
     1
 74
     1
 75
     1
 76
     1
 77
     0
 78
     8
170
     0
171
     2
172
     0
173
     1
174
     0
175
     0
176
     2
177
     2
178
     4
  0
DIMSTYLE
  2
AM_ISO
 70
     0
  3

  4
"
  5

  6

  7

 40
1.0
 41
2.5
 42
1.0
 43
10.0
 44
1.0
 45
0.0
 46
0.0
 47
0.1
 48
0.1
140
3.5
141
0.0
142
0.0
143
0.0393701
144
1.0
145
0.0
146
0.71
147
1.5
 71
     0
 72
     0
 73
     0
 74
     0
 75
     0
 76
     0
 77
     1
 78
     8
170
     0
171
     2
172
     1
173
     0
174
     0
175
     0
176
   256
177
   256
178
     2
  0
DIMSTYLE
  2
AM_ISO$3
 70
     0
  3

  4
"
  5

  6

  7

 40
1.0
 41
2.5
 42
1.0
 43
10.0
 44
1.0
 45
0.0
 46
0.0
 47
0.1
 48
0.1
140
3.5
141
0.0
142
0.0
143
0.0393701
144
1.0
145
0.0
146
0.71
147
1.5
 71
     0
 72
     0
 73
     0
 74
     1
 75
     0
 76
     0
 77
     1
 78
     8
170
     0
171
     2
172
     0
173
     0
174
     0
175
     0
176
   256
177
   256
178
     2
  0
DIMSTYLE
  2
AM_ISO$4
 70
     0
  3

  4
"
  5

  6

  7

 40
1.0
 41
2.5
 42
1.0
 43
10.0
 44
1.0
 45
0.0
 46
0.0
 47
0.1
 48
0.1
140
3.5
141
0.0
142
0.0
143
0.0393701
144
1.0
145
0.0
146
0.71
147
1.5
 71
     0
 72
     0
 73
     0
 74
     1
 75
     0
 76
     0
 77
     1
 78
     8
170
     0
171
     2
172
     0
173
     0
174
     0
175
     0
176
   256
177
   256
178
     2
  0
DIMSTYLE
  2
AM_ISO$6
 70
     0
  3

  4
"
  5

  6

  7

 40
1.0
 41
2.5
 42
1.0
 43
10.0
 44
1.0
 45
0.0
 46
0.0
 47
0.1
 48
0.1
140
3.5
141
0.0
142
0.0
143
0.0393701
144
1.0
145
0.0
146
0.71
147
1.5
 71
     0
 72
     0
 73
     0
 74
     0
 75
     0
 76
     0
 77
     0
 78
     8
170
     0
171
     2
172
     1
173
     0
174
     0
175
     0
176
   256
177
   256
178
     2
  0
DIMSTYLE
  2
AM_ISO$7
 70
     0
  3

  4
"
  5

  6

  7

 40
1.0
 41
2.5
 42
1.0
 43
10.0
 44
1.0
 45
0.0
 46
0.0
 47
0.1
 48
0.1
140
5.0
141
0.0
142
0.0
143
0.0393701
144
1.0
145
0.0
146
0.71
147
1.5
 71
     0
 72
     0
 73
     0
 74
     0
 75
     0
 76
     0
 77
     1
 78
     8
170
     0
171
     2
172
     1
173
     0
174
     0
175
     0
176
   256
177
   256
178
     2
  0
DIMSTYLE
  2
AM_ISO$SF
 70
     0
  3

  4
"
  5

  6

  7

 40
1.0
 41
2.5
 42
1.0
 43
10.0
 44
1.0
 45
0.0
 46
0.0
 47
0.1
 48
0.1
140
3.5
141
0.0
142
0.0
143
0.0393701
144
1.0
145
0.0
146
0.71
147
1.5
 71
     0
 72
     0
 73
     0
 74
     0
 75
     1
 76
     1
 77
     1
 78
     8
170
     0
171
     2
172
     1
173
     0
174
     0
175
     0
176
   256
177
   256
178
     2
  0
DIMSTYLE
  2
AM_ISO$SH
 70
     0
  3

  4
"
  5

  6
GENAXEH
  7

 40
1.0
 41
2.5
 42
1.0
 43
10.0
 44
1.0
 45
0.0
 46
0.0
 47
0.1
 48
0.1
140
3.5
141
0.0
142
0.0
143
0.0393701
144
2.0
145
0.0
146
0.71
147
1.5
 71
     0
 72
     0
 73
     0
 74
     0
 75
     1
 76
     1
 77
     1
 78
     8
170
     0
171
     2
172
     1
173
     1
174
     0
175
     0
176
   256
177
   256
178
     2
  0
DIMSTYLE
  2
AM_JIS
 70
     0
  3

  4
"
  5

  6

  7

 40
1.0
 41
2.0
 42
1.0
 43
8.0
 44
1.0
 45
0.0
 46
0.0
 47
0.1
 48
0.1
140
2.5
141
0.0
142
0.0
143
0.0393701
144
1.0
145
0.0
146
0.71
147
1.5
 71
     0
 72
     0
 73
     0
 74
     0
 75
     0
 76
     0
 77
     3
 78
     8
170
     0
171
     2
172
     1
173
     0
174
     0
175
     0
176
     2
177
     2
178
     4
  0
DIMSTYLE
  2
AM_JIS$0
 70
     0
  3

  4
"
  5

  6

  7

 40
1.0
 41
2.0
 42
1.0
 43
8.0
 44
1.0
 45
0.0
 46
0.0
 47
0.1
 48
0.1
140
2.5
141
0.0
142
0.0
143
0.0393701
144
1.0
145
0.0
146
0.71
147
1.5
 71
     0
 72
     0
 73
     0
 74
     0
 75
     0
 76
     0
 77
     3
 78
     8
170
     0
171
     2
172
     1
173
     0
174
     0
175
     0
176
     2
177
     2
178
     4
  0
DIMSTYLE
  2
AM_JIS$3
 70
     0
  3

  4
"
  5

  6

  7

 40
1.0
 41
2.0
 42
1.0
 43
10.0
 44
1.0
 45
0.0
 46
0.0
 47
0.1
 48
0.1
140
2.5
141
0.0
142
0.0
143
0.0393701
144
1.0
145
0.0
146
0.71
147
1.5
 71
     0
 72
     0
 73
     0
 74
     1
 75
     0
 76
     0
 77
     3
 78
     8
170
     0
171
     2
172
     0
173
     0
174
     0
175
     0
176
     2
177
     2
178
     4
  0
DIMSTYLE
  2
AM_JIS$4
 70
     0
  3

  4
"
  5

  6

  7

 40
1.0
 41
2.0
 42
1.0
 43
10.0
 44
1.0
 45
0.0
 46
0.0
 47
0.1
 48
0.1
140
2.5
141
0.0
142
0.0
143
0.0393701
144
1.0
145
0.0
146
0.71
147
1.5
 71
     0
 72
     0
 73
     0
 74
     0
 75
     0
 76
     0
 77
     3
 78
     8
170
     0
171
     2
172
     0
173
     0
174
     0
175
     0
176
     2
177
     2
178
     4
  0
DIMSTYLE
  2
AM_JIS$6
 70
     0
  3

  4
"
  5

  6

  7

 40
1.0
 41
2.0
 42
1.0
 43
10.0
 44
1.0
 45
0.0
 46
0.0
 47
0.1
 48
0.1
140
2.5
141
0.0
142
0.0
143
0.0393701
144
1.0
145
0.0
146
0.71
147
1.5
 71
     0
 72
     0
 73
     0
 74
     0
 75
     0
 76
     0
 77
     0
 78
     8
170
     0
171
     2
172
     1
173
     0
174
     0
175
     0
176
     2
177
     2
178
     4
  0
DIMSTYLE
  2
AM_JIS$7
 70
     0
  3

  4
"
  5

  6
OPEN30
  7
OPEN30
 40
1.0
 41
2.0
 42
1.0
 43
10.0
 44
1.0
 45
0.0
 46
0.0
 47
0.1
 48
0.1
140
2.5
141
0.0
142
0.0
143
0.0393701
144
1.0
145
0.0
146
0.71
147
1.5
 71
     0
 72
     0
 73
     0
 74
     0
 75
     0
 76
     0
 77
     3
 78
     8
170
     0
171
     2
172
     1
173
     0
174
     0
175
     0
176
     2
177
     2
178
     4
  0
DIMSTYLE
  2
AM_JIS$SF
 70
     0
  3

  4
"
  5

  6

  7

 40
1.0
 41
2.0
 42
1.0
 43
10.0
 44
1.0
 45
0.0
 46
0.0
 47
0.1
 48
0.1
140
2.5
141
0.0
142
0.0
143
0.0393701
144
1.0
145
0.0
146
0.71
147
1.5
 71
     0
 72
     0
 73
     0
 74
     0
 75
     1
 76
     1
 77
     3
 78
     8
170
     0
171
     2
172
     1
173
     0
174
     0
175
     0
176
     2
177
     2
178
     4
  0
DIMSTYLE
  2
AM_JIS$SH
 70
     0
  3

  4
"
  5

  6
GENAXEH
  7

 40
1.0
 41
2.0
 42
1.0
 43
10.0
 44
1.0
 45
0.0
 46
0.0
 47
0.1
 48
0.1
140
2.5
141
0.0
142
0.0
143
0.0393701
144
2.0
145
0.0
146
0.71
147
1.5
 71
     0
 72
     0
 73
     0
 74
     0
 75
     1
 76
     1
 77
     3
 78
     8
170
     0
171
     2
172
     1
173
     1
174
     0
175
     0
176
     2
177
     2
178
     4
  0
ENDTAB
  0
ENDSEC
  0
SECTION
  2
BLOCKS
  0
BLOCK
  8
0
  2
$MODEL_SPACE
 70
     0
 10
0.0
 20
0.0
 30
0.0
  3
$MODEL_SPACE
  1

  0
ENDBLK
  5
23
  8
0
  0
BLOCK
 67
     1
  8
0
  2
$PAPER_SPACE
 70
     0
 10
0.0
 20
0.0
 30
0.0
  3
$PAPER_SPACE
  1

  0
ENDBLK
  5
1F
 67
     1
  8
0
  0
BLOCK
  8
0
  2
GENAXEH
 70
     0
 10
0.0
 20
0.0
 30
0.0
  3
GENAXEH
  1

  0
LINE
  5
20D1
  8
0
 10
-1.0
 20
0.0
 30
0.0
 11
1.0
 21
0.0
 31
0.0
  0
ENDBLK
  5
20D2
  8
0
  0
BLOCK
  8
0
  6
BYBLOCK
 62
     0
  2
$6-45
 70
     0
 10
0.0
 20
0.0
 30
0.0
  3
$6-45
  1

  0
ARC
  5
F44
  8
0
  6
CONTINUOUS
 62
     0
 10
-2.6499939999999902
 20
2.800201000000015
 30
0.0
 40
2.6003989999999999
 50
89.999982000000799
 51
179.99997799999841
  0
ARC
  5
F45
  8
0
  6
CONTINUOUS
 62
     0
 10
2.6499939999999902
 20
2.800201000000015
 30
0.0
 40
2.600403
 50
0.0
 51
89.999982000000799
  0
LINE
  5
F46
  8
0
  6
CONTINUOUS
 62
     0
 10
0.0660249999999678
 20
0.0
 30
0.0
 11
-0.7999999999999548
 21
1.5
 31
0.0
  0
LINE
  5
F47
  8
0
  6
CONTINUOUS
 62
     0
 10
1.0660249999999669
 20
0.0
 30
0.0
 11
0.2000000000000455
 21
1.5
 31
0.0
  0
LINE
  5
F48
  8
0
  6
CONTINUOUS
 62
     0
 10
6.1000000000000218
 20
0.0
 30
0.0
 11
-6.1000000000000218
 21
0.0
 31
0.0
  0
LINE
  5
F49
  8
0
  6
CONTINUOUS
 62
     0
 10
6.1000000000000218
 20
1.5
 30
0.0
 11
6.1000000000000218
 21
0.0
 31
0.0
  0
LINE
  5
F4A
  8
0
  6
CONTINUOUS
 62
     0
 10
-6.1000000000000218
 20
1.5
 30
0.0
 11
-6.1000000000000218
 21
0.0
 31
0.0
  0
LINE
  5
F4B
  8
0
  6
CONTINUOUS
 62
     0
 10
2.6499939999999902
 20
5.3999939999999906
 30
0.0
 11
-2.6499939999999902
 21
5.3999939999999906
 31
0.0
  0
LINE
  5
F4C
  8
0
  6
CONTINUOUS
 62
     0
 10
6.1000000000000218
 20
1.5
 30
0.0
 11
-6.1000000000000218
 21
1.5
 31
0.0
  0
LINE
  5
F4D
  8
0
  6
CONTINUOUS
 62
     0
 10
-5.25
 20
1.5
 30
0.0
 11
-5.25
 21
2.800201000000015
 31
0.0
  0
LINE
  5
F4E
  8
0
  6
CONTINUOUS
 62
     0
 10
5.25
 20
1.5
 30
0.0
 11
5.25
 21
2.800201000000015
 31
0.0
  0
ENDBLK
  5
F4F
  8
0
  6
BYBLOCK
 62
     0
  0
BLOCK
  8
0
  2
_OPEN30
 70
     0
 10
0.0
 20
0.0
 30
0.0
  3
_OPEN30
  1

  0
LINE
  5
2118
  8
0
  6
BYBLOCK
 62
     0
 10
-1.0
 20
0.26794919
 30
0.0
 11
0.0
 21
0.0
 31
0.0
  0
LINE
  5
2119
  8
0
  6
BYBLOCK
 62
     0
 10
0.0
 20
0.0
 30
0.0
 11
-1.0
 21
-0.26794919
 31
0.0
  0
LINE
  5
211A
  8
0
  6
BYBLOCK
 62
     0
 10
0.0
 20
0.0
 30
0.0
 11
-1.0
 21
0.0
 31
0.0
  0
ENDBLK
  5
211B
  8
0
  0
BLOCK
  8
0
  2
_ACMFILLEDHALF
 70
     0
 10
0.0
 20
0.0
 30
0.0
  3
_ACMFILLEDHALF
  1

  0
TRACE
  5
21DA
  8
0
  6
CONTINUOUS
 62
     0
 10
-0.8
 20
0.0
 30
0.0
 11
-1.0
 21
0.166666666
 31
0.0
 12
0.0
 22
0.0
 32
0.0
 13
0.0
 23
0.0
 33
0.0
  0
LINE
  5
21DB
  8
0
  6
CONTINUOUS
 62
     0
 10
-1.0
 20
0.0
 30
0.0
 11
-0.8
 21
0.0
 31
0.0
  0
ENDBLK
  5
21DC
  8
0
  0
ENDSEC
  0
SECTION
  2
ENTITIES
  0
LINE
  5
1157
  8
0
 10
794.50817526212813
 20
184.54782545077339
 30
0.0
 11
794.50817526212813
 21
192.54783545077299
 31
0.0
  0
LINE
  5
1158
  8
0
 10
784.50817626212745
 20
184.54782545077339
 30
0.0
 11
794.50817526212813
 21
184.54782545077339
 31
0.0
  0
LINE
  5
1159
  8
0
 10
784.50817626212745
 20
184.54782545077339
 30
0.0
 11
784.50817626212745
 21
192.54783545077299
 31
0.0
  0
LINE
  5
115A
  8
0
 10
537.38382931123851
 20
157.54782845077349
 30
0.0
 11
479.3838093112372
 21
157.54782845077349
 31
0.0
  0
LINE
  5
115B
  8
0
 10
479.3838093112372
 20
191.04783545077311
 30
0.0
 11
475.38384931123892
 21
191.04783545077311
 31
0.0
  0
LINE
  5
115C
  8
0
 10
537.38382931123851
 20
192.54783545077299
 30
0.0
 11
492.3838293112376
 21
192.54783545077299
 31
0.0
  0
LINE
  5
115D
  8
0
 10
537.38382931123851
 20
189.54783545077299
 30
0.0
 11
479.3838093112372
 21
189.54783545077299
 31
0.0
  0
LINE
  5
115E
  8
0
 10
479.3838093112372
 20
156.04782845077349
 30
0.0
 11
475.38384931123892
 21
156.04782845077349
 31
0.0
  0
LINE
  5
115F
  8
0
 10
479.3838093112372
 20
156.04782845077349
 30
0.0
 11
479.3838093112372
 21
191.04783545077311
 31
0.0
  0
LINE
  5
1160
  8
0
 10
537.38382931123851
 20
157.54782845077349
 30
0.0
 11
537.38382931123851
 21
192.54783545077299
 31
0.0
  0
LINE
  5
1161
  8
0
 10
492.3838293112376
 20
189.54783545077299
 30
0.0
 11
492.3838293112376
 21
192.54783545077299
 31
0.0
  0
LINE
  5
1162
  8
0
 10
784.50817626212745
 20
192.54783545077299
 30
0.0
 11
794.50817526212813
 21
192.54783545077299
 31
0.0
  0
LINE
  5
1169
  8
0
 10
724.50817326212723
 20
47.547794450773381
 30
0.0
 11
724.50817326212723
 21
33.547811450773231
 31
0.0
  0
LINE
  5
116A
  8
0
 10
674.50818726212765
 20
33.547811450773231
 30
0.0
 11
724.50817326212723
 21
33.547811450773231
 31
0.0
  0
LINE
  5
116B
  8
0
 10
674.50818726212765
 20
48.54781145077321
 30
0.0
 11
674.50818726212765
 21
33.547811450773231
 31
0.0
  0
LINE
  5
116C
  8
0
 10
854.50818426212754
 20
33.547811450773231
 30
0.0
 11
904.50818826212708
 21
33.547811450773231
 31
0.0
  0
LINE
  5
116D
  8
0
 10
854.50818426212754
 20
47.547794450773381
 30
0.0
 11
854.50818426212754
 21
33.547811450773231
 31
0.0
  0
LINE
  5
116E
  8
0
 10
904.50818826212708
 20
48.54781145077321
 30
0.0
 11
904.50818826212708
 21
33.547811450773231
 31
0.0
  0
LINE
  5
116F
  8
0
 10
720.50817426212859
 20
51.547811450773217
 30
0.0
 11
677.50818726212765
 21
51.547811450773217
 31
0.0
  0
LINE
  5
1170
  8
0
 10
858.5081862621272
 20
51.547811450773217
 30
0.0
 11
901.50818526212868
 21
51.547811450773217
 31
0.0
  0
LINE
  5
1171
  8
0
 10
475.38384931123892
 20
173.54780045077311
 30
0.0
 11
475.38384931123892
 21
200.81577545077329
 31
0.0
  0
LINE
  5
1172
  8
0
 10
475.38384931123892
 20
146.27988545077309
 30
0.0
 11
475.38384931123892
 21
173.54780045077311
 31
0.0
  0
LINE
  5
1173
  8
0
 10
469.88379931123728
 20
141.37241345077331
 30
0.0
 11
473.8838193112386
 21
143.68180145077349
 31
0.0
  0
LINE
  5
1174
  8
0
 10
469.8838293112376
 20
205.72323545077319
 30
0.0
 11
473.88384931123881
 21
203.4138654507733
 31
0.0
  0
LINE
  5
1175
  8
0
 10
707.79419826212586
 20
216.8697654507732
 30
0.0
 11
694.69736526212728
 21
175.7331324507731
 31
0.0
  0
LINE
  5
1176
  8
0
 10
442.38384931123892
 20
51.547811450773217
 30
0.0
 11
473.38380931123902
 21
51.547811450773217
 31
0.0
  0
LINE
  5
1177
  8
0
 10
352.38384931123892
 20
35.547809450773471
 30
0.0
 11
437.38380931123891
 21
35.547809450773471
 31
0.0
  0
LINE
  5
1178
  8
0
 10
468.38382931123738
 20
59.087210450773462
 30
0.0
 11
468.38382931123738
 21
217.54782545077339
 31
0.0
  0
LINE
  5
1179
  8
0
 10
427.38384931123699
 20
66.5478264507733
 30
0.0
 11
427.38384931123699
 21
204.9905454507734
 31
0.0
  0
LINE
  5
117A
  8
0
 10
316.38384931123892
 20
51.547811450773217
 30
0.0
 11
347.46402931123879
 21
51.547811450773217
 31
0.0
  0
LINE
  5
117B
  8
0
 10
314.3838393112373
 20
33.547811450773231
 30
0.0
 11
350.38383931123923
 21
33.547811450773231
 31
0.0
  0
LINE
  5
117C
  8
0
 10
475.38384931123892
 20
33.547811450773231
 30
0.0
 11
475.38384931123892
 21
49.547810450773341
 31
0.0
  0
LINE
  5
117D
  8
0
 10
351.27372931123858
 20
54.328694450773121
 30
0.0
 11
366.19353931123902
 21
100.9531014507734
 31
0.0
  0
LINE
  5
117E
  8
0
 10
447.38382931123749
 20
74.005544450773414
 30
0.0
 11
447.38382931123749
 21
235.02876545077339
 31
0.0
  0
LINE
  5
117F
  8
0
 10
455.38380931123902
 20
221.54784545077339
 30
0.0
 11
464.38380931123902
 21
221.54784545077339
 31
0.0
  0
LINE
  5
1180
  8
0
 10
724.50817326212723
 20
156.54782945077341
 30
0.0
 11
724.50817326212723
 21
66.5478264507733
 31
0.0
  0
LINE
  5
1181
  8
0
 10
718.18621326212815
 20
227.26185545077351
 30
0.0
 11
759.3228402621271
 21
240.35871545077319
 31
0.0
  0
LINE
  5
1182
  8
0
 10
366.38382931123851
 20
102.17223245077319
 30
0.0
 11
366.38382931123851
 21
160.1955654507733
 31
0.0
  0
LINE
  5
1183
  8
0
 10
871.62415326212692
 20
217.0685454507734
 30
0.0
 11
884.62007826212721
 21
174.7707294507745
 31
0.0
  0
LINE
  5
1184
  8
0
 10
861.0289302621286
 20
227.66376545077361
 30
0.0
 11
818.73110826212724
 21
240.65967545077319
 31
0.0
  0
LINE
  5
1185
  8
0
 10
854.50818426212754
 20
156.54782945077341
 30
0.0
 11
854.50818426212754
 21
66.5478264507733
 31
0.0
  0
LINE
  5
1186
  8
0
 10
866.50818426212845
 20
205.6415154507736
 30
0.0
 11
866.50818426212845
 21
107.2850874507735
 31
0.0
  0
LINE
  5
1187
  8
0
 10
712.50817326212825
 20
205.6415154507736
 30
0.0
 11
712.50817326212825
 21
107.2850874507735
 31
0.0
  0
LINE
  5
1188
  8
0
 10
362.38389931123862
 20
245.04783545077231
 30
0.0
 11
439.5932793112388
 21
243.0260154507732
 31
0.0
  0
LINE
  5
1189
  8
0
 10
904.47550326212672
 20
48.989444450773128
 30
0.0
 11
887.9241012621269
 21
160.1955654507733
 31
0.0
  0
LINE
  5
118A
  8
0
 10
674.54084226212933
 20
48.989459450773211
 30
0.0
 11
691.09223226212805
 21
160.1955654507733
 31
0.0
  0
LINE
  5
118B
  8
0
 10
362.3838393112373
 20
160.1955654507733
 30
0.0
 11
366.38382931123851
 21
160.1955654507733
 31
0.0
  0
LINE
  5
118C
  8
0
 10
432.45882931123742
 20
66.005558450773137
 30
0.0
 11
439.38384931123869
 21
66.005558450773137
 31
0.0
  0
LINE
  5
118D
  8
0
 10
439.38384931123869
 20
33.547811450773231
 30
0.0
 11
475.38384931123892
 21
33.547811450773231
 31
0.0
  0
LINE
  5
118E
  8
0
 10
439.38384931123869
 20
33.547811450773231
 30
0.0
 11
439.38384931123869
 21
33.547811450773231
 31
0.0
  0
LINE
  5
118F
  8
0
 10
726.5081742621287
 20
35.547809450773471
 30
0.0
 11
852.50818626212742
 21
35.547809450773471
 31
0.0
  0
LINE
  5
1190
  8
0
 10
435.38382931123829
 20
212.9905554507732
 30
0.0
 11
443.78331931123739
 21
212.9905554507732
 31
0.0
  0
LINE
  5
1191
  8
0
 10
362.38389931123862
 20
175.7331324507731
 30
0.0
 11
362.38542931123902
 21
175.7331324507731
 31
0.0
  0
LINE
  5
1192
  8
0
 10
362.3838393112373
 20
175.7331324507731
 30
0.0
 11
390.15249931123878
 21
201.01959545077349
 31
0.0
  0
LINE
  5
1193
  8
0
 10
353.5635993112391
 20
223.68312545077339
 30
0.0
 11
362.3838393112373
 21
223.68312545077339
 31
0.0
  0
LINE
  5
119A
  8
0
 10
362.3838393112373
 20
89.047826450773314
 30
0.0
 11
362.3838393112373
 21
245.04783545077231
 31
0.0
  0
LINE
  5
119B
  8
0
 10
352.38384931123892
 20
65.130041450773206
 30
0.0
 11
354.73014931123731
 21
65.130041450773206
 31
0.0
  0
LINE
  5
119C
  8
0
 10
332.38375131561588
 20
230.54782845077349
 30
0.0
 11
347.55826131561747
 21
231.07771845077329
 31
0.0
  0
LINE
  5
119D
  8
0
 10
352.38384931123892
 20
57.797825450773423
 30
0.0
 11
352.38384931123892
 21
242.7672354507736
 31
0.0
  0
LINE
  5
119E
  8
0
 10
332.38375131561588
 20
60.547828450773522
 30
0.0
 11
347.2431113156162
 21
60.028921450774739
 31
0.0
  0
LINE
  5
119F
  8
0
 10
354.31401931123861
 20
244.76601545077341
 30
0.0
 11
362.3838393112373
 21
245.0478054507735
 31
0.0
  0
LINE
  5
11A0
  8
0
 10
352.38384931123892
 20
81.6884514507733
 30
0.0
 11
360.02886931123891
 21
81.6884514507733
 31
0.0
  0
LINE
  5
11A1
  8
0
 10
341.3838393112373
 20
242.54781545077319
 30
0.0
 11
352.38384931123892
 21
242.54781545077319
 31
0.0
  0
LINE
  5
11A2
  8
0
 10
341.3838393112373
 20
230.86210921687371
 30
0.0
 11
341.3838393112373
 21
242.54781545077319
 31
0.0
  0
LINE
  5
11A3
  8
0
 10
342.38382931123851
 20
242.7478336507734
 30
0.0
 11
343.57926931123978
 21
247.20925365077349
 31
0.0
  0
LINE
  5
11A4
  8
0
 10
357.81034915090731
 20
244.8881037731299
 30
0.0
 11
357.14775931123859
 21
247.36081365077371
 31
0.0
  0
LINE
  5
11A5
  8
0
 10
344.2576293112387
 20
247.90822365077341
 30
0.0
 11
350.38383931123923
 21
249.74785365077329
 31
0.0
  0
LINE
  5
11A6
  8
0
 10
350.38383931123923
 20
249.74785365077329
 30
0.0
 11
356.4490893112378
 21
248.0656636507733
 31
0.0
  0
CIRCLE
  5
11A7
  8
0
 10
789.50819226212752
 20
173.54780045077311
 30
0.0
 40
2.75000007
  0
CIRCLE
  5
11A8
  8
0
 10
789.50819226212752
 20
173.54780045077311
 30
0.0
 40
4.000000199999997
  0
ARC
  5
11A9
  8
0
 10
789.50819226212752
 20
173.54780045077311
 30
0.0
 40
16.000000499999999
 50
108.2099599999986
 51
71.79005199998852
  0
ARC
  5
11AA
  8
0
 10
352.38384931123892
 20
33.547811450773231
 30
0.0
 40
2.00000007
 50
90.000002999984659
 51
180.000010000001
  0
ARC
  5
11AB
  8
0
 10
720.50817426212859
 20
47.547794450773381
 30
0.0
 40
4.000000199999997
 50
0.0
 51
90.000002999984659
  0
ARC
  5
11AC
  8
0
 10
347.46402931123879
 20
55.547810450773341
 30
0.0
 40
4.000000199999997
 50
270.0
 51
342.2553300000215
  0
ARC
  5
11AD
  8
0
 10
362.3838393112373
 20
102.17223245077319
 30
0.0
 40
4.000000199999997
 50
342.2553300000215
 51
0.0
  0
ARC
  5
11AE
  8
0
 10
442.38384931123892
 20
66.5478264507733
 30
0.0
 40
15.000000299999989
 50
179.999989999999
 51
270.0
  0
ARC
  5
11AF
  8
0
 10
435.38382931123829
 20
204.9905454507734
 30
0.0
 40
8.0000000999999994
 50
90.000002999984659
 51
180.000010000001
  0
ARC
  5
11B0
  8
0
 10
677.50818726212765
 20
48.54781145077321
 30
0.0
 40
3.0
 50
90.000002999984659
 51
180.000010000001
  0
ARC
  5
11B1
  8
0
 10
901.50818526212868
 20
48.54781145077321
 30
0.0
 40
3.0
 50
0.0
 51
90.000002999984659
  0
ARC
  5
11B2
  8
0
 10
858.5081862621272
 20
47.547794450773381
 30
0.0
 40
4.000000199999997
 50
90.000002999984659
 51
180.000010000001
  0
ARC
  5
11B3
  8
0
 10
789.50819226212752
 20
107.2850874507735
 30
0.0
 40
77.000000999999997
 50
179.999989999999
 51
212.4183899999783
  0
ARC
  5
11B4
  8
0
 10
471.38382931123772
 20
138.77432945077311
 30
0.0
 40
3.0
 50
119.9999999999946
 51
180.000010000001
  0
ARC
  5
11B5
  8
0
 10
471.38382931123772
 20
208.3213254507732
 30
0.0
 40
3.0
 50
179.999989999999
 51
240.0000099999894
  0
ARC
  5
11B6
  8
0
 10
472.38384931123881
 20
200.81577545077329
 30
0.0
 40
3.0
 50
0.0
 51
60.00000199998231
  0
ARC
  5
11B7
  8
0
 10
472.38384931123881
 20
146.27988545077309
 30
0.0
 40
3.0
 50
299.99999999999471
 51
0.0
  0
ARC
  5
11B8
  8
0
 10
439.38384931123869
 20
235.02876545077339
 30
0.0
 40
8.0000000999999994
 50
0.0
 51
88.499996999987715
  0
ARC
  5
11B9
  8
0
 10
709.50817326212837
 20
66.5478264507733
 30
0.0
 40
15.000000299999989
 50
270.0
 51
0.0
  0
ARC
  5
11BA
  8
0
 10
316.38384931123892
 20
49.547810450773341
 30
0.0
 40
2.00000007
 50
90.000002999984659
 51
180.000010000001
  0
ARC
  5
11BB
  8
0
 10
473.38380931123902
 20
49.547810450773341
 30
0.0
 40
2.00000007
 50
0.0
 51
90.000002999984659
  0
ARC
  5
11BC
  8
0
 10
439.38384931123869
 20
74.005544450773414
 30
0.0
 40
8.0000000999999994
 50
270.0
 51
0.0
  0
ARC
  5
11BD
  8
0
 10
852.50818626212742
 20
33.547811450773231
 30
0.0
 40
2.00000007
 50
0.0
 51
90.000002999984659
  0
ARC
  5
11BE
  8
0
 10
726.5081742621287
 20
33.547811450773231
 30
0.0
 40
2.00000007
 50
90.000002999984659
 51
180.000010000001
  0
ARC
  5
11BF
  8
0
 10
455.38380931123902
 20
229.54782545077339
 30
0.0
 40
8.0000000999999994
 50
179.999989999999
 51
270.0
  0
ARC
  5
11C0
  8
0
 10
789.50819226212752
 20
156.54782945077341
 30
0.0
 40
65.000000999999997
 50
0.0
 51
180.000010000001
  0
ARC
  5
11C1
  8
0
 10
789.50819226212752
 20
145.54782845077349
 30
0.0
 40
99.500004000000004
 50
8.4654901000033789
 51
171.53449999999989
  0
ARC
  5
11C2
  8
0
 10
476.38380931123902
 20
59.087210450773462
 30
0.0
 40
8.0000000999999994
 50
179.999989999999
 51
252.54239000001419
  0
ARC
  5
11C3
  8
0
 10
856.32977826212743
 20
212.36943545077341
 30
0.0
 40
16.000000499999999
 50
17.079463000014648
 51
72.920534000006441
  0
ARC
  5
11C4
  8
0
 10
869.50818426212845
 20
66.5478264507733
 30
0.0
 40
15.000000299999989
 50
179.999989999999
 51
270.0
  0
ARC
  5
11C5
  8
0
 10
789.50819226212752
 20
107.2850874507735
 30
0.0
 40
77.000000999999997
 50
327.58160000001152
 51
0.0
  0
ARC
  5
11C6
  8
0
 10
723.04012626212705
 20
212.0158854507736
 30
0.0
 40
16.000000499999999
 50
107.0794599999811
 51
162.92052999998421
  0
ARC
  5
11C7
  8
0
 10
437.38380931123891
 20
33.547811450773231
 30
0.0
 40
2.00000007
 50
0.0
 51
90.000002999984659
  0
ARC
  5
11C8
  8
0
 10
858.5081862621272
 20
205.6415154507736
 30
0.0
 40
8.0000000999999994
 50
0.0
 51
41.053350999998607
  0
ARC
  5
11C9
  8
0
 10
720.50817426212859
 20
205.6415154507736
 30
0.0
 40
8.0000000999999994
 50
138.94664999998599
 51
180.000010000001
  0
ARC
  5
11CA
  8
0
 10
464.38380931123902
 20
217.54782545077339
 30
0.0
 40
4.000000199999997
 50
0.0
 51
90.000002999984659
  0
CIRCLE
  5
11CB
  8
0
 10
789.50819226212752
 20
173.54780045077311
 30
0.0
 40
29.000001000000001
  0
ARC
  5
11CC
  8
0
 10
347.06863131561659
 20
55.031974450773269
 30
0.0
 40
5.0000000999999976
 50
14.703632261956541
 51
87.999999999996405
  0
ARC
  5
11CD
  8
0
 10
354.38382931123772
 20
242.7672354507736
 30
0.0
 40
2.00000007
 50
91.999997999993994
 51
109.0653999999887
  0
ARC
  5
11CE
  8
0
 10
354.38382931123772
 20
242.7672354507736
 30
0.0
 40
2.00000007
 50
109.0653999999887
 51
180.000010000001
  0
ARC
  5
11CF
  8
0
 10
347.38375131561583
 20
236.07466845077349
 30
0.0
 40
5.0000000999999976
 50
272.00000000000358
 51
0.0
  0
CIRCLE
  5
11D0
  8
0
 10
350.38383931123923
 20
259.74781365077342
 30
0.0
 40
9.9999992999999971
  0
ARC
  5
11D1
  8
0
 10
350.38383931123923
 20
259.74781365077342
 30
0.0
 40
16.299997799999989
 50
304.10956999997921
 51
235.89042000000819
  0
ARC
  5
11D2
  8
0
 10
339.55284931123879
 20
243.7734736507737
 30
0.0
 40
3.0
 50
335.88604785389009
 51
55.861737000010649
  0
ARC
  5
11D3
  8
0
 10
361.21482931123768
 20
243.7734736507737
 30
0.0
 40
3.0
 50
124.0989166875229
 51
157.73726171936909
  0
ARC
  5
11D4
  8
0
 10
344.54520931123898
 20
246.95044365077371
 30
0.0
 40
1.0000000199999941
 50
106.71442000000521
 51
164.99999000001131
  0
ARC
  5
11D5
  8
0
 10
356.18187931123879
 20
247.10203365077359
 30
0.0
 40
1.0000000199999941
 50
14.999999999994451
 51
74.498793000020584
  0
POLYLINE
  5
11D6
  8
0
 66
     1
 10
0.0
 20
0.0
 30
0.0
  0
VERTEX
  5
11D7
  8
0
 10
390.1530393112389
 20
201.02013545077349
 30
0.0
 42
0.038759412
  0
VERTEX
  5
11D8
  8
0
 10
392.90085931123849
 20
203.9310054507732
 30
0.0
 42
0.04530642
  0
VERTEX
  5
11D9
  8
0
 10
395.12304931123879
 20
207.2587254507734
 30
0.0
 42
0.052171517
  0
VERTEX
  5
11DA
  8
0
 10
396.65973931123881
 20
210.9565254507734
 30
0.0
 42
0.057266797
  0
VERTEX
  5
11DB
  8
0
 10
397.35399931123902
 20
214.8952854507734
 30
0.0
 42
0.058402473
  0
VERTEX
  5
11DC
  8
0
 10
397.12323931123871
 20
218.88348545077321
 30
0.0
 42
0.055045428
  0
VERTEX
  5
11DD
  8
0
 10
395.9977293112388
 20
222.71865545077341
 30
0.0
 42
0.048778207
  0
VERTEX
  5
11DE
  8
0
 10
394.10484931123761
 20
226.2391554507735
 30
0.0
 42
0.041944178
  0
VERTEX
  5
11DF
  8
0
 10
391.60734931123898
 20
229.3621854507733
 30
0.0
 42
0.035908203
  0
VERTEX
  5
11E0
  8
0
 10
388.65474931123759
 20
232.06296545077339
 30
0.0
 42
0.031063143
  0
VERTEX
  5
11E1
  8
0
 10
385.3680693112392
 20
234.3469254507732
 30
0.0
 42
0.027381807
  0
VERTEX
  5
11E2
  8
0
 10
381.83613931123909
 20
236.23404545077349
 30
0.0
 42
0.024647351
  0
VERTEX
  5
11E3
  8
0
 10
378.12711931123891
 20
237.7451754507733
 30
0.0
 42
0.022677519
  0
VERTEX
  5
11E4
  8
0
 10
374.29173931123751
 20
238.8998454507732
 30
0.0
 42
0.021321472
  0
VERTEX
  5
11E5
  8
0
 10
370.3693293112392
 20
239.7136554507733
 30
0.0
 42
0.020471059
  0
VERTEX
  5
11E6
  8
0
 10
366.39243931123838
 20
240.19773545077351
 30
0.0
 42
0.020088491
  0
VERTEX
  5
11E7
  8
0
 10
362.38380931123902
 20
240.35865545077331
 30
0.0
  0
SEQEND
  5
11E8
  8
0
  0
POLYLINE
  5
11E9
  8
0
 66
     1
 10
0.0
 20
0.0
 30
0.0
  0
VERTEX
  5
11EA
  8
0
 10
395.840499311239
 20
218.18922545077339
 30
0.0
 42
0.046333928
  0
VERTEX
  5
11EB
  8
0
 10
393.98868931123889
 20
219.24684545077341
 30
0.0
 42
0.024113287
  0
VERTEX
  5
11EC
  8
0
 10
392.0091993112373
 20
220.04670545077349
 30
0.0
 42
0.015482173
  0
VERTEX
  5
11ED
  8
0
 10
389.97225931123739
 20
220.69137545077319
 30
0.0
 42
0.01117072
  0
VERTEX
  5
11EE
  8
0
 10
387.9045393112392
 20
221.22786545077309
 30
0.0
 42
0.0086851636
  0
VERTEX
  5
11EF
  8
0
 10
385.81695931123892
 20
221.6825454507734
 30
0.0
 42
0.0071112813
  0
VERTEX
  5
11F0
  8
0
 10
383.7152793112374
 20
222.0715554507733
 30
0.0
 42
0.0060487741
  0
VERTEX
  5
11F1
  8
0
 10
381.60255931123902
 20
222.40557545077351
 30
0.0
 42
0.0052886701
  0
VERTEX
  5
11F2
  8
0
 10
379.48518931123908
 20
222.69141545077349
 30
0.0
 42
0.0047450804
  0
VERTEX
  5
11F3
  8
0
 10
377.36007931123731
 20
222.93510545077331
 30
0.0
 42
0.004337472
  0
VERTEX
  5
11F4
  8
0
 10
375.23037931123781
 20
223.14024545077339
 30
0.0
 42
0.0040309329
  0
VERTEX
  5
11F5
  8
0
 10
373.09758931123912
 20
223.30974545077339
 30
0.0
 42
0.0038017188
  0
VERTEX
  5
11F6
  8
0
 10
370.96236931123713
 20
223.44585545077331
 30
0.0
 42
0.0036333127
  0
VERTEX
  5
11F7
  8
0
 10
368.82528931123852
 20
223.55025545077339
 30
0.0
 42
0.0035147917
  0
VERTEX
  5
11F8
  8
0
 10
366.6868893112387
 20
223.62411545077339
 30
0.0
 42
0.0034390753
  0
VERTEX
  5
11F9
  8
0
 10
364.54764931123918
 20
223.6682454507731
 30
0.0
 42
0.0034021186
  0
VERTEX
  5
11FA
  8
0
 10
362.40795931123921
 20
223.68312545077339
 30
0.0
  0
SEQEND
  5
11FB
  8
0
  0
LINE
  5
11FC
  8
0
 10
314.38384924123869
 20
49.547810101707441
 30
0.0
 11
314.3838393112373
 21
33.547811450773231
 31
0.0
  0
LINE
  5
11FD
  8
0
  6
AM_ISO08W050
 10
884.50818726212594
 20
53.945482673737388
 30
0.0
 11
884.50818726212594
 21
31.684934637794409
 31
0.0
  0
LINE
  5
11FE
  8
0
  6
AM_ISO08W050
 10
694.50819126212627
 20
53.945482673737388
 30
0.0
 11
694.50819126212627
 21
31.684934637794409
 31
0.0
  0
LINE
  5
11FF
  8
0
  6
AM_ISO08W050
 10
789.50819226212752
 20
32.908346749552493
 30
0.0
 11
789.50819226212752
 21
279.91485270831248
 31
0.0
  0
LINE
  5
1200
  8
0
  6
AM_ISO08W050
 10
694.26816591274087
 20
173.54780045077311
 30
0.0
 11
884.74821861151486
 21
173.54780045077311
 31
0.0
  0
LINE
  5
1201
  8
0
  6
ACJISTGL
 10
877.00818726212583
 20
51.54784145077474
 30
0.0
 11
877.00818726212583
 21
33.547856450773452
 31
0.0
  0
LINE
  5
1202
  8
0
  6
ACJISTGL
 10
892.00819026212685
 20
51.54784145077474
 30
0.0
 11
892.00819026212685
 21
33.547856450773452
 31
0.0
  0
LINE
  5
1203
  8
0
  6
ACJISTGL
 10
702.00819126212627
 20
51.54784145077474
 30
0.0
 11
702.00819126212627
 21
33.547856450773452
 31
0.0
  0
LINE
  5
1204
  8
0
  6
ACJISTGL
 10
687.00819126212707
 20
51.54784145077474
 30
0.0
 11
687.00819126212707
 21
33.547856450773452
 31
0.0
  0
LINE
  5
1205
  8
0
  6
AM_ISO08W050
 10
457.38384931123971
 20
30.21649445077264
 30
0.0
 11
457.38384931123971
 21
55.076222450772541
 31
0.0
  0
LINE
  5
1206
  8
0
  6
AM_ISO08W050
 10
332.38383931123923
 20
30.21649445077264
 30
0.0
 11
332.38383931123923
 21
55.076222450772541
 31
0.0
  0
LINE
  5
1207
  8
0
  6
AM_ISO08W050
 10
381.15154414977133
 20
173.54780045077311
 30
0.0
 11
544.64615689361653
 21
173.54780045077311
 31
0.0
  0
LINE
  5
1208
  8
0
  6
ACJISTGL
 10
464.88384931123858
 20
51.547811450773217
 30
0.0
 11
464.88384931123858
 21
33.547811450773231
 31
0.0
  0
LINE
  5
1209
  8
0
  6
ACJISTGL
 10
449.88384931123881
 20
51.547811450773217
 30
0.0
 11
449.88384931123881
 21
33.547811450773231
 31
0.0
  0
LINE
  5
120A
  8
0
  6
ACJISTGL
 10
339.88383931123923
 20
51.547811450773217
 30
0.0
 11
339.88383931123923
 21
33.547811450773231
 31
0.0
  0
LINE
  5
120B
  8
0
  6
ACJISTGL
 10
324.8838393112373
 20
51.547811450773217
 30
0.0
 11
324.8838393112373
 21
33.547811450773231
 31
0.0
  0
LINE
  5
120C
  8
0
 10
786.35818271234803
 20
272.89781115077312
 30
0.0
 11
786.35818271234803
 21
246.7478611507722
 31
0.0
  0
LINE
  5
120D
  8
0
 10
792.6581857123482
 20
272.89781115077312
 30
0.0
 11
792.6581857123482
 21
246.7478611507722
 31
0.0
  0
LINE
  5
120E
  8
0
 10
782.10414864186259
 20
244.9719916065778
 30
0.0
 11
782.70362771234898
 21
247.2092911507734
 31
0.0
  0
LINE
  5
120F
  8
0
 10
796.91222340800869
 20
244.97199245535921
 30
0.0
 11
796.31274371234679
 21
247.2092911507734
 31
0.0
  0
LINE
  5
1210
  8
0
 10
783.38194271234795
 20
247.90820115077349
 30
0.0
 11
786.35818271234803
 21
248.8019311507733
 31
0.0
  0
LINE
  5
1211
  8
0
 10
792.6581857123482
 20
248.8019311507733
 30
0.0
 11
795.63442871234724
 21
247.90820115077349
 31
0.0
  0
ARC
  5
1212
  8
0
 10
789.50819171234889
 20
272.89781115077312
 30
0.0
 40
3.1500002999999981
 50
359.999989999999
 51
179.999989999999
  0
ARC
  5
1213
  8
0
 10
784.35818471234666
 20
246.7478611507722
 30
0.0
 40
2.00000007
 50
307.94188207110471
 51
0.0
  0
ARC
  5
1214
  8
0
 10
794.65818671234683
 20
246.7478611507722
 30
0.0
 40
2.00000007
 50
179.999989999999
 51
232.0580947086959
  0
ARC
  5
1215
  8
0
 10
783.66955571234814
 20
246.9504511507734
 30
0.0
 40
1.0000000199999941
 50
106.71442000000521
 51
164.99999000001131
  0
ARC
  5
1216
  8
0
 10
795.34683071234667
 20
246.9504511507734
 30
0.0
 40
1.0000000199999941
 50
14.999999999994451
 51
73.285573000010913
  0
LINE
  5
1217
  8
0
 10
332.38375131561588
 20
60.547828450773522
 30
0.0
 11
332.38375131561588
 21
230.54782845077349
 31
0.0
  0
LINE
  5
1218
  8
0
 10
332.38375131561588
 20
60.547828450773522
 30
0.0
 11
332.38375131561588
 21
230.54782845077349
 31
0.0
  0
LINE
  5
1219
  8
0
 10
684.50819226212752
 20
183.04782845077349
 30
0.0
 11
687.50819226212752
 21
183.04782845077349
 31
0.0
  0
LINE
  5
121A
  8
0
 10
641.0815512621275
 20
117.8032194507735
 30
0.0
 11
639.20216526212744
 21
118.4872604507735
 31
0.0
  0
ARC
  5
121B
  8
0
 10
628.50819226212752
 20
89.105820450773535
 30
0.0
 40
2.0
 50
339.99999899999892
 51
0.0
  0
ARC
  5
121C
  8
0
 10
639.50819226212752
 20
190.17280045077351
 30
0.0
 40
9.0
 50
90.0
 51
180.0
  0
LINE
  5
121D
  8
0
 10
630.50819226212752
 20
190.17280045077351
 30
0.0
 11
630.50819226212752
 21
89.105820450773535
 31
0.0
  0
ARC
  5
121E
  8
0
 10
678.50819226212752
 20
89.047827450773525
 30
0.0
 40
6.0
 50
270.0
 51
280.73263584374217
  0
LINE
  5
121F
  8
0
 10
687.50819226212752
 20
183.04782845077349
 30
0.0
 11
687.50819226212764
 21
136.1149817566945
 31
0.0
  0
ARC
  5
1220
  8
0
 10
633.56676626212754
 20
82.537514450773529
 30
0.0
 40
5.0
 50
159.99999500000141
 51
250.00000499999791
  0
ARC
  5
1221
  8
0
 10
638.32564626212752
 20
81.047830450773517
 30
0.0
 40
2.0
 50
90.00000299999769
 51
99.385985000003814
  0
LINE
  5
1222
  8
0
 10
635.61544126212755
 20
76.470969450773495
 30
0.0
 11
631.85666526212754
 21
77.839051450773511
 31
0.0
  0
LINE
  5
1223
  8
0
 10
638.32564626212752
 20
83.047827450773525
 30
0.0
 11
678.50819226212752
 21
83.047827450773525
 31
0.0
  0
LINE
  5
1224
  8
0
 10
680.25291426212755
 20
196.9710624507735
 30
0.0
 11
680.57012326212748
 21
196.8556074507735
 31
0.0
  0
ARC
  5
1225
  8
0
 10
678.50818326212755
 20
191.22104645077351
 30
0.0
 40
6.0
 50
0.0
 51
69.999999999996291
  0
ARC
  5
1226
  8
0
 10
680.93697026212749
 20
198.8504644507735
 30
0.0
 40
2.0
 50
228.52924199999461
 51
250.0000009999994
  0
LINE
  5
1227
  8
0
 10
684.50819226212752
 20
191.22104645077351
 30
0.0
 11
684.50819226212752
 21
115.95846813457371
 31
0.0
  0
LINE
  5
1228
  8
0
 10
681.78816126212723
 20
203.32947245077361
 30
0.0
 11
678.02938526212756
 21
204.69755445077351
 31
0.0
  0
ARC
  5
1229
  8
0
 10
676.31927326212747
 20
199.9990944507735
 30
0.0
 40
5.0
 50
69.999999999996291
 51
159.99999500000141
  0
ARC
  5
122A
  8
0
 10
669.29722726212754
 20
201.1727824507735
 30
0.0
 40
2.0
 50
269.99999700000228
 51
340.00000900000202
  0
LINE
  5
122B
  8
0
 10
671.62082226212749
 20
201.70918445077359
 30
0.0
 11
655.08145826212751
 21
156.2676574507735
 31
0.0
  0
LINE
  5
122C
  8
0
 10
669.29722726212754
 20
199.17280045077339
 30
0.0
 11
639.50819226212752
 21
199.17280045077339
 31
0.0
  0
LINE
  5
122D
  8
0
 10
657.52819526212716
 20
168.83761245077349
 30
0.0
 11
639.20216526212744
 21
118.4872604507735
 31
0.0
  0
LINE
  5
122E
  8
0
 10
659.40758026212757
 20
168.15357245077351
 30
0.0
 11
657.52819526212716
 21
168.83761245077349
 31
0.0
  0
LINE
  5
122F
  8
0
 10
645.40766726212723
 20
129.6891364507735
 30
0.0
 11
653.86490326212743
 21
126.61095345077349
 31
0.0
  0
LINE
  5
1230
  8
0
 10
655.08145826212751
 20
156.2676574507735
 30
0.0
 11
663.53869426212725
 21
153.1894754507735
 31
0.0
  0
LINE
  5
1231
  8
0
 10
635.61544126212755
 20
76.470969450773495
 30
0.0
 11
681.78816126212723
 21
203.32947245077361
 31
0.0
  0
LINE
  5
1232
  8
0
 10
645.40766726212723
 20
129.6891364507735
 30
0.0
 11
628.86830526212748
 21
84.247613450773557
 31
0.0
  0
LINE
  5
1233
  8
0
 10
687.50819226212752
 20
183.04782845077349
 30
0.0
 11
697.13318340239243
 21
183.38394061873549
 31
0.0
  0
LINE
  5
1234
  8
0
 10
687.50819226212752
 20
183.04782845077349
 30
0.0
 11
687.50819226212752
 21
136.11498175669391
 31
0.0
  0
LINE
  5
1235
  8
0
 10
119.883751315616
 20
79.803273614798059
 30
0.0
 11
119.8837513156159
 21
58.547767450773513
 31
0.0
  0
LINE
  5
1236
  8
0
  6
AM_ISO08W050
 10
225.38375131561591
 20
91.137000450773485
 30
0.0
 11
225.38375131561591
 21
71.152050450773515
 31
0.0
  0
LINE
  5
1237
  8
0
  6
AM_ISO08W050
 10
266.5537513156159
 20
141.61096445077351
 30
0.0
 11
279.67375131561579
 21
141.61096445077351
 31
0.0
  0
LINE
  5
1238
  8
0
  6
AM_ISO08W050
 10
109.3241800643831
 20
141.61096445077339
 30
0.0
 11
122.44332256684859
 21
141.61096445077359
 31
0.0
  0
LINE
  5
1239
  8
0
  6
AM_ISO08W050
 10
115.8837513156159
 20
134.97596445077349
 30
0.0
 11
115.8837513156159
 21
148.2459644507735
 31
0.0
  0
LINE
  5
123A
  8
0
 10
260.38375131561588
 20
198.4909644507735
 30
0.0
 11
128.38375131561591
 21
198.4909644507735
 31
0.0
  0
LINE
  5
123B
  8
0
 10
122.3837513156158
 20
192.4909644507735
 30
0.0
 11
122.3837513156158
 21
91.410964450773506
 31
0.0
  0
LINE
  5
123C
  8
0
 10
266.38375131561588
 20
192.4909644507735
 30
0.0
 11
266.38375131561588
 21
91.410964450773506
 31
0.0
  0
LINE
  5
123D
  8
0
 10
128.38375131561591
 20
85.41096445077352
 30
0.0
 11
260.38375131561588
 21
85.41096445077352
 31
0.0
  0
LINE
  5
123E
  8
0
 10
272.90323531561592
 20
163.9378774507735
 30
0.0
 11
272.88375131561588
 21
192.5109644507736
 31
0.0
  0
LINE
  5
123F
  8
0
 10
260.38375131561588
 20
204.9909644507735
 30
0.0
 11
128.38375131561591
 21
204.9909644507735
 31
0.0
  0
LINE
  5
1240
  8
0
 10
115.8837513156159
 20
163.97096445077349
 30
0.0
 11
115.8837513156159
 21
192.4909644507735
 31
0.0
  0
LINE
  5
1241
  8
0
 10
115.8837513156159
 20
119.2409644507735
 30
0.0
 11
115.8837513156159
 21
88.970964450773494
 31
0.0
  0
LINE
  5
1242
  8
0
 10
272.88375131561588
 20
119.2409644507735
 30
0.0
 11
272.88375131561588
 21
88.970964450773494
 31
0.0
  0
LINE
  5
1243
  8
0
 10
128.38375131561591
 20
76.470964450773522
 30
0.0
 11
260.38375131561588
 21
76.470964450773522
 31
0.0
  0
ARC
  5
1244
  8
0
 10
287.88531331561592
 20
119.2499224507735
 30
0.0
 40
15.001564999999999
 50
131.81297400000199
 51
180.034212999999
  0
ARC
  5
1245
  8
0
 10
260.38323931561592
 20
192.49045245077349
 30
0.0
 40
6.0005119999999996
 50
0.0048860000006619
 51
89.995114000002559
  0
ARC
  5
1246
  8
0
 10
128.3822583156159
 20
192.4924574507734
 30
0.0
 40
5.998507
 50
89.985740000000476
 51
180.0142599999995
  0
ARC
  5
1247
  8
0
 10
128.3812473156157
 20
91.408460450773504
 30
0.0
 40
5.9974970000000001
 50
179.9760820000013
 51
270.02391799999867
  0
ARC
  5
1248
  8
0
 10
260.38425031561587
 20
91.410465450773486
 30
0.0
 40
5.9995010000000004
 50
269.99523699999969
 51
0.004763000000223
  0
ARC
  5
1249
  8
0
 10
100.88481631561589
 20
163.9708284507735
 30
0.0
 40
14.998934999999999
 50
311.80849600000039
 51
0.0005210000016347
  0
ARC
  5
124A
  8
0
 10
100.8816393156158
 20
119.2422204507735
 30
0.0
 40
15.007673
 50
358.44019299999923
 51
48.205063999999958
  0
ARC
  5
124B
  8
0
 10
107.3806983156158
 20
114.8136554507735
 30
0.0
 40
15.003053
 50
359.98972200000082
 51
63.249136000002181
  0
ARC
  5
124C
  8
0
 10
107.38338631561589
 20
168.3966184507735
 30
0.0
 40
15.000365
 50
296.74454000000122
 51
0.0166020000005181
  0
ARC
  5
124D
  8
0
 10
120.8817473156158
 20
141.60596445077351
 30
0.0
 40
14.998716
 50
116.73758300000161
 51
243.26241699999841
  0
ARC
  5
124E
  8
0
 10
281.3838973156158
 20
114.8154454507735
 30
0.0
 40
15.000147
 50
116.74402700000201
 51
180.01711599999811
  0
ARC
  5
124F
  8
0
 10
281.38120831561588
 20
168.3948284507735
 30
0.0
 40
14.997458999999999
 50
179.97655699999851
 51
243.26230100000251
  0
ARC
  5
1250
  8
0
 10
267.881746315616
 20
141.60596445077351
 30
0.0
 40
15.00052
 50
296.75125799999682
 51
63.24874200000324
  0
ARC
  5
1251
  8
0
 10
260.38075031561601
 20
192.48794245077349
 30
0.0
 40
12.503022
 50
0.1054989999989109
 51
89.986247999999051
  0
ARC
  5
1252
  8
0
 10
128.3822583156159
 20
192.4924574507734
 30
0.0
 40
12.498507
 50
89.993155999999715
 51
180.00684400000031
  0
ARC
  5
1253
  8
0
 10
128.37924731561591
 20
88.966460450773525
 30
0.0
 40
12.495497
 50
179.9793499999987
 51
270.020649999998
  0
ARC
  5
1254
  8
0
 10
260.38625031561588
 20
88.968465450773493
 30
0.0
 40
12.497502000000001
 50
269.98854500000192
 51
0.0114550000013285
  0
ARC
  5
1255
  8
0
 10
287.90323131561581
 20
163.94810645077351
 30
0.0
 40
15.0
 50
180.03907000000001
 51
228.13549799999899
  0
LINE
  5
1256
  8
0
 10
277.3406273156159
 20
194.7328284507733
 30
0.0
 11
277.3406273156159
 21
174.3678284507734
 31
0.0
  0
LINE
  5
1257
  8
0
 10
293.38375031561588
 20
194.7328284507733
 30
0.0
 11
293.38375031561588
 21
174.3678284507734
 31
0.0
  0
LINE
  5
1258
  8
0
 10
307.93314631561589
 20
89.527032450773504
 30
0.0
 11
293.38375031561588
 21
89.527032450773504
 31
0.0
  0
LINE
  5
1259
  8
0
 10
312.88375131561588
 20
100.93938245077349
 30
0.0
 11
293.38375031561588
 21
100.93938245077349
 31
0.0
  0
LINE
  5
125A
  8
0
 10
278.08914831561577
 20
94.242122450773536
 30
0.0
 11
293.38375131561588
 21
89.527032450773504
 31
0.0
  0
LINE
  5
125B
  8
0
 10
293.38375131561588
 20
100.93938245077349
 30
0.0
 11
278.3478103156159
 21
100.39863145077349
 31
0.0
  0
ARC
  5
125C
  8
0
 10
278.38375131561588
 20
99.399277450773511
 30
0.0
 40
1.0
 50
92.059690999997201
 51
180.0
  0
ARC
  5
125D
  8
0
 10
278.38375131561588
 20
95.197742450773475
 30
0.0
 40
1.0
 50
180.0
 51
252.8662750000021
  0
LINE
  5
125E
  8
0
 10
293.38375131561588
 20
221.4006154507735
 30
0.0
 11
278.08329231561601
 21
216.58074945077351
 31
0.0
  0
ARC
  5
125F
  8
0
 10
278.38375131561588
 20
215.6269544507735
 30
0.0
 40
1.0
 50
107.485179
 51
180.0
  0
ARC
  5
1260
  8
0
 10
278.38375131561588
 20
213.27588945077349
 30
0.0
 40
1.0
 50
180.0
 51
270.0
  0
LINE
  5
1261
  8
0
 10
278.4323063156159
 20
212.2770684507735
 30
0.0
 11
293.38375131561588
 21
213.0038884507735
 31
0.0
  0
LINE
  5
1262
  8
0
 10
312.88375131561588
 20
213.0038884507735
 30
0.0
 11
293.38375131561588
 21
213.0038884507735
 31
0.0
  0
LINE
  5
1263
  8
0
 10
236.38375131561591
 20
243.83432145077359
 30
0.0
 11
323.83093631561587
 21
243.83432145077359
 31
0.0
  0
ARC
  5
1264
  8
0
 10
147.6479963156159
 20
241.83432145077359
 30
0.0
 40
2.0
 50
90.0
 51
156.1017999999998
  0
ARC
  5
1265
  8
0
 10
323.83093631561587
 20
241.83432145077359
 30
0.0
 40
2.0
 50
10.00000199999918
 51
90.0
  0
LINE
  5
1266
  8
0
 10
327.38375131561588
 20
233.20284545077359
 30
0.0
 11
325.80055131561591
 21
242.1816184507735
 31
0.0
  0
LINE
  5
1267
  8
0
 10
327.12294331561588
 20
233.20284545077359
 30
0.0
 11
327.38375131561588
 21
233.20284545077359
 31
0.0
  0
ARC
  5
1268
  8
0
 10
132.7149663156159
 20
240.6445474507735
 30
0.0
 40
2.0
 50
90.0
 51
169.9999980000008
  0
LINE
  5
1269
  8
0
 10
128.38375131561591
 20
227.59854445077349
 30
0.0
 11
130.74535131561569
 21
240.99184445077361
 31
0.0
  0
ARC
  5
126A
  8
0
 10
323.77991731561588
 20
240.6445474507735
 30
0.0
 40
2.0
 50
10.00000199999918
 51
90.0
  0
LINE
  5
126B
  8
0
 10
327.38375131561588
 20
231.72372745077359
 30
0.0
 11
325.74953231561591
 21
240.99184445077361
 31
0.0
  0
LINE
  5
126C
  8
0
 10
128.38375131561591
 20
227.59854445077349
 30
0.0
 11
128.9516573156159
 21
227.59854445077349
 31
0.0
  0
LINE
  5
126D
  8
0
 10
326.84778031561592
 20
231.72372745077359
 30
0.0
 11
327.38375131561588
 21
231.72372745077359
 31
0.0
  0
ARC
  5
126E
  8
0
 10
323.69406231561589
 20
238.09181345077349
 30
0.0
 40
2.0
 50
10.000001000002239
 51
90.0
  0
ARC
  5
126F
  8
0
 10
132.83275731561579
 20
238.09181345077349
 30
0.0
 40
2.0
 50
90.0
 51
169.9999989999977
  0
LINE
  5
1270
  8
0
 10
128.38375131561591
 20
224.37778845077361
 30
0.0
 11
130.86314131561591
 21
238.4391094507734
 31
0.0
  0
ARC
  5
1271
  8
0
 10
133.01389831561579
 20
234.1266284507735
 30
0.0
 40
2.0
 50
90.0
 51
169.9999999999981
  0
LINE
  5
1272
  8
0
 10
128.38375131561591
 20
219.38530345077359
 30
0.0
 11
131.04428231561579
 21
234.4739244507735
 31
0.0
  0
ARC
  5
1273
  8
0
 10
133.2951263156159
 20
228.54920045077361
 30
0.0
 40
2.0
 50
90.0
 51
169.9999999999981
  0
LINE
  5
1274
  8
0
 10
128.38375131561591
 20
212.21295145077349
 30
0.0
 11
131.32551031561579
 21
228.8964974507735
 31
0.0
  0
ARC
  5
1275
  8
0
 10
133.39039031561569
 20
222.54853345077339
 30
0.0
 40
2.0
 50
90.0
 51
169.9999989999977
  0
LINE
  5
1276
  8
0
 10
128.38375131561591
 20
205.6720154507735
 30
0.0
 11
131.420774315616
 21
222.8958294507735
 31
0.0
  0
LINE
  5
1277
  8
0
 10
327.25549231561592
 20
229.4114774507735
 30
0.0
 11
325.66367731561593
 21
238.4391094507734
 31
0.0
  0
LINE
  5
1278
  8
0
 10
128.38375131561591
 20
224.37778845077361
 30
0.0
 11
129.26406131561589
 21
224.37778845077361
 31
0.0
  0
ARC
  5
1279
  8
0
 10
323.56468431561592
 20
234.1266284507735
 30
0.0
 40
2.0
 50
10.00000000000181
 51
90.0
  0
LINE
  5
127A
  8
0
 10
326.42694631561591
 20
229.4114774507735
 30
0.0
 11
325.53430031561589
 21
234.4739244507735
 31
0.0
  0
ARC
  5
127B
  8
0
 10
258.77276931561579
 20
228.54920045077361
 30
0.0
 40
2.0
 50
5.5986529999987971
 51
90.0
  0
ARC
  5
127C
  8
0
 10
258.77081431561589
 20
222.54853345077339
 30
0.0
 40
2.0
 50
5.4290189999986573
 51
90.0
  0
LINE
  5
127D
  8
0
 10
329.38375131561588
 20
105.82512245077351
 30
0.0
 11
329.38375131561588
 21
207.6137614507735
 31
0.0
  0
LINE
  5
127E
  8
0
 10
329.38375131561588
 20
229.4114774507735
 30
0.0
 11
329.38375131561588
 21
233.54782845077349
 31
0.0
  0
LINE
  5
127F
  8
0
 10
277.3406273156159
 20
219.38530345077359
 30
0.0
 11
293.38375031561588
 21
223.98516545077359
 31
0.0
  0
LINE
  5
1280
  8
0
 10
261.68066631561589
 20
219.38530345077359
 30
0.0
 11
277.3406273156159
 21
219.38530345077359
 31
0.0
  0
LINE
  5
1281
  8
0
 10
293.38375031561588
 20
223.98516545077359
 30
0.0
 11
308.07703431561578
 21
223.98516545077359
 31
0.0
  0
INSERT
  5
1282
  8
0
  2
$6-45
 10
312.88375131561588
 20
219.68108845077359
 30
0.0
 50
90.0
  0
INSERT
  5
1283
  8
0
  2
$6-45
 10
312.88375131561588
 20
93.639161450773486
 30
0.0
 50
90.0
  0
LINE
  5
1284
  8
0
 10
88.383751315615896
 20
148.54782845077349
 30
0.0
 11
20.392219315615879
 21
148.54782845077349
 31
0.0
  0
LINE
  5
1285
  8
0
 10
327.32292131561599
 20
233.54782845077349
 30
0.0
 11
329.38375131561588
 21
233.54782845077349
 31
0.0
  0
LINE
  5
1286
  8
0
 10
133.01389831561579
 20
236.1266284507735
 30
0.0
 11
323.56468431561592
 21
236.1266284507735
 31
0.0
  0
LINE
  5
1287
  8
0
 10
132.83275731561579
 20
240.09181345077349
 30
0.0
 11
323.69406231561589
 21
240.09181345077349
 31
0.0
  0
LINE
  5
1288
  8
0
 10
132.7149663156159
 20
242.6445474507735
 30
0.0
 11
323.77991731561588
 21
242.6445474507735
 31
0.0
  0
LINE
  5
1289
  8
0
 10
119.8837513156159
 20
239.04782845077349
 30
0.0
 11
130.40256931561589
 21
239.04782845077349
 31
0.0
  0
LINE
  5
128A
  8
0
 10
147.6479963156159
 20
243.83432145077359
 30
0.0
 11
214.38375131561591
 21
243.83432145077359
 31
0.0
  0
LINE
  5
128B
  8
0
 10
293.38375031561588
 20
202.70782845077349
 30
0.0
 11
293.38375031561588
 21
197.36282845077361
 31
0.0
  0
LINE
  5
128C
  8
0
 10
277.3406273156159
 20
202.70782845077349
 30
0.0
 11
277.3406273156159
 21
197.36282845077361
 31
0.0
  0
LINE
  5
128D
  8
0
 10
293.38375031561588
 20
213.0038884507735
 30
0.0
 11
293.38375031561588
 21
205.40782845077351
 31
0.0
  0
LINE
  5
128E
  8
0
 10
293.38375031561588
 20
221.4006154507735
 30
0.0
 11
307.48375731561589
 21
221.4006154507735
 31
0.0
  0
LINE
  5
128F
  8
0
 10
128.38375131561591
 20
205.6720154507735
 30
0.0
 11
262.38375131561588
 21
205.6720154507735
 31
0.0
  0
LINE
  5
1290
  8
0
 10
261.70612431561602
 20
212.21295145077349
 30
0.0
 11
262.38375131561588
 21
212.21295145077349
 31
0.0
  0
LINE
  5
1291
  8
0
 10
133.39039031561569
 20
224.54853345077339
 30
0.0
 11
258.77081431561589
 21
224.54853345077339
 31
0.0
  0
LINE
  5
1292
  8
0
 10
128.38375131561591
 20
212.21295145077349
 30
0.0
 11
129.53709431561569
 21
212.21295145077349
 31
0.0
  0
LINE
  5
1293
  8
0
 10
133.2951263156159
 20
230.54920045077361
 30
0.0
 11
258.77276931561579
 21
230.54920045077361
 31
0.0
  0
LINE
  5
1294
  8
0
 10
329.38375131561588
 20
207.6137614507735
 30
0.0
 11
332.38375131561588
 21
205.88171045077351
 31
0.0
  0
ARC
  5
1295
  8
0
 10
311.88375131561588
 20
208.6137614507735
 30
0.0
 40
1.0
 50
270.0
 51
0.0
  0
ARC
  5
1296
  8
0
 10
314.88375131561588
 20
227.4114774507735
 30
0.0
 40
2.0
 50
90.0
 51
180.0
  0
ARC
  5
1297
  8
0
 10
314.88375131561588
 20
223.28747245077349
 30
0.0
 40
2.0
 50
180.0
 51
270.0
  0
ARC
  5
1298
  8
0
 10
314.88375131561588
 20
219.28747245077349
 30
0.0
 40
2.0
 50
90.0
 51
180.0
  0
LINE
  5
1299
  8
0
 10
314.88375131561588
 20
229.4114774507735
 30
0.0
 11
332.38375131561588
 21
229.4114774507735
 31
0.0
  0
LINE
  5
129A
  8
0
 10
312.88375131561588
 20
207.6137614507735
 30
0.0
 11
329.38375131561588
 21
207.6137614507735
 31
0.0
  0
LINE
  5
129B
  8
0
 10
314.88375131561588
 20
221.28747245077349
 30
0.0
 11
332.38375131561588
 21
221.28747245077349
 31
0.0
  0
LINE
  5
129C
  8
0
 10
312.88375131561588
 20
208.6137614507735
 30
0.0
 11
312.88375131561588
 21
227.4114774507735
 31
0.0
  0
LINE
  5
129D
  8
0
 10
128.38375131561591
 20
61.547828450773522
 30
0.0
 11
119.883751315616
 21
61.547828450773522
 31
0.0
  0
LINE
  5
129E
  8
0
 10
129.20794631561591
 20
76.470964450773522
 30
0.0
 11
129.9764933156159
 21
68.123572450773494
 31
0.0
  0
LINE
  5
129F
  8
0
 10
128.38375131561591
 20
71.710353450773539
 30
0.0
 11
129.06652831561581
 21
71.710353450773539
 31
0.0
  0
LINE
  5
12A0
  8
0
 10
128.38375131561591
 20
66.717868450773494
 30
0.0
 11
128.90826431561581
 21
66.717868450773494
 31
0.0
  0
LINE
  5
12A1
  8
0
 10
128.38375131561591
 20
63.4971124507735
 30
0.0
 11
128.7436933156159
 21
63.4971124507735
 31
0.0
  0
LINE
  5
12A2
  8
0
 10
128.33697431561589
 20
61.927531450773543
 30
0.0
 11
128.56736531561569
 21
61.927531450773543
 31
0.0
  0
LINE
  5
12A3
  8
0
 10
128.61333831561589
 20
76.470964450773522
 30
0.0
 11
129.97140331561579
 21
62.204931450773529
 31
0.0
  0
LINE
  5
12A4
  8
0
 10
128.38375131561591
 20
71.710353450773539
 30
0.0
 11
129.95558431561579
 21
56.749142450773547
 31
0.0
  0
LINE
  5
12A5
  8
0
 10
128.38375131561591
 20
66.717868450773494
 30
0.0
 11
129.9450623156159
 21
52.747277450773531
 31
0.0
  0
LINE
  5
12A6
  8
0
 10
128.38375131561591
 20
63.4971124507735
 30
0.0
 11
129.93697031561589
 21
50.219784450773552
 31
0.0
  0
LINE
  5
12A7
  8
0
 10
128.33697431561589
 20
61.927531450773543
 30
0.0
 11
129.92749031561581
 21
49.016797450773538
 31
0.0
  0
ARC
  5
12A8
  8
0
 10
131.96806931561579
 20
68.306937450773503
 30
0.0
 40
2.0
 50
185.2604110000014
 51
270.0
  0
ARC
  5
12A9
  8
0
 10
131.96240131561589
 20
62.3944664507735
 30
0.0
 40
2.0
 50
185.4379219999999
 51
270.0
  0
ARC
  5
12AA
  8
0
 10
131.94463731561581
 20
56.958113450773489
 30
0.0
 40
2.0
 50
185.99752600000019
 51
270.0
  0
ARC
  5
12AB
  8
0
 10
131.93268831561591
 20
52.969408450773543
 30
0.0
 40
2.0
 50
186.376742000001
 51
270.0
  0
ARC
  5
12AC
  8
0
 10
131.9234243156159
 20
50.452165450773521
 30
0.0
 40
2.0
 50
186.67229399999829
 51
270.0
  0
ARC
  5
12AD
  8
0
 10
131.91248431561581
 20
49.261335450773522
 30
0.0
 40
2.0
 50
187.02306899999991
 51
270.0
  0
LINE
  5
12AE
  8
0
 10
327.38375131561588
 20
160.7278284507735
 30
0.0
 11
325.62375131561589
 21
161.27782845077351
 31
0.0
  0
LINE
  5
12AF
  8
0
 10
327.38375131561588
 20
163.36782845077349
 30
0.0
 11
327.38375131561588
 21
160.7278284507735
 31
0.0
  0
LINE
  5
12B0
  8
0
 10
325.62375131561589
 20
162.87782845077351
 30
0.0
 11
327.38375131561588
 21
163.36782845077349
 31
0.0
  0
LINE
  5
12B1
  8
0
 10
325.62375131561589
 20
162.87782845077351
 30
0.0
 11
325.62375131561589
 21
161.27782845077351
 31
0.0
  0
LINE
  5
12B2
  8
0
 10
327.38375131561588
 20
149.7278284507735
 30
0.0
 11
325.62375131561589
 21
150.27782845077351
 31
0.0
  0
LINE
  5
12B3
  8
0
 10
327.38375131561588
 20
152.36782845077349
 30
0.0
 11
327.38375131561588
 21
149.7278284507735
 31
0.0
  0
LINE
  5
12B4
  8
0
 10
325.62375131561589
 20
151.87782845077351
 30
0.0
 11
327.38375131561588
 21
152.36782845077349
 31
0.0
  0
LINE
  5
12B5
  8
0
 10
325.62375131561589
 20
151.87782845077351
 30
0.0
 11
325.62375131561589
 21
150.27782845077351
 31
0.0
  0
LINE
  5
12B6
  8
0
 10
327.38375131561588
 20
138.7278284507735
 30
0.0
 11
325.62375131561589
 21
139.27782845077351
 31
0.0
  0
LINE
  5
12B7
  8
0
 10
327.38375131561588
 20
141.36782845077349
 30
0.0
 11
327.38375131561588
 21
138.7278284507735
 31
0.0
  0
LINE
  5
12B8
  8
0
 10
325.62375131561589
 20
140.87782845077351
 30
0.0
 11
327.38375131561588
 21
141.36782845077349
 31
0.0
  0
LINE
  5
12B9
  8
0
 10
325.62375131561589
 20
140.87782845077351
 30
0.0
 11
325.62375131561589
 21
139.27782845077351
 31
0.0
  0
LINE
  5
12BA
  8
0
 10
327.38375131561588
 20
127.7278284507735
 30
0.0
 11
325.62375131561589
 21
128.27782845077351
 31
0.0
  0
LINE
  5
12BB
  8
0
 10
327.38375131561588
 20
130.36782845077349
 30
0.0
 11
327.38375131561588
 21
127.7278284507735
 31
0.0
  0
LINE
  5
12BC
  8
0
 10
325.62375131561589
 20
129.87782845077351
 30
0.0
 11
327.38375131561588
 21
130.36782845077349
 31
0.0
  0
LINE
  5
12BD
  8
0
 10
325.62375131561589
 20
129.87782845077351
 30
0.0
 11
325.62375131561589
 21
128.27782845077351
 31
0.0
  0
LINE
  5
12BE
  8
0
 10
326.7954203156159
 20
59.038548450773533
 30
0.0
 11
325.91914511997652
 21
51.547811450773168
 31
0.0
  0
LINE
  5
12BF
  8
0
 10
325.72853431561589
 20
52.746981450773553
 30
0.0
 11
326.783491315616
 21
62.173968450773529
 31
0.0
  0
LINE
  5
12C0
  8
0
 10
325.75560431561593
 20
56.747837450773552
 30
0.0
 11
326.85451631561591
 21
67.142011450773509
 31
0.0
  0
LINE
  5
12C1
  8
0
 10
326.90545731561582
 20
73.678631450773551
 30
0.0
 11
325.7801763156159
 21
62.199347450773523
 31
0.0
  0
LINE
  5
12C2
  8
0
 10
326.94662431561591
 20
81.088373450773517
 30
0.0
 11
325.71390731561581
 21
68.117712450773524
 31
0.0
  0
LINE
  5
12C3
  8
0
 10
326.85554331561588
 20
57.902220450773527
 30
0.0
 11
326.08846079649408
 21
51.547811450773168
 31
0.0
  0
LINE
  5
12C4
  8
0
 10
325.62375131561589
 20
118.87782845077351
 30
0.0
 11
325.62375131561589
 21
117.2778284507735
 31
0.0
  0
LINE
  5
12C5
  8
0
 10
325.62375131561589
 20
118.87782845077351
 30
0.0
 11
327.38375131561588
 21
119.3678284507735
 31
0.0
  0
LINE
  5
12C6
  8
0
 10
327.38375131561588
 20
119.3678284507735
 30
0.0
 11
327.38375131561588
 21
116.7278284507735
 31
0.0
  0
LINE
  5
12C7
  8
0
 10
327.38375131561588
 20
116.7278284507735
 30
0.0
 11
325.62375131561589
 21
117.2778284507735
 31
0.0
  0
LINE
  5
12C8
  8
0
 10
325.62375131561589
 20
173.87782845077351
 30
0.0
 11
325.62375131561589
 21
172.27782845077351
 31
0.0
  0
LINE
  5
12C9
  8
0
 10
325.62375131561589
 20
173.87782845077351
 30
0.0
 11
327.38375131561588
 21
174.3678284507734
 31
0.0
  0
LINE
  5
12CA
  8
0
 10
327.38375131561588
 20
174.3678284507734
 30
0.0
 11
327.38375131561588
 21
171.72782845077359
 31
0.0
  0
LINE
  5
12CB
  8
0
 10
327.38375131561588
 20
171.72782845077359
 30
0.0
 11
325.62375131561589
 21
172.27782845077351
 31
0.0
  0
LINE
  5
12CC
  8
0
 10
277.3406273156159
 20
171.72782845077359
 30
0.0
 11
277.3406273156159
 21
163.36782845077349
 31
0.0
  0
LINE
  5
12CD
  8
0
 10
293.38375031561588
 20
171.72782845077359
 30
0.0
 11
293.38375031561588
 21
163.36782845077349
 31
0.0
  0
LINE
  5
12CE
  8
0
 10
293.38375031561588
 20
160.7278284507735
 30
0.0
 11
293.38375031561588
 21
152.36782845077349
 31
0.0
  0
LINE
  5
12CF
  8
0
 10
277.3406273156159
 20
160.7278284507735
 30
0.0
 11
277.3406273156159
 21
153.2483514507735
 31
0.0
  0
LINE
  5
12D0
  8
0
 10
293.38375031561588
 20
149.7278284507735
 30
0.0
 11
293.38375031561588
 21
141.36782845077349
 31
0.0
  0
LINE
  5
12D1
  8
0
 10
293.38375031561588
 20
138.7278284507735
 30
0.0
 11
293.38375031561588
 21
130.36782845077349
 31
0.0
  0
LINE
  5
12D2
  8
0
 10
277.3406273156159
 20
127.7278284507735
 30
0.0
 11
277.3406273156159
 21
119.3678284507735
 31
0.0
  0
LINE
  5
12D3
  8
0
 10
293.38375031561588
 20
127.7278284507735
 30
0.0
 11
293.38375031561588
 21
119.3678284507735
 31
0.0
  0
LINE
  5
12D4
  8
0
 10
293.38375031561588
 20
116.7278284507735
 30
0.0
 11
293.38375031561588
 21
100.93938245077349
 31
0.0
  0
LINE
  5
12D5
  8
0
 10
277.3406273156159
 20
116.7278284507735
 30
0.0
 11
277.3406273156159
 21
85.422759450773555
 31
0.0
  0
LINE
  5
12D6
  8
0
 10
326.94662431561591
 20
81.088373450773517
 30
0.0
 11
293.38375031561588
 21
81.088373450773517
 31
0.0
  0
LINE
  5
12D7
  8
0
 10
326.90545731561582
 20
73.678631450773551
 30
0.0
 11
326.24241131561593
 21
73.678631450773551
 31
0.0
  0
ARC
  5
12D8
  8
0
 10
323.7228793156159
 20
68.306937450773503
 30
0.0
 40
2.0
 50
270.0
 51
354.57098100000132
  0
ARC
  5
12D9
  8
0
 10
323.7897173156158
 20
62.3944664507735
 30
0.0
 40
2.0
 50
270.0
 51
354.40134700000118
  0
ARC
  5
12DA
  8
0
 10
323.76668931561591
 20
56.958113450773489
 30
0.0
 40
2.0
 50
270.0
 51
353.9648860000006
  0
ARC
  5
12DB
  8
0
 10
323.74094131561588
 20
52.969408450773543
 30
0.0
 40
2.0
 50
314.70007932781567
 51
353.61470099999968
  0
LINE
  5
12DC
  8
0
 10
326.85451631561591
 20
67.142011450773509
 30
0.0
 11
326.26469131561589
 21
67.142011450773509
 31
0.0
  0
LINE
  5
12DD
  8
0
 10
326.783491315616
 20
62.173968450773529
 30
0.0
 11
326.32927631561591
 21
62.173968450773529
 31
0.0
  0
LINE
  5
12DE
  8
0
 10
326.7954203156159
 20
59.038548450773533
 30
0.0
 11
326.43261231561593
 21
59.038548450773533
 31
0.0
  0
LINE
  5
12DF
  8
0
 10
326.85554331561588
 20
57.902220450773527
 30
0.0
 11
326.66249131561591
 21
57.902220450773527
 31
0.0
  0
LINE
  5
12E0
  8
0
 10
329.38375131561588
 20
105.82512245077351
 30
0.0
 11
312.88375131561588
 21
105.82512245077351
 31
0.0
  0
LINE
  5
12E1
  8
0
 10
332.38375131561588
 20
95.645830450773545
 30
0.0
 11
314.88375131561588
 21
95.645830450773545
 31
0.0
  0
LINE
  5
12E2
  8
0
 10
332.38375131561588
 20
83.358549450773495
 30
0.0
 11
314.88375131561588
 21
83.358549450773495
 31
0.0
  0
LINE
  5
12E3
  8
0
 10
312.88375131561588
 20
104.82512245077351
 30
0.0
 11
312.88375131561588
 21
85.358549450773509
 31
0.0
  0
LINE
  5
12E4
  8
0
 10
329.38375131561588
 20
105.82512245077351
 30
0.0
 11
332.38375131561588
 21
107.5571734507735
 31
0.0
  0
ARC
  5
12E5
  8
0
 10
314.88375131561588
 20
97.645830450773516
 30
0.0
 40
2.0
 50
180.0
 51
270.0
  0
ARC
  5
12E6
  8
0
 10
314.88375131561588
 20
85.358549450773509
 30
0.0
 40
2.0
 50
180.0
 51
270.0
  0
ARC
  5
12E7
  8
0
 10
314.88375131561588
 20
93.645830450773516
 30
0.0
 40
2.0
 50
90.0
 51
180.0
  0
LINE
  5
12E8
  8
0
 10
293.38375031561588
 20
89.527032450773504
 30
0.0
 11
293.38375031561588
 21
81.088373450773517
 31
0.0
  0
LINE
  5
12E9
  8
0
 10
277.3406273156159
 20
85.422759450773555
 30
0.0
 11
293.38375031561588
 21
81.088373450773517
 31
0.0
  0
ARC
  5
12EA
  8
0
 10
311.88375131561588
 20
104.82512245077351
 30
0.0
 40
1.0
 50
0.0
 51
90.0
  0
LINE
  5
12EB
  8
0
 10
277.3406273156159
 20
85.422759450773555
 30
0.0
 11
272.37022031561588
 21
85.422759450773555
 31
0.0
  0
LINE
  5
12EC
  8
0
 10
314.38384782219509
 20
47.261335450773522
 30
0.0
 11
131.91248431561581
 21
47.261335450773522
 31
0.0
  0
LINE
  5
12ED
  8
0
 10
314.38384856125413
 20
48.45216545077345
 30
0.0
 11
131.9234243156159
 21
48.452165450773521
 31
0.0
  0
LINE
  5
12EE
  8
0
 10
314.97705884837842
 20
50.969408450773592
 30
0.0
 11
131.93268831561591
 21
50.969408450773528
 31
0.0
  0
LINE
  5
12EF
  8
0
 10
323.76668931561591
 20
54.958113450773489
 30
0.0
 11
131.94463731561581
 21
54.958113450773489
 31
0.0
  0
LINE
  5
12F0
  8
0
 10
323.7897173156158
 20
60.394466450773507
 30
0.0
 11
131.96240131561589
 21
60.394466450773507
 31
0.0
  0
LINE
  5
12F1
  8
0
 10
323.7228793156159
 20
66.306937450773503
 30
0.0
 11
131.96806931561579
 21
66.306937450773503
 31
0.0
  0
LINE
  5
12F2
  8
0
 10
277.3406273156159
 20
219.38530345077359
 30
0.0
 11
277.3406273156159
 21
205.40782845077351
 31
0.0
  0
LINE
  5
12F3
  8
0
 10
293.38375031561588
 20
223.98516545077359
 30
0.0
 11
293.38375031561588
 21
221.4006154507735
 31
0.0
  0
LINE
  5
12F4
  8
0
 10
272.89612331561591
 20
174.3678284507734
 30
0.0
 11
327.38375131561588
 21
174.3678284507734
 31
0.0
  0
LINE
  5
12F5
  8
0
 10
272.89645731561581
 20
173.87782845077351
 30
0.0
 11
325.62375131561589
 21
173.87782845077351
 31
0.0
  0
LINE
  5
12F6
  8
0
 10
272.89754831561578
 20
172.27782845077351
 30
0.0
 11
325.62375131561589
 21
172.27782845077351
 31
0.0
  0
LINE
  5
12F7
  8
0
 10
272.89792331561591
 20
171.72782845077359
 30
0.0
 11
327.38375131561588
 21
171.72782845077359
 31
0.0
  0
LINE
  5
12F8
  8
0
 10
272.8842113156158
 20
119.3678284507735
 30
0.0
 11
327.38375131561588
 21
119.3678284507735
 31
0.0
  0
LINE
  5
12F9
  8
0
 10
272.88375131561588
 20
118.87782845077351
 30
0.0
 11
325.62375131561589
 21
118.87782845077351
 31
0.0
  0
LINE
  5
12FA
  8
0
 10
272.88375131561588
 20
117.2778284507735
 30
0.0
 11
325.62375131561589
 21
117.2778284507735
 31
0.0
  0
LINE
  5
12FB
  8
0
 10
272.88375131561588
 20
116.7278284507735
 30
0.0
 11
327.38375131561588
 21
116.7278284507735
 31
0.0
  0
LINE
  5
12FC
  8
0
 10
280.49328531561582
 20
149.7278284507735
 30
0.0
 11
327.38375131561588
 21
149.7278284507735
 31
0.0
  0
LINE
  5
12FD
  8
0
 10
280.12161431561577
 20
150.27782845077351
 30
0.0
 11
325.62375131561589
 21
150.27782845077351
 31
0.0
  0
LINE
  5
12FE
  8
0
 10
277.81753531561583
 20
130.36782845077349
 30
0.0
 11
327.38375131561588
 21
130.36782845077349
 31
0.0
  0
LINE
  5
12FF
  8
0
 10
277.29784131561593
 20
129.87782845077351
 30
0.0
 11
325.62375131561589
 21
129.87782845077351
 31
0.0
  0
LINE
  5
1300
  8
0
 10
275.90433431561593
 20
128.27782845077351
 30
0.0
 11
325.62375131561589
 21
128.27782845077351
 31
0.0
  0
LINE
  5
1301
  8
0
 10
275.50904331561583
 20
127.7278284507735
 30
0.0
 11
327.38375131561588
 21
127.7278284507735
 31
0.0
  0
LINE
  5
1302
  8
0
 10
282.88037631561588
 20
141.36782845077349
 30
0.0
 11
327.38375131561588
 21
141.36782845077349
 31
0.0
  0
LINE
  5
1303
  8
0
 10
282.8645833156159
 20
140.87782845077351
 30
0.0
 11
325.62375131561589
 21
140.87782845077351
 31
0.0
  0
LINE
  5
1304
  8
0
 10
282.70049731561579
 20
139.27782845077351
 30
0.0
 11
325.62375131561589
 21
139.27782845077351
 31
0.0
  0
LINE
  5
1305
  8
0
 10
282.60356431561598
 20
138.7278284507735
 30
0.0
 11
327.38375131561588
 21
138.7278284507735
 31
0.0
  0
LINE
  5
1306
  8
0
 10
272.91446031561588
 20
163.36782845077349
 30
0.0
 11
327.38375131561588
 21
163.36782845077349
 31
0.0
  0
LINE
  5
1307
  8
0
 10
272.94146331561592
 20
162.87782845077351
 30
0.0
 11
325.62375131561589
 21
162.87782845077351
 31
0.0
  0
LINE
  5
1308
  8
0
 10
273.14282431561588
 20
161.27782845077351
 30
0.0
 11
325.62375131561589
 21
161.27782845077351
 31
0.0
  0
LINE
  5
1309
  8
0
 10
273.2529823156159
 20
160.7278284507735
 30
0.0
 11
327.38375131561588
 21
160.7278284507735
 31
0.0
  0
LINE
  5
130A
  8
0
 10
278.33152531561592
 20
152.36782845077349
 30
0.0
 11
327.38375131561588
 21
152.36782845077349
 31
0.0
  0
LINE
  5
130B
  8
0
 10
278.81355331561588
 20
151.87782845077351
 30
0.0
 11
325.62375131561589
 21
151.87782845077351
 31
0.0
  0
LINE
  5
130C
  8
0
  6
AM_ISO08W050
 10
1.829427283188124
 20
145.54782845077349
 30
0.0
 11
398.32005020556801
 21
145.54782845077349
 31
0.0
  0
LINE
  5
130D
  8
0
 10
329.38375131561588
 20
57.547828450773522
 30
0.0
 11
329.38375131561588
 21
83.358549450773495
 31
0.0
  0
LINE
  5
130E
  8
0
 10
326.81276231561588
 20
57.547828450773522
 30
0.0
 11
329.38375131561588
 21
57.547828450773522
 31
0.0
  0
LINE
  5
130F
  8
0
 10
327.38375131561588
 20
205.40782845077351
 30
0.0
 11
325.62375131561589
 21
204.84782845077351
 31
0.0
  0
LINE
  5
1310
  8
0
 10
325.62375131561589
 20
203.2478284507736
 30
0.0
 11
327.38375131561588
 21
202.70782845077349
 31
0.0
  0
LINE
  5
1311
  8
0
 10
327.38375131561588
 20
202.70782845077349
 30
0.0
 11
327.38375131561588
 21
205.40782845077351
 31
0.0
  0
LINE
  5
1312
  8
0
 10
325.62375131561589
 20
203.2478284507736
 30
0.0
 11
325.62375131561589
 21
204.84782845077351
 31
0.0
  0
LINE
  5
1313
  8
0
 10
327.38375131561588
 20
197.36282845077361
 30
0.0
 11
325.62375131561589
 21
196.8228284507735
 31
0.0
  0
LINE
  5
1314
  8
0
 10
325.62375131561589
 20
195.22282845077339
 30
0.0
 11
327.38375131561588
 21
194.7328284507733
 31
0.0
  0
LINE
  5
1315
  8
0
 10
325.62375131561589
 20
195.22282845077339
 30
0.0
 11
325.62375131561589
 21
196.8228284507735
 31
0.0
  0
LINE
  5
1316
  8
0
 10
327.38375131561588
 20
194.7328284507733
 30
0.0
 11
327.38375131561588
 21
197.36282845077361
 31
0.0
  0
LINE
  5
1317
  8
0
 10
262.38375131561588
 20
205.6720154507735
 30
0.0
 11
260.76184231561592
 21
222.7377584507735
 31
0.0
  0
LINE
  5
1318
  8
0
 10
262.38375131561588
 20
212.21295145077349
 30
0.0
 11
260.76322831561578
 21
228.74431945077359
 31
0.0
  0
LINE
  5
1319
  8
0
 10
7.4422843156158924
 20
210.87979845077351
 30
0.0
 11
12.44338231561585
 21
239.2424084507735
 31
0.0
  0
LINE
  5
131A
  8
0
 10
15.163597315615901
 20
236.1135634507736
 30
0.0
 11
15.163597315615901
 21
147.22571645077349
 31
0.0
  0
ARC
  5
131B
  8
0
 10
16.38262231561589
 20
238.54782845077349
 30
0.0
 40
4.0
 50
90.0
 51
170.00018299999971
  0
LINE
  5
131C
  8
0
 10
7.383751315615882
 20
203.14780445077349
 30
0.0
 11
7.383751315615882
 21
116.8368004507735
 31
0.0
  0
ARC
  5
131D
  8
0
 10
8.383751315615882
 20
207.54782845077349
 30
0.0
 40
3.0
 50
118.7876890000003
 51
180.0
  0
LINE
  5
131E
  8
0
 10
5.383751315615882
 20
207.54782845077349
 30
0.0
 11
5.383751315615882
 21
95.696114450773507
 31
0.0
  0
LINE
  5
131F
  8
0
 10
15.163597315615901
 20
135.3672034507735
 30
0.0
 11
15.163597315615901
 21
64.535865450773528
 31
0.0
  0
LINE
  5
1320
  8
0
 10
9.0717703156159342
 20
70.974506450773561
 30
0.0
 11
10.680107315615819
 21
61.853248450773528
 31
0.0
  0
ARC
  5
1321
  8
0
 10
14.619347315615871
 20
62.547828450773522
 30
0.0
 40
4.0
 50
189.99983199999971
 51
270.0
  0
ARC
  5
1322
  8
0
 10
6.457481315615837
 20
211.05350445077349
 30
0.0
 40
1.0
 50
298.7879640000001
 51
350.00021399999918
  0
LINE
  5
1323
  8
0
 10
9.4411163156158864
 20
138.5838504507735
 30
0.0
 11
2.3970873156158632
 21
64.126047450773513
 31
0.0
  0
LINE
  5
1324
  8
0
 10
15.41444531561592
 20
138.0187474507735
 30
0.0
 11
8.3704153156158991
 21
63.560944450773491
 31
0.0
  0
ARC
  5
1325
  8
0
 10
20.392219315615879
 20
137.54782845077349
 30
0.0
 40
5.0
 50
90.0
 51
174.59565700000149
  0
ARC
  5
1326
  8
0
 10
20.392219315615879
 20
137.54782845077349
 30
0.0
 40
11.0
 50
90.0
 51
174.59565700000149
  0
ARC
  5
1327
  8
0
 10
5.383751315615882
 20
63.843495450773489
 30
0.0
 40
3.0
 50
174.59565700000149
 51
354.59565700000149
  0
ARC
  5
1328
  8
0
 10
5.383751315615882
 20
63.843495450773489
 30
0.0
 40
3.799999999999998
 50
220.00000000000011
 51
32.140571999998521
  0
LINE
  5
1329
  8
0
 10
-0.0000016843841877
 20
65.20032345077351
 30
0.0
 11
2.4145413156159039
 21
61.479637450773509
 31
0.0
  0
LINE
  5
132A
  8
0
 10
0.6174613156158557
 20
65.718436450773538
 30
0.0
 11
3.0856183156158732
 21
61.915132450773498
 31
0.0
  0
LINE
  5
132B
  8
0
 10
0.6174613156158557
 20
65.718436450773538
 30
0.0
 11
-0.0000016843841877
 21
65.20032345077351
 31
0.0
  0
LINE
  5
132C
  8
0
 10
129.64843031561591
 20
219.38530345077359
 30
0.0
 11
128.38375131561591
 21
219.38530345077359
 31
0.0
  0
LINE
  5
132D
  8
0
 10
128.38375131561591
 20
205.40782845077351
 30
0.0
 11
129.69389731561591
 21
204.9909644507735
 31
0.0
  0
LINE
  5
132E
  8
0
 10
128.38375131561591
 20
204.9909644507735
 30
0.0
 11
128.38375131561591
 21
205.40782845077351
 31
0.0
  0
LINE
  5
132F
  8
0
 10
119.8837513156157
 20
229.1681254507734
 30
0.0
 11
128.6605103156158
 21
229.1681254507736
 31
0.0
  0
LINE
  5
1330
  8
0
  6
AM_ISO08W050
 10
103.3837513156159
 20
157.7408429507735
 30
0.0
 11
103.3837513156159
 21
133.35481395077349
 31
0.0
  0
LINE
  5
1331
  8
0
 10
88.883751315615882
 20
148.04782845077349
 30
0.0
 11
107.3368637851398
 21
148.04782845077349
 31
0.0
  0
ARC
  5
1332
  8
0
 10
103.3837513156159
 20
145.54782845077349
 30
0.0
 40
9.0
 50
43.898216756325418
 51
163.8723909999996
  0
ARC
  5
1333
  8
0
 10
103.3837513156159
 20
145.54782845077349
 30
0.0
 40
5.5
 50
37.234941055981601
 51
152.9643079999984
  0
LINE
  5
1334
  8
0
 10
88.883751315615882
 20
143.04782845077349
 30
0.0
 11
105.9524971718825
 21
143.04782845077349
 31
0.0
  0
ARC
  5
1335
  8
0
 10
103.3837513156159
 20
145.54782845077349
 30
0.0
 40
9.0
 50
196.1276090000004
 51
290.71100541294157
  0
ARC
  5
1336
  8
0
 10
103.3837513156159
 20
145.54782845077349
 30
0.0
 40
5.5
 50
207.0356920000016
 51
297.3742811132829
  0
LINE
  5
1337
  8
0
 10
119.8837513156159
 20
242.54782845077349
 30
0.0
 11
119.8837513156159
 21
201.65695721890049
 31
0.0
  0
LINE
  5
1338
  8
0
 10
88.883751315615882
 20
148.04782845077349
 30
0.0
 11
88.383751315615896
 21
148.54782845077349
 31
0.0
  0
LINE
  5
1339
  8
0
 10
88.883751315615882
 20
143.04782845077349
 30
0.0
 11
88.383751315615896
 21
142.54782845077349
 31
0.0
  0
LINE
  5
133A
  8
0
 10
214.38375131561591
 20
246.54782845077349
 30
0.0
 11
236.38375131561591
 21
246.54782845077349
 31
0.0
  0
LINE
  5
133B
  8
0
 10
214.38375131561591
 20
246.54782845077349
 30
0.0
 11
214.38375131561591
 21
242.6445474507735
 31
0.0
  0
LINE
  5
133C
  8
0
 10
236.38375131561591
 20
246.54782845077349
 30
0.0
 11
236.38375131561591
 21
242.6445474507735
 31
0.0
  0
LINE
  5
133D
  8
0
 10
88.383751315615896
 20
142.54782845077349
 30
0.0
 11
20.392219315615879
 21
142.54782845077349
 31
0.0
  0
LINE
  5
133E
  8
0
 10
119.8837513156159
 20
58.547828450773522
 30
0.0
 11
14.619347315615871
 21
58.547828450773522
 31
0.0
  0
LINE
  5
133F
  8
0
 10
119.8837513156159
 20
242.54782845077349
 30
0.0
 11
16.38262231561589
 21
242.54782845077349
 31
0.0
  0
LINE
  5
1340
  8
0
 10
266.74867031561593
 20
203.2478284507736
 30
0.0
 11
325.62375131561589
 21
203.2478284507736
 31
0.0
  0
LINE
  5
1341
  8
0
 10
262.26721931561588
 20
204.84782845077351
 30
0.0
 11
325.62375131561589
 21
204.84782845077351
 31
0.0
  0
LINE
  5
1342
  8
0
 10
267.5834913156159
 20
202.70782845077349
 30
0.0
 11
327.38375131561588
 21
202.70782845077349
 31
0.0
  0
LINE
  5
1343
  8
0
 10
128.38375131561591
 20
205.40782845077351
 30
0.0
 11
327.38375131561588
 21
205.40782845077351
 31
0.0
  0
LINE
  5
1344
  8
0
 10
272.6805893156158
 20
194.7328284507733
 30
0.0
 11
327.38375131561588
 21
194.7328284507733
 31
0.0
  0
LINE
  5
1345
  8
0
 10
271.89426631561588
 20
197.36282845077361
 30
0.0
 11
327.38375131561588
 21
197.36282845077361
 31
0.0
  0
LINE
  5
1346
  8
0
 10
272.58099431561578
 20
195.22282845077339
 30
0.0
 11
325.62375131561589
 21
195.22282845077339
 31
0.0
  0
LINE
  5
1347
  8
0
 10
272.1082533156158
 20
196.8228284507735
 30
0.0
 11
325.62375131561589
 21
196.8228284507735
 31
0.0
  0
LINE
  5
1348
  8
0
 10
332.38375131561588
 20
60.547828450773522
 30
0.0
 11
329.38375131561588
 21
57.547828450773522
 31
0.0
  0
LINE
  5
1349
  8
0
 10
332.38375131561588
 20
60.547828450773522
 30
0.0
 11
332.38375131561588
 21
230.54782845077349
 31
0.0
  0
LINE
  5
134A
  8
0
 10
332.38375131561588
 20
230.54782845077349
 30
0.0
 11
329.38375131561588
 21
233.54782845077349
 31
0.0
  0
LINE
  5
134B
  8
0
  6
AM_ISO08W050
 10
273.11375131561579
 20
135.05096445077351
 30
0.0
 11
273.11375131561579
 21
148.1709644507734
 31
0.0
  0
LINE
  5
1CF7
  8
0
 62
     0
 10
352.38382931123851
 20
435.98586442034718
 30
0.0
 11
332.38382931123851
 21
435.98586442034718
 31
0.0
  0
LINE
  5
1CF8
  8
0
 62
     0
 10
352.38382931123851
 20
425.80657242034721
 30
0.0
 11
332.38382931123851
 21
425.80657242034721
 31
0.0
  0
LINE
  5
1CF9
  8
0
 62
     0
 10
352.38382931123851
 20
413.32895642034708
 30
0.0
 11
332.38382931123851
 21
413.32895642034708
 31
0.0
  0
LINE
  5
1CFA
  8
0
 62
     0
 10
352.38382931123851
 20
537.77453242034699
 30
0.0
 11
332.38382931123851
 21
537.77453242034699
 31
0.0
  0
LINE
  5
1CFB
  8
0
 62
     0
 10
352.38382931123851
 20
551.44821442034731
 30
0.0
 11
332.38382931123851
 21
551.44821442034731
 31
0.0
  0
LINE
  5
1CFC
  8
0
  6
CONTINUOUS
 62
     0
 10
314.38382931123903
 20
574.20855542034724
 30
0.0
 11
314.38382931123851
 21
582.3188454203472
 31
0.0
  0
LINE
  5
1CFD
  8
0
  6
CONTINUOUS
 62
     0
 10
475.3838593112381
 20
544.70855542034724
 30
0.0
 11
475.3838593112381
 21
583.10924542034763
 31
0.0
  0
LINE
  5
1CFE
  8
0
  6
CONTINUOUS
 62
     0
 10
362.38382931123851
 20
376.20855542034718
 30
0.0
 11
362.38382931123851
 21
472.4915154203473
 31
0.0
  0
LINE
  5
1CFF
  8
0
  6
CONTINUOUS
 62
     0
 10
362.38382931123851
 20
478.79156542034769
 30
0.0
 11
362.38382931123851
 21
575.20855542034724
 31
0.0
  0
LINE
  5
1D00
  8
0
  6
CONTINUOUS
 62
     0
 10
318.03519931123822
 20
586.30358542034719
 30
0.0
 11
368.38388931123842
 21
590.70855542034724
 31
0.0
  0
LINE
  5
1D01
  8
0
  6
CENTER
 62
     0
 10
332.38382931123851
 20
557.20855542034724
 30
0.0
 11
332.38382931123851
 21
584.20855542034724
 31
0.0
  0
LINE
  5
1D02
  8
0
  6
CONTINUOUS
 62
     0
 10
468.38385931123861
 20
414.6051854203468
 30
0.0
 11
468.38385931123861
 21
536.811945420347
 31
0.0
  0
LINE
  5
1D03
  8
0
  6
CENTER
 62
     0
 10
457.38385931123872
 20
557.20855542034724
 30
0.0
 11
457.38385931123872
 21
584.20855542034724
 31
0.0
  0
LINE
  5
1D04
  8
0
  6
CENTER
 62
     0
 10
318.88382931123851
 20
570.70855542034724
 30
0.0
 11
345.88382931123851
 21
570.70855542034724
 31
0.0
  0
LINE
  5
1D05
  8
0
  6
CENTER
 62
     0
 10
443.88385931123861
 20
570.70855542034724
 30
0.0
 11
470.8838593112381
 21
570.70855542034724
 31
0.0
  0
LINE
  5
1D06
  8
0
  6
CONTINUOUS
 62
     0
 10
368.38382931123851
 20
590.70849542034716
 30
0.0
 11
471.52344931123832
 21
587.1068054203472
 31
0.0
  0
LINE
  5
1D07
  8
0
  6
CONTINUOUS
 62
     0
 10
353.64536931123848
 20
583.39617542034739
 30
0.0
 11
362.03525931123841
 21
584.13018542034717
 31
0.0
  0
LINE
  5
1D08
  8
0
  6
CONTINUOUS
 62
     0
 10
368.38382931123851
 20
360.70852542034743
 30
0.0
 11
471.52344931123832
 21
364.31023542034711
 31
0.0
  0
LINE
  5
1D09
  8
0
  6
CENTER
 62
     0
 10
443.88385931123861
 20
380.70855542034718
 30
0.0
 11
470.8838593112381
 21
380.70855542034718
 31
0.0
  0
LINE
  5
1D0A
  8
0
  6
CENTER
 62
     0
 10
318.88382931123851
 20
380.70855542034718
 30
0.0
 11
345.88382931123851
 21
380.70855542034718
 31
0.0
  0
LINE
  5
1D0B
  8
0
  6
CENTER
 62
     0
 10
457.38385931123872
 20
394.20855542034712
 30
0.0
 11
457.38385931123872
 21
367.2085554203473
 31
0.0
  0
LINE
  5
1D0C
  8
0
  6
CENTER
 62
     0
 10
332.38382931123851
 20
394.20855542034712
 30
0.0
 11
332.38382931123851
 21
367.2085554203473
 31
0.0
  0
LINE
  5
1D0D
  8
0
  6
CONTINUOUS
 62
     0
 10
318.03519931123822
 20
365.11348542034722
 30
0.0
 11
368.38382931123851
 21
360.70855542034712
 31
0.0
  0
LINE
  5
1D0E
  8
0
  6
CONTINUOUS
 62
     0
 10
475.3838593112381
 20
406.70855542034712
 30
0.0
 11
475.3838593112381
 21
368.30782542034729
 31
0.0
  0
LINE
  5
1D0F
  8
0
  6
CONTINUOUS
 62
     0
 10
537.38382931123851
 20
491.7085554203473
 30
0.0
 11
479.3838593112381
 21
491.7085554203473
 31
0.0
  0
LINE
  5
1D10
  8
0
  6
CONTINUOUS
 62
     0
 10
469.88385931123872
 20
507.88396542034718
 30
0.0
 11
473.8838293112384
 21
505.57457542034751
 31
0.0
  0
LINE
  5
1D11
  8
0
  6
CONTINUOUS
 62
     0
 10
469.88379931123831
 20
443.53313542034721
 30
0.0
 11
473.88379931123802
 21
445.84258542034729
 31
0.0
  0
LINE
  5
1D12
  8
0
  6
CONTINUOUS
 62
     0
 10
475.38382931123851
 20
448.44060542034703
 30
0.0
 11
475.38382931123851
 21
475.7085554203473
 31
0.0
  0
LINE
  5
1D13
  8
0
  6
CONTINUOUS
 62
     0
 10
475.38382931123851
 20
475.7085554203473
 30
0.0
 11
475.38382931123851
 21
502.97649542034708
 31
0.0
  0
LINE
  5
1D14
  8
0
  6
CONTINUOUS
 62
     0
 10
479.3838593112381
 20
493.20855542034701
 30
0.0
 11
475.38382931123851
 21
493.20855542034701
 31
0.0
  0
LINE
  5
1D15
  8
0
  6
CONTINUOUS
 62
     0
 10
537.38382931123851
 20
459.70855542034701
 30
0.0
 11
537.38382931123851
 21
491.7085554203473
 31
0.0
  0
LINE
  5
1D16
  8
0
  6
CONTINUOUS
 62
     0
 10
479.3838593112381
 20
458.20855542034712
 30
0.0
 11
479.3838593112381
 21
493.20855542034701
 31
0.0
  0
LINE
  5
1D17
  8
0
  6
CONTINUOUS
 62
     0
 10
492.3838593112381
 20
470.70855542034712
 30
0.0
 11
492.3838593112381
 21
480.70855542034701
 31
0.0
  0
LINE
  5
1D18
  8
0
  6
CONTINUOUS
 62
     0
 10
537.38382931123851
 20
459.70855542034701
 30
0.0
 11
479.3838593112381
 21
459.70855542034701
 31
0.0
  0
LINE
  5
1D19
  8
0
  6
CONTINUOUS
 62
     0
 10
479.3838593112381
 20
458.20855542034712
 30
0.0
 11
475.38382931123851
 21
458.20855542034712
 31
0.0
  0
LINE
  5
1D1A
  8
0
  6
CONTINUOUS
 62
     0
 10
492.3838293112384
 20
470.70855542034712
 30
0.0
 11
537.38382931123851
 21
470.70855542034712
 31
0.0
  0
LINE
  5
1D1B
  8
0
  6
CONTINUOUS
 62
     0
 10
492.3838293112384
 20
480.70855542034701
 30
0.0
 11
537.38382931123851
 21
480.70855542034701
 31
0.0
  0
LINE
  5
1D1C
  8
0
  6
CONTINUOUS
 62
     0
 10
464.4885393112383
 20
540.81054542034713
 30
0.0
 11
454.6266593112386
 21
541.06878542034724
 31
0.0
  0
LINE
  5
1D1D
  8
0
  6
CONTINUOUS
 62
     0
 10
464.48856931123822
 20
410.60653542034692
 30
0.0
 11
454.62668931123829
 21
410.34829542034691
 31
0.0
  0
LINE
  5
1D1E
  8
0
  6
CONTINUOUS
 62
     0
 10
447.38385931123821
 20
406.50182542034707
 30
0.0
 11
447.38385931123821
 21
544.91527542034726
 31
0.0
  0
LINE
  5
1D1F
  8
0
  6
CONTINUOUS
 62
     0
 10
427.38382931123829
 20
371.05312542034699
 30
0.0
 11
427.38382931123829
 21
386.49495542034703
 31
0.0
  0
LINE
  5
1D20
  8
0
  6
CONTINUOUS
 62
     0
 10
439.59323931123828
 20
552.91253542034724
 30
0.0
 11
439.06970931123828
 21
552.92626542034714
 31
0.0
  0
LINE
  5
1D21
  8
0
  6
CONTINUOUS
 62
     0
 10
439.5932693112386
 20
398.50454542034743
 30
0.0
 11
439.06970931123828
 21
398.49083542034708
 31
0.0
  0
LINE
  5
1D22
  8
0
  6
CONTINUOUS
 62
     0
 10
427.38382931123829
 20
564.92217542034723
 30
0.0
 11
427.38382931123829
 21
580.36400542034721
 31
0.0
  0
LINE
  5
1D23
  8
0
  6
CONTINUOUS
 62
     0
 10
362.38382931123851
 20
376.20855542034718
 30
0.0
 11
366.38382931123851
 21
376.20855542034718
 31
0.0
  0
LINE
  5
1D24
  8
0
  6
CONTINUOUS
 62
     0
 10
362.38382931123851
 20
575.20855542034724
 30
0.0
 11
366.38382931123851
 21
575.20855542034724
 31
0.0
  0
LINE
  5
1D25
  8
0
  6
CONTINUOUS
 62
     0
 10
366.38382931123851
 20
575.20855542034724
 30
0.0
 11
366.38382931123851
 21
585.07702542034713
 31
0.0
  0
LINE
  5
1D26
  8
0
  6
CONTINUOUS
 62
     0
 10
353.64530931123858
 20
368.02093542034697
 30
0.0
 11
362.03525931123841
 21
367.28689542034732
 31
0.0
  0
LINE
  5
1D27
  8
0
  6
CONTINUOUS
 62
     0
 10
366.38382931123851
 20
376.20855542034718
 30
0.0
 11
366.38382931123851
 21
366.34008542034712
 31
0.0
  0
LINE
  5
1D28
  8
0
  6
CONTINUOUS
 62
     0
 10
355.2791593112384
 20
376.45666542034712
 30
0.0
 11
362.38376931123821
 21
376.20855542034718
 31
0.0
  0
LINE
  5
1D29
  8
0
  6
CONTINUOUS
 62
     0
 10
362.38382931123851
 20
380.91836542034741
 30
0.0
 11
352.38382931123851
 21
380.91836542034741
 31
0.0
  0
LINE
  5
1D2A
  8
0
  6
CONTINUOUS
 62
     0
 10
362.38382931123851
 20
398.2917454203473
 30
0.0
 11
352.38382931123851
 21
398.2917454203473
 31
0.0
  0
LINE
  5
1D2B
  8
0
  6
CONTINUOUS
 62
     0
 10
362.38382931123851
 20
445.43212542034701
 30
0.0
 11
352.38382931123851
 21
445.43212542034701
 31
0.0
  0
LINE
  5
1D2C
  8
0
  6
CONTINUOUS
 62
     0
 10
362.38382931123851
 20
505.9849854203469
 30
0.0
 11
352.38382931123851
 21
505.9849854203469
 31
0.0
  0
LINE
  5
1D2D
  8
0
  6
CONTINUOUS
 62
     0
 10
362.38382931123851
 20
553.12536542034718
 30
0.0
 11
352.38382931123851
 21
553.12536542034718
 31
0.0
  0
LINE
  5
1D2E
  8
0
  6
CONTINUOUS
 62
     0
 10
352.38382931123851
 20
379.45482542034699
 30
0.0
 11
352.38382931123851
 21
463.68329542034718
 31
0.0
  0
LINE
  5
1D2F
  8
0
  6
CONTINUOUS
 62
     0
 10
355.2790993112385
 20
574.96044542034724
 30
0.0
 11
362.38376931123821
 21
575.20855542034724
 31
0.0
  0
LINE
  5
1D30
  8
0
  6
CONTINUOUS
 62
     0
 10
362.38382931123851
 20
570.49871542034725
 30
0.0
 11
352.38382931123851
 21
570.49871542034725
 31
0.0
  0
LINE
  5
1D31
  8
0
  6
CONTINUOUS
 62
     0
 10
332.38382931123851
 20
392.20858542034722
 30
0.0
 11
332.38382931123851
 21
559.20855542034724
 31
0.0
  0
LINE
  5
1D32
  8
0
  6
CONTINUOUS
 62
     0
 10
332.38376931123872
 20
559.20849542034739
 30
0.0
 11
347.55832931123871
 21
559.73839542034705
 31
0.0
  0
LINE
  5
1D33
  8
0
  6
CENTER
 62
     0
 10
350.38382931123851
 20
485.06829542034723
 30
0.0
 11
350.38382931123851
 21
466.34881542034719
 31
0.0
  0
LINE
  5
1D34
  8
0
  6
AM_ISO08W050
 10
-10.986455244967139
 20
475.7085554203473
 30
0.0
 11
548.76334931123824
 21
475.7085554203473
 31
0.0
  0
LINE
  5
1D35
  8
0
  6
CONTINUOUS
 62
     0
 10
314.38382931123812
 20
382.70857042034731
 30
0.0
 11
314.38382931123851
 21
369.09826542034722
 31
0.0
  0
LINE
  5
1D36
  8
0
  6
CONTINUOUS
 62
     0
 10
332.38382931123851
 20
392.20858542034722
 30
0.0
 11
347.55832931123871
 21
391.67867542034691
 31
0.0
  0
LINE
  5
1D37
  8
0
  6
CONTINUOUS
 62
     0
 10
352.38382931123851
 20
487.59979542034762
 30
0.0
 11
352.38382931123851
 21
571.96227542034705
 31
0.0
  0
LINE
  5
1D38
  8
0
  6
CONTINUOUS
 62
     0
 10
337.23380931123847
 20
472.4915154203473
 30
0.0
 11
363.53379931123851
 21
472.4915154203473
 31
0.0
  0
LINE
  5
1D39
  8
0
  6
CONTINUOUS
 62
     0
 10
337.23380931123847
 20
478.79156542034769
 30
0.0
 11
363.53379931123851
 21
478.79156542034769
 31
0.0
  0
ARC
  5
1D3A
  8
0
  6
CONTINUOUS
 62
     0
 10
471.3838593112381
 20
583.10924542034763
 30
0.0
 40
4.0
 50
0.0
 51
87.999999999996405
  0
ARC
  5
1D3B
  8
0
  6
CONTINUOUS
 62
     0
 10
332.38382931123851
 20
570.70855542034724
 30
0.0
 40
7.5
 50
270.0
 51
158.7517295802453
  0
CIRCLE
  5
1D3C
  8
0
  6
CONTINUOUS
 62
     0
 10
457.38385931123872
 20
570.70855542034724
 30
0.0
 40
7.5
  0
ARC
  5
1D3D
  8
0
  6
CONTINUOUS
 62
     0
 10
318.38382931123851
 20
582.3188454203472
 30
0.0
 40
4.0
 50
95.00000199999208
 51
180.000010000001
  0
ARC
  5
1D3E
  8
0
  6
CONTINUOUS
 62
     0
 10
472.38385931123759
 20
536.77129542034754
 30
0.0
 40
4.0
 50
97.180757999993972
 51
180.000010000001
  0
ARC
  5
1D3F
  8
0
  6
CONTINUOUS
 62
     0
 10
471.3838593112381
 20
544.70855542034724
 30
0.0
 40
4.0
 50
277.18075000000363
 51
0.0
  0
ARC
  5
1D40
  8
0
  6
CONTINUOUS
 62
     0
 10
353.38382931123851
 20
586.38476542034721
 30
0.0
 40
3.0
 50
95.00000199999208
 51
274.99999999999972
  0
ARC
  5
1D41
  8
0
  6
CONTINUOUS
 62
     0
 10
362.38382931123851
 20
580.14544542034764
 30
0.0
 40
4.0
 50
0.0
 51
95.00000199999208
  0
ARC
  5
1D42
  8
0
  6
CONTINUOUS
 62
     0
 10
471.3838593112381
 20
406.70855542034712
 30
0.0
 40
4.0
 50
0.0
 51
82.819247000009895
  0
ARC
  5
1D43
  8
0
  6
CONTINUOUS
 62
     0
 10
472.38385931123759
 20
414.64580542034707
 30
0.0
 40
4.0
 50
180.000010000001
 51
262.81924999999637
  0
CIRCLE
  5
1D44
  8
0
  6
CONTINUOUS
 62
     0
 10
457.38385931123872
 20
380.70855542034718
 30
0.0
 40
7.5
  0
ARC
  5
1D45
  8
0
  6
CONTINUOUS
 62
     0
 10
332.38382931123851
 20
380.70855542034718
 30
0.0
 40
7.5
 50
164.3036486054942
 51
134.945934779586
  0
ARC
  5
1D46
  8
0
  6
CONTINUOUS
 62
     0
 10
471.3838593112381
 20
368.30782542034729
 30
0.0
 40
4.0
 50
272.00000000000358
 51
0.0
  0
ARC
  5
1D47
  8
0
  6
CONTINUOUS
 62
     0
 10
472.38382931123829
 20
448.44060542034703
 30
0.0
 40
3.0
 50
300.00000999999349
 51
0.0
  0
ARC
  5
1D48
  8
0
  6
CONTINUOUS
 62
     0
 10
472.38382931123829
 20
502.97649542034708
 30
0.0
 40
3.0
 50
0.0
 51
60.000001999986743
  0
ARC
  5
1D49
  8
0
  6
CONTINUOUS
 62
     0
 10
471.3838593112381
 20
510.48205542034731
 30
0.0
 40
3.0
 50
179.999989999999
 51
240.0000099999925
  0
ARC
  5
1D4A
  8
0
  6
CONTINUOUS
 62
     0
 10
471.3838593112381
 20
440.93505542034711
 30
0.0
 40
3.0
 50
120.0000000000005
 51
180.000010000001
  0
ARC
  5
1D4B
  8
0
  6
CONTINUOUS
 62
     0
 10
492.3838293112384
 20
475.7085554203473
 30
0.0
 40
4.9999924
 50
90.000002999984659
 51
270.0
  0
ARC
  5
1D4C
  8
0
  6
CONTINUOUS
 62
     0
 10
464.38385931123861
 20
414.6051854203468
 30
0.0
 40
4.0
 50
271.49999999998971
 51
0.0
  0
ARC
  5
1D4D
  8
0
  6
CONTINUOUS
 62
     0
 10
464.38385931123861
 20
536.811945420347
 30
0.0
 40
4.0
 50
0.0
 51
88.499996999987715
  0
ARC
  5
1D4E
  8
0
  6
CONTINUOUS
 62
     0
 10
439.38385931123861
 20
544.91527542034726
 30
0.0
 40
8.0
 50
0.0
 51
88.499996999987715
  0
ARC
  5
1D4F
  8
0
  6
CONTINUOUS
 62
     0
 10
439.38385931123861
 20
406.50182542034707
 30
0.0
 40
8.0
 50
271.49999999998971
 51
0.0
  0
ARC
  5
1D50
  8
0
  6
CONTINUOUS
 62
     0
 10
454.83606931123802
 20
402.35106542034731
 30
0.0
 40
8.0
 50
91.500000999988515
 51
164.96420000000299
  0
ARC
  5
1D51
  8
0
  6
CONTINUOUS
 62
     0
 10
454.83606931123802
 20
549.06603542034713
 30
0.0
 40
8.0
 50
195.0357999999969
 51
268.50000000001029
  0
ARC
  5
1D52
  8
0
  6
CONTINUOUS
 62
     0
 10
439.38382931123829
 20
564.92217542034723
 30
0.0
 40
12.0
 50
180.000010000001
 51
268.50000000001029
  0
ARC
  5
1D53
  8
0
  6
CONTINUOUS
 62
     0
 10
439.38382931123829
 20
386.49495542034703
 30
0.0
 40
12.0
 50
91.500000999988515
 51
180.000010000001
  0
ARC
  5
1D54
  8
0
  6
CONTINUOUS
 62
     0
 10
435.38382931123829
 20
580.36400542034721
 30
0.0
 40
8.0
 50
87.999999999996405
 51
180.000010000001
  0
ARC
  5
1D55
  8
0
  6
CONTINUOUS
 62
     0
 10
435.38382931123829
 20
371.05312542034699
 30
0.0
 40
8.0
 50
180.000010000001
 51
271.99999000000793
  0
ARC
  5
1D56
  8
0
  6
CONTINUOUS
 62
     0
 10
362.38382931123851
 20
371.27166542034701
 30
0.0
 40
4.0
 50
265.00000999998781
 51
0.0000006832429909
  0
ARC
  5
1D57
  8
0
  6
CONTINUOUS
 62
     0
 10
353.38382931123851
 20
365.03234542034721
 30
0.0
 40
3.0
 50
85.000003999984685
 51
265.00000000000023
  0
ARC
  5
1D58
  8
0
  6
CONTINUOUS
 62
     0
 10
361.3838293112384
 20
585.07702542034713
 30
0.0
 40
5.0
 50
0.0
 51
95.00000199999208
  0
ARC
  5
1D59
  8
0
  6
CONTINUOUS
 62
     0
 10
361.3838293112384
 20
366.34008542034712
 30
0.0
 40
5.0
 50
265.00000999998781
 51
0.0000006832429909
  0
ARC
  5
1D5A
  8
0
  6
CONTINUOUS
 62
     0
 10
355.38382931123851
 20
379.45482542034699
 30
0.0
 40
3.0
 50
180.000010000001
 51
267.99999999999642
  0
ARC
  5
1D5B
  8
0
  6
CONTINUOUS
 62
     0
 10
355.38382931123851
 20
571.96227542034705
 30
0.0
 40
3.0
 50
91.999997999994051
 51
180.000010000001
  0
ARC
  5
1D5C
  8
0
  6
CONTINUOUS
 62
     0
 10
347.38382931123851
 20
564.73540542034698
 30
0.0
 40
5.0
 50
272.00000000000358
 51
0.0
  0
ARC
  5
1D5D
  8
0
  6
CONTINUOUS
 62
     0
 10
349.38382931123851
 20
487.59979542034762
 30
0.0
 40
3.0
 50
274.78019999998969
 51
0.0
  0
ARC
  5
1D5E
  8
0
  6
CONTINUOUS
 62
     0
 10
349.38382931123851
 20
463.68329542034718
 30
0.0
 40
3.0
 50
0.0
 51
85.219806000005192
  0
ARC
  5
1D5F
  8
0
  6
CONTINUOUS
 62
     0
 10
350.38382931123851
 20
475.64154542034748
 30
0.0
 40
9.0
 50
94.780192000005314
 51
159.51269999999681
  0
ARC
  5
1D60
  8
0
  6
CONTINUOUS
 62
     0
 10
318.38382931123851
 20
369.09826542034722
 30
0.0
 40
4.0
 50
179.999989999999
 51
265.00000000000023
  0
ARC
  5
1D61
  8
0
  6
CONTINUOUS
 62
     0
 10
347.38382931123851
 20
386.6816954203473
 30
0.0
 40
5.0
 50
0.0
 51
87.999999999996405
  0
ARC
  5
1D62
  8
0
  6
CONTINUOUS
 62
     0
 10
350.38382931123851
 20
475.64154542034748
 30
0.0
 40
8.0
 50
23.188019000007522
 51
156.811979999995
  0
ARC
  5
1D63
  8
0
  6
CONTINUOUS
 62
     0
 10
337.23380931123847
 20
475.64154542034748
 30
0.0
 40
3.1499977000000001
 50
90.000002999984659
 51
270.0
  0
ARC
  5
1D64
  8
0
  6
CONTINUOUS
 62
     0
 10
363.53379931123851
 20
475.64154542034748
 30
0.0
 40
3.1499977000000001
 50
270.0
 51
90.000002999984659
  0
ARC
  5
1D65
  8
0
  6
CONTINUOUS
 62
     0
 10
350.38382931123851
 20
475.64154542034748
 30
0.0
 40
8.0
 50
203.188020000005
 51
336.8119699999923
  0
ARC
  5
1D66
  8
0
  6
CONTINUOUS
 62
     0
 10
350.38382931123851
 20
475.64154542034748
 30
0.0
 40
9.0
 50
200.4873000000031
 51
265.2198000000102
  0
ARC
  5
1D67
  8
0
  6
CONTINUOUS
 62
     0
 10
332.38382931123851
 20
570.70855542034724
 30
0.0
 40
7.5
 50
224.43629295506329
 51
270.0
  0
POLYLINE
  5
1D68
  8
0
  6
CONTINUOUS
 62
     0
 66
     1
 10
0.0
 20
0.0
 30
0.0
  0
VERTEX
  5
1D69
  8
0
  6
CONTINUOUS
 62
     0
 10
362.38382931123851
 20
445.43212542034701
 30
0.0
 42
-0.07005559
  0
VERTEX
  5
1D6A
  8
0
  6
CONTINUOUS
 62
     0
 10
388.74448931123879
 20
425.23478542034718
 30
0.0
 42
-0.27110578
  0
VERTEX
  5
1D6B
  8
0
  6
CONTINUOUS
 62
     0
 10
397.38382931123851
 20
405.35143542034689
 30
0.0
 42
-0.21303172
  0
VERTEX
  5
1D6C
  8
0
  6
CONTINUOUS
 62
     0
 10
377.79338931123863
 20
387.21662542034721
 30
0.0
  0
VERTEX
  5
1D6D
  8
0
  6
CONTINUOUS
 62
     0
 10
362.38382931123851
 20
380.91836542034741
 30
0.0
 42
-1.0
  0
SEQEND
  5
1D6E
  8
0
 62
     0
  0
POLYLINE
  5
1D6F
  8
0
  6
CONTINUOUS
 62
     0
 66
     1
 10
0.0
 20
0.0
 30
0.0
  0
VERTEX
  5
1D70
  8
0
  6
CONTINUOUS
 62
     0
 10
362.38382931123851
 20
398.2917454203473
 30
0.0
 42
0.040443759
  0
VERTEX
  5
1D71
  8
0
  6
CONTINUOUS
 62
     0
 10
373.91200931123831
 20
398.51511542034717
 30
0.0
 42
0.042469384
  0
VERTEX
  5
1D72
  8
0
  6
CONTINUOUS
 62
     0
 10
385.2456993112387
 20
400.62862542034708
 30
0.0
 42
0.022671411
  0
VERTEX
  5
1D73
  8
0
  6
CONTINUOUS
 62
     0
 10
390.73018931123852
 20
402.41956542034723
 30
0.0
  0
VERTEX
  5
1D74
  8
0
  6
CONTINUOUS
 62
     0
 10
396.03580931123821
 20
404.68840542034718
 30
0.0
 42
-1.0
  0
SEQEND
  5
1D75
  8
0
 62
     0
  0
POLYLINE
  5
1D76
  8
0
  6
CONTINUOUS
 62
     0
 66
     1
 10
0.0
 20
0.0
 30
0.0
  0
VERTEX
  5
1D77
  8
0
  6
CONTINUOUS
 62
     0
 10
362.38382931123851
 20
553.12536542034718
 30
0.0
 42
-0.040443759
  0
VERTEX
  5
1D78
  8
0
  6
CONTINUOUS
 62
     0
 10
373.91200931123831
 20
552.90199542034725
 30
0.0
 42
-0.042469384
  0
VERTEX
  5
1D79
  8
0
  6
CONTINUOUS
 62
     0
 10
385.2456993112387
 20
550.78847542034714
 30
0.0
 42
-0.022671411
  0
VERTEX
  5
1D7A
  8
0
  6
CONTINUOUS
 62
     0
 10
390.73018931123852
 20
548.99753542034728
 30
0.0
  0
VERTEX
  5
1D7B
  8
0
  6
CONTINUOUS
 62
     0
 10
396.03580931123821
 20
546.7287054203473
 30
0.0
 42
-1.0
  0
SEQEND
  5
1D7C
  8
0
 62
     0
  0
POLYLINE
  5
1D7D
  8
0
  6
CONTINUOUS
 62
     0
 66
     1
 10
0.0
 20
0.0
 30
0.0
  0
VERTEX
  5
1D7E
  8
0
  6
CONTINUOUS
 62
     0
 10
362.38382931123851
 20
505.9849854203469
 30
0.0
 42
0.070055609
  0
VERTEX
  5
1D7F
  8
0
  6
CONTINUOUS
 62
     0
 10
388.74448931123879
 20
526.1823254203473
 30
0.0
 42
0.27110581
  0
VERTEX
  5
1D80
  8
0
  6
CONTINUOUS
 62
     0
 10
397.38382931123851
 20
546.06566542034716
 30
0.0
 42
0.21303143
  0
VERTEX
  5
1D81
  8
0
  6
CONTINUOUS
 62
     0
 10
377.79338931123863
 20
564.2005054203471
 30
0.0
  0
VERTEX
  5
1D82
  8
0
  6
CONTINUOUS
 62
     0
 10
362.38382931123851
 20
570.4987754203471
 30
0.0
 42
-1.0
  0
SEQEND
  5
1D83
  8
0
 62
     0
  0
LINE
  5
1D84
  8
0
 62
     0
 10
332.38382931123851
 20
390.70857042034731
 30
0.0
 11
332.38382931123851
 21
560.7085704203472
 31
0.0
  0
ARC
  5
1D85
  8
0
 10
113.2168293112386
 20
348.53253542034741
 30
0.0
 40
7.3402899999999969
 50
116.67697999999911
 51
177.34797999999921
  0
ARC
  5
1D86
  8
0
 10
103.0908593112385
 20
367.79254542034738
 30
0.0
 40
15.0
 50
316.51494999999102
 51
336.8849500000079
  0
ARC
  5
1D87
  8
0
 10
113.2168293112386
 20
341.88458542034738
 30
0.0
 40
7.3402899999999969
 50
182.65198000000061
 51
265.2379599999893
  0
ARC
  5
1D88
  8
0
 10
113.2168293112386
 20
341.20550542034738
 30
0.0
 40
7.3402899999999969
 50
94.761785000011997
 51
177.34797999999921
  0
ARC
  5
1D89
  8
0
 10
103.0908593112385
 20
360.4655154203474
 30
0.0
 40
15.0
 50
316.51494999999102
 51
336.8849500000079
  0
ARC
  5
1D8A
  8
0
 10
116.78982931123841
 20
354.17254542034738
 30
0.0
 40
5.8039399999999972
 50
283.12597000000932
 51
344.53995000000418
  0
ARC
  5
1D8B
  8
0
 10
128.38382931123849
 20
351.99847542034729
 30
0.0
 40
6.0
 50
89.999989000004106
 51
179.99998000000119
  0
ARC
  5
1D8C
  8
0
 10
128.38382931123849
 20
349.66949542034729
 30
0.0
 40
12.5
 50
89.999989000004106
 51
156.8849800000043
  0
ARC
  5
1D8D
  8
0
 10
275.54983931123837
 20
348.53253542034741
 30
0.0
 40
7.3402899999999969
 50
2.651865999999623
 51
63.323093999993802
  0
ARC
  5
1D8E
  8
0
 10
285.67581931123868
 20
367.79254542034738
 30
0.0
 40
15.0
 50
203.11496999999221
 51
223.48497000000489
  0
ARC
  5
1D8F
  8
0
 10
275.54983931123837
 20
341.88458542034738
 30
0.0
 40
7.3402899999999969
 50
274.7619600000117
 51
357.34795000000082
  0
ARC
  5
1D90
  8
0
 10
275.54983931123837
 20
341.20550542034738
 30
0.0
 40
7.3402899999999969
 50
2.651865999999623
 51
85.23818599998792
  0
ARC
  5
1D91
  8
0
 10
285.67581931123868
 20
360.4655154203474
 30
0.0
 40
15.0
 50
203.11496999999221
 51
223.48497000000489
  0
ARC
  5
1D92
  8
0
 10
271.97781931123882
 20
328.91754542034738
 30
0.0
 40
5.8039399999999972
 50
103.12598999998779
 51
164.5399800000051
  0
ARC
  5
1D93
  8
0
 10
271.97781931123882
 20
354.17254542034738
 30
0.0
 40
5.8039399999999972
 50
195.45998000000381
 51
256.87396999999783
  0
ARC
  5
1D94
  8
0
 10
116.78982931123841
 20
328.91754542034738
 30
0.0
 40
5.8039399999999972
 50
15.459701000006969
 51
76.873785999998731
  0
ARC
  5
1D95
  8
0
 10
128.38382931123849
 20
322.7085554203473
 30
0.0
 40
6.0
 50
179.99998000000119
 51
269.9999499999949
  0
ARC
  5
1D96
  8
0
 10
128.38382931123849
 20
327.26712942034737
 30
0.0
 40
12.5
 50
179.99998000000119
 51
269.9999499999949
  0
ARC
  5
1D97
  8
0
 10
260.38382931123851
 20
322.7085554203473
 30
0.0
 40
6.0
 50
269.99995999999589
 51
359.9999500000016
  0
ARC
  5
1D98
  8
0
 10
260.38382931123851
 20
327.26712942034737
 30
0.0
 40
12.5
 50
269.99995999999589
 51
359.9999500000016
  0
ARC
  5
1D99
  8
0
 10
260.38382931123851
 20
351.99847542034729
 30
0.0
 40
6.0
 50
0.0
 51
89.999989000004106
  0
ARC
  5
1D9A
  8
0
 10
260.38382931123851
 20
349.66949542034729
 30
0.0
 40
12.5
 50
23.114594999997099
 51
89.999989000004106
  0
ARC
  5
1D9B
  8
0
 10
127.3838293112385
 20
364.7085554203473
 30
0.0
 40
6.0
 50
89.999989000004106
 51
147.54197999998669
  0
ARC
  5
1D9C
  8
0
 10
128.38382931123849
 20
356.99652542034738
 30
0.0
 40
12.5
 50
89.999989000004106
 51
156.92998000000489
  0
ARC
  5
1D9D
  8
0
 10
261.38382931123851
 20
364.7085554203473
 30
0.0
 40
6.0
 50
32.458496999994843
 51
89.999989000004106
  0
ARC
  5
1D9E
  8
0
 10
260.38382931123851
 20
356.99652542034738
 30
0.0
 40
12.5
 50
23.114594999997099
 51
89.999989000004106
  0
LINE
  5
1D9F
  8
0
 10
262.88382931123851
 20
370.51751542034742
 30
0.0
 11
262.88382931123851
 21
373.70855542034741
 31
0.0
  0
LINE
  5
1DA0
  8
0
 10
187.88382931123849
 20
370.7085554203473
 30
0.0
 11
187.88382931123849
 21
373.70855542034741
 31
0.0
  0
LINE
  5
1DA1
  8
0
 10
113.9747693112385
 20
357.47052542034743
 30
0.0
 11
109.9217893112386
 21
355.09149542034743
 31
0.0
  0
LINE
  5
1DA2
  8
0
 10
112.6078193112384
 20
334.56951542034739
 30
0.0
 11
118.1078193112385
 21
334.56951542034739
 31
0.0
  0
LINE
  5
1DA3
  8
0
 10
113.9747693112385
 20
350.14355542034741
 30
0.0
 11
109.9218493112384
 21
347.76355542034742
 31
0.0
  0
LINE
  5
1DA4
  8
0
 10
112.57376931123871
 20
348.5175754203475
 30
0.0
 11
118.1077593112386
 21
348.52063542034739
 31
0.0
  0
LINE
  5
1DA5
  8
0
 10
105.8838293112385
 20
341.56756542034742
 30
0.0
 11
105.8838293112385
 21
348.84954542034728
 31
0.0
  0
LINE
  5
1DA6
  8
0
 10
115.8838293112385
 20
338.39556542034728
 30
0.0
 11
115.8838293112385
 21
345.25848542034743
 31
0.0
  0
LINE
  5
1DA7
  8
0
 10
119.3818693112384
 20
341.54449542034729
 30
0.0
 11
113.12381931123851
 21
341.54449542034729
 31
0.0
  0
LINE
  5
1DA8
  8
0
 10
274.79275931123863
 20
357.47058542034739
 30
0.0
 11
278.84579931123881
 21
355.09155542034739
 31
0.0
  0
LINE
  5
1DA9
  8
0
 10
276.1598293112383
 20
334.56951542034739
 30
0.0
 11
270.65982931123841
 21
334.56951542034739
 31
0.0
  0
LINE
  5
1DAA
  8
0
 10
274.79281931123842
 20
350.14349542034739
 30
0.0
 11
278.84579931123881
 21
347.76348542034742
 31
0.0
  0
LINE
  5
1DAB
  8
0
 10
276.19271931123882
 20
348.51751542034742
 30
0.0
 11
270.65976931123851
 21
348.52056542034728
 31
0.0
  0
LINE
  5
1DAC
  8
0
 10
282.88382931123851
 20
341.56756542034742
 30
0.0
 11
282.88382931123851
 21
348.84954542034728
 31
0.0
  0
LINE
  5
1DAD
  8
0
 10
272.88382931123851
 20
338.39556542034728
 30
0.0
 11
272.88382931123851
 21
345.25848542034743
 31
0.0
  0
LINE
  5
1DAE
  8
0
 10
269.38479931123851
 20
341.54449542034729
 30
0.0
 11
275.64285931123868
 21
341.54449542034729
 31
0.0
  0
LINE
  5
1DAF
  8
0
 10
122.3838293112385
 20
322.70855742034729
 30
0.0
 11
122.3838293112385
 21
351.99847542034729
 31
0.0
  0
LINE
  5
1DB0
  8
0
 10
115.8838293112385
 20
327.26712942034737
 30
0.0
 11
115.8838293112385
 21
334.56951542034739
 31
0.0
  0
LINE
  5
1DB1
  8
0
 10
266.38382931123851
 20
322.70855042034742
 30
0.0
 11
266.38382931123851
 21
351.99847542034729
 31
0.0
  0
LINE
  5
1DB2
  8
0
 10
128.38382931123849
 20
362.16949542034729
 30
0.0
 11
260.38382931123851
 21
362.16949542034729
 31
0.0
  0
LINE
  5
1DB3
  8
0
 10
272.88382931123851
 20
327.26712942034737
 30
0.0
 11
272.88382931123851
 21
334.56951542034739
 31
0.0
  0
LINE
  5
1DB4
  8
0
 10
128.38382931123849
 20
314.76712942034737
 30
0.0
 11
260.38382931123851
 21
314.76712942034737
 31
0.0
  0
LINE
  5
1DB5
  8
0
 10
128.38382931123849
 20
316.7085554203473
 30
0.0
 11
260.38382931123851
 21
316.7085554203473
 31
0.0
  0
LINE
  5
1DB6
  8
0
 10
128.38382931123849
 20
357.99847542034729
 30
0.0
 11
260.38382931123851
 21
357.99847542034729
 31
0.0
  0
LINE
  5
1DB7
  8
0
 10
127.3838293112385
 20
370.7085554203473
 30
0.0
 11
261.38382931123851
 21
370.7085554203473
 31
0.0
  0
LINE
  5
1DB8
  8
0
 10
128.38382931123849
 20
369.49652542034738
 30
0.0
 11
260.38382931123851
 21
369.49652542034738
 31
0.0
  0
LINE
  5
1DB9
  8
0
 10
127.3838293112385
 20
367.70855542034741
 30
0.0
 11
261.38382931123851
 21
367.70855542034741
 31
0.0
  0
ARC
  5
1DBA
  8
0
 10
133.32747331123841
 20
393.30787542034739
 30
0.0
 40
2.0
 50
189.9999999999954
 51
270.0
  0
LINE
  5
1DBB
  8
0
 10
131.35785831123849
 20
392.96057942034741
 30
0.0
 11
128.38382931123849
 21
409.82713342034731
 31
0.0
  0
LINE
  5
1DBC
  8
0
 10
128.38382931123849
 20
409.82713342034731
 30
0.0
 11
129.4455683112383
 21
409.82713342034731
 31
0.0
  0
LINE
  5
1DBD
  8
0
 10
326.84797031123838
 20
561.88086242034751
 30
0.0
 11
327.38382931123851
 21
561.88086242034751
 31
0.0
  0
LINE
  5
1DBE
  8
0
 10
327.1083613112387
 20
563.44311942034722
 30
0.0
 11
327.38382931123851
 21
563.44311942034722
 31
0.0
  0
LINE
  5
1DBF
  8
0
 10
329.06202831123852
 20
387.70870642034743
 30
0.0
 11
329.38382931123851
 21
387.70870642034743
 31
0.0
  0
LINE
  5
1DC0
  8
0
 10
325.20443431123829
 20
392.55656942034739
 30
0.0
 11
327.38382931123851
 21
392.55656942034739
 31
0.0
  0
LINE
  5
1DC1
  8
0
 10
326.21051731123862
 20
404.66213942034739
 30
0.0
 11
327.38382931123851
 21
404.66213942034739
 31
0.0
  0
LINE
  5
1DC2
  8
0
 10
225.38382931123849
 20
368.05259042034743
 30
0.0
 11
225.38382931123849
 21
377.23430642034742
 31
0.0
  0
ARC
  5
1DC3
  8
0
 10
323.6267093112383
 20
564.71680342034745
 30
0.0
 40
2.0
 50
9.999999999995401
 51
90.0
  0
ARC
  5
1DC4
  8
0
 10
323.69272631123829
 20
568.25760242034721
 30
0.0
 40
2.0
 50
9.999999999995401
 51
90.0
  0
ARC
  5
1DC5
  8
0
 10
323.77864431123862
 20
570.80933942034721
 30
0.0
 40
2.0
 50
9.999999999995401
 51
90.0
  0
ARC
  5
1DC6
  8
0
 10
323.80739331123817
 20
572.20855542034724
 30
0.0
 40
2.0
 50
9.999999999995401
 51
90.0
  0
LINE
  5
1DC7
  8
0
 10
332.38383231123862
 20
560.70855542034724
 30
0.0
 11
329.38383231123862
 21
563.70855542034747
 31
0.0
  0
LINE
  5
1DC8
  8
0
 10
119.8838293112385
 20
572.70852942034753
 30
0.0
 11
119.8838293112385
 21
378.70855542034741
 31
0.0
  0
LINE
  5
1DC9
  8
0
 10
327.33702531123851
 20
563.70855542034747
 30
0.0
 11
329.38382931123851
 21
563.70855542034747
 31
0.0
  0
LINE
  5
1DCA
  8
0
 10
332.38382931123851
 20
390.70855542034741
 30
0.0
 11
329.38382931123851
 21
387.7085554203473
 31
0.0
  0
LINE
  5
1DCB
  8
0
 10
329.38382931123851
 20
387.7085554203473
 30
0.0
 11
329.38382931123851
 21
413.32894142034718
 31
0.0
  0
LINE
  5
1DCC
  8
0
 10
332.38382931123851
 20
390.70855542034741
 30
0.0
 11
332.38382931123851
 21
560.70855542034724
 31
0.0
  0
CIRCLE
  5
1DCD
  8
0
 10
225.38382931123849
 20
475.7085554203473
 30
0.0
 40
11.0
  0
LINE
  5
1DCE
  8
0
 10
132.66994931123821
 20
574.20855542034724
 30
0.0
 11
184.38382931123849
 21
574.20855542034724
 31
0.0
  0
LINE
  5
1DCF
  8
0
 10
264.38382931123851
 20
566.71680342034745
 30
0.0
 11
264.38382931123851
 21
572.20855542034724
 31
0.0
  0
LINE
  5
1DD0
  8
0
 10
186.38382931123849
 20
566.71680342034745
 30
0.0
 11
186.38382931123849
 21
572.20855542034724
 31
0.0
  0
ARC
  5
1DD1
  8
0
 10
184.38382931123849
 20
572.20855542034724
 30
0.0
 40
2.0
 50
0.0
 51
90.0
  0
ARC
  5
1DD2
  8
0
 10
266.38382931123851
 20
572.20855542034724
 30
0.0
 40
2.0
 50
90.0
 51
180.0
  0
LINE
  5
1DD3
  8
0
 10
266.38382931123851
 20
574.20855542034724
 30
0.0
 11
323.80739331123817
 21
574.20855542034724
 31
0.0
  0
LINE
  5
1DD4
  8
0
 10
323.77864431123862
 20
572.8093394203471
 30
0.0
 11
266.38382931123851
 21
572.8093394203471
 31
0.0
  0
LINE
  5
1DD5
  8
0
 10
327.38382931123851
 20
561.88086242034751
 30
0.0
 11
325.74826031123848
 21
571.15663542034736
 31
0.0
  0
LINE
  5
1DD6
  8
0
 10
327.38382931123851
 20
563.44311942034722
 30
0.0
 11
325.77700831123872
 21
572.55585142034727
 31
0.0
  0
LINE
  5
1DD7
  8
0
 10
128.38382931123849
 20
559.41830142034723
 30
0.0
 11
130.70033431123829
 21
572.55585142034727
 31
0.0
  0
ARC
  5
1DD8
  8
0
 10
132.66994931123821
 20
572.20855542034724
 30
0.0
 40
2.0
 50
90.0
 51
170.0000000000046
  0
LINE
  5
1DD9
  8
0
 10
128.38382931123849
 20
557.7592404203474
 30
0.0
 11
130.74615131123841
 21
571.15663542034736
 31
0.0
  0
ARC
  5
1DDA
  8
0
 10
132.71576731123869
 20
570.80933942034721
 30
0.0
 40
2.0
 50
90.0
 51
170.0000000000046
  0
ARC
  5
1DDB
  8
0
 10
184.38382931123849
 20
570.80933942034721
 30
0.0
 40
2.0
 50
0.0
 51
90.0
  0
ARC
  5
1DDC
  8
0
 10
266.38382931123851
 20
570.80933942034721
 30
0.0
 40
2.0
 50
90.0
 51
180.0
  0
LINE
  5
1DDD
  8
0
 10
184.38382931123849
 20
572.8093394203471
 30
0.0
 11
132.71576731123869
 21
572.8093394203471
 31
0.0
  0
LINE
  5
1DDE
  8
0
 10
323.69272631123829
 20
570.25760242034721
 30
0.0
 11
266.38382931123851
 21
570.25760242034721
 31
0.0
  0
LINE
  5
1DDF
  8
0
 10
327.25504931123851
 20
559.57220442034736
 30
0.0
 11
325.66234131123838
 21
568.60489942034724
 31
0.0
  0
LINE
  5
1DE0
  8
0
 10
128.38382931123849
 20
554.53844942034732
 30
0.0
 11
130.86412431123881
 21
568.60489942034724
 31
0.0
  0
ARC
  5
1DE1
  8
0
 10
132.83373931123819
 20
568.25760242034721
 30
0.0
 40
2.0
 50
90.0
 51
170.0000000000046
  0
ARC
  5
1DE2
  8
0
 10
184.38382931123849
 20
568.25760242034721
 30
0.0
 40
2.0
 50
0.0
 51
90.0
  0
ARC
  5
1DE3
  8
0
 10
266.38382931123851
 20
568.25760242034721
 30
0.0
 40
2.0
 50
90.0
 51
180.0
  0
LINE
  5
1DE4
  8
0
 10
184.38382931123849
 20
570.25760242034721
 30
0.0
 11
132.83373931123819
 21
570.25760242034721
 31
0.0
  0
LINE
  5
1DE5
  8
0
 10
323.6267093112383
 20
566.71680342034745
 30
0.0
 11
132.9952483112383
 21
566.71680342034745
 31
0.0
  0
LINE
  5
1DE6
  8
0
 10
326.56469431123878
 20
559.57220442034736
 30
0.0
 11
325.59632531123862
 21
565.06409942034747
 31
0.0
  0
LINE
  5
1DE7
  8
0
 10
128.38382931123849
 20
550.0816894203474
 30
0.0
 11
131.0256323112385
 21
565.06409942034747
 31
0.0
  0
ARC
  5
1DE8
  8
0
 10
132.9952483112383
 20
564.71680342034745
 30
0.0
 40
2.0
 50
90.0
 51
170.0000000000046
  0
LINE
  5
1DE9
  8
0
 10
257.44018531123862
 20
560.10923542034732
 30
0.0
 11
133.32747331123841
 21
560.10923542034732
 31
0.0
  0
LINE
  5
1DEA
  8
0
 10
262.38382931123851
 20
541.5899774203474
 30
0.0
 11
259.40980031123848
 21
558.45653142034735
 31
0.0
  0
ARC
  5
1DEB
  8
0
 10
257.44018531123862
 20
558.10923542034732
 30
0.0
 40
2.0
 50
9.999999999995401
 51
90.0
  0
LINE
  5
1DEC
  8
0
 10
128.38382931123849
 20
541.5899774203474
 30
0.0
 11
131.35785831123849
 21
558.45653142034735
 31
0.0
  0
ARC
  5
1DED
  8
0
 10
133.32747331123841
 20
558.10923542034732
 30
0.0
 40
2.0
 50
90.0
 51
170.0000000000046
  0
LINE
  5
1DEE
  8
0
 10
257.10992131123839
 20
554.7071914203475
 30
0.0
 11
133.65773731123861
 21
554.7071914203475
 31
0.0
  0
LINE
  5
1DEF
  8
0
 10
262.16277831123853
 20
535.56855542034725
 30
0.0
 11
259.07953731123871
 21
553.05448842034752
 31
0.0
  0
ARC
  5
1DF0
  8
0
 10
257.10992131123839
 20
552.70719142034739
 30
0.0
 40
2.0
 50
9.999999999995401
 51
90.0
  0
LINE
  5
1DF1
  8
0
 10
128.66082331123829
 20
535.88582342034738
 30
0.0
 11
131.68812131123829
 21
553.05448842034752
 31
0.0
  0
ARC
  5
1DF2
  8
0
 10
133.65773731123861
 20
552.70719142034739
 30
0.0
 40
2.0
 50
90.0
 51
170.0000000000046
  0
LINE
  5
1DF3
  8
0
 10
327.38382931123851
 20
480.73870742034723
 30
0.0
 11
327.38382931123851
 21
483.68639942034753
 31
0.0
  0
LINE
  5
1DF4
  8
0
 10
327.38382931123851
 20
490.7381834203473
 30
0.0
 11
327.38382931123851
 21
493.69966242034718
 31
0.0
  0
LINE
  5
1DF5
  8
0
 10
327.38382931123851
 20
501.7303634203472
 30
0.0
 11
327.38382931123851
 21
504.72299042034717
 31
0.0
  0
LINE
  5
1DF6
  8
0
 10
327.38382931123851
 20
512.71315842034733
 30
0.0
 11
327.38382931123851
 21
515.75886442034732
 31
0.0
  0
LINE
  5
1DF7
  8
0
 10
327.38382931123851
 20
523.6830374203472
 30
0.0
 11
327.38382931123851
 21
526.81395042034751
 31
0.0
  0
LINE
  5
1DF8
  8
0
 10
327.38382931123851
 20
532.64151342034734
 30
0.0
 11
327.38382931123851
 21
535.88582342034738
 31
0.0
  0
LINE
  5
1DF9
  8
0
 10
277.38382931123851
 20
550.0816894203474
 30
0.0
 11
260.88651131123891
 21
550.0816894203474
 31
0.0
  0
LINE
  5
1DFA
  8
0
 10
309.17060631123832
 20
554.92665742034706
 30
0.0
 11
293.38382931123851
 21
554.92665742034706
 31
0.0
  0
LINE
  5
1DFB
  8
0
 10
277.38382931123851
 20
550.0816894203474
 30
0.0
 11
293.38382931123851
 21
554.92665742034706
 31
0.0
  0
LINE
  5
1DFC
  8
0
 10
293.38382931123851
 20
554.92665742034706
 30
0.0
 11
293.38382931123851
 21
551.5613424203475
 31
0.0
  0
LINE
  5
1DFD
  8
0
 10
277.38382931123851
 20
550.0816894203474
 30
0.0
 11
277.38382931123851
 21
535.88582342034738
 31
0.0
  0
LINE
  5
1DFE
  8
0
 10
312.88382931123851
 20
538.77451742034725
 30
0.0
 11
312.88382931123851
 21
557.57220442034725
 31
0.0
  0
ARC
  5
1DFF
  8
0
 10
314.88382931123851
 20
557.57220442034725
 30
0.0
 40
2.0
 50
90.0
 51
180.0
  0
LINE
  5
1E00
  8
0
 10
312.88382931123851
 20
543.16461542034733
 30
0.0
 11
293.38382931123851
 21
543.16461542034733
 31
0.0
  0
LINE
  5
1E01
  8
0
 10
307.48383531123869
 20
551.5613424203475
 30
0.0
 11
293.38382931123851
 21
551.5613424203475
 31
0.0
  0
LINE
  5
1E02
  8
0
 10
293.38382931123851
 20
543.16461542034733
 30
0.0
 11
293.38382931123851
 21
535.88582342034738
 31
0.0
  0
ARC
  5
1E03
  8
0
  6
CONTINUOUS
 10
310.0836283112385
 20
547.19182142034731
 30
0.0
 40
2.6003989999999999
 50
179.99998200000081
 51
269.99997800000818
  0
ARC
  5
1E04
  8
0
  6
CONTINUOUS
 10
310.0836283112385
 20
552.49180942034729
 30
0.0
 40
2.600403
 50
90.0
 51
179.99998200000081
  0
LINE
  5
1E05
  8
0
  6
CONTINUOUS
 10
312.88382931123851
 20
549.90784042034738
 30
0.0
 11
311.38382931123851
 21
549.04181542034735
 31
0.0
  0
LINE
  5
1E06
  8
0
  6
CONTINUOUS
 10
312.88382931123851
 20
550.90784042034727
 30
0.0
 11
311.38382931123851
 21
550.04181542034723
 31
0.0
  0
LINE
  5
1E07
  8
0
  6
CONTINUOUS
 10
312.88382931123851
 20
555.94181542034733
 30
0.0
 11
312.88382931123851
 21
543.74181542034739
 31
0.0
  0
LINE
  5
1E08
  8
0
  6
CONTINUOUS
 10
311.38382931123851
 20
555.94181542034733
 30
0.0
 11
312.88382931123851
 21
555.94181542034733
 31
0.0
  0
LINE
  5
1E09
  8
0
  6
CONTINUOUS
 10
311.38382931123851
 20
543.74181542034739
 30
0.0
 11
312.88382931123851
 21
543.74181542034739
 31
0.0
  0
LINE
  5
1E0A
  8
0
  6
CONTINUOUS
 10
307.48383531123869
 20
552.49180942034729
 30
0.0
 11
307.48383531123869
 21
547.19182142034731
 31
0.0
  0
LINE
  5
1E0B
  8
0
  6
CONTINUOUS
 10
311.38382931123851
 20
555.94181542034733
 30
0.0
 11
311.38382931123851
 21
543.74181542034739
 31
0.0
  0
LINE
  5
1E0C
  8
0
  6
CONTINUOUS
 10
311.38382931123851
 20
544.59181542034719
 30
0.0
 11
310.0836283112385
 21
544.59181542034719
 31
0.0
  0
LINE
  5
1E0D
  8
0
  6
CONTINUOUS
 10
311.38382931123851
 20
555.0918154203473
 30
0.0
 11
310.0836283112385
 21
555.0918154203473
 31
0.0
  0
LINE
  5
1E0E
  8
0
 10
332.38382931123851
 20
559.57220442034736
 30
0.0
 11
314.88382931123851
 21
559.57220442034736
 31
0.0
  0
LINE
  5
1E0F
  8
0
 10
332.38382931123851
 20
537.77451742034725
 30
0.0
 11
311.88382931123851
 21
537.77451742034725
 31
0.0
  0
ARC
  5
1E10
  8
0
 10
311.88382931123851
 20
538.77451742034725
 30
0.0
 40
1.0
 50
270.0
 51
0.0
  0
LINE
  5
1E11
  8
0
 10
332.38382931123851
 20
551.44819942034746
 30
0.0
 11
314.88382931123851
 21
551.44819942034746
 31
0.0
  0
LINE
  5
1E12
  8
0
 10
119.8838293112385
 20
559.70855542034724
 30
0.0
 11
128.38382931123849
 21
559.70855542034724
 31
0.0
  0
ARC
  5
1E13
  8
0
 10
329.06202831123852
 20
385.7085554203473
 30
0.0
 40
2.0
 50
90.0
 51
170.0000000000046
  0
ARC
  5
1E14
  8
0
 10
265.12647131123867
 20
380.71489842034742
 30
0.0
 40
1.9936590000000001
 50
90.075931000003507
 51
178.17025399999861
  0
LINE
  5
1E15
  8
0
 10
265.1238293112383
 20
382.70855542034741
 30
0.0
 11
324.82399531123838
 21
382.70855542034741
 31
0.0
  0
LINE
  5
1E16
  8
0
 10
262.88382931123851
 20
373.70855542034741
 30
0.0
 11
263.49985831123831
 21
391.30787542034739
 31
0.0
  0
LINE
  5
1E17
  8
0
 10
327.09241331123849
 20
386.05585142034738
 30
0.0
 11
326.79361031123841
 21
384.36125942034749
 31
0.0
  0
ARC
  5
1E18
  8
0
 10
324.82399531123838
 20
384.70855542034741
 30
0.0
 40
2.0
 50
270.0
 51
350.00000000000472
  0
LINE
  5
1E19
  8
0
 10
128.96117931123851
 20
390.70855542034741
 30
0.0
 11
136.1780583112386
 21
378.20855542034741
 31
0.0
  0
LINE
  5
1E1A
  8
0
 10
137.91010831123859
 20
377.2085554203473
 30
0.0
 11
185.82880031123841
 21
377.2085554203473
 31
0.0
  0
LINE
  5
1E1B
  8
0
 10
187.88382931123849
 20
373.70855542034741
 30
0.0
 11
187.8275173112383
 21
375.28017042034742
 31
0.0
  0
ARC
  5
1E1C
  8
0
 10
127.2291283112386
 20
389.7085554203473
 30
0.0
 40
2.0
 50
29.999999999994468
 51
90.0
  0
ARC
  5
1E1D
  8
0
 10
137.91010831123859
 20
379.2085554203473
 30
0.0
 40
2.0
 50
209.99999999999449
 51
270.0
  0
ARC
  5
1E1E
  8
0
 10
185.82880031123841
 20
375.2085554203473
 30
0.0
 40
2.0
 50
2.0520649999985339
 51
90.0
  0
LINE
  5
1E1F
  8
0
 10
187.88382931123849
 20
373.70855542034741
 30
0.0
 11
262.88382931123851
 21
373.70855542034741
 31
0.0
  0
LINE
  5
1E20
  8
0
 10
136.91010831123859
 20
377.47650442034751
 30
0.0
 11
136.91010831123859
 21
391.30787542034739
 31
0.0
  0
LINE
  5
1E21
  8
0
 10
323.35091331123829
 20
391.30787542034739
 30
0.0
 11
133.32747331123841
 21
391.30787542034739
 31
0.0
  0
LINE
  5
1E22
  8
0
 10
323.13012731123848
 20
396.70991942034738
 30
0.0
 11
133.43668631123859
 21
396.70991942034738
 31
0.0
  0
LINE
  5
1E23
  8
0
 10
327.38382931123851
 20
411.31632142034709
 30
0.0
 11
293.38382931123851
 21
411.31632142034709
 31
0.0
  0
LINE
  5
1E24
  8
0
 10
327.38382931123851
 20
411.31632142034709
 30
0.0
 11
325.09974231123851
 21
398.36262242034741
 31
0.0
  0
ARC
  5
1E25
  8
0
 10
323.13012731123848
 20
398.70991942034738
 30
0.0
 40
2.0
 50
270.0
 51
350.00000000000472
  0
LINE
  5
1E26
  8
0
 10
327.38382931123851
 20
404.66213942034739
 30
0.0
 11
325.32052831123838
 21
392.96057942034741
 31
0.0
  0
ARC
  5
1E27
  8
0
 10
323.35091331123829
 20
393.30787542034739
 30
0.0
 40
2.0
 50
270.0
 51
350.00000000000472
  0
LINE
  5
1E28
  8
0
 10
132.1265673112384
 20
391.70855542034741
 30
0.0
 11
119.8838293112385
 21
391.70855542034741
 31
0.0
  0
LINE
  5
1E29
  8
0
 10
327.38382931123851
 20
392.55656942034739
 30
0.0
 11
325.9387753112386
 21
384.36125942034749
 31
0.0
  0
ARC
  5
1E2A
  8
0
 10
323.96915931123829
 20
384.70855542034741
 30
0.0
 40
2.0
 50
270.0
 51
350.00000000000472
  0
LINE
  5
1E2B
  8
0
 10
262.38382931123851
 20
427.54855542034733
 30
0.0
 11
262.38382931123851
 21
424.84855542034722
 31
0.0
  0
LINE
  5
1E2C
  8
0
 10
332.38382931123851
 20
413.4989184203472
 30
0.0
 11
314.88382931123851
 21
413.4989184203472
 31
0.0
  0
LINE
  5
1E2D
  8
0
 10
332.38382931123851
 20
425.8065574203473
 30
0.0
 11
314.88382931123851
 21
425.8065574203473
 31
0.0
  0
LINE
  5
1E2E
  8
0
 10
332.38382931123851
 20
435.98584942034711
 30
0.0
 11
327.38382931123851
 21
435.98584942034711
 31
0.0
  0
LINE
  5
1E2F
  8
0
 10
312.88382931123851
 20
434.98584942034728
 30
0.0
 11
312.88382931123851
 21
415.49891842034731
 31
0.0
  0
ARC
  5
1E30
  8
0
 10
311.88382931123851
 20
434.98584942034728
 30
0.0
 40
1.0
 50
0.0
 51
42.252324000004279
  0
ARC
  5
1E31
  8
0
 10
314.88382931123851
 20
415.49891842034731
 30
0.0
 40
2.0
 50
180.0
 51
270.0
  0
LINE
  5
1E32
  8
0
 10
277.38382931123851
 20
532.64151342034734
 30
0.0
 11
277.38382931123851
 21
526.81395042034751
 31
0.0
  0
LINE
  5
1E33
  8
0
 10
293.38382931123851
 20
532.64151342034734
 30
0.0
 11
293.38382931123851
 21
526.81395042034751
 31
0.0
  0
LINE
  5
1E34
  8
0
 10
277.38382931123851
 20
523.6830374203472
 30
0.0
 11
277.38382931123851
 21
515.75886442034732
 31
0.0
  0
LINE
  5
1E35
  8
0
 10
277.38382931123851
 20
512.71315842034733
 30
0.0
 11
277.38382931123851
 21
504.72299042034717
 31
0.0
  0
LINE
  5
1E36
  8
0
 10
277.38382931123851
 20
501.7303634203472
 30
0.0
 11
277.38382931123851
 21
493.69966242034718
 31
0.0
  0
LINE
  5
1E37
  8
0
 10
277.38382931123851
 20
490.7381834203473
 30
0.0
 11
277.38382931123851
 21
483.68639942034753
 31
0.0
  0
LINE
  5
1E38
  8
0
 10
277.38382931123851
 20
480.86855542034721
 30
0.0
 11
277.38382931123851
 21
470.67840342034708
 31
0.0
  0
LINE
  5
1E39
  8
0
 10
293.38382931123851
 20
480.86855542034721
 30
0.0
 11
293.38382931123851
 21
470.67840342034708
 31
0.0
  0
LINE
  5
1E3A
  8
0
 10
293.38382931123851
 20
490.7381834203473
 30
0.0
 11
293.38382931123851
 21
483.68639942034753
 31
0.0
  0
LINE
  5
1E3B
  8
0
 10
293.38382931123851
 20
501.7303634203472
 30
0.0
 11
293.38382931123851
 21
493.69966242034718
 31
0.0
  0
LINE
  5
1E3C
  8
0
 10
293.38382931123851
 20
512.71315842034733
 30
0.0
 11
293.38382931123851
 21
504.72299042034717
 31
0.0
  0
LINE
  5
1E3D
  8
0
 10
293.38382931123851
 20
523.6830374203472
 30
0.0
 11
293.38382931123851
 21
515.75886442034732
 31
0.0
  0
LINE
  5
1E3E
  8
0
 10
277.38382931123851
 20
467.73071142034729
 30
0.0
 11
277.38382931123851
 21
460.67892742034729
 31
0.0
  0
LINE
  5
1E3F
  8
0
 10
293.38382931123851
 20
467.73071142034729
 30
0.0
 11
293.38382931123851
 21
460.67892742034729
 31
0.0
  0
LINE
  5
1E40
  8
0
 10
293.38382931123851
 20
457.71744842034741
 30
0.0
 11
293.38382931123851
 21
449.6867474203471
 31
0.0
  0
LINE
  5
1E41
  8
0
 10
277.38382931123851
 20
457.71744842034741
 30
0.0
 11
277.38382931123851
 21
449.6867474203471
 31
0.0
  0
LINE
  5
1E42
  8
0
 10
277.38382931123851
 20
446.6941204203473
 30
0.0
 11
277.38382931123851
 21
438.70395242034738
 31
0.0
  0
LINE
  5
1E43
  8
0
 10
293.38382931123851
 20
446.6941204203473
 30
0.0
 11
293.38382931123851
 21
438.70395242034738
 31
0.0
  0
LINE
  5
1E44
  8
0
 10
307.93322431123852
 20
419.68775942034711
 30
0.0
 11
293.38382831123857
 21
419.68775942034711
 31
0.0
  0
LINE
  5
1E45
  8
0
 10
312.88382931123851
 20
431.10010942034739
 30
0.0
 11
293.38382831123857
 21
431.10010942034739
 31
0.0
  0
LINE
  5
1E46
  8
0
 10
277.38382931123851
 20
435.65824642034738
 30
0.0
 11
277.38382931123851
 21
415.65824642034738
 31
0.0
  0
LINE
  5
1E47
  8
0
 10
329.38382931123851
 20
559.57220442034736
 30
0.0
 11
329.38382931123851
 21
563.70855542034747
 31
0.0
  0
LINE
  5
1E48
  8
0
 10
327.38382931123851
 20
389.50681142034739
 30
0.0
 11
326.47652931123861
 21
384.36125942034749
 31
0.0
  0
ARC
  5
1E49
  8
0
 10
324.50691431123869
 20
384.70855542034741
 30
0.0
 40
2.0
 50
270.0
 51
350.00000000000472
  0
LINE
  5
1E4A
  8
0
 10
293.38382931123851
 20
435.65824642034738
 30
0.0
 11
293.38382931123851
 21
431.10010942034739
 31
0.0
  0
LINE
  5
1E4B
  8
0
 10
329.38382931123851
 20
435.98584942034711
 30
0.0
 11
329.38382931123851
 21
537.77451742034725
 31
0.0
  0
LINE
  5
1E4C
  8
0
 10
128.38382931123849
 20
415.84855542034728
 30
0.0
 11
131.46707131123861
 21
398.36262242034741
 31
0.0
  0
ARC
  5
1E4D
  8
0
 10
133.43668631123859
 20
398.70991942034738
 30
0.0
 40
2.0
 50
189.9999999999954
 51
270.0
  0
LINE
  5
1E4E
  8
0
 10
278.08922631123818
 20
424.4028494203472
 30
0.0
 11
293.38382931123851
 21
419.68775942034711
 31
0.0
  0
LINE
  5
1E4F
  8
0
 10
293.38382931123851
 20
431.10010942034739
 30
0.0
 11
278.34788831123842
 21
430.55935842034739
 31
0.0
  0
LINE
  5
1E50
  8
0
 10
293.38382931123851
 20
419.68775942034711
 30
0.0
 11
293.38382931123851
 21
411.31632142034709
 31
0.0
  0
ARC
  5
1E51
  8
0
 10
278.38382931123851
 20
429.56000442034741
 30
0.0
 40
1.0
 50
92.059690999990707
 51
180.0
  0
ARC
  5
1E52
  8
0
 10
278.38382931123851
 20
425.35846942034721
 30
0.0
 40
1.0
 50
180.0
 51
252.8662750000021
  0
LINE
  5
1E53
  8
0
 10
293.38382931123851
 20
551.5613424203475
 30
0.0
 11
278.08337031123853
 21
546.74147642034734
 31
0.0
  0
LINE
  5
1E54
  8
0
 10
278.43238431123842
 20
542.43779542034724
 30
0.0
 11
293.38382931123851
 21
543.16461542034733
 31
0.0
  0
ARC
  5
1E55
  8
0
 10
278.38382931123851
 20
545.78768142034733
 30
0.0
 40
1.0
 50
107.4851790000135
 51
180.0
  0
ARC
  5
1E56
  8
0
 10
278.38382931123851
 20
543.43661642034715
 30
0.0
 40
1.0
 50
180.0
 51
270.0
  0
ARC
  5
1E57
  8
0
  6
CONTINUOUS
 10
310.0836283112385
 20
421.14989442034738
 30
0.0
 40
2.6003989999999999
 50
179.99998200000081
 51
269.99997800000818
  0
ARC
  5
1E58
  8
0
  6
CONTINUOUS
 10
310.0836283112385
 20
426.44988242034742
 30
0.0
 40
2.600403
 50
90.0
 51
179.99998200000081
  0
LINE
  5
1E59
  8
0
  6
CONTINUOUS
 10
312.88382931123851
 20
423.86591342034723
 30
0.0
 11
311.38382931123851
 21
422.9998884203473
 31
0.0
  0
LINE
  5
1E5A
  8
0
  6
CONTINUOUS
 10
312.88382931123851
 20
424.86591342034728
 30
0.0
 11
311.38382931123851
 21
423.9998884203473
 31
0.0
  0
LINE
  5
1E5B
  8
0
  6
CONTINUOUS
 10
312.88382931123851
 20
429.89988842034728
 30
0.0
 11
312.88382931123851
 21
417.69988842034729
 31
0.0
  0
LINE
  5
1E5C
  8
0
  6
CONTINUOUS
 10
311.38382931123851
 20
429.89988842034728
 30
0.0
 11
312.88382931123851
 21
429.89988842034728
 31
0.0
  0
LINE
  5
1E5D
  8
0
  6
CONTINUOUS
 10
311.38382931123851
 20
417.69988842034729
 30
0.0
 11
312.88382931123851
 21
417.69988842034729
 31
0.0
  0
LINE
  5
1E5E
  8
0
  6
CONTINUOUS
 10
307.48383531123869
 20
426.44988242034742
 30
0.0
 11
307.48383531123869
 21
421.14989442034738
 31
0.0
  0
LINE
  5
1E5F
  8
0
  6
CONTINUOUS
 10
311.38382931123851
 20
429.89988842034728
 30
0.0
 11
311.38382931123851
 21
417.69988842034729
 31
0.0
  0
LINE
  5
1E60
  8
0
  6
CONTINUOUS
 10
311.38382931123851
 20
418.54988842034732
 30
0.0
 11
310.0836283112385
 21
418.54988842034732
 31
0.0
  0
LINE
  5
1E61
  8
0
  6
CONTINUOUS
 10
311.38382931123851
 20
429.04988842034732
 30
0.0
 11
310.0836283112385
 21
429.04988842034732
 31
0.0
  0
LINE
  5
1E62
  8
0
 10
327.38382931123851
 20
535.88582342034738
 30
0.0
 11
128.38382931123849
 21
535.88582342034738
 31
0.0
  0
LINE
  5
1E63
  8
0
 10
327.38382931123851
 20
532.64151342034734
 30
0.0
 11
128.38382931123849
 21
532.64151342034734
 31
0.0
  0
LINE
  5
1E64
  8
0
 10
327.38382931123851
 20
526.81395042034751
 30
0.0
 11
128.38382931123849
 21
526.81395042034751
 31
0.0
  0
LINE
  5
1E65
  8
0
 10
327.38382931123851
 20
523.6830374203472
 30
0.0
 11
128.38382931123849
 21
523.6830374203472
 31
0.0
  0
LINE
  5
1E66
  8
0
 10
327.38382931123851
 20
515.75886442034732
 30
0.0
 11
128.38382931123849
 21
515.75886442034732
 31
0.0
  0
LINE
  5
1E67
  8
0
 10
327.38382931123851
 20
512.71315842034733
 30
0.0
 11
128.38382931123849
 21
512.71315842034733
 31
0.0
  0
LINE
  5
1E68
  8
0
 10
327.38382931123851
 20
504.72299042034717
 30
0.0
 11
128.38382931123849
 21
504.72299042034717
 31
0.0
  0
LINE
  5
1E69
  8
0
 10
327.38382931123851
 20
501.7303634203472
 30
0.0
 11
128.38382931123849
 21
501.7303634203472
 31
0.0
  0
LINE
  5
1E6A
  8
0
 10
327.38382931123851
 20
493.69966242034718
 30
0.0
 11
128.38382931123849
 21
493.69966242034718
 31
0.0
  0
LINE
  5
1E6B
  8
0
 10
327.38382931123851
 20
490.7381834203473
 30
0.0
 11
128.38382931123849
 21
490.7381834203473
 31
0.0
  0
LINE
  5
1E6C
  8
0
 10
327.38382931123851
 20
483.68639942034753
 30
0.0
 11
232.95707231123831
 21
483.68639942034753
 31
0.0
  0
LINE
  5
1E6D
  8
0
 10
327.38382931123851
 20
480.73870742034723
 30
0.0
 11
239.76947631123861
 21
480.73870742034723
 31
0.0
  0
LINE
  5
1E6E
  8
0
 10
325.30490831123871
 20
535.20855542034724
 30
0.0
 11
325.30490831123871
 21
533.20855542034724
 31
0.0
  0
LINE
  5
1E6F
  8
0
 10
130.46275031123869
 20
533.20855542034724
 30
0.0
 11
325.30490831123871
 21
533.20855542034724
 31
0.0
  0
LINE
  5
1E70
  8
0
 10
130.46275031123869
 20
535.20855542034724
 30
0.0
 11
325.30490831123871
 21
535.20855542034724
 31
0.0
  0
LINE
  5
1E71
  8
0
 10
130.46275031123869
 20
524.20855542034724
 30
0.0
 11
325.30490831123871
 21
524.20855542034724
 31
0.0
  0
LINE
  5
1E72
  8
0
 10
130.46275031123869
 20
526.20855542034747
 30
0.0
 11
325.30490831123871
 21
526.20855542034747
 31
0.0
  0
LINE
  5
1E73
  8
0
 10
130.46275031123869
 20
513.20855542034747
 30
0.0
 11
325.30490831123871
 21
513.20855542034747
 31
0.0
  0
LINE
  5
1E74
  8
0
 10
130.46275031123869
 20
515.20855542034724
 30
0.0
 11
325.30490831123871
 21
515.20855542034724
 31
0.0
  0
LINE
  5
1E75
  8
0
 10
130.46275031123869
 20
502.2085554203473
 30
0.0
 11
325.30490831123871
 21
502.2085554203473
 31
0.0
  0
LINE
  5
1E76
  8
0
 10
130.46275031123869
 20
504.2085554203473
 30
0.0
 11
325.30490831123871
 21
504.2085554203473
 31
0.0
  0
LINE
  5
1E77
  8
0
 10
130.46275031123869
 20
491.20855542034718
 30
0.0
 11
325.30490831123871
 21
491.20855542034718
 31
0.0
  0
LINE
  5
1E78
  8
0
 10
130.46275031123869
 20
493.20855542034741
 30
0.0
 11
325.30490831123871
 21
493.20855542034741
 31
0.0
  0
LINE
  5
1E79
  8
0
 10
239.15880631123861
 20
481.2085554203473
 30
0.0
 11
325.30490831123871
 21
481.2085554203473
 31
0.0
  0
LINE
  5
1E7A
  8
0
 10
233.43056731123849
 20
483.20855542034718
 30
0.0
 11
325.30490831123871
 21
483.20855542034718
 31
0.0
  0
LINE
  5
1E7B
  8
0
 10
325.30490831123871
 20
535.20855542034724
 30
0.0
 11
327.38382931123851
 21
535.88582342034738
 31
0.0
  0
LINE
  5
1E7C
  8
0
 10
325.30490831123871
 20
533.20855542034724
 30
0.0
 11
327.38382931123851
 21
532.64151342034734
 31
0.0
  0
LINE
  5
1E7D
  8
0
 10
325.30490831123871
 20
526.20855542034747
 30
0.0
 11
327.38382931123851
 21
526.81395042034751
 31
0.0
  0
LINE
  5
1E7E
  8
0
 10
325.30490831123871
 20
524.20855542034724
 30
0.0
 11
327.38382931123851
 21
523.6830374203472
 31
0.0
  0
LINE
  5
1E7F
  8
0
 10
325.30490831123871
 20
515.20855542034724
 30
0.0
 11
327.38382931123851
 21
515.75886442034732
 31
0.0
  0
LINE
  5
1E80
  8
0
 10
325.30490831123871
 20
513.20855542034747
 30
0.0
 11
327.38382931123851
 21
512.71315842034733
 31
0.0
  0
LINE
  5
1E81
  8
0
 10
325.30490831123871
 20
504.2085554203473
 30
0.0
 11
327.38382931123851
 21
504.72299042034717
 31
0.0
  0
LINE
  5
1E82
  8
0
 10
325.30490831123871
 20
502.2085554203473
 30
0.0
 11
327.38382931123851
 21
501.7303634203472
 31
0.0
  0
LINE
  5
1E83
  8
0
 10
325.30490831123871
 20
493.20855542034741
 30
0.0
 11
327.38382931123851
 21
493.69966242034718
 31
0.0
  0
LINE
  5
1E84
  8
0
 10
325.30490831123871
 20
491.20855542034718
 30
0.0
 11
327.38382931123851
 21
490.7381834203473
 31
0.0
  0
LINE
  5
1E85
  8
0
 10
325.30490831123871
 20
483.20855542034718
 30
0.0
 11
327.38382931123851
 21
483.68639942034753
 31
0.0
  0
LINE
  5
1E86
  8
0
 10
325.30490831123871
 20
481.2085554203473
 30
0.0
 11
327.38382931123851
 21
480.73870742034723
 31
0.0
  0
LINE
  5
1E87
  8
0
 10
325.30490831123871
 20
526.20855542034747
 30
0.0
 11
325.30490831123871
 21
524.20855542034724
 31
0.0
  0
LINE
  5
1E88
  8
0
 10
325.30490831123871
 20
515.20855542034724
 30
0.0
 11
325.30490831123871
 21
513.20855542034747
 31
0.0
  0
LINE
  5
1E89
  8
0
 10
325.30490831123871
 20
504.2085554203473
 30
0.0
 11
325.30490831123871
 21
502.2085554203473
 31
0.0
  0
LINE
  5
1E8A
  8
0
 10
325.30490831123871
 20
493.20855542034741
 30
0.0
 11
325.30490831123871
 21
491.20855542034718
 31
0.0
  0
LINE
  5
1E8B
  8
0
 10
325.30490831123871
 20
483.20855542034718
 30
0.0
 11
325.30490831123871
 21
481.2085554203473
 31
0.0
  0
ARC
  5
1E8C
  8
0
 10
239.15880631123861
 20
478.20855542034718
 30
0.0
 40
3.0
 50
90.0
 51
190.28656099999739
  0
ARC
  5
1E8D
  8
0
 10
239.76947631123861
 20
477.26870742034731
 30
0.0
 40
3.4700000000000002
 50
90.0
 51
186.1896490000004
  0
LINE
  5
1E8E
  8
0
 10
145.46275031123881
 20
483.20855542034718
 30
0.0
 11
145.46275031123881
 21
481.2085554203473
 31
0.0
  0
LINE
  5
1E8F
  8
0
 10
130.46275031123869
 20
493.20855542034741
 30
0.0
 11
130.46275031123869
 21
491.20855542034718
 31
0.0
  0
LINE
  5
1E90
  8
0
 10
130.46275031123869
 20
504.2085554203473
 30
0.0
 11
130.46275031123869
 21
502.2085554203473
 31
0.0
  0
LINE
  5
1E91
  8
0
 10
130.46275031123869
 20
515.20855542034724
 30
0.0
 11
130.46275031123869
 21
513.20855542034747
 31
0.0
  0
LINE
  5
1E92
  8
0
 10
130.46275031123869
 20
526.20855542034747
 30
0.0
 11
130.46275031123869
 21
524.20855542034724
 31
0.0
  0
LINE
  5
1E93
  8
0
 10
145.46275031123881
 20
481.2085554203473
 30
0.0
 11
143.38382931123849
 21
480.73870742034723
 31
0.0
  0
LINE
  5
1E94
  8
0
 10
145.46275031123881
 20
483.20855542034718
 30
0.0
 11
143.38382931123849
 21
483.68639942034753
 31
0.0
  0
LINE
  5
1E95
  8
0
 10
130.46275031123869
 20
491.20855542034718
 30
0.0
 11
128.38382931123849
 21
490.7381834203473
 31
0.0
  0
LINE
  5
1E96
  8
0
 10
130.46275031123869
 20
493.20855542034741
 30
0.0
 11
128.38382931123849
 21
493.69966242034718
 31
0.0
  0
LINE
  5
1E97
  8
0
 10
130.46275031123869
 20
502.2085554203473
 30
0.0
 11
128.38382931123849
 21
501.7303634203472
 31
0.0
  0
LINE
  5
1E98
  8
0
 10
130.46275031123869
 20
504.2085554203473
 30
0.0
 11
128.38382931123849
 21
504.72299042034717
 31
0.0
  0
LINE
  5
1E99
  8
0
 10
130.46275031123869
 20
513.20855542034747
 30
0.0
 11
128.38382931123849
 21
512.71315842034733
 31
0.0
  0
LINE
  5
1E9A
  8
0
 10
130.46275031123869
 20
515.20855542034724
 30
0.0
 11
128.38382931123849
 21
515.75886442034732
 31
0.0
  0
LINE
  5
1E9B
  8
0
 10
130.46275031123869
 20
524.20855542034724
 30
0.0
 11
128.38382931123849
 21
523.6830374203472
 31
0.0
  0
LINE
  5
1E9C
  8
0
 10
130.46275031123869
 20
526.20855542034747
 30
0.0
 11
128.38382931123849
 21
526.81395042034751
 31
0.0
  0
LINE
  5
1E9D
  8
0
 10
130.46275031123869
 20
533.20855542034724
 30
0.0
 11
128.38382931123849
 21
532.64151342034734
 31
0.0
  0
LINE
  5
1E9E
  8
0
 10
130.46275031123869
 20
535.20855542034724
 30
0.0
 11
128.38382931123849
 21
535.88582342034738
 31
0.0
  0
LINE
  5
1E9F
  8
0
 10
130.46275031123869
 20
535.20855542034724
 30
0.0
 11
130.46275031123869
 21
533.20855542034724
 31
0.0
  0
LINE
  5
1EA0
  8
0
 10
128.38382931123849
 20
532.64151342034734
 30
0.0
 11
128.38382931123849
 21
535.88582342034738
 31
0.0
  0
LINE
  5
1EA1
  8
0
 10
128.38382931123849
 20
523.6830374203472
 30
0.0
 11
128.38382931123849
 21
526.81395042034751
 31
0.0
  0
LINE
  5
1EA2
  8
0
 10
128.38382931123849
 20
512.71315842034733
 30
0.0
 11
128.38382931123849
 21
515.75886442034732
 31
0.0
  0
LINE
  5
1EA3
  8
0
 10
128.38382931123849
 20
501.7303634203472
 30
0.0
 11
128.38382931123849
 21
504.72299042034717
 31
0.0
  0
LINE
  5
1EA4
  8
0
 10
128.38382931123849
 20
490.7381834203473
 30
0.0
 11
128.38382931123849
 21
493.69966242034718
 31
0.0
  0
LINE
  5
1EA5
  8
0
 10
143.38382931123849
 20
480.73870742034723
 30
0.0
 11
143.38382931123849
 21
483.68639942034753
 31
0.0
  0
LINE
  5
1EA6
  8
0
 10
143.38382931123849
 20
483.68639942034753
 30
0.0
 11
217.81058631123869
 21
483.68639942034753
 31
0.0
  0
LINE
  5
1EA7
  8
0
 10
143.38382931123849
 20
480.73870742034723
 30
0.0
 11
210.99818231123839
 21
480.73870742034723
 31
0.0
  0
LINE
  5
1EA8
  8
0
 10
211.60885231123851
 20
481.2085554203473
 30
0.0
 11
145.46275031123881
 21
481.2085554203473
 31
0.0
  0
LINE
  5
1EA9
  8
0
 10
217.33709131123851
 20
483.20855542034718
 30
0.0
 11
145.46275031123881
 21
483.20855542034718
 31
0.0
  0
ARC
  5
1EAA
  8
0
 10
211.60885231123851
 20
478.20855542034718
 30
0.0
 40
3.0
 50
349.71343900000261
 51
90.0
  0
ARC
  5
1EAB
  8
0
 10
210.99818231123839
 20
477.26870742034731
 30
0.0
 40
3.4700000000000002
 50
353.81035099999951
 51
90.0
  0
LINE
  5
1EAC
  8
0
 10
327.38382931123851
 20
435.65824642034738
 30
0.0
 11
128.38382931123849
 21
435.65824642034738
 31
0.0
  0
LINE
  5
1EAD
  8
0
 10
327.38382931123851
 20
438.70395242034738
 30
0.0
 11
128.38382931123849
 21
438.70395242034738
 31
0.0
  0
LINE
  5
1EAE
  8
0
 10
327.38382931123851
 20
446.6941204203473
 30
0.0
 11
128.38382931123849
 21
446.6941204203473
 31
0.0
  0
LINE
  5
1EAF
  8
0
 10
327.38382931123851
 20
449.6867474203471
 30
0.0
 11
128.38382931123849
 21
449.6867474203471
 31
0.0
  0
LINE
  5
1EB0
  8
0
 10
327.38382931123851
 20
457.71744842034741
 30
0.0
 11
128.38382931123849
 21
457.71744842034741
 31
0.0
  0
LINE
  5
1EB1
  8
0
 10
327.38382931123851
 20
460.67892742034729
 30
0.0
 11
128.38382931123849
 21
460.67892742034729
 31
0.0
  0
LINE
  5
1EB2
  8
0
 10
130.46275031123869
 20
438.2085554203473
 30
0.0
 11
325.30490831123871
 21
438.2085554203473
 31
0.0
  0
LINE
  5
1EB3
  8
0
 10
130.46275031123869
 20
436.20855542034718
 30
0.0
 11
325.30490831123871
 21
436.20855542034718
 31
0.0
  0
LINE
  5
1EB4
  8
0
 10
130.46275031123869
 20
449.20855542034718
 30
0.0
 11
325.30490831123871
 21
449.20855542034718
 31
0.0
  0
LINE
  5
1EB5
  8
0
 10
130.46275031123869
 20
447.2085554203473
 30
0.0
 11
325.30490831123871
 21
447.2085554203473
 31
0.0
  0
LINE
  5
1EB6
  8
0
 10
130.46275031123869
 20
460.2085554203473
 30
0.0
 11
325.30490831123871
 21
460.2085554203473
 31
0.0
  0
LINE
  5
1EB7
  8
0
 10
130.46275031123869
 20
458.20855542034718
 30
0.0
 11
325.30490831123871
 21
458.20855542034718
 31
0.0
  0
LINE
  5
1EB8
  8
0
 10
143.38382931123849
 20
467.73071142034729
 30
0.0
 11
217.81058631123869
 21
467.73071142034729
 31
0.0
  0
LINE
  5
1EB9
  8
0
 10
143.38382931123849
 20
470.67840342034708
 30
0.0
 11
210.99818231123839
 21
470.67840342034708
 31
0.0
  0
LINE
  5
1EBA
  8
0
 10
211.60885231123851
 20
470.20855542034718
 30
0.0
 11
145.46275031123881
 21
470.20855542034718
 31
0.0
  0
LINE
  5
1EBB
  8
0
 10
217.33709131123851
 20
468.20855542034741
 30
0.0
 11
145.46275031123881
 21
468.20855542034741
 31
0.0
  0
LINE
  5
1EBC
  8
0
 10
143.38382931123849
 20
470.67840342034708
 30
0.0
 11
143.38382931123849
 21
467.73071142034729
 31
0.0
  0
LINE
  5
1EBD
  8
0
 10
128.38382931123849
 20
460.67892742034729
 30
0.0
 11
128.38382931123849
 21
457.71744842034741
 31
0.0
  0
LINE
  5
1EBE
  8
0
 10
128.38382931123849
 20
449.6867474203471
 30
0.0
 11
128.38382931123849
 21
446.6941204203473
 31
0.0
  0
LINE
  5
1EBF
  8
0
 10
128.38382931123849
 20
438.70395242034738
 30
0.0
 11
128.38382931123849
 21
435.65824642034738
 31
0.0
  0
LINE
  5
1EC0
  8
0
 10
130.46275031123869
 20
436.20855542034718
 30
0.0
 11
128.38382931123849
 21
435.65824642034738
 31
0.0
  0
LINE
  5
1EC1
  8
0
 10
130.46275031123869
 20
438.2085554203473
 30
0.0
 11
128.38382931123849
 21
438.70395242034738
 31
0.0
  0
LINE
  5
1EC2
  8
0
 10
130.46275031123869
 20
447.2085554203473
 30
0.0
 11
128.38382931123849
 21
446.6941204203473
 31
0.0
  0
LINE
  5
1EC3
  8
0
 10
130.46275031123869
 20
449.20855542034718
 30
0.0
 11
128.38382931123849
 21
449.6867474203471
 31
0.0
  0
LINE
  5
1EC4
  8
0
 10
130.46275031123869
 20
458.20855542034718
 30
0.0
 11
128.38382931123849
 21
457.71744842034741
 31
0.0
  0
LINE
  5
1EC5
  8
0
 10
130.46275031123869
 20
460.2085554203473
 30
0.0
 11
128.38382931123849
 21
460.67892742034729
 31
0.0
  0
LINE
  5
1EC6
  8
0
 10
145.46275031123881
 20
468.20855542034741
 30
0.0
 11
143.38382931123849
 21
467.73071142034729
 31
0.0
  0
LINE
  5
1EC7
  8
0
 10
145.46275031123881
 20
470.20855542034718
 30
0.0
 11
143.38382931123849
 21
470.67840342034708
 31
0.0
  0
LINE
  5
1EC8
  8
0
 10
130.46275031123869
 20
436.20855542034718
 30
0.0
 11
130.46275031123869
 21
438.2085554203473
 31
0.0
  0
LINE
  5
1EC9
  8
0
 10
130.46275031123869
 20
447.2085554203473
 30
0.0
 11
130.46275031123869
 21
449.20855542034718
 31
0.0
  0
LINE
  5
1ECA
  8
0
 10
130.46275031123869
 20
458.20855542034718
 30
0.0
 11
130.46275031123869
 21
460.2085554203473
 31
0.0
  0
LINE
  5
1ECB
  8
0
 10
145.46275031123881
 20
468.20855542034741
 30
0.0
 11
145.46275031123881
 21
470.20855542034718
 31
0.0
  0
ARC
  5
1ECC
  8
0
 10
211.60885231123851
 20
473.20855542034718
 30
0.0
 40
3.0
 50
270.0
 51
10.28656099999745
  0
ARC
  5
1ECD
  8
0
 10
210.99818231123839
 20
474.14840342034722
 30
0.0
 40
3.4700000000000002
 50
270.0
 51
6.1896490000005366
  0
LINE
  5
1ECE
  8
0
 10
327.38382931123851
 20
467.73071142034729
 30
0.0
 11
232.95707231123831
 21
467.73071142034729
 31
0.0
  0
LINE
  5
1ECF
  8
0
 10
327.38382931123851
 20
470.67840342034708
 30
0.0
 11
239.76947631123861
 21
470.67840342034708
 31
0.0
  0
LINE
  5
1ED0
  8
0
 10
239.15880631123861
 20
470.20855542034718
 30
0.0
 11
325.30490831123871
 21
470.20855542034718
 31
0.0
  0
LINE
  5
1ED1
  8
0
 10
233.43056731123849
 20
468.20855542034741
 30
0.0
 11
325.30490831123871
 21
468.20855542034741
 31
0.0
  0
ARC
  5
1ED2
  8
0
 10
239.15880631123861
 20
473.20855542034718
 30
0.0
 40
3.0
 50
169.7134390000025
 51
270.0
  0
ARC
  5
1ED3
  8
0
 10
239.76947631123861
 20
474.14840342034722
 30
0.0
 40
3.4700000000000002
 50
173.8103509999994
 51
270.0
  0
LINE
  5
1ED4
  8
0
 10
325.30490831123871
 20
468.20855542034741
 30
0.0
 11
325.30490831123871
 21
470.20855542034718
 31
0.0
  0
LINE
  5
1ED5
  8
0
 10
325.30490831123871
 20
458.20855542034718
 30
0.0
 11
325.30490831123871
 21
460.2085554203473
 31
0.0
  0
LINE
  5
1ED6
  8
0
 10
325.30490831123871
 20
447.2085554203473
 30
0.0
 11
325.30490831123871
 21
449.20855542034718
 31
0.0
  0
LINE
  5
1ED7
  8
0
 10
325.30490831123871
 20
436.20855542034718
 30
0.0
 11
325.30490831123871
 21
438.2085554203473
 31
0.0
  0
LINE
  5
1ED8
  8
0
 10
325.30490831123871
 20
470.20855542034718
 30
0.0
 11
327.38382931123851
 21
470.67840342034708
 31
0.0
  0
LINE
  5
1ED9
  8
0
 10
325.30490831123871
 20
468.20855542034741
 30
0.0
 11
327.38382931123851
 21
467.73071142034729
 31
0.0
  0
LINE
  5
1EDA
  8
0
 10
325.30490831123871
 20
460.2085554203473
 30
0.0
 11
327.38382931123851
 21
460.67892742034729
 31
0.0
  0
LINE
  5
1EDB
  8
0
 10
325.30490831123871
 20
458.20855542034718
 30
0.0
 11
327.38382931123851
 21
457.71744842034741
 31
0.0
  0
LINE
  5
1EDC
  8
0
 10
325.30490831123871
 20
449.20855542034718
 30
0.0
 11
327.38382931123851
 21
449.6867474203471
 31
0.0
  0
LINE
  5
1EDD
  8
0
 10
325.30490831123871
 20
447.2085554203473
 30
0.0
 11
327.38382931123851
 21
446.6941204203473
 31
0.0
  0
LINE
  5
1EDE
  8
0
 10
325.30490831123871
 20
438.2085554203473
 30
0.0
 11
327.38382931123851
 21
438.70395242034738
 31
0.0
  0
LINE
  5
1EDF
  8
0
 10
325.30490831123871
 20
436.20855542034718
 30
0.0
 11
327.38382931123851
 21
435.65824642034738
 31
0.0
  0
LINE
  5
1EE0
  8
0
 10
327.38382931123851
 20
438.70395242034738
 30
0.0
 11
327.38382931123851
 21
435.65824642034738
 31
0.0
  0
LINE
  5
1EE1
  8
0
 10
327.38382931123851
 20
449.6867474203471
 30
0.0
 11
327.38382931123851
 21
446.6941204203473
 31
0.0
  0
LINE
  5
1EE2
  8
0
 10
327.38382931123851
 20
460.67892742034729
 30
0.0
 11
327.38382931123851
 21
457.71744842034741
 31
0.0
  0
LINE
  5
1EE3
  8
0
 10
327.38382931123851
 20
470.67840342034708
 30
0.0
 11
327.38382931123851
 21
467.73071142034729
 31
0.0
  0
LINE
  5
1EE4
  8
0
 10
260.30490831123831
 20
427.2085554203473
 30
0.0
 11
262.38382931123851
 21
427.70395242034709
 31
0.0
  0
LINE
  5
1EE5
  8
0
 10
262.38382931123851
 20
427.70395242034709
 30
0.0
 11
128.38382931123849
 21
427.70395242034709
 31
0.0
  0
LINE
  5
1EE6
  8
0
 10
130.46275031123869
 20
427.2085554203473
 30
0.0
 11
260.30490831123831
 21
427.2085554203473
 31
0.0
  0
LINE
  5
1EE7
  8
0
 10
260.30490831123831
 20
425.2085554203473
 30
0.0
 11
260.30490831123831
 21
427.2085554203473
 31
0.0
  0
LINE
  5
1EE8
  8
0
 10
262.38382931123851
 20
424.65824642034733
 30
0.0
 11
128.38382931123849
 21
424.65824642034733
 31
0.0
  0
LINE
  5
1EE9
  8
0
 10
130.46275031123869
 20
425.2085554203473
 30
0.0
 11
260.30490831123831
 21
425.2085554203473
 31
0.0
  0
LINE
  5
1EEA
  8
0
 10
260.30490831123831
 20
425.2085554203473
 30
0.0
 11
262.38382931123851
 21
424.65824642034733
 31
0.0
  0
LINE
  5
1EEB
  8
0
 10
262.38382931123851
 20
418.70395242034732
 30
0.0
 11
128.38382931123849
 21
418.70395242034732
 31
0.0
  0
LINE
  5
1EEC
  8
0
 10
130.46275031123869
 20
418.2085554203473
 30
0.0
 11
260.30490831123831
 21
418.2085554203473
 31
0.0
  0
LINE
  5
1EED
  8
0
 10
262.38382931123851
 20
415.65824642034738
 30
0.0
 11
128.4173863112382
 21
415.65824642034738
 31
0.0
  0
LINE
  5
1EEE
  8
0
 10
130.46275031123869
 20
416.20855542034718
 30
0.0
 11
260.30490831123831
 21
416.20855542034718
 31
0.0
  0
LINE
  5
1EEF
  8
0
 10
260.30490831123831
 20
416.20855542034718
 30
0.0
 11
262.38382931123851
 21
415.65824642034738
 31
0.0
  0
LINE
  5
1EF0
  8
0
 10
262.38382931123851
 20
418.70395242034732
 30
0.0
 11
262.38382931123851
 21
415.65824642034738
 31
0.0
  0
LINE
  5
1EF1
  8
0
 10
260.30490831123831
 20
416.20855542034718
 30
0.0
 11
260.30490831123831
 21
418.2085554203473
 31
0.0
  0
LINE
  5
1EF2
  8
0
 10
260.30490831123831
 20
418.2085554203473
 30
0.0
 11
262.38382931123851
 21
418.70395242034732
 31
0.0
  0
LINE
  5
1EF3
  8
0
 10
262.38382931123851
 20
415.65824642034738
 30
0.0
 11
277.38382931123851
 21
415.65824642034738
 31
0.0
  0
LINE
  5
1EF4
  8
0
 10
277.38382931123851
 20
415.65824642034738
 30
0.0
 11
293.38382931123851
 21
411.31632142034709
 31
0.0
  0
LINE
  5
1EF5
  8
0
 10
128.38382931123849
 20
427.70395242034709
 30
0.0
 11
128.38382931123849
 21
424.65824642034733
 31
0.0
  0
LINE
  5
1EF6
  8
0
 10
128.38382931123849
 20
418.70395242034732
 30
0.0
 11
128.38382931123849
 21
415.65824642034738
 31
0.0
  0
LINE
  5
1EF7
  8
0
 10
130.46275031123869
 20
425.2085554203473
 30
0.0
 11
130.46275031123869
 21
427.2085554203473
 31
0.0
  0
LINE
  5
1EF8
  8
0
 10
130.46275031123869
 20
427.2085554203473
 30
0.0
 11
128.38382931123849
 21
427.70395242034709
 31
0.0
  0
LINE
  5
1EF9
  8
0
 10
130.46275031123869
 20
425.2085554203473
 30
0.0
 11
128.38382931123849
 21
424.65824642034733
 31
0.0
  0
LINE
  5
1EFA
  8
0
 10
130.46275031123869
 20
418.2085554203473
 30
0.0
 11
128.38382931123849
 21
418.70395242034732
 31
0.0
  0
LINE
  5
1EFB
  8
0
 10
130.46275031123869
 20
416.20855542034718
 30
0.0
 11
130.46275031123869
 21
418.2085554203473
 31
0.0
  0
LINE
  5
1EFC
  8
0
 10
130.46275031123869
 20
416.20855542034718
 30
0.0
 11
128.38382931123849
 21
415.65824642034738
 31
0.0
  0
LINE
  5
1EFD
  8
0
 10
20.283859311238299
 20
575.70855542034747
 30
0.0
 11
97.883829311238514
 21
575.70855542034747
 31
0.0
  0
LINE
  5
1EFE
  8
0
 10
20.283859311238299
 20
581.70855542034724
 30
0.0
 11
97.883829311238514
 21
581.70855542034724
 31
0.0
  0
LINE
  5
1EFF
  8
0
 10
119.8838293112385
 20
572.70855542034724
 30
0.0
 11
16.383829311238511
 21
572.70855542034724
 31
0.0
  0
LINE
  5
1F00
  8
0
 10
108.8838293112385
 20
575.70855542034747
 30
0.0
 11
122.3838293112385
 21
575.70855542034747
 31
0.0
  0
ARC
  5
1F01
  8
0
 10
766.67080931123814
 20
475.7085554203473
 30
0.0
 40
764.28698999999995
 50
172.8219499999955
 51
187.1780399999972
  0
LINE
  5
1F02
  8
0
 10
13.033859311238301
 20
382.10851542034737
 30
0.0
 11
13.033859311238301
 21
569.39849542034722
 31
0.0
  0
LINE
  5
1F03
  8
0
 10
7.3838293112385136
 20
538.14849542034733
 30
0.0
 11
7.3838293112385136
 21
412.5685354203473
 31
0.0
  0
LINE
  5
1F04
  8
0
 10
5.3838293112385136
 20
538.14849542034733
 30
0.0
 11
5.3838293112385136
 21
413.25847542034722
 31
0.0
  0
LINE
  5
1F05
  8
0
 10
119.8838293112385
 20
378.70855542034741
 30
0.0
 11
16.383829311238511
 21
378.70855542034741
 31
0.0
  0
LINE
  5
1F06
  8
0
 10
7.533799311238452
 20
409.87853542034742
 30
0.0
 11
12.44382931123846
 21
382.00853542034741
 31
0.0
  0
ARC
  5
1F07
  8
0
 10
20.28556931123876
 20
381.7065954203473
 30
0.0
 40
5.9980479999999998
 50
207.0535100000092
 51
269.98324000000241
  0
ARC
  5
1F08
  8
0
 10
20.286299311238508
 20
381.70464542034739
 30
0.0
 40
11.996128000000001
 50
187.16444000000149
 51
269.98822000000808
  0
ARC
  5
1F09
  8
0
 10
6.5442293112382668
 20
409.71160542034721
 30
0.0
 40
1.0035289999999999
 50
9.5734909999996063
 51
62.101814999988022
  0
ARC
  5
1F0A
  8
0
 10
8.3823693112385627
 20
413.26653542034728
 30
0.0
 40
2.9985330000000001
 50
180.1533100000014
 51
242.84512999998921
  0
ARC
  5
1F0B
  8
0
 10
16.383219311238459
 20
382.70989542034738
 30
0.0
 40
4.0014059999999976
 50
190.09553000000011
 51
270.00785000000678
  0
LINE
  5
1F0C
  8
0
 10
7.533799311238452
 20
541.52849542034755
 30
0.0
 11
12.44376931123861
 21
569.39849542034722
 31
0.0
  0
ARC
  5
1F0D
  8
0
 10
16.38334931123881
 20
568.70916542034706
 30
0.0
 40
3.9993959999999982
 50
89.993275000011238
 51
170.07405999999821
  0
ARC
  5
1F0E
  8
0
 10
6.5444793112383168
 20
541.70769542034725
 30
0.0
 40
1.0054319999999961
 50
297.82706000000729
 51
349.7352699999982
  0
ARC
  5
1F0F
  8
0
 10
8.3810293112383079
 20
538.15130542034706
 30
0.0
 40
2.997211999999998
 50
117.13965999999481
 51
180.05331000000001
  0
ARC
  5
1F10
  8
0
 10
20.284709311238661
 20
569.71184542034723
 30
0.0
 40
5.9966319999999991
 50
90.008472000013285
 51
152.954760000004
  0
ARC
  5
1F11
  8
0
 10
20.285319311238709
 20
569.7134954203475
 30
0.0
 40
11.995034
 50
90.007167000000024
 51
172.8401600000048
  0
LINE
  5
1F12
  8
0
 10
-0.0061806887615603
 20
470.70855542034718
 30
0.0
 11
-0.0061806887615603
 21
480.70855542034741
 31
0.0
  0
LINE
  5
1F13
  8
0
 10
2.403849311238444
 20
480.70855542034741
 30
0.0
 11
-0.0061806887615603
 21
480.70855542034741
 31
0.0
  0
LINE
  5
1F14
  8
0
 10
2.403849311238444
 20
470.70855542034718
 30
0.0
 11
-0.0061806887615603
 21
470.70855542034718
 31
0.0
  0
LINE
  5
1F15
  8
0
 10
122.3838293112385
 20
581.70855542034724
 30
0.0
 11
122.3838293112385
 21
575.70855542034747
 31
0.0
  0
LINE
  5
1F16
  8
0
 10
97.883829311238514
 20
582.70855542034724
 30
0.0
 11
97.883829311238514
 21
572.70855542034724
 31
0.0
  0
LINE
  5
1F17
  8
0
 10
108.8838293112385
 20
582.70855542034724
 30
0.0
 11
108.8838293112385
 21
572.70855542034724
 31
0.0
  0
LINE
  5
1F18
  8
0
 10
108.8838293112385
 20
581.70855542034724
 30
0.0
 11
122.3838293112385
 21
581.70855542034724
 31
0.0
  0
LINE
  5
1F19
  8
0
 10
97.883829311238514
 20
582.70855542034724
 30
0.0
 11
108.8838293112385
 21
582.70855542034724
 31
0.0
  0
LINE
  5
1F1A
  8
0
 10
20.283855311238771
 20
375.7085144203474
 30
0.0
 11
97.883825311238525
 21
375.70851142034729
 31
0.0
  0
LINE
  5
1F1B
  8
0
 10
20.283855311238771
 20
369.7085144203474
 30
0.0
 11
97.883825311238525
 21
369.70851142034741
 31
0.0
  0
LINE
  5
1F1C
  8
0
 10
97.883825311238525
 20
368.70851142034729
 30
0.0
 11
97.883825311238525
 21
378.70851142034741
 31
0.0
  0
LINE
  5
1F1D
  8
0
 10
97.883825311238525
 20
368.70851142034729
 30
0.0
 11
108.8838253112385
 21
368.70851142034729
 31
0.0
  0
LINE
  5
1F1E
  8
0
 10
108.8838253112385
 20
368.70851142034729
 30
0.0
 11
108.8838253112385
 21
378.70851142034741
 31
0.0
  0
LINE
  5
1F1F
  8
0
 10
108.8838253112385
 20
369.70851142034741
 30
0.0
 11
122.3838253112385
 21
369.70851142034741
 31
0.0
  0
LINE
  5
1F20
  8
0
 10
122.3838253112385
 20
369.70851142034741
 30
0.0
 11
122.3838253112385
 21
375.70851142034729
 31
0.0
  0
LINE
  5
1F21
  8
0
 10
108.8838253112385
 20
375.70851142034729
 30
0.0
 11
122.3838253112385
 21
375.70851142034729
 31
0.0
  0
LINE
  5
1F22
  8
0
 10
119.8838293112385
 20
483.3523264203472
 30
0.0
 11
131.38382931123849
 21
483.3523264203472
 31
0.0
  0
LINE
  5
1F23
  8
0
 10
119.8838293112385
 20
483.68640442034729
 30
0.0
 11
132.06382931123829
 21
483.68640442034729
 31
0.0
  0
LINE
  5
1F24
  8
0
 10
133.38382931123849
 20
481.35232642034742
 30
0.0
 11
133.38382931123849
 21
475.70855942034729
 31
0.0
  0
LINE
  5
1F25
  8
0
 10
135.06382931123829
 20
486.68640442034729
 30
0.0
 11
135.06382931123829
 21
475.70855942034729
 31
0.0
  0
ARC
  5
1F26
  8
0
 10
132.06382931123829
 20
486.68640442034729
 30
0.0
 40
3.0
 50
270.0
 51
0.0
  0
LINE
  5
1F27
  8
0
 10
119.8838293112385
 20
468.06479142034738
 30
0.0
 11
131.38382931123849
 21
468.06479142034738
 31
0.0
  0
LINE
  5
1F28
  8
0
 10
119.8838293112385
 20
467.73071431069809
 30
0.0
 11
132.06382931123829
 21
467.73071342034729
 31
0.0
  0
LINE
  5
1F29
  8
0
 10
133.38382931123849
 20
470.06479142034721
 30
0.0
 11
133.38382931123849
 21
475.70855942034729
 31
0.0
  0
LINE
  5
1F2A
  8
0
 10
135.06382931123829
 20
464.73071342034712
 30
0.0
 11
135.06382931123829
 21
475.70855942034729
 31
0.0
  0
ARC
  5
1F2B
  8
0
 10
132.06382931123829
 20
464.73071342034712
 30
0.0
 40
3.0
 50
359.99999800000052
 51
89.999998000010223
  0
LINE
  5
1F2C
  8
0
 10
352.38384931123892
 20
83.358549450773495
 30
0.0
 11
332.38375131561588
 21
83.358549450773495
 31
0.0
  0
LINE
  5
1F2D
  8
0
 10
352.38384931123892
 20
95.645830450773545
 30
0.0
 11
332.38375131561588
 21
95.645830450773545
 31
0.0
  0
LINE
  5
1F2E
  8
0
 10
352.38384931123892
 20
105.82512245077351
 30
0.0
 11
332.38375131561588
 21
105.82512245077351
 31
0.0
  0
LINE
  5
1F2F
  8
0
 10
352.38384931123892
 20
207.6137614507735
 30
0.0
 11
332.38375131561588
 21
207.6137614507735
 31
0.0
  0
LINE
  5
1F30
  8
0
 10
352.38384931123892
 20
221.28747245077349
 30
0.0
 11
332.38375131561588
 21
221.28747245077349
 31
0.0
  0
LINE
  5
1F31
  8
0
 10
352.38384931123892
 20
229.4114774507735
 30
0.0
 11
332.38375131561588
 21
229.4114774507735
 31
0.0
  0
TEXT
  5
2212
  8
0
  6
CONTINUOUS
 62
     0
 10
665.3702539053304
 20
441.54023593844141
 30
0.0
 40
10.0
  1
VX22-003EB~VX22-020EB
  0
ENDSEC
  0
EOF
