  0
SECTION
  2
HEADER
  9
$ACADVER
  1
AC1009
  9
$INSBASE
 10
0.0
 20
0.0
 30
0.0
  9
$EXTMIN
 10
130.40741373179341
 20
351.92357905456578
 30
-0.000000000000013
  9
$EXTMAX
 10
1193.549045393522
 20
1024.2635855890539
 30
0.0000000000000023
  9
$LIMMIN
 10
0.0000005999945643
 20
-0.0000005963913736
  9
$LIMMAX
 10
1422.5000005999941
 20
924.99999940360874
  9
$ORTHOMODE
 70
     0
  9
$REGENMODE
 70
     1
  9
$FILLMODE
 70
     1
  9
$QTEXTMODE
 70
     0
  9
$MIRRTEXT
 70
     0
  9
$DRAGMODE
 70
     2
  9
$LTSCALE
 40
1.0
  9
$OSMODE
 70
   551
  9
$ATTMODE
 70
     1
  9
$TEXTSIZE
 40
2.5
  9
$TRACEWID
 40
1.0
  9
$TEXTSTYLE
  7
STANDARD
  9
$CLAYER
  8
0
  9
$CELTYPE
  6
BYLAYER
  9
$CECOLOR
 62
   256
  9
$DIMSCALE
 40
1.0
  9
$DIMASZ
 40
2.0
  9
$DIMEXO
 40
1.0
  9
$DIMDLI
 40
8.0
  9
$DIMRND
 40
0.0
  9
$DIMDLE
 40
0.0
  9
$DIMEXE
 40
1.0
  9
$DIMTP
 40
-0.025
  9
$DIMTM
 40
0.043
  9
$DIMTXT
 40
2.5
  9
$DIMCEN
 40
0.0
  9
$DIMTSZ
 40
0.0
  9
$DIMTOL
 70
     0
  9
$DIMLIM
 70
     0
  9
$DIMTIH
 70
     0
  9
$DIMTOH
 70
     0
  9
$DIMSE1
 70
     0
  9
$DIMSE2
 70
     0
  9
$DIMTAD
 70
     3
  9
$DIMZIN
 70
     8
  9
$DIMBLK
  1

  9
$DIMASO
 70
     1
  9
$DIMSHO
 70
     1
  9
$DIMPOST
  1

  9
$DIMAPOST
  1
"
  9
$DIMALT
 70
     0
  9
$DIMALTD
 70
     2
  9
$DIMALTF
 40
0.0393701
  9
$DIMLFAC
 40
1.0
  9
$DIMTOFL
 70
     1
  9
$DIMTVP
 40
0.0
  9
$DIMTIX
 70
     0
  9
$DIMSOXD
 70
     0
  9
$DIMSAH
 70
     0
  9
$DIMBLK1
  1

  9
$DIMBLK2
  1

  9
$DIMSTYLE
  2
AM_JIS
  9
$DIMCLRD
 70
     2
  9
$DIMCLRE
 70
     2
  9
$DIMCLRT
 70
     4
  9
$DIMTFAC
 40
0.71
  9
$DIMGAP
 40
1.5
  9
$LUNITS
 70
     2
  9
$LUPREC
 70
     2
  9
$SKETCHINC
 40
1.0
  9
$FILLETRAD
 40
0.0
  9
$AUNITS
 70
     0
  9
$AUPREC
 70
     0
  9
$MENU
  1
.
  9
$ELEVATION
 40
0.0
  9
$PELEVATION
 40
0.0
  9
$THICKNESS
 40
0.0
  9
$LIMCHECK
 70
     0
  9
$BLIPMODE
 70
     0
  9
$CHAMFERA
 40
2.5
  9
$CHAMFERB
 40
2.5
  9
$SKPOLY
 70
     0
  9
$TDCREATE
 40
2456829.3841110538
  9
$TDUPDATE
 40
2458540.7242513779
  9
$TDINDWG
 40
0.5942723611
  9
$TDUSRTIMER
 40
0.5942721644
  9
$USRTIMER
 70
     1
  9
$ANGBASE
 50
0.0
  9
$ANGDIR
 70
     0
  9
$PDMODE
 70
     0
  9
$PDSIZE
 40
0.0
  9
$PLINEWID
 40
0.0
  9
$COORDS
 70
     1
  9
$SPLFRAME
 70
     0
  9
$SPLINETYPE
 70
     6
  9
$SPLINESEGS
 70
     8
  9
$ATTDIA
 70
     1
  9
$ATTREQ
 70
     1
  9
$HANDLING
 70
     1
  9
$HANDSEED
  5
BFB4
  9
$SURFTAB1
 70
     6
  9
$SURFTAB2
 70
     6
  9
$SURFTYPE
 70
     6
  9
$SURFU
 70
     6
  9
$SURFV
 70
     6
  9
$UCSNAME
  2

  9
$UCSORG
 10
0.0
 20
0.0
 30
0.0
  9
$UCSXDIR
 10
1.0
 20
0.0
 30
0.0
  9
$UCSYDIR
 10
0.0
 20
1.0
 30
0.0
  9
$PUCSNAME
  2

  9
$PUCSORG
 10
0.0
 20
0.0
 30
0.0
  9
$PUCSXDIR
 10
1.0
 20
0.0
 30
0.0
  9
$PUCSYDIR
 10
0.0
 20
1.0
 30
0.0
  9
$USERI1
 70
     0
  9
$USERI2
 70
     0
  9
$USERI3
 70
     0
  9
$USERI4
 70
     0
  9
$USERI5
 70
     0
  9
$USERR1
 40
0.0
  9
$USERR2
 40
0.0
  9
$USERR3
 40
0.0
  9
$USERR4
 40
0.0
  9
$USERR5
 40
0.0
  9
$WORLDVIEW
 70
     1
  9
$SHADEDGE
 70
     3
  9
$SHADEDIF
 70
    70
  9
$TILEMODE
 70
     1
  9
$MAXACTVP
 70
    64
  9
$PLIMCHECK
 70
     0
  9
$PEXTMIN
 10
1.0000000000000000E+020
 20
1.0000000000000000E+020
 30
1.0000000000000000E+020
  9
$PEXTMAX
 10
-1.0000000000000000E+020
 20
-1.0000000000000000E+020
 30
-1.0000000000000000E+020
  9
$PLIMMIN
 10
0.0
 20
0.0
  9
$PLIMMAX
 10
420.0
 20
297.0
  9
$UNITMODE
 70
     0
  9
$VISRETAIN
 70
     1
  9
$PLINEGEN
 70
     0
  9
$PSLTSCALE
 70
     1
  0
ENDSEC
  0
SECTION
  2
TABLES
  0
TABLE
  2
VPORT
 70
     1
  0
VPORT
  2
*ACTIVE
 70
     0
 10
0.0
 20
0.0
 11
1.0
 21
1.0
 12
661.97822956265804
 22
688.09358232180989
 13
0.0
 23
0.0
 14
12.5
 24
12.5
 15
50.0
 25
50.0
 16
0.0
 26
0.0
 36
1.0
 17
0.0
 27
0.0
 37
0.0
 40
676.95561298667008
 41
1.757159221076747
 42
50.0
 43
0.0
 44
0.0
 50
0.0
 51
0.0
 71
     0
 72
  1000
 73
     1
 74
     3
 75
     0
 76
     0
 77
     0
 78
     0
  0
ENDTAB
  0
TABLE
  2
LTYPE
 70
    24
  0
LTYPE
  2
CONTINUOUS
 70
     0
  3
Solid line
 72
    65
 73
     0
 40
0.0
  0
LTYPE
  2
CENTER
 70
     0
  3
Center ____ _ ____ _ ____ _ ____ _ ____ _ ____
 72
    65
 73
     4
 40
50.799999999999997
 49
31.75
 49
-6.3499999999999979
 49
6.3499999999999979
 49
-6.3499999999999979
  0
LTYPE
  2
AM_ISO02W050
 70
     0
  3
__ __ __ __ __ __ __ __ __ __ __ __ __ __ __
 72
    65
 73
     2
 40
7.5
 49
6.0
 49
-1.5
  0
LTYPE
  2
AM_ISO08W050
 70
     0
  3
____ . ____ . ____ . ____ . ____ . ____ . ____
 72
    65
 73
     4
 40
18.0
 49
12.0
 49
-1.5
 49
3.0
 49
-1.5
  0
LTYPE
  2
AM_ISO09W050
 70
     0
  3
_____ . . _____ . . _____ . . ____ .. ____
 72
    65
 73
     6
 40
22.5
 49
12.0
 49
-1.5
 49
3.0
 49
-1.5
 49
3.0
 49
-1.5
  0
LTYPE
  2
AMCONSTR
 70
     0
  3
_______________________
 72
    65
 73
     2
 40
9999.0
 49
9999.0
 49
0.0
  0
LTYPE
  2
AM_ISO08W050X2
 70
     0
  3
__ . __ . __ . __ . __ . __
 72
    65
 73
     4
 40
9.0
 49
6.0
 49
-0.75
 49
1.5
 49
-0.75
  0
LTYPE
  2
AM_ISO02W050X2
 70
     0
  3
 _ _ _ _ _ _ _ _ _ _ _ _
 72
    65
 73
     2
 40
3.75
 49
3.0
 49
-0.75
  0
LTYPE
  2
AMZIGZAG
 70
     0
  3
/\/-/\/-/\/-/\/-/\/-/\/
 72
    65
 73
     2
 40
11.0001
 49
0.0001
 49
-11.0
  0
LTYPE
  2
ACANSTGBM
 70
     0
  3
__ . . __ . .
 72
    65
 73
     6
 40
9.0
 49
4.0
 49
-1.0
 49
1.0
 49
-1.0
 49
1.0
 49
-1.0
  0
LTYPE
  2
ACANSTGLM
 70
     0
  3
_ _ _ _ _
 72
    65
 73
     2
 40
3.0
 49
2.0
 49
-1.0
  0
LTYPE
  2
ACISOWELD
 70
     0
  3
_ _ _ _ _
 72
    65
 73
     2
 40
2.0
 49
2.0
 49
-1.0
  0
LTYPE
  2
ACISOTGB
 70
     0
  3
__ . . __ . .
 72
    65
 73
     6
 40
9.0
 49
4.0
 49
-1.0
 49
1.0
 49
-1.0
 49
1.0
 49
-1.0
  0
LTYPE
  2
ACISOTGL
 70
     0
  3
_ _ _ _ _
 72
    65
 73
     2
 40
3.0
 49
2.0
 49
-1.0
  0
LTYPE
  2
ACJISTGB
 70
     0
  3
__ . . __ . .
 72
    65
 73
     6
 40
9.0
 49
4.0
 49
-1.0
 49
1.0
 49
-1.0
 49
1.0
 49
-1.0
  0
LTYPE
  2
ACJISTGL
 70
     0
  3
_ _ _ _ _
 72
    65
 73
     2
 40
3.0
 49
2.0
 49
-1.0
  0
LTYPE
  2
HIDDEN
 70
     0
  3
Hidden __ __ __ __ __ __ __ __ __ __ __ __ __ _
 72
    65
 73
     2
 40
9.5249999999999968
 49
6.349999999999997
 49
-3.174999999999998
  0
LTYPE
  2
PHANTOM2
 70
     0
  3
Phantom (.5x) ___ _ _ ___ _ _ ___ _ _ ___ _ _
 72
    65
 73
     6
 40
31.75
 49
15.875
 49
-3.174999999999998
 49
3.174999999999998
 49
-3.174999999999998
 49
3.174999999999998
 49
-3.174999999999998
  0
LTYPE
  2
CENTER2
 70
     0
  3
Center (.5x) ___ _ ___ _ ___ _ ___ _ ___ _ ___
 72
    65
 73
     4
 40
1.125
 49
0.75
 49
-0.125
 49
0.125
 49
-0.125
  0
LTYPE
  2
HIDDEN2
 70
     0
  3
Hidden (.5x) _ _ _ _ _ _ _ _ _ _ _ _ _ _ _ _ _
 72
    65
 73
     2
 40
0.1875
 49
0.125
 49
-0.0625
  0
LTYPE
  2
AMZIGZAG2
 70
     0
  3
/\/-/\/-/\/-/\/-/\/-/\/
 72
    65
 73
     2
 40
0.4401
 49
0.0001
 49
-0.4400000000000003
  0
LTYPE
  2
ACANSTGB
 70
     0
  3
__ . . __ . .
 72
    65
 73
     6
 40
0.35433070866
 49
0.15748031496
 49
-0.03937007874
 49
0.03937007874
 49
-0.03937007874
 49
0.03937007874
 49
-0.03937007874
  0
LTYPE
  2
ACANSTGL
 70
     0
  3
_ _ _ _ _
 72
    65
 73
     2
 40
0.11811023622
 49
0.07874015748
 49
-0.03937007874
  0
ENDTAB
  0
TABLE
  2
LAYER
 70
     4
  0
LAYER
  2
0
 70
     0
 62
     7
  6
CONTINUOUS
  0
LAYER
  2
DEFPOINTS
 70
     0
 62
     7
  6
CONTINUOUS
  0
LAYER
  2
AM_5
 70
     0
 62
     2
  6
CONTINUOUS
  0
LAYER
  2
AM_CL
 70
     0
 62
     1
  6
AMCONSTR
  0
ENDTAB
  0
TABLE
  2
STYLE
 70
     8
  0
STYLE
  2
STANDARD
 70
     0
 40
0.0
 41
0.7400000000000003
 50
0.0
 71
     0
 42
2.5
  3
txt.shx
  4
bigfont.shx
  0
STYLE
  2

 70
     1
 40
0.0
 41
1.0
 50
0.0
 71
     0
 42
2.5
  3
ltypeshp.shx
  4

  0
STYLE
  2
ACANSTS
 70
     0
 40
1.0
 41
1.0
 50
0.0
 71
     0
 42
2.5
  3
romans.shx
  4
bigfont.shx
  0
STYLE
  2
ACANSGDT
 70
     0
 40
0.0
 41
1.0
 50
0.0
 71
     0
 42
2.5
  3
amgdtans.shx
  4

  0
STYLE
  2
ACISOTS
 70
     0
 40
1.0
 41
1.0
 50
0.0
 71
     0
 42
2.5
  3
isocp.shx
  4
extfont.shx
  0
STYLE
  2
ACISOGDT
 70
     0
 40
0.0
 41
1.0
 50
0.0
 71
     0
 42
2.5
  3
amgdt.shx
  4

  0
STYLE
  2
ACJISGDT
 70
     0
 40
0.0
 41
1.0
 50
0.0
 71
     0
 42
2.5
  3
amgdt.shx
  4

  0
STYLE
  2
ACJISTS
 70
     0
 40
1.0
 41
1.0
 50
0.0
 71
     0
 42
2.5
  3
isocp.shx
  4
extfont.shx
  0
ENDTAB
  0
TABLE
  2
VIEW
 70
     6
  0
VIEW
  2
AM_VIEW1
 70
     0
 40
462.5
 10
488.83452017294832
 20
693.74999940360874
 41
977.66903914590773
 11
0.0
 21
0.0
 31
1.0
 12
0.0
 22
0.0
 32
0.0
 42
50.0
 43
0.0
 44
0.0
 50
0.0
 71
     0
  0
VIEW
  2
AM_VIEW2
 70
     0
 40
462.5
 10
933.66548102704076
 20
693.74999940360874
 41
977.66903914590773
 11
0.0
 21
0.0
 31
1.0
 12
0.0
 22
0.0
 32
0.0
 42
50.0
 43
0.0
 44
0.0
 50
0.0
 71
     0
  0
VIEW
  2
AM_VIEW3
 70
     0
 40
462.5
 10
488.83452017294832
 20
231.24999940360871
 41
977.66903914590773
 11
0.0
 21
0.0
 31
1.0
 12
0.0
 22
0.0
 32
0.0
 42
50.0
 43
0.0
 44
0.0
 50
0.0
 71
     0
  0
VIEW
  2
AM_VIEW4
 70
     0
 40
462.5
 10
933.66548102704076
 20
231.24999940360871
 41
977.66903914590773
 11
0.0
 21
0.0
 31
1.0
 12
0.0
 22
0.0
 32
0.0
 42
50.0
 43
0.0
 44
0.0
 50
0.0
 71
     0
  0
VIEW
  2
AM_VIEW5
 70
     0
 40
462.5
 10
711.25000059999468
 20
462.49999940360868
 41
977.66903914590773
 11
0.0
 21
0.0
 31
1.0
 12
0.0
 22
0.0
 32
0.0
 42
50.0
 43
0.0
 44
0.0
 50
0.0
 71
     0
  0
VIEW
  2
AM_VIEW6
 70
     0
 40
924.99075000000016
 10
711.25000059999468
 20
462.49999940360868
 41
1955.318524911032
 11
0.0
 21
0.0
 31
1.0
 12
0.0
 22
0.0
 32
0.0
 42
50.0
 43
0.0
 44
0.0
 50
0.0
 71
     0
  0
ENDTAB
  0
TABLE
  2
UCS
 70
     0
  0
ENDTAB
  0
TABLE
  2
APPID
 70
   158
  0
APPID
  2
ACAD
 70
     0
  0
APPID
  2
ACADANNOTATIVE
 70
     0
  0
APPID
  2
ACAD_MLEADERVER
 70
     0
  0
APPID
  2
MCAD_NO_VIS
 70
     0
  0
APPID
  2
ACAD_TEMP_GRAPHIC
 70
     0
  0
APPID
  2
AD_DRAW
 70
     0
  0
APPID
  2
ACATTRIBSERVICES
 70
     0
  0
APPID
  2
DESIGNERASSEMBLIES
 70
     0
  0
APPID
  2
ACADM_DIM_EDIT
 70
     0
  0
APPID
  2
AMDT_DM_ADJ
 70
     0
  0
APPID
  2
GENIUS_GENDIMSH_14
 70
     0
  0
APPID
  2
GEVID1057795304
 70
     0
  0
APPID
  2
GEVDC
 70
     0
  0
APPID
  2
GEVCON
 70
     0
  0
APPID
  2
GENIUS_GENBH_13
 70
     0
  0
APPID
  2
GENIUS_GENOENT_13
 70
     0
  0
APPID
  2
GENIUS_GENOBJ-NBEHI-BHF_13
 70
     0
  0
APPID
  2
GENIUS_GENOLIS_13
 70
     0
  0
APPID
  2
GENIUS_GENODEF_13
 70
     0
  0
APPID
  2
GENIUS_GENOREF_13
 70
     0
  0
APPID
  2
GENIUS_GENOBJ-NBEHI-BHB_13
 70
     0
  0
APPID
  2
GENIUS_GENOBJ-F-SCPASSM_13
 70
     0
  0
APPID
  2
GENIUS_GENDTOL_13
 70
     0
  0
APPID
  2
GENIUS_GENTRA_14
 70
     0
  0
APPID
  2
ASURF_PCURVE_APPNAME
 70
     0
  0
APPID
  2
GENIUS_GENCFG_13
 70
     0
  0
APPID
  2
GENIUS_GE3CFG0_13
 70
     0
  0
APPID
  2
GENIUS_GENCFG0_13
 70
     0
  0
APPID
  2
GENIUS_GENCFG1_13
 70
     0
  0
APPID
  2
GENIUS_GENCFG2_13
 70
     0
  0
APPID
  2
GENIUS_GENCFG3_13
 70
     0
  0
APPID
  2
GENIUS_GENCFG4_13
 70
     0
  0
APPID
  2
GENIUS_GEVCFG0_13
 70
     0
  0
APPID
  2
GENIUS_GENOBJ-N-TIT_13
 70
     0
  0
APPID
  2
GENIUS_GENTITLE_13
 70
     0
  0
APPID
  2
GENIUS_GENSCREG_15
 70
     0
  0
APPID
  2
GENIUS_GENOBJ-N-SDF_13
 70
     0
  0
APPID
  2
GENIUS_GENFIL_13
 70
     0
  0
APPID
  2
GENIUS_GENOBJ-N-CHA_13
 70
     0
  0
APPID
  2
GENIUS_GEFSH_13
 70
     0
  0
APPID
  2
GENIUS_GENOBJ-F-SHS_13
 70
     0
  0
APPID
  2
GENIUS_GENOBJ-N-CEN_13
 70
     0
  0
APPID
  2
GENIUS_GENREC_14
 70
     0
  0
APPID
  2
GENIUS_GENOBJ-N-REC_13
 70
     0
  0
APPID
  2
GENIUS_GENOBJ-N-HTC_13
 70
     0
  0
APPID
  2
GENIUS_GENHATCH_13
 70
     0
  0
APPID
  2
ACAD_PSEXT
 70
     0
  0
APPID
  2
ACAD_EXEMPT_FROM_CAD_STANDARDS
 70
     0
  0
APPID
  2
ACAECLAYERSTANDARD
 70
     0
  0
APPID
  2
GENIUS_GENCEN_19
 70
     0
  0
APPID
  2
ACAD_DSTYLE_DIMINSPECT
 70
     0
  0
APPID
  2
ACAD_DSTYLE_DIMANGULAR_EXT
 70
     0
  0
APPID
  2
ACADANNOPO
 70
     0
  0
APPID
  2
ACAD_NAV_VCDISPLAY
 70
     0
  0
APPID
  2
GENIUS_GENOBJ-N-FIL_13
 70
     0
  0
APPID
  2
ACAD_DSTYLE_DIMBREAK
 70
     0
  0
APPID
  2
ACAD_DSTYLE_DIMJAG
 70
     0
  0
APPID
  2
ACAD_DSTYLE_DIMRADIAL_EXTENSION
 70
     0
  0
APPID
  2
GENIUS_GENHINW_13
 70
     0
  0
APPID
  2
GENIUS_FIRSTVISTXT_14
 70
     0
  0
APPID
  2
GENIUS_GENOBJ-N-LEADER_13
 70
     0
  0
APPID
  2
DCO15
 70
     0
  0
APPID
  2
GENIUS_DUMCFG0_13
 70
     0
  0
APPID
  2
ACAD_DSTYLE_DIMTEXT_FILL
 70
     0
  0
APPID
  2
AMG_2DHIDE
 70
     0
  0
APPID
  2
GENIUS_GEFSHEP_13
 70
     0
  0
APPID
  2
GENIUS_GENOBJ-F-SHE_13
 70
     0
  0
APPID
  2
GENIUS_GEFSHE_13
 70
     0
  0
APPID
  2
ACAD_DIMASSOC_DIMLFAC
 70
     0
  0
APPID
  2
ACAD_DIMASSOC_CALC_DIMLFAC
 70
     0
  0
APPID
  2
ACAD_DIMASSOC_OVERRIDDEN_D
 70
     0
  0
APPID
  2
GENIUS_GENOBJ-F-SHSV_13
 70
     0
  0
APPID
  2
GENIUS_GEFWELD_13
 70
     0
  0
APPID
  2
GENIUS_GENOBJ-N-CRS_13
 70
     0
  0
APPID
  2
GENIUS_GENOBJ-N-RSBK_13
 70
     0
  0
APPID
  2
GENIUS_GENOBJ-N-LIB_13
 70
     0
  0
APPID
  2
GENIUS_GENSCALE_13
 70
     0
  0
APPID
  2
GENIUS_GENDREL_13
 70
     0
  0
APPID
  2
GEVPT
 70
     0
  0
APPID
  2
GEVIT
 70
     0
  0
APPID
  2
VCC
 70
     0
  0
APPID
  2
GENBH
 70
     0
  0
APPID
  2
GEVMK
 70
     0
  0
APPID
  2
GENIUS_GENOBJ-F-DESC_13
 70
     0
  0
APPID
  2
GENIUS_GEFDESC_14
 70
     0
  0
APPID
  2
GENIUS_GENOBJ-F-FEAT_13
 70
     0
  0
APPID
  2
GENIUS_GEFFEAT_14
 70
     0
  0
APPID
  2
GENIUS_GEFPARTINS_13
 70
     0
  0
APPID
  2
GENIUS_GENSCREG_13
 70
     0
  0
APPID
  2
GENIUS_GEFSHP_13
 70
     0
  0
APPID
  2
GEVID1025574798
 70
     0
  0
APPID
  2
GEVID1025574769
 70
     0
  0
APPID
  2
GEVID1025757451
 70
     0
  0
APPID
  2
GEVID1240528327
 70
     0
  0
APPID
  2
AMG_2DSTRUCT_BTR
 70
     0
  0
APPID
  2
ACADM_2DVIEW_IGN_NOTIFY
 70
     0
  0
APPID
  2
GEVID1240528328
 70
     0
  0
APPID
  2
GEVID1240528329
 70
     0
  0
APPID
  2
GEVRADREF
 70
     0
  0
APPID
  2
GEVID1240528330
 70
     0
  0
APPID
  2
GEVID1240528331
 70
     0
  0
APPID
  2
GEVID1240528332
 70
     0
  0
APPID
  2
GEVID1240791080
 70
     0
  0
APPID
  2
GEVID1240791081
 70
     0
  0
APPID
  2
GEVID1240791082
 70
     0
  0
APPID
  2
GEVID1240791083
 70
     0
  0
APPID
  2
GEVID1240791084
 70
     0
  0
APPID
  2
GEVID1240791085
 70
     0
  0
APPID
  2
GEVID1240791086
 70
     0
  0
APPID
  2
GEVID1240791087
 70
     0
  0
APPID
  2
GEVID1240791088
 70
     0
  0
APPID
  2
GEVID1240791089
 70
     0
  0
APPID
  2
GEVID1240791090
 70
     0
  0
APPID
  2
GEVID1240791091
 70
     0
  0
APPID
  2
GEVID1240791092
 70
     0
  0
APPID
  2
GEVID1240791093
 70
     0
  0
APPID
  2
GEVID1240791094
 70
     0
  0
APPID
  2
GEVID1240791095
 70
     0
  0
APPID
  2
GEVID1240791096
 70
     0
  0
APPID
  2
GEVID1240791097
 70
     0
  0
APPID
  2
GEVID1240791098
 70
     0
  0
APPID
  2
GEVID1240791099
 70
     0
  0
APPID
  2
GEVID1240791100
 70
     0
  0
APPID
  2
GEVID1240791101
 70
     0
  0
APPID
  2
GEVID1240791102
 70
     0
  0
APPID
  2
GEVID1240791103
 70
     0
  0
APPID
  2
GEVID1240791104
 70
     0
  0
APPID
  2
GEVID1240791105
 70
     0
  0
APPID
  2
GEVID1240875381
 70
     0
  0
APPID
  2
GEVID1240875382
 70
     0
  0
APPID
  2
GEVID1240875383
 70
     0
  0
APPID
  2
GEVID1240875384
 70
     0
  0
APPID
  2
GEVID1240875385
 70
     0
  0
APPID
  2
GEVID1240875386
 70
     0
  0
APPID
  2
GEVID1240875387
 70
     0
  0
APPID
  2
GEVID1240875388
 70
     0
  0
APPID
  2
GEVID1240875389
 70
     0
  0
APPID
  2
GEVID1240875390
 70
     0
  0
APPID
  2
GEVID1240875391
 70
     0
  0
APPID
  2
GEVID1240875392
 70
     0
  0
APPID
  2
GEVID1240875393
 70
     0
  0
APPID
  2
GEVID1240875394
 70
     0
  0
APPID
  2
GEVID1240875395
 70
     0
  0
APPID
  2
GEVID1240875396
 70
     0
  0
APPID
  2
GEVID1240875397
 70
     0
  0
APPID
  2
GEVID1240875398
 70
     0
  0
APPID
  2
GEVID1240875399
 70
     0
  0
APPID
  2
GEVID1240908996
 70
     0
  0
APPID
  2
GEVID1240908997
 70
     0
  0
APPID
  2
GEVID1240908998
 70
     0
  0
APPID
  2
GEVID1240908999
 70
     0
  0
APPID
  2
GEVID1240909000
 70
     0
  0
APPID
  2
GENIUS_GENOBJ-N-ZOO_13
 70
     0
  0
APPID
  2
GENIUS_GENZOO_17
 70
     0
  0
APPID
  2
GENIUS_GE3SECT_13
 70
     0
  0
APPID
  2
GEV_VCCNULL_SWITCH_OFF
 70
     0
  0
APPID
  2
ACAD_DSTYLE_DIMTALN
 70
     0
  0
APPID
  2
CONTENTBLOCKDESCRIPTION
 70
     0
  0
ENDTAB
  0
TABLE
  2
DIMSTYLE
 70
    21
  0
DIMSTYLE
  2
AM_ANSI
 70
     0
  3

  4
"
  5

  6

  7

 40
1.0
 41
2.5
 42
1.0
 43
10.0
 44
1.0
 45
0.0
 46
0.0
 47
0.1
 48
0.1
140
3.5
141
0.0
142
0.0
143
0.0393701
144
1.0
145
0.0
146
0.71
147
1.5
 71
     0
 72
     0
 73
     1
 74
     1
 75
     0
 76
     0
 77
     0
 78
     8
170
     0
171
     2
172
     0
173
     0
174
     0
175
     0
176
     2
177
     2
178
     4
  0
DIMSTYLE
  2
AM_ANSI$3
 70
     0
  3

  4
"
  5

  6

  7

 40
1.0
 41
2.5
 42
1.0
 43
10.0
 44
1.0
 45
0.0
 46
0.0
 47
0.1
 48
0.1
140
3.5
141
0.0
142
0.0
143
0.0393701
144
1.0
145
0.0
146
0.71
147
1.5
 71
     0
 72
     0
 73
     1
 74
     1
 75
     0
 76
     0
 77
     0
 78
     8
170
     0
171
     2
172
     0
173
     0
174
     0
175
     0
176
     2
177
     2
178
     4
  0
DIMSTYLE
  2
AM_ANSI$4
 70
     0
  3

  4
"
  5

  6

  7

 40
1.0
 41
2.5
 42
1.0
 43
10.0
 44
1.0
 45
0.0
 46
0.0
 47
0.1
 48
0.1
140
3.5
141
0.0
142
0.0
143
0.0393701
144
1.0
145
0.0
146
0.71
147
1.5
 71
     0
 72
     0
 73
     1
 74
     1
 75
     0
 76
     0
 77
     0
 78
     8
170
     0
171
     2
172
     0
173
     0
174
     0
175
     0
176
     2
177
     2
178
     4
  0
DIMSTYLE
  2
AM_ANSI$7
 70
     0
  3

  4
"
  5

  6

  7

 40
1.0
 41
2.5
 42
1.0
 43
10.0
 44
1.0
 45
0.0
 46
0.0
 47
0.1
 48
0.1
140
5.0
141
0.0
142
0.0
143
0.0393701
144
1.0
145
0.0
146
0.71
147
1.5
 71
     0
 72
     0
 73
     1
 74
     1
 75
     0
 76
     0
 77
     0
 78
     8
170
     0
171
     2
172
     0
173
     0
174
     0
175
     0
176
     2
177
     2
178
     4
  0
DIMSTYLE
  2
AM_ANSI$SF
 70
     0
  3

  4
"
  5

  6

  7

 40
1.0
 41
2.5
 42
1.0
 43
10.0
 44
1.0
 45
0.0
 46
0.0
 47
0.1
 48
0.1
140
3.5
141
0.0
142
0.0
143
0.0393701
144
1.0
145
0.0
146
0.71
147
1.5
 71
     0
 72
     0
 73
     1
 74
     1
 75
     1
 76
     1
 77
     0
 78
     8
170
     0
171
     2
172
     0
173
     0
174
     0
175
     0
176
     2
177
     2
178
     4
  0
DIMSTYLE
  2
AM_ANSI$SH
 70
     0
  3

  4
"
  5

  6
GENAXEH
  7

 40
1.0
 41
2.5
 42
1.0
 43
10.0
 44
1.0
 45
0.0
 46
0.0
 47
0.1
 48
0.1
140
3.5
141
0.0
142
0.0
143
0.0393701
144
1.0
145
0.0
146
0.71
147
1.5
 71
     0
 72
     0
 73
     1
 74
     1
 75
     1
 76
     1
 77
     0
 78
     8
170
     0
171
     2
172
     0
173
     1
174
     0
175
     0
176
     2
177
     2
178
     4
  0
DIMSTYLE
  2
AM_ISO
 70
     0
  3

  4
"
  5

  6

  7

 40
1.0
 41
2.5
 42
1.0
 43
10.0
 44
1.0
 45
0.0
 46
0.0
 47
0.1
 48
0.1
140
3.5
141
0.0
142
0.0
143
0.0393701
144
1.0
145
0.0
146
0.71
147
1.5
 71
     0
 72
     0
 73
     0
 74
     0
 75
     0
 76
     0
 77
     1
 78
     8
170
     0
171
     2
172
     1
173
     0
174
     0
175
     0
176
   256
177
   256
178
     2
  0
DIMSTYLE
  2
AM_ISO$3
 70
     0
  3

  4
"
  5

  6

  7

 40
1.0
 41
2.5
 42
1.0
 43
10.0
 44
1.0
 45
0.0
 46
0.0
 47
0.1
 48
0.1
140
3.5
141
0.0
142
0.0
143
0.0393701
144
1.0
145
0.0
146
0.71
147
1.5
 71
     0
 72
     0
 73
     0
 74
     1
 75
     0
 76
     0
 77
     1
 78
     8
170
     0
171
     2
172
     0
173
     0
174
     0
175
     0
176
   256
177
   256
178
     2
  0
DIMSTYLE
  2
AM_ISO$4
 70
     0
  3

  4
"
  5

  6

  7

 40
1.0
 41
2.5
 42
1.0
 43
10.0
 44
1.0
 45
0.0
 46
0.0
 47
0.1
 48
0.1
140
3.5
141
0.0
142
0.0
143
0.0393701
144
1.0
145
0.0
146
0.71
147
1.5
 71
     0
 72
     0
 73
     0
 74
     1
 75
     0
 76
     0
 77
     1
 78
     8
170
     0
171
     2
172
     0
173
     0
174
     0
175
     0
176
   256
177
   256
178
     2
  0
DIMSTYLE
  2
AM_ISO$6
 70
     0
  3

  4
"
  5

  6

  7

 40
1.0
 41
2.5
 42
1.0
 43
10.0
 44
1.0
 45
0.0
 46
0.0
 47
0.1
 48
0.1
140
3.5
141
0.0
142
0.0
143
0.0393701
144
1.0
145
0.0
146
0.71
147
1.5
 71
     0
 72
     0
 73
     0
 74
     0
 75
     0
 76
     0
 77
     0
 78
     8
170
     0
171
     2
172
     1
173
     0
174
     0
175
     0
176
   256
177
   256
178
     2
  0
DIMSTYLE
  2
AM_ISO$7
 70
     0
  3

  4
"
  5

  6

  7

 40
1.0
 41
2.5
 42
1.0
 43
10.0
 44
1.0
 45
0.0
 46
0.0
 47
0.1
 48
0.1
140
5.0
141
0.0
142
0.0
143
0.0393701
144
1.0
145
0.0
146
0.71
147
1.5
 71
     0
 72
     0
 73
     0
 74
     0
 75
     0
 76
     0
 77
     1
 78
     8
170
     0
171
     2
172
     1
173
     0
174
     0
175
     0
176
   256
177
   256
178
     2
  0
DIMSTYLE
  2
AM_ISO$SF
 70
     0
  3

  4
"
  5

  6

  7

 40
1.0
 41
2.5
 42
1.0
 43
10.0
 44
1.0
 45
0.0
 46
0.0
 47
0.1
 48
0.1
140
3.5
141
0.0
142
0.0
143
0.0393701
144
1.0
145
0.0
146
0.71
147
1.5
 71
     0
 72
     0
 73
     0
 74
     0
 75
     1
 76
     1
 77
     1
 78
     8
170
     0
171
     2
172
     1
173
     0
174
     0
175
     0
176
   256
177
   256
178
     2
  0
DIMSTYLE
  2
AM_ISO$SH
 70
     0
  3

  4
"
  5

  6
GENAXEH
  7

 40
1.0
 41
2.5
 42
1.0
 43
10.0
 44
1.0
 45
0.0
 46
0.0
 47
0.1
 48
0.1
140
3.5
141
0.0
142
0.0
143
0.0393701
144
2.0
145
0.0
146
0.71
147
1.5
 71
     0
 72
     0
 73
     0
 74
     0
 75
     1
 76
     1
 77
     1
 78
     8
170
     0
171
     2
172
     1
173
     1
174
     0
175
     0
176
   256
177
   256
178
     2
  0
DIMSTYLE
  2
AM_JIS
 70
     0
  3

  4
"
  5

  6

  7

 40
1.0
 41
2.0
 42
1.0
 43
8.0
 44
1.0
 45
0.0
 46
0.0
 47
0.1
 48
0.1
140
2.5
141
0.0
142
0.0
143
0.0393701
144
1.0
145
0.0
146
0.71
147
1.5
 71
     0
 72
     0
 73
     0
 74
     0
 75
     0
 76
     0
 77
     3
 78
     8
170
     0
171
     2
172
     1
173
     0
174
     0
175
     0
176
     2
177
     2
178
     4
  0
DIMSTYLE
  2
AM_JIS$3
 70
     0
  3

  4
"
  5

  6

  7

 40
1.0
 41
2.0
 42
1.0
 43
10.0
 44
1.0
 45
0.0
 46
0.0
 47
0.1
 48
0.1
140
2.5
141
0.0
142
0.0
143
0.0393701
144
1.0
145
0.0
146
0.71
147
1.5
 71
     0
 72
     0
 73
     0
 74
     1
 75
     0
 76
     0
 77
     3
 78
     8
170
     0
171
     2
172
     0
173
     0
174
     0
175
     0
176
     2
177
     2
178
     4
  0
DIMSTYLE
  2
AM_JIS$4
 70
     0
  3

  4
"
  5

  6

  7

 40
1.0
 41
2.0
 42
1.0
 43
10.0
 44
1.0
 45
0.0
 46
0.0
 47
0.1
 48
0.1
140
2.5
141
0.0
142
0.0
143
0.0393701
144
1.0
145
0.0
146
0.71
147
1.5
 71
     0
 72
     0
 73
     0
 74
     0
 75
     0
 76
     0
 77
     3
 78
     8
170
     0
171
     2
172
     0
173
     0
174
     0
175
     0
176
     2
177
     2
178
     4
  0
DIMSTYLE
  2
AM_JIS$6
 70
     0
  3

  4
"
  5

  6

  7

 40
1.0
 41
2.0
 42
1.0
 43
10.0
 44
1.0
 45
0.0
 46
0.0
 47
0.1
 48
0.1
140
2.5
141
0.0
142
0.0
143
0.0393701
144
1.0
145
0.0
146
0.71
147
1.5
 71
     0
 72
     0
 73
     0
 74
     0
 75
     0
 76
     0
 77
     0
 78
     8
170
     0
171
     2
172
     1
173
     0
174
     0
175
     0
176
     2
177
     2
178
     4
  0
DIMSTYLE
  2
AM_JIS$7
 70
     0
  3

  4
"
  5

  6
OPEN30
  7
OPEN30
 40
1.0
 41
2.0
 42
1.0
 43
10.0
 44
1.0
 45
0.0
 46
0.0
 47
0.1
 48
0.1
140
2.5
141
0.0
142
0.0
143
0.0393701
144
1.0
145
0.0
146
0.71
147
1.5
 71
     0
 72
     0
 73
     0
 74
     0
 75
     0
 76
     0
 77
     3
 78
     8
170
     0
171
     2
172
     1
173
     0
174
     0
175
     0
176
     2
177
     2
178
     4
  0
DIMSTYLE
  2
AM_JIS$SF
 70
     0
  3

  4
"
  5

  6

  7

 40
1.0
 41
2.0
 42
1.0
 43
10.0
 44
1.0
 45
0.0
 46
0.0
 47
0.1
 48
0.1
140
2.5
141
0.0
142
0.0
143
0.0393701
144
1.0
145
0.0
146
0.71
147
1.5
 71
     0
 72
     0
 73
     0
 74
     0
 75
     1
 76
     1
 77
     3
 78
     8
170
     0
171
     2
172
     1
173
     0
174
     0
175
     0
176
     2
177
     2
178
     4
  0
DIMSTYLE
  2
AM_JIS$SH
 70
     0
  3

  4
"
  5

  6
GENAXEH
  7

 40
1.0
 41
2.0
 42
1.0
 43
10.0
 44
1.0
 45
0.0
 46
0.0
 47
0.1
 48
0.1
140
2.5
141
0.0
142
0.0
143
0.0393701
144
2.0
145
0.0
146
0.71
147
1.5
 71
     0
 72
     0
 73
     0
 74
     0
 75
     1
 76
     1
 77
     3
 78
     8
170
     0
171
     2
172
     1
173
     1
174
     0
175
     0
176
     2
177
     2
178
     4
  0
DIMSTYLE
  2
AM_JIS$0
 70
     0
  3

  4
"
  5

  6

  7

 40
1.0
 41
2.0
 42
1.0
 43
8.0
 44
1.0
 45
0.0
 46
0.0
 47
0.1
 48
0.1
140
2.5
141
0.0
142
0.0
143
0.0393701
144
1.0
145
0.0
146
0.71
147
1.5
 71
     0
 72
     0
 73
     0
 74
     0
 75
     0
 76
     0
 77
     3
 78
     8
170
     0
171
     2
172
     1
173
     0
174
     0
175
     0
176
     2
177
     2
178
     4
  0
ENDTAB
  0
ENDSEC
  0
SECTION
  2
BLOCKS
  0
BLOCK
  8
0
  2
$MODEL_SPACE
 70
     0
 10
0.0
 20
0.0
 30
0.0
  3
$MODEL_SPACE
  1

  0
ENDBLK
  5
77
  8
0
  0
BLOCK
 67
     1
  8
0
  2
$PAPER_SPACE
 70
     0
 10
0.0
 20
0.0
 30
0.0
  3
$PAPER_SPACE
  1

  0
ENDBLK
  5
73
 67
     1
  8
0
  0
BLOCK
  8
0
  2
GENAXEH
 70
     0
 10
0.0
 20
0.0
 30
0.0
  3
GENAXEH
  1

  0
LINE
  5
BE26
  8
0
 10
-1.0
 20
0.0
 30
0.0
 11
1.0
 21
0.0
 31
0.0
  0
ENDBLK
  5
BE27
  8
0
  0
BLOCK
  8
0
  6
BYBLOCK
 62
     0
  2
$6-45
 70
     0
 10
0.0
 20
0.0
 30
0.0
  3
$6-45
  1

  0
ARC
  5
9424
  8
0
  6
CONTINUOUS
 62
     0
 10
-2.6499939999999902
 20
2.800201000000015
 30
0.0
 40
2.6003989999999999
 50
89.999982000000799
 51
179.99997799999841
  0
ARC
  5
9425
  8
0
  6
CONTINUOUS
 62
     0
 10
2.6499939999999902
 20
2.800201000000015
 30
0.0
 40
2.600403
 50
0.0
 51
89.999982000000799
  0
LINE
  5
9426
  8
0
  6
CONTINUOUS
 62
     0
 10
0.0660249999999678
 20
0.0
 30
0.0
 11
-0.7999999999999548
 21
1.5
 31
0.0
  0
LINE
  5
9427
  8
0
  6
CONTINUOUS
 62
     0
 10
1.0660249999999669
 20
0.0
 30
0.0
 11
0.2000000000000455
 21
1.5
 31
0.0
  0
LINE
  5
9428
  8
0
  6
CONTINUOUS
 62
     0
 10
6.1000000000000218
 20
0.0
 30
0.0
 11
-6.1000000000000218
 21
0.0
 31
0.0
  0
LINE
  5
9429
  8
0
  6
CONTINUOUS
 62
     0
 10
6.1000000000000218
 20
1.5
 30
0.0
 11
6.1000000000000218
 21
0.0
 31
0.0
  0
LINE
  5
942A
  8
0
  6
CONTINUOUS
 62
     0
 10
-6.1000000000000218
 20
1.5
 30
0.0
 11
-6.1000000000000218
 21
0.0
 31
0.0
  0
LINE
  5
942B
  8
0
  6
CONTINUOUS
 62
     0
 10
2.6499939999999902
 20
5.3999939999999906
 30
0.0
 11
-2.6499939999999902
 21
5.3999939999999906
 31
0.0
  0
LINE
  5
942C
  8
0
  6
CONTINUOUS
 62
     0
 10
6.1000000000000218
 20
1.5
 30
0.0
 11
-6.1000000000000218
 21
1.5
 31
0.0
  0
LINE
  5
942D
  8
0
  6
CONTINUOUS
 62
     0
 10
-5.25
 20
1.5
 30
0.0
 11
-5.25
 21
2.800201000000015
 31
0.0
  0
LINE
  5
942E
  8
0
  6
CONTINUOUS
 62
     0
 10
5.25
 20
1.5
 30
0.0
 11
5.25
 21
2.800201000000015
 31
0.0
  0
ENDBLK
  5
942F
  8
0
  6
BYBLOCK
 62
     0
  0
BLOCK
  8
0
  2
_OPEN30
 70
     0
 10
0.0
 20
0.0
 30
0.0
  3
_OPEN30
  1

  0
LINE
  5
BE6D
  8
0
  6
BYBLOCK
 62
     0
 10
-1.0
 20
0.26794919
 30
0.0
 11
0.0
 21
0.0
 31
0.0
  0
LINE
  5
BE6E
  8
0
  6
BYBLOCK
 62
     0
 10
0.0
 20
0.0
 30
0.0
 11
-1.0
 21
-0.26794919
 31
0.0
  0
LINE
  5
BE6F
  8
0
  6
BYBLOCK
 62
     0
 10
0.0
 20
0.0
 30
0.0
 11
-1.0
 21
0.0
 31
0.0
  0
ENDBLK
  5
BE70
  8
0
  0
BLOCK
  8
0
  2
_ACMFILLEDHALF
 70
     0
 10
0.0
 20
0.0
 30
0.0
  3
_ACMFILLEDHALF
  1

  0
TRACE
  5
BF2F
  8
0
  6
CONTINUOUS
 62
     0
 10
-0.8
 20
0.0
 30
0.0
 11
-1.0
 21
0.166666666
 31
0.0
 12
0.0
 22
0.0
 32
0.0
 13
0.0
 23
0.0
 33
0.0
  0
LINE
  5
BF30
  8
0
  6
CONTINUOUS
 62
     0
 10
-1.0
 20
0.0
 30
0.0
 11
-0.8
 21
0.0
 31
0.0
  0
ENDBLK
  5
BF31
  8
0
  0
ENDSEC
  0
SECTION
  2
ENTITIES
  0
LINE
  5
7DE2
  8
0
 10
639.86901153174335
 20
557.95955013268849
 30
0.0
 11
639.86901153174335
 21
554.95958013268978
 31
0.0
  0
LINE
  5
7DE3
  8
0
 10
639.86901153174335
 20
557.95955013268849
 30
0.0
 11
695.86901153174449
 21
557.95955013268849
 31
0.0
  0
LINE
  5
7DE4
  8
0
 10
695.86901153174449
 20
512.95955013268849
 30
0.0
 11
695.86901153174449
 21
557.95955013268849
 31
0.0
  0
LINE
  5
7DE5
  8
0
 10
625.86901153174358
 20
511.45955013268849
 30
0.0
 11
625.86901153174358
 21
556.45955013268815
 31
0.0
  0
LINE
  5
7DE6
  8
0
 10
621.86906153174505
 20
511.45955013268849
 30
0.0
 11
625.86901153174358
 21
511.45955013268849
 31
0.0
  0
LINE
  5
7DE7
  8
0
 10
621.86906153174505
 20
556.45955013268815
 30
0.0
 11
625.86901153174358
 21
556.45955013268815
 31
0.0
  0
LINE
  5
7DE8
  8
0
 10
625.86901153174358
 20
512.95955013268849
 30
0.0
 11
695.86901153174449
 21
512.95955013268849
 31
0.0
  0
LINE
  5
7DE9
  8
0
 10
625.86901153174358
 20
554.95958013268978
 30
0.0
 11
695.86901153174449
 21
554.95958013268978
 31
0.0
  0
LINE
  5
7DEA
  8
0
 10
503.86901153174449
 20
417.50795013268851
 30
0.0
 11
503.86901153174449
 21
625.95953513268978
 31
0.0
  0
LINE
  5
7DEB
  8
0
 10
1046.4249356249691
 20
557.95955013268849
 30
0.0
 11
1058.424965624969
 21
557.95955013268849
 31
0.0
  0
LINE
  5
7DEC
  8
0
 10
1058.424965624969
 20
557.95955013268849
 30
0.0
 11
1058.424965624969
 21
549.95958013268955
 31
0.0
  0
LINE
  5
7DED
  8
0
 10
1046.4249356249691
 20
557.95955013268849
 30
0.0
 11
1046.4249356249691
 21
549.95958013268955
 31
0.0
  0
LINE
  5
7DEE
  8
0
 10
1046.4249356249691
 20
549.95958013268955
 30
0.0
 11
1058.424965624969
 21
549.95958013268955
 31
0.0
  0
LINE
  5
7DF7
  8
0
 10
492.12501153174372
 20
617.20313513268854
 30
0.0
 11
518.86901153174335
 21
617.20313513268854
 31
0.0
  0
LINE
  5
7DF8
  8
0
 10
521.62666153174484
 20
478.04466013268819
 30
0.0
 11
534.86251153174487
 21
487.95463513268851
 31
0.0
  0
LINE
  5
7DF9
  8
0
 10
524.26571153174382
 20
516.44710013268855
 30
0.0
 11
536.40436153174335
 21
502.53370513268982
 31
0.0
  0
LINE
  5
7DFA
  8
0
 10
520.23541153174335
 20
590.35333513268824
 30
0.0
 11
532.03681153174375
 21
594.29473513268863
 31
0.0
  0
LINE
  5
7DFB
  8
0
 10
524.06806153174375
 20
618.13653513268855
 30
0.0
 11
533.89411153174331
 21
612.42548513268923
 31
0.0
  0
LINE
  5
7DFC
  8
0
 10
503.86901153174449
 20
600.28378513268854
 30
0.0
 11
515.86901153174335
 21
600.28378513268854
 31
0.0
  0
LINE
  5
7DFD
  8
0
 10
503.86901153174449
 20
618.54283513268979
 30
0.0
 11
522.56051153174326
 21
618.54283513268979
 31
0.0
  0
LINE
  5
7DFE
  8
0
 10
977.76575562496714
 20
611.13108513268821
 30
0.0
 11
972.8830056249675
 21
592.90843513268965
 31
0.0
  0
LINE
  5
7DFF
  8
0
 10
1114.836770624968
 20
618.20208513268972
 30
0.0
 11
1096.6141456249679
 21
613.31933513268859
 31
0.0
  0
LINE
  5
7E00
  8
0
 10
1189.496045624966
 20
503.0306251326885
 30
0.0
 11
1176.1561706249699
 21
516.37050013268833
 31
0.0
  0
LINE
  5
7E01
  8
0
 10
1189.496045624966
 20
488.88850513268932
 30
0.0
 11
1181.6850706249679
 21
481.07750013268827
 31
0.0
  0
LINE
  5
7E02
  8
0
 10
915.35390062496708
 20
503.0306251326885
 30
0.0
 11
928.69380062496884
 21
516.37053013268962
 31
0.0
  0
LINE
  5
7E03
  8
0
 10
588.92731153174327
 20
578.13238513268971
 30
0.0
 11
583.86901153174358
 21
578.13238513268971
 31
0.0
  0
LINE
  5
7E04
  8
0
 10
1141.1249506249669
 20
379.95958013268961
 30
0.0
 11
1141.1249506249669
 21
358.95954513268862
 31
0.0
  0
LINE
  5
7E05
  8
0
 10
585.86901153174324
 20
429.55742013268849
 30
0.0
 11
577.35231153174323
 21
429.55742013268849
 31
0.0
  0
LINE
  5
7E06
  8
0
 10
1127.0842406249669
 20
611.13103513268845
 30
0.0
 11
1131.9669606249679
 21
592.90843513268965
 31
0.0
  0
LINE
  5
7E07
  8
0
 10
507.82106153174237
 20
422.60740513268968
 30
0.0
 11
480.27101153174448
 21
387.05900513268853
 31
0.0
  0
LINE
  5
7E08
  8
0
 10
503.86901153174449
 20
510.97133013268848
 30
0.0
 11
515.86901153174335
 21
510.97133013268848
 31
0.0
  0
LINE
  5
7E09
  8
0
 10
1137.424965624969
 20
358.95954513268862
 30
0.0
 11
1192.424970624967
 21
358.95954513268862
 31
0.0
  0
LINE
  5
7E0A
  8
0
 10
990.01319062496827
 20
618.20213513268754
 30
0.0
 11
1008.235815624966
 21
613.31938513268824
 31
0.0
  0
LINE
  5
7E0B
  8
0
 10
508.86901153174358
 20
469.77147013268848
 30
0.0
 11
518.86901153174335
 21
469.77147013268848
 31
0.0
  0
LINE
  5
7E0C
  8
0
 10
523.36901153174335
 20
595.43523513268849
 30
0.0
 11
523.36901153174335
 21
616.60843513268856
 31
0.0
  0
LINE
  5
7E0D
  8
0
 10
967.42496562496899
 20
359.95957513268968
 30
0.0
 11
967.42496562496899
 21
358.95954513268862
 31
0.0
  0
LINE
  5
7E0E
  8
0
 10
518.86901153174335
 20
513.97133013268854
 30
0.0
 11
518.86901153174335
 21
597.28378513268979
 31
0.0
  0
LINE
  5
7E0F
  8
0
 10
523.36901153174335
 20
508.44737013268968
 30
0.0
 11
523.36901153174335
 21
481.33522013268953
 31
0.0
  0
LINE
  5
7E10
  8
0
 10
518.86901153174335
 20
476.34922513268953
 30
0.0
 11
518.86901153174335
 21
469.77147013268848
 31
0.0
  0
LINE
  5
7E11
  8
0
 10
912.42500062496902
 20
378.95954513268862
 30
0.0
 11
912.42500062496902
 21
358.95954513268862
 31
0.0
  0
LINE
  5
7E12
  8
0
 10
971.42493562496884
 20
363.95954513268953
 30
0.0
 11
1133.7907506249669
 21
363.95954513268953
 31
0.0
  0
LINE
  5
7E13
  8
0
 10
1148.424965624969
 20
383.95954513268862
 30
0.0
 11
1187.424970624967
 21
383.95954513268862
 31
0.0
  0
LINE
  5
7E14
  8
0
 10
963.72498562496855
 20
379.95958013268961
 30
0.0
 11
963.72498562496855
 21
358.95954513268862
 31
0.0
  0
LINE
  5
7E15
  8
0
 10
1137.424965624969
 20
359.95957513268968
 30
0.0
 11
1137.424965624969
 21
358.95954513268862
 31
0.0
  0
LINE
  5
7E16
  8
0
 10
1192.424970624967
 20
378.95954513268862
 30
0.0
 11
1192.424970624967
 21
358.95954513268862
 31
0.0
  0
LINE
  5
7E17
  8
0
 10
912.42500062496902
 20
358.95954513268862
 30
0.0
 11
967.42496562496899
 21
358.95954513268862
 31
0.0
  0
LINE
  5
7E18
  8
0
 10
915.35390062496708
 20
488.88850513268932
 30
0.0
 11
923.16485062496872
 21
481.07753013268831
 31
0.0
  0
LINE
  5
7E19
  8
0
 10
917.42500062496913
 20
383.95954513268862
 30
0.0
 11
959.72495062496876
 21
383.95954513268862
 31
0.0
  0
LINE
  5
7E1A
  8
0
 10
601.86906153174414
 20
593.95953513268967
 30
0.0
 11
612.86901153174358
 21
593.95953513268967
 31
0.0
  0
LINE
  5
7E1B
  8
0
 10
503.86901153174449
 20
479.34926013268978
 30
0.0
 11
515.86901153174335
 21
479.34926013268978
 31
0.0
  0
LINE
  5
7E1C
  8
0
 10
508.86901153174358
 20
469.77147013268848
 30
0.0
 11
508.86901153174358
 21
425.6702401326886
 31
0.0
  0
LINE
  5
7E1D
  8
0
 10
928.88000062496724
 20
511.35115013268847
 30
0.0
 11
912.46330062496816
 21
379.57768013268878
 31
0.0
  0
LINE
  5
7E1E
  8
0
 10
616.74761153174359
 20
580.08093513268966
 30
0.0
 11
620.99031153174315
 21
575.83823513268965
 31
0.0
  0
LINE
  5
7E1F
  8
0
 10
573.86901153174324
 20
568.13240013268864
 30
0.0
 11
573.86901153174324
 21
391.95958013268978
 31
0.0
  0
LINE
  5
7E20
  8
0
 10
518.86901153174335
 20
618.54283513268979
 30
0.0
 11
518.86901153174335
 21
623.50438513268864
 31
0.0
  0
LINE
  5
7E21
  8
0
 10
615.86901153174324
 20
533.95955013268838
 30
0.0
 11
615.86901153174324
 21
387.70555013268859
 31
0.0
  0
LINE
  5
7E22
  8
0
 10
520.79926153174358
 20
620.08213513268856
 30
0.0
 11
586.14821153174341
 21
617.80008513268956
 31
0.0
  0
LINE
  5
7E23
  8
0
 10
616.74766153174414
 20
493.8382401326885
 30
0.0
 11
620.99036153174382
 21
498.08088513268848
 31
0.0
  0
LINE
  5
7E24
  8
0
 10
621.86906153174505
 20
379.95958013268961
 30
0.0
 11
621.86906153174505
 21
358.95954513268862
 31
0.0
  0
LINE
  5
7E25
  8
0
 10
581.86906153174505
 20
383.95954513268862
 30
0.0
 11
617.86901153174358
 21
383.95954513268862
 31
0.0
  0
LINE
  5
7E26
  8
0
 10
503.86901153174449
 20
625.95953513268978
 30
0.0
 11
516.93886153174344
 21
625.50318513268974
 31
0.0
  0
LINE
  5
7E27
  8
0
 10
593.86901153174335
 20
437.55742013268849
 30
0.0
 11
593.86901153174335
 21
609.80498513268969
 31
0.0
  0
LINE
  5
7E28
  8
0
 10
615.86901153174324
 20
533.95955013268838
 30
0.0
 11
615.86901153174324
 21
590.95953513268967
 31
0.0
  0
LINE
  5
7E29
  8
0
 10
958.42496562496899
 20
577.59438513268844
 30
0.0
 11
958.42496562496899
 21
461.94969013268849
 31
0.0
  0
LINE
  5
7E2A
  8
0
 10
621.86906153174505
 20
533.95955013268838
 30
0.0
 11
621.86906153174505
 21
573.7169351326886
 31
0.0
  0
LINE
  5
7E2B
  8
0
 10
621.86906153174505
 20
533.95955013268838
 30
0.0
 11
621.86906153174505
 21
500.20219513268961
 31
0.0
  0
LINE
  5
7E2C
  8
0
 10
429.86901153174358
 20
358.95954513268862
 30
0.0
 11
621.86906153174505
 21
358.95954513268862
 31
0.0
  0
LINE
  5
7E2D
  8
0
 10
433.86901153174358
 20
383.95954513268862
 30
0.0
 11
473.94776153174411
 21
383.95954513268862
 31
0.0
  0
LINE
  5
7E2E
  8
0
 10
429.86901153174358
 20
379.95958013268961
 30
0.0
 11
429.86901153174358
 21
358.95954513268862
 31
0.0
  0
LINE
  5
7E2F
  8
0
 10
1175.969920624967
 20
511.35115013268847
 30
0.0
 11
1192.3866056249681
 21
379.57771013268871
 31
0.0
  0
LINE
  5
7E30
  8
0
 10
964.42496562496865
 20
505.95955013268821
 30
0.0
 11
964.42496562496865
 21
391.95958013268978
 31
0.0
  0
LINE
  5
7E31
  8
0
 10
1140.424965624969
 20
505.95955013268821
 30
0.0
 11
1140.424965624969
 21
391.95958013268978
 31
0.0
  0
LINE
  5
7E32
  8
0
 10
1146.424965624969
 20
577.59438513268844
 30
0.0
 11
1146.424965624969
 21
458.3449251326885
 31
0.0
  0
LINE
  5
7E33
  8
0
 10
985.42496562496899
 20
378.95954513268862
 30
0.0
 11
1119.424965624969
 21
378.95954513268862
 31
0.0
  0
LINE
  5
7E34
  8
0
 10
982.07050562496863
 20
373.69023013268861
 30
0.0
 11
1122.779430624968
 21
373.69023013268861
 31
0.0
  0
LINE
  5
7E35
  8
0
 10
1048.424965624969
 20
662.95958513268965
 30
0.0
 11
1048.424965624969
 21
629.45958513268852
 31
0.0
  0
LINE
  5
7E36
  8
0
 10
1056.4249356249679
 20
662.95958513268965
 30
0.0
 11
1056.4249356249679
 21
629.45958513268852
 31
0.0
  0
LINE
  5
7E37
  8
0
 10
1042.456430624969
 20
625.57683513268978
 30
0.0
 11
1044.137215624967
 21
631.84963513268849
 31
0.0
  0
LINE
  5
7E38
  8
0
 10
1062.3935656249689
 20
625.57678513268854
 30
0.0
 11
1060.7127756249649
 21
631.84963513268849
 31
0.0
  0
LINE
  5
7E39
  8
0
 10
1048.424965624969
 20
633.22098513268975
 30
0.0
 11
1044.921550624967
 21
632.57418513268863
 31
0.0
  0
LINE
  5
7E3A
  8
0
 10
1056.4249356249679
 20
633.22103513268826
 30
0.0
 11
1059.9283556249691
 21
632.57418513268863
 31
0.0
  0
LINE
  5
7E3B
  8
0
 10
501.86906153174408
 20
625.95953513268978
 30
0.0
 11
503.86901153174449
 21
625.95953513268978
 31
0.0
  0
LINE
  5
7E3C
  8
0
 10
490.86901153174318
 20
480.94777013268981
 30
0.0
 11
503.86901153174449
 21
480.94777013268981
 31
0.0
  0
LINE
  5
7E3D
  8
0
 10
490.86901153174318
 20
510.97133013268848
 30
0.0
 11
503.86901153174449
 21
510.97133013268848
 31
0.0
  0
LINE
  5
7E3E
  8
0
 10
490.86901153174318
 20
600.28378513268854
 30
0.0
 11
503.86901153174449
 21
600.28378513268854
 31
0.0
  0
LINE
  5
7E3F
  8
0
 10
490.86901153174318
 20
618.54283513268979
 30
0.0
 11
503.86901153174449
 21
618.54283513268979
 31
0.0
  0
LINE
  5
7E40
  8
0
 10
492.79911153174498
 20
625.57298513268847
 30
0.0
 11
503.86891153174219
 21
625.95958513268852
 31
0.0
  0
LINE
  5
7E41
  8
0
 10
476.86906153174408
 20
581.02939649344762
 30
0.0
 11
476.86906153174408
 21
623.95953513268967
 31
0.0
  0
LINE
  5
7E42
  8
0
 10
474.86901153174449
 20
410.95955013268963
 30
0.0
 11
487.97371153174339
 21
410.50190513268848
 31
0.0
  0
LINE
  5
7E43
  8
0
 10
490.86901153174318
 20
400.7337501326885
 30
0.0
 11
490.86901153174318
 21
623.57418513268863
 31
0.0
  0
LINE
  5
7E44
  8
0
 10
474.86901153174449
 20
580.95955013268815
 30
0.0
 11
487.97361153174501
 21
581.41719300121656
 31
0.0
  0
LINE
  5
7E45
  8
0
 10
477.54616153174481
 20
625.45958513268852
 30
0.0
 11
492.20161153174331
 21
625.45958513268852
 31
0.0
  0
LINE
  5
7E46
  8
0
 10
480.05186153174373
 20
632.45958513268988
 30
0.0
 11
495.68611153174379
 21
632.45958513268988
 31
0.0
  0
LINE
  5
7E47
  8
0
 10
497.79186153174339
 20
625.74723513268987
 30
0.0
 11
496.15676153174479
 21
631.84958513268862
 31
0.0
  0
LINE
  5
7E48
  8
0
 10
477.86896153174359
 20
625.45953513268864
 30
0.0
 11
479.58116153174387
 21
631.84963513268849
 31
0.0
  0
LINE
  5
7E49
  8
0
 10
480.36566153174363
 20
632.57418513268863
 30
0.0
 11
487.86906153174232
 21
633.95953513268978
 31
0.0
  0
LINE
  5
7E4A
  8
0
 10
487.86896153174479
 20
633.95958513268965
 30
0.0
 11
495.37236153174348
 21
632.57418513268863
 31
0.0
  0
ARC
  5
7E4B
  8
0
 10
1052.424965624969
 20
533.95955013268838
 30
0.0
 40
20.9999985
 50
106.6015500000168
 51
73.398452000021464
  0
CIRCLE
  5
7E52
  8
0
 10
1052.424965624969
 20
533.95955013268838
 30
0.0
 40
3.5000000500000001
  0
CIRCLE
  5
7E53
  8
0
 10
1052.424965624969
 20
533.95955013268838
 30
0.0
 40
5.0
  0
ARC
  5
7E54
  8
0
 10
515.86901153174335
 20
476.34922513268953
 30
0.0
 40
3.0000000500000001
 50
0.0
 51
90.000002999984659
  0
ARC
  5
7E55
  8
0
 10
522.00506153174274
 20
514.47484013268956
 30
0.0
 40
3.0000000500000001
 50
41.102821999973841
 51
90.000002999984659
  0
ARC
  5
7E56
  8
0
 10
515.86901153174335
 20
597.28378513268979
 30
0.0
 40
3.0000000500000001
 50
0.0
 51
90.000002999984659
  0
ARC
  5
7E57
  8
0
 10
515.86901153174335
 20
513.97133013268854
 30
0.0
 40
3.0000000500000001
 50
270.0
 51
0.0
  0
ARC
  5
7E58
  8
0
 10
528.86901153174335
 20
495.95955013268849
 30
0.0
 40
10.0
 50
306.82304000001051
 51
41.102821999973841
  0
ARC
  5
7E59
  8
0
 10
528.86901153174335
 20
603.77973513268853
 30
0.0
 40
10.0
 50
288.46821000003149
 51
59.83387800001509
  0
ARC
  5
7E5A
  8
0
 10
922.42500062496902
 20
495.95955013268849
 30
0.0
 40
10.0
 50
135.00000000000861
 51
224.99999999999139
  0
ARC
  5
7E5B
  8
0
 10
1117.424965624969
 20
608.54283513268865
 30
0.0
 40
10.0
 50
14.99999999999446
 51
104.9999999999945
  0
ARC
  5
7E5C
  8
0
 10
1182.424970624967
 20
495.95955013268849
 30
0.0
 40
10.0
 50
315.00000000000858
 51
45.000001000015807
  0
ARC
  5
7E5D
  8
0
 10
585.86901153174324
 20
437.55742013268849
 30
0.0
 40
8.0
 50
270.0
 51
0.0
  0
ARC
  5
7E5E
  8
0
 10
959.72495062496876
 20
379.95958013268961
 30
0.0
 40
4.000000049999997
 50
0.0
 51
90.000002999984659
  0
ARC
  5
7E5F
  8
0
 10
1052.424965624969
 20
495.95955013268849
 30
0.0
 40
130.0
 50
127.37550000001561
 51
172.62449000000629
  0
ARC
  5
7E60
  8
0
 10
522.88136153174344
 20
594.39988513268975
 30
0.0
 40
3.0000000500000001
 50
270.0
 51
288.46822000003601
  0
ARC
  5
7E61
  8
0
 10
522.56051153174326
 20
615.54288513268955
 30
0.0
 40
3.0000000500000001
 50
59.83387800001509
 51
90.000002999984659
  0
ARC
  5
7E62
  8
0
 10
987.42496562496876
 20
608.54283513268865
 30
0.0
 40
10.0
 50
74.999999000015237
 51
164.99998999998439
  0
ARC
  5
7E63
  8
0
 10
1052.424965624969
 20
495.95955013268849
 30
0.0
 40
124.5
 50
7.101483899987806
 51
172.8985199999988
  0
ARC
  5
7E64
  8
0
 10
1052.424965624969
 20
495.95955013268849
 30
0.0
 40
130.0
 50
187.37550999999351
 51
189.6244600000114
  0
ARC
  5
7E65
  8
0
 10
1052.424965624969
 20
495.95955013268849
 30
0.0
 40
130.0
 50
67.375506000006226
 51
112.6244900000067
  0
ARC
  5
7E66
  8
0
 10
971.42493562496884
 20
359.95957513268968
 30
0.0
 40
4.000000049999997
 50
99.488295999983904
 51
180.000010000001
  0
ARC
  5
7E67
  8
0
 10
1133.424965624969
 20
359.95957513268968
 30
0.0
 40
4.000000049999997
 50
0.0
 51
80.511701999969631
  0
ARC
  5
7E68
  8
0
 10
917.42500062496913
 20
378.95954513268862
 30
0.0
 40
5.0
 50
90.000002999984659
 51
180.000010000001
  0
ARC
  5
7E69
  8
0
 10
1187.424970624967
 20
378.95954513268862
 30
0.0
 40
5.0
 50
0.0
 51
90.000002999984659
  0
ARC
  5
7E6A
  8
0
 10
583.86901153174358
 20
568.13240013268864
 30
0.0
 40
10.0
 50
90.000002999984659
 51
180.00001000000091
  0
CIRCLE
  5
7E6B
  8
0
 10
1052.424965624969
 20
533.95955013268838
 30
0.0
 40
41.000000499999992
  0
ARC
  5
7E6C
  8
0
 10
1145.1249506249681
 20
379.95958013268961
 30
0.0
 40
4.000000049999997
 50
90.000002999984659
 51
180.000010000001
  0
ARC
  5
7E6D
  8
0
 10
1148.424965624969
 20
391.95958013268978
 30
0.0
 40
8.0
 50
180.000010000001
 51
270.0
  0
ARC
  5
7E6E
  8
0
 10
1052.424965624969
 20
505.95955013268821
 30
0.0
 40
88.0
 50
0.0
 51
180.0
  0
ARC
  5
7E6F
  8
0
 10
1052.424965624969
 20
495.95955013268849
 30
0.0
 40
130.0
 50
7.3755072000040967
 51
52.624494000004269
  0
ARC
  5
7E70
  8
0
 10
956.42493562496873
 20
391.95958013268978
 30
0.0
 40
8.0
 50
270.0
 51
0.0
  0
ARC
  5
7E71
  8
0
 10
1052.424965624969
 20
461.94969013268849
 30
0.0
 40
93.999994999999984
 50
179.999989999999
 51
200.58195999998011
  0
ARC
  5
7E72
  8
0
 10
581.86906153174505
 20
391.95958013268978
 30
0.0
 40
8.0
 50
180.00001000000091
 51
270.0
  0
ARC
  5
7E73
  8
0
 10
612.86901153174358
 20
590.95953513268967
 30
0.0
 40
3.0000000500000001
 50
0.0
 51
90.000002999984659
  0
ARC
  5
7E74
  8
0
 10
516.86906153174232
 20
623.50438513268864
 30
0.0
 40
2.0000000500000001
 50
0.0
 51
87.999999999996746
  0
ARC
  5
7E75
  8
0
 10
520.86901153174358
 20
622.08093513268977
 30
0.0
 40
2.0000000500000001
 50
179.999989999999
 51
268.00000999999259
  0
ARC
  5
7E76
  8
0
 10
601.86906153174414
 20
601.95958513268852
 30
0.0
 40
8.0
 50
180.00001000000091
 51
270.0
  0
ARC
  5
7E77
  8
0
 10
619.86901153174324
 20
387.70555013268859
 30
0.0
 40
4.000000049999997
 50
179.999989999999
 51
255.52248999999159
  0
ARC
  5
7E78
  8
0
 10
1052.424965624969
 20
495.95955013268849
 30
0.0
 40
130.0
 50
350.37554999999202
 51
352.62449000000652
  0
ARC
  5
7E79
  8
0
 10
617.86901153174358
 20
379.95958013268961
 30
0.0
 40
4.000000049999997
 50
0.0
 51
90.000002999984659
  0
ARC
  5
7E7A
  8
0
 10
1052.424965624969
 20
461.94969013268849
 30
0.0
 40
93.999994999999984
 50
339.9500199999581
 51
20.049976000000399
  0
ARC
  5
7E7B
  8
0
 10
473.94776153174411
 20
391.95958013268978
 30
0.0
 40
8.0
 50
270.0
 51
322.22432000001248
  0
ARC
  5
7E7C
  8
0
 10
1145.424965624969
 20
428.00859013268848
 30
0.0
 40
5.0
 50
159.95003000000679
 51
180.000010000001
  0
ARC
  5
7E7D
  8
0
 10
1145.424965624969
 20
495.89082513268852
 30
0.0
 40
5.0
 50
179.999989999999
 51
200.0499699999931
  0
ARC
  5
7E7E
  8
0
 10
503.86901153174449
 20
425.6702401326886
 30
0.0
 40
5.0
 50
322.22432000001248
 51
0.0
  0
ARC
  5
7E7F
  8
0
 10
433.86901153174358
 20
379.95958013268961
 30
0.0
 40
4.000000049999997
 50
90.000002999984659
 51
180.00001000000091
  0
ARC
  5
7E80
  8
0
 10
618.86901153174335
 20
491.7169351326886
 30
0.0
 40
3.0000000500000001
 50
135.00000000000861
 51
180.00001000000091
  0
ARC
  5
7E81
  8
0
 10
618.86901153174335
 20
573.7169351326886
 30
0.0
 40
3.0000000500000001
 50
0.0
 51
45.000001000015949
  0
ARC
  5
7E82
  8
0
 10
618.86901153174335
 20
500.20219513268961
 30
0.0
 40
3.0000000500000001
 50
315.00000000000853
 51
0.0
  0
ARC
  5
7E83
  8
0
 10
618.86901153174335
 20
582.20218513268856
 30
0.0
 40
3.0000000500000001
 50
179.999989999999
 51
224.99999999999139
  0
ARC
  5
7E84
  8
0
 10
969.44678562496711
 20
371.79539513268878
 30
0.0
 40
8.0
 50
279.48830000002238
 51
357.00554000001199
  0
ARC
  5
7E85
  8
0
 10
985.42496562496899
 20
370.95954513268862
 30
0.0
 40
8.0
 50
90.000002999984659
 51
177.00554000001191
  0
ARC
  5
7E86
  8
0
 10
1119.424965624969
 20
370.95954513268862
 30
0.0
 40
8.0
 50
2.994464400006688
 51
90.000002999984659
  0
ARC
  5
7E87
  8
0
 10
585.86901153174324
 20
609.80498513268969
 30
0.0
 40
8.0
 50
0.0
 51
87.999999999996746
  0
ARC
  5
7E88
  8
0
 10
919.62935062496877
 20
477.54197513268957
 30
0.0
 40
5.0
 50
352.89851999999883
 51
45.000001000015807
  0
ARC
  5
7E89
  8
0
 10
925.15825062496742
 20
519.90605013268851
 30
0.0
 40
5.0
 50
315.00000000000858
 51
349.34381999999653
  0
ARC
  5
7E8A
  8
0
 10
968.05332062496791
 20
594.20248513268973
 30
0.0
 40
5.0
 50
310.65617999998892
 51
345.00000000000551
  0
ARC
  5
7E8B
  8
0
 10
1009.529885624968
 20
618.14898513268975
 30
0.0
 40
5.0
 50
255.0000000000054
 51
289.34381999998988
  0
ARC
  5
7E8C
  8
0
 10
1095.3200456249681
 20
618.14898513268975
 30
0.0
 40
5.0
 50
250.6561800000101
 51
284.99999999999449
  0
ARC
  5
7E8D
  8
0
 10
1136.796610624968
 20
594.20248513268973
 30
0.0
 40
5.0
 50
195.00001000001549
 51
229.34382000001071
  0
ARC
  5
7E8E
  8
0
 10
1104.3581056249691
 20
620.57073513268847
 30
0.0
 40
5.0
 50
247.3755099999932
 51
284.99999999999449
  0
ARC
  5
7E8F
  8
0
 10
1179.691690624968
 20
519.90605013268851
 30
0.0
 40
5.0
 50
190.6561800000033
 51
224.99999999999139
  0
ARC
  5
7E90
  8
0
 10
1185.220590624969
 20
477.54197513268957
 30
0.0
 40
5.0
 50
135.00000000000861
 51
187.10149000000871
  0
ARC
  5
7E91
  8
0
 10
1000.491830624969
 20
620.57073513268847
 30
0.0
 40
5.0
 50
255.0000000000054
 51
292.62449000000669
  0
ARC
  5
7E92
  8
0
 10
1134.3748556249691
 20
603.24058513268847
 30
0.0
 40
5.0
 50
195.00001000001549
 51
232.6244999999841
  0
ARC
  5
7E93
  8
0
 10
1186.307995624966
 20
513.28972013268981
 30
0.0
 40
5.0
 50
187.37550999999351
 51
224.99999999999139
  0
ARC
  5
7E94
  8
0
 10
970.47507562496992
 20
603.24058513268847
 30
0.0
 40
5.0
 50
307.37550999997779
 51
345.00000000000551
  0
ARC
  5
7E95
  8
0
 10
918.54195062496785
 20
513.28972013268981
 30
0.0
 40
5.0
 50
315.00000000000858
 51
352.62449000000652
  0
ARC
  5
7E96
  8
0
 10
918.54195062496785
 20
478.62938013268848
 30
0.0
 40
5.0
 50
7.37550809999414
 51
45.000001000015807
  0
ARC
  5
7E97
  8
0
 10
1186.307995624966
 20
478.62938013268848
 30
0.0
 40
5.0
 50
135.00000000000861
 51
172.62449000000629
  0
ARC
  5
7E98
  8
0
 10
1135.4031156249671
 20
371.79539513268878
 30
0.0
 40
8.0
 50
182.9944599999879
 51
260.51169999997762
  0
ARC
  5
7E99
  8
0
 10
982.07050562496863
 20
368.69023013268952
 30
0.0
 40
5.0
 50
90.000002999984659
 51
166.18078000000591
  0
ARC
  5
7E9A
  8
0
 10
1122.779430624968
 20
368.69023013268952
 30
0.0
 40
5.0
 50
13.8192169999875
 51
90.000002999984659
  0
ARC
  5
7E9B
  8
0
 10
1052.424965624969
 20
662.95958513268965
 30
0.0
 40
4.000000049999997
 50
359.999989999999
 51
179.999989999999
  0
ARC
  5
7E9C
  8
0
 10
1046.4249356249691
 20
629.45958513268852
 30
0.0
 40
2.0000000500000001
 50
270.0
 51
0.0
  0
ARC
  5
7E9D
  8
0
 10
1058.424965624969
 20
629.45958513268852
 30
0.0
 40
2.0000000500000001
 50
179.999989999999
 51
270.0
  0
ARC
  5
7E9E
  8
0
 10
1045.103125624968
 20
631.59078513268969
 30
0.0
 40
1.0
 50
100.46071999998409
 51
164.99998999998439
  0
ARC
  5
7E9F
  8
0
 10
1059.746835624969
 20
631.59078513268969
 30
0.0
 40
1.0
 50
14.99999999999446
 51
79.539281000010362
  0
ARC
  5
7EA0
  8
0
 10
478.86901153174341
 20
623.95953513268967
 30
0.0
 40
2.0000000500000001
 50
131.4096200000067
 51
180.00001000000091
  0
ARC
  5
7EA1
  8
0
 10
487.86901153174358
 20
407.50373513268829
 30
0.0
 40
3.0000000500000001
 50
0.0
 51
87.999999999996746
  0
ARC
  5
7EA2
  8
0
 10
487.86901153174358
 20
584.41539300121678
 30
0.0
 40
3.0000000500000001
 50
272.0000000000033
 51
0.0
  0
ARC
  5
7EA3
  8
0
 10
492.86901153174358
 20
623.57418513268863
 30
0.0
 40
2.0000000500000001
 50
91.999997999994434
 51
180.00001000000091
  0
CIRCLE
  5
7EA4
  8
0
 10
487.86901153174358
 20
646.45953513268978
 30
0.0
 40
12.5
  0
ARC
  5
7EA5
  8
0
 10
487.86901153174358
 20
646.45953513268978
 30
0.0
 40
20.500000500000009
 50
304.61363999999003
 51
235.38634999999331
  0
ARC
  5
7EA6
  8
0
 10
501.78596153174328
 20
626.29608513268863
 30
0.0
 40
4.000000049999997
 50
124.6136500000063
 51
187.8682200000151
  0
ARC
  5
7EA7
  8
0
 10
473.95201153174219
 20
626.29608513268863
 30
0.0
 40
4.000000049999997
 50
347.9293300000013
 51
55.386359000030502
  0
ARC
  5
7EA8
  8
0
 10
480.54716153174508
 20
631.59078513268969
 30
0.0
 40
1.0
 50
100.46071999998409
 51
164.99998999998439
  0
ARC
  5
7EA9
  8
0
 10
495.1909115317435
 20
631.59078513268969
 30
0.0
 40
1.0
 50
14.999999999994451
 51
79.539281000010348
  0
LINE
  5
7EAB
  8
0
 10
1137.424967624969
 20
358.95954513268862
 30
0.0
 11
1187.4249716249681
 21
358.95954513268862
 31
0.0
  0
LINE
  5
7EAC
  8
0
  6
AM_ISO08W050
 10
133.79397971467
 20
495.95955013268849
 30
0.0
 11
561.34851040416152
 21
495.95955013268849
 31
0.0
  0
LINE
  5
7EAD
  8
0
  6
AM_ISO08W050
 10
541.64412053827164
 20
533.95955013268838
 30
0.0
 11
703.81341153174469
 21
533.95955013268838
 31
0.0
  0
LINE
  5
7EAE
  8
0
  6
ACJISTGL
 10
591.36906153174505
 20
383.95955013268849
 30
0.0
 11
591.36906153174505
 21
358.95954513268862
 31
0.0
  0
LINE
  5
7EAF
  8
0
  6
ACJISTGL
 10
610.36906153174505
 20
383.95955013268849
 30
0.0
 11
610.36906153174505
 21
358.95954513268862
 31
0.0
  0
LINE
  5
7EB0
  8
0
  6
ACJISTGL
 10
460.36906153174471
 20
383.95955013268849
 30
0.0
 11
460.36906153174471
 21
358.95954513268862
 31
0.0
  0
LINE
  5
7EB1
  8
0
  6
ACJISTGL
 10
441.36906153174129
 20
383.95955013268849
 30
0.0
 11
441.36906153174129
 21
358.95954513268862
 31
0.0
  0
LINE
  5
7EB2
  8
0
  6
AM_ISO08W050
 10
600.86901153174449
 20
385.9199651326885
 30
0.0
 11
600.86901153174449
 21
356.20182513268878
 31
0.0
  0
LINE
  5
7EB3
  8
0
  6
AM_ISO08W050
 10
450.86901153174449
 20
385.9199651326885
 30
0.0
 11
450.86901153174449
 21
356.20182513268878
 31
0.0
  0
LINE
  5
7EC1
  8
0
  6
AM_ISO08W050
 10
1052.424965624969
 20
672.08950830180959
 30
0.0
 11
1052.424965624969
 21
357.98997013268882
 31
0.0
  0
LINE
  5
7EC2
  8
0
  6
AM_ISO08W050
 10
1167.424965624969
 20
387.80970513268858
 30
0.0
 11
1167.424965624969
 21
351.98402013268878
 31
0.0
  0
LINE
  5
7EC3
  8
0
  6
AM_ISO08W050
 10
937.42495062497017
 20
388.46745013268861
 30
0.0
 11
937.42495062497017
 21
354.06791513268968
 31
0.0
  0
LINE
  5
7EC4
  8
0
  6
ACJISTGL
 10
1176.924965624969
 20
383.95954513268862
 30
0.0
 11
1176.924965624969
 21
358.95954513268862
 31
0.0
  0
LINE
  5
7EC5
  8
0
  6
ACJISTGL
 10
927.92495062497028
 20
383.95954513268862
 30
0.0
 11
927.92495062497028
 21
358.95954513268862
 31
0.0
  0
LINE
  5
7EC6
  8
0
  6
ACJISTGL
 10
1157.924965624969
 20
383.95954513268862
 30
0.0
 11
1157.924965624969
 21
358.95954513268862
 31
0.0
  0
LINE
  5
7EC7
  8
0
  6
ACJISTGL
 10
946.92499062497018
 20
383.95954513268862
 30
0.0
 11
946.92499062497018
 21
358.95954513268862
 31
0.0
  0
LINE
  5
7EC8
  8
0
  6
AM_ISO08W050
 10
922.42496562496865
 20
533.95955013268838
 30
0.0
 11
1182.424965624969
 21
533.95955013268838
 31
0.0
  0
LINE
  5
9674
  8
0
 10
474.86901153174449
 20
410.95955013268832
 30
0.0
 11
474.86901153174449
 21
580.95955013268815
 31
0.0
  0
LINE
  5
97E5
  8
0
 10
903.99832462496897
 20
468.21494113268818
 30
0.0
 11
902.11893862496856
 21
468.8989821326885
 31
0.0
  0
ARC
  5
97E6
  8
0
 10
891.42496562496899
 20
439.5175421326885
 30
0.0
 40
2.0
 50
339.99999899999892
 51
0.0
  0
ARC
  5
97E7
  8
0
 10
902.42496562496899
 20
540.58452213268833
 30
0.0
 40
9.0
 50
90.0
 51
180.0
  0
LINE
  5
97E8
  8
0
 10
893.42496562496899
 20
540.58452213268833
 30
0.0
 11
893.42496562496899
 21
439.5175421326885
 31
0.0
  0
ARC
  5
97EB
  8
0
 10
896.4835396249689
 20
432.94923613268838
 30
0.0
 40
5.0
 50
159.99999500000311
 51
250.0000049999978
  0
ARC
  5
97EC
  8
0
 10
901.24241962496865
 20
431.45955213268849
 30
0.0
 40
2.0
 50
90.00000299999769
 51
99.385985000003316
  0
LINE
  5
97ED
  8
0
 10
898.5322146249689
 20
426.88269113268831
 30
0.0
 11
894.773438624969
 21
428.25077313268861
 31
0.0
  0
LINE
  5
97EE
  8
0
 10
901.24241962496865
 20
433.45954913268849
 30
0.0
 11
919.1760515209736
 21
433.45954913268849
 31
0.0
  0
ARC
  5
97F4
  8
0
 10
939.23604662496905
 20
550.41081613268852
 30
0.0
 40
5.0
 50
125.2868526470245
 51
159.99999500000311
  0
ARC
  5
97F5
  8
0
 10
932.21400062496866
 20
551.58450413268815
 30
0.0
 40
2.0
 50
269.99999700000228
 51
340.00000899999901
  0
LINE
  5
97F6
  8
0
 10
934.53759562496884
 20
552.12090613268845
 30
0.0
 11
917.99823162496898
 21
506.6793791326885
 31
0.0
  0
LINE
  5
97F7
  8
0
 10
932.21400062496866
 20
549.58452213268833
 30
0.0
 11
902.42496562496899
 21
549.58452213268833
 31
0.0
  0
LINE
  5
97F8
  8
0
 10
920.44496862496896
 20
519.24933413268855
 30
0.0
 11
913.8262882853744
 21
501.06465993570981
 31
0.0
  0
LINE
  5
97F9
  8
0
 10
922.32435362496904
 20
518.56529413268845
 30
0.0
 11
920.44496862496896
 21
519.24933413268855
 31
0.0
  0
LINE
  5
97FA
  8
0
 10
908.32444062496859
 20
480.1008581326883
 30
0.0
 11
916.78167662496855
 21
477.02267513268851
 31
0.0
  0
LINE
  5
97FB
  8
0
 10
917.99823162496898
 20
506.6793791326885
 30
0.0
 11
918.73462727515175
 21
506.41135305002149
 31
0.0
  0
LINE
  5
97FC
  8
0
 10
898.5322146249689
 20
426.88269113268831
 30
0.0
 11
919.56702788046755
 21
484.67536439250722
 31
0.0
  0
LINE
  5
97FD
  8
0
 10
908.32444062496859
 20
480.1008581326883
 30
0.0
 11
891.78507862496872
 21
434.65933513268851
 31
0.0
  0
LINE
  5
9800
  8
0
 10
912.55650352506268
 20
497.57595509096552
 30
0.0
 11
902.11893862496856
 21
468.8989821326885
 31
0.0
  0
LINE
  5
A64A
  8
0
 10
262.3690115317446
 20
430.21499529671303
 30
0.0
 11
262.36901153174449
 21
408.95948913268847
 31
0.0
  0
LINE
  5
A64B
  8
0
 10
367.86901153174449
 20
441.54872213268823
 30
0.0
 11
367.86901153174449
 21
421.56377213268831
 31
0.0
  0
LINE
  5
A64C
  8
0
 10
408.86901153174449
 20
492.02268613268842
 30
0.0
 11
422.39901153174452
 21
492.02268613268842
 31
0.0
  0
LINE
  5
A64D
  8
0
 10
251.93901153174451
 20
492.02268613268842
 30
0.0
 11
264.86901153174449
 21
492.02268613268842
 31
0.0
  0
LINE
  5
A64E
  8
0
 10
258.36901153174449
 20
485.46268613268848
 30
0.0
 11
258.36901153174449
 21
498.73268613268829
 31
0.0
  0
LINE
  5
A64F
  8
0
 10
402.86901153174432
 20
548.90268613268825
 30
0.0
 11
270.86901153174449
 21
548.90268613268825
 31
0.0
  0
LINE
  5
A650
  8
0
 10
264.86901153174449
 20
542.90268613268825
 30
0.0
 11
264.86901153174449
 21
441.82268613268849
 31
0.0
  0
LINE
  5
A651
  8
0
 10
408.86901153174449
 20
542.90268613268825
 30
0.0
 11
408.86901153174449
 21
441.82268613268849
 31
0.0
  0
LINE
  5
A652
  8
0
 10
270.86901153174449
 20
435.82268613268809
 30
0.0
 11
402.86901153174432
 21
435.82268613268809
 31
0.0
  0
LINE
  5
A653
  8
0
 10
415.38849553174452
 20
514.34959913268847
 30
0.0
 11
415.36901153174432
 21
542.92268613268857
 31
0.0
  0
LINE
  5
A654
  8
0
 10
402.86901153174432
 20
555.40268613268825
 30
0.0
 11
270.86901153174449
 21
555.40268613268825
 31
0.0
  0
LINE
  5
A655
  8
0
 10
258.36901153174449
 20
514.38268613268849
 30
0.0
 11
258.36901153174449
 21
542.90268613268825
 31
0.0
  0
LINE
  5
A656
  8
0
 10
258.36901153174449
 20
469.65268613268842
 30
0.0
 11
258.36901153174449
 21
439.38268613268849
 31
0.0
  0
LINE
  5
A657
  8
0
 10
415.36901153174432
 20
469.65268613268842
 30
0.0
 11
415.36901153174432
 21
439.38268613268849
 31
0.0
  0
LINE
  5
A658
  8
0
 10
270.86901153174449
 20
426.88268613268849
 30
0.0
 11
402.86901153174432
 21
426.88268613268849
 31
0.0
  0
ARC
  5
A659
  8
0
 10
430.37057353174453
 20
469.66164413268842
 30
0.0
 40
15.001564999999999
 50
131.8129740000017
 51
180.034212999999
  0
ARC
  5
A65A
  8
0
 10
402.86849953174448
 20
542.90217413268829
 30
0.0
 40
6.0005119999999996
 50
0.0048860000006618
 51
89.995114000002559
  0
ARC
  5
A65B
  8
0
 10
270.86751853174451
 20
542.90417913268834
 30
0.0
 40
5.998507
 50
89.985740000000476
 51
180.0142599999995
  0
ARC
  5
A65C
  8
0
 10
270.8665075317445
 20
441.8201821326885
 30
0.0
 40
5.9974970000000001
 50
179.9760820000013
 51
270.02391799999867
  0
ARC
  5
A65D
  8
0
 10
402.86951053174431
 20
441.8221871326885
 30
0.0
 40
5.9995010000000004
 50
269.99523699999969
 51
0.0047630000002228
  0
ARC
  5
A65E
  8
0
 10
243.3700765317445
 20
514.38255013268849
 30
0.0
 40
14.998934999999999
 50
311.80849599999982
 51
0.0005210000016347
  0
ARC
  5
A65F
  8
0
 10
243.36689953174451
 20
469.65394213268843
 30
0.0
 40
15.007673
 50
358.4401929999994
 51
48.205064000000633
  0
ARC
  5
A660
  8
0
 10
249.8659585317445
 20
465.22537713268849
 30
0.0
 40
15.003053
 50
359.98972200000082
 51
63.249136000002281
  0
ARC
  5
A661
  8
0
 10
249.8686465317445
 20
518.8083401326885
 30
0.0
 40
15.000365
 50
296.744540000001
 51
0.0166020000005186
  0
ARC
  5
A662
  8
0
 10
263.36700753174438
 20
492.01768613268848
 30
0.0
 40
14.998716
 50
116.737583000002
 51
243.2624169999979
  0
ARC
  5
A663
  8
0
 10
423.86915753174441
 20
465.22716713268818
 30
0.0
 40
15.000147
 50
116.74402700000179
 51
180.01711599999811
  0
ARC
  5
A664
  8
0
 10
423.86646853174449
 20
518.80655013268824
 30
0.0
 40
14.997458999999999
 50
179.97655699999851
 51
243.26230100000259
  0
ARC
  5
A665
  8
0
 10
410.36700653174449
 20
492.01768613268848
 30
0.0
 40
15.00052
 50
296.75125799999722
 51
63.248742000002778
  0
ARC
  5
A666
  8
0
 10
402.86601053174451
 20
542.89966413268814
 30
0.0
 40
12.503022
 50
0.1054989999989078
 51
89.986247999999051
  0
ARC
  5
A667
  8
0
 10
270.86751853174451
 20
542.90417913268834
 30
0.0
 40
12.498507
 50
89.993155999999715
 51
180.0068440000002
  0
ARC
  5
A668
  8
0
 10
270.86450753174449
 20
439.37818213268849
 30
0.0
 40
12.495497
 50
179.9793499999987
 51
270.020649999998
  0
ARC
  5
A669
  8
0
 10
402.87151053174449
 20
439.38018713268849
 30
0.0
 40
12.497502000000001
 50
269.98854500000192
 51
0.0114550000013282
  0
ARC
  5
A66A
  8
0
 10
430.38849153174442
 20
514.35982813268856
 30
0.0
 40
15.0
 50
180.03907000000001
 51
228.13549799999859
  0
LINE
  5
A66B
  8
0
 10
419.8258875317444
 20
545.14455013268832
 30
0.0
 11
419.8258875317444
 21
524.77955013268831
 31
0.0
  0
LINE
  5
A66C
  8
0
 10
435.86901053174421
 20
545.14455013268832
 30
0.0
 11
435.86901053174421
 21
524.77955013268831
 31
0.0
  0
LINE
  5
A66D
  8
0
 10
450.41840653174449
 20
439.93875413268808
 30
0.0
 11
435.86901053174421
 21
439.93875413268808
 31
0.0
  0
LINE
  5
A66E
  8
0
 10
455.36901153174438
 20
451.35110413268848
 30
0.0
 11
435.86901053174421
 21
451.35110413268848
 31
0.0
  0
LINE
  5
A66F
  8
0
 10
420.57440853174433
 20
444.6538441326885
 30
0.0
 11
435.86901153174409
 21
439.93875413268808
 31
0.0
  0
LINE
  5
A670
  8
0
 10
435.86901153174409
 20
451.35110413268848
 30
0.0
 11
420.83307053174451
 21
450.81035313268842
 31
0.0
  0
ARC
  5
A671
  8
0
 10
420.86901153174449
 20
449.81099913268838
 30
0.0
 40
1.0
 50
92.059690999997201
 51
180.0
  0
ARC
  5
A672
  8
0
 10
420.86901153174449
 20
445.60946413268829
 30
0.0
 40
1.0
 50
180.0
 51
252.86627500000199
  0
LINE
  5
A673
  8
0
 10
435.86901153174409
 20
571.81233713268853
 30
0.0
 11
420.5685525317445
 21
566.99247113268825
 31
0.0
  0
ARC
  5
A674
  8
0
 10
420.86901153174449
 20
566.03867613268847
 30
0.0
 40
1.0
 50
107.485179
 51
180.0
  0
ARC
  5
A675
  8
0
 10
420.86901153174449
 20
563.68761113268852
 30
0.0
 40
1.0
 50
180.0
 51
270.0
  0
LINE
  5
A676
  8
0
 10
420.91756653174428
 20
562.6887901326885
 30
0.0
 11
435.86901153174409
 21
563.41561013268824
 31
0.0
  0
LINE
  5
A677
  8
0
 10
455.36901153174438
 20
563.41561013268824
 30
0.0
 11
435.86901153174409
 21
563.41561013268824
 31
0.0
  0
LINE
  5
A678
  8
0
 10
378.8690115317446
 20
594.24604313268856
 30
0.0
 11
466.31619653174448
 21
594.24604313268856
 31
0.0
  0
ARC
  5
A679
  8
0
 10
290.13325653174462
 20
592.24604313268856
 30
0.0
 40
2.0
 50
90.0
 51
156.10179999999841
  0
ARC
  5
A67A
  8
0
 10
466.31619653174448
 20
592.24604313268856
 30
0.0
 40
2.0
 50
10.000001999998689
 51
90.0
  0
LINE
  5
A67B
  8
0
 10
469.86901153174449
 20
583.61456713268853
 30
0.0
 11
468.2858115317444
 21
592.59334013268847
 31
0.0
  0
LINE
  5
A67C
  8
0
 10
469.60820353174432
 20
583.61456713268853
 30
0.0
 11
469.86901153174449
 21
583.61456713268853
 31
0.0
  0
ARC
  5
A67D
  8
0
 10
275.20022653174448
 20
591.0562691326885
 30
0.0
 40
2.0
 50
90.0
 51
169.99999800000131
  0
LINE
  5
A67E
  8
0
 10
270.86901153174449
 20
578.01026613268846
 30
0.0
 11
273.23061153174439
 21
591.40356613268841
 31
0.0
  0
ARC
  5
A67F
  8
0
 10
466.26517753174448
 20
591.0562691326885
 30
0.0
 40
2.0
 50
10.000001999998689
 51
90.0
  0
LINE
  5
A680
  8
0
 10
469.86901153174449
 20
582.13544913268845
 30
0.0
 11
468.2347925317444
 21
591.40356613268841
 31
0.0
  0
LINE
  5
A681
  8
0
 10
270.86901153174449
 20
578.01026613268846
 30
0.0
 11
271.43691753174448
 21
578.01026613268846
 31
0.0
  0
LINE
  5
A682
  8
0
 10
469.33304053174442
 20
582.13544913268845
 30
0.0
 11
469.86901153174449
 21
582.13544913268845
 31
0.0
  0
ARC
  5
A683
  8
0
 10
466.17932253174439
 20
588.50353513268851
 30
0.0
 40
2.0
 50
10.00000100000292
 51
90.0
  0
ARC
  5
A684
  8
0
 10
275.31801753174437
 20
588.50353513268851
 30
0.0
 40
2.0
 50
90.0
 51
169.99999899999699
  0
LINE
  5
A685
  8
0
 10
270.86901153174449
 20
574.78951013268852
 30
0.0
 11
273.34840153174463
 21
588.8508311326882
 31
0.0
  0
ARC
  5
A686
  8
0
 10
275.49915853174451
 20
584.53835013268838
 30
0.0
 40
2.0
 50
90.0
 51
169.9999999999981
  0
LINE
  5
A687
  8
0
 10
270.86901153174449
 20
569.79702513268853
 30
0.0
 11
273.52954253174448
 21
584.88564613268852
 31
0.0
  0
ARC
  5
A688
  8
0
 10
275.78038653174451
 20
578.96092213268855
 30
0.0
 40
2.0
 50
90.0
 51
169.9999999999981
  0
LINE
  5
A689
  8
0
 10
270.86901153174449
 20
562.62467313268849
 30
0.0
 11
273.81077053174442
 21
579.30821913268846
 31
0.0
  0
ARC
  5
A68A
  8
0
 10
275.87565053174438
 20
572.96025513268842
 30
0.0
 40
2.0
 50
90.0
 51
169.99999899999699
  0
LINE
  5
A68B
  8
0
 10
270.86901153174449
 20
556.0837371326885
 30
0.0
 11
273.90603453174458
 21
573.30755113268822
 31
0.0
  0
LINE
  5
A68C
  8
0
 10
469.74075253174448
 20
579.82319913268839
 30
0.0
 11
468.14893753174408
 21
588.8508311326882
 31
0.0
  0
LINE
  5
A68D
  8
0
 10
270.86901153174449
 20
574.78951013268852
 30
0.0
 11
271.7493215317445
 21
574.78951013268852
 31
0.0
  0
ARC
  5
A68E
  8
0
 10
466.0499445317443
 20
584.53835013268838
 30
0.0
 40
2.0
 50
10.00000000000181
 51
90.0
  0
LINE
  5
A68F
  8
0
 10
468.91220653174452
 20
579.82319913268839
 30
0.0
 11
468.0195605317445
 21
584.88564613268852
 31
0.0
  0
ARC
  5
A690
  8
0
 10
401.2580295317444
 20
578.96092213268855
 30
0.0
 40
2.0
 50
5.59865299999844
 51
90.0
  0
ARC
  5
A691
  8
0
 10
401.25607453174428
 20
572.96025513268842
 30
0.0
 40
2.0
 50
5.4290189999990144
 51
90.0
  0
LINE
  5
A692
  8
0
 10
471.86901153174438
 20
456.23684413268808
 30
0.0
 11
471.86901153174438
 21
558.02548313268824
 31
0.0
  0
LINE
  5
A693
  8
0
 10
471.86901153174438
 20
579.82319913268839
 30
0.0
 11
471.86901153174438
 21
583.95955013268838
 31
0.0
  0
LINE
  5
A694
  8
0
 10
419.8258875317444
 20
569.79702513268853
 30
0.0
 11
435.86901053174421
 21
574.39688713268845
 31
0.0
  0
LINE
  5
A695
  8
0
 10
404.1659265317445
 20
569.79702513268853
 30
0.0
 11
419.8258875317444
 21
569.79702513268853
 31
0.0
  0
LINE
  5
A696
  8
0
 10
435.86901053174421
 20
574.39688713268845
 30
0.0
 11
450.56229453174433
 21
574.39688713268845
 31
0.0
  0
INSERT
  5
A697
  8
0
  2
$6-45
 10
455.36901153174438
 20
570.09281013268856
 30
0.0
 50
90.0
  0
INSERT
  5
A698
  8
0
  2
$6-45
 10
455.36901153174438
 20
444.05088313268851
 30
0.0
 50
90.0
  0
LINE
  5
A699
  8
0
 10
230.86901153174449
 20
498.95955013268849
 30
0.0
 11
162.87747953174451
 21
498.95955013268849
 31
0.0
  0
LINE
  5
A69A
  8
0
 10
469.80818153174448
 20
583.95955013268838
 30
0.0
 11
471.86901153174438
 21
583.95955013268838
 31
0.0
  0
LINE
  5
A69B
  8
0
 10
275.49915853174451
 20
586.53835013268849
 30
0.0
 11
466.0499445317443
 21
586.53835013268849
 31
0.0
  0
LINE
  5
A69C
  8
0
 10
275.31801753174437
 20
590.50353513268851
 30
0.0
 11
466.17932253174439
 21
590.50353513268851
 31
0.0
  0
LINE
  5
A69D
  8
0
 10
275.20022653174448
 20
593.05626913268816
 30
0.0
 11
466.26517753174448
 21
593.05626913268816
 31
0.0
  0
LINE
  5
A69E
  8
0
 10
262.36901153174449
 20
589.45955013268815
 30
0.0
 11
272.8878295317445
 21
589.45955013268815
 31
0.0
  0
LINE
  5
A69F
  8
0
 10
290.13325653174462
 20
594.24604313268856
 30
0.0
 11
356.86901153174449
 21
594.24604313268856
 31
0.0
  0
LINE
  5
A6A0
  8
0
 10
435.86901053174421
 20
553.11955013268835
 30
0.0
 11
435.86901053174421
 21
547.77455013268855
 31
0.0
  0
LINE
  5
A6A1
  8
0
 10
419.8258875317444
 20
553.11955013268835
 30
0.0
 11
419.8258875317444
 21
547.77455013268855
 31
0.0
  0
LINE
  5
A6A2
  8
0
 10
435.86901053174421
 20
563.41561013268824
 30
0.0
 11
435.86901053174421
 21
555.81955013268851
 31
0.0
  0
LINE
  5
A6A3
  8
0
 10
435.86901053174421
 20
571.81233713268853
 30
0.0
 11
449.96901753174461
 21
571.81233713268853
 31
0.0
  0
LINE
  5
A6A4
  8
0
 10
270.86901153174449
 20
556.0837371326885
 30
0.0
 11
404.86901153174449
 21
556.0837371326885
 31
0.0
  0
LINE
  5
A6A5
  8
0
 10
404.19138453174452
 20
562.62467313268849
 30
0.0
 11
404.86901153174449
 21
562.62467313268849
 31
0.0
  0
LINE
  5
A6A6
  8
0
 10
275.87565053174438
 20
574.96025513268842
 30
0.0
 11
401.25607453174428
 21
574.96025513268842
 31
0.0
  0
LINE
  5
A6A7
  8
0
 10
270.86901153174449
 20
562.62467313268849
 30
0.0
 11
272.02235453174438
 21
562.62467313268849
 31
0.0
  0
LINE
  5
A6A8
  8
0
 10
275.78038653174451
 20
580.96092213268855
 30
0.0
 11
401.2580295317444
 21
580.96092213268855
 31
0.0
  0
LINE
  5
A6A9
  8
0
 10
471.86901153174438
 20
558.02548313268824
 30
0.0
 11
474.86901153174449
 21
556.29343213268851
 31
0.0
  0
ARC
  5
A6AA
  8
0
 10
454.36901153174449
 20
559.02548313268824
 30
0.0
 40
1.0
 50
270.0
 51
0.0
  0
ARC
  5
A6AB
  8
0
 10
457.36901153174449
 20
577.8231991326885
 30
0.0
 40
2.0
 50
90.0
 51
180.0
  0
ARC
  5
A6AC
  8
0
 10
457.36901153174449
 20
573.69919413268815
 30
0.0
 40
2.0
 50
180.0
 51
270.0
  0
ARC
  5
A6AD
  8
0
 10
457.36901153174449
 20
569.69919413268815
 30
0.0
 40
2.0
 50
90.0
 51
180.0
  0
LINE
  5
A6AE
  8
0
 10
457.36901153174449
 20
579.82319913268839
 30
0.0
 11
474.86901153174449
 21
579.82319913268839
 31
0.0
  0
LINE
  5
A6AF
  8
0
 10
455.36901153174438
 20
558.02548313268824
 30
0.0
 11
471.86901153174438
 21
558.02548313268824
 31
0.0
  0
LINE
  5
A6B0
  8
0
 10
457.36901153174449
 20
571.69919413268849
 30
0.0
 11
474.86901153174449
 21
571.69919413268849
 31
0.0
  0
LINE
  5
A6B1
  8
0
 10
455.36901153174438
 20
559.02548313268824
 30
0.0
 11
455.36901153174438
 21
577.8231991326885
 31
0.0
  0
LINE
  5
A6B2
  8
0
 10
270.86901153174449
 20
411.95955013268849
 30
0.0
 11
262.3690115317446
 21
411.95955013268849
 31
0.0
  0
LINE
  5
A6B3
  8
0
 10
271.69320653174452
 20
426.88268613268849
 30
0.0
 11
272.46175353174448
 21
418.53529413268831
 31
0.0
  0
LINE
  5
A6B4
  8
0
 10
270.86901153174449
 20
422.12207513268839
 30
0.0
 11
271.55178853174448
 21
422.12207513268839
 31
0.0
  0
LINE
  5
A6B5
  8
0
 10
270.86901153174449
 20
417.12959013268829
 30
0.0
 11
271.39352453174439
 21
417.12959013268829
 31
0.0
  0
LINE
  5
A6B6
  8
0
 10
270.86901153174449
 20
413.90883413268853
 30
0.0
 11
271.22895353174448
 21
413.90883413268853
 31
0.0
  0
LINE
  5
A6B7
  8
0
 10
270.82223453174458
 20
412.3392531326881
 30
0.0
 11
271.05262553174441
 21
412.3392531326881
 31
0.0
  0
LINE
  5
A6B8
  8
0
 10
271.09859853174453
 20
426.88268613268849
 30
0.0
 11
272.45666353174443
 21
412.6166531326885
 31
0.0
  0
LINE
  5
A6B9
  8
0
 10
270.86901153174449
 20
422.12207513268839
 30
0.0
 11
272.44084453174452
 21
407.16086413268852
 31
0.0
  0
LINE
  5
A6BA
  8
0
 10
270.86901153174449
 20
417.12959013268829
 30
0.0
 11
272.43032253174448
 21
403.15899913268839
 31
0.0
  0
LINE
  5
A6BB
  8
0
 10
270.86901153174449
 20
413.90883413268853
 30
0.0
 11
272.4222305317445
 21
400.63150613268851
 31
0.0
  0
LINE
  5
A6BC
  8
0
 10
270.82223453174458
 20
412.3392531326881
 30
0.0
 11
272.41275053174439
 21
399.42851913268851
 31
0.0
  0
ARC
  5
A6BD
  8
0
 10
274.45332953174437
 20
418.71865913268829
 30
0.0
 40
2.0
 50
185.26041100000191
 51
270.0
  0
ARC
  5
A6BE
  8
0
 10
274.44766153174447
 20
412.80618813268848
 30
0.0
 40
2.0
 50
185.4379219999999
 51
270.0
  0
ARC
  5
A6BF
  8
0
 10
274.42989753174447
 20
407.36983513268848
 30
0.0
 40
2.0
 50
185.9975260000009
 51
270.0
  0
ARC
  5
A6C0
  8
0
 10
274.41794853174451
 20
403.3811301326885
 30
0.0
 40
2.0
 50
186.37674200000029
 51
270.0
  0
ARC
  5
A6C1
  8
0
 10
274.40868453174448
 20
400.86388713268832
 30
0.0
 40
2.0
 50
186.67229399999829
 51
270.0
  0
ARC
  5
A6C2
  8
0
 10
274.39774453174448
 20
399.6730571326886
 30
0.0
 40
2.0
 50
187.0230689999992
 51
270.0
  0
LINE
  5
A6C3
  8
0
 10
469.86901153174449
 20
511.13955013268833
 30
0.0
 11
468.10901153174427
 21
511.68955013268851
 31
0.0
  0
LINE
  5
A6C4
  8
0
 10
469.86901153174449
 20
513.77955013268831
 30
0.0
 11
469.86901153174449
 21
511.13955013268833
 31
0.0
  0
LINE
  5
A6C5
  8
0
 10
468.10901153174427
 20
513.28955013268853
 30
0.0
 11
469.86901153174449
 21
513.77955013268831
 31
0.0
  0
LINE
  5
A6C6
  8
0
 10
468.10901153174427
 20
513.28955013268853
 30
0.0
 11
468.10901153174427
 21
511.68955013268851
 31
0.0
  0
LINE
  5
A6C7
  8
0
 10
469.86901153174449
 20
500.1395501326885
 30
0.0
 11
468.10901153174427
 21
500.6895501326884
 31
0.0
  0
LINE
  5
A6C8
  8
0
 10
469.86901153174449
 20
502.77955013268848
 30
0.0
 11
469.86901153174449
 21
500.1395501326885
 31
0.0
  0
LINE
  5
A6C9
  8
0
 10
468.10901153174427
 20
502.28955013268848
 30
0.0
 11
469.86901153174449
 21
502.77955013268848
 31
0.0
  0
LINE
  5
A6CA
  8
0
 10
468.10901153174427
 20
502.28955013268848
 30
0.0
 11
468.10901153174427
 21
500.6895501326884
 31
0.0
  0
LINE
  5
A6CB
  8
0
 10
469.86901153174449
 20
489.1395501326885
 30
0.0
 11
468.10901153174427
 21
489.68955013268851
 31
0.0
  0
LINE
  5
A6CC
  8
0
 10
469.86901153174449
 20
491.77955013268831
 30
0.0
 11
469.86901153174449
 21
489.1395501326885
 31
0.0
  0
LINE
  5
A6CD
  8
0
 10
468.10901153174427
 20
491.28955013268848
 30
0.0
 11
469.86901153174449
 21
491.77955013268831
 31
0.0
  0
LINE
  5
A6CE
  8
0
 10
468.10901153174427
 20
491.28955013268848
 30
0.0
 11
468.10901153174427
 21
489.68955013268851
 31
0.0
  0
LINE
  5
A6CF
  8
0
 10
469.86901153174449
 20
478.13955013268821
 30
0.0
 11
468.10901153174427
 21
478.68955013268851
 31
0.0
  0
LINE
  5
A6D0
  8
0
 10
469.86901153174449
 20
480.77955013268848
 30
0.0
 11
469.86901153174449
 21
478.13955013268821
 31
0.0
  0
LINE
  5
A6D1
  8
0
 10
468.10901153174427
 20
480.28955013268848
 30
0.0
 11
469.86901153174449
 21
480.77955013268848
 31
0.0
  0
LINE
  5
A6D2
  8
0
 10
468.10901153174427
 20
480.28955013268848
 30
0.0
 11
468.10901153174427
 21
478.68955013268851
 31
0.0
  0
LINE
  5
A6D3
  8
0
 10
469.28068053174422
 20
409.45027013268827
 30
0.0
 11
468.24905153174461
 21
400.63150913268851
 31
0.0
  0
LINE
  5
A6D4
  8
0
 10
468.21379453174421
 20
403.15870313268852
 30
0.0
 11
469.2687515317445
 21
412.58569013268828
 31
0.0
  0
LINE
  5
A6D5
  8
0
 10
468.24086453174448
 20
407.15955913268851
 30
0.0
 11
469.33977653174452
 21
417.55373313268831
 31
0.0
  0
LINE
  5
A6D6
  8
0
 10
469.39071753174431
 20
424.09035313268851
 30
0.0
 11
468.26543653174451
 21
412.6110691326885
 31
0.0
  0
LINE
  5
A6D7
  8
0
 10
469.43188453174452
 20
431.5000951326885
 30
0.0
 11
468.19916753174408
 21
418.52943413268832
 31
0.0
  0
LINE
  5
A6D8
  8
0
 10
469.34080353174409
 20
408.31394213268851
 30
0.0
 11
468.26877053174439
 21
399.4333641326885
 31
0.0
  0
LINE
  5
A6D9
  8
0
 10
468.10901153174427
 20
469.28955013268842
 30
0.0
 11
468.10901153174427
 21
467.6895501326884
 31
0.0
  0
LINE
  5
A6DA
  8
0
 10
468.10901153174427
 20
469.28955013268842
 30
0.0
 11
469.86901153174449
 21
469.77955013268848
 31
0.0
  0
LINE
  5
A6DB
  8
0
 10
469.86901153174449
 20
469.77955013268848
 30
0.0
 11
469.86901153174449
 21
467.1395501326885
 31
0.0
  0
LINE
  5
A6DC
  8
0
 10
469.86901153174449
 20
467.1395501326885
 30
0.0
 11
468.10901153174427
 21
467.6895501326884
 31
0.0
  0
LINE
  5
A6DD
  8
0
 10
468.10901153174427
 20
524.28955013268853
 30
0.0
 11
468.10901153174427
 21
522.68955013268851
 31
0.0
  0
LINE
  5
A6DE
  8
0
 10
468.10901153174427
 20
524.28955013268853
 30
0.0
 11
469.86901153174449
 21
524.77955013268831
 31
0.0
  0
LINE
  5
A6DF
  8
0
 10
469.86901153174449
 20
524.77955013268831
 30
0.0
 11
469.86901153174449
 21
522.13955013268856
 31
0.0
  0
LINE
  5
A6E0
  8
0
 10
469.86901153174449
 20
522.13955013268856
 30
0.0
 11
468.10901153174427
 21
522.68955013268851
 31
0.0
  0
LINE
  5
A6E1
  8
0
 10
419.8258875317444
 20
522.13955013268856
 30
0.0
 11
419.8258875317444
 21
513.77955013268831
 31
0.0
  0
LINE
  5
A6E2
  8
0
 10
435.86901053174421
 20
522.13955013268856
 30
0.0
 11
435.86901053174421
 21
513.77955013268831
 31
0.0
  0
LINE
  5
A6E3
  8
0
 10
435.86901053174421
 20
511.13955013268833
 30
0.0
 11
435.86901053174421
 21
502.77955013268848
 31
0.0
  0
LINE
  5
A6E4
  8
0
 10
419.8258875317444
 20
511.13955013268833
 30
0.0
 11
419.8258875317444
 21
503.6600731326883
 31
0.0
  0
LINE
  5
A6E5
  8
0
 10
435.86901053174421
 20
500.1395501326885
 30
0.0
 11
435.86901053174421
 21
491.77955013268831
 31
0.0
  0
LINE
  5
A6E6
  8
0
 10
435.86901053174421
 20
489.1395501326885
 30
0.0
 11
435.86901053174421
 21
480.77955013268848
 31
0.0
  0
LINE
  5
A6E7
  8
0
 10
419.8258875317444
 20
478.13955013268821
 30
0.0
 11
419.8258875317444
 21
469.77955013268848
 31
0.0
  0
LINE
  5
A6E8
  8
0
 10
435.86901053174421
 20
478.13955013268821
 30
0.0
 11
435.86901053174421
 21
469.77955013268848
 31
0.0
  0
LINE
  5
A6E9
  8
0
 10
435.86901053174421
 20
467.1395501326885
 30
0.0
 11
435.86901053174421
 21
451.35110413268848
 31
0.0
  0
LINE
  5
A6EA
  8
0
 10
419.8258875317444
 20
467.1395501326885
 30
0.0
 11
419.8258875317444
 21
435.8344811326885
 31
0.0
  0
LINE
  5
A6EB
  8
0
 10
469.43188453174452
 20
431.5000951326885
 30
0.0
 11
435.86901053174421
 21
431.5000951326885
 31
0.0
  0
LINE
  5
A6EC
  8
0
 10
469.39071753174431
 20
424.09035313268851
 30
0.0
 11
468.72767153174448
 21
424.09035313268851
 31
0.0
  0
ARC
  5
A6ED
  8
0
 10
466.20813953174462
 20
418.71865913268829
 30
0.0
 40
2.0
 50
270.0
 51
354.57098100000098
  0
ARC
  5
A6EE
  8
0
 10
466.27497753174453
 20
412.80618813268848
 30
0.0
 40
2.0
 50
270.0
 51
354.40134700000158
  0
ARC
  5
A6EF
  8
0
 10
466.2519495317444
 20
407.36983513268848
 30
0.0
 40
2.0
 50
270.0
 51
353.96488600000077
  0
ARC
  5
A6F0
  8
0
 10
466.22620153174449
 20
403.3811301326885
 30
0.0
 40
2.0
 50
270.0
 51
353.61470100000008
  0
ARC
  5
A6F1
  8
0
 10
466.26259753174452
 20
400.86388713268832
 30
0.0
 40
2.0
 50
270.0
 51
353.32780000000048
  0
ARC
  5
A6F2
  8
0
 10
466.28318653174438
 20
399.6730571326886
 30
0.0
 40
2.0
 50
270.0
 51
353.11676000000091
  0
LINE
  5
A6F3
  8
0
 10
469.33977653174452
 20
417.55373313268831
 30
0.0
 11
468.7499515317445
 21
417.55373313268831
 31
0.0
  0
LINE
  5
A6F4
  8
0
 10
469.2687515317445
 20
412.58569013268828
 30
0.0
 11
468.81453653174452
 21
412.58569013268828
 31
0.0
  0
LINE
  5
A6F5
  8
0
 10
469.28068053174422
 20
409.45027013268827
 30
0.0
 11
468.91787253174448
 21
409.45027013268827
 31
0.0
  0
LINE
  5
A6F6
  8
0
 10
469.34080353174409
 20
408.31394213268851
 30
0.0
 11
469.14775153174452
 21
408.31394213268851
 31
0.0
  0
LINE
  5
A6F7
  8
0
 10
471.86901153174438
 20
456.23684413268808
 30
0.0
 11
455.36901153174438
 21
456.23684413268808
 31
0.0
  0
LINE
  5
A6F8
  8
0
 10
474.86901153174449
 20
446.0575521326885
 30
0.0
 11
457.36901153174449
 21
446.0575521326885
 31
0.0
  0
LINE
  5
A6F9
  8
0
 10
474.86901153174449
 20
433.77027113268821
 30
0.0
 11
457.36901153174449
 21
433.77027113268821
 31
0.0
  0
LINE
  5
A6FA
  8
0
 10
455.36901153174438
 20
455.2368441326883
 30
0.0
 11
455.36901153174438
 21
435.77027113268861
 31
0.0
  0
LINE
  5
A6FB
  8
0
 10
471.86901153174438
 20
456.23684413268808
 30
0.0
 11
474.86901153174449
 21
457.96889513268832
 31
0.0
  0
ARC
  5
A6FC
  8
0
 10
457.36901153174449
 20
448.05755213268822
 30
0.0
 40
2.0
 50
180.0
 51
270.0
  0
ARC
  5
A6FD
  8
0
 10
457.36901153174449
 20
435.77027113268861
 30
0.0
 40
2.0
 50
180.0
 51
270.0
  0
ARC
  5
A6FE
  8
0
 10
457.36901153174449
 20
444.05755213268822
 30
0.0
 40
2.0
 50
90.0
 51
180.0
  0
LINE
  5
A6FF
  8
0
 10
435.86901053174421
 20
439.93875413268808
 30
0.0
 11
435.86901053174421
 21
431.5000951326885
 31
0.0
  0
LINE
  5
A700
  8
0
 10
419.8258875317444
 20
435.8344811326885
 30
0.0
 11
435.86901053174421
 21
431.5000951326885
 31
0.0
  0
ARC
  5
A701
  8
0
 10
454.36901153174449
 20
455.2368441326883
 30
0.0
 40
1.0
 50
0.0
 51
90.0
  0
LINE
  5
A702
  8
0
 10
419.8258875317444
 20
435.8344811326885
 30
0.0
 11
414.85548053174449
 21
435.8344811326885
 31
0.0
  0
LINE
  5
A703
  8
0
 10
466.28318653174438
 20
397.6730571326886
 30
0.0
 11
274.39774453174448
 21
397.6730571326886
 31
0.0
  0
LINE
  5
A704
  8
0
 10
466.26259753174452
 20
398.8638871326886
 30
0.0
 11
274.40868453174448
 21
398.8638871326886
 31
0.0
  0
LINE
  5
A705
  8
0
 10
466.22620153174449
 20
401.38113013268833
 30
0.0
 11
274.41794853174451
 21
401.38113013268833
 31
0.0
  0
LINE
  5
A706
  8
0
 10
466.2519495317444
 20
405.36983513268819
 30
0.0
 11
274.42989753174447
 21
405.36983513268819
 31
0.0
  0
LINE
  5
A707
  8
0
 10
466.27497753174453
 20
410.80618813268802
 30
0.0
 11
274.44766153174447
 21
410.80618813268802
 31
0.0
  0
LINE
  5
A708
  8
0
 10
466.20813953174462
 20
416.71865913268817
 30
0.0
 11
274.45332953174437
 21
416.71865913268817
 31
0.0
  0
LINE
  5
A709
  8
0
 10
419.8258875317444
 20
569.79702513268853
 30
0.0
 11
419.8258875317444
 21
555.81955013268851
 31
0.0
  0
LINE
  5
A70A
  8
0
 10
435.86901053174421
 20
574.39688713268845
 30
0.0
 11
435.86901053174421
 21
571.81233713268853
 31
0.0
  0
LINE
  5
A70B
  8
0
 10
415.3813835317444
 20
524.77955013268831
 30
0.0
 11
469.86901153174449
 21
524.77955013268831
 31
0.0
  0
LINE
  5
A70C
  8
0
 10
415.38171753174453
 20
524.28955013268853
 30
0.0
 11
468.10901153174427
 21
524.28955013268853
 31
0.0
  0
LINE
  5
A70D
  8
0
 10
415.38280853174427
 20
522.68955013268851
 30
0.0
 11
468.10901153174427
 21
522.68955013268851
 31
0.0
  0
LINE
  5
A70E
  8
0
 10
415.38318353174452
 20
522.13955013268856
 30
0.0
 11
469.86901153174449
 21
522.13955013268856
 31
0.0
  0
LINE
  5
A70F
  8
0
 10
415.36947153174452
 20
469.77955013268848
 30
0.0
 11
469.86901153174449
 21
469.77955013268848
 31
0.0
  0
LINE
  5
A710
  8
0
 10
415.36901153174432
 20
469.28955013268842
 30
0.0
 11
468.10901153174427
 21
469.28955013268842
 31
0.0
  0
LINE
  5
A711
  8
0
 10
415.36901153174432
 20
467.6895501326884
 30
0.0
 11
468.10901153174427
 21
467.6895501326884
 31
0.0
  0
LINE
  5
A712
  8
0
 10
415.36901153174432
 20
467.1395501326885
 30
0.0
 11
469.86901153174449
 21
467.1395501326885
 31
0.0
  0
LINE
  5
A713
  8
0
 10
422.97854553174409
 20
500.1395501326885
 30
0.0
 11
469.86901153174449
 21
500.1395501326885
 31
0.0
  0
LINE
  5
A714
  8
0
 10
422.60687453174432
 20
500.6895501326884
 30
0.0
 11
468.10901153174427
 21
500.6895501326884
 31
0.0
  0
LINE
  5
A715
  8
0
 10
420.30279553174432
 20
480.77955013268848
 30
0.0
 11
469.86901153174449
 21
480.77955013268848
 31
0.0
  0
LINE
  5
A716
  8
0
 10
419.78310153174442
 20
480.28955013268848
 30
0.0
 11
468.10901153174427
 21
480.28955013268848
 31
0.0
  0
LINE
  5
A717
  8
0
 10
418.38959453174431
 20
478.68955013268851
 30
0.0
 11
468.10901153174427
 21
478.68955013268851
 31
0.0
  0
LINE
  5
A718
  8
0
 10
417.99430353174409
 20
478.13955013268821
 30
0.0
 11
469.86901153174449
 21
478.13955013268821
 31
0.0
  0
LINE
  5
A719
  8
0
 10
425.36563653174449
 20
491.77955013268831
 30
0.0
 11
469.86901153174449
 21
491.77955013268831
 31
0.0
  0
LINE
  5
A71A
  8
0
 10
425.34984353174423
 20
491.28955013268848
 30
0.0
 11
468.10901153174427
 21
491.28955013268848
 31
0.0
  0
LINE
  5
A71B
  8
0
 10
425.18575753174412
 20
489.68955013268851
 30
0.0
 11
468.10901153174427
 21
489.68955013268851
 31
0.0
  0
LINE
  5
A71C
  8
0
 10
425.08882453174448
 20
489.1395501326885
 30
0.0
 11
469.86901153174449
 21
489.1395501326885
 31
0.0
  0
LINE
  5
A71D
  8
0
 10
415.39972053174449
 20
513.77955013268831
 30
0.0
 11
469.86901153174449
 21
513.77955013268831
 31
0.0
  0
LINE
  5
A71E
  8
0
 10
415.42672353174453
 20
513.28955013268853
 30
0.0
 11
468.10901153174427
 21
513.28955013268853
 31
0.0
  0
LINE
  5
A71F
  8
0
 10
415.62808453174449
 20
511.68955013268851
 30
0.0
 11
468.10901153174427
 21
511.68955013268851
 31
0.0
  0
LINE
  5
A720
  8
0
 10
415.7382425317445
 20
511.13955013268833
 30
0.0
 11
469.86901153174449
 21
511.13955013268833
 31
0.0
  0
LINE
  5
A721
  8
0
 10
420.8167855317443
 20
502.77955013268848
 30
0.0
 11
469.86901153174449
 21
502.77955013268848
 31
0.0
  0
LINE
  5
A722
  8
0
 10
421.29881353174432
 20
502.28955013268848
 30
0.0
 11
468.10901153174427
 21
502.28955013268848
 31
0.0
  0
LINE
  5
A724
  8
0
 10
471.86901153174438
 20
407.95955013268849
 30
0.0
 11
471.86901153174438
 21
433.77027113268821
 31
0.0
  0
LINE
  5
A725
  8
0
 10
469.29802253174449
 20
407.95955013268849
 30
0.0
 11
471.86901153174438
 21
407.95955013268849
 31
0.0
  0
LINE
  5
A726
  8
0
 10
469.86901153174449
 20
555.81955013268851
 30
0.0
 11
468.10901153174427
 21
555.25955013268833
 31
0.0
  0
LINE
  5
A727
  8
0
 10
468.10901153174427
 20
553.65955013268854
 30
0.0
 11
469.86901153174449
 21
553.11955013268835
 31
0.0
  0
LINE
  5
A728
  8
0
 10
469.86901153174449
 20
553.11955013268835
 30
0.0
 11
469.86901153174449
 21
555.81955013268851
 31
0.0
  0
LINE
  5
A729
  8
0
 10
468.10901153174427
 20
553.65955013268854
 30
0.0
 11
468.10901153174427
 21
555.25955013268833
 31
0.0
  0
LINE
  5
A72A
  8
0
 10
469.86901153174449
 20
547.77455013268855
 30
0.0
 11
468.10901153174427
 21
547.23455013268824
 31
0.0
  0
LINE
  5
A72B
  8
0
 10
468.10901153174427
 20
545.63455013268833
 30
0.0
 11
469.86901153174449
 21
545.14455013268832
 31
0.0
  0
LINE
  5
A72C
  8
0
 10
468.10901153174427
 20
545.63455013268833
 30
0.0
 11
468.10901153174427
 21
547.23455013268824
 31
0.0
  0
LINE
  5
A72D
  8
0
 10
469.86901153174449
 20
545.14455013268832
 30
0.0
 11
469.86901153174449
 21
547.77455013268855
 31
0.0
  0
LINE
  5
A72E
  8
0
 10
404.86901153174449
 20
556.0837371326885
 30
0.0
 11
403.24710253174447
 21
573.1494801326885
 31
0.0
  0
LINE
  5
A72F
  8
0
 10
404.86901153174449
 20
562.62467313268849
 30
0.0
 11
403.24848853174427
 21
579.15604113268853
 31
0.0
  0
LINE
  5
A730
  8
0
 10
149.9275445317445
 20
561.29152013268833
 30
0.0
 11
154.9286425317444
 21
589.65413013268824
 31
0.0
  0
LINE
  5
A731
  8
0
 10
157.64885753174451
 20
586.52528513268851
 30
0.0
 11
157.64885753174451
 21
497.63743813268832
 31
0.0
  0
ARC
  5
A732
  8
0
 10
158.8678825317445
 20
588.95955013268826
 30
0.0
 40
4.0
 50
90.0
 51
170.0001829999988
  0
LINE
  5
A733
  8
0
 10
149.86901153174449
 20
553.55952613268835
 30
0.0
 11
149.86901153174449
 21
467.24852213268832
 31
0.0
  0
ARC
  5
A734
  8
0
 10
150.86901153174449
 20
557.95955013268849
 30
0.0
 40
3.0
 50
118.7876889999999
 51
180.0
  0
LINE
  5
A735
  8
0
 10
147.86901153174449
 20
557.95955013268849
 30
0.0
 11
147.86901153174449
 21
446.10783613268808
 31
0.0
  0
LINE
  5
A736
  8
0
 10
157.64885753174451
 20
485.77892513268841
 30
0.0
 11
157.64885753174451
 21
414.94758713268851
 31
0.0
  0
LINE
  5
A737
  8
0
 10
151.55703053174449
 20
421.38622813268847
 30
0.0
 11
153.16536753174441
 21
412.26497013268852
 31
0.0
  0
ARC
  5
A738
  8
0
 10
157.10460753174451
 20
412.95955013268849
 30
0.0
 40
4.0
 50
189.99983200000031
 51
270.0
  0
ARC
  5
A739
  8
0
 10
148.94274153174439
 20
561.46522613268837
 30
0.0
 40
1.0
 50
298.78796399999999
 51
350.00021399999918
  0
LINE
  5
A73A
  8
0
 10
151.92637653174449
 20
488.99557213268838
 30
0.0
 11
144.88234753174439
 21
414.53776913268831
 31
0.0
  0
LINE
  5
A73B
  8
0
 10
157.8997055317445
 20
488.4304691326883
 30
0.0
 11
150.85567553174451
 21
413.97266613268818
 31
0.0
  0
ARC
  5
A73C
  8
0
 10
162.87747953174451
 20
487.95955013268849
 30
0.0
 40
5.0
 50
90.0
 51
174.59565700000189
  0
ARC
  5
A73D
  8
0
 10
162.87747953174451
 20
487.95955013268849
 30
0.0
 40
11.0
 50
90.0
 51
174.59565700000189
  0
ARC
  5
A73E
  8
0
 10
147.86901153174449
 20
414.25521713268819
 30
0.0
 40
3.0
 50
174.59565700000189
 51
354.59565700000189
  0
ARC
  5
A73F
  8
0
 10
147.86901153174449
 20
414.25521713268819
 30
0.0
 40
3.799999999999998
 50
220.0000000000002
 51
32.140571999996972
  0
LINE
  5
A740
  8
0
 10
142.48525853174439
 20
415.61204513268831
 30
0.0
 11
144.89980153174449
 21
411.89135913268848
 31
0.0
  0
LINE
  5
A741
  8
0
 10
143.10272153174441
 20
416.13015813268851
 30
0.0
 11
145.57087853174451
 21
412.32685413268848
 31
0.0
  0
LINE
  5
A742
  8
0
 10
143.10272153174441
 20
416.13015813268851
 30
0.0
 11
142.48525853174439
 21
415.61204513268831
 31
0.0
  0
LINE
  5
A743
  8
0
 10
272.13369053174449
 20
569.79702513268853
 30
0.0
 11
270.86901153174449
 21
569.79702513268853
 31
0.0
  0
LINE
  5
A744
  8
0
 10
270.86901153174449
 20
555.81955013268851
 30
0.0
 11
272.17915753174452
 21
555.40268613268825
 31
0.0
  0
LINE
  5
A745
  8
0
 10
270.86901153174449
 20
555.40268613268825
 30
0.0
 11
270.86901153174449
 21
555.81955013268851
 31
0.0
  0
LINE
  5
A746
  8
0
 10
262.36901153174438
 20
579.57984713268809
 30
0.0
 11
271.14577053174452
 21
579.57984713268854
 31
0.0
  0
LINE
  5
A747
  8
0
 10
245.86901153174449
 20
509.3625791326885
 30
0.0
 11
245.86901153174449
 21
484.97655013268832
 31
0.0
  0
LINE
  5
A748
  8
0
 10
231.36901153174449
 20
498.45955013268849
 30
0.0
 11
249.82212400126841
 21
498.45955013268849
 31
0.0
  0
ARC
  5
A749
  8
0
 10
245.86901153174449
 20
495.95955013268849
 30
0.0
 40
9.0
 50
43.89821675632588
 51
163.8723909999996
  0
ARC
  5
A74A
  8
0
 10
245.86901153174449
 20
495.95955013268849
 30
0.0
 40
5.5
 50
37.234941055982077
 51
152.96430799999811
  0
LINE
  5
A74B
  8
0
 10
231.36901153174449
 20
493.45955013268821
 30
0.0
 11
248.43775738801119
 21
493.45955013268821
 31
0.0
  0
ARC
  5
A74C
  8
0
 10
245.86901153174449
 20
495.95955013268849
 30
0.0
 40
9.0
 50
196.1276090000004
 51
290.7110054129422
  0
ARC
  5
A74D
  8
0
 10
245.86901153174449
 20
495.95955013268849
 30
0.0
 40
5.5
 50
207.03569200000189
 51
297.37428111328268
  0
LINE
  5
A74E
  8
0
 10
262.36901153174449
 20
592.95955013268826
 30
0.0
 11
262.36901153174449
 21
552.06867890081548
 31
0.0
  0
LINE
  5
A74F
  8
0
 10
231.36901153174449
 20
498.45955013268849
 30
0.0
 11
230.86901153174449
 21
498.95955013268849
 31
0.0
  0
LINE
  5
A750
  8
0
 10
231.36901153174449
 20
493.45955013268821
 30
0.0
 11
230.86901153174449
 21
492.95955013268832
 31
0.0
  0
LINE
  5
A751
  8
0
 10
356.86901153174449
 20
596.95955013268826
 30
0.0
 11
378.8690115317446
 21
596.95955013268826
 31
0.0
  0
LINE
  5
A752
  8
0
 10
356.86901153174449
 20
596.95955013268826
 30
0.0
 11
356.86901153174449
 21
593.05626913268816
 31
0.0
  0
LINE
  5
A753
  8
0
 10
378.8690115317446
 20
596.95955013268826
 30
0.0
 11
378.8690115317446
 21
593.05626913268816
 31
0.0
  0
LINE
  5
A754
  8
0
 10
230.86901153174449
 20
492.95955013268832
 30
0.0
 11
162.87747953174451
 21
492.95955013268832
 31
0.0
  0
LINE
  5
A755
  8
0
 10
262.36901153174449
 20
408.95955013268838
 30
0.0
 11
157.10460753174451
 21
408.95955013268838
 31
0.0
  0
LINE
  5
A756
  8
0
 10
262.36901153174449
 20
592.95955013268826
 30
0.0
 11
158.8678825317445
 21
592.95955013268826
 31
0.0
  0
LINE
  5
A757
  8
0
 10
409.23393053174448
 20
553.65955013268854
 30
0.0
 11
468.10901153174427
 21
553.65955013268854
 31
0.0
  0
LINE
  5
A758
  8
0
 10
404.75247953174443
 20
555.25955013268833
 30
0.0
 11
468.10901153174427
 21
555.25955013268833
 31
0.0
  0
LINE
  5
A759
  8
0
 10
410.06875153174451
 20
553.11955013268835
 30
0.0
 11
469.86901153174449
 21
553.11955013268835
 31
0.0
  0
LINE
  5
A75A
  8
0
 10
270.86901153174449
 20
555.81955013268851
 30
0.0
 11
469.86901153174449
 21
555.81955013268851
 31
0.0
  0
LINE
  5
A75B
  8
0
 10
415.16584953174453
 20
545.14455013268832
 30
0.0
 11
469.86901153174449
 21
545.14455013268832
 31
0.0
  0
LINE
  5
A75C
  8
0
 10
414.37952653174449
 20
547.77455013268855
 30
0.0
 11
469.86901153174449
 21
547.77455013268855
 31
0.0
  0
LINE
  5
A75D
  8
0
 10
415.06625453174439
 20
545.63455013268833
 30
0.0
 11
468.10901153174427
 21
545.63455013268833
 31
0.0
  0
LINE
  5
A75E
  8
0
 10
414.59351353174441
 20
547.23455013268824
 30
0.0
 11
468.10901153174427
 21
547.23455013268824
 31
0.0
  0
LINE
  5
A75F
  8
0
 10
474.86901153174449
 20
410.95955013268832
 30
0.0
 11
471.86901153174438
 21
407.95955013268849
 31
0.0
  0
LINE
  5
A760
  8
0
 10
474.86901153174449
 20
410.95955013268832
 30
0.0
 11
474.86901153174449
 21
580.95955013268815
 31
0.0
  0
LINE
  5
A761
  8
0
 10
474.86901153174449
 20
580.95955013268815
 30
0.0
 11
471.86901153174438
 21
583.95955013268838
 31
0.0
  0
LINE
  5
A8AA
  8
0
 10
415.63401153174408
 20
485.38768613268849
 30
0.0
 11
415.63401153174408
 21
498.6576861326883
 31
0.0
  0
LINE
  5
BA2F
  8
0
  6
CONTINUOUS
 62
     0
 10
474.86901153174449
 20
821.98023755354598
 30
0.0
 11
490.86894153174438
 21
821.98023755354598
 31
0.0
  0
LINE
  5
BA30
  8
0
  6
CONTINUOUS
 62
     0
 10
474.86901153174449
 20
844.46716855354589
 30
0.0
 11
490.86894153174438
 21
844.46716855354589
 31
0.0
  0
LINE
  5
BA31
  8
0
  6
CONTINUOUS
 62
     0
 10
474.86901153174449
 20
834.28787655354563
 30
0.0
 11
490.86894153174438
 21
834.28787655354563
 31
0.0
  0
LINE
  5
BA32
  8
0
  6
CONTINUOUS
 62
     0
 10
474.86901153174449
 20
946.25583655354615
 30
0.0
 11
490.86894153174438
 21
946.25583655354615
 31
0.0
  0
LINE
  5
BA33
  8
0
  6
CONTINUOUS
 62
     0
 10
474.86901153174449
 20
959.92951855354602
 30
0.0
 11
490.86894153174438
 21
959.92951855354602
 31
0.0
  0
LINE
  5
BA34
  8
0
  6
AM_ISO08W050
 10
130.4762006633091
 20
883.83983455354587
 30
0.0
 11
707.38298153174424
 21
884.18987455354568
 31
0.0
  0
LINE
  5
BA35
  8
0
  6
CONTINUOUS
 62
     0
 10
492.79924153174443
 20
1012.933654553546
 30
0.0
 11
503.86901153174449
 21
1013.320244553546
 31
0.0
  0
LINE
  5
BA36
  8
0
  6
CONTINUOUS
 62
     0
 10
490.86894153174438
 20
747.98009455354565
 30
0.0
 11
490.86894153174438
 21
874.65044455354621
 31
0.0
  0
LINE
  5
BA37
  8
0
  6
CONTINUOUS
 62
     0
 10
616.74779153174427
 20
844.0685345535461
 30
0.0
 11
620.99047153174467
 21
848.31121455354605
 31
0.0
  0
LINE
  5
BA38
  8
0
  6
CONTINUOUS
 62
     0
 10
616.74779153174427
 20
930.31121455354594
 30
0.0
 11
620.99047153174467
 21
926.06853455354599
 31
0.0
  0
LINE
  5
BA39
  8
0
  6
CONTINUOUS
 62
     0
 10
625.86901153174449
 20
905.18987455354556
 30
0.0
 11
695.86901153174449
 21
905.18987455354556
 31
0.0
  0
LINE
  5
BA3A
  8
0
  6
CONTINUOUS
 62
     0
 10
625.86901153174449
 20
863.18987455354602
 30
0.0
 11
695.86901153174449
 21
863.18987455354602
 31
0.0
  0
LINE
  5
BA3B
  8
0
  6
CONTINUOUS
 62
     0
 10
621.86907153174479
 20
906.68987455354636
 30
0.0
 11
625.86901153174449
 21
906.68987455354636
 31
0.0
  0
LINE
  5
BA3C
  8
0
  6
CONTINUOUS
 62
     0
 10
621.86907153174479
 20
861.68987455354556
 30
0.0
 11
625.86901153174449
 21
861.68987455354556
 31
0.0
  0
LINE
  5
BA3D
  8
0
  6
CONTINUOUS
 62
     0
 10
625.86901153174449
 20
861.68987455354556
 30
0.0
 11
625.86901153174449
 21
906.68987455354636
 31
0.0
  0
LINE
  5
BA3E
  8
0
  6
CONTINUOUS
 62
     0
 10
695.86901153174449
 20
863.18987455354602
 30
0.0
 11
695.86901153174449
 21
905.18987455354556
 31
0.0
  0
LINE
  5
BA3F
  8
0
  6
CONTINUOUS
 62
     0
 10
639.86901153174415
 20
890.18987455354613
 30
0.0
 11
639.86901153174415
 21
878.18987455354602
 31
0.0
  0
LINE
  5
BA40
  8
0
  6
CONTINUOUS
 62
     0
 10
429.86901153174449
 20
1016.253784553546
 30
0.0
 11
429.86901153174449
 21
982.68987455354602
 31
0.0
  0
LINE
  5
BA41
  8
0
  6
CONTINUOUS
 62
     0
 10
621.86901153174438
 20
1016.381104553546
 30
0.0
 11
621.86901153174438
 21
976.99865455354654
 31
0.0
  0
LINE
  5
BA42
  8
0
  6
CONTINUOUS
 62
     0
 10
508.86907153174462
 20
1024.1898745535459
 30
0.0
 11
618.00865153174436
 21
1020.378654553546
 31
0.0
  0
LINE
  5
BA43
  8
0
  6
CONTINUOUS
 62
     0
 10
433.65959153174481
 20
1020.248284553546
 30
0.0
 11
508.86894153174438
 21
1024.1898745535459
 31
0.0
  0
LINE
  5
BA44
  8
0
  6
CENTER
 62
     0
 10
433.86901153174449
 20
999.18987455354591
 30
0.0
 11
467.36901153174449
 21
999.18987455354591
 31
0.0
  0
LINE
  5
BA45
  8
0
  6
CENTER
 62
     0
 10
450.86901153174449
 20
1015.689874553546
 30
0.0
 11
450.86901153174449
 21
982.68987455354602
 31
0.0
  0
LINE
  5
BA46
  8
0
  6
CENTER
 62
     0
 10
600.86901153174449
 20
1015.689874553546
 30
0.0
 11
600.86901153174449
 21
982.68987455354602
 31
0.0
  0
LINE
  5
BA47
  8
0
  6
CONTINUOUS
 62
     0
 10
615.86901153174449
 20
970.07049455354615
 30
0.0
 11
615.86901153174449
 21
798.30932455354571
 31
0.0
  0
LINE
  5
BA48
  8
0
  6
CONTINUOUS
 62
     0
 10
469.7476748152443
 20
972.61257306213395
 30
0.0
 11
488.05834153174442
 21
971.01055455354617
 31
0.0
  0
LINE
  5
BA49
  8
0
  6
CONTINUOUS
 62
     0
 10
470.393684628671
 20
795.82369767461455
 30
0.0
 11
488.05846153174429
 21
797.36919455354632
 31
0.0
  0
LINE
  5
BA4A
  8
0
  6
CONTINUOUS
 62
     0
 10
433.65965153174449
 20
748.13146455354604
 30
0.0
 11
508.86901153174449
 21
744.18987455354625
 31
0.0
  0
LINE
  5
BA4B
  8
0
  6
CONTINUOUS
 62
     0
 10
508.86894153174438
 20
744.18987455354625
 30
0.0
 11
618.00853153174455
 21
748.00115455354558
 31
0.0
  0
LINE
  5
BA4C
  8
0
  6
CONTINUOUS
 62
     0
 10
621.86901153174438
 20
751.99865455354632
 30
0.0
 11
621.86901153174438
 21
791.38110455354604
 31
0.0
  0
LINE
  5
BA4D
  8
0
  6
CONTINUOUS
 62
     0
 10
429.86901153174449
 20
752.12597455354603
 30
0.0
 11
429.86901153174449
 21
787.18987455354602
 31
0.0
  0
LINE
  5
BA4E
  8
0
  6
CONTINUOUS
 62
     0
 10
503.86901153174449
 20
744.45190455354555
 30
0.0
 11
503.86901153174449
 21
880.18987455354602
 31
0.0
  0
LINE
  5
BA4F
  8
0
  6
CONTINUOUS
 62
     0
 10
621.86901153174438
 20
923.94726455354601
 30
0.0
 11
621.86901153174438
 21
850.43249455354635
 31
0.0
  0
LINE
  5
BA50
  8
0
  6
CONTINUOUS
 62
     0
 10
547.95940153174479
 20
1007.364014553546
 30
0.0
 11
566.14824153174447
 21
1006.728814553546
 31
0.0
  0
LINE
  5
BA51
  8
0
  6
CONTINUOUS
 62
     0
 10
573.86901153174449
 20
993.18987455354568
 30
0.0
 11
573.86901153174449
 21
998.73370455354654
 31
0.0
  0
LINE
  5
BA52
  8
0
  6
CONTINUOUS
 62
     0
 10
601.19408153174425
 20
970.73156455354615
 30
0.0
 11
611.04357153174465
 21
970.38763455354604
 31
0.0
  0
LINE
  5
BA53
  8
0
  6
CONTINUOUS
 62
     0
 10
531.68547153174484
 20
1020.353264553546
 30
0.0
 11
541.05254153174474
 21
1010.476554553546
 31
0.0
  0
LINE
  5
BA54
  8
0
  6
CONTINUOUS
 62
     0
 10
490.86894153174438
 20
1013.936824553546
 30
0.0
 11
483.49047153174462
 21
1014.861084553546
 31
0.0
  0
LINE
  5
BA55
  8
0
  6
CONTINUOUS
 62
     0
 10
573.86901153174449
 20
1016.742364553545
 30
0.0
 11
573.86901153174449
 21
998.73370455354654
 31
0.0
  0
LINE
  5
BA56
  8
0
  6
CONTINUOUS
 62
     0
 10
477.86901153174432
 20
1021.585074553546
 30
0.0
 11
477.86901153174432
 21
1013.736324553546
 31
0.0
  0
LINE
  5
BA57
  8
0
  6
CONTINUOUS
 62
     0
 10
583.86901153174449
 20
983.18987455354591
 30
0.0
 11
585.86901153174415
 21
983.18987455354591
 31
0.0
  0
LINE
  5
BA58
  8
0
  6
CENTER
 62
     0
 10
584.36901153174438
 20
999.18987455354591
 30
0.0
 11
617.86901153174438
 21
999.18987455354591
 31
0.0
  0
LINE
  5
BA59
  8
0
  6
CENTER
 62
     0
 10
433.86901153174449
 20
769.18987455354625
 30
0.0
 11
467.36901153174449
 21
769.18987455354625
 31
0.0
  0
LINE
  5
BA5A
  8
0
  6
CENTER
 62
     0
 10
450.86901153174449
 20
752.68987455354625
 30
0.0
 11
450.86901153174449
 21
785.68987455354602
 31
0.0
  0
LINE
  5
BA5B
  8
0
  6
CENTER
 62
     0
 10
600.86901153174449
 20
752.68987455354625
 30
0.0
 11
600.86901153174449
 21
785.68987455354602
 31
0.0
  0
LINE
  5
BA5C
  8
0
  6
CENTER
 62
     0
 10
584.36901153174438
 20
769.18987455354625
 30
0.0
 11
617.86901153174438
 21
769.18987455354625
 31
0.0
  0
LINE
  5
BA5D
  8
0
  6
CONTINUOUS
 62
     0
 10
547.95934153174426
 20
761.01574455354603
 30
0.0
 11
566.14818153174429
 21
761.65093455354565
 31
0.0
  0
LINE
  5
BA5E
  8
0
  6
CONTINUOUS
 62
     0
 10
573.86901153174449
 20
775.18987455354568
 30
0.0
 11
573.86901153174449
 21
769.64605455354558
 31
0.0
  0
LINE
  5
BA5F
  8
0
  6
CONTINUOUS
 62
     0
 10
601.19402153174497
 20
797.648184553546
 30
0.0
 11
611.04344153174452
 21
797.99212455354632
 31
0.0
  0
LINE
  5
BA60
  8
0
  6
CONTINUOUS
 62
     0
 10
531.68541153174465
 20
748.02648455354631
 30
0.0
 11
541.05260153174447
 21
757.90325455354605
 31
0.0
  0
LINE
  5
BA61
  8
0
  6
CONTINUOUS
 62
     0
 10
573.86901153174449
 20
751.63738455354598
 30
0.0
 11
573.86901153174449
 21
769.64605455354558
 31
0.0
  0
LINE
  5
BA62
  8
0
  6
CONTINUOUS
 62
     0
 10
583.86901153174449
 20
785.18987455354602
 30
0.0
 11
585.86901153174415
 21
785.18987455354602
 31
0.0
  0
LINE
  5
BA63
  8
0
  6
CONTINUOUS
 62
     0
 10
593.86901153174415
 20
793.18987455354602
 30
0.0
 11
593.86901153174415
 21
975.18987455354591
 31
0.0
  0
LINE
  5
BA64
  8
0
  6
CONTINUOUS
 62
     0
 10
518.86901153174415
 20
757.51470455354615
 30
0.0
 11
518.86901153174415
 21
804.62408455354569
 31
0.0
  0
LINE
  5
BA65
  8
0
  6
CONTINUOUS
 62
     0
 10
520.79924153174477
 20
761.63042455354571
 30
0.0
 11
545.4022115317448
 21
762.48962455354615
 31
0.0
  0
LINE
  5
BA66
  8
0
  6
CONTINUOUS
 62
     0
 10
503.86894153174438
 20
755.05950455354571
 30
0.0
 11
516.93883153174465
 21
755.51592455354603
 31
0.0
  0
LINE
  5
BA67
  8
0
  6
CONTINUOUS
 62
     0
 10
518.86901153174415
 20
834.62536455354598
 30
0.0
 11
518.86901153174415
 21
933.75439455354592
 31
0.0
  0
LINE
  5
BA68
  8
0
  6
CONTINUOUS
 62
     0
 10
523.36901153174415
 20
806.62408455354603
 30
0.0
 11
523.36901153174415
 21
832.62536455354586
 31
0.0
  0
LINE
  5
BA69
  8
0
  6
CONTINUOUS
 62
     0
 10
490.86894153174438
 20
806.62408455354603
 30
0.0
 11
516.86901153174449
 21
806.62408455354603
 31
0.0
  0
LINE
  5
BA6A
  8
0
  6
CONTINUOUS
 62
     0
 10
490.86894153174438
 20
832.62536455354586
 30
0.0
 11
516.86901153174449
 21
832.62536455354586
 31
0.0
  0
LINE
  5
BA6B
  8
0
  6
CONTINUOUS
 62
     0
 10
523.36901153174415
 20
961.75567455354587
 30
0.0
 11
523.36901153174415
 21
935.75439455354615
 31
0.0
  0
LINE
  5
BA6C
  8
0
  6
CONTINUOUS
 62
     0
 10
520.79924153174477
 20
1006.749324553546
 30
0.0
 11
545.40227153174465
 21
1005.890134553546
 31
0.0
  0
LINE
  5
BA6D
  8
0
  6
CONTINUOUS
 62
     0
 10
503.86901153174449
 20
1013.320244553546
 30
0.0
 11
516.9388915317445
 21
1012.863824553546
 31
0.0
  0
LINE
  5
BA6E
  8
0
  6
CONTINUOUS
 62
     0
 10
490.86894153174438
 20
935.75439455354615
 30
0.0
 11
516.86901153174449
 21
935.75439455354615
 31
0.0
  0
LINE
  5
BA6F
  8
0
  6
CONTINUOUS
 62
     0
 10
518.86901153174415
 20
1010.865044553546
 30
0.0
 11
518.86901153174415
 21
963.75567455354599
 31
0.0
  0
LINE
  5
BA70
  8
0
  6
CONTINUOUS
 62
     0
 10
490.86894153174438
 20
961.75567455354587
 30
0.0
 11
516.86901153174449
 21
961.75567455354587
 31
0.0
  0
LINE
  5
BA71
  8
0
  6
CONTINUOUS
 62
     0
 10
639.86901153174415
 20
878.18987455354602
 30
0.0
 11
695.86901153174449
 21
878.18987455354602
 31
0.0
  0
LINE
  5
BA72
  8
0
  6
CONTINUOUS
 62
     0
 10
639.86901153174415
 20
890.18987455354613
 30
0.0
 11
695.86901153174449
 21
890.18987455354613
 31
0.0
  0
LINE
  5
BA73
  8
0
  6
CONTINUOUS
 62
     0
 10
492.79924153174443
 20
755.44610455354632
 30
0.0
 11
503.86907153174462
 21
755.05950455354571
 31
0.0
  0
LINE
  5
BA74
  8
0
  6
CONTINUOUS
 62
     0
 10
490.86901153174449
 20
754.44292455354628
 30
0.0
 11
483.49047153174462
 21
753.51867455354602
 31
0.0
  0
LINE
  5
BA75
  8
0
  6
CONTINUOUS
 62
     0
 10
477.86901153174432
 20
746.79467455354632
 30
0.0
 11
477.86901153174432
 21
754.64342455354608
 31
0.0
  0
LINE
  5
BA76
  8
0
  6
CENTER
 62
     0
 10
487.86907153174451
 20
867.48150455354642
 30
0.0
 11
487.86907153174451
 21
898.79479455354556
 31
0.0
  0
LINE
  5
BA77
  8
0
  6
CONTINUOUS
 62
     0
 10
471.36907153174462
 20
880.18987455354602
 30
0.0
 11
504.36907153174451
 21
880.18987455354602
 31
0.0
  0
LINE
  5
BA78
  8
0
  6
CONTINUOUS
 62
     0
 10
471.36907153174462
 20
888.18981455354572
 30
0.0
 11
504.36907153174451
 21
888.18981455354572
 31
0.0
  0
LINE
  5
BA79
  8
0
  6
CONTINUOUS
 62
     0
 10
503.86901153174449
 20
888.18981455354572
 30
0.0
 11
503.86901153174449
 21
1023.927854553546
 31
0.0
  0
LINE
  5
BA7A
  8
0
  6
CONTINUOUS
 62
     0
 10
490.86894153174438
 20
893.72930455354606
 30
0.0
 11
490.86894153174438
 21
1020.399654553546
 31
0.0
  0
LINE
  5
BA7B
  8
0
  6
CONTINUOUS
 62
     0
 10
523.36901153174415
 20
747.95275455354601
 30
0.0
 11
523.36901153174415
 21
759.98510455354585
 31
0.0
  0
LINE
  5
BA7C
  8
0
  6
CONTINUOUS
 62
     0
 10
523.36901153174415
 20
1008.469724553546
 30
0.0
 11
523.36901153174415
 21
1020.423214553546
 31
0.0
  0
LINE
  5
BA7D
  8
0
  6
CONTINUOUS
 62
     0
 10
474.86901153174449
 20
800.18987455354556
 30
0.0
 11
474.86901153174449
 21
880.18987455354602
 31
0.0
  0
LINE
  5
BA7E
  8
0
  6
CONTINUOUS
 62
     0
 10
487.00853153174512
 20
799.76598455354588
 30
0.0
 11
474.86907153174462
 21
800.18993455354587
 31
0.0
  0
LINE
  5
BA7F
  8
0
  6
CONTINUOUS
 62
     0
 10
487.00853153174512
 20
968.61382455354601
 30
0.0
 11
474.86901153174449
 21
968.18987455354568
 31
0.0
  0
LINE
  5
BA80
  8
0
  6
CONTINUOUS
 62
     0
 10
487.00859153174451
 20
970.97387455354601
 30
0.0
 11
476.86907153174479
 21
970.61980455354615
 31
0.0
  0
LINE
  5
BA81
  8
0
  6
CONTINUOUS
 62
     0
 10
476.86907153174479
 20
968.25970455354604
 30
0.0
 11
476.86907153174479
 21
970.61986455354599
 31
0.0
  0
LINE
  5
BA82
  8
0
  6
CONTINUOUS
 62
     0
 10
476.86907153174479
 20
800.11999455354635
 30
0.0
 11
476.86907153174479
 21
797.75988455354604
 31
0.0
  0
LINE
  5
BA83
  8
0
  6
CONTINUOUS
 62
     0
 10
487.00859153174451
 20
797.40588455354566
 30
0.0
 11
476.86913153174459
 21
797.75994455354567
 31
0.0
  0
LINE
  5
BA84
  8
0
  6
CONTINUOUS
 62
     0
 10
474.86901153174449
 20
888.18981455354572
 30
0.0
 11
474.86901153174449
 21
968.18987455354568
 31
0.0
  0
ARC
  5
BA85
  8
0
  6
CONTINUOUS
 62
     0
 10
492.86901153174438
 20
1010.934874553546
 30
0.0
 40
2.0
 50
91.999997999994051
 51
180.000010000001
  0
ARC
  5
BA86
  8
0
  6
CONTINUOUS
 62
     0
 10
618.86901153174415
 20
932.43249455354601
 30
0.0
 40
3.0
 50
179.999989999999
 51
224.99999999999079
  0
ARC
  5
BA87
  8
0
  6
CONTINUOUS
 62
     0
 10
618.86901153174415
 20
850.43249455354635
 30
0.0
 40
3.0
 50
315.00000000000921
 51
0.0
  0
ARC
  5
BA88
  8
0
  6
CONTINUOUS
 62
     0
 10
618.86901153174415
 20
923.94726455354601
 30
0.0
 40
3.0
 50
0.0
 51
45.000000999994569
  0
ARC
  5
BA89
  8
0
  6
CONTINUOUS
 62
     0
 10
618.86901153174415
 20
841.94726455354601
 30
0.0
 40
3.0
 50
135.00000000000921
 51
180.000010000001
  0
ARC
  5
BA8A
  8
0
  6
CONTINUOUS
 62
     0
 10
433.86901153174449
 20
1016.253784553546
 30
0.0
 40
4.0
 50
92.999998999995213
 51
180.000010000001
  0
ARC
  5
BA8B
  8
0
  6
CONTINUOUS
 62
     0
 10
617.86901153174438
 20
976.99865455354654
 30
0.0
 40
4.0
 50
278.21321999998997
 51
0.0
  0
CIRCLE
  5
BA8C
  8
0
  6
CONTINUOUS
 62
     0
 10
600.86901153174449
 20
999.18987455354591
 30
0.0
 40
9.5
  0
CIRCLE
  5
BA8D
  8
0
  6
CONTINUOUS
 62
     0
 10
450.86901153174449
 20
999.18987455354591
 30
0.0
 40
9.5
  0
ARC
  5
BA8E
  8
0
  6
CONTINUOUS
 62
     0
 10
617.86901153174438
 20
751.99865455354632
 30
0.0
 40
4.0
 50
272.00000000000369
 51
0.0
  0
CIRCLE
  5
BA8F
  8
0
  6
CONTINUOUS
 62
     0
 10
450.86901153174449
 20
769.18987455354625
 30
0.0
 40
9.5
  0
CIRCLE
  5
BA90
  8
0
  6
CONTINUOUS
 62
     0
 10
600.86901153174449
 20
769.18987455354625
 30
0.0
 40
9.5
  0
ARC
  5
BA91
  8
0
  6
CONTINUOUS
 62
     0
 10
617.86901153174438
 20
791.38110455354604
 30
0.0
 40
4.0
 50
0.0
 51
81.786789000013059
  0
ARC
  5
BA92
  8
0
  6
CONTINUOUS
 62
     0
 10
433.86901153174449
 20
752.12597455354603
 30
0.0
 40
4.0
 50
180.000010000001
 51
266.99998999999372
  0
ARC
  5
BA93
  8
0
  6
CONTINUOUS
 62
     0
 10
617.86901153174438
 20
1016.381104553546
 30
0.0
 40
4.0
 50
0.0
 51
87.999999999996248
  0
ARC
  5
BA94
  8
0
  6
CONTINUOUS
 62
     0
 10
618.86901153174415
 20
841.94726455354601
 30
0.0
 40
3.0
 50
135.00000000000921
 51
180.000010000001
  0
ARC
  5
BA95
  8
0
  6
CONTINUOUS
 62
     0
 10
618.86901153174415
 20
923.94726455354601
 30
0.0
 40
3.0
 50
0.0
 51
44.999998000020042
  0
ARC
  5
BA96
  8
0
  6
CONTINUOUS
 62
     0
 10
618.86901153174415
 20
850.43249455354635
 30
0.0
 40
3.0
 50
315.00000000000921
 51
0.0
  0
ARC
  5
BA97
  8
0
  6
CONTINUOUS
 62
     0
 10
618.86901153174415
 20
932.43249455354601
 30
0.0
 40
3.0
 50
180.000010000001
 51
224.99999999999079
  0
ARC
  5
BA98
  8
0
  6
CONTINUOUS
 62
     0
 10
548.30834153174465
 20
1017.3579045535459
 30
0.0
 40
10.0
 50
223.48296000001989
 51
267.99999999999619
  0
ARC
  5
BA99
  8
0
  6
CONTINUOUS
 62
     0
 10
565.86901153174449
 20
998.73370455354654
 30
0.0
 40
8.0
 50
0.0
 51
87.999999999996248
  0
ARC
  5
BA9A
  8
0
  6
CONTINUOUS
 62
     0
 10
524.42967153174448
 20
1013.471854553546
 30
0.0
 40
10.0
 50
43.482964999999631
 51
87.999999999996248
  0
ARC
  5
BA9B
  8
0
  6
CONTINUOUS
 62
     0
 10
482.86901153174449
 20
1009.899834553546
 30
0.0
 40
5.0
 50
82.860167000000104
 51
180.000010000001
  0
ARC
  5
BA9C
  8
0
  6
CONTINUOUS
 62
     0
 10
578.86901153174449
 20
1016.742364553545
 30
0.0
 40
5.0
 50
87.999999999996248
 51
180.000010000001
  0
ARC
  5
BA9D
  8
0
  6
CONTINUOUS
 62
     0
 10
583.86901153174449
 20
993.18987455354568
 30
0.0
 40
10.0
 50
180.000010000001
 51
270.0
  0
ARC
  5
BA9E
  8
0
  6
CONTINUOUS
 62
     0
 10
610.86901153174415
 20
965.39062455354588
 30
0.0
 40
5.0
 50
0.0
 51
87.999999999996248
  0
ARC
  5
BA9F
  8
0
  6
CONTINUOUS
 62
     0
 10
618.86901153174415
 20
970.07049455354615
 30
0.0
 40
3.0
 50
98.213209000014999
 51
180.000010000001
  0
ARC
  5
BAA0
  8
0
  6
CONTINUOUS
 62
     0
 10
548.30834153174465
 20
751.02184455354609
 30
0.0
 40
10.0
 50
91.999997999994051
 51
136.51703999998011
  0
ARC
  5
BAA1
  8
0
  6
CONTINUOUS
 62
     0
 10
565.86901153174449
 20
769.64605455354558
 30
0.0
 40
8.0
 50
272.00000000000369
 51
0.0
  0
ARC
  5
BAA2
  8
0
  6
CONTINUOUS
 62
     0
 10
524.42967153174448
 20
754.90783455354631
 30
0.0
 40
10.0
 50
272.00000000000369
 51
316.51703999998011
  0
ARC
  5
BAA3
  8
0
  6
CONTINUOUS
 62
     0
 10
578.86901153174449
 20
751.63738455354598
 30
0.0
 40
5.0
 50
180.000010000001
 51
271.99999000000793
  0
ARC
  5
BAA4
  8
0
  6
CONTINUOUS
 62
     0
 10
583.86901153174449
 20
775.18987455354568
 30
0.0
 40
10.0
 50
90.000002999984659
 51
180.000010000001
  0
ARC
  5
BAA5
  8
0
  6
CONTINUOUS
 62
     0
 10
610.86901153174415
 20
802.98913455354602
 30
0.0
 40
5.0
 50
272.00000000000369
 51
0.0
  0
ARC
  5
BAA6
  8
0
  6
CONTINUOUS
 62
     0
 10
618.86901153174415
 20
798.30932455354571
 30
0.0
 40
3.0
 50
180.000010000001
 51
261.78678000000991
  0
ARC
  5
BAA7
  8
0
  6
CONTINUOUS
 62
     0
 10
585.86901153174415
 20
793.18987455354602
 30
0.0
 40
8.0
 50
270.0
 51
0.0
  0
ARC
  5
BAA8
  8
0
  6
CONTINUOUS
 62
     0
 10
601.47319153174465
 20
789.65307455354571
 30
0.0
 40
8.0
 50
91.999997999994051
 51
167.22924999998611
  0
ARC
  5
BAA9
  8
0
  6
CONTINUOUS
 62
     0
 10
585.86901153174415
 20
975.18987455354591
 30
0.0
 40
8.0
 50
0.0
 51
90.000002999984659
  0
ARC
  5
BAAA
  8
0
  6
CONTINUOUS
 62
     0
 10
601.47319153174465
 20
978.72668455354585
 30
0.0
 40
8.0
 50
192.77075000001381
 51
267.99999999999619
  0
ARC
  5
BAAB
  8
0
  6
CONTINUOUS
 62
     0
 10
516.86901153174449
 20
757.51470455354615
 30
0.0
 40
2.0
 50
272.00000000000369
 51
0.0
  0
ARC
  5
BAAC
  8
0
  6
CONTINUOUS
 62
     0
 10
520.86901153174449
 20
759.63164455354604
 30
0.0
 40
2.0
 50
91.999997999994051
 51
180.000010000001
  0
ARC
  5
BAAD
  8
0
  6
CONTINUOUS
 62
     0
 10
516.86901153174449
 20
804.62408455354569
 30
0.0
 40
2.0
 50
0.0
 51
90.000002999984659
  0
ARC
  5
BAAE
  8
0
  6
CONTINUOUS
 62
     0
 10
516.86901153174449
 20
834.62536455354598
 30
0.0
 40
2.0
 50
270.0
 51
0.0
  0
ARC
  5
BAAF
  8
0
  6
CONTINUOUS
 62
     0
 10
522.89708153174445
 20
806.24364455354635
 30
0.0
 40
2.0
 50
270.0
 51
296.80020000000297
  0
ARC
  5
BAB0
  8
0
  6
CONTINUOUS
 62
     0
 10
522.41863153174415
 20
838.50927455354622
 30
0.0
 40
3.0
 50
54.34832400001379
 51
90.000002999984659
  0
ARC
  5
BAB1
  8
0
  6
CONTINUOUS
 62
     0
 10
522.89708153174445
 20
962.13610455354603
 30
0.0
 40
2.0
 50
63.199808999993571
 51
90.000002999984659
  0
ARC
  5
BAB2
  8
0
  6
CONTINUOUS
 62
     0
 10
516.86901153174449
 20
1010.865044553546
 30
0.0
 40
2.0
 50
0.0
 51
87.999999999996248
  0
ARC
  5
BAB3
  8
0
  6
CONTINUOUS
 62
     0
 10
520.86901153174449
 20
1008.748104553546
 30
0.0
 40
2.0
 50
180.000010000001
 51
267.99999999999619
  0
ARC
  5
BAB4
  8
0
  6
CONTINUOUS
 62
     0
 10
522.41863153174415
 20
929.87048455354613
 30
0.0
 40
3.0
 50
270.0
 51
305.65167000001168
  0
ARC
  5
BAB5
  8
0
  6
CONTINUOUS
 62
     0
 10
516.86901153174449
 20
963.75567455354599
 30
0.0
 40
2.0
 50
270.0
 51
0.0
  0
ARC
  5
BAB6
  8
0
  6
CONTINUOUS
 62
     0
 10
516.86901153174449
 20
933.75439455354592
 30
0.0
 40
2.0
 50
0.0
 51
90.000002999984659
  0
ARC
  5
BAB7
  8
0
  6
CONTINUOUS
 62
     0
 10
639.86901153174415
 20
884.18987455354568
 30
0.0
 40
6.0000037999999991
 50
90.000002999984659
 51
270.0
  0
ARC
  5
BAB8
  8
0
  6
CONTINUOUS
 62
     0
 10
493.86894153174433
 20
1020.399654553546
 30
0.0
 40
3.0
 50
92.999998999995213
 51
180.000010000001
  0
ARC
  5
BAB9
  8
0
  6
CONTINUOUS
 62
     0
 10
492.86901153174438
 20
757.44494455354561
 30
0.0
 40
2.0
 50
179.999989999999
 51
268.00000999999207
  0
ARC
  5
BABA
  8
0
  6
CONTINUOUS
 62
     0
 10
493.86894153174433
 20
747.98009455354565
 30
0.0
 40
3.0
 50
180.000010000001
 51
266.99998999999372
  0
ARC
  5
BABB
  8
0
  6
CONTINUOUS
 62
     0
 10
482.86901153174449
 20
758.47991455354565
 30
0.0
 40
5.0
 50
180.000010000001
 51
277.13982999999359
  0
ARC
  5
BABC
  8
0
  6
CONTINUOUS
 62
     0
 10
487.86907153174451
 20
884.18987455354568
 30
0.0
 40
10.0
 50
23.578037000012301
 51
156.4219599999864
  0
ARC
  5
BABD
  8
0
  6
CONTINUOUS
 62
     0
 10
471.36907153174462
 20
884.18987455354568
 30
0.0
 40
3.9999962
 50
90.000002999984659
 51
270.0
  0
ARC
  5
BABE
  8
0
  6
CONTINUOUS
 62
     0
 10
504.36907153174451
 20
884.18987455354568
 30
0.0
 40
3.9999962
 50
270.0
 51
90.000002999984659
  0
ARC
  5
BABF
  8
0
  6
CONTINUOUS
 62
     0
 10
487.86907153174451
 20
884.18987455354568
 30
0.0
 40
10.0
 50
203.57826999998659
 51
336.42171999998681
  0
ARC
  5
BAC0
  8
0
  6
CONTINUOUS
 62
     0
 10
487.86907153174451
 20
884.18987455354568
 30
0.0
 40
11.0
 50
97.181195000010575
 51
158.67647999999841
  0
ARC
  5
BAC1
  8
0
  6
CONTINUOUS
 62
     0
 10
485.86894153174433
 20
868.31536455354558
 30
0.0
 40
5.0
 50
0.0
 51
82.818802999995938
  0
ARC
  5
BAC2
  8
0
  6
CONTINUOUS
 62
     0
 10
485.86894153174433
 20
900.06438455354555
 30
0.0
 40
5.0
 50
277.181199999993
 51
0.0
  0
ARC
  5
BAC3
  8
0
  6
CONTINUOUS
 62
     0
 10
487.86907153174451
 20
884.18987455354568
 30
0.0
 40
11.0
 50
201.3237799999894
 51
262.81880000000689
  0
ARC
  5
BAC4
  8
0
  6
CONTINUOUS
 62
     0
 10
486.86894153174438
 20
793.40832455354564
 30
0.0
 40
4.0
 50
0.0
 51
87.999999999996248
  0
ARC
  5
BAC5
  8
0
  6
CONTINUOUS
 62
     0
 10
486.86894153174438
 20
795.76842455354642
 30
0.0
 40
4.0
 50
0.0
 51
87.999999999996248
  0
ARC
  5
BAC6
  8
0
  6
CONTINUOUS
 62
     0
 10
486.86894153174438
 20
974.97149455354599
 30
0.0
 40
4.0
 50
272.00000000000369
 51
0.0
  0
ARC
  5
BAC7
  8
0
  6
CONTINUOUS
 62
     0
 10
486.86894153174438
 20
972.61138455354603
 30
0.0
 40
4.0
 50
272.00000000000369
 51
0.0
  0
POLYLINE
  5
BAC8
  8
0
  6
CONTINUOUS
 62
     0
 66
     1
 10
0.0
 20
0.0
 30
0.0
  0
VERTEX
  5
BAC9
  8
0
  6
CONTINUOUS
 62
     0
 10
523.79870153174488
 20
804.45838455354556
 30
0.0
 42
0.110757
  0
VERTEX
  5
BACA
  8
0
  6
CONTINUOUS
 62
     0
 10
536.67965153174464
 20
814.366124553546
 30
0.0
 42
0.2037583
  0
VERTEX
  5
BACB
  8
0
  6
CONTINUOUS
 62
     0
 10
538.93737153174413
 20
822.03159455354603
 30
0.0
  0
VERTEX
  5
BACC
  8
0
  6
CONTINUOUS
 62
     0
 10
524.16757153174456
 20
840.94671455354614
 30
0.0
 42
-1.0
  0
SEQEND
  5
BACD
  8
0
 62
     0
  0
POLYLINE
  5
BACE
  8
0
  6
CONTINUOUS
 62
     0
 66
     1
 10
0.0
 20
0.0
 30
0.0
  0
VERTEX
  5
BACF
  8
0
  6
CONTINUOUS
 62
     0
 10
523.79870153174488
 20
963.92136455354614
 30
0.0
 42
-0.110757
  0
VERTEX
  5
BAD0
  8
0
  6
CONTINUOUS
 62
     0
 10
536.67965153174464
 20
954.01362455354604
 30
0.0
 42
-0.2037583
  0
VERTEX
  5
BAD1
  8
0
  6
CONTINUOUS
 62
     0
 10
538.93737153174413
 20
946.34815455354601
 30
0.0
  0
VERTEX
  5
BAD2
  8
0
  6
CONTINUOUS
 62
     0
 10
524.16757153174456
 20
927.43303455354601
 30
0.0
 42
-1.0
  0
SEQEND
  5
BAD3
  8
0
 62
     0
  0
LINE
  5
BAD4
  8
0
 62
     0
 10
474.86901153174449
 20
799.18987455354568
 30
0.0
 11
474.86901153174449
 21
880.18987455354556
 31
0.0
  0
LINE
  5
BAD5
  8
0
 62
     0
 10
474.86901153174449
 20
888.18981455354572
 30
0.0
 11
474.86901153174449
 21
969.18987455354613
 31
0.0
  0
ARC
  5
BAD6
  8
0
 10
255.7020115317446
 20
757.01385455354557
 30
0.0
 40
7.3402899999999969
 50
116.67697999999911
 51
177.347979999996
  0
ARC
  5
BAD7
  8
0
 10
245.57604153174449
 20
776.27386455354565
 30
0.0
 40
15.0
 50
316.51494999999102
 51
336.8849500000079
  0
ARC
  5
BAD8
  8
0
 10
255.7020115317446
 20
750.36590455354565
 30
0.0
 40
7.3402899999999969
 50
182.65198000000061
 51
265.23795999998953
  0
ARC
  5
BAD9
  8
0
 10
255.7020115317446
 20
749.68682455354565
 30
0.0
 40
7.3402899999999969
 50
94.761785000011997
 51
177.347979999996
  0
ARC
  5
BADA
  8
0
 10
245.57604153174449
 20
768.94683455354573
 30
0.0
 40
15.0
 50
316.51494999999102
 51
336.8849500000079
  0
ARC
  5
BADB
  8
0
 10
259.2750115317445
 20
762.65386455354565
 30
0.0
 40
5.8039399999999972
 50
283.12597000000932
 51
344.53995000000418
  0
ARC
  5
BADC
  8
0
 10
270.86901153174449
 20
760.47979455354573
 30
0.0
 40
6.0
 50
89.999989000004106
 51
179.99997999999789
  0
ARC
  5
BADD
  8
0
 10
270.86901153174449
 20
758.15081455354573
 30
0.0
 40
12.5
 50
89.999989000004106
 51
156.88498000000729
  0
ARC
  5
BADE
  8
0
 10
418.03502153174441
 20
757.01385455354557
 30
0.0
 40
7.3402899999999969
 50
2.6518660000028751
 51
63.32309399999528
  0
ARC
  5
BADF
  8
0
 10
428.1610015317446
 20
776.27386455354565
 30
0.0
 40
15.0
 50
203.1149699999892
 51
223.48497000000719
  0
ARC
  5
BAE0
  8
0
 10
418.03502153174441
 20
750.36590455354565
 30
0.0
 40
7.3402899999999969
 50
274.76196000001192
 51
357.34795000000082
  0
ARC
  5
BAE1
  8
0
 10
418.03502153174441
 20
749.68682455354565
 30
0.0
 40
7.3402899999999969
 50
2.6518660000028751
 51
85.238185999988175
  0
ARC
  5
BAE2
  8
0
 10
428.1610015317446
 20
768.94683455354573
 30
0.0
 40
15.0
 50
203.1149699999892
 51
223.48497000000719
  0
ARC
  5
BAE3
  8
0
 10
414.46300153174479
 20
737.39886455354565
 30
0.0
 40
5.8039399999999972
 50
103.12598999998779
 51
164.53998000000831
  0
ARC
  5
BAE4
  8
0
 10
414.46300153174479
 20
762.65386455354565
 30
0.0
 40
5.8039399999999972
 50
195.4599800000006
 51
256.87396999999709
  0
ARC
  5
BAE5
  8
0
 10
259.2750115317445
 20
737.39886455354565
 30
0.0
 40
5.8039399999999972
 50
15.459701000003831
 51
76.873785999998731
  0
ARC
  5
BAE6
  8
0
 10
270.86901153174449
 20
731.18987455354556
 30
0.0
 40
6.0
 50
179.99997999999789
 51
269.9999499999949
  0
ARC
  5
BAE7
  8
0
 10
270.86901153174449
 20
735.7484485535457
 30
0.0
 40
12.5
 50
179.99997999999789
 51
269.9999499999949
  0
ARC
  5
BAE8
  8
0
 10
402.86901153174432
 20
731.18987455354556
 30
0.0
 40
6.0
 50
269.99995999999589
 51
359.9999500000016
  0
ARC
  5
BAE9
  8
0
 10
402.86901153174432
 20
735.7484485535457
 30
0.0
 40
12.5
 50
269.99995999999589
 51
359.9999500000016
  0
ARC
  5
BAEA
  8
0
 10
402.86901153174432
 20
760.47979455354573
 30
0.0
 40
6.0
 50
0.0
 51
89.999989000004106
  0
ARC
  5
BAEB
  8
0
 10
402.86901153174432
 20
758.15081455354573
 30
0.0
 40
12.5
 50
23.114594999997099
 51
89.999989000004106
  0
ARC
  5
BAEC
  8
0
 10
269.86901153174449
 20
773.18987455354556
 30
0.0
 40
6.0
 50
89.999989000004106
 51
147.54197999998669
  0
ARC
  5
BAED
  8
0
 10
270.86901153174449
 20
765.47784455354599
 30
0.0
 40
12.5
 50
89.999989000004106
 51
156.9299800000079
  0
ARC
  5
BAEE
  8
0
 10
403.86901153174449
 20
773.18987455354556
 30
0.0
 40
6.0
 50
32.458496999997593
 51
89.999989000004106
  0
ARC
  5
BAEF
  8
0
 10
402.86901153174432
 20
765.47784455354599
 30
0.0
 40
12.5
 50
23.114594999997099
 51
89.999989000004106
  0
LINE
  5
BAF0
  8
0
 10
405.36901153174438
 20
778.99883455354586
 30
0.0
 11
405.36901153174438
 21
782.18987455354568
 31
0.0
  0
LINE
  5
BAF1
  8
0
 10
330.36901153174449
 20
779.18987455354568
 30
0.0
 11
330.36901153174449
 21
782.18987455354568
 31
0.0
  0
LINE
  5
BAF2
  8
0
 10
256.45995153174448
 20
765.95184455354558
 30
0.0
 11
252.4069715317446
 21
763.57281455354564
 31
0.0
  0
LINE
  5
BAF3
  8
0
 10
255.09300153174439
 20
743.05083455354566
 30
0.0
 11
260.59300153174439
 21
743.05083455354566
 31
0.0
  0
LINE
  5
BAF4
  8
0
 10
256.45995153174448
 20
758.62487455354574
 30
0.0
 11
252.40703153174451
 21
756.24487455354563
 31
0.0
  0
LINE
  5
BAF5
  8
0
 10
255.0589515317447
 20
756.99889455354571
 30
0.0
 11
260.5929415317446
 21
757.00195455354572
 31
0.0
  0
LINE
  5
BAF6
  8
0
 10
248.36901153174449
 20
750.04888455354569
 30
0.0
 11
248.36901153174449
 21
757.33086455354567
 31
0.0
  0
LINE
  5
BAF7
  8
0
 10
258.36901153174449
 20
746.87688455354589
 30
0.0
 11
258.36901153174449
 21
753.73980455354558
 31
0.0
  0
LINE
  5
BAF8
  8
0
 10
261.86705153174438
 20
750.02581455354573
 30
0.0
 11
255.6090015317445
 21
750.02581455354573
 31
0.0
  0
LINE
  5
BAF9
  8
0
 10
417.27794153174449
 20
765.95190455354589
 30
0.0
 11
421.33098153174473
 21
763.57287455354572
 31
0.0
  0
LINE
  5
BAFA
  8
0
 10
418.64501153174427
 20
743.05083455354566
 30
0.0
 11
413.14501153174427
 21
743.05083455354566
 31
0.0
  0
LINE
  5
BAFB
  8
0
 10
417.27800153174411
 20
758.62481455354555
 30
0.0
 11
421.33098153174473
 21
756.24480455354569
 31
0.0
  0
LINE
  5
BAFC
  8
0
 10
418.67790153174462
 20
756.99883455354598
 30
0.0
 11
413.14495153174408
 21
757.00188455354555
 31
0.0
  0
LINE
  5
BAFD
  8
0
 10
425.36901153174449
 20
750.04888455354569
 30
0.0
 11
425.36901153174449
 21
757.33086455354567
 31
0.0
  0
LINE
  5
BAFE
  8
0
 10
415.36901153174432
 20
746.87688455354589
 30
0.0
 11
415.36901153174432
 21
753.73980455354558
 31
0.0
  0
LINE
  5
BAFF
  8
0
 10
411.86998153174449
 20
750.02581455354573
 30
0.0
 11
418.1280415317446
 21
750.02581455354573
 31
0.0
  0
LINE
  5
BB00
  8
0
 10
264.86901153174449
 20
731.18987655354556
 30
0.0
 11
264.86901153174449
 21
760.47979455354573
 31
0.0
  0
LINE
  5
BB01
  8
0
 10
258.36901153174449
 20
735.7484485535457
 30
0.0
 11
258.36901153174449
 21
743.05083455354566
 31
0.0
  0
LINE
  5
BB02
  8
0
 10
408.86901153174449
 20
731.18986955354569
 30
0.0
 11
408.86901153174449
 21
760.47979455354573
 31
0.0
  0
LINE
  5
BB03
  8
0
 10
270.86901153174449
 20
770.65081455354573
 30
0.0
 11
402.86901153174432
 21
770.65081455354573
 31
0.0
  0
LINE
  5
BB04
  8
0
 10
415.36901153174432
 20
735.7484485535457
 30
0.0
 11
415.36901153174432
 21
743.05083455354566
 31
0.0
  0
LINE
  5
BB05
  8
0
 10
270.86901153174449
 20
723.2484485535457
 30
0.0
 11
402.86901153174432
 21
723.2484485535457
 31
0.0
  0
LINE
  5
BB06
  8
0
 10
270.86901153174449
 20
725.18987455354568
 30
0.0
 11
402.86901153174432
 21
725.18987455354568
 31
0.0
  0
LINE
  5
BB07
  8
0
 10
270.86901153174449
 20
766.47979455354573
 30
0.0
 11
402.86901153174432
 21
766.47979455354573
 31
0.0
  0
LINE
  5
BB08
  8
0
 10
269.86901153174449
 20
779.18987455354568
 30
0.0
 11
403.86901153174449
 21
779.18987455354568
 31
0.0
  0
LINE
  5
BB09
  8
0
 10
270.86901153174449
 20
777.97784455354599
 30
0.0
 11
402.86901153174432
 21
777.97784455354599
 31
0.0
  0
LINE
  5
BB0A
  8
0
 10
269.86901153174449
 20
776.18987455354556
 30
0.0
 11
403.86901153174449
 21
776.18987455354556
 31
0.0
  0
ARC
  5
BB0B
  8
0
 10
275.81265553174438
 20
801.78919455354605
 30
0.0
 40
2.0
 50
189.99999999999861
 51
270.0
  0
LINE
  5
BB0C
  8
0
 10
273.84304053174452
 20
801.44189855354557
 30
0.0
 11
270.86901153174449
 21
818.30845255354586
 31
0.0
  0
LINE
  5
BB0D
  8
0
 10
270.86901153174449
 20
818.30845255354586
 30
0.0
 11
271.93075053174431
 21
818.30845255354586
 31
0.0
  0
LINE
  5
BB0E
  8
0
 10
469.3331525317443
 20
970.36218155354595
 30
0.0
 11
469.86901153174449
 21
970.36218155354595
 31
0.0
  0
LINE
  5
BB0F
  8
0
 10
469.59354353174461
 20
971.92443855354588
 30
0.0
 11
469.86901153174449
 21
971.92443855354588
 31
0.0
  0
LINE
  5
BB10
  8
0
 10
471.54721053174433
 20
796.19002555354564
 30
0.0
 11
471.86901153174438
 21
796.19002555354564
 31
0.0
  0
LINE
  5
BB11
  8
0
 10
467.68961653174432
 20
801.03788855354571
 30
0.0
 11
469.86901153174449
 21
801.03788855354571
 31
0.0
  0
LINE
  5
BB12
  8
0
 10
468.69569953174448
 20
813.14345855354566
 30
0.0
 11
469.86901153174449
 21
813.14345855354566
 31
0.0
  0
LINE
  5
BB13
  8
0
 10
367.86901153174449
 20
776.53390955354598
 30
0.0
 11
367.86901153174449
 21
785.71562555354569
 31
0.0
  0
ARC
  5
BB14
  8
0
 10
466.11189153174428
 20
973.19812255354589
 30
0.0
 40
2.0
 50
9.9999999999986073
 51
90.0
  0
ARC
  5
BB15
  8
0
 10
466.17790853174432
 20
976.73892155354588
 30
0.0
 40
2.0
 50
9.9999999999986073
 51
90.0
  0
ARC
  5
BB16
  8
0
 10
466.2638265317446
 20
979.29065855354565
 30
0.0
 40
2.0
 50
9.9999999999986073
 51
90.0
  0
ARC
  5
BB17
  8
0
 10
466.29257553174409
 20
980.68987455354613
 30
0.0
 40
2.0
 50
9.9999999999986073
 51
90.0
  0
LINE
  5
BB18
  8
0
 10
474.86901453174448
 20
969.18987455354613
 30
0.0
 11
471.86901453174448
 21
972.18987455354556
 31
0.0
  0
LINE
  5
BB19
  8
0
 10
262.36901153174449
 20
981.18984855354597
 30
0.0
 11
262.36901153174449
 21
787.18987455354568
 31
0.0
  0
LINE
  5
BB1A
  8
0
 10
469.82220753174443
 20
972.18987455354556
 30
0.0
 11
471.86901153174438
 21
972.18987455354556
 31
0.0
  0
LINE
  5
BB1B
  8
0
 10
474.86901153174449
 20
799.18987455354568
 30
0.0
 11
471.86901153174438
 21
796.18987455354568
 31
0.0
  0
LINE
  5
BB1C
  8
0
 10
471.86901153174438
 20
796.18987455354568
 30
0.0
 11
471.86901153174438
 21
821.81026055354596
 31
0.0
  0
LINE
  5
BB1D
  8
0
 10
474.86901153174449
 20
799.18987455354568
 30
0.0
 11
474.86901153174449
 21
880.18987455354625
 31
0.0
  0
CIRCLE
  5
BB1E
  8
0
 10
367.86901153174449
 20
884.18987455354568
 30
0.0
 40
11.0
  0
LINE
  5
BB1F
  8
0
 10
275.15513153174419
 20
982.68987455354602
 30
0.0
 11
326.86901153174449
 21
982.68987455354602
 31
0.0
  0
LINE
  5
BB20
  8
0
 10
406.86901153174409
 20
975.19812255354589
 30
0.0
 11
406.86901153174409
 21
980.68987455354613
 31
0.0
  0
LINE
  5
BB21
  8
0
 10
328.86901153174449
 20
975.19812255354589
 30
0.0
 11
328.86901153174449
 21
980.68987455354613
 31
0.0
  0
ARC
  5
BB22
  8
0
 10
326.86901153174449
 20
980.68987455354613
 30
0.0
 40
2.0
 50
0.0
 51
90.0
  0
ARC
  5
BB23
  8
0
 10
408.86901153174449
 20
980.68987455354613
 30
0.0
 40
2.0
 50
90.0
 51
180.0
  0
LINE
  5
BB24
  8
0
 10
408.86901153174449
 20
982.68987455354602
 30
0.0
 11
466.29257553174409
 21
982.68987455354602
 31
0.0
  0
LINE
  5
BB25
  8
0
 10
466.2638265317446
 20
981.29065855354565
 30
0.0
 11
408.86901153174449
 21
981.29065855354565
 31
0.0
  0
LINE
  5
BB26
  8
0
 10
469.86901153174449
 20
970.36218155354595
 30
0.0
 11
468.2334425317444
 21
979.63795455354557
 31
0.0
  0
LINE
  5
BB27
  8
0
 10
469.86901153174449
 20
971.92443855354588
 30
0.0
 11
468.26219053174458
 21
981.03717055354593
 31
0.0
  0
LINE
  5
BB28
  8
0
 10
270.86901153174449
 20
967.89962055354556
 30
0.0
 11
273.18551653174433
 21
981.03717055354593
 31
0.0
  0
ARC
  5
BB29
  8
0
 10
275.15513153174419
 20
980.68987455354613
 30
0.0
 40
2.0
 50
90.0
 51
170.00000000000139
  0
LINE
  5
BB2A
  8
0
 10
270.86901153174449
 20
966.24055955354572
 30
0.0
 11
273.23133353174438
 21
979.63795455354557
 31
0.0
  0
ARC
  5
BB2B
  8
0
 10
275.20094953174481
 20
979.29065855354565
 30
0.0
 40
2.0
 50
90.0
 51
170.00000000000139
  0
ARC
  5
BB2C
  8
0
 10
326.86901153174449
 20
979.29065855354565
 30
0.0
 40
2.0
 50
0.0
 51
90.0
  0
ARC
  5
BB2D
  8
0
 10
408.86901153174449
 20
979.29065855354565
 30
0.0
 40
2.0
 50
90.0
 51
180.0
  0
LINE
  5
BB2E
  8
0
 10
326.86901153174449
 20
981.29065855354565
 30
0.0
 11
275.20094953174481
 21
981.29065855354565
 31
0.0
  0
LINE
  5
BB2F
  8
0
 10
466.17790853174432
 20
978.73892155354565
 30
0.0
 11
408.86901153174449
 21
978.73892155354565
 31
0.0
  0
LINE
  5
BB30
  8
0
 10
469.74023153174448
 20
968.05352355354557
 30
0.0
 11
468.14752353174413
 21
977.08621855354602
 31
0.0
  0
LINE
  5
BB31
  8
0
 10
270.86901153174449
 20
963.01976855354599
 30
0.0
 11
273.34930653174479
 21
977.08621855354602
 31
0.0
  0
ARC
  5
BB32
  8
0
 10
275.31892153174431
 20
976.73892155354588
 30
0.0
 40
2.0
 50
90.0
 51
170.00000000000139
  0
ARC
  5
BB33
  8
0
 10
326.86901153174449
 20
976.73892155354588
 30
0.0
 40
2.0
 50
0.0
 51
90.0
  0
ARC
  5
BB34
  8
0
 10
408.86901153174449
 20
976.73892155354588
 30
0.0
 40
2.0
 50
90.0
 51
180.0
  0
LINE
  5
BB35
  8
0
 10
326.86901153174449
 20
978.73892155354565
 30
0.0
 11
275.31892153174431
 21
978.73892155354565
 31
0.0
  0
LINE
  5
BB36
  8
0
 10
466.11189153174428
 20
975.19812255354589
 30
0.0
 11
275.48043053174428
 21
975.19812255354589
 31
0.0
  0
LINE
  5
BB37
  8
0
 10
469.0498765317447
 20
968.05352355354557
 30
0.0
 11
468.08150753174459
 21
973.54541855354591
 31
0.0
  0
LINE
  5
BB38
  8
0
 10
270.86901153174449
 20
958.56300855354573
 30
0.0
 11
273.51081453174447
 21
973.54541855354591
 31
0.0
  0
ARC
  5
BB39
  8
0
 10
275.48043053174428
 20
973.19812255354589
 30
0.0
 40
2.0
 50
90.0
 51
170.00000000000139
  0
LINE
  5
BB3A
  8
0
 10
399.92536753174448
 20
968.59055455354564
 30
0.0
 11
275.81265553174438
 21
968.59055455354564
 31
0.0
  0
LINE
  5
BB3B
  8
0
 10
404.86901153174449
 20
950.07129655354572
 30
0.0
 11
401.89498253174452
 21
966.93785055354567
 31
0.0
  0
ARC
  5
BB3C
  8
0
 10
399.92536753174448
 20
966.59055455354564
 30
0.0
 40
2.0
 50
9.9999999999986073
 51
90.0
  0
LINE
  5
BB3D
  8
0
 10
270.86901153174449
 20
950.07129655354572
 30
0.0
 11
273.84304053174452
 21
966.93785055354567
 31
0.0
  0
ARC
  5
BB3E
  8
0
 10
275.81265553174438
 20
966.59055455354564
 30
0.0
 40
2.0
 50
90.0
 51
170.00000000000139
  0
LINE
  5
BB3F
  8
0
 10
399.59510353174443
 20
963.18851055354594
 30
0.0
 11
276.1429195317445
 21
963.18851055354594
 31
0.0
  0
LINE
  5
BB40
  8
0
 10
404.64796053174422
 20
944.04987455354569
 30
0.0
 11
401.56471953174469
 21
961.53580755354585
 31
0.0
  0
ARC
  5
BB41
  8
0
 10
399.59510353174443
 20
961.18851055354605
 30
0.0
 40
2.0
 50
9.9999999999986073
 51
90.0
  0
LINE
  5
BB42
  8
0
 10
271.14600553174432
 20
944.36714255354605
 30
0.0
 11
274.1733035317443
 21
961.53580755354585
 31
0.0
  0
ARC
  5
BB43
  8
0
 10
276.1429195317445
 20
961.18851055354605
 30
0.0
 40
2.0
 50
90.0
 51
170.00000000000139
  0
LINE
  5
BB44
  8
0
 10
469.86901153174449
 20
889.22002655354595
 30
0.0
 11
469.86901153174449
 21
892.16771855354557
 31
0.0
  0
LINE
  5
BB45
  8
0
 10
469.86901153174449
 20
899.21950255354568
 30
0.0
 11
469.86901153174449
 21
902.18098155354596
 31
0.0
  0
LINE
  5
BB46
  8
0
 10
469.86901153174449
 20
910.21168255354587
 30
0.0
 11
469.86901153174449
 21
913.20430955354584
 31
0.0
  0
LINE
  5
BB47
  8
0
 10
469.86901153174449
 20
921.19447755354599
 30
0.0
 11
469.86901153174449
 21
924.24018355354565
 31
0.0
  0
LINE
  5
BB48
  8
0
 10
469.86901153174449
 20
932.16435655354564
 30
0.0
 11
469.86901153174449
 21
935.29526955354595
 31
0.0
  0
LINE
  5
BB49
  8
0
 10
469.86901153174449
 20
941.12283255354589
 30
0.0
 11
469.86901153174449
 21
944.36714255354605
 31
0.0
  0
LINE
  5
BB4A
  8
0
 10
419.86901153174449
 20
958.56300855354573
 30
0.0
 11
403.37169353174471
 21
958.56300855354573
 31
0.0
  0
LINE
  5
BB4B
  8
0
 10
451.65578853174429
 20
963.40797655354572
 30
0.0
 11
435.86901153174409
 21
963.40797655354572
 31
0.0
  0
LINE
  5
BB4C
  8
0
 10
419.86901153174449
 20
958.56300855354573
 30
0.0
 11
435.86901153174409
 21
963.40797655354572
 31
0.0
  0
LINE
  5
BB4D
  8
0
 10
435.86901153174409
 20
963.40797655354572
 30
0.0
 11
435.86901153174409
 21
960.04266155354594
 31
0.0
  0
LINE
  5
BB4E
  8
0
 10
419.86901153174449
 20
958.56300855354573
 30
0.0
 11
419.86901153174449
 21
944.36714255354605
 31
0.0
  0
LINE
  5
BB4F
  8
0
 10
455.36901153174438
 20
947.25583655354603
 30
0.0
 11
455.36901153174438
 21
966.05352355354603
 31
0.0
  0
ARC
  5
BB50
  8
0
 10
457.36901153174449
 20
966.05352355354603
 30
0.0
 40
2.0
 50
90.0
 51
180.0
  0
LINE
  5
BB51
  8
0
 10
455.36901153174438
 20
951.645934553546
 30
0.0
 11
435.86901153174409
 21
951.645934553546
 31
0.0
  0
LINE
  5
BB52
  8
0
 10
449.96901753174461
 20
960.04266155354594
 30
0.0
 11
435.86901153174409
 21
960.04266155354594
 31
0.0
  0
LINE
  5
BB53
  8
0
 10
435.86901153174409
 20
951.645934553546
 30
0.0
 11
435.86901153174409
 21
944.36714255354605
 31
0.0
  0
ARC
  5
BB54
  8
0
  6
CONTINUOUS
 10
452.56881053174448
 20
955.67314055354564
 30
0.0
 40
2.6003989999999999
 50
179.99998200000081
 51
269.99997800000818
  0
ARC
  5
BB55
  8
0
  6
CONTINUOUS
 10
452.56881053174448
 20
960.97312855354585
 30
0.0
 40
2.600403
 50
90.0
 51
179.99998200000081
  0
LINE
  5
BB56
  8
0
  6
CONTINUOUS
 10
455.36901153174438
 20
958.3891595535456
 30
0.0
 11
453.86901153174449
 21
957.52313455354556
 31
0.0
  0
LINE
  5
BB57
  8
0
  6
CONTINUOUS
 10
455.36901153174438
 20
959.3891595535456
 30
0.0
 11
453.86901153174449
 21
958.52313455354602
 31
0.0
  0
LINE
  5
BB58
  8
0
  6
CONTINUOUS
 10
455.36901153174438
 20
964.42313455354588
 30
0.0
 11
455.36901153174438
 21
952.22313455354572
 31
0.0
  0
LINE
  5
BB59
  8
0
  6
CONTINUOUS
 10
453.86901153174449
 20
964.42313455354588
 30
0.0
 11
455.36901153174438
 21
964.42313455354588
 31
0.0
  0
LINE
  5
BB5A
  8
0
  6
CONTINUOUS
 10
453.86901153174449
 20
952.22313455354572
 30
0.0
 11
455.36901153174438
 21
952.22313455354572
 31
0.0
  0
LINE
  5
BB5B
  8
0
  6
CONTINUOUS
 10
449.96901753174461
 20
960.97312855354585
 30
0.0
 11
449.96901753174461
 21
955.67314055354564
 31
0.0
  0
LINE
  5
BB5C
  8
0
  6
CONTINUOUS
 10
453.86901153174449
 20
964.42313455354588
 30
0.0
 11
453.86901153174449
 21
952.22313455354572
 31
0.0
  0
LINE
  5
BB5D
  8
0
  6
CONTINUOUS
 10
453.86901153174449
 20
953.07313455354586
 30
0.0
 11
452.56881053174448
 21
953.07313455354586
 31
0.0
  0
LINE
  5
BB5E
  8
0
  6
CONTINUOUS
 10
453.86901153174449
 20
963.57313455354586
 30
0.0
 11
452.56881053174448
 21
963.57313455354586
 31
0.0
  0
LINE
  5
BB5F
  8
0
 10
474.86901153174449
 20
968.05352355354557
 30
0.0
 11
457.36901153174449
 21
968.05352355354557
 31
0.0
  0
LINE
  5
BB60
  8
0
 10
474.86901153174449
 20
946.25583655354615
 30
0.0
 11
454.36901153174449
 21
946.25583655354615
 31
0.0
  0
ARC
  5
BB61
  8
0
 10
454.36901153174449
 20
947.25583655354603
 30
0.0
 40
1.0
 50
270.0
 51
0.0
  0
LINE
  5
BB62
  8
0
 10
474.86901153174449
 20
959.92951855354556
 30
0.0
 11
457.36901153174449
 21
959.92951855354556
 31
0.0
  0
LINE
  5
BB63
  8
0
 10
262.36901153174449
 20
968.18987455354613
 30
0.0
 11
270.86901153174449
 21
968.18987455354613
 31
0.0
  0
ARC
  5
BB64
  8
0
 10
471.54721053174433
 20
794.18987455354556
 30
0.0
 40
2.0
 50
90.0
 51
170.00000000000139
  0
ARC
  5
BB65
  8
0
 10
407.61165353174459
 20
789.19621755354558
 30
0.0
 40
1.9936590000000001
 50
90.075931000003507
 51
178.17025399999861
  0
LINE
  5
BB66
  8
0
 10
407.6090115317441
 20
791.18987455354568
 30
0.0
 11
467.3091775317443
 21
791.18987455354568
 31
0.0
  0
LINE
  5
BB67
  8
0
 10
405.36901153174438
 20
782.18987455354568
 30
0.0
 11
405.98504053174412
 21
799.78919455354571
 31
0.0
  0
LINE
  5
BB68
  8
0
 10
469.57759553174441
 20
794.53717055354571
 30
0.0
 11
469.27879253174427
 21
792.84257855354599
 31
0.0
  0
ARC
  5
BB69
  8
0
 10
467.3091775317443
 20
793.18987455354556
 30
0.0
 40
2.0
 50
270.0
 51
350.00000000000142
  0
LINE
  5
BB6A
  8
0
 10
271.44636153174451
 20
799.18987455354568
 30
0.0
 11
278.66324053174458
 21
786.68987455354568
 31
0.0
  0
LINE
  5
BB6B
  8
0
 10
280.39529053174459
 20
785.68987455354556
 30
0.0
 11
328.31398253174439
 21
785.68987455354556
 31
0.0
  0
LINE
  5
BB6C
  8
0
 10
330.36901153174449
 20
782.18987455354568
 30
0.0
 11
330.31269953174427
 21
783.76148955354597
 31
0.0
  0
ARC
  5
BB6D
  8
0
 10
269.7143105317445
 20
798.18987455354556
 30
0.0
 40
2.0
 50
29.999999999991651
 51
90.0
  0
ARC
  5
BB6E
  8
0
 10
280.39529053174459
 20
787.68987455354568
 30
0.0
 40
2.0
 50
209.9999999999917
 51
270.0
  0
ARC
  5
BB6F
  8
0
 10
328.31398253174439
 20
783.68987455354568
 30
0.0
 40
2.0
 50
2.0520649999985339
 51
90.0
  0
LINE
  5
BB70
  8
0
 10
330.36901153174449
 20
782.18987455354568
 30
0.0
 11
405.36901153174438
 21
782.18987455354568
 31
0.0
  0
LINE
  5
BB71
  8
0
 10
279.39529053174459
 20
785.95782355354572
 30
0.0
 11
279.39529053174459
 21
799.78919455354571
 31
0.0
  0
LINE
  5
BB72
  8
0
 10
465.83609553174409
 20
799.78919455354571
 30
0.0
 11
275.81265553174438
 21
799.78919455354571
 31
0.0
  0
LINE
  5
BB73
  8
0
 10
465.61530953174451
 20
805.19123855354587
 30
0.0
 11
275.92186853174462
 21
805.19123855354587
 31
0.0
  0
LINE
  5
BB74
  8
0
 10
469.86901153174449
 20
819.79764055354599
 30
0.0
 11
435.86901153174409
 21
819.79764055354599
 31
0.0
  0
LINE
  5
BB75
  8
0
 10
469.86901153174449
 20
819.79764055354599
 30
0.0
 11
467.58492453174438
 21
806.84394155354585
 31
0.0
  0
ARC
  5
BB76
  8
0
 10
465.61530953174451
 20
807.19123855354565
 30
0.0
 40
2.0
 50
270.0
 51
350.00000000000142
  0
LINE
  5
BB77
  8
0
 10
469.86901153174449
 20
813.14345855354566
 30
0.0
 11
467.80571053174413
 21
801.44189855354557
 31
0.0
  0
ARC
  5
BB78
  8
0
 10
465.83609553174409
 20
801.78919455354605
 30
0.0
 40
2.0
 50
270.0
 51
350.00000000000142
  0
LINE
  5
BB79
  8
0
 10
274.61174953174441
 20
800.18987455354556
 30
0.0
 11
262.36901153174449
 21
800.18987455354556
 31
0.0
  0
LINE
  5
BB7A
  8
0
 10
469.86901153174449
 20
801.03788855354571
 30
0.0
 11
468.42395753174458
 21
792.84257855354599
 31
0.0
  0
ARC
  5
BB7B
  8
0
 10
466.45434153174432
 20
793.18987455354556
 30
0.0
 40
2.0
 50
270.0
 51
350.00000000000142
  0
LINE
  5
BB7C
  8
0
 10
404.86901153174449
 20
836.02987455354571
 30
0.0
 11
404.86901153174449
 21
833.32987455354555
 31
0.0
  0
LINE
  5
BB7D
  8
0
 10
474.86901153174449
 20
821.98023755354598
 30
0.0
 11
457.36901153174449
 21
821.98023755354598
 31
0.0
  0
LINE
  5
BB7E
  8
0
 10
474.86901153174449
 20
834.28787655354563
 30
0.0
 11
457.36901153174449
 21
834.28787655354563
 31
0.0
  0
LINE
  5
BB7F
  8
0
 10
474.86901153174449
 20
844.46716855354589
 30
0.0
 11
469.86901153174449
 21
844.46716855354589
 31
0.0
  0
LINE
  5
BB80
  8
0
 10
455.36901153174438
 20
843.46716855354589
 30
0.0
 11
455.36901153174438
 21
823.98023755354563
 31
0.0
  0
ARC
  5
BB81
  8
0
 10
454.36901153174449
 20
843.46716855354589
 30
0.0
 40
1.0
 50
0.0
 51
42.252324000004279
  0
ARC
  5
BB82
  8
0
 10
457.36901153174449
 20
823.98023755354563
 30
0.0
 40
2.0
 50
180.0
 51
270.0
  0
LINE
  5
BB83
  8
0
 10
419.86901153174449
 20
941.12283255354589
 30
0.0
 11
419.86901153174449
 21
935.29526955354595
 31
0.0
  0
LINE
  5
BB84
  8
0
 10
435.86901153174409
 20
941.12283255354589
 30
0.0
 11
435.86901153174409
 21
935.29526955354595
 31
0.0
  0
LINE
  5
BB85
  8
0
 10
419.86901153174449
 20
932.16435655354564
 30
0.0
 11
419.86901153174449
 21
924.24018355354565
 31
0.0
  0
LINE
  5
BB86
  8
0
 10
419.86901153174449
 20
921.19447755354599
 30
0.0
 11
419.86901153174449
 21
913.20430955354584
 31
0.0
  0
LINE
  5
BB87
  8
0
 10
419.86901153174449
 20
910.21168255354587
 30
0.0
 11
419.86901153174449
 21
902.18098155354596
 31
0.0
  0
LINE
  5
BB88
  8
0
 10
419.86901153174449
 20
899.21950255354568
 30
0.0
 11
419.86901153174449
 21
892.16771855354557
 31
0.0
  0
LINE
  5
BB89
  8
0
 10
419.86901153174449
 20
889.34987455354599
 30
0.0
 11
419.86901153174449
 21
879.15972255354563
 31
0.0
  0
LINE
  5
BB8A
  8
0
 10
435.86901153174409
 20
889.34987455354599
 30
0.0
 11
435.86901153174409
 21
879.15972255354563
 31
0.0
  0
LINE
  5
BB8B
  8
0
 10
435.86901153174409
 20
899.21950255354568
 30
0.0
 11
435.86901153174409
 21
892.16771855354557
 31
0.0
  0
LINE
  5
BB8C
  8
0
 10
435.86901153174409
 20
910.21168255354587
 30
0.0
 11
435.86901153174409
 21
902.18098155354596
 31
0.0
  0
LINE
  5
BB8D
  8
0
 10
435.86901153174409
 20
921.19447755354599
 30
0.0
 11
435.86901153174409
 21
913.20430955354584
 31
0.0
  0
LINE
  5
BB8E
  8
0
 10
435.86901153174409
 20
932.16435655354564
 30
0.0
 11
435.86901153174409
 21
924.24018355354565
 31
0.0
  0
LINE
  5
BB8F
  8
0
 10
419.86901153174449
 20
876.21203055354567
 30
0.0
 11
419.86901153174449
 21
869.16024655354556
 31
0.0
  0
LINE
  5
BB90
  8
0
 10
435.86901153174409
 20
876.21203055354567
 30
0.0
 11
435.86901153174409
 21
869.16024655354556
 31
0.0
  0
LINE
  5
BB91
  8
0
 10
435.86901153174409
 20
866.19876755354562
 30
0.0
 11
435.86901153174409
 21
858.16806655354605
 31
0.0
  0
LINE
  5
BB92
  8
0
 10
419.86901153174449
 20
866.19876755354562
 30
0.0
 11
419.86901153174449
 21
858.16806655354605
 31
0.0
  0
LINE
  5
BB93
  8
0
 10
419.86901153174449
 20
855.17543955354586
 30
0.0
 11
419.86901153174449
 21
847.18527155354559
 31
0.0
  0
LINE
  5
BB94
  8
0
 10
435.86901153174409
 20
855.17543955354586
 30
0.0
 11
435.86901153174409
 21
847.18527155354559
 31
0.0
  0
LINE
  5
BB95
  8
0
 10
450.41840653174449
 20
828.16907855354555
 30
0.0
 11
435.86901053174461
 21
828.16907855354555
 31
0.0
  0
LINE
  5
BB96
  8
0
 10
455.36901153174438
 20
839.58142855354583
 30
0.0
 11
435.86901053174461
 21
839.58142855354583
 31
0.0
  0
LINE
  5
BB97
  8
0
 10
419.86901153174449
 20
844.13956555354571
 30
0.0
 11
419.86901153174449
 21
824.13956555354571
 31
0.0
  0
LINE
  5
BB98
  8
0
 10
471.86901153174438
 20
968.05352355354557
 30
0.0
 11
471.86901153174438
 21
972.18987455354556
 31
0.0
  0
LINE
  5
BB99
  8
0
 10
469.86901153174449
 20
797.98813055354572
 30
0.0
 11
468.96171153174458
 21
792.84257855354599
 31
0.0
  0
ARC
  5
BB9A
  8
0
 10
466.99209653174449
 20
793.18987455354556
 30
0.0
 40
2.0
 50
270.0
 51
350.00000000000142
  0
LINE
  5
BB9B
  8
0
 10
435.86901153174409
 20
844.13956555354571
 30
0.0
 11
435.86901153174409
 21
839.58142855354583
 31
0.0
  0
LINE
  5
BB9C
  8
0
 10
471.86901153174438
 20
844.46716855354589
 30
0.0
 11
471.86901153174438
 21
880.18987455354625
 31
0.0
  0
LINE
  5
BB9D
  8
0
 10
270.86901153174449
 20
824.32987455354555
 30
0.0
 11
273.95225353174459
 21
806.84394155354585
 31
0.0
  0
ARC
  5
BB9E
  8
0
 10
275.92186853174462
 20
807.19123855354565
 30
0.0
 40
2.0
 50
189.99999999999861
 51
270.0
  0
LINE
  5
BB9F
  8
0
 10
420.5744085317441
 20
832.88416855354603
 30
0.0
 11
435.86901153174409
 21
828.16907855354555
 31
0.0
  0
LINE
  5
BBA0
  8
0
 10
435.86901153174409
 20
839.58142855354583
 30
0.0
 11
420.83307053174411
 21
839.04067755354595
 31
0.0
  0
LINE
  5
BBA1
  8
0
 10
435.86901153174409
 20
828.16907855354555
 30
0.0
 11
435.86901153174409
 21
819.79764055354599
 31
0.0
  0
ARC
  5
BBA2
  8
0
 10
420.86901153174449
 20
838.04132355354557
 30
0.0
 40
1.0
 50
92.059690999990565
 51
180.0
  0
ARC
  5
BBA3
  8
0
 10
420.86901153174449
 20
833.83978855354599
 30
0.0
 40
1.0
 50
180.0
 51
252.8662750000021
  0
LINE
  5
BBA4
  8
0
 10
435.86901153174409
 20
960.04266155354594
 30
0.0
 11
420.56855253174427
 21
955.22279555354601
 31
0.0
  0
LINE
  5
BBA5
  8
0
 10
420.91756653174428
 20
950.91911455354557
 30
0.0
 11
435.86901153174409
 21
951.645934553546
 31
0.0
  0
ARC
  5
BBA6
  8
0
 10
420.86901153174449
 20
954.26900055354565
 30
0.0
 40
1.0
 50
107.4851790000144
 51
180.0
  0
ARC
  5
BBA7
  8
0
 10
420.86901153174449
 20
951.91793555354604
 30
0.0
 40
1.0
 50
180.0
 51
270.0
  0
ARC
  5
BBA8
  8
0
  6
CONTINUOUS
 10
452.56881053174448
 20
829.63121355354565
 30
0.0
 40
2.6003989999999999
 50
179.99998200000081
 51
269.99997800000818
  0
ARC
  5
BBA9
  8
0
  6
CONTINUOUS
 10
452.56881053174448
 20
834.93120155354563
 30
0.0
 40
2.600403
 50
90.0
 51
179.99998200000081
  0
LINE
  5
BBAA
  8
0
  6
CONTINUOUS
 10
455.36901153174438
 20
832.34723255354572
 30
0.0
 11
453.86901153174449
 21
831.48120755354557
 31
0.0
  0
LINE
  5
BBAB
  8
0
  6
CONTINUOUS
 10
455.36901153174438
 20
833.34723255354595
 30
0.0
 11
453.86901153174449
 21
832.48120755354557
 31
0.0
  0
LINE
  5
BBAC
  8
0
  6
CONTINUOUS
 10
455.36901153174438
 20
838.38120755354589
 30
0.0
 11
455.36901153174438
 21
826.18120755354573
 31
0.0
  0
LINE
  5
BBAD
  8
0
  6
CONTINUOUS
 10
453.86901153174449
 20
838.38120755354589
 30
0.0
 11
455.36901153174438
 21
838.38120755354589
 31
0.0
  0
LINE
  5
BBAE
  8
0
  6
CONTINUOUS
 10
453.86901153174449
 20
826.18120755354573
 30
0.0
 11
455.36901153174438
 21
826.18120755354573
 31
0.0
  0
LINE
  5
BBAF
  8
0
  6
CONTINUOUS
 10
449.96901753174461
 20
834.93120155354563
 30
0.0
 11
449.96901753174461
 21
829.63121355354565
 31
0.0
  0
LINE
  5
BBB0
  8
0
  6
CONTINUOUS
 10
453.86901153174449
 20
838.38120755354589
 30
0.0
 11
453.86901153174449
 21
826.18120755354573
 31
0.0
  0
LINE
  5
BBB1
  8
0
  6
CONTINUOUS
 10
453.86901153174449
 20
827.03120755354587
 30
0.0
 11
452.56881053174448
 21
827.03120755354587
 31
0.0
  0
LINE
  5
BBB2
  8
0
  6
CONTINUOUS
 10
453.86901153174449
 20
837.53120755354564
 30
0.0
 11
452.56881053174448
 21
837.53120755354564
 31
0.0
  0
LINE
  5
BBB3
  8
0
 10
469.86901153174449
 20
944.36714255354605
 30
0.0
 11
270.86901153174449
 21
944.36714255354605
 31
0.0
  0
LINE
  5
BBB4
  8
0
 10
469.86901153174449
 20
941.12283255354589
 30
0.0
 11
270.86901153174449
 21
941.12283255354589
 31
0.0
  0
LINE
  5
BBB5
  8
0
 10
469.86901153174449
 20
935.29526955354595
 30
0.0
 11
270.86901153174449
 21
935.29526955354595
 31
0.0
  0
LINE
  5
BBB6
  8
0
 10
469.86901153174449
 20
932.16435655354564
 30
0.0
 11
270.86901153174449
 21
932.16435655354564
 31
0.0
  0
LINE
  5
BBB7
  8
0
 10
469.86901153174449
 20
924.24018355354565
 30
0.0
 11
270.86901153174449
 21
924.24018355354565
 31
0.0
  0
LINE
  5
BBB8
  8
0
 10
469.86901153174449
 20
921.19447755354599
 30
0.0
 11
270.86901153174449
 21
921.19447755354599
 31
0.0
  0
LINE
  5
BBB9
  8
0
 10
469.86901153174449
 20
913.20430955354584
 30
0.0
 11
270.86901153174449
 21
913.20430955354584
 31
0.0
  0
LINE
  5
BBBA
  8
0
 10
469.86901153174449
 20
910.21168255354587
 30
0.0
 11
270.86901153174449
 21
910.21168255354587
 31
0.0
  0
LINE
  5
BBBB
  8
0
 10
469.86901153174449
 20
902.18098155354596
 30
0.0
 11
270.86901153174449
 21
902.18098155354596
 31
0.0
  0
LINE
  5
BBBC
  8
0
 10
469.86901153174449
 20
899.21950255354568
 30
0.0
 11
270.86901153174449
 21
899.21950255354568
 31
0.0
  0
LINE
  5
BBBD
  8
0
 10
469.86901153174449
 20
892.16771855354557
 30
0.0
 11
375.44225453174431
 21
892.16771855354557
 31
0.0
  0
LINE
  5
BBBE
  8
0
 10
469.86901153174449
 20
889.22002655354595
 30
0.0
 11
382.25465853174461
 21
889.22002655354595
 31
0.0
  0
LINE
  5
BBBF
  8
0
 10
467.79009053174462
 20
943.68987455354556
 30
0.0
 11
467.79009053174462
 21
941.68987455354568
 31
0.0
  0
LINE
  5
BBC0
  8
0
 10
272.94793253174481
 20
941.68987455354568
 30
0.0
 11
467.79009053174462
 21
941.68987455354568
 31
0.0
  0
LINE
  5
BBC1
  8
0
 10
272.94793253174481
 20
943.68987455354556
 30
0.0
 11
467.79009053174462
 21
943.68987455354556
 31
0.0
  0
LINE
  5
BBC2
  8
0
 10
272.94793253174481
 20
932.68987455354602
 30
0.0
 11
467.79009053174462
 21
932.68987455354602
 31
0.0
  0
LINE
  5
BBC3
  8
0
 10
272.94793253174481
 20
934.68987455354556
 30
0.0
 11
467.79009053174462
 21
934.68987455354556
 31
0.0
  0
LINE
  5
BBC4
  8
0
 10
272.94793253174481
 20
921.68987455354591
 30
0.0
 11
467.79009053174462
 21
921.68987455354591
 31
0.0
  0
LINE
  5
BBC5
  8
0
 10
272.94793253174481
 20
923.68987455354602
 30
0.0
 11
467.79009053174462
 21
923.68987455354602
 31
0.0
  0
LINE
  5
BBC6
  8
0
 10
272.94793253174481
 20
910.68987455354556
 30
0.0
 11
467.79009053174462
 21
910.68987455354556
 31
0.0
  0
LINE
  5
BBC7
  8
0
 10
272.94793253174481
 20
912.68987455354591
 30
0.0
 11
467.79009053174462
 21
912.68987455354591
 31
0.0
  0
LINE
  5
BBC8
  8
0
 10
272.94793253174481
 20
899.68987455354568
 30
0.0
 11
467.79009053174462
 21
899.68987455354568
 31
0.0
  0
LINE
  5
BBC9
  8
0
 10
272.94793253174481
 20
901.68987455354556
 30
0.0
 11
467.79009053174462
 21
901.68987455354556
 31
0.0
  0
LINE
  5
BBCA
  8
0
 10
381.64398853174453
 20
889.68987455354568
 30
0.0
 11
467.79009053174462
 21
889.68987455354568
 31
0.0
  0
LINE
  5
BBCB
  8
0
 10
375.91574953174461
 20
891.68987455354568
 30
0.0
 11
467.79009053174462
 21
891.68987455354568
 31
0.0
  0
LINE
  5
BBCC
  8
0
 10
467.79009053174462
 20
943.68987455354556
 30
0.0
 11
469.86901153174449
 21
944.36714255354605
 31
0.0
  0
LINE
  5
BBCD
  8
0
 10
467.79009053174462
 20
941.68987455354568
 30
0.0
 11
469.86901153174449
 21
941.12283255354589
 31
0.0
  0
LINE
  5
BBCE
  8
0
 10
467.79009053174462
 20
934.68987455354556
 30
0.0
 11
469.86901153174449
 21
935.29526955354595
 31
0.0
  0
LINE
  5
BBCF
  8
0
 10
467.79009053174462
 20
932.68987455354602
 30
0.0
 11
469.86901153174449
 21
932.16435655354564
 31
0.0
  0
LINE
  5
BBD0
  8
0
 10
467.79009053174462
 20
923.68987455354602
 30
0.0
 11
469.86901153174449
 21
924.24018355354565
 31
0.0
  0
LINE
  5
BBD1
  8
0
 10
467.79009053174462
 20
921.68987455354591
 30
0.0
 11
469.86901153174449
 21
921.19447755354599
 31
0.0
  0
LINE
  5
BBD2
  8
0
 10
467.79009053174462
 20
912.68987455354591
 30
0.0
 11
469.86901153174449
 21
913.20430955354584
 31
0.0
  0
LINE
  5
BBD3
  8
0
 10
467.79009053174462
 20
910.68987455354556
 30
0.0
 11
469.86901153174449
 21
910.21168255354587
 31
0.0
  0
LINE
  5
BBD4
  8
0
 10
467.79009053174462
 20
901.68987455354556
 30
0.0
 11
469.86901153174449
 21
902.18098155354596
 31
0.0
  0
LINE
  5
BBD5
  8
0
 10
467.79009053174462
 20
899.68987455354568
 30
0.0
 11
469.86901153174449
 21
899.21950255354568
 31
0.0
  0
LINE
  5
BBD6
  8
0
 10
467.79009053174462
 20
891.68987455354568
 30
0.0
 11
469.86901153174449
 21
892.16771855354557
 31
0.0
  0
LINE
  5
BBD7
  8
0
 10
467.79009053174462
 20
889.68987455354568
 30
0.0
 11
469.86901153174449
 21
889.22002655354595
 31
0.0
  0
LINE
  5
BBD8
  8
0
 10
467.79009053174462
 20
934.68987455354556
 30
0.0
 11
467.79009053174462
 21
932.68987455354602
 31
0.0
  0
LINE
  5
BBD9
  8
0
 10
467.79009053174462
 20
923.68987455354602
 30
0.0
 11
467.79009053174462
 21
921.68987455354591
 31
0.0
  0
LINE
  5
BBDA
  8
0
 10
467.79009053174462
 20
912.68987455354591
 30
0.0
 11
467.79009053174462
 21
910.68987455354556
 31
0.0
  0
LINE
  5
BBDB
  8
0
 10
467.79009053174462
 20
901.68987455354556
 30
0.0
 11
467.79009053174462
 21
899.68987455354568
 31
0.0
  0
LINE
  5
BBDC
  8
0
 10
467.79009053174462
 20
891.68987455354568
 30
0.0
 11
467.79009053174462
 21
889.68987455354568
 31
0.0
  0
ARC
  5
BBDD
  8
0
 10
381.64398853174453
 20
886.68987455354556
 30
0.0
 40
3.0
 50
90.0
 51
190.28656099999421
  0
ARC
  5
BBDE
  8
0
 10
382.25465853174461
 20
885.75002655354604
 30
0.0
 40
3.4700000000000002
 50
90.0
 51
186.1896490000004
  0
LINE
  5
BBDF
  8
0
 10
287.9479325317447
 20
891.68987455354568
 30
0.0
 11
287.9479325317447
 21
889.68987455354568
 31
0.0
  0
LINE
  5
BBE0
  8
0
 10
272.94793253174481
 20
901.68987455354556
 30
0.0
 11
272.94793253174481
 21
899.68987455354568
 31
0.0
  0
LINE
  5
BBE1
  8
0
 10
272.94793253174481
 20
912.68987455354591
 30
0.0
 11
272.94793253174481
 21
910.68987455354556
 31
0.0
  0
LINE
  5
BBE2
  8
0
 10
272.94793253174481
 20
923.68987455354602
 30
0.0
 11
272.94793253174481
 21
921.68987455354591
 31
0.0
  0
LINE
  5
BBE3
  8
0
 10
272.94793253174481
 20
934.68987455354556
 30
0.0
 11
272.94793253174481
 21
932.68987455354602
 31
0.0
  0
LINE
  5
BBE4
  8
0
 10
287.9479325317447
 20
889.68987455354568
 30
0.0
 11
285.86901153174449
 21
889.22002655354595
 31
0.0
  0
LINE
  5
BBE5
  8
0
 10
287.9479325317447
 20
891.68987455354568
 30
0.0
 11
285.86901153174449
 21
892.16771855354557
 31
0.0
  0
LINE
  5
BBE6
  8
0
 10
272.94793253174481
 20
899.68987455354568
 30
0.0
 11
270.86901153174449
 21
899.21950255354568
 31
0.0
  0
LINE
  5
BBE7
  8
0
 10
272.94793253174481
 20
901.68987455354556
 30
0.0
 11
270.86901153174449
 21
902.18098155354596
 31
0.0
  0
LINE
  5
BBE8
  8
0
 10
272.94793253174481
 20
910.68987455354556
 30
0.0
 11
270.86901153174449
 21
910.21168255354587
 31
0.0
  0
LINE
  5
BBE9
  8
0
 10
272.94793253174481
 20
912.68987455354591
 30
0.0
 11
270.86901153174449
 21
913.20430955354584
 31
0.0
  0
LINE
  5
BBEA
  8
0
 10
272.94793253174481
 20
921.68987455354591
 30
0.0
 11
270.86901153174449
 21
921.19447755354599
 31
0.0
  0
LINE
  5
BBEB
  8
0
 10
272.94793253174481
 20
923.68987455354602
 30
0.0
 11
270.86901153174449
 21
924.24018355354565
 31
0.0
  0
LINE
  5
BBEC
  8
0
 10
272.94793253174481
 20
932.68987455354602
 30
0.0
 11
270.86901153174449
 21
932.16435655354564
 31
0.0
  0
LINE
  5
BBED
  8
0
 10
272.94793253174481
 20
934.68987455354556
 30
0.0
 11
270.86901153174449
 21
935.29526955354595
 31
0.0
  0
LINE
  5
BBEE
  8
0
 10
272.94793253174481
 20
941.68987455354568
 30
0.0
 11
270.86901153174449
 21
941.12283255354589
 31
0.0
  0
LINE
  5
BBEF
  8
0
 10
272.94793253174481
 20
943.68987455354556
 30
0.0
 11
270.86901153174449
 21
944.36714255354605
 31
0.0
  0
LINE
  5
BBF0
  8
0
 10
272.94793253174481
 20
943.68987455354556
 30
0.0
 11
272.94793253174481
 21
941.68987455354568
 31
0.0
  0
LINE
  5
BBF1
  8
0
 10
270.86901153174449
 20
941.12283255354589
 30
0.0
 11
270.86901153174449
 21
944.36714255354605
 31
0.0
  0
LINE
  5
BBF2
  8
0
 10
270.86901153174449
 20
932.16435655354564
 30
0.0
 11
270.86901153174449
 21
935.29526955354595
 31
0.0
  0
LINE
  5
BBF3
  8
0
 10
270.86901153174449
 20
921.19447755354599
 30
0.0
 11
270.86901153174449
 21
924.24018355354565
 31
0.0
  0
LINE
  5
BBF4
  8
0
 10
270.86901153174449
 20
910.21168255354587
 30
0.0
 11
270.86901153174449
 21
913.20430955354584
 31
0.0
  0
LINE
  5
BBF5
  8
0
 10
270.86901153174449
 20
899.21950255354568
 30
0.0
 11
270.86901153174449
 21
902.18098155354596
 31
0.0
  0
LINE
  5
BBF6
  8
0
 10
285.86901153174449
 20
889.22002655354595
 30
0.0
 11
285.86901153174449
 21
892.16771855354557
 31
0.0
  0
LINE
  5
BBF7
  8
0
 10
285.86901153174449
 20
892.16771855354557
 30
0.0
 11
360.29576853174473
 21
892.16771855354557
 31
0.0
  0
LINE
  5
BBF8
  8
0
 10
285.86901153174449
 20
889.22002655354595
 30
0.0
 11
353.48336453174443
 21
889.22002655354595
 31
0.0
  0
LINE
  5
BBF9
  8
0
 10
354.09403453174451
 20
889.68987455354568
 30
0.0
 11
287.9479325317447
 21
889.68987455354568
 31
0.0
  0
LINE
  5
BBFA
  8
0
 10
359.82227353174449
 20
891.68987455354568
 30
0.0
 11
287.9479325317447
 21
891.68987455354568
 31
0.0
  0
ARC
  5
BBFB
  8
0
 10
354.09403453174451
 20
886.68987455354556
 30
0.0
 40
3.0
 50
349.71343900000568
 51
90.0
  0
ARC
  5
BBFC
  8
0
 10
353.48336453174443
 20
885.75002655354604
 30
0.0
 40
3.4700000000000002
 50
353.81035099999951
 51
90.0
  0
LINE
  5
BBFD
  8
0
 10
469.86901153174449
 20
844.13956555354571
 30
0.0
 11
270.86901153174449
 21
844.13956555354571
 31
0.0
  0
LINE
  5
BBFE
  8
0
 10
469.86901153174449
 20
847.18527155354559
 30
0.0
 11
270.86901153174449
 21
847.18527155354559
 31
0.0
  0
LINE
  5
BBFF
  8
0
 10
469.86901153174449
 20
855.17543955354586
 30
0.0
 11
270.86901153174449
 21
855.17543955354586
 31
0.0
  0
LINE
  5
BC00
  8
0
 10
469.86901153174449
 20
858.16806655354605
 30
0.0
 11
270.86901153174449
 21
858.16806655354605
 31
0.0
  0
LINE
  5
BC01
  8
0
 10
469.86901153174449
 20
866.19876755354562
 30
0.0
 11
270.86901153174449
 21
866.19876755354562
 31
0.0
  0
LINE
  5
BC02
  8
0
 10
469.86901153174449
 20
869.16024655354556
 30
0.0
 11
270.86901153174449
 21
869.16024655354556
 31
0.0
  0
LINE
  5
BC03
  8
0
 10
272.94793253174481
 20
846.68987455354556
 30
0.0
 11
467.79009053174462
 21
846.68987455354556
 31
0.0
  0
LINE
  5
BC04
  8
0
 10
272.94793253174481
 20
844.68987455354602
 30
0.0
 11
467.79009053174462
 21
844.68987455354602
 31
0.0
  0
LINE
  5
BC05
  8
0
 10
272.94793253174481
 20
857.68987455354568
 30
0.0
 11
467.79009053174462
 21
857.68987455354568
 31
0.0
  0
LINE
  5
BC06
  8
0
 10
272.94793253174481
 20
855.68987455354568
 30
0.0
 11
467.79009053174462
 21
855.68987455354568
 31
0.0
  0
LINE
  5
BC07
  8
0
 10
272.94793253174481
 20
868.68987455354556
 30
0.0
 11
467.79009053174462
 21
868.68987455354556
 31
0.0
  0
LINE
  5
BC08
  8
0
 10
272.94793253174481
 20
866.68987455354568
 30
0.0
 11
467.79009053174462
 21
866.68987455354568
 31
0.0
  0
LINE
  5
BC09
  8
0
 10
285.86901153174449
 20
876.21203055354567
 30
0.0
 11
360.29576853174473
 21
876.21203055354567
 31
0.0
  0
LINE
  5
BC0A
  8
0
 10
285.86901153174449
 20
879.15972255354563
 30
0.0
 11
353.48336453174443
 21
879.15972255354563
 31
0.0
  0
LINE
  5
BC0B
  8
0
 10
354.09403453174451
 20
878.68987455354556
 30
0.0
 11
287.9479325317447
 21
878.68987455354556
 31
0.0
  0
LINE
  5
BC0C
  8
0
 10
359.82227353174449
 20
876.68987455354556
 30
0.0
 11
287.9479325317447
 21
876.68987455354556
 31
0.0
  0
LINE
  5
BC0D
  8
0
 10
285.86901153174449
 20
879.15972255354563
 30
0.0
 11
285.86901153174449
 21
876.21203055354567
 31
0.0
  0
LINE
  5
BC0E
  8
0
 10
270.86901153174449
 20
869.16024655354556
 30
0.0
 11
270.86901153174449
 21
866.19876755354562
 31
0.0
  0
LINE
  5
BC0F
  8
0
 10
270.86901153174449
 20
858.16806655354605
 30
0.0
 11
270.86901153174449
 21
855.17543955354586
 31
0.0
  0
LINE
  5
BC10
  8
0
 10
270.86901153174449
 20
847.18527155354559
 30
0.0
 11
270.86901153174449
 21
844.13956555354571
 31
0.0
  0
LINE
  5
BC11
  8
0
 10
272.94793253174481
 20
844.68987455354602
 30
0.0
 11
270.86901153174449
 21
844.13956555354571
 31
0.0
  0
LINE
  5
BC12
  8
0
 10
272.94793253174481
 20
846.68987455354556
 30
0.0
 11
270.86901153174449
 21
847.18527155354559
 31
0.0
  0
LINE
  5
BC13
  8
0
 10
272.94793253174481
 20
855.68987455354568
 30
0.0
 11
270.86901153174449
 21
855.17543955354586
 31
0.0
  0
LINE
  5
BC14
  8
0
 10
272.94793253174481
 20
857.68987455354568
 30
0.0
 11
270.86901153174449
 21
858.16806655354605
 31
0.0
  0
LINE
  5
BC15
  8
0
 10
272.94793253174481
 20
866.68987455354568
 30
0.0
 11
270.86901153174449
 21
866.19876755354562
 31
0.0
  0
LINE
  5
BC16
  8
0
 10
272.94793253174481
 20
868.68987455354556
 30
0.0
 11
270.86901153174449
 21
869.16024655354556
 31
0.0
  0
LINE
  5
BC17
  8
0
 10
287.9479325317447
 20
876.68987455354556
 30
0.0
 11
285.86901153174449
 21
876.21203055354567
 31
0.0
  0
LINE
  5
BC18
  8
0
 10
287.9479325317447
 20
878.68987455354556
 30
0.0
 11
285.86901153174449
 21
879.15972255354563
 31
0.0
  0
LINE
  5
BC19
  8
0
 10
272.94793253174481
 20
844.68987455354602
 30
0.0
 11
272.94793253174481
 21
846.68987455354556
 31
0.0
  0
LINE
  5
BC1A
  8
0
 10
272.94793253174481
 20
855.68987455354568
 30
0.0
 11
272.94793253174481
 21
857.68987455354568
 31
0.0
  0
LINE
  5
BC1B
  8
0
 10
272.94793253174481
 20
866.68987455354568
 30
0.0
 11
272.94793253174481
 21
868.68987455354556
 31
0.0
  0
LINE
  5
BC1C
  8
0
 10
287.9479325317447
 20
876.68987455354556
 30
0.0
 11
287.9479325317447
 21
878.68987455354556
 31
0.0
  0
ARC
  5
BC1D
  8
0
 10
354.09403453174451
 20
881.68987455354568
 30
0.0
 40
3.0
 50
270.0
 51
10.28656099999424
  0
ARC
  5
BC1E
  8
0
 10
353.48336453174443
 20
882.62972255354589
 30
0.0
 40
3.4700000000000002
 50
270.0
 51
6.1896490000005366
  0
LINE
  5
BC1F
  8
0
 10
469.86901153174449
 20
876.21203055354567
 30
0.0
 11
375.44225453174431
 21
876.21203055354567
 31
0.0
  0
LINE
  5
BC20
  8
0
 10
469.86901153174449
 20
879.15972255354563
 30
0.0
 11
382.25465853174461
 21
879.15972255354563
 31
0.0
  0
LINE
  5
BC21
  8
0
 10
381.64398853174453
 20
878.68987455354556
 30
0.0
 11
467.79009053174462
 21
878.68987455354556
 31
0.0
  0
LINE
  5
BC22
  8
0
 10
375.91574953174461
 20
876.68987455354556
 30
0.0
 11
467.79009053174462
 21
876.68987455354556
 31
0.0
  0
ARC
  5
BC23
  8
0
 10
381.64398853174453
 20
881.68987455354568
 30
0.0
 40
3.0
 50
169.71343900000571
 51
270.0
  0
ARC
  5
BC24
  8
0
 10
382.25465853174461
 20
882.62972255354589
 30
0.0
 40
3.4700000000000002
 50
173.8103509999994
 51
270.0
  0
LINE
  5
BC25
  8
0
 10
467.79009053174462
 20
876.68987455354556
 30
0.0
 11
467.79009053174462
 21
878.68987455354556
 31
0.0
  0
LINE
  5
BC26
  8
0
 10
467.79009053174462
 20
866.68987455354568
 30
0.0
 11
467.79009053174462
 21
868.68987455354556
 31
0.0
  0
LINE
  5
BC27
  8
0
 10
467.79009053174462
 20
855.68987455354568
 30
0.0
 11
467.79009053174462
 21
857.68987455354568
 31
0.0
  0
LINE
  5
BC28
  8
0
 10
467.79009053174462
 20
844.68987455354602
 30
0.0
 11
467.79009053174462
 21
846.68987455354556
 31
0.0
  0
LINE
  5
BC29
  8
0
 10
467.79009053174462
 20
878.68987455354556
 30
0.0
 11
469.86901153174449
 21
879.15972255354563
 31
0.0
  0
LINE
  5
BC2A
  8
0
 10
467.79009053174462
 20
876.68987455354556
 30
0.0
 11
469.86901153174449
 21
876.21203055354567
 31
0.0
  0
LINE
  5
BC2B
  8
0
 10
467.79009053174462
 20
868.68987455354556
 30
0.0
 11
469.86901153174449
 21
869.16024655354556
 31
0.0
  0
LINE
  5
BC2C
  8
0
 10
467.79009053174462
 20
866.68987455354568
 30
0.0
 11
469.86901153174449
 21
866.19876755354562
 31
0.0
  0
LINE
  5
BC2D
  8
0
 10
467.79009053174462
 20
857.68987455354568
 30
0.0
 11
469.86901153174449
 21
858.16806655354605
 31
0.0
  0
LINE
  5
BC2E
  8
0
 10
467.79009053174462
 20
855.68987455354568
 30
0.0
 11
469.86901153174449
 21
855.17543955354586
 31
0.0
  0
LINE
  5
BC2F
  8
0
 10
467.79009053174462
 20
846.68987455354556
 30
0.0
 11
469.86901153174449
 21
847.18527155354559
 31
0.0
  0
LINE
  5
BC30
  8
0
 10
467.79009053174462
 20
844.68987455354602
 30
0.0
 11
469.86901153174449
 21
844.13956555354571
 31
0.0
  0
LINE
  5
BC31
  8
0
 10
469.86901153174449
 20
847.18527155354559
 30
0.0
 11
469.86901153174449
 21
844.13956555354571
 31
0.0
  0
LINE
  5
BC32
  8
0
 10
469.86901153174449
 20
858.16806655354605
 30
0.0
 11
469.86901153174449
 21
855.17543955354586
 31
0.0
  0
LINE
  5
BC33
  8
0
 10
469.86901153174449
 20
869.16024655354556
 30
0.0
 11
469.86901153174449
 21
866.19876755354562
 31
0.0
  0
LINE
  5
BC34
  8
0
 10
469.86901153174449
 20
879.15972255354563
 30
0.0
 11
469.86901153174449
 21
876.21203055354567
 31
0.0
  0
LINE
  5
BC35
  8
0
 10
402.79009053174423
 20
835.68987455354556
 30
0.0
 11
404.86901153174449
 21
836.18527155354593
 31
0.0
  0
LINE
  5
BC36
  8
0
 10
404.86901153174449
 20
836.18527155354593
 30
0.0
 11
270.86901153174449
 21
836.18527155354593
 31
0.0
  0
LINE
  5
BC37
  8
0
 10
272.94793253174481
 20
835.68987455354556
 30
0.0
 11
402.79009053174423
 21
835.68987455354556
 31
0.0
  0
LINE
  5
BC38
  8
0
 10
402.79009053174423
 20
833.68987455354568
 30
0.0
 11
402.79009053174423
 21
835.68987455354556
 31
0.0
  0
LINE
  5
BC39
  8
0
 10
404.86901153174449
 20
833.13956555354571
 30
0.0
 11
270.86901153174449
 21
833.13956555354571
 31
0.0
  0
LINE
  5
BC3A
  8
0
 10
272.94793253174481
 20
833.68987455354568
 30
0.0
 11
402.79009053174423
 21
833.68987455354568
 31
0.0
  0
LINE
  5
BC3B
  8
0
 10
402.79009053174423
 20
833.68987455354568
 30
0.0
 11
404.86901153174449
 21
833.13956555354571
 31
0.0
  0
LINE
  5
BC3C
  8
0
 10
404.86901153174449
 20
827.1852715535457
 30
0.0
 11
270.86901153174449
 21
827.1852715535457
 31
0.0
  0
LINE
  5
BC3D
  8
0
 10
272.94793253174481
 20
826.68987455354556
 30
0.0
 11
402.79009053174423
 21
826.68987455354556
 31
0.0
  0
LINE
  5
BC3E
  8
0
 10
404.86901153174449
 20
824.13956555354571
 30
0.0
 11
270.90256853174418
 21
824.13956555354571
 31
0.0
  0
LINE
  5
BC3F
  8
0
 10
272.94793253174481
 20
824.68987455354568
 30
0.0
 11
402.79009053174423
 21
824.68987455354568
 31
0.0
  0
LINE
  5
BC40
  8
0
 10
402.79009053174423
 20
824.68987455354568
 30
0.0
 11
404.86901153174449
 21
824.13956555354571
 31
0.0
  0
LINE
  5
BC41
  8
0
 10
404.86901153174449
 20
827.1852715535457
 30
0.0
 11
404.86901153174449
 21
824.13956555354571
 31
0.0
  0
LINE
  5
BC42
  8
0
 10
402.79009053174423
 20
824.68987455354568
 30
0.0
 11
402.79009053174423
 21
826.68987455354556
 31
0.0
  0
LINE
  5
BC43
  8
0
 10
402.79009053174423
 20
826.68987455354556
 30
0.0
 11
404.86901153174449
 21
827.1852715535457
 31
0.0
  0
LINE
  5
BC44
  8
0
 10
404.86901153174449
 20
824.13956555354571
 30
0.0
 11
419.86901153174449
 21
824.13956555354571
 31
0.0
  0
LINE
  5
BC45
  8
0
 10
419.86901153174449
 20
824.13956555354571
 30
0.0
 11
435.86901153174409
 21
819.79764055354599
 31
0.0
  0
LINE
  5
BC46
  8
0
 10
270.86901153174449
 20
836.18527155354593
 30
0.0
 11
270.86901153174449
 21
833.13956555354571
 31
0.0
  0
LINE
  5
BC47
  8
0
 10
270.86901153174449
 20
827.1852715535457
 30
0.0
 11
270.86901153174449
 21
824.13956555354571
 31
0.0
  0
LINE
  5
BC48
  8
0
 10
272.94793253174481
 20
833.68987455354568
 30
0.0
 11
272.94793253174481
 21
835.68987455354556
 31
0.0
  0
LINE
  5
BC49
  8
0
 10
272.94793253174481
 20
835.68987455354556
 30
0.0
 11
270.86901153174449
 21
836.18527155354593
 31
0.0
  0
LINE
  5
BC4A
  8
0
 10
272.94793253174481
 20
833.68987455354568
 30
0.0
 11
270.86901153174449
 21
833.13956555354571
 31
0.0
  0
LINE
  5
BC4B
  8
0
 10
272.94793253174481
 20
826.68987455354556
 30
0.0
 11
270.86901153174449
 21
827.1852715535457
 31
0.0
  0
LINE
  5
BC4C
  8
0
 10
272.94793253174481
 20
824.68987455354568
 30
0.0
 11
272.94793253174481
 21
826.68987455354556
 31
0.0
  0
LINE
  5
BC4D
  8
0
 10
272.94793253174481
 20
824.68987455354568
 30
0.0
 11
270.86901153174449
 21
824.13956555354571
 31
0.0
  0
LINE
  5
BC4E
  8
0
 10
162.76904153174419
 20
984.18987455354591
 30
0.0
 11
240.36901153174449
 21
984.18987455354591
 31
0.0
  0
LINE
  5
BC4F
  8
0
 10
162.76904153174419
 20
990.18987455354602
 30
0.0
 11
240.36901153174449
 21
990.18987455354602
 31
0.0
  0
LINE
  5
BC50
  8
0
 10
262.36901153174449
 20
981.18987455354556
 30
0.0
 11
158.86901153174449
 21
981.18987455354556
 31
0.0
  0
LINE
  5
BC51
  8
0
 10
251.36901153174449
 20
984.18987455354591
 30
0.0
 11
264.86901153174449
 21
984.18987455354591
 31
0.0
  0
ARC
  5
BC52
  8
0
 10
909.15599153174435
 20
884.18987455354568
 30
0.0
 40
764.28698999999995
 50
172.82194999999871
 51
187.17804000000049
  0
LINE
  5
BC53
  8
0
 10
155.51904153174419
 20
790.58983455354564
 30
0.0
 11
155.51904153174419
 21
977.87981455354588
 31
0.0
  0
LINE
  5
BC54
  8
0
 10
149.86901153174449
 20
946.62981455354588
 30
0.0
 11
149.86901153174449
 21
821.04985455354563
 31
0.0
  0
LINE
  5
BC55
  8
0
 10
147.86901153174449
 20
946.62981455354588
 30
0.0
 11
147.86901153174449
 21
821.73979455354572
 31
0.0
  0
LINE
  5
BC56
  8
0
 10
262.36901153174449
 20
787.18987455354568
 30
0.0
 11
158.86901153174449
 21
787.18987455354568
 31
0.0
  0
LINE
  5
BC57
  8
0
 10
150.0189815317444
 20
818.35985455354557
 30
0.0
 11
154.92901153174441
 21
790.48985455354568
 31
0.0
  0
ARC
  5
BC58
  8
0
 10
162.77075153174459
 20
790.18791455354574
 30
0.0
 40
5.9980479999999998
 50
207.0535100000092
 51
269.98324000000241
  0
ARC
  5
BC59
  8
0
 10
162.7714815317444
 20
790.18596455354566
 30
0.0
 40
11.996128000000001
 50
187.16444000000149
 51
269.98822000000808
  0
ARC
  5
BC5A
  8
0
 10
149.02941153174419
 20
818.19292455354571
 30
0.0
 40
1.0035289999999999
 50
9.5734909999996063
 51
62.101814999986487
  0
ARC
  5
BC5B
  8
0
 10
150.86755153174451
 20
821.74785455354595
 30
0.0
 40
2.9985330000000001
 50
180.1533100000014
 51
242.84512999998921
  0
ARC
  5
BC5C
  8
0
 10
158.86840153174441
 20
791.19121455354571
 30
0.0
 40
4.0014059999999976
 50
190.09553000000011
 51
270.00785000000678
  0
LINE
  5
BC5D
  8
0
 10
150.0189815317444
 20
950.00981455354599
 30
0.0
 11
154.92895153174459
 21
977.87981455354588
 31
0.0
  0
ARC
  5
BC5E
  8
0
 10
158.86853153174479
 20
977.19048455354573
 30
0.0
 40
3.9993959999999982
 50
89.993275000011238
 51
170.07405999999821
  0
ARC
  5
BC5F
  8
0
 10
149.0296615317443
 20
950.18901455354558
 30
0.0
 40
1.0054319999999961
 50
297.82706000000729
 51
349.7352699999982
  0
ARC
  5
BC60
  8
0
 10
150.86621153174431
 20
946.63262455354595
 30
0.0
 40
2.997211999999998
 50
117.13965999999481
 51
180.05330999999691
  0
ARC
  5
BC61
  8
0
 10
162.76989153174461
 20
978.1931645535459
 30
0.0
 40
5.9966319999999991
 50
90.008472000013285
 51
152.954760000004
  0
ARC
  5
BC62
  8
0
 10
162.77050153174471
 20
978.19481455354594
 30
0.0
 40
11.995034
 50
90.007167000000024
 51
172.8401600000048
  0
LINE
  5
BC63
  8
0
 10
142.47900153174439
 20
879.18987455354568
 30
0.0
 11
142.47900153174439
 21
889.18987455354556
 31
0.0
  0
LINE
  5
BC64
  8
0
 10
144.88903153174439
 20
889.18987455354556
 30
0.0
 11
142.47900153174439
 21
889.18987455354556
 31
0.0
  0
LINE
  5
BC65
  8
0
 10
144.88903153174439
 20
879.18987455354568
 30
0.0
 11
142.47900153174439
 21
879.18987455354568
 31
0.0
  0
LINE
  5
BC66
  8
0
 10
264.86901153174449
 20
990.18987455354602
 30
0.0
 11
264.86901153174449
 21
984.18987455354591
 31
0.0
  0
LINE
  5
BC67
  8
0
 10
240.36901153174449
 20
991.18987455354591
 30
0.0
 11
240.36901153174449
 21
981.18987455354556
 31
0.0
  0
LINE
  5
BC68
  8
0
 10
251.36901153174449
 20
991.18987455354591
 30
0.0
 11
251.36901153174449
 21
981.18987455354556
 31
0.0
  0
LINE
  5
BC69
  8
0
 10
251.36901153174449
 20
990.18987455354602
 30
0.0
 11
264.86901153174449
 21
990.18987455354602
 31
0.0
  0
LINE
  5
BC6A
  8
0
 10
240.36901153174449
 20
991.18987455354591
 30
0.0
 11
251.36901153174449
 21
991.18987455354591
 31
0.0
  0
LINE
  5
BC6B
  8
0
 10
162.76903753174469
 20
784.18983355354555
 30
0.0
 11
240.3690075317445
 21
784.18983055354556
 31
0.0
  0
LINE
  5
BC6C
  8
0
 10
162.76903753174469
 20
778.18983355354567
 30
0.0
 11
240.3690075317445
 21
778.18983055354568
 31
0.0
  0
LINE
  5
BC6D
  8
0
 10
240.3690075317445
 20
777.18983055354556
 30
0.0
 11
240.3690075317445
 21
787.18983055354568
 31
0.0
  0
LINE
  5
BC6E
  8
0
 10
240.3690075317445
 20
777.18983055354556
 30
0.0
 11
251.3690075317445
 21
777.18983055354556
 31
0.0
  0
LINE
  5
BC6F
  8
0
 10
251.3690075317445
 20
777.18983055354556
 30
0.0
 11
251.3690075317445
 21
787.18983055354568
 31
0.0
  0
LINE
  5
BC70
  8
0
 10
251.3690075317445
 20
778.18983055354568
 30
0.0
 11
264.8690075317445
 21
778.18983055354568
 31
0.0
  0
LINE
  5
BC71
  8
0
 10
264.8690075317445
 20
778.18983055354568
 30
0.0
 11
264.8690075317445
 21
784.18983055354556
 31
0.0
  0
LINE
  5
BC72
  8
0
 10
251.3690075317445
 20
784.18983055354556
 30
0.0
 11
264.8690075317445
 21
784.18983055354556
 31
0.0
  0
LINE
  5
BC73
  8
0
 10
262.36901153174449
 20
891.83364555354603
 30
0.0
 11
273.86901153174449
 21
891.83364555354603
 31
0.0
  0
LINE
  5
BC74
  8
0
 10
262.36901153174449
 20
892.16772355354601
 30
0.0
 11
274.54901153174433
 21
892.16772355354601
 31
0.0
  0
LINE
  5
BC75
  8
0
 10
275.86901153174449
 20
889.83364555354558
 30
0.0
 11
275.86901153174449
 21
884.18987855354567
 31
0.0
  0
LINE
  5
BC76
  8
0
 10
277.54901153174433
 20
895.16772355354556
 30
0.0
 11
277.54901153174433
 21
884.18987855354567
 31
0.0
  0
ARC
  5
BC77
  8
0
 10
274.54901153174433
 20
895.16772355354556
 30
0.0
 40
3.0
 50
270.0
 51
0.0
  0
LINE
  5
BC78
  8
0
 10
262.36901153174449
 20
876.54611055354587
 30
0.0
 11
273.86901153174449
 21
876.54611055354587
 31
0.0
  0
LINE
  5
BC79
  8
0
 10
262.36901153174449
 20
876.21203344389664
 30
0.0
 11
274.54901153174433
 21
876.21203255354567
 31
0.0
  0
LINE
  5
BC7A
  8
0
 10
275.86901153174449
 20
878.54611055354587
 30
0.0
 11
275.86901153174449
 21
884.18987855354567
 31
0.0
  0
LINE
  5
BC7B
  8
0
 10
277.54901153174433
 20
873.21203255354601
 30
0.0
 11
277.54901153174433
 21
884.18987855354567
 31
0.0
  0
ARC
  5
BC7C
  8
0
 10
274.54901153174433
 20
873.21203255354601
 30
0.0
 40
3.0
 50
359.99999799999722
 51
89.999998000010223
  0
LINE
  5
BC7D
  8
0
 10
474.86901153174449
 20
579.82319913268839
 30
0.0
 11
490.86901153174318
 21
579.82319913268839
 31
0.0
  0
LINE
  5
BC7E
  8
0
 10
474.86901153174449
 20
571.69919413268849
 30
0.0
 11
490.86901153174318
 21
571.69919413268849
 31
0.0
  0
LINE
  5
BC7F
  8
0
 10
474.86901153174449
 20
558.02548313268824
 30
0.0
 11
490.86901153174318
 21
558.02548313268824
 31
0.0
  0
LINE
  5
BC80
  8
0
 10
474.86901153174449
 20
433.77027113268821
 30
0.0
 11
490.86901153174318
 21
433.77027113268821
 31
0.0
  0
LINE
  5
BC81
  8
0
 10
474.86901153174449
 20
446.0575521326885
 30
0.0
 11
490.86901153174318
 21
446.0575521326885
 31
0.0
  0
LINE
  5
BC82
  8
0
 10
474.86901153174449
 20
456.23684413268808
 30
0.0
 11
490.86901153174318
 21
456.23684413268808
 31
0.0
  0
LINE
  5
BDAA
  8
0
 10
471.86901153174438
 20
888.18981455354572
 30
0.0
 11
471.86901153174438
 21
946.25583655354615
 31
0.0
  0
LINE
  5
BDAD
  8
0
 10
474.86901153174449
 20
888.18981455354572
 30
0.0
 11
474.86901153174449
 21
969.18987455354613
 31
0.0
  0
TEXT
  5
BF67
  8
0
  6
CONTINUOUS
 62
     0
 10
881.04791788456464
 20
859.38347506197977
 30
0.0
 40
15.0
  1
VX22-025EB~VX22-030EB
  0
ENDSEC
  0
EOF
