  0
SECTION
  2
HEADER
  9
$ACADVER
  1
AC1009
  9
$INSBASE
 10
0.0
 20
0.0
 30
0.0
  9
$EXTMIN
 10
110.546764599786
 20
361.86974650255888
 30
-0.0000000000000053
  9
$EXTMAX
 10
1172.3860586135149
 20
1019.044357994492
 30
0.0000000000000099
  9
$LIMMIN
 10
0.0000005999945643
 20
-0.0000005963913736
  9
$LIMMAX
 10
1422.5000005999941
 20
924.99999940360874
  9
$ORTHOMODE
 70
     1
  9
$REGENMODE
 70
     1
  9
$FILLMODE
 70
     1
  9
$QTEXTMODE
 70
     0
  9
$MIRRTEXT
 70
     0
  9
$DRAGMODE
 70
     2
  9
$LTSCALE
 40
1.0
  9
$OSMODE
 70
   551
  9
$ATTMODE
 70
     1
  9
$TEXTSIZE
 40
2.5
  9
$TRACEWID
 40
1.0
  9
$TEXTSTYLE
  7
STANDARD
  9
$CLAYER
  8
0
  9
$CELTYPE
  6
BYLAYER
  9
$CECOLOR
 62
   256
  9
$DIMSCALE
 40
1.0
  9
$DIMASZ
 40
2.0
  9
$DIMEXO
 40
1.0
  9
$DIMDLI
 40
8.0
  9
$DIMRND
 40
0.0
  9
$DIMDLE
 40
0.0
  9
$DIMEXE
 40
1.0
  9
$DIMTP
 40
-0.025
  9
$DIMTM
 40
0.043
  9
$DIMTXT
 40
2.5
  9
$DIMCEN
 40
0.0
  9
$DIMTSZ
 40
0.0
  9
$DIMTOL
 70
     0
  9
$DIMLIM
 70
     0
  9
$DIMTIH
 70
     0
  9
$DIMTOH
 70
     0
  9
$DIMSE1
 70
     0
  9
$DIMSE2
 70
     0
  9
$DIMTAD
 70
     3
  9
$DIMZIN
 70
     8
  9
$DIMBLK
  1

  9
$DIMASO
 70
     1
  9
$DIMSHO
 70
     1
  9
$DIMPOST
  1

  9
$DIMAPOST
  1
"
  9
$DIMALT
 70
     0
  9
$DIMALTD
 70
     2
  9
$DIMALTF
 40
0.0393701
  9
$DIMLFAC
 40
1.0
  9
$DIMTOFL
 70
     1
  9
$DIMTVP
 40
0.0
  9
$DIMTIX
 70
     0
  9
$DIMSOXD
 70
     0
  9
$DIMSAH
 70
     0
  9
$DIMBLK1
  1

  9
$DIMBLK2
  1

  9
$DIMSTYLE
  2
AM_JIS
  9
$DIMCLRD
 70
     2
  9
$DIMCLRE
 70
     2
  9
$DIMCLRT
 70
     4
  9
$DIMTFAC
 40
0.71
  9
$DIMGAP
 40
1.5
  9
$LUNITS
 70
     2
  9
$LUPREC
 70
     2
  9
$SKETCHINC
 40
1.0
  9
$FILLETRAD
 40
0.0
  9
$AUNITS
 70
     0
  9
$AUPREC
 70
     0
  9
$MENU
  1
.
  9
$ELEVATION
 40
0.0
  9
$PELEVATION
 40
0.0
  9
$THICKNESS
 40
0.0
  9
$LIMCHECK
 70
     0
  9
$BLIPMODE
 70
     0
  9
$CHAMFERA
 40
2.5
  9
$CHAMFERB
 40
2.5
  9
$SKPOLY
 70
     0
  9
$TDCREATE
 40
2456829.3841110538
  9
$TDUPDATE
 40
2458540.7246672921
  9
$TDINDWG
 40
0.7010291667
  9
$TDUSRTIMER
 40
0.7010285995
  9
$USRTIMER
 70
     1
  9
$ANGBASE
 50
0.0
  9
$ANGDIR
 70
     0
  9
$PDMODE
 70
     0
  9
$PDSIZE
 40
0.0
  9
$PLINEWID
 40
0.0
  9
$COORDS
 70
     1
  9
$SPLFRAME
 70
     0
  9
$SPLINETYPE
 70
     6
  9
$SPLINESEGS
 70
     8
  9
$ATTDIA
 70
     1
  9
$ATTREQ
 70
     1
  9
$HANDLING
 70
     1
  9
$HANDSEED
  5
DF5E
  9
$SURFTAB1
 70
     6
  9
$SURFTAB2
 70
     6
  9
$SURFTYPE
 70
     6
  9
$SURFU
 70
     6
  9
$SURFV
 70
     6
  9
$UCSNAME
  2

  9
$UCSORG
 10
0.0
 20
0.0
 30
0.0
  9
$UCSXDIR
 10
1.0
 20
0.0
 30
0.0
  9
$UCSYDIR
 10
0.0
 20
1.0
 30
0.0
  9
$PUCSNAME
  2

  9
$PUCSORG
 10
0.0
 20
0.0
 30
0.0
  9
$PUCSXDIR
 10
1.0
 20
0.0
 30
0.0
  9
$PUCSYDIR
 10
0.0
 20
1.0
 30
0.0
  9
$USERI1
 70
     0
  9
$USERI2
 70
     0
  9
$USERI3
 70
     0
  9
$USERI4
 70
     0
  9
$USERI5
 70
     0
  9
$USERR1
 40
0.0
  9
$USERR2
 40
0.0
  9
$USERR3
 40
0.0
  9
$USERR4
 40
0.0
  9
$USERR5
 40
0.0
  9
$WORLDVIEW
 70
     1
  9
$SHADEDGE
 70
     3
  9
$SHADEDIF
 70
    70
  9
$TILEMODE
 70
     1
  9
$MAXACTVP
 70
    64
  9
$PLIMCHECK
 70
     0
  9
$PEXTMIN
 10
1.0000000000000000E+020
 20
1.0000000000000000E+020
 30
1.0000000000000000E+020
  9
$PEXTMAX
 10
-1.0000000000000000E+020
 20
-1.0000000000000000E+020
 30
-1.0000000000000000E+020
  9
$PLIMMIN
 10
0.0
 20
0.0
  9
$PLIMMAX
 10
420.0
 20
297.0
  9
$UNITMODE
 70
     0
  9
$VISRETAIN
 70
     1
  9
$PLINEGEN
 70
     0
  9
$PSLTSCALE
 70
     1
  0
ENDSEC
  0
SECTION
  2
TABLES
  0
TABLE
  2
VPORT
 70
     1
  0
VPORT
  2
*ACTIVE
 70
     0
 10
0.0
 20
0.0
 11
1.0
 21
1.0
 12
641.46641160665024
 22
690.45705224852554
 13
0.0
 23
0.0
 14
12.5
 24
12.5
 15
50.0
 25
50.0
 16
0.0
 26
0.0
 36
1.0
 17
0.0
 27
0.0
 37
0.0
 40
661.68610768066515
 41
1.757159221076747
 42
50.0
 43
0.0
 44
0.0
 50
0.0
 51
0.0
 71
     0
 72
  1000
 73
     1
 74
     3
 75
     0
 76
     0
 77
     0
 78
     0
  0
ENDTAB
  0
TABLE
  2
LTYPE
 70
    24
  0
LTYPE
  2
CONTINUOUS
 70
     0
  3
Solid line
 72
    65
 73
     0
 40
0.0
  0
LTYPE
  2
CENTER
 70
     0
  3
Center ____ _ ____ _ ____ _ ____ _ ____ _ ____
 72
    65
 73
     4
 40
50.799999999999997
 49
31.75
 49
-6.3499999999999979
 49
6.3499999999999979
 49
-6.3499999999999979
  0
LTYPE
  2
AM_ISO02W050
 70
     0
  3
__ __ __ __ __ __ __ __ __ __ __ __ __ __ __
 72
    65
 73
     2
 40
7.5
 49
6.0
 49
-1.5
  0
LTYPE
  2
AM_ISO08W050
 70
     0
  3
____ . ____ . ____ . ____ . ____ . ____ . ____
 72
    65
 73
     4
 40
18.0
 49
12.0
 49
-1.5
 49
3.0
 49
-1.5
  0
LTYPE
  2
AM_ISO09W050
 70
     0
  3
_____ . . _____ . . _____ . . ____ .. ____
 72
    65
 73
     6
 40
22.5
 49
12.0
 49
-1.5
 49
3.0
 49
-1.5
 49
3.0
 49
-1.5
  0
LTYPE
  2
AMCONSTR
 70
     0
  3
_______________________
 72
    65
 73
     2
 40
9999.0
 49
9999.0
 49
0.0
  0
LTYPE
  2
AM_ISO08W050X2
 70
     0
  3
__ . __ . __ . __ . __ . __
 72
    65
 73
     4
 40
9.0
 49
6.0
 49
-0.75
 49
1.5
 49
-0.75
  0
LTYPE
  2
AM_ISO02W050X2
 70
     0
  3
 _ _ _ _ _ _ _ _ _ _ _ _
 72
    65
 73
     2
 40
3.75
 49
3.0
 49
-0.75
  0
LTYPE
  2
AMZIGZAG
 70
     0
  3
/\/-/\/-/\/-/\/-/\/-/\/
 72
    65
 73
     2
 40
11.0001
 49
0.0001
 49
-11.0
  0
LTYPE
  2
ACANSTGBM
 70
     0
  3
__ . . __ . .
 72
    65
 73
     6
 40
9.0
 49
4.0
 49
-1.0
 49
1.0
 49
-1.0
 49
1.0
 49
-1.0
  0
LTYPE
  2
ACANSTGLM
 70
     0
  3
_ _ _ _ _
 72
    65
 73
     2
 40
3.0
 49
2.0
 49
-1.0
  0
LTYPE
  2
ACISOWELD
 70
     0
  3
_ _ _ _ _
 72
    65
 73
     2
 40
2.0
 49
2.0
 49
-1.0
  0
LTYPE
  2
ACISOTGB
 70
     0
  3
__ . . __ . .
 72
    65
 73
     6
 40
9.0
 49
4.0
 49
-1.0
 49
1.0
 49
-1.0
 49
1.0
 49
-1.0
  0
LTYPE
  2
ACISOTGL
 70
     0
  3
_ _ _ _ _
 72
    65
 73
     2
 40
3.0
 49
2.0
 49
-1.0
  0
LTYPE
  2
ACJISTGB
 70
     0
  3
__ . . __ . .
 72
    65
 73
     6
 40
9.0
 49
4.0
 49
-1.0
 49
1.0
 49
-1.0
 49
1.0
 49
-1.0
  0
LTYPE
  2
ACJISTGL
 70
     0
  3
_ _ _ _ _
 72
    65
 73
     2
 40
3.0
 49
2.0
 49
-1.0
  0
LTYPE
  2
HIDDEN
 70
     0
  3
Hidden __ __ __ __ __ __ __ __ __ __ __ __ __ _
 72
    65
 73
     2
 40
9.5249999999999968
 49
6.349999999999997
 49
-3.174999999999998
  0
LTYPE
  2
PHANTOM2
 70
     0
  3
Phantom (.5x) ___ _ _ ___ _ _ ___ _ _ ___ _ _
 72
    65
 73
     6
 40
31.75
 49
15.875
 49
-3.174999999999998
 49
3.174999999999998
 49
-3.174999999999998
 49
3.174999999999998
 49
-3.174999999999998
  0
LTYPE
  2
CENTER2
 70
     0
  3
Center (.5x) ___ _ ___ _ ___ _ ___ _ ___ _ ___
 72
    65
 73
     4
 40
1.125
 49
0.75
 49
-0.125
 49
0.125
 49
-0.125
  0
LTYPE
  2
HIDDEN2
 70
     0
  3
Hidden (.5x) _ _ _ _ _ _ _ _ _ _ _ _ _ _ _ _ _
 72
    65
 73
     2
 40
0.1875
 49
0.125
 49
-0.0625
  0
LTYPE
  2
AMZIGZAG2
 70
     0
  3
/\/-/\/-/\/-/\/-/\/-/\/
 72
    65
 73
     2
 40
0.4401
 49
0.0001
 49
-0.4400000000000003
  0
LTYPE
  2
ACANSTGB
 70
     0
  3
__ . . __ . .
 72
    65
 73
     6
 40
0.35433070866
 49
0.15748031496
 49
-0.03937007874
 49
0.03937007874
 49
-0.03937007874
 49
0.03937007874
 49
-0.03937007874
  0
LTYPE
  2
ACANSTGL
 70
     0
  3
_ _ _ _ _
 72
    65
 73
     2
 40
0.11811023622
 49
0.07874015748
 49
-0.03937007874
  0
ENDTAB
  0
TABLE
  2
LAYER
 70
     4
  0
LAYER
  2
0
 70
     0
 62
     7
  6
CONTINUOUS
  0
LAYER
  2
DEFPOINTS
 70
     0
 62
     7
  6
CONTINUOUS
  0
LAYER
  2
AM_5
 70
     0
 62
     2
  6
CONTINUOUS
  0
LAYER
  2
AM_CL
 70
     0
 62
     1
  6
AMCONSTR
  0
ENDTAB
  0
TABLE
  2
STYLE
 70
     8
  0
STYLE
  2
STANDARD
 70
     0
 40
0.0
 41
0.7400000000000003
 50
0.0
 71
     0
 42
2.5
  3
txt.shx
  4
bigfont.shx
  0
STYLE
  2

 70
     1
 40
0.0
 41
1.0
 50
0.0
 71
     0
 42
2.5
  3
ltypeshp.shx
  4

  0
STYLE
  2
ACANSTS
 70
     0
 40
1.0
 41
1.0
 50
0.0
 71
     0
 42
2.5
  3
romans.shx
  4
bigfont.shx
  0
STYLE
  2
ACANSGDT
 70
     0
 40
0.0
 41
1.0
 50
0.0
 71
     0
 42
2.5
  3
amgdtans.shx
  4

  0
STYLE
  2
ACISOTS
 70
     0
 40
1.0
 41
1.0
 50
0.0
 71
     0
 42
2.5
  3
isocp.shx
  4
extfont.shx
  0
STYLE
  2
ACISOGDT
 70
     0
 40
0.0
 41
1.0
 50
0.0
 71
     0
 42
2.5
  3
amgdt.shx
  4

  0
STYLE
  2
ACJISGDT
 70
     0
 40
0.0
 41
1.0
 50
0.0
 71
     0
 42
2.5
  3
amgdt.shx
  4

  0
STYLE
  2
ACJISTS
 70
     0
 40
1.0
 41
1.0
 50
0.0
 71
     0
 42
2.5
  3
isocp.shx
  4
extfont.shx
  0
ENDTAB
  0
TABLE
  2
VIEW
 70
     6
  0
VIEW
  2
AM_VIEW1
 70
     0
 40
462.5
 10
488.83452017294832
 20
693.74999940360874
 41
977.66903914590773
 11
0.0
 21
0.0
 31
1.0
 12
0.0
 22
0.0
 32
0.0
 42
50.0
 43
0.0
 44
0.0
 50
0.0
 71
     0
  0
VIEW
  2
AM_VIEW2
 70
     0
 40
462.5
 10
933.66548102704076
 20
693.74999940360874
 41
977.66903914590773
 11
0.0
 21
0.0
 31
1.0
 12
0.0
 22
0.0
 32
0.0
 42
50.0
 43
0.0
 44
0.0
 50
0.0
 71
     0
  0
VIEW
  2
AM_VIEW3
 70
     0
 40
462.5
 10
488.83452017294832
 20
231.24999940360871
 41
977.66903914590773
 11
0.0
 21
0.0
 31
1.0
 12
0.0
 22
0.0
 32
0.0
 42
50.0
 43
0.0
 44
0.0
 50
0.0
 71
     0
  0
VIEW
  2
AM_VIEW4
 70
     0
 40
462.5
 10
933.66548102704076
 20
231.24999940360871
 41
977.66903914590773
 11
0.0
 21
0.0
 31
1.0
 12
0.0
 22
0.0
 32
0.0
 42
50.0
 43
0.0
 44
0.0
 50
0.0
 71
     0
  0
VIEW
  2
AM_VIEW5
 70
     0
 40
462.5
 10
711.25000059999468
 20
462.49999940360868
 41
977.66903914590773
 11
0.0
 21
0.0
 31
1.0
 12
0.0
 22
0.0
 32
0.0
 42
50.0
 43
0.0
 44
0.0
 50
0.0
 71
     0
  0
VIEW
  2
AM_VIEW6
 70
     0
 40
924.99075000000016
 10
711.25000059999468
 20
462.49999940360868
 41
1955.318524911032
 11
0.0
 21
0.0
 31
1.0
 12
0.0
 22
0.0
 32
0.0
 42
50.0
 43
0.0
 44
0.0
 50
0.0
 71
     0
  0
ENDTAB
  0
TABLE
  2
UCS
 70
     0
  0
ENDTAB
  0
TABLE
  2
APPID
 70
   158
  0
APPID
  2
ACAD
 70
     0
  0
APPID
  2
ACADANNOTATIVE
 70
     0
  0
APPID
  2
ACAD_MLEADERVER
 70
     0
  0
APPID
  2
MCAD_NO_VIS
 70
     0
  0
APPID
  2
ACAD_TEMP_GRAPHIC
 70
     0
  0
APPID
  2
AD_DRAW
 70
     0
  0
APPID
  2
ACATTRIBSERVICES
 70
     0
  0
APPID
  2
DESIGNERASSEMBLIES
 70
     0
  0
APPID
  2
ACADM_DIM_EDIT
 70
     0
  0
APPID
  2
AMDT_DM_ADJ
 70
     0
  0
APPID
  2
GENIUS_GENDIMSH_14
 70
     0
  0
APPID
  2
GEVID1057795304
 70
     0
  0
APPID
  2
GEVDC
 70
     0
  0
APPID
  2
GEVCON
 70
     0
  0
APPID
  2
GENIUS_GENBH_13
 70
     0
  0
APPID
  2
GENIUS_GENOENT_13
 70
     0
  0
APPID
  2
GENIUS_GENOBJ-NBEHI-BHF_13
 70
     0
  0
APPID
  2
GENIUS_GENOLIS_13
 70
     0
  0
APPID
  2
GENIUS_GENODEF_13
 70
     0
  0
APPID
  2
GENIUS_GENOREF_13
 70
     0
  0
APPID
  2
GENIUS_GENOBJ-NBEHI-BHB_13
 70
     0
  0
APPID
  2
GENIUS_GENOBJ-F-SCPASSM_13
 70
     0
  0
APPID
  2
GENIUS_GENDTOL_13
 70
     0
  0
APPID
  2
GENIUS_GENTRA_14
 70
     0
  0
APPID
  2
ASURF_PCURVE_APPNAME
 70
     0
  0
APPID
  2
GENIUS_GENCFG_13
 70
     0
  0
APPID
  2
GENIUS_GE3CFG0_13
 70
     0
  0
APPID
  2
GENIUS_GENCFG0_13
 70
     0
  0
APPID
  2
GENIUS_GENCFG1_13
 70
     0
  0
APPID
  2
GENIUS_GENCFG2_13
 70
     0
  0
APPID
  2
GENIUS_GENCFG3_13
 70
     0
  0
APPID
  2
GENIUS_GENCFG4_13
 70
     0
  0
APPID
  2
GENIUS_GEVCFG0_13
 70
     0
  0
APPID
  2
GENIUS_GENOBJ-N-TIT_13
 70
     0
  0
APPID
  2
GENIUS_GENTITLE_13
 70
     0
  0
APPID
  2
GENIUS_GENSCREG_15
 70
     0
  0
APPID
  2
GENIUS_GENOBJ-N-SDF_13
 70
     0
  0
APPID
  2
GENIUS_GENFIL_13
 70
     0
  0
APPID
  2
GENIUS_GENOBJ-N-CHA_13
 70
     0
  0
APPID
  2
GENIUS_GEFSH_13
 70
     0
  0
APPID
  2
GENIUS_GENOBJ-F-SHS_13
 70
     0
  0
APPID
  2
GENIUS_GENOBJ-N-CEN_13
 70
     0
  0
APPID
  2
GENIUS_GENREC_14
 70
     0
  0
APPID
  2
GENIUS_GENOBJ-N-REC_13
 70
     0
  0
APPID
  2
GENIUS_GENOBJ-N-HTC_13
 70
     0
  0
APPID
  2
GENIUS_GENHATCH_13
 70
     0
  0
APPID
  2
ACAD_PSEXT
 70
     0
  0
APPID
  2
ACAD_EXEMPT_FROM_CAD_STANDARDS
 70
     0
  0
APPID
  2
ACAECLAYERSTANDARD
 70
     0
  0
APPID
  2
GENIUS_GENCEN_19
 70
     0
  0
APPID
  2
ACAD_DSTYLE_DIMINSPECT
 70
     0
  0
APPID
  2
ACAD_DSTYLE_DIMANGULAR_EXT
 70
     0
  0
APPID
  2
ACADANNOPO
 70
     0
  0
APPID
  2
ACAD_NAV_VCDISPLAY
 70
     0
  0
APPID
  2
GENIUS_GENOBJ-N-FIL_13
 70
     0
  0
APPID
  2
ACAD_DSTYLE_DIMBREAK
 70
     0
  0
APPID
  2
ACAD_DSTYLE_DIMJAG
 70
     0
  0
APPID
  2
ACAD_DSTYLE_DIMRADIAL_EXTENSION
 70
     0
  0
APPID
  2
GENIUS_GENHINW_13
 70
     0
  0
APPID
  2
GENIUS_FIRSTVISTXT_14
 70
     0
  0
APPID
  2
GENIUS_GENOBJ-N-LEADER_13
 70
     0
  0
APPID
  2
DCO15
 70
     0
  0
APPID
  2
GENIUS_DUMCFG0_13
 70
     0
  0
APPID
  2
ACAD_DSTYLE_DIMTEXT_FILL
 70
     0
  0
APPID
  2
AMG_2DHIDE
 70
     0
  0
APPID
  2
GENIUS_GEFSHEP_13
 70
     0
  0
APPID
  2
GENIUS_GENOBJ-F-SHE_13
 70
     0
  0
APPID
  2
GENIUS_GEFSHE_13
 70
     0
  0
APPID
  2
ACAD_DIMASSOC_DIMLFAC
 70
     0
  0
APPID
  2
ACAD_DIMASSOC_CALC_DIMLFAC
 70
     0
  0
APPID
  2
ACAD_DIMASSOC_OVERRIDDEN_D
 70
     0
  0
APPID
  2
GENIUS_GENOBJ-F-SHSV_13
 70
     0
  0
APPID
  2
GENIUS_GEFWELD_13
 70
     0
  0
APPID
  2
GENIUS_GENOBJ-N-CRS_13
 70
     0
  0
APPID
  2
GENIUS_GENOBJ-N-RSBK_13
 70
     0
  0
APPID
  2
GENIUS_GENOBJ-N-LIB_13
 70
     0
  0
APPID
  2
GENIUS_GENSCALE_13
 70
     0
  0
APPID
  2
GENIUS_GENDREL_13
 70
     0
  0
APPID
  2
GEVPT
 70
     0
  0
APPID
  2
GEVIT
 70
     0
  0
APPID
  2
VCC
 70
     0
  0
APPID
  2
GENBH
 70
     0
  0
APPID
  2
GEVMK
 70
     0
  0
APPID
  2
GENIUS_GENOBJ-F-DESC_13
 70
     0
  0
APPID
  2
GENIUS_GEFDESC_14
 70
     0
  0
APPID
  2
GENIUS_GENOBJ-F-FEAT_13
 70
     0
  0
APPID
  2
GENIUS_GEFFEAT_14
 70
     0
  0
APPID
  2
GENIUS_GEFPARTINS_13
 70
     0
  0
APPID
  2
GENIUS_GENSCREG_13
 70
     0
  0
APPID
  2
GENIUS_GEFSHP_13
 70
     0
  0
APPID
  2
GEVID1025574798
 70
     0
  0
APPID
  2
GEVID1025574769
 70
     0
  0
APPID
  2
GEVID1025757451
 70
     0
  0
APPID
  2
GEVID1240528327
 70
     0
  0
APPID
  2
AMG_2DSTRUCT_BTR
 70
     0
  0
APPID
  2
ACADM_2DVIEW_IGN_NOTIFY
 70
     0
  0
APPID
  2
GEVID1240528328
 70
     0
  0
APPID
  2
GEVID1240528329
 70
     0
  0
APPID
  2
GEVRADREF
 70
     0
  0
APPID
  2
GEVID1240528330
 70
     0
  0
APPID
  2
GEVID1240528331
 70
     0
  0
APPID
  2
GEVID1240528332
 70
     0
  0
APPID
  2
GEVID1240791080
 70
     0
  0
APPID
  2
GEVID1240791081
 70
     0
  0
APPID
  2
GEVID1240791082
 70
     0
  0
APPID
  2
GEVID1240791083
 70
     0
  0
APPID
  2
GEVID1240791084
 70
     0
  0
APPID
  2
GEVID1240791085
 70
     0
  0
APPID
  2
GEVID1240791086
 70
     0
  0
APPID
  2
GEVID1240791087
 70
     0
  0
APPID
  2
GEVID1240791088
 70
     0
  0
APPID
  2
GEVID1240791089
 70
     0
  0
APPID
  2
GEVID1240791090
 70
     0
  0
APPID
  2
GEVID1240791091
 70
     0
  0
APPID
  2
GEVID1240791092
 70
     0
  0
APPID
  2
GEVID1240791093
 70
     0
  0
APPID
  2
GEVID1240791094
 70
     0
  0
APPID
  2
GEVID1240791095
 70
     0
  0
APPID
  2
GEVID1240791096
 70
     0
  0
APPID
  2
GEVID1240791097
 70
     0
  0
APPID
  2
GEVID1240791098
 70
     0
  0
APPID
  2
GEVID1240791099
 70
     0
  0
APPID
  2
GEVID1240791100
 70
     0
  0
APPID
  2
GEVID1240791101
 70
     0
  0
APPID
  2
GEVID1240791102
 70
     0
  0
APPID
  2
GEVID1240791103
 70
     0
  0
APPID
  2
GEVID1240791104
 70
     0
  0
APPID
  2
GEVID1240791105
 70
     0
  0
APPID
  2
GEVID1240875381
 70
     0
  0
APPID
  2
GEVID1240875382
 70
     0
  0
APPID
  2
GEVID1240875383
 70
     0
  0
APPID
  2
GEVID1240875384
 70
     0
  0
APPID
  2
GEVID1240875385
 70
     0
  0
APPID
  2
GEVID1240875386
 70
     0
  0
APPID
  2
GEVID1240875387
 70
     0
  0
APPID
  2
GEVID1240875388
 70
     0
  0
APPID
  2
GEVID1240875389
 70
     0
  0
APPID
  2
GEVID1240875390
 70
     0
  0
APPID
  2
GEVID1240875391
 70
     0
  0
APPID
  2
GEVID1240875392
 70
     0
  0
APPID
  2
GEVID1240875393
 70
     0
  0
APPID
  2
GEVID1240875394
 70
     0
  0
APPID
  2
GEVID1240875395
 70
     0
  0
APPID
  2
GEVID1240875396
 70
     0
  0
APPID
  2
GEVID1240875397
 70
     0
  0
APPID
  2
GEVID1240875398
 70
     0
  0
APPID
  2
GEVID1240875399
 70
     0
  0
APPID
  2
GEVID1240908996
 70
     0
  0
APPID
  2
GEVID1240908997
 70
     0
  0
APPID
  2
GEVID1240908998
 70
     0
  0
APPID
  2
GEVID1240908999
 70
     0
  0
APPID
  2
GEVID1240909000
 70
     0
  0
APPID
  2
GENIUS_GENOBJ-N-ZOO_13
 70
     0
  0
APPID
  2
GENIUS_GENZOO_17
 70
     0
  0
APPID
  2
GENIUS_GE3SECT_13
 70
     0
  0
APPID
  2
GEV_VCCNULL_SWITCH_OFF
 70
     0
  0
APPID
  2
ACAD_DSTYLE_DIMTALN
 70
     0
  0
APPID
  2
CONTENTBLOCKDESCRIPTION
 70
     0
  0
ENDTAB
  0
TABLE
  2
DIMSTYLE
 70
    21
  0
DIMSTYLE
  2
AM_ANSI
 70
     0
  3

  4
"
  5

  6

  7

 40
1.0
 41
2.5
 42
1.0
 43
10.0
 44
1.0
 45
0.0
 46
0.0
 47
0.1
 48
0.1
140
3.5
141
0.0
142
0.0
143
0.0393701
144
1.0
145
0.0
146
0.71
147
1.5
 71
     0
 72
     0
 73
     1
 74
     1
 75
     0
 76
     0
 77
     0
 78
     8
170
     0
171
     2
172
     0
173
     0
174
     0
175
     0
176
     2
177
     2
178
     4
  0
DIMSTYLE
  2
AM_ANSI$3
 70
     0
  3

  4
"
  5

  6

  7

 40
1.0
 41
2.5
 42
1.0
 43
10.0
 44
1.0
 45
0.0
 46
0.0
 47
0.1
 48
0.1
140
3.5
141
0.0
142
0.0
143
0.0393701
144
1.0
145
0.0
146
0.71
147
1.5
 71
     0
 72
     0
 73
     1
 74
     1
 75
     0
 76
     0
 77
     0
 78
     8
170
     0
171
     2
172
     0
173
     0
174
     0
175
     0
176
     2
177
     2
178
     4
  0
DIMSTYLE
  2
AM_ANSI$4
 70
     0
  3

  4
"
  5

  6

  7

 40
1.0
 41
2.5
 42
1.0
 43
10.0
 44
1.0
 45
0.0
 46
0.0
 47
0.1
 48
0.1
140
3.5
141
0.0
142
0.0
143
0.0393701
144
1.0
145
0.0
146
0.71
147
1.5
 71
     0
 72
     0
 73
     1
 74
     1
 75
     0
 76
     0
 77
     0
 78
     8
170
     0
171
     2
172
     0
173
     0
174
     0
175
     0
176
     2
177
     2
178
     4
  0
DIMSTYLE
  2
AM_ANSI$7
 70
     0
  3

  4
"
  5

  6

  7

 40
1.0
 41
2.5
 42
1.0
 43
10.0
 44
1.0
 45
0.0
 46
0.0
 47
0.1
 48
0.1
140
5.0
141
0.0
142
0.0
143
0.0393701
144
1.0
145
0.0
146
0.71
147
1.5
 71
     0
 72
     0
 73
     1
 74
     1
 75
     0
 76
     0
 77
     0
 78
     8
170
     0
171
     2
172
     0
173
     0
174
     0
175
     0
176
     2
177
     2
178
     4
  0
DIMSTYLE
  2
AM_ANSI$SF
 70
     0
  3

  4
"
  5

  6

  7

 40
1.0
 41
2.5
 42
1.0
 43
10.0
 44
1.0
 45
0.0
 46
0.0
 47
0.1
 48
0.1
140
3.5
141
0.0
142
0.0
143
0.0393701
144
1.0
145
0.0
146
0.71
147
1.5
 71
     0
 72
     0
 73
     1
 74
     1
 75
     1
 76
     1
 77
     0
 78
     8
170
     0
171
     2
172
     0
173
     0
174
     0
175
     0
176
     2
177
     2
178
     4
  0
DIMSTYLE
  2
AM_ANSI$SH
 70
     0
  3

  4
"
  5

  6
GENAXEH
  7

 40
1.0
 41
2.5
 42
1.0
 43
10.0
 44
1.0
 45
0.0
 46
0.0
 47
0.1
 48
0.1
140
3.5
141
0.0
142
0.0
143
0.0393701
144
1.0
145
0.0
146
0.71
147
1.5
 71
     0
 72
     0
 73
     1
 74
     1
 75
     1
 76
     1
 77
     0
 78
     8
170
     0
171
     2
172
     0
173
     1
174
     0
175
     0
176
     2
177
     2
178
     4
  0
DIMSTYLE
  2
AM_ISO
 70
     0
  3

  4
"
  5

  6

  7

 40
1.0
 41
2.5
 42
1.0
 43
10.0
 44
1.0
 45
0.0
 46
0.0
 47
0.1
 48
0.1
140
3.5
141
0.0
142
0.0
143
0.0393701
144
1.0
145
0.0
146
0.71
147
1.5
 71
     0
 72
     0
 73
     0
 74
     0
 75
     0
 76
     0
 77
     1
 78
     8
170
     0
171
     2
172
     1
173
     0
174
     0
175
     0
176
   256
177
   256
178
     2
  0
DIMSTYLE
  2
AM_ISO$3
 70
     0
  3

  4
"
  5

  6

  7

 40
1.0
 41
2.5
 42
1.0
 43
10.0
 44
1.0
 45
0.0
 46
0.0
 47
0.1
 48
0.1
140
3.5
141
0.0
142
0.0
143
0.0393701
144
1.0
145
0.0
146
0.71
147
1.5
 71
     0
 72
     0
 73
     0
 74
     1
 75
     0
 76
     0
 77
     1
 78
     8
170
     0
171
     2
172
     0
173
     0
174
     0
175
     0
176
   256
177
   256
178
     2
  0
DIMSTYLE
  2
AM_ISO$4
 70
     0
  3

  4
"
  5

  6

  7

 40
1.0
 41
2.5
 42
1.0
 43
10.0
 44
1.0
 45
0.0
 46
0.0
 47
0.1
 48
0.1
140
3.5
141
0.0
142
0.0
143
0.0393701
144
1.0
145
0.0
146
0.71
147
1.5
 71
     0
 72
     0
 73
     0
 74
     1
 75
     0
 76
     0
 77
     1
 78
     8
170
     0
171
     2
172
     0
173
     0
174
     0
175
     0
176
   256
177
   256
178
     2
  0
DIMSTYLE
  2
AM_ISO$6
 70
     0
  3

  4
"
  5

  6

  7

 40
1.0
 41
2.5
 42
1.0
 43
10.0
 44
1.0
 45
0.0
 46
0.0
 47
0.1
 48
0.1
140
3.5
141
0.0
142
0.0
143
0.0393701
144
1.0
145
0.0
146
0.71
147
1.5
 71
     0
 72
     0
 73
     0
 74
     0
 75
     0
 76
     0
 77
     0
 78
     8
170
     0
171
     2
172
     1
173
     0
174
     0
175
     0
176
   256
177
   256
178
     2
  0
DIMSTYLE
  2
AM_ISO$7
 70
     0
  3

  4
"
  5

  6

  7

 40
1.0
 41
2.5
 42
1.0
 43
10.0
 44
1.0
 45
0.0
 46
0.0
 47
0.1
 48
0.1
140
5.0
141
0.0
142
0.0
143
0.0393701
144
1.0
145
0.0
146
0.71
147
1.5
 71
     0
 72
     0
 73
     0
 74
     0
 75
     0
 76
     0
 77
     1
 78
     8
170
     0
171
     2
172
     1
173
     0
174
     0
175
     0
176
   256
177
   256
178
     2
  0
DIMSTYLE
  2
AM_ISO$SF
 70
     0
  3

  4
"
  5

  6

  7

 40
1.0
 41
2.5
 42
1.0
 43
10.0
 44
1.0
 45
0.0
 46
0.0
 47
0.1
 48
0.1
140
3.5
141
0.0
142
0.0
143
0.0393701
144
1.0
145
0.0
146
0.71
147
1.5
 71
     0
 72
     0
 73
     0
 74
     0
 75
     1
 76
     1
 77
     1
 78
     8
170
     0
171
     2
172
     1
173
     0
174
     0
175
     0
176
   256
177
   256
178
     2
  0
DIMSTYLE
  2
AM_ISO$SH
 70
     0
  3

  4
"
  5

  6
GENAXEH
  7

 40
1.0
 41
2.5
 42
1.0
 43
10.0
 44
1.0
 45
0.0
 46
0.0
 47
0.1
 48
0.1
140
3.5
141
0.0
142
0.0
143
0.0393701
144
2.0
145
0.0
146
0.71
147
1.5
 71
     0
 72
     0
 73
     0
 74
     0
 75
     1
 76
     1
 77
     1
 78
     8
170
     0
171
     2
172
     1
173
     1
174
     0
175
     0
176
   256
177
   256
178
     2
  0
DIMSTYLE
  2
AM_JIS
 70
     0
  3

  4
"
  5

  6

  7

 40
1.0
 41
2.0
 42
1.0
 43
8.0
 44
1.0
 45
0.0
 46
0.0
 47
0.1
 48
0.1
140
2.5
141
0.0
142
0.0
143
0.0393701
144
1.0
145
0.0
146
0.71
147
1.5
 71
     0
 72
     0
 73
     0
 74
     0
 75
     0
 76
     0
 77
     3
 78
     8
170
     0
171
     2
172
     1
173
     0
174
     0
175
     0
176
     2
177
     2
178
     4
  0
DIMSTYLE
  2
AM_JIS$3
 70
     0
  3

  4
"
  5

  6

  7

 40
1.0
 41
2.0
 42
1.0
 43
10.0
 44
1.0
 45
0.0
 46
0.0
 47
0.1
 48
0.1
140
2.5
141
0.0
142
0.0
143
0.0393701
144
1.0
145
0.0
146
0.71
147
1.5
 71
     0
 72
     0
 73
     0
 74
     1
 75
     0
 76
     0
 77
     3
 78
     8
170
     0
171
     2
172
     0
173
     0
174
     0
175
     0
176
     2
177
     2
178
     4
  0
DIMSTYLE
  2
AM_JIS$4
 70
     0
  3

  4
"
  5

  6

  7

 40
1.0
 41
2.0
 42
1.0
 43
10.0
 44
1.0
 45
0.0
 46
0.0
 47
0.1
 48
0.1
140
2.5
141
0.0
142
0.0
143
0.0393701
144
1.0
145
0.0
146
0.71
147
1.5
 71
     0
 72
     0
 73
     0
 74
     0
 75
     0
 76
     0
 77
     3
 78
     8
170
     0
171
     2
172
     0
173
     0
174
     0
175
     0
176
     2
177
     2
178
     4
  0
DIMSTYLE
  2
AM_JIS$6
 70
     0
  3

  4
"
  5

  6

  7

 40
1.0
 41
2.0
 42
1.0
 43
10.0
 44
1.0
 45
0.0
 46
0.0
 47
0.1
 48
0.1
140
2.5
141
0.0
142
0.0
143
0.0393701
144
1.0
145
0.0
146
0.71
147
1.5
 71
     0
 72
     0
 73
     0
 74
     0
 75
     0
 76
     0
 77
     0
 78
     8
170
     0
171
     2
172
     1
173
     0
174
     0
175
     0
176
     2
177
     2
178
     4
  0
DIMSTYLE
  2
AM_JIS$7
 70
     0
  3

  4
"
  5

  6
OPEN30
  7
OPEN30
 40
1.0
 41
2.0
 42
1.0
 43
10.0
 44
1.0
 45
0.0
 46
0.0
 47
0.1
 48
0.1
140
2.5
141
0.0
142
0.0
143
0.0393701
144
1.0
145
0.0
146
0.71
147
1.5
 71
     0
 72
     0
 73
     0
 74
     0
 75
     0
 76
     0
 77
     3
 78
     8
170
     0
171
     2
172
     1
173
     0
174
     0
175
     0
176
     2
177
     2
178
     4
  0
DIMSTYLE
  2
AM_JIS$SF
 70
     0
  3

  4
"
  5

  6

  7

 40
1.0
 41
2.0
 42
1.0
 43
10.0
 44
1.0
 45
0.0
 46
0.0
 47
0.1
 48
0.1
140
2.5
141
0.0
142
0.0
143
0.0393701
144
1.0
145
0.0
146
0.71
147
1.5
 71
     0
 72
     0
 73
     0
 74
     0
 75
     1
 76
     1
 77
     3
 78
     8
170
     0
171
     2
172
     1
173
     0
174
     0
175
     0
176
     2
177
     2
178
     4
  0
DIMSTYLE
  2
AM_JIS$SH
 70
     0
  3

  4
"
  5

  6
GENAXEH
  7

 40
1.0
 41
2.0
 42
1.0
 43
10.0
 44
1.0
 45
0.0
 46
0.0
 47
0.1
 48
0.1
140
2.5
141
0.0
142
0.0
143
0.0393701
144
2.0
145
0.0
146
0.71
147
1.5
 71
     0
 72
     0
 73
     0
 74
     0
 75
     1
 76
     1
 77
     3
 78
     8
170
     0
171
     2
172
     1
173
     1
174
     0
175
     0
176
     2
177
     2
178
     4
  0
DIMSTYLE
  2
AM_JIS$0
 70
     0
  3

  4
"
  5

  6

  7

 40
1.0
 41
2.0
 42
1.0
 43
8.0
 44
1.0
 45
0.0
 46
0.0
 47
0.1
 48
0.1
140
2.5
141
0.0
142
0.0
143
0.0393701
144
1.0
145
0.0
146
0.71
147
1.5
 71
     0
 72
     0
 73
     0
 74
     0
 75
     0
 76
     0
 77
     3
 78
     8
170
     0
171
     2
172
     1
173
     0
174
     0
175
     0
176
     2
177
     2
178
     4
  0
ENDTAB
  0
ENDSEC
  0
SECTION
  2
BLOCKS
  0
BLOCK
  8
0
  2
$MODEL_SPACE
 70
     0
 10
0.0
 20
0.0
 30
0.0
  3
$MODEL_SPACE
  1

  0
ENDBLK
  5
77
  8
0
  0
BLOCK
 67
     1
  8
0
  2
$PAPER_SPACE
 70
     0
 10
0.0
 20
0.0
 30
0.0
  3
$PAPER_SPACE
  1

  0
ENDBLK
  5
73
 67
     1
  8
0
  0
BLOCK
  8
0
  2
GENAXEH
 70
     0
 10
0.0
 20
0.0
 30
0.0
  3
GENAXEH
  1

  0
LINE
  5
DDD0
  8
0
 10
-1.0
 20
0.0
 30
0.0
 11
1.0
 21
0.0
 31
0.0
  0
ENDBLK
  5
DDD1
  8
0
  0
BLOCK
  8
0
  6
BYBLOCK
 62
     0
  2
$6-45
 70
     0
 10
0.0
 20
0.0
 30
0.0
  3
$6-45
  1

  0
ARC
  5
9EAB
  8
0
  6
CONTINUOUS
 62
     0
 10
-2.6499939999999902
 20
2.800201000000015
 30
0.0
 40
2.6003989999999999
 50
89.999982000000799
 51
179.99997799999841
  0
ARC
  5
9EAC
  8
0
  6
CONTINUOUS
 62
     0
 10
2.6499939999999902
 20
2.800201000000015
 30
0.0
 40
2.600403
 50
0.0
 51
89.999982000000799
  0
LINE
  5
9EAD
  8
0
  6
CONTINUOUS
 62
     0
 10
0.0660249999999678
 20
0.0
 30
0.0
 11
-0.7999999999999548
 21
1.5
 31
0.0
  0
LINE
  5
9EAE
  8
0
  6
CONTINUOUS
 62
     0
 10
1.0660249999999669
 20
0.0
 30
0.0
 11
0.2000000000000455
 21
1.5
 31
0.0
  0
LINE
  5
9EAF
  8
0
  6
CONTINUOUS
 62
     0
 10
6.1000000000000218
 20
0.0
 30
0.0
 11
-6.1000000000000218
 21
0.0
 31
0.0
  0
LINE
  5
9EB0
  8
0
  6
CONTINUOUS
 62
     0
 10
6.1000000000000218
 20
1.5
 30
0.0
 11
6.1000000000000218
 21
0.0
 31
0.0
  0
LINE
  5
9EB1
  8
0
  6
CONTINUOUS
 62
     0
 10
-6.1000000000000218
 20
1.5
 30
0.0
 11
-6.1000000000000218
 21
0.0
 31
0.0
  0
LINE
  5
9EB2
  8
0
  6
CONTINUOUS
 62
     0
 10
2.6499939999999902
 20
5.3999939999999906
 30
0.0
 11
-2.6499939999999902
 21
5.3999939999999906
 31
0.0
  0
LINE
  5
9EB3
  8
0
  6
CONTINUOUS
 62
     0
 10
6.1000000000000218
 20
1.5
 30
0.0
 11
-6.1000000000000218
 21
1.5
 31
0.0
  0
LINE
  5
9EB4
  8
0
  6
CONTINUOUS
 62
     0
 10
-5.25
 20
1.5
 30
0.0
 11
-5.25
 21
2.800201000000015
 31
0.0
  0
LINE
  5
9EB5
  8
0
  6
CONTINUOUS
 62
     0
 10
5.25
 20
1.5
 30
0.0
 11
5.25
 21
2.800201000000015
 31
0.0
  0
ENDBLK
  5
9EB6
  8
0
  6
BYBLOCK
 62
     0
  0
BLOCK
  8
0
  2
_OPEN30
 70
     0
 10
0.0
 20
0.0
 30
0.0
  3
_OPEN30
  1

  0
LINE
  5
DE17
  8
0
  6
BYBLOCK
 62
     0
 10
-1.0
 20
0.26794919
 30
0.0
 11
0.0
 21
0.0
 31
0.0
  0
LINE
  5
DE18
  8
0
  6
BYBLOCK
 62
     0
 10
0.0
 20
0.0
 30
0.0
 11
-1.0
 21
-0.26794919
 31
0.0
  0
LINE
  5
DE19
  8
0
  6
BYBLOCK
 62
     0
 10
0.0
 20
0.0
 30
0.0
 11
-1.0
 21
0.0
 31
0.0
  0
ENDBLK
  5
DE1A
  8
0
  0
BLOCK
  8
0
  2
_ACMFILLEDHALF
 70
     0
 10
0.0
 20
0.0
 30
0.0
  3
_ACMFILLEDHALF
  1

  0
TRACE
  5
DED9
  8
0
  6
CONTINUOUS
 62
     0
 10
-0.8
 20
0.0
 30
0.0
 11
-1.0
 21
0.166666666
 31
0.0
 12
0.0
 22
0.0
 32
0.0
 13
0.0
 23
0.0
 33
0.0
  0
LINE
  5
DEDA
  8
0
  6
CONTINUOUS
 62
     0
 10
-1.0
 20
0.0
 30
0.0
 11
-0.8
 21
0.0
 31
0.0
  0
ENDBLK
  5
DEDB
  8
0
  0
ENDSEC
  0
SECTION
  2
ENTITIES
  0
LINE
  5
8999
  8
0
 10
657.19777829717793
 20
567.91108597825166
 30
0.0
 11
657.19777829717793
 21
564.91111597825125
 31
0.0
  0
LINE
  5
899A
  8
0
 10
657.19777829717793
 20
567.91108597825166
 30
0.0
 11
713.19777829717805
 21
567.91108597825166
 31
0.0
  0
LINE
  5
899B
  8
0
 10
713.19777829717805
 20
522.91108597825132
 30
0.0
 11
713.19777829717805
 21
567.91108597825166
 31
0.0
  0
LINE
  5
899C
  8
0
 10
643.19777829717793
 20
521.41108597825166
 30
0.0
 11
643.19777829717793
 21
566.41108597825178
 31
0.0
  0
LINE
  5
899D
  8
0
 10
639.19782829717769
 20
521.41108597825166
 30
0.0
 11
643.19777829717793
 21
521.41108597825166
 31
0.0
  0
LINE
  5
899E
  8
0
 10
639.19782829717769
 20
566.41108597825178
 30
0.0
 11
643.19777829717793
 21
566.41108597825178
 31
0.0
  0
LINE
  5
899F
  8
0
 10
643.19777829717793
 20
522.91108597825132
 30
0.0
 11
713.19777829717805
 21
522.91108597825132
 31
0.0
  0
LINE
  5
89A0
  8
0
 10
643.19777829717793
 20
564.91111597825125
 30
0.0
 11
713.19777829717805
 21
564.91111597825125
 31
0.0
  0
LINE
  5
89A1
  8
0
 10
521.19777829717793
 20
427.45948597825128
 30
0.0
 11
521.19777829717793
 21
635.91108097825122
 31
0.0
  0
LINE
  5
89A2
  8
0
 10
1011.5285102130611
 20
567.91108597825132
 30
0.0
 11
1023.5285102130611
 21
567.91108597825132
 31
0.0
  0
LINE
  5
89A3
  8
0
 10
1023.5285102130611
 20
567.91108597825132
 30
0.0
 11
1023.5285102130611
 21
559.91111597825136
 31
0.0
  0
LINE
  5
89A4
  8
0
 10
1011.5285102130611
 20
567.91108597825132
 30
0.0
 11
1011.5285102130611
 21
559.91111597825136
 31
0.0
  0
LINE
  5
89A5
  8
0
 10
1011.5285102130611
 20
559.91111597825136
 30
0.0
 11
1023.5285102130611
 21
559.91111597825136
 31
0.0
  0
LINE
  5
89AE
  8
0
 10
509.4537282971778
 20
627.15463097825148
 30
0.0
 11
536.19777829717793
 21
627.15463097825148
 31
0.0
  0
LINE
  5
89AF
  8
0
 10
538.95542829717851
 20
487.99616597825161
 30
0.0
 11
552.19122829717764
 21
497.90614097825159
 31
0.0
  0
LINE
  5
89B0
  8
0
 10
541.59447829717908
 20
526.39863097825173
 30
0.0
 11
553.7331782971778
 21
512.48524097825157
 31
0.0
  0
LINE
  5
89B1
  8
0
 10
537.56422829717826
 20
600.30493097825138
 30
0.0
 11
549.36552829717846
 21
604.24628097825132
 31
0.0
  0
LINE
  5
89B2
  8
0
 10
541.39677829717834
 20
628.0880809782517
 30
0.0
 11
551.22282829717824
 21
622.37698097825159
 31
0.0
  0
LINE
  5
89B3
  8
0
 10
521.19777829717793
 20
610.23538097825156
 30
0.0
 11
533.19777829717793
 21
610.23538097825156
 31
0.0
  0
LINE
  5
89B4
  8
0
 10
521.19777829717793
 20
628.49438097825157
 30
0.0
 11
539.88922829717819
 21
628.49438097825157
 31
0.0
  0
LINE
  5
89B5
  8
0
 10
942.8692952130624
 20
621.08258097825114
 30
0.0
 11
937.98654521306071
 21
602.85993097825121
 31
0.0
  0
LINE
  5
89B6
  8
0
 10
1079.9403452130609
 20
628.15363097825093
 30
0.0
 11
1061.71771521306
 21
623.27088097825163
 31
0.0
  0
LINE
  5
89B7
  8
0
 10
1154.5995702130599
 20
512.98216097825161
 30
0.0
 11
1141.259710213059
 21
526.32203597825173
 31
0.0
  0
LINE
  5
89B8
  8
0
 10
1154.5995702130599
 20
498.84004097825158
 30
0.0
 11
1146.7886102130601
 21
491.02906597825171
 31
0.0
  0
LINE
  5
89B9
  8
0
 10
880.45744521305915
 20
512.98213097825135
 30
0.0
 11
893.79734521306091
 21
526.3220059782517
 31
0.0
  0
LINE
  5
89BA
  8
0
 10
606.25602829717775
 20
588.08393097825137
 30
0.0
 11
601.19777829717793
 21
588.08393097825137
 31
0.0
  0
LINE
  5
89BB
  8
0
 10
1106.2285202130599
 20
389.91111097825109
 30
0.0
 11
1106.2285202130599
 21
368.91108097825122
 31
0.0
  0
LINE
  5
89BC
  8
0
 10
603.19777829717793
 20
439.50895097825151
 30
0.0
 11
594.68102829717827
 21
439.50895097825151
 31
0.0
  0
LINE
  5
89BD
  8
0
 10
1092.1877802130609
 20
621.0825309782515
 30
0.0
 11
1097.0705002130601
 21
602.85993097825121
 31
0.0
  0
LINE
  5
89BE
  8
0
 10
525.14982829717974
 20
432.55891097825179
 30
0.0
 11
497.59987829717909
 21
397.01047597825158
 31
0.0
  0
LINE
  5
89BF
  8
0
 10
521.19777829717793
 20
520.92286597825159
 30
0.0
 11
533.19777829717793
 21
520.92286597825159
 31
0.0
  0
LINE
  5
89C0
  8
0
 10
1102.5285102130611
 20
368.91108097825122
 30
0.0
 11
1157.52852521306
 21
368.91108097825122
 31
0.0
  0
LINE
  5
89C1
  8
0
 10
955.11673521306034
 20
628.15363097825093
 30
0.0
 11
973.33936021306079
 21
623.27088097825163
 31
0.0
  0
LINE
  5
89C2
  8
0
 10
526.19777829717793
 20
479.72300597825131
 30
0.0
 11
536.19777829717793
 21
479.72300597825131
 31
0.0
  0
LINE
  5
89C3
  8
0
 10
540.69777829717793
 20
605.38673097825119
 30
0.0
 11
540.69777829717793
 21
626.55993097825149
 31
0.0
  0
LINE
  5
89C4
  8
0
 10
932.52850521305936
 20
369.91111097825171
 30
0.0
 11
932.52850521305936
 21
368.91108097825122
 31
0.0
  0
LINE
  5
89C5
  8
0
 10
536.19777829717793
 20
523.92286597825159
 30
0.0
 11
536.19777829717793
 21
607.23538097825167
 31
0.0
  0
LINE
  5
89C6
  8
0
 10
540.69777829717793
 20
518.39890597825161
 30
0.0
 11
540.69777829717793
 21
491.28675597825162
 31
0.0
  0
LINE
  5
89C7
  8
0
 10
536.19777829717793
 20
486.30076097825162
 30
0.0
 11
536.19777829717793
 21
479.72300597825131
 31
0.0
  0
LINE
  5
89C8
  8
0
 10
877.52849521306018
 20
388.91108097825122
 30
0.0
 11
877.52849521306018
 21
368.91108097825122
 31
0.0
  0
LINE
  5
89C9
  8
0
 10
936.52850521305925
 20
373.91108097825122
 30
0.0
 11
1098.894295213059
 21
373.91108097825122
 31
0.0
  0
LINE
  5
89CA
  8
0
 10
1113.5285102130611
 20
393.91108097825122
 30
0.0
 11
1152.52852521306
 21
393.91108097825122
 31
0.0
  0
LINE
  5
89CB
  8
0
 10
928.82852521305995
 20
389.91111097825109
 30
0.0
 11
928.82852521305995
 21
368.91108097825122
 31
0.0
  0
LINE
  5
89CC
  8
0
 10
1102.5285102130611
 20
369.91111097825171
 30
0.0
 11
1102.5285102130611
 21
368.91108097825122
 31
0.0
  0
LINE
  5
89CD
  8
0
 10
1157.52852521306
 20
388.91108097825122
 30
0.0
 11
1157.52852521306
 21
368.91108097825122
 31
0.0
  0
LINE
  5
89CE
  8
0
 10
877.52849521306018
 20
368.91108097825122
 30
0.0
 11
932.52850521305936
 21
368.91108097825122
 31
0.0
  0
LINE
  5
89CF
  8
0
 10
880.45744521305915
 20
498.83997597825129
 30
0.0
 11
888.26844521306055
 21
491.02903597825161
 31
0.0
  0
LINE
  5
89D0
  8
0
 10
882.5284952130603
 20
393.91108097825122
 30
0.0
 11
924.82852521306074
 21
393.91108097825122
 31
0.0
  0
LINE
  5
89D1
  8
0
 10
619.19782829717769
 20
603.91108097825122
 30
0.0
 11
630.19777829717793
 21
603.91108097825122
 31
0.0
  0
LINE
  5
89D2
  8
0
 10
521.19777829717793
 20
489.30079097825143
 30
0.0
 11
533.19777829717793
 21
489.30079097825143
 31
0.0
  0
LINE
  5
89D3
  8
0
 10
526.19777829717793
 20
479.72300597825131
 30
0.0
 11
526.19777829717793
 21
433.91108097825128
 31
0.0
  0
LINE
  5
89D4
  8
0
 10
893.98359521306043
 20
521.30268597825125
 30
0.0
 11
877.56684521306022
 21
389.52924597825142
 31
0.0
  0
LINE
  5
89D5
  8
0
 10
634.07642829717759
 20
590.03243097825111
 30
0.0
 11
638.31917829717793
 21
585.7897309782511
 31
0.0
  0
LINE
  5
89D6
  8
0
 10
591.19777829717805
 20
578.08393097825115
 30
0.0
 11
591.19777829717805
 21
401.9111109782516
 31
0.0
  0
LINE
  5
89D7
  8
0
 10
536.19777829717793
 20
628.49438097825157
 30
0.0
 11
536.19777829717793
 21
633.45588097825157
 31
0.0
  0
LINE
  5
89D8
  8
0
 10
633.19777829717793
 20
543.91108597825166
 30
0.0
 11
633.19777829717793
 21
397.65708597825142
 31
0.0
  0
LINE
  5
89D9
  8
0
 10
538.12797829717783
 20
630.03363097825138
 30
0.0
 11
603.47692829717823
 21
627.75158097825158
 31
0.0
  0
LINE
  5
89DA
  8
0
 10
634.07647829717905
 20
503.78971597825148
 30
0.0
 11
638.31917829717793
 21
508.03236097825169
 31
0.0
  0
LINE
  5
89DB
  8
0
 10
639.19782829717769
 20
389.91111097825171
 30
0.0
 11
639.19782829717769
 21
368.9110809782515
 31
0.0
  0
LINE
  5
89DC
  8
0
 10
599.19782829717678
 20
393.9110809782515
 30
0.0
 11
635.19777829717793
 21
393.9110809782515
 31
0.0
  0
LINE
  5
89DD
  8
0
 10
521.19782829717758
 20
635.91108097825122
 30
0.0
 11
534.26757829717815
 21
635.4546809782513
 31
0.0
  0
LINE
  5
89DE
  8
0
 10
611.19777829717793
 20
447.50895097825151
 30
0.0
 11
611.19777829717793
 21
619.7564809782516
 31
0.0
  0
LINE
  5
89DF
  8
0
 10
633.19777829717793
 20
543.91108597825166
 30
0.0
 11
633.19777829717793
 21
600.91108097825122
 31
0.0
  0
LINE
  5
89E0
  8
0
 10
923.52850521305936
 20
587.54593097825125
 30
0.0
 11
923.52850521305936
 21
471.9012259782516
 31
0.0
  0
LINE
  5
89E1
  8
0
 10
639.19782829717769
 20
543.91108597825166
 30
0.0
 11
639.19782829717769
 21
583.6684809782513
 31
0.0
  0
LINE
  5
89E2
  8
0
 10
639.19782829717769
 20
543.91108597825166
 30
0.0
 11
639.19782829717769
 21
510.1537309782513
 31
0.0
  0
LINE
  5
89E3
  8
0
 10
447.19772829717829
 20
368.9110809782515
 30
0.0
 11
639.19782829717769
 21
368.9110809782515
 31
0.0
  0
LINE
  5
89E4
  8
0
 10
451.19772829717829
 20
393.9110809782515
 30
0.0
 11
491.2764782971779
 21
393.9110809782515
 31
0.0
  0
LINE
  5
89E5
  8
0
 10
447.19772829717829
 20
389.91111097825171
 30
0.0
 11
447.19772829717829
 21
368.9110809782515
 31
0.0
  0
LINE
  5
89E6
  8
0
 10
1141.0734602130599
 20
521.30268597825125
 30
0.0
 11
1157.4901652130609
 21
389.52924597825142
 31
0.0
  0
LINE
  5
89E7
  8
0
 10
929.52853521306031
 20
505.91108597825172
 30
0.0
 11
929.52853521306031
 21
401.91111097825097
 31
0.0
  0
LINE
  5
89E8
  8
0
 10
1105.5285102130611
 20
515.91108597825178
 30
0.0
 11
1105.5285102130611
 21
401.91111097825097
 31
0.0
  0
LINE
  5
89E9
  8
0
 10
1111.5285102130611
 20
587.54593097825125
 30
0.0
 11
1111.5285102130611
 21
468.29646097825167
 31
0.0
  0
LINE
  5
89EA
  8
0
 10
950.52850521305925
 20
388.91108097825122
 30
0.0
 11
1084.52848021306
 21
388.91108097825122
 31
0.0
  0
LINE
  5
89EB
  8
0
 10
947.17404521306071
 20
383.64176597825121
 30
0.0
 11
1087.8829702130599
 21
383.64176597825121
 31
0.0
  0
LINE
  5
89EC
  8
0
 10
1013.5285102130611
 20
672.91108097825122
 30
0.0
 11
1013.5285102130611
 21
639.41108097825122
 31
0.0
  0
LINE
  5
89ED
  8
0
 10
1021.5285102130611
 20
672.91108097825122
 30
0.0
 11
1021.5285102130611
 21
639.41108097825122
 31
0.0
  0
LINE
  5
89EE
  8
0
 10
1007.559970213059
 20
635.52828097825125
 30
0.0
 11
1009.24075521306
 21
641.80118097825152
 31
0.0
  0
LINE
  5
89EF
  8
0
 10
1027.49710521306
 20
635.52833097825078
 30
0.0
 11
1025.8163202130611
 21
641.80118097825152
 31
0.0
  0
LINE
  5
89F0
  8
0
 10
1013.5285102130611
 20
643.17258097825129
 30
0.0
 11
1010.025090213061
 21
642.52573097825132
 31
0.0
  0
LINE
  5
89F1
  8
0
 10
1021.5285102130611
 20
643.17258097825129
 30
0.0
 11
1025.031925213061
 21
642.52573097825132
 31
0.0
  0
LINE
  5
89F2
  8
0
 10
510.12792829717807
 20
635.52448097825163
 30
0.0
 11
521.19767829717784
 21
635.91108097825122
 31
0.0
  0
LINE
  5
89F4
  8
0
 10
494.19782829717758
 20
394.46351097825158
 30
0.0
 11
494.19782829717758
 21
604.53043097825139
 31
0.0
  0
LINE
  5
89F6
  8
0
 10
508.19777829717799
 20
410.68528097825128
 30
0.0
 11
508.19777829717799
 21
633.52578097825153
 31
0.0
  0
LINE
  5
89F8
  8
0
 10
496.67682829717791
 20
622.99013097825173
 30
0.0
 11
505.71867829717843
 21
624.58448097825124
 31
0.0
  0
LINE
  5
89F9
  8
0
 10
519.19782829717769
 20
635.91108097825122
 30
0.0
 11
521.19777829717793
 21
635.91108097825122
 31
0.0
  0
LINE
  5
89FA
  8
0
 10
494.19782829717758
 20
604.53043097825139
 30
0.0
 11
494.19782829717758
 21
633.91108097825111
 31
0.0
  0
LINE
  5
89FC
  8
0
 10
494.87487829717787
 20
635.41108097825122
 30
0.0
 11
509.53032829717898
 21
635.41108097825122
 31
0.0
  0
LINE
  5
89FD
  8
0
 10
497.38062829717808
 20
642.41108097825111
 30
0.0
 11
513.01482829717759
 21
642.41108097825111
 31
0.0
  0
LINE
  5
89FE
  8
0
 10
515.12062829717775
 20
635.69878097825165
 30
0.0
 11
513.48547829717972
 21
641.80118097825152
 31
0.0
  0
LINE
  5
89FF
  8
0
 10
495.19777829717799
 20
635.41103097825123
 30
0.0
 11
496.90997829717782
 21
641.80118097825152
 31
0.0
  0
LINE
  5
8A00
  8
0
 10
497.69437829717828
 20
642.52573097825132
 30
0.0
 11
505.19782829717758
 21
643.91103097825123
 31
0.0
  0
LINE
  5
8A01
  8
0
 10
505.19777829717782
 20
643.91108097825122
 30
0.0
 11
512.70117829717833
 21
642.52573097825132
 31
0.0
  0
LINE
  5
8A02
  8
0
 10
508.19777829717799
 20
490.8993059782515
 30
0.0
 11
521.19777829717793
 21
490.8993059782515
 31
0.0
  0
LINE
  5
8A03
  8
0
 10
508.19777829717799
 20
520.92286597825159
 30
0.0
 11
521.19777829717793
 21
520.92286597825159
 31
0.0
  0
LINE
  5
8A04
  8
0
 10
508.19777829717799
 20
610.23538097825156
 30
0.0
 11
521.19777829717793
 21
610.23538097825156
 31
0.0
  0
LINE
  5
8A05
  8
0
 10
508.19777829717799
 20
628.49438097825157
 30
0.0
 11
521.19777829717793
 21
628.49438097825157
 31
0.0
  0
ARC
  5
8A06
  8
0
 10
1017.5285102130611
 20
543.91108597825166
 30
0.0
 40
20.9999985
 50
106.60155000001851
 51
73.398452000020185
  0
CIRCLE
  5
8A0D
  8
0
 10
1017.5285102130611
 20
543.91108597825166
 30
0.0
 40
3.5000000500000001
  0
CIRCLE
  5
8A0E
  8
0
 10
1017.5285102130611
 20
543.91108597825166
 30
0.0
 40
5.0
  0
ARC
  5
8A0F
  8
0
 10
533.19777829717793
 20
486.30076097825162
 30
0.0
 40
3.0000000500000001
 50
0.0
 51
90.000002999984659
  0
ARC
  5
8A10
  8
0
 10
539.33377829717847
 20
524.4263759782516
 30
0.0
 40
3.0000000500000001
 50
41.102821999974367
 51
90.000002999984659
  0
ARC
  5
8A11
  8
0
 10
533.19777829717793
 20
607.23538097825167
 30
0.0
 40
3.0000000500000001
 50
0.0
 51
90.000002999984659
  0
ARC
  5
8A12
  8
0
 10
533.19777829717793
 20
523.92286597825159
 30
0.0
 40
3.0000000500000001
 50
270.0
 51
0.0
  0
ARC
  5
8A13
  8
0
 10
546.19777829717793
 20
505.91108597825172
 30
0.0
 40
10.0
 50
306.82304000001602
 51
41.102821999974367
  0
ARC
  5
8A14
  8
0
 10
546.19777829717793
 20
613.73128097825122
 30
0.0
 40
10.0
 50
288.46821000003109
 51
59.833878000013591
  0
ARC
  5
8A15
  8
0
 10
887.52849521305973
 20
505.91108597825172
 30
0.0
 40
10.0
 50
135.00000000000901
 51
224.9999999999911
  0
ARC
  5
8A16
  8
0
 10
1082.5285102130611
 20
618.49438097825168
 30
0.0
 40
10.0
 50
14.99999999999447
 51
104.9999999999945
  0
ARC
  5
8A17
  8
0
 10
1147.5285102130611
 20
505.91108597825172
 30
0.0
 40
10.0
 50
315.0000000000087
 51
45.000001000015793
  0
ARC
  5
8A18
  8
0
 10
603.19777829717793
 20
447.50895097825151
 30
0.0
 40
8.0
 50
270.0
 51
0.0
  0
ARC
  5
8A19
  8
0
 10
924.82852521306074
 20
389.91111097825109
 30
0.0
 40
4.000000049999997
 50
0.0
 51
90.000002999984659
  0
ARC
  5
8A1A
  8
0
 10
1017.5285102130611
 20
505.91108597825172
 30
0.0
 40
130.0
 50
127.3755000000165
 51
172.6244900000064
  0
ARC
  5
8A1B
  8
0
 10
540.21007829717837
 20
604.35138097825165
 30
0.0
 40
3.0000000500000001
 50
270.0
 51
288.46822000003419
  0
ARC
  5
8A1C
  8
0
 10
539.88922829717819
 20
625.49438097825168
 30
0.0
 40
3.0000000500000001
 50
59.833878000013591
 51
90.000002999984659
  0
ARC
  5
8A1D
  8
0
 10
952.52850521306107
 20
618.49438097825168
 30
0.0
 40
10.0
 50
74.999999000016103
 51
164.99998999998439
  0
ARC
  5
8A1E
  8
0
 10
1017.5285102130611
 20
505.91108597825172
 30
0.0
 40
124.5
 50
7.101483899987806
 51
172.8985199999988
  0
ARC
  5
8A1F
  8
0
 10
1017.5285102130611
 20
505.91108597825172
 30
0.0
 40
130.0
 50
187.37550999999351
 51
189.6244600000116
  0
ARC
  5
8A20
  8
0
 10
1017.5285102130611
 20
505.91108597825172
 30
0.0
 40
130.0
 50
67.375506000009324
 51
112.62449000000839
  0
ARC
  5
8A21
  8
0
 10
936.52850521305925
 20
369.91111097825171
 30
0.0
 40
4.000000049999997
 50
99.488295999983904
 51
180.000010000001
  0
ARC
  5
8A22
  8
0
 10
1098.5285102130611
 20
369.91111097825171
 30
0.0
 40
4.000000049999997
 50
0.0
 51
80.511701999969631
  0
ARC
  5
8A23
  8
0
 10
882.5284952130603
 20
388.91108097825122
 30
0.0
 40
5.0
 50
90.000002999984659
 51
180.000010000001
  0
ARC
  5
8A24
  8
0
 10
1152.52852521306
 20
388.91108097825122
 30
0.0
 40
5.0
 50
0.0
 51
90.000002999984659
  0
ARC
  5
8A25
  8
0
 10
601.19777829717793
 20
578.08393097825115
 30
0.0
 40
10.0
 50
90.000002999984659
 51
180.000010000001
  0
CIRCLE
  5
8A26
  8
0
 10
1017.5285102130611
 20
543.91108597825166
 30
0.0
 40
41.000000499999992
  0
ARC
  5
8A27
  8
0
 10
1110.2285202130599
 20
389.91111097825109
 30
0.0
 40
4.000000049999997
 50
90.000002999984659
 51
180.000010000001
  0
ARC
  5
8A28
  8
0
 10
1113.5285102130611
 20
401.91111097825097
 30
0.0
 40
8.0
 50
180.000010000001
 51
270.0
  0
ARC
  5
8A29
  8
0
 10
1017.5285102130611
 20
515.91108597825178
 30
0.0
 40
88.0
 50
0.0
 51
186.52497999999059
  0
ARC
  5
8A2A
  8
0
 10
1017.5285102130611
 20
505.91108597825172
 30
0.0
 40
130.0
 50
7.3755072000040967
 51
52.62449399999894
  0
ARC
  5
8A2B
  8
0
 10
921.52850521305936
 20
401.91111097825097
 30
0.0
 40
8.0
 50
270.0
 51
0.0
  0
ARC
  5
8A2C
  8
0
 10
1017.5285102130611
 20
471.9012259782516
 30
0.0
 40
93.999994999999984
 50
179.999989999999
 51
200.58195999998011
  0
ARC
  5
8A2D
  8
0
 10
599.19782829717678
 20
401.9111109782516
 30
0.0
 40
8.0
 50
180.000010000001
 51
270.0
  0
ARC
  5
8A2E
  8
0
 10
630.19777829717793
 20
600.91108097825122
 30
0.0
 40
3.0000000500000001
 50
0.0
 51
90.000002999984659
  0
ARC
  5
8A2F
  8
0
 10
534.19782829717758
 20
633.45588097825157
 30
0.0
 40
2.0000000500000001
 50
0.0
 51
87.999999999996362
  0
ARC
  5
8A30
  8
0
 10
538.19777829717793
 20
632.03243097825168
 30
0.0
 40
2.0000000500000001
 50
179.999989999999
 51
268.00000999999207
  0
ARC
  5
8A31
  8
0
 10
619.19782829717769
 20
611.91108097825122
 30
0.0
 40
8.0
 50
180.000010000001
 51
270.0
  0
ARC
  5
8A32
  8
0
 10
637.19777829717793
 20
397.65708597825142
 30
0.0
 40
4.000000049999997
 50
179.999989999999
 51
255.52248999999119
  0
ARC
  5
8A33
  8
0
 10
1017.5285102130611
 20
505.91108597825172
 30
0.0
 40
130.0
 50
350.37554999999207
 51
352.62449000000652
  0
ARC
  5
8A34
  8
0
 10
635.19777829717793
 20
389.91111097825171
 30
0.0
 40
4.000000049999997
 50
0.0
 51
90.000002999984659
  0
ARC
  5
8A35
  8
0
 10
1017.5285102130611
 20
471.9012259782516
 30
0.0
 40
93.999994999999984
 50
339.95001999997152
 51
20.049976000000399
  0
ARC
  5
8A36
  8
0
 10
491.2764782971779
 20
401.9111109782516
 30
0.0
 40
8.0
 50
270.0
 51
322.22432000001328
  0
ARC
  5
8A37
  8
0
 10
1110.5285102130611
 20
437.9601259782516
 30
0.0
 40
5.0
 50
159.95003000000659
 51
180.000010000001
  0
ARC
  5
8A38
  8
0
 10
1110.5285102130611
 20
505.84236097825129
 30
0.0
 40
5.0
 50
179.999989999999
 51
200.0499699999931
  0
ARC
  5
8A39
  8
0
 10
521.19777829717793
 20
435.62177597825161
 30
0.0
 40
5.0
 50
322.22432000001328
 51
0.0
  0
ARC
  5
8A3A
  8
0
 10
451.19772829717829
 20
389.91111097825171
 30
0.0
 40
4.000000049999997
 50
90.000002999984659
 51
180.000010000001
  0
ARC
  5
8A3B
  8
0
 10
636.19777829717793
 20
501.66847097825161
 30
0.0
 40
3.0000000500000001
 50
135.0000000000085
 51
180.000010000001
  0
ARC
  5
8A3C
  8
0
 10
636.19777829717793
 20
583.6684809782513
 30
0.0
 40
3.0000000500000001
 50
0.0
 51
45.000001000015807
  0
ARC
  5
8A3D
  8
0
 10
636.19777829717793
 20
510.1537309782513
 30
0.0
 40
3.0000000500000001
 50
315.00000000000858
 51
0.0
  0
ARC
  5
8A3E
  8
0
 10
636.19777829717793
 20
592.15368097825149
 30
0.0
 40
3.0000000500000001
 50
179.999989999999
 51
224.9999999999913
  0
ARC
  5
8A3F
  8
0
 10
934.55035521306036
 20
381.74692597825151
 30
0.0
 40
8.0
 50
279.48830000002238
 51
357.00554000001199
  0
ARC
  5
8A40
  8
0
 10
950.52850521305925
 20
380.91108097825122
 30
0.0
 40
8.0
 50
90.000002999984659
 51
177.00554000001199
  0
ARC
  5
8A41
  8
0
 10
1084.52848021306
 20
380.91108097825122
 30
0.0
 40
8.0
 50
2.994464400006688
 51
90.000002999984659
  0
ARC
  5
8A42
  8
0
 10
603.19777829717793
 20
619.7564809782516
 30
0.0
 40
8.0
 50
0.0
 51
87.999999999996362
  0
ARC
  5
8A43
  8
0
 10
884.73289521306094
 20
487.49351097825098
 30
0.0
 40
5.0
 50
352.89851999999883
 51
45.000001000015793
  0
ARC
  5
8A44
  8
0
 10
890.26179521305949
 20
529.85758597825156
 30
0.0
 40
5.0
 50
315.0000000000087
 51
349.3438199999967
  0
ARC
  5
8A45
  8
0
 10
933.15686521305986
 20
604.15398097825164
 30
0.0
 40
5.0
 50
310.65617999998972
 51
345.00000000000551
  0
ARC
  5
8A46
  8
0
 10
974.63342521306072
 20
628.10053097825153
 30
0.0
 40
5.0
 50
255.0000000000054
 51
289.34381999998823
  0
ARC
  5
8A47
  8
0
 10
1060.4236202130601
 20
628.10053097825153
 30
0.0
 40
5.0
 50
250.65618000001189
 51
284.99999999999449
  0
ARC
  5
8A48
  8
0
 10
1101.90015021306
 20
604.15398097825164
 30
0.0
 40
5.0
 50
195.00001000001549
 51
229.34382000001011
  0
ARC
  5
8A49
  8
0
 10
1069.4616452130599
 20
630.52228097825173
 30
0.0
 40
5.0
 50
247.37550999999141
 51
284.99999999999449
  0
ARC
  5
8A4A
  8
0
 10
1144.7952352130601
 20
529.85758597825156
 30
0.0
 40
5.0
 50
190.65618000000339
 51
224.9999999999911
  0
ARC
  5
8A4B
  8
0
 10
1150.324135213061
 20
487.49351097825098
 30
0.0
 40
5.0
 50
135.00000000000901
 51
187.10149000000871
  0
ARC
  5
8A4C
  8
0
 10
965.59537021306085
 20
630.52228097825173
 30
0.0
 40
5.0
 50
255.0000000000054
 51
292.62449000000788
  0
ARC
  5
8A4D
  8
0
 10
1099.4784002130609
 20
613.19208097825128
 30
0.0
 40
5.0
 50
195.00001000001549
 51
232.6244999999831
  0
ARC
  5
8A4E
  8
0
 10
1151.4115352130621
 20
523.2412559782515
 30
0.0
 40
5.0
 50
187.37550999999351
 51
224.9999999999911
  0
ARC
  5
8A4F
  8
0
 10
935.57864521306033
 20
613.19208097825128
 30
0.0
 40
5.0
 50
307.37551000002969
 51
345.00000000000551
  0
ARC
  5
8A50
  8
0
 10
883.64549521305958
 20
523.2412559782515
 30
0.0
 40
5.0
 50
315.0000000000087
 51
352.62449000000652
  0
ARC
  5
8A51
  8
0
 10
883.64549521305958
 20
488.58091597825171
 30
0.0
 40
5.0
 50
7.37550809999414
 51
45.000001000015793
  0
ARC
  5
8A52
  8
0
 10
1151.4115352130621
 20
488.58091597825171
 30
0.0
 40
5.0
 50
135.00000000000901
 51
172.6244900000064
  0
ARC
  5
8A53
  8
0
 10
1100.5066902130591
 20
381.74692597825151
 30
0.0
 40
8.0
 50
182.9944599999879
 51
260.51169999997762
  0
ARC
  5
8A54
  8
0
 10
947.17404521306071
 20
378.64176597825121
 30
0.0
 40
5.0
 50
90.000002999984659
 51
166.18078000000591
  0
ARC
  5
8A55
  8
0
 10
1087.8829702130599
 20
378.64176597825121
 30
0.0
 40
5.0
 50
13.819216999987489
 51
90.000002999984659
  0
ARC
  5
8A56
  8
0
 10
1017.5285102130611
 20
672.91108097825122
 30
0.0
 40
4.000000049999997
 50
359.999989999999
 51
179.999989999999
  0
ARC
  5
8A57
  8
0
 10
1011.5285102130611
 20
639.41108097825122
 30
0.0
 40
2.0000000500000001
 50
270.0
 51
0.0
  0
ARC
  5
8A58
  8
0
 10
1023.5285102130611
 20
639.41108097825122
 30
0.0
 40
2.0000000500000001
 50
179.999989999999
 51
270.0
  0
ARC
  5
8A59
  8
0
 10
1010.20667021306
 20
641.5423309782509
 30
0.0
 40
1.0
 50
100.4607199999837
 51
164.99998999998439
  0
ARC
  5
8A5A
  8
0
 10
1024.8503752130609
 20
641.5423309782509
 30
0.0
 40
1.0
 50
14.99999999999447
 51
79.53928100000995
  0
ARC
  5
8A5B
  8
0
 10
510.19777829717782
 20
633.52578097825153
 30
0.0
 40
2.0000000500000001
 50
91.999997999994051
 51
180.000010000001
  0
ARC
  5
8A5C
  8
0
 10
497.19777829717759
 20
620.03568097825132
 30
0.0
 40
3.0000000500000001
 50
100.0000000000059
 51
180.000010000001
  0
ARC
  5
8A5D
  8
0
 10
505.19777829717782
 20
627.53883097825121
 30
0.0
 40
3.0000000500000001
 50
280.00000000000603
 51
0.0
  0
ARC
  5
8A5E
  8
0
 10
496.19777829717788
 20
633.91108097825111
 30
0.0
 40
2.0000000500000001
 50
131.40962000000599
 51
180.000010000001
  0
CIRCLE
  5
8A5F
  8
0
 10
505.19777829717782
 20
656.41108097825122
 30
0.0
 40
12.5
  0
ARC
  5
8A60
  8
0
 10
505.19777829717782
 20
656.41108097825122
 30
0.0
 40
20.500000500000009
 50
304.6136399999948
 51
235.38634999999331
  0
ARC
  5
8A61
  8
0
 10
519.11467829717822
 20
636.24758097825122
 30
0.0
 40
4.000000049999997
 50
124.6136500000068
 51
187.8682200000151
  0
ARC
  5
8A62
  8
0
 10
491.28077829717768
 20
636.24758097825122
 30
0.0
 40
4.000000049999997
 50
347.92933000000107
 51
55.386359000032002
  0
ARC
  5
8A63
  8
0
 10
497.87592829717761
 20
641.54233097825124
 30
0.0
 40
1.0
 50
100.4607199999837
 51
164.99998999998439
  0
ARC
  5
8A64
  8
0
 10
512.51967829717785
 20
641.54233097825124
 30
0.0
 40
1.0
 50
14.99999999999447
 51
79.53928100000995
  0
LINE
  5
8A66
  8
0
  6
AM_ISO08W050
 10
1017.5285102130611
 20
682.04104414737265
 30
0.0
 11
1017.5285102130611
 21
367.94150597825171
 31
0.0
  0
LINE
  5
8A67
  8
0
  6
AM_ISO08W050
 10
1132.5285102130611
 20
397.76124097825158
 30
0.0
 11
1132.5285102130611
 21
361.93555597825173
 31
0.0
  0
LINE
  5
8A68
  8
0
  6
AM_ISO08W050
 10
902.52849521306246
 20
398.41898597825173
 30
0.0
 11
902.52849521306246
 21
364.01945097825171
 31
0.0
  0
LINE
  5
8A69
  8
0
  6
ACJISTGL
 10
1142.0285102130611
 20
393.9110809782519
 30
0.0
 11
1142.0285102130611
 21
368.9110809782519
 31
0.0
  0
LINE
  5
8A6A
  8
0
  6
ACJISTGL
 10
893.02849521306234
 20
393.9110809782519
 30
0.0
 11
893.02849521306234
 21
368.9110809782519
 31
0.0
  0
LINE
  5
8A6B
  8
0
  6
ACJISTGL
 10
1123.0285102130611
 20
393.9110809782519
 30
0.0
 11
1123.0285102130611
 21
368.9110809782519
 31
0.0
  0
LINE
  5
8A6C
  8
0
  6
ACJISTGL
 10
912.02853521306224
 20
393.9110809782519
 30
0.0
 11
912.02853521306224
 21
368.9110809782519
 31
0.0
  0
LINE
  5
8A6D
  8
0
  6
AM_ISO08W050
 10
887.52851021306105
 20
543.91108597825166
 30
0.0
 11
1147.5285102130611
 21
543.91108597825166
 31
0.0
  0
LINE
  5
8A76
  8
0
  6
AM_ISO08W050
 10
467.26273200871492
 20
543.91108597825132
 30
0.0
 11
721.14217829718007
 21
543.91108597825132
 31
0.0
  0
LINE
  5
8A77
  8
0
  6
ACJISTGL
 10
608.69782829717758
 20
393.91108597825132
 30
0.0
 11
608.69782829717758
 21
368.9110809782515
 31
0.0
  0
LINE
  5
8A78
  8
0
  6
ACJISTGL
 10
627.69782829718031
 20
393.91108597825132
 30
0.0
 11
627.69782829718031
 21
368.9110809782515
 31
0.0
  0
LINE
  5
8A79
  8
0
  6
ACJISTGL
 10
477.69782829718031
 20
393.91108597825132
 30
0.0
 11
477.69782829718031
 21
368.9110809782515
 31
0.0
  0
LINE
  5
8A7A
  8
0
  6
ACJISTGL
 10
458.69782829717758
 20
393.91108597825132
 30
0.0
 11
458.69782829717758
 21
368.9110809782515
 31
0.0
  0
LINE
  5
8A7B
  8
0
  6
AM_ISO08W050
 10
618.19777829718078
 20
395.87150097825128
 30
0.0
 11
618.19777829718078
 21
366.15336097825133
 31
0.0
  0
LINE
  5
8A7C
  8
0
  6
AM_ISO08W050
 10
468.19777829717771
 20
395.87150097825128
 30
0.0
 11
468.19777829717771
 21
366.15336097825133
 31
0.0
  0
LINE
  5
B0C3
  8
0
 10
869.10186921306149
 20
478.16647697825113
 30
0.0
 11
867.22248321306154
 21
478.8505179782511
 31
0.0
  0
ARC
  5
B0C4
  8
0
 10
856.5285102130614
 20
449.46907797825128
 30
0.0
 40
2.0
 50
339.9999989999987
 51
0.0
  0
ARC
  5
B0C5
  8
0
 10
867.52851021306151
 20
550.53605797825139
 30
0.0
 40
9.0
 50
90.0
 51
180.0
  0
LINE
  5
B0C6
  8
0
 10
858.52851021306151
 20
550.53605797825139
 30
0.0
 11
858.52851021306151
 21
449.46907797825128
 31
0.0
  0
ARC
  5
B0C9
  8
0
 10
861.58708421306153
 20
442.90077197825121
 30
0.0
 40
5.0
 50
159.99999499999251
 51
250.0000049999978
  0
ARC
  5
B0CA
  8
0
 10
866.34596421306139
 20
441.41108797825132
 30
0.0
 40
2.0
 50
90.00000299999769
 51
99.3859850000036
  0
LINE
  5
B0CB
  8
0
 10
863.63575921306153
 20
436.83422697825119
 30
0.0
 11
859.87698321306152
 21
438.20230897825132
 31
0.0
  0
LINE
  5
B0CC
  8
0
 10
866.34596421306139
 20
443.41108497825121
 30
0.0
 11
884.27961434470967
 21
443.41108497825121
 31
0.0
  0
ARC
  5
B0D2
  8
0
 10
904.33959121306157
 20
560.36235197825135
 30
0.0
 40
5.0
 50
125.2868526470387
 51
159.99999499999251
  0
ARC
  5
B0D3
  8
0
 10
897.31754521306152
 20
561.53603997825132
 30
0.0
 40
2.0
 50
269.99999700000228
 51
340.00000900000202
  0
LINE
  5
B0D4
  8
0
 10
899.64114021306148
 20
562.07244197825128
 30
0.0
 11
883.1017762130615
 21
516.63091497825121
 31
0.0
  0
LINE
  5
B0D5
  8
0
 10
897.31754521306152
 20
559.53605797825128
 30
0.0
 11
867.52851021306151
 21
559.53605797825128
 31
0.0
  0
LINE
  5
B0D6
  8
0
 10
885.54851321306148
 20
529.20086997825126
 30
0.0
 11
878.92991208243768
 21
511.01641340612412
 31
0.0
  0
LINE
  5
B0D7
  8
0
 10
887.42789821306155
 20
528.51682997825139
 30
0.0
 11
885.54851321306148
 21
529.20086997825126
 31
0.0
  0
LINE
  5
B0D8
  8
0
 10
873.42798521306122
 20
490.05239397825108
 30
0.0
 11
881.88522121306141
 21
486.97421097825111
 31
0.0
  0
LINE
  5
B0D9
  8
0
 10
883.1017762130615
 20
516.63091497825121
 30
0.0
 11
883.83819943198534
 21
516.36287886138325
 31
0.0
  0
LINE
  5
B0DA
  8
0
 10
863.63575921306153
 20
436.83422697825119
 30
0.0
 11
884.67056735783478
 21
494.62688619646849
 31
0.0
  0
LINE
  5
B0DB
  8
0
 10
873.42798521306122
 20
490.05239397825108
 30
0.0
 11
856.88862321306135
 21
444.61087097825128
 31
0.0
  0
LINE
  5
B0DF
  8
0
 10
877.65995720640615
 20
507.52724117229508
 30
0.0
 11
867.22248321306154
 21
478.8505179782511
 31
0.0
  0
LINE
  5
B25D
  8
0
 10
454.69777829717788
 20
420.91108597825132
 30
0.0
 11
490.33742585186877
 21
419.6665259184158
 31
0.0
  0
ARC
  5
B25E
  8
0
 10
490.19782829717758
 20
415.6689625952497
 30
0.0
 40
4.0
 50
0.0
 51
88.000006193419694
1001
GENIUS_GENODEF_13
1002
{
1000
HIER
1070
     0
1002
}
1002
{
1000
MANEDIT
1070
     0
1002
}
1002
{
1000
NOSEL
1070
     0
1002
}
1002
{
1000
BEHIND
1070
     0
1002
}
1002
{
1000
OTHER
1070
     0
1002
}
1002
{
1000
REACTOR
1002
}
1001
GENIUS_GENOBJ-N-FIL_13
1002
{
1000
OWNER
1000
GEN
1002
}
  0
LINE
  5
B25F
  8
0
 10
454.69777829717788
 20
590.91108597825132
 30
0.0
 11
490.33742365040769
 21
592.15562631050022
 31
0.0
  0
ARC
  5
B260
  8
0
 10
490.19782829717758
 20
596.15318971054205
 30
0.0
 40
4.0
 50
271.99996225375321
 51
0.0
1001
GENIUS_GENOBJ-N-FIL_13
1002
{
1000
OWNER
1000
GEN
1002
}
1001
GENIUS_GENODEF_13
1002
{
1000
HIER
1070
     0
1002
}
1002
{
1000
MANEDIT
1070
     0
1002
}
1002
{
1000
NOSEL
1070
     0
1002
}
1002
{
1000
BEHIND
1070
     0
1002
}
1002
{
1000
OTHER
1070
     0
1002
}
1002
{
1000
REACTOR
1002
}
  0
LINE
  5
B261
  8
0
  6
AM_ISO08W050
 10
114.97721577741891
 20
505.91108597825132
 30
0.0
 11
490.37772580557061
 21
505.91108597825132
 31
0.0
  0
LINE
  5
B728
  8
0
 10
454.69777829717788
 20
420.91108597825132
 30
0.0
 11
454.69777829717788
 21
590.91108597825132
 31
0.0
  0
LINE
  5
CC9E
  8
0
 10
242.19777829717819
 20
440.16653114227591
 30
0.0
 11
242.19777829717799
 21
418.91102497825142
 31
0.0
  0
LINE
  5
CC9F
  8
0
 10
347.69777829717799
 20
451.500257978251
 30
0.0
 11
347.69777829717799
 21
431.51530797825131
 31
0.0
  0
LINE
  5
CCA0
  8
0
 10
388.6977782971781
 20
501.97422197825131
 30
0.0
 11
402.22777829717768
 21
501.97422197825131
 31
0.0
  0
LINE
  5
CCA1
  8
0
 10
231.7677782971781
 20
501.97422197825131
 30
0.0
 11
244.6977782971781
 21
501.97422197825131
 31
0.0
  0
LINE
  5
CCA2
  8
0
 10
238.19777829717799
 20
495.41422197825142
 30
0.0
 11
238.19777829717799
 21
508.68422197825129
 31
0.0
  0
LINE
  5
CCA3
  8
0
 10
382.6977782971781
 20
558.8542219782513
 30
0.0
 11
250.69777829717799
 21
558.8542219782513
 31
0.0
  0
LINE
  5
CCA4
  8
0
 10
244.6977782971781
 20
552.85422197825119
 30
0.0
 11
244.6977782971781
 21
451.77422197825132
 31
0.0
  0
LINE
  5
CCA5
  8
0
 10
388.6977782971781
 20
552.85422197825119
 30
0.0
 11
388.6977782971781
 21
451.77422197825132
 31
0.0
  0
LINE
  5
CCA6
  8
0
 10
250.69777829717799
 20
445.77422197825132
 30
0.0
 11
382.6977782971781
 21
445.77422197825132
 31
0.0
  0
LINE
  5
CCA7
  8
0
 10
395.21726229717808
 20
524.3011349782513
 30
0.0
 11
395.1977782971781
 21
552.8742219782514
 31
0.0
  0
LINE
  5
CCA8
  8
0
 10
382.6977782971781
 20
565.35422197825119
 30
0.0
 11
250.69777829717799
 21
565.35422197825119
 31
0.0
  0
LINE
  5
CCA9
  8
0
 10
238.19777829717799
 20
524.33422197825132
 30
0.0
 11
238.19777829717799
 21
552.85422197825119
 31
0.0
  0
LINE
  5
CCAA
  8
0
 10
238.19777829717799
 20
479.60422197825119
 30
0.0
 11
238.19777829717799
 21
449.33422197825132
 31
0.0
  0
LINE
  5
CCAB
  8
0
 10
395.1977782971781
 20
479.60422197825119
 30
0.0
 11
395.1977782971781
 21
449.33422197825132
 31
0.0
  0
LINE
  5
CCAC
  8
0
 10
250.69777829717799
 20
436.83422197825132
 30
0.0
 11
382.6977782971781
 21
436.83422197825132
 31
0.0
  0
ARC
  5
CCAD
  8
0
 10
410.19934029717768
 20
479.61317997825131
 30
0.0
 40
15.001564999999999
 50
131.81297400000199
 51
180.034212999999
  0
ARC
  5
CCAE
  8
0
 10
382.69726629717809
 20
552.85370997825135
 30
0.0
 40
6.0005119999999996
 50
0.0048860000006618
 51
89.995114000002559
  0
ARC
  5
CCAF
  8
0
 10
250.69628529717809
 20
552.85571497825106
 30
0.0
 40
5.998507
 50
89.985740000000476
 51
180.0142599999995
  0
ARC
  5
CCB0
  8
0
 10
250.695274297178
 20
451.77171797825127
 30
0.0
 40
5.9974970000000001
 50
179.9760820000013
 51
270.02391799999867
  0
ARC
  5
CCB1
  8
0
 10
382.69827729717798
 20
451.77372297825133
 30
0.0
 40
5.9995010000000004
 50
269.99523699999969
 51
0.0047630000002228
  0
ARC
  5
CCB2
  8
0
 10
223.19884329717809
 20
524.33408597825132
 30
0.0
 40
14.998934999999999
 50
311.8084959999992
 51
0.0005210000016347
  0
ARC
  5
CCB3
  8
0
 10
223.19566629717801
 20
479.60547797825132
 30
0.0
 40
15.007673
 50
358.4401929999994
 51
48.205064000001038
  0
ARC
  5
CCB4
  8
0
 10
229.694725297178
 20
475.17691297825132
 30
0.0
 40
15.003053
 50
359.98972200000082
 51
63.249136000002181
  0
ARC
  5
CCB5
  8
0
 10
229.69741329717809
 20
528.75987597825133
 30
0.0
 40
15.000365
 50
296.74454000000122
 51
0.0166020000005186
  0
ARC
  5
CCB6
  8
0
 10
243.19577429717799
 20
501.96922197825143
 30
0.0
 40
14.998716
 50
116.7375830000023
 51
243.2624169999977
  0
ARC
  5
CCB7
  8
0
 10
403.69792429717802
 20
475.17870297825112
 30
0.0
 40
15.000147
 50
116.74402700000201
 51
180.01711599999811
  0
ARC
  5
CCB8
  8
0
 10
403.6952352971781
 20
528.75808597825119
 30
0.0
 40
14.997458999999999
 50
179.97655699999851
 51
243.26230100000251
  0
ARC
  5
CCB9
  8
0
 10
390.19577329717811
 20
501.96922197825143
 30
0.0
 40
15.00052
 50
296.75125799999751
 51
63.248742000002501
  0
ARC
  5
CCBA
  8
0
 10
382.69477729717812
 20
552.85119997825132
 30
0.0
 40
12.503022
 50
0.1054989999989078
 51
89.986247999999051
  0
ARC
  5
CCBB
  8
0
 10
250.69628529717809
 20
552.85571497825106
 30
0.0
 40
12.498507
 50
89.993155999999715
 51
180.0068440000002
  0
ARC
  5
CCBC
  8
0
 10
250.69327429717799
 20
449.32971797825132
 30
0.0
 40
12.495497
 50
179.9793499999987
 51
270.020649999998
  0
ARC
  5
CCBD
  8
0
 10
382.7002772971781
 20
449.33172297825132
 30
0.0
 40
12.497502000000001
 50
269.98854500000192
 51
0.0114550000013282
  0
ARC
  5
CCBE
  8
0
 10
410.21725829717758
 20
524.31136397825139
 30
0.0
 40
15.0
 50
180.03907000000001
 51
228.13549799999899
  0
LINE
  5
CCBF
  8
0
 10
399.6546542971779
 20
555.09608597825115
 30
0.0
 11
399.6546542971779
 21
534.73108597825114
 31
0.0
  0
LINE
  5
CCC0
  8
0
 10
415.69777729717782
 20
555.09608597825115
 30
0.0
 11
415.69777729717782
 21
534.73108597825114
 31
0.0
  0
LINE
  5
CCC1
  8
0
 10
430.24717329717782
 20
449.8902899782513
 30
0.0
 11
415.69777729717782
 21
449.8902899782513
 31
0.0
  0
LINE
  5
CCC2
  8
0
 10
435.19777829717782
 20
461.30263997825131
 30
0.0
 11
415.69777729717782
 21
461.30263997825131
 31
0.0
  0
LINE
  5
CCC3
  8
0
 10
400.40317529717782
 20
454.60537997825128
 30
0.0
 11
415.69777829717799
 21
449.8902899782513
 31
0.0
  0
LINE
  5
CCC4
  8
0
 10
415.69777829717799
 20
461.30263997825131
 30
0.0
 11
400.66183729717812
 21
460.76188897825119
 31
0.0
  0
ARC
  5
CCC5
  8
0
 10
400.69777829717782
 20
459.76253497825132
 30
0.0
 40
1.0
 50
92.059690999997201
 51
180.0
  0
ARC
  5
CCC6
  8
0
 10
400.69777829717782
 20
455.56099997825129
 30
0.0
 40
1.0
 50
180.0
 51
252.8662750000021
  0
LINE
  5
CCC7
  8
0
 10
415.69777829717799
 20
581.76387297825136
 30
0.0
 11
400.39731929717811
 21
576.94400697825131
 31
0.0
  0
ARC
  5
CCC8
  8
0
 10
400.69777829717782
 20
575.9902119782513
 30
0.0
 40
1.0
 50
107.485179
 51
180.0
  0
ARC
  5
CCC9
  8
0
 10
400.69777829717782
 20
573.63914697825123
 30
0.0
 40
1.0
 50
180.0
 51
270.0
  0
LINE
  5
CCCA
  8
0
 10
400.7463332971779
 20
572.64032597825121
 30
0.0
 11
415.69777829717799
 21
573.36714597825119
 31
0.0
  0
LINE
  5
CCCB
  8
0
 10
435.19777829717782
 20
573.36714597825119
 30
0.0
 11
415.69777829717799
 21
573.36714597825119
 31
0.0
  0
LINE
  5
CCCC
  8
0
 10
358.69777829717799
 20
604.19757897825127
 30
0.0
 11
446.14496329717781
 21
604.19757897825127
 31
0.0
  0
ARC
  5
CCCD
  8
0
 10
269.96202329717812
 20
602.19757897825139
 30
0.0
 40
2.0
 50
90.0
 51
156.10179999999909
  0
ARC
  5
CCCE
  8
0
 10
446.14496329717781
 20
602.19757897825139
 30
0.0
 40
2.0
 50
10.000001999998901
 51
90.0
  0
LINE
  5
CCCF
  8
0
 10
449.69777829717799
 20
593.56610297825125
 30
0.0
 11
448.11457829717762
 21
602.5448759782513
 31
0.0
  0
LINE
  5
CCD0
  8
0
 10
449.43697029717788
 20
593.56610297825125
 30
0.0
 11
449.69777829717799
 21
593.56610297825125
 31
0.0
  0
ARC
  5
CCD1
  8
0
 10
255.02899329717809
 20
601.00780497825122
 30
0.0
 40
2.0
 50
90.0
 51
169.99999800000111
  0
LINE
  5
CCD2
  8
0
 10
250.69777829717799
 20
587.96180197825129
 30
0.0
 11
253.059378297178
 21
601.35510197825124
 31
0.0
  0
ARC
  5
CCD3
  8
0
 10
446.09394429717793
 20
601.00780497825122
 30
0.0
 40
2.0
 50
10.000001999998901
 51
90.0
  0
LINE
  5
CCD4
  8
0
 10
449.69777829717799
 20
592.08698497825139
 30
0.0
 11
448.06355929717762
 21
601.35510197825124
 31
0.0
  0
LINE
  5
CCD5
  8
0
 10
250.69777829717799
 20
587.96180197825129
 30
0.0
 11
251.2656842971781
 21
587.96180197825129
 31
0.0
  0
LINE
  5
CCD6
  8
0
 10
449.16180729717757
 20
592.08698497825139
 30
0.0
 11
449.69777829717799
 21
592.08698497825139
 31
0.0
  0
ARC
  5
CCD7
  8
0
 10
446.00808929717778
 20
598.45507097825123
 30
0.0
 40
2.0
 50
10.00000100000252
 51
90.0
  0
ARC
  5
CCD8
  8
0
 10
255.14678429717799
 20
598.45507097825123
 30
0.0
 40
2.0
 50
90.0
 51
169.9999989999975
  0
LINE
  5
CCD9
  8
0
 10
250.69777829717799
 20
584.74104597825124
 30
0.0
 11
253.1771682971781
 21
598.80236697825126
 31
0.0
  0
ARC
  5
CCDA
  8
0
 10
255.32792529717801
 20
594.48988597825121
 30
0.0
 40
2.0
 50
90.0
 51
169.9999999999981
  0
LINE
  5
CCDB
  8
0
 10
250.69777829717799
 20
579.74856097825125
 30
0.0
 11
253.3583092971781
 21
594.83718197825124
 31
0.0
  0
ARC
  5
CCDC
  8
0
 10
255.6091532971781
 20
588.91245797825138
 30
0.0
 40
2.0
 50
90.0
 51
169.9999999999981
  0
LINE
  5
CCDD
  8
0
 10
250.69777829717799
 20
572.57620897825132
 30
0.0
 11
253.63953729717801
 21
589.25975497825129
 31
0.0
  0
ARC
  5
CCDE
  8
0
 10
255.704417297178
 20
582.91179097825125
 30
0.0
 40
2.0
 50
90.0
 51
169.9999989999975
  0
LINE
  5
CCDF
  8
0
 10
250.69777829717799
 20
566.03527297825121
 30
0.0
 11
253.73480129717819
 21
583.25908697825128
 31
0.0
  0
LINE
  5
CCE0
  8
0
 10
449.56951929717809
 20
589.77473497825122
 30
0.0
 11
447.97770429717798
 21
598.80236697825126
 31
0.0
  0
LINE
  5
CCE1
  8
0
 10
250.69777829717799
 20
584.74104597825124
 30
0.0
 11
251.578088297178
 21
584.74104597825124
 31
0.0
  0
ARC
  5
CCE2
  8
0
 10
445.87871129717792
 20
594.48988597825121
 30
0.0
 40
2.0
 50
10.00000000000181
 51
90.0
  0
LINE
  5
CCE3
  8
0
 10
448.74097329717767
 20
589.77473497825122
 30
0.0
 11
447.84832729717789
 21
594.83718197825124
 31
0.0
  0
ARC
  5
CCE4
  8
0
 10
381.08679629717801
 20
588.91245797825138
 30
0.0
 40
2.0
 50
5.5986529999986434
 51
90.0
  0
ARC
  5
CCE5
  8
0
 10
381.08484129717812
 20
582.91179097825125
 30
0.0
 40
2.0
 50
5.429018999998811
 51
90.0
  0
LINE
  5
CCE6
  8
0
 10
451.69777829717759
 20
466.18837997825131
 30
0.0
 11
451.69777829717759
 21
567.97701897825118
 31
0.0
  0
LINE
  5
CCE7
  8
0
 10
451.69777829717759
 20
589.77473497825122
 30
0.0
 11
451.69777829717759
 21
593.91108597825132
 31
0.0
  0
LINE
  5
CCE8
  8
0
 10
399.6546542971779
 20
579.74856097825125
 30
0.0
 11
415.69777729717782
 21
584.34842297825139
 31
0.0
  0
LINE
  5
CCE9
  8
0
 10
383.99469329717812
 20
579.74856097825125
 30
0.0
 11
399.6546542971779
 21
579.74856097825125
 31
0.0
  0
LINE
  5
CCEA
  8
0
 10
415.69777729717782
 20
584.34842297825139
 30
0.0
 11
430.39106129717788
 21
584.34842297825139
 31
0.0
  0
INSERT
  5
CCEB
  8
0
  2
$6-45
 10
435.19777829717782
 20
580.04434597825116
 30
0.0
 50
90.0
  0
INSERT
  5
CCEC
  8
0
  2
$6-45
 10
435.19777829717782
 20
454.00241897825128
 30
0.0
 50
90.0
  0
LINE
  5
CCED
  8
0
 10
210.69777829717799
 20
508.91108597825132
 30
0.0
 11
142.70624629717801
 21
508.91108597825132
 31
0.0
  0
LINE
  5
CCEE
  8
0
 10
449.63694829717809
 20
593.91108597825132
 30
0.0
 11
451.69777829717759
 21
593.91108597825132
 31
0.0
  0
LINE
  5
CCEF
  8
0
 10
255.32792529717801
 20
596.48988597825132
 30
0.0
 11
445.87871129717792
 21
596.48988597825132
 31
0.0
  0
LINE
  5
CCF0
  8
0
 10
255.14678429717799
 20
600.45507097825123
 30
0.0
 11
446.00808929717778
 21
600.45507097825123
 31
0.0
  0
LINE
  5
CCF1
  8
0
 10
255.02899329717809
 20
603.0078049782511
 30
0.0
 11
446.09394429717793
 21
603.0078049782511
 31
0.0
  0
LINE
  5
CCF2
  8
0
 10
242.19777829717799
 20
599.41108597825132
 30
0.0
 11
252.71659629717811
 21
599.41108597825132
 31
0.0
  0
LINE
  5
CCF3
  8
0
 10
269.96202329717812
 20
604.19757897825127
 30
0.0
 11
336.6977782971781
 21
604.19757897825127
 31
0.0
  0
LINE
  5
CCF4
  8
0
 10
415.69777729717782
 20
563.07108597825129
 30
0.0
 11
415.69777729717782
 21
557.72608597825126
 31
0.0
  0
LINE
  5
CCF5
  8
0
 10
399.6546542971779
 20
563.07108597825129
 30
0.0
 11
399.6546542971779
 21
557.72608597825126
 31
0.0
  0
LINE
  5
CCF6
  8
0
 10
415.69777729717782
 20
573.36714597825119
 30
0.0
 11
415.69777729717782
 21
565.77108597825122
 31
0.0
  0
LINE
  5
CCF7
  8
0
 10
415.69777729717782
 20
581.76387297825136
 30
0.0
 11
429.79778429717783
 21
581.76387297825136
 31
0.0
  0
LINE
  5
CCF8
  8
0
 10
250.69777829717799
 20
566.03527297825121
 30
0.0
 11
384.69777829717799
 21
566.03527297825121
 31
0.0
  0
LINE
  5
CCF9
  8
0
 10
384.02015129717807
 20
572.57620897825132
 30
0.0
 11
384.69777829717799
 21
572.57620897825132
 31
0.0
  0
LINE
  5
CCFA
  8
0
 10
255.704417297178
 20
584.91179097825125
 30
0.0
 11
381.08484129717812
 21
584.91179097825125
 31
0.0
  0
LINE
  5
CCFB
  8
0
 10
250.69777829717799
 20
572.57620897825132
 30
0.0
 11
251.851121297178
 21
572.57620897825132
 31
0.0
  0
LINE
  5
CCFC
  8
0
 10
255.6091532971781
 20
590.91245797825115
 30
0.0
 11
381.08679629717801
 21
590.91245797825115
 31
0.0
  0
LINE
  5
CCFD
  8
0
 10
451.69777829717759
 20
567.97701897825118
 30
0.0
 11
454.69777829717788
 21
566.24496797825122
 31
0.0
  0
ARC
  5
CCFE
  8
0
 10
434.19777829717782
 20
568.97701897825129
 30
0.0
 40
1.0
 50
270.0
 51
0.0
  0
ARC
  5
CCFF
  8
0
 10
437.19777829717799
 20
587.77473497825122
 30
0.0
 40
2.0
 50
90.0
 51
180.0
  0
ARC
  5
CD00
  8
0
 10
437.19777829717799
 20
583.65072997825132
 30
0.0
 40
2.0
 50
180.0
 51
270.0
  0
ARC
  5
CD01
  8
0
 10
437.19777829717799
 20
579.65072997825132
 30
0.0
 40
2.0
 50
90.0
 51
180.0
  0
LINE
  5
CD02
  8
0
 10
437.19777829717799
 20
589.77473497825122
 30
0.0
 11
454.69777829717788
 21
589.77473497825122
 31
0.0
  0
LINE
  5
CD03
  8
0
 10
435.19777829717782
 20
567.97701897825118
 30
0.0
 11
451.69777829717759
 21
567.97701897825118
 31
0.0
  0
LINE
  5
CD04
  8
0
 10
437.19777829717799
 20
581.65072997825132
 30
0.0
 11
454.69777829717788
 21
581.65072997825132
 31
0.0
  0
LINE
  5
CD05
  8
0
 10
435.19777829717782
 20
568.97701897825129
 30
0.0
 11
435.19777829717782
 21
587.77473497825122
 31
0.0
  0
LINE
  5
CD06
  8
0
 10
250.69777829717799
 20
421.91108597825132
 30
0.0
 11
242.19777829717819
 21
421.91108597825132
 31
0.0
  0
LINE
  5
CD07
  8
0
 10
251.52197329717811
 20
436.83422197825132
 30
0.0
 11
252.29052029717809
 21
428.48682997825119
 31
0.0
  0
LINE
  5
CD08
  8
0
 10
250.69777829717799
 20
432.07361097825128
 30
0.0
 11
251.38055529717801
 21
432.07361097825128
 31
0.0
  0
LINE
  5
CD09
  8
0
 10
250.69777829717799
 20
427.08112597825118
 30
0.0
 11
251.222291297178
 21
427.08112597825118
 31
0.0
  0
LINE
  5
CD0A
  8
0
 10
250.69777829717799
 20
423.86036997825141
 30
0.0
 11
251.05772029717809
 21
423.86036997825141
 31
0.0
  0
LINE
  5
CD0B
  8
0
 10
250.65100129717811
 20
422.29078897825133
 30
0.0
 11
250.881392297178
 21
422.29078897825133
 31
0.0
  0
LINE
  5
CD0C
  8
0
 10
250.92736529717811
 20
436.83422197825132
 30
0.0
 11
252.28543029717801
 21
422.56818897825133
 31
0.0
  0
LINE
  5
CD0D
  8
0
 10
250.69777829717799
 20
432.07361097825128
 30
0.0
 11
252.26961129717799
 21
417.11239997825129
 31
0.0
  0
LINE
  5
CD0E
  8
0
 10
250.69777829717799
 20
427.08112597825118
 30
0.0
 11
252.25908929717809
 21
413.11053497825128
 31
0.0
  0
LINE
  5
CD0F
  8
0
 10
250.69777829717799
 20
423.86036997825141
 30
0.0
 11
252.25099729717809
 21
410.58304197825129
 31
0.0
  0
LINE
  5
CD10
  8
0
 10
250.65100129717811
 20
422.29078897825133
 30
0.0
 11
252.24151729717801
 21
409.38005497825128
 31
0.0
  0
ARC
  5
CD11
  8
0
 10
254.28209629717799
 20
428.67019497825117
 30
0.0
 40
2.0
 50
185.26041100000171
 51
270.0
  0
ARC
  5
CD12
  8
0
 10
254.27642829717809
 20
422.75772397825131
 30
0.0
 40
2.0
 50
185.4379219999999
 51
270.0
  0
ARC
  5
CD13
  8
0
 10
254.258664297178
 20
417.32137097825142
 30
0.0
 40
2.0
 50
185.99752600000051
 51
270.0
  0
ARC
  5
CD14
  8
0
 10
254.2467152971781
 20
413.33266597825133
 30
0.0
 40
2.0
 50
186.37674200000069
 51
270.0
  0
ARC
  5
CD15
  8
0
 10
254.23745129717801
 20
410.81542297825109
 30
0.0
 40
2.0
 50
186.67229399999829
 51
270.0
  0
ARC
  5
CD16
  8
0
 10
254.22651129717801
 20
409.6245929782512
 30
0.0
 40
2.0
 50
187.02306899999959
 51
270.0
  0
LINE
  5
CD17
  8
0
 10
449.69777829717799
 20
521.09108597825127
 30
0.0
 11
447.93777829717789
 21
521.64108597825134
 31
0.0
  0
LINE
  5
CD18
  8
0
 10
449.69777829717799
 20
523.73108597825114
 30
0.0
 11
449.69777829717799
 21
521.09108597825127
 31
0.0
  0
LINE
  5
CD19
  8
0
 10
447.93777829717789
 20
523.24108597825125
 30
0.0
 11
449.69777829717799
 21
523.73108597825114
 31
0.0
  0
LINE
  5
CD1A
  8
0
 10
447.93777829717789
 20
523.24108597825125
 30
0.0
 11
447.93777829717789
 21
521.64108597825134
 31
0.0
  0
LINE
  5
CD1B
  8
0
 10
449.69777829717799
 20
510.09108597825127
 30
0.0
 11
447.93777829717789
 21
510.64108597825128
 31
0.0
  0
LINE
  5
CD1C
  8
0
 10
449.69777829717799
 20
512.73108597825114
 30
0.0
 11
449.69777829717799
 21
510.09108597825127
 31
0.0
  0
LINE
  5
CD1D
  8
0
 10
447.93777829717789
 20
512.24108597825125
 30
0.0
 11
449.69777829717799
 21
512.73108597825114
 31
0.0
  0
LINE
  5
CD1E
  8
0
 10
447.93777829717789
 20
512.24108597825125
 30
0.0
 11
447.93777829717789
 21
510.64108597825128
 31
0.0
  0
LINE
  5
CD1F
  8
0
 10
449.69777829717799
 20
499.09108597825127
 30
0.0
 11
447.93777829717789
 21
499.64108597825128
 31
0.0
  0
LINE
  5
CD20
  8
0
 10
449.69777829717799
 20
501.7310859782512
 30
0.0
 11
449.69777829717799
 21
499.09108597825127
 31
0.0
  0
LINE
  5
CD21
  8
0
 10
447.93777829717789
 20
501.24108597825131
 30
0.0
 11
449.69777829717799
 21
501.7310859782512
 31
0.0
  0
LINE
  5
CD22
  8
0
 10
447.93777829717789
 20
501.24108597825131
 30
0.0
 11
447.93777829717789
 21
499.64108597825128
 31
0.0
  0
LINE
  5
CD23
  8
0
 10
449.69777829717799
 20
488.09108597825127
 30
0.0
 11
447.93777829717789
 21
488.64108597825128
 31
0.0
  0
LINE
  5
CD24
  8
0
 10
449.69777829717799
 20
490.73108597825131
 30
0.0
 11
449.69777829717799
 21
488.09108597825127
 31
0.0
  0
LINE
  5
CD25
  8
0
 10
447.93777829717789
 20
490.24108597825131
 30
0.0
 11
449.69777829717799
 21
490.73108597825131
 31
0.0
  0
LINE
  5
CD26
  8
0
 10
447.93777829717789
 20
490.24108597825131
 30
0.0
 11
447.93777829717789
 21
488.64108597825128
 31
0.0
  0
LINE
  5
CD27
  8
0
 10
449.10944729717789
 20
419.40180597825122
 30
0.0
 11
448.07781829717811
 21
410.58304497825128
 31
0.0
  0
LINE
  5
CD28
  8
0
 10
448.04256129717783
 20
413.11023897825129
 30
0.0
 11
449.09751829717811
 21
422.53722597825129
 31
0.0
  0
LINE
  5
CD29
  8
0
 10
448.06963129717798
 20
417.11109497825129
 30
0.0
 11
449.16854329717768
 21
427.50526897825131
 31
0.0
  0
LINE
  5
CD2A
  8
0
 10
449.21948429717793
 20
434.04188897825128
 30
0.0
 11
448.09420329717773
 21
422.56260497825127
 31
0.0
  0
LINE
  5
CD2B
  8
0
 10
449.26065129717801
 20
441.45163097825127
 30
0.0
 11
448.02793429717798
 21
428.48096997825121
 31
0.0
  0
LINE
  5
CD2C
  8
0
 10
449.16957029717798
 20
418.26547797825128
 30
0.0
 11
448.09753729717778
 21
409.38489997825133
 31
0.0
  0
LINE
  5
CD2D
  8
0
 10
447.93777829717789
 20
479.24108597825131
 30
0.0
 11
447.93777829717789
 21
477.64108597825128
 31
0.0
  0
LINE
  5
CD2E
  8
0
 10
447.93777829717789
 20
479.24108597825131
 30
0.0
 11
449.69777829717799
 21
479.73108597825131
 31
0.0
  0
LINE
  5
CD2F
  8
0
 10
449.69777829717799
 20
479.73108597825131
 30
0.0
 11
449.69777829717799
 21
477.09108597825127
 31
0.0
  0
LINE
  5
CD30
  8
0
 10
449.69777829717799
 20
477.09108597825127
 30
0.0
 11
447.93777829717789
 21
477.64108597825128
 31
0.0
  0
LINE
  5
CD31
  8
0
 10
447.93777829717789
 20
534.24108597825125
 30
0.0
 11
447.93777829717789
 21
532.64108597825134
 31
0.0
  0
LINE
  5
CD32
  8
0
 10
447.93777829717789
 20
534.24108597825125
 30
0.0
 11
449.69777829717799
 21
534.73108597825114
 31
0.0
  0
LINE
  5
CD33
  8
0
 10
449.69777829717799
 20
534.73108597825114
 30
0.0
 11
449.69777829717799
 21
532.09108597825139
 31
0.0
  0
LINE
  5
CD34
  8
0
 10
449.69777829717799
 20
532.09108597825139
 30
0.0
 11
447.93777829717789
 21
532.64108597825134
 31
0.0
  0
LINE
  5
CD35
  8
0
 10
399.6546542971779
 20
532.09108597825139
 30
0.0
 11
399.6546542971779
 21
523.73108597825114
 31
0.0
  0
LINE
  5
CD36
  8
0
 10
415.69777729717782
 20
532.09108597825139
 30
0.0
 11
415.69777729717782
 21
523.73108597825114
 31
0.0
  0
LINE
  5
CD37
  8
0
 10
415.69777729717782
 20
521.09108597825127
 30
0.0
 11
415.69777729717782
 21
512.73108597825114
 31
0.0
  0
LINE
  5
CD38
  8
0
 10
399.6546542971779
 20
521.09108597825127
 30
0.0
 11
399.6546542971779
 21
513.6116089782513
 31
0.0
  0
LINE
  5
CD39
  8
0
 10
415.69777729717782
 20
510.09108597825127
 30
0.0
 11
415.69777729717782
 21
501.7310859782512
 31
0.0
  0
LINE
  5
CD3A
  8
0
 10
415.69777729717782
 20
499.09108597825127
 30
0.0
 11
415.69777729717782
 21
490.73108597825131
 31
0.0
  0
LINE
  5
CD3B
  8
0
 10
399.6546542971779
 20
488.09108597825127
 30
0.0
 11
399.6546542971779
 21
479.73108597825131
 31
0.0
  0
LINE
  5
CD3C
  8
0
 10
415.69777729717782
 20
488.09108597825127
 30
0.0
 11
415.69777729717782
 21
479.73108597825131
 31
0.0
  0
LINE
  5
CD3D
  8
0
 10
415.69777729717782
 20
477.09108597825127
 30
0.0
 11
415.69777729717782
 21
461.30263997825131
 31
0.0
  0
LINE
  5
CD3E
  8
0
 10
399.6546542971779
 20
477.09108597825127
 30
0.0
 11
399.6546542971779
 21
445.78601697825133
 31
0.0
  0
LINE
  5
CD3F
  8
0
 10
449.26065129717801
 20
441.45163097825127
 30
0.0
 11
415.69777729717782
 21
441.45163097825127
 31
0.0
  0
LINE
  5
CD40
  8
0
 10
449.21948429717793
 20
434.04188897825128
 30
0.0
 11
448.55643829717758
 21
434.04188897825128
 31
0.0
  0
ARC
  5
CD41
  8
0
 10
446.03690629717778
 20
428.67019497825117
 30
0.0
 40
2.0
 50
270.0
 51
354.57098100000121
  0
ARC
  5
CD42
  8
0
 10
446.10374429717808
 20
422.75772397825131
 30
0.0
 40
2.0
 50
270.0
 51
354.40134700000141
  0
ARC
  5
CD43
  8
0
 10
446.08071629717801
 20
417.32137097825142
 30
0.0
 40
2.0
 50
270.0
 51
353.96488600000072
  0
ARC
  5
CD44
  8
0
 10
446.05496829717788
 20
413.33266597825133
 30
0.0
 40
2.0
 50
270.0
 51
353.61470099999991
  0
ARC
  5
CD45
  8
0
 10
446.09136429717807
 20
410.81542297825109
 30
0.0
 40
2.0
 50
270.0
 51
353.32780000000082
  0
ARC
  5
CD46
  8
0
 10
446.11195329717759
 20
409.6245929782512
 30
0.0
 40
2.0
 50
270.0
 51
353.11676000000102
  0
LINE
  5
CD47
  8
0
 10
449.16854329717768
 20
427.50526897825131
 30
0.0
 11
448.57871829717811
 21
427.50526897825131
 31
0.0
  0
LINE
  5
CD48
  8
0
 10
449.09751829717811
 20
422.53722597825129
 30
0.0
 11
448.64330329717779
 21
422.53722597825129
 31
0.0
  0
LINE
  5
CD49
  8
0
 10
449.10944729717789
 20
419.40180597825122
 30
0.0
 11
448.74663929717792
 21
419.40180597825122
 31
0.0
  0
LINE
  5
CD4A
  8
0
 10
449.16957029717798
 20
418.26547797825128
 30
0.0
 11
448.97651829717807
 21
418.26547797825128
 31
0.0
  0
LINE
  5
CD4B
  8
0
 10
451.69777829717759
 20
466.18837997825131
 30
0.0
 11
435.19777829717782
 21
466.18837997825131
 31
0.0
  0
LINE
  5
CD4C
  8
0
 10
454.69777829717788
 20
456.00908797825127
 30
0.0
 11
437.19777829717799
 21
456.00908797825127
 31
0.0
  0
LINE
  5
CD4D
  8
0
 10
454.69777829717788
 20
443.72180697825132
 30
0.0
 11
437.19777829717799
 21
443.72180697825132
 31
0.0
  0
LINE
  5
CD4E
  8
0
 10
435.19777829717782
 20
465.18837997825108
 30
0.0
 11
435.19777829717782
 21
445.72180697825132
 31
0.0
  0
LINE
  5
CD4F
  8
0
 10
451.69777829717759
 20
466.18837997825131
 30
0.0
 11
454.69777829717788
 21
467.9204309782512
 31
0.0
  0
ARC
  5
CD50
  8
0
 10
437.19777829717799
 20
458.00908797825127
 30
0.0
 40
2.0
 50
180.0
 51
270.0
  0
ARC
  5
CD51
  8
0
 10
437.19777829717799
 20
445.72180697825132
 30
0.0
 40
2.0
 50
180.0
 51
270.0
  0
ARC
  5
CD52
  8
0
 10
437.19777829717799
 20
454.00908797825127
 30
0.0
 40
2.0
 50
90.0
 51
180.0
  0
LINE
  5
CD53
  8
0
 10
415.69777729717782
 20
449.8902899782513
 30
0.0
 11
415.69777729717782
 21
441.45163097825127
 31
0.0
  0
LINE
  5
CD54
  8
0
 10
399.6546542971779
 20
445.78601697825133
 30
0.0
 11
415.69777729717782
 21
441.45163097825127
 31
0.0
  0
ARC
  5
CD55
  8
0
 10
434.19777829717782
 20
465.18837997825108
 30
0.0
 40
1.0
 50
0.0
 51
90.0
  0
LINE
  5
CD56
  8
0
 10
399.6546542971779
 20
445.78601697825133
 30
0.0
 11
394.6842472971781
 21
445.78601697825133
 31
0.0
  0
LINE
  5
CD57
  8
0
 10
446.11195329717759
 20
407.62459297825131
 30
0.0
 11
254.22651129717801
 21
407.62459297825131
 31
0.0
  0
LINE
  5
CD58
  8
0
 10
446.09136429717807
 20
408.81542297825132
 30
0.0
 11
254.23745129717801
 21
408.81542297825132
 31
0.0
  0
LINE
  5
CD59
  8
0
 10
446.05496829717788
 20
411.33266597825133
 30
0.0
 11
254.2467152971781
 21
411.33266597825133
 31
0.0
  0
LINE
  5
CD5A
  8
0
 10
446.08071629717801
 20
415.32137097825108
 30
0.0
 11
254.258664297178
 21
415.32137097825108
 31
0.0
  0
LINE
  5
CD5B
  8
0
 10
446.10374429717808
 20
420.75772397825131
 30
0.0
 11
254.27642829717809
 21
420.75772397825131
 31
0.0
  0
LINE
  5
CD5C
  8
0
 10
446.03690629717778
 20
426.67019497825129
 30
0.0
 11
254.28209629717799
 21
426.67019497825129
 31
0.0
  0
LINE
  5
CD5D
  8
0
 10
399.6546542971779
 20
579.74856097825125
 30
0.0
 11
399.6546542971779
 21
565.77108597825122
 31
0.0
  0
LINE
  5
CD5E
  8
0
 10
415.69777729717782
 20
584.34842297825139
 30
0.0
 11
415.69777729717782
 21
581.76387297825136
 31
0.0
  0
LINE
  5
CD5F
  8
0
 10
395.21015029717807
 20
534.73108597825114
 30
0.0
 11
449.69777829717799
 21
534.73108597825114
 31
0.0
  0
LINE
  5
CD60
  8
0
 10
395.21048429717803
 20
534.24108597825125
 30
0.0
 11
447.93777829717789
 21
534.24108597825125
 31
0.0
  0
LINE
  5
CD61
  8
0
 10
395.211575297178
 20
532.64108597825134
 30
0.0
 11
447.93777829717789
 21
532.64108597825134
 31
0.0
  0
LINE
  5
CD62
  8
0
 10
395.21195029717808
 20
532.09108597825139
 30
0.0
 11
449.69777829717799
 21
532.09108597825139
 31
0.0
  0
LINE
  5
CD63
  8
0
 10
395.19823829717802
 20
479.73108597825131
 30
0.0
 11
449.69777829717799
 21
479.73108597825131
 31
0.0
  0
LINE
  5
CD64
  8
0
 10
395.1977782971781
 20
479.24108597825131
 30
0.0
 11
447.93777829717789
 21
479.24108597825131
 31
0.0
  0
LINE
  5
CD65
  8
0
 10
395.1977782971781
 20
477.64108597825128
 30
0.0
 11
447.93777829717789
 21
477.64108597825128
 31
0.0
  0
LINE
  5
CD66
  8
0
 10
395.1977782971781
 20
477.09108597825127
 30
0.0
 11
449.69777829717799
 21
477.09108597825127
 31
0.0
  0
LINE
  5
CD67
  8
0
 10
402.80731229717799
 20
510.09108597825127
 30
0.0
 11
449.69777829717799
 21
510.09108597825127
 31
0.0
  0
LINE
  5
CD68
  8
0
 10
402.43564129717782
 20
510.64108597825128
 30
0.0
 11
447.93777829717789
 21
510.64108597825128
 31
0.0
  0
LINE
  5
CD69
  8
0
 10
400.13156229717788
 20
490.73108597825131
 30
0.0
 11
449.69777829717799
 21
490.73108597825131
 31
0.0
  0
LINE
  5
CD6A
  8
0
 10
399.61186829717809
 20
490.24108597825131
 30
0.0
 11
447.93777829717789
 21
490.24108597825131
 31
0.0
  0
LINE
  5
CD6B
  8
0
 10
398.21836129717798
 20
488.64108597825128
 30
0.0
 11
447.93777829717789
 21
488.64108597825128
 31
0.0
  0
LINE
  5
CD6C
  8
0
 10
397.82307029717788
 20
488.09108597825127
 30
0.0
 11
449.69777829717799
 21
488.09108597825127
 31
0.0
  0
LINE
  5
CD6D
  8
0
 10
405.19440329717759
 20
501.7310859782512
 30
0.0
 11
449.69777829717799
 21
501.7310859782512
 31
0.0
  0
LINE
  5
CD6E
  8
0
 10
405.17861029717812
 20
501.24108597825131
 30
0.0
 11
447.93777829717789
 21
501.24108597825131
 31
0.0
  0
LINE
  5
CD6F
  8
0
 10
405.0145242971779
 20
499.64108597825128
 30
0.0
 11
447.93777829717789
 21
499.64108597825128
 31
0.0
  0
LINE
  5
CD70
  8
0
 10
404.91759129717792
 20
499.09108597825127
 30
0.0
 11
449.69777829717799
 21
499.09108597825127
 31
0.0
  0
LINE
  5
CD71
  8
0
 10
395.22848729717811
 20
523.73108597825114
 30
0.0
 11
449.69777829717799
 21
523.73108597825114
 31
0.0
  0
LINE
  5
CD72
  8
0
 10
395.25549029717808
 20
523.24108597825125
 30
0.0
 11
447.93777829717789
 21
523.24108597825125
 31
0.0
  0
LINE
  5
CD73
  8
0
 10
395.4568512971781
 20
521.64108597825134
 30
0.0
 11
447.93777829717789
 21
521.64108597825134
 31
0.0
  0
LINE
  5
CD74
  8
0
 10
395.567009297178
 20
521.09108597825127
 30
0.0
 11
449.69777829717799
 21
521.09108597825127
 31
0.0
  0
LINE
  5
CD75
  8
0
 10
400.64555229717791
 20
512.73108597825114
 30
0.0
 11
449.69777829717799
 21
512.73108597825114
 31
0.0
  0
LINE
  5
CD76
  8
0
 10
401.12758029717799
 20
512.24108597825125
 30
0.0
 11
447.93777829717789
 21
512.24108597825125
 31
0.0
  0
LINE
  5
CD78
  8
0
 10
451.69777829717759
 20
417.91108597825132
 30
0.0
 11
451.69777829717759
 21
443.72180697825132
 31
0.0
  0
LINE
  5
CD79
  8
0
 10
449.12678929717811
 20
417.91108597825132
 30
0.0
 11
451.69777829717759
 21
417.91108597825132
 31
0.0
  0
LINE
  5
CD7A
  8
0
 10
449.69777829717799
 20
565.77108597825122
 30
0.0
 11
447.93777829717789
 21
565.21108597825128
 31
0.0
  0
LINE
  5
CD7B
  8
0
 10
447.93777829717789
 20
563.61108597825137
 30
0.0
 11
449.69777829717799
 21
563.07108597825129
 31
0.0
  0
LINE
  5
CD7C
  8
0
 10
449.69777829717799
 20
563.07108597825129
 30
0.0
 11
449.69777829717799
 21
565.77108597825122
 31
0.0
  0
LINE
  5
CD7D
  8
0
 10
447.93777829717789
 20
563.61108597825137
 30
0.0
 11
447.93777829717789
 21
565.21108597825128
 31
0.0
  0
LINE
  5
CD7E
  8
0
 10
449.69777829717799
 20
557.72608597825126
 30
0.0
 11
447.93777829717789
 21
557.18608597825096
 31
0.0
  0
LINE
  5
CD7F
  8
0
 10
447.93777829717789
 20
555.58608597825105
 30
0.0
 11
449.69777829717799
 21
555.09608597825115
 31
0.0
  0
LINE
  5
CD80
  8
0
 10
447.93777829717789
 20
555.58608597825105
 30
0.0
 11
447.93777829717789
 21
557.18608597825096
 31
0.0
  0
LINE
  5
CD81
  8
0
 10
449.69777829717799
 20
555.09608597825115
 30
0.0
 11
449.69777829717799
 21
557.72608597825126
 31
0.0
  0
LINE
  5
CD82
  8
0
 10
384.69777829717799
 20
566.03527297825121
 30
0.0
 11
383.07586929717809
 21
583.10101597825121
 31
0.0
  0
LINE
  5
CD83
  8
0
 10
384.69777829717799
 20
572.57620897825132
 30
0.0
 11
383.07725529717789
 21
589.10757697825136
 31
0.0
  0
LINE
  5
CD84
  8
0
 10
129.756311297178
 20
571.24305597825128
 30
0.0
 11
134.75740929717799
 21
599.6056659782513
 31
0.0
  0
LINE
  5
CD85
  8
0
 10
137.47762429717801
 20
596.47682097825123
 30
0.0
 11
137.47762429717801
 21
507.58897397825132
 31
0.0
  0
ARC
  5
CD86
  8
0
 10
138.696649297178
 20
598.91108597825132
 30
0.0
 40
4.0
 50
90.0
 51
170.00018299999911
  0
LINE
  5
CD87
  8
0
 10
129.69777829717799
 20
563.51106197825129
 30
0.0
 11
129.69777829717799
 21
477.20005797825121
 31
0.0
  0
ARC
  5
CD88
  8
0
 10
130.69777829717799
 20
567.91108597825132
 30
0.0
 40
3.0
 50
118.7876889999995
 51
180.0
  0
LINE
  5
CD89
  8
0
 10
127.697778297178
 20
567.91108597825132
 30
0.0
 11
127.697778297178
 21
456.05937197825131
 31
0.0
  0
LINE
  5
CD8A
  8
0
 10
137.47762429717801
 20
495.7304609782513
 30
0.0
 11
137.47762429717801
 21
424.89912297825128
 31
0.0
  0
LINE
  5
CD8B
  8
0
 10
131.3857972971781
 20
431.33776397825142
 30
0.0
 11
132.99413429717799
 21
422.21650597825129
 31
0.0
  0
ARC
  5
CD8C
  8
0
 10
136.93337429717801
 20
422.91108597825132
 30
0.0
 40
4.0
 50
189.99983199999991
 51
270.0
  0
ARC
  5
CD8D
  8
0
 10
128.771508297178
 20
571.41676197825132
 30
0.0
 40
1.0
 50
298.7879640000001
 51
350.00021399999918
  0
LINE
  5
CD8E
  8
0
 10
131.75514329717799
 20
498.94710797825132
 30
0.0
 11
124.711114297178
 21
424.48930497825131
 31
0.0
  0
LINE
  5
CD8F
  8
0
 10
137.72847229717809
 20
498.38200497825119
 30
0.0
 11
130.68444229717801
 21
423.92420197825129
 31
0.0
  0
ARC
  5
CD90
  8
0
 10
142.70624629717801
 20
497.91108597825132
 30
0.0
 40
5.0
 50
90.0
 51
174.59565700000161
  0
ARC
  5
CD91
  8
0
 10
142.70624629717801
 20
497.91108597825132
 30
0.0
 40
11.0
 50
90.0
 51
174.59565700000161
  0
ARC
  5
CD92
  8
0
 10
127.697778297178
 20
424.2067529782513
 30
0.0
 40
3.0
 50
174.59565700000161
 51
354.59565700000172
  0
ARC
  5
CD93
  8
0
 10
127.697778297178
 20
424.2067529782513
 30
0.0
 40
3.799999999999998
 50
220.00000000000011
 51
32.140571999997661
  0
LINE
  5
CD94
  8
0
 10
122.31402529717801
 20
425.56358097825108
 30
0.0
 11
124.728568297178
 21
421.84289497825131
 31
0.0
  0
LINE
  5
CD95
  8
0
 10
122.93148829717801
 20
426.08169397825128
 30
0.0
 11
125.399645297178
 21
422.27838997825143
 31
0.0
  0
LINE
  5
CD96
  8
0
 10
122.93148829717801
 20
426.08169397825128
 30
0.0
 11
122.31402529717801
 21
425.56358097825108
 31
0.0
  0
LINE
  5
CD97
  8
0
 10
251.96245729717799
 20
579.74856097825125
 30
0.0
 11
250.69777829717799
 21
579.74856097825125
 31
0.0
  0
LINE
  5
CD98
  8
0
 10
250.69777829717799
 20
565.77108597825122
 30
0.0
 11
252.00792429717811
 21
565.35422197825119
 31
0.0
  0
LINE
  5
CD99
  8
0
 10
250.69777829717799
 20
565.35422197825119
 30
0.0
 11
250.69777829717799
 21
565.77108597825122
 31
0.0
  0
LINE
  5
CD9A
  8
0
 10
242.1977782971779
 20
589.53138297825114
 30
0.0
 11
250.97453729717799
 21
589.53138297825114
 31
0.0
  0
LINE
  5
CD9B
  8
0
 10
225.69777829717799
 20
519.31411497825138
 30
0.0
 11
225.69777829717799
 21
494.92808597825132
 31
0.0
  0
LINE
  5
CD9C
  8
0
 10
211.19777829717799
 20
508.41108597825132
 30
0.0
 11
229.65089076670199
 21
508.41108597825132
 31
0.0
  0
ARC
  5
CD9D
  8
0
 10
225.69777829717799
 20
505.91108597825132
 30
0.0
 40
9.0
 50
43.898216756325418
 51
163.8723909999996
  0
ARC
  5
CD9E
  8
0
 10
225.69777829717799
 20
505.91108597825132
 30
0.0
 40
5.5
 50
37.234941055981601
 51
152.9643079999984
  0
LINE
  5
CD9F
  8
0
 10
211.19777829717799
 20
503.41108597825132
 30
0.0
 11
228.26652415344469
 21
503.41108597825132
 31
0.0
  0
ARC
  5
CDA0
  8
0
 10
225.69777829717799
 20
505.91108597825132
 30
0.0
 40
9.0
 50
196.1276090000004
 51
290.7110054129422
  0
ARC
  5
CDA1
  8
0
 10
225.69777829717799
 20
505.91108597825132
 30
0.0
 40
5.5
 50
207.0356920000016
 51
297.3742811132829
  0
LINE
  5
CDA2
  8
0
 10
242.19777829717799
 20
602.91108597825121
 30
0.0
 11
242.19777829717799
 21
562.02021474637831
 31
0.0
  0
LINE
  5
CDA3
  8
0
 10
211.19777829717799
 20
508.41108597825132
 30
0.0
 11
210.69777829717799
 21
508.91108597825132
 31
0.0
  0
LINE
  5
CDA4
  8
0
 10
211.19777829717799
 20
503.41108597825132
 30
0.0
 11
210.69777829717799
 21
502.91108597825121
 31
0.0
  0
LINE
  5
CDA5
  8
0
 10
336.6977782971781
 20
606.91108597825121
 30
0.0
 11
358.69777829717799
 21
606.91108597825121
 31
0.0
  0
LINE
  5
CDA6
  8
0
 10
336.6977782971781
 20
606.91108597825121
 30
0.0
 11
336.6977782971781
 21
603.0078049782511
 31
0.0
  0
LINE
  5
CDA7
  8
0
 10
358.69777829717799
 20
606.91108597825121
 30
0.0
 11
358.69777829717799
 21
603.0078049782511
 31
0.0
  0
LINE
  5
CDA8
  8
0
 10
210.69777829717799
 20
502.91108597825121
 30
0.0
 11
142.70624629717801
 21
502.91108597825121
 31
0.0
  0
LINE
  5
CDA9
  8
0
 10
242.19777829717799
 20
418.91108597825132
 30
0.0
 11
136.93337429717801
 21
418.91108597825132
 31
0.0
  0
LINE
  5
CDAA
  8
0
 10
242.19777829717799
 20
602.91108597825121
 30
0.0
 11
138.696649297178
 21
602.91108597825121
 31
0.0
  0
LINE
  5
CDAB
  8
0
 10
389.06269729717798
 20
563.61108597825137
 30
0.0
 11
447.93777829717789
 21
563.61108597825137
 31
0.0
  0
LINE
  5
CDAC
  8
0
 10
384.58124629717798
 20
565.21108597825128
 30
0.0
 11
447.93777829717789
 21
565.21108597825128
 31
0.0
  0
LINE
  5
CDAD
  8
0
 10
389.89751829717812
 20
563.07108597825129
 30
0.0
 11
449.69777829717799
 21
563.07108597825129
 31
0.0
  0
LINE
  5
CDAE
  8
0
 10
250.69777829717799
 20
565.77108597825122
 30
0.0
 11
449.69777829717799
 21
565.77108597825122
 31
0.0
  0
LINE
  5
CDAF
  8
0
 10
394.99461629717803
 20
555.09608597825115
 30
0.0
 11
449.69777829717799
 21
555.09608597825115
 31
0.0
  0
LINE
  5
CDB0
  8
0
 10
394.2082932971781
 20
557.72608597825126
 30
0.0
 11
449.69777829717799
 21
557.72608597825126
 31
0.0
  0
LINE
  5
CDB1
  8
0
 10
394.895021297178
 20
555.58608597825105
 30
0.0
 11
447.93777829717789
 21
555.58608597825105
 31
0.0
  0
LINE
  5
CDB2
  8
0
 10
394.42228029717791
 20
557.18608597825096
 30
0.0
 11
447.93777829717789
 21
557.18608597825096
 31
0.0
  0
LINE
  5
CDB3
  8
0
 10
454.69777829717788
 20
420.91108597825132
 30
0.0
 11
451.69777829717759
 21
417.91108597825132
 31
0.0
  0
LINE
  5
CDB4
  8
0
 10
454.69777829717788
 20
420.91108597825132
 30
0.0
 11
454.69777829717788
 21
590.91108597825132
 31
0.0
  0
LINE
  5
CDB5
  8
0
 10
454.69777829717788
 20
590.91108597825132
 30
0.0
 11
451.69777829717759
 21
593.91108597825132
 31
0.0
  0
LINE
  5
CEA0
  8
0
 10
395.46277829717809
 20
495.41422197825142
 30
0.0
 11
395.46277829717809
 21
508.68422197825129
 31
0.0
  0
LINE
  5
D9DC
  8
0
  6
CONTINUOUS
 62
     0
 10
454.69777829717788
 20
839.25831453028502
 30
0.0
 11
494.19780829717757
 21
839.25831453028502
 31
0.0
  0
LINE
  5
D9DD
  8
0
  6
CONTINUOUS
 62
     0
 10
454.69777829717788
 20
829.07902253028533
 30
0.0
 11
494.19780829717757
 21
829.07902253028533
 31
0.0
  0
LINE
  5
D9DE
  8
0
  6
CONTINUOUS
 62
     0
 10
454.69777829717788
 20
816.77138353028477
 30
0.0
 11
494.19780829717757
 21
816.77138353028477
 31
0.0
  0
LINE
  5
D9DF
  8
0
  6
CONTINUOUS
 62
     0
 10
454.69777829717788
 20
941.04698253028516
 30
0.0
 11
494.19780829717757
 21
941.04698253028516
 31
0.0
  0
LINE
  5
D9E0
  8
0
  6
CONTINUOUS
 62
     0
 10
454.69777829717788
 20
954.72066453028515
 30
0.0
 11
494.19780829717757
 21
954.72066453028515
 31
0.0
  0
LINE
  5
D9E1
  8
0
  6
AM_ISO08W050
 10
110.59942344081939
 20
878.98102053028538
 30
0.0
 11
722.21171829717775
 21
878.98102053028538
 31
0.0
  0
LINE
  5
D9E2
  8
0
  6
CONTINUOUS
 62
     0
 10
510.12803829717762
 20
1007.7248005302851
 30
0.0
 11
521.19780829717763
 21
1008.111390530285
 31
0.0
  0
LINE
  5
D9E3
  8
0
  6
CONTINUOUS
 62
     0
 10
494.19780829717757
 20
764.87299053028539
 30
0.0
 11
494.19780829717757
 21
874.98096053028462
 31
0.0
  0
LINE
  5
D9E4
  8
0
  6
CONTINUOUS
 62
     0
 10
508.19767829717779
 20
742.77118053028539
 30
0.0
 11
508.19767829717779
 21
869.44159053028523
 31
0.0
  0
LINE
  5
D9E5
  8
0
  6
CONTINUOUS
 62
     0
 10
496.67686829717758
 20
996.06000053028504
 30
0.0
 11
505.71873829717828
 21
997.6543605302852
 31
0.0
  0
LINE
  5
D9E6
  8
0
  6
CONTINUOUS
 62
     0
 10
634.07658829717775
 20
838.85969053028521
 30
0.0
 11
638.31919829717822
 21
843.10230053028522
 31
0.0
  0
LINE
  5
D9E7
  8
0
  6
CONTINUOUS
 62
     0
 10
634.07652829717824
 20
925.10230053028533
 30
0.0
 11
638.31919829717822
 21
920.85962053028516
 31
0.0
  0
LINE
  5
D9E8
  8
0
  6
CONTINUOUS
 62
     0
 10
643.19780829717774
 20
899.98102053028515
 30
0.0
 11
713.19777829717805
 21
899.98102053028515
 31
0.0
  0
LINE
  5
D9E9
  8
0
  6
CONTINUOUS
 62
     0
 10
643.19780829717774
 20
857.98102053028515
 30
0.0
 11
713.19777829717805
 21
857.98102053028515
 31
0.0
  0
LINE
  5
D9EA
  8
0
  6
CONTINUOUS
 62
     0
 10
639.19780829717774
 20
901.48102053028504
 30
0.0
 11
643.19780829717774
 21
901.48102053028504
 31
0.0
  0
LINE
  5
D9EB
  8
0
  6
CONTINUOUS
 62
     0
 10
639.19780829717774
 20
856.48102053028515
 30
0.0
 11
643.19780829717774
 21
856.48102053028515
 31
0.0
  0
LINE
  5
D9EC
  8
0
  6
CONTINUOUS
 62
     0
 10
643.19780829717774
 20
856.48102053028515
 30
0.0
 11
643.19780829717774
 21
901.48102053028504
 31
0.0
  0
LINE
  5
D9ED
  8
0
  6
CONTINUOUS
 62
     0
 10
713.19777829717805
 20
857.98102053028515
 30
0.0
 11
713.19777829717805
 21
899.98102053028515
 31
0.0
  0
LINE
  5
D9EE
  8
0
  6
CONTINUOUS
 62
     0
 10
657.19780829717774
 20
884.98096053028507
 30
0.0
 11
657.19780829717774
 21
872.98096053028519
 31
0.0
  0
LINE
  5
D9EF
  8
0
  6
CONTINUOUS
 62
     0
 10
447.19780829717757
 20
1011.044930530285
 30
0.0
 11
447.19780829717757
 21
977.16661269651127
 31
0.0
  0
LINE
  5
D9F0
  8
0
  6
CONTINUOUS
 62
     0
 10
639.19780829717774
 20
1011.172190530285
 30
0.0
 11
639.19780829717774
 21
971.78980053028533
 31
0.0
  0
LINE
  5
D9F1
  8
0
  6
CONTINUOUS
 62
     0
 10
526.19780829717763
 20
1018.980960530285
 30
0.0
 11
635.33738829717765
 21
1015.169740530285
 31
0.0
  0
LINE
  5
D9F2
  8
0
  6
CONTINUOUS
 62
     0
 10
450.98838829717778
 20
1015.039430530285
 30
0.0
 11
526.19773829717758
 21
1018.981020530285
 31
0.0
  0
LINE
  5
D9F3
  8
0
  6
CENTER
 62
     0
 10
451.19780829717757
 20
993.98102053028515
 30
0.0
 11
484.69780829717757
 21
993.98102053028515
 31
0.0
  0
LINE
  5
D9F4
  8
0
  6
CENTER
 62
     0
 10
468.19780829717757
 20
1010.481020530285
 30
0.0
 11
468.19780829717757
 21
977.48102053028515
 31
0.0
  0
LINE
  5
D9F5
  8
0
  6
CENTER
 62
     0
 10
618.19780829717774
 20
1010.481020530285
 30
0.0
 11
618.19780829717774
 21
977.48102053028515
 31
0.0
  0
LINE
  5
D9F6
  8
0
  6
CONTINUOUS
 62
     0
 10
633.19780829717774
 20
964.8615805302851
 30
0.0
 11
633.19780829717774
 21
793.10041053028522
 31
0.0
  0
LINE
  5
D9F7
  8
0
  6
CONTINUOUS
 62
     0
 10
448.98889229955881
 20
970.73587559871032
 30
0.0
 11
492.07908829717729
 21
966.96595053028466
 31
0.0
  0
LINE
  5
D9F8
  8
0
  6
CONTINUOUS
 62
     0
 10
450.84916829717781
 20
787.38886053028523
 30
0.0
 11
492.07908829717729
 21
790.9960405302852
 31
0.0
  0
LINE
  5
D9F9
  8
0
  6
CONTINUOUS
 62
     0
 10
450.98838829717778
 20
742.92255053028521
 30
0.0
 11
526.19773829717758
 21
738.98102053028492
 31
0.0
  0
LINE
  5
D9FA
  8
0
  6
CONTINUOUS
 62
     0
 10
526.19773829717758
 20
738.98096053028507
 30
0.0
 11
635.33732829717837
 21
742.7922405302852
 31
0.0
  0
LINE
  5
D9FB
  8
0
  6
CONTINUOUS
 62
     0
 10
639.19780829717774
 20
746.78980053028522
 30
0.0
 11
639.19780829717774
 21
786.17219053028521
 31
0.0
  0
LINE
  5
D9FC
  8
0
  6
CONTINUOUS
 62
     0
 10
447.19780829717757
 20
746.9170605302852
 30
0.0
 11
447.19780829717757
 21
783.40406053028505
 31
0.0
  0
LINE
  5
D9FD
  8
0
  6
CONTINUOUS
 62
     0
 10
521.19780829717763
 20
739.24299053028517
 30
0.0
 11
521.19780829717763
 21
874.98096053028462
 31
0.0
  0
LINE
  5
D9FE
  8
0
  6
CONTINUOUS
 62
     0
 10
639.19780829717774
 20
918.73835053028517
 30
0.0
 11
639.19780829717774
 21
845.22364053028514
 31
0.0
  0
LINE
  5
D9FF
  8
0
  6
CONTINUOUS
 62
     0
 10
565.28813829717774
 20
1002.155100530285
 30
0.0
 11
583.47697829717799
 21
1001.519900530285
 31
0.0
  0
LINE
  5
DA00
  8
0
  6
CONTINUOUS
 62
     0
 10
591.19780829717774
 20
987.98102053028515
 30
0.0
 11
591.19780829717774
 21
993.52485053028511
 31
0.0
  0
LINE
  5
DA01
  8
0
  6
CONTINUOUS
 62
     0
 10
618.52281829717822
 20
965.52271053028517
 30
0.0
 11
628.37230829717817
 21
965.17878053028517
 31
0.0
  0
LINE
  5
DA02
  8
0
  6
CONTINUOUS
 62
     0
 10
549.01426829717798
 20
1015.144350530285
 30
0.0
 11
558.38133829717765
 21
1005.267640530285
 31
0.0
  0
LINE
  5
DA03
  8
0
  6
CONTINUOUS
 62
     0
 10
508.19773829717758
 20
1008.727970530285
 30
0.0
 11
500.81919829717827
 21
1009.652230530285
 31
0.0
  0
LINE
  5
DA04
  8
0
  6
CONTINUOUS
 62
     0
 10
591.19780829717774
 20
1011.533510530285
 30
0.0
 11
591.19780829717774
 21
993.52485053028511
 31
0.0
  0
LINE
  5
DA05
  8
0
  6
CONTINUOUS
 62
     0
 10
601.19780829717774
 20
977.98102053028515
 30
0.0
 11
603.19780829717774
 21
977.98102053028515
 31
0.0
  0
LINE
  5
DA06
  8
0
  6
CENTER
 62
     0
 10
601.69780829717774
 20
993.98102053028515
 30
0.0
 11
635.19780829717774
 21
993.98102053028515
 31
0.0
  0
LINE
  5
DA07
  8
0
  6
CENTER
 62
     0
 10
451.19780829717757
 20
763.98102053028492
 30
0.0
 11
484.69780829717757
 21
763.98102053028492
 31
0.0
  0
LINE
  5
DA08
  8
0
  6
CENTER
 62
     0
 10
468.19780829717757
 20
747.48102053028492
 30
0.0
 11
468.19780829717757
 21
780.48102053028515
 31
0.0
  0
LINE
  5
DA09
  8
0
  6
CENTER
 62
     0
 10
618.19780829717774
 20
747.48102053028492
 30
0.0
 11
618.19780829717774
 21
780.48102053028515
 31
0.0
  0
LINE
  5
DA0A
  8
0
  6
CENTER
 62
     0
 10
601.69780829717774
 20
763.98102053028492
 30
0.0
 11
635.19780829717774
 21
763.98102053028492
 31
0.0
  0
LINE
  5
DA0B
  8
0
  6
CONTINUOUS
 62
     0
 10
565.28813829717774
 20
755.80689053028493
 30
0.0
 11
583.47697829717799
 21
756.44208053028524
 31
0.0
  0
LINE
  5
DA0C
  8
0
  6
CONTINUOUS
 62
     0
 10
591.19780829717774
 20
769.98102053028538
 30
0.0
 11
591.19780829717774
 21
764.43720053028517
 31
0.0
  0
LINE
  5
DA0D
  8
0
  6
CONTINUOUS
 62
     0
 10
618.52281829717822
 20
792.43934053028511
 30
0.0
 11
628.37223829717766
 21
792.78327053028522
 31
0.0
  0
LINE
  5
DA0E
  8
0
  6
CONTINUOUS
 62
     0
 10
549.0142082971779
 20
742.81757053028514
 30
0.0
 11
558.38139829717784
 21
752.6943405302851
 31
0.0
  0
LINE
  5
DA0F
  8
0
  6
CONTINUOUS
 62
     0
 10
591.19780829717774
 20
746.42853053028523
 30
0.0
 11
591.19780829717774
 21
764.43720053028517
 31
0.0
  0
LINE
  5
DA10
  8
0
  6
CONTINUOUS
 62
     0
 10
601.19780829717774
 20
779.98102053028504
 30
0.0
 11
603.19780829717774
 21
779.98102053028504
 31
0.0
  0
LINE
  5
DA11
  8
0
  6
CONTINUOUS
 62
     0
 10
611.19780829717774
 20
787.98102053028504
 30
0.0
 11
611.19780829717774
 21
969.9810205302847
 31
0.0
  0
LINE
  5
DA12
  8
0
  6
CONTINUOUS
 62
     0
 10
536.19780829717763
 20
752.30585053028506
 30
0.0
 11
536.19780829717763
 21
799.41523053028504
 31
0.0
  0
LINE
  5
DA13
  8
0
  6
CONTINUOUS
 62
     0
 10
538.12803829717814
 20
756.42151053028522
 30
0.0
 11
562.73100829717805
 21
757.28071053028509
 31
0.0
  0
LINE
  5
DA14
  8
0
  6
CONTINUOUS
 62
     0
 10
521.19773829717769
 20
749.85065053028507
 30
0.0
 11
534.26762829717791
 21
750.30707053028493
 31
0.0
  0
LINE
  5
DA15
  8
0
  6
CONTINUOUS
 62
     0
 10
536.19780829717763
 20
829.41645053028515
 30
0.0
 11
536.19780829717763
 21
928.54554053028471
 31
0.0
  0
LINE
  5
DA16
  8
0
  6
CONTINUOUS
 62
     0
 10
540.69780829717763
 20
801.41523053028516
 30
0.0
 11
540.69780829717763
 21
827.41645053028503
 31
0.0
  0
LINE
  5
DA17
  8
0
  6
CONTINUOUS
 62
     0
 10
508.19767829717779
 20
801.41523053028516
 30
0.0
 11
534.19780829717763
 21
801.41523053028516
 31
0.0
  0
LINE
  5
DA18
  8
0
  6
CONTINUOUS
 62
     0
 10
508.19767829717779
 20
827.41645053028503
 30
0.0
 11
534.19780829717763
 21
827.41645053028503
 31
0.0
  0
LINE
  5
DA19
  8
0
  6
CONTINUOUS
 62
     0
 10
540.69780829717763
 20
956.5467605302847
 30
0.0
 11
540.69780829717763
 21
930.54554053028505
 31
0.0
  0
LINE
  5
DA1A
  8
0
  6
CONTINUOUS
 62
     0
 10
538.12797829717783
 20
1001.540470530285
 30
0.0
 11
562.7310682971779
 21
1000.681280530285
 31
0.0
  0
LINE
  5
DA1B
  8
0
  6
CONTINUOUS
 62
     0
 10
521.19773829717769
 20
1008.111330530285
 30
0.0
 11
534.26762829717791
 21
1007.654910530285
 31
0.0
  0
LINE
  5
DA1C
  8
0
  6
CONTINUOUS
 62
     0
 10
508.19767829717779
 20
930.54554053028505
 30
0.0
 11
534.19780829717763
 21
930.54554053028505
 31
0.0
  0
LINE
  5
DA1D
  8
0
  6
CONTINUOUS
 62
     0
 10
536.19780829717763
 20
1005.6561305302851
 30
0.0
 11
536.19780829717763
 21
958.54676053028504
 31
0.0
  0
LINE
  5
DA1E
  8
0
  6
CONTINUOUS
 62
     0
 10
508.19767829717779
 20
956.5467605302847
 30
0.0
 11
534.19780829717763
 21
956.5467605302847
 31
0.0
  0
LINE
  5
DA1F
  8
0
  6
CONTINUOUS
 62
     0
 10
657.19780829717774
 20
872.98096053028519
 30
0.0
 11
713.19777829717805
 21
872.98096053028519
 31
0.0
  0
LINE
  5
DA20
  8
0
  6
CONTINUOUS
 62
     0
 10
657.19780829717774
 20
884.98096053028507
 30
0.0
 11
713.19777829717805
 21
884.98096053028507
 31
0.0
  0
LINE
  5
DA21
  8
0
  6
CONTINUOUS
 62
     0
 10
510.12797829717778
 20
750.23725053028465
 30
0.0
 11
521.19780829717763
 21
749.85065053028507
 31
0.0
  0
LINE
  5
DA22
  8
0
  6
CONTINUOUS
 62
     0
 10
496.67680829717852
 20
761.90198053028507
 30
0.0
 11
505.71873829717828
 21
760.30762053028491
 31
0.0
  0
LINE
  5
DA23
  8
0
  6
CONTINUOUS
 62
     0
 10
508.19773829717758
 20
749.23401053028522
 30
0.0
 11
500.81919829717827
 21
748.30976053028519
 31
0.0
  0
LINE
  5
DA24
  8
0
  6
CENTER
 62
     0
 10
505.19780829717757
 20
862.2726505302852
 30
0.0
 11
505.19780829717757
 21
893.58588053028484
 31
0.0
  0
LINE
  5
DA25
  8
0
  6
CONTINUOUS
 62
     0
 10
488.69780829717757
 20
874.98096053028462
 30
0.0
 11
521.69780829717763
 21
874.98096053028462
 31
0.0
  0
LINE
  5
DA26
  8
0
  6
CONTINUOUS
 62
     0
 10
488.69780829717757
 20
882.98096053028462
 30
0.0
 11
521.69780829717763
 21
882.98096053028462
 31
0.0
  0
LINE
  5
DA27
  8
0
  6
CONTINUOUS
 62
     0
 10
521.19780829717763
 20
882.98096053028462
 30
0.0
 11
521.19780829717763
 21
1018.718940530285
 31
0.0
  0
LINE
  5
DA28
  8
0
  6
CONTINUOUS
 62
     0
 10
508.19767829717779
 20
888.52039053028511
 30
0.0
 11
508.19767829717779
 21
1015.190740530285
 31
0.0
  0
LINE
  5
DA29
  8
0
  6
CONTINUOUS
 62
     0
 10
494.19780829717757
 20
882.98096053028462
 30
0.0
 11
494.19780829717757
 21
993.12214053028515
 31
0.0
  0
LINE
  5
DA2A
  8
0
  6
CONTINUOUS
 62
     0
 10
540.69780829717763
 20
742.74384053028518
 30
0.0
 11
540.69780829717763
 21
754.77619053028513
 31
0.0
  0
LINE
  5
DA2B
  8
0
  6
CONTINUOUS
 62
     0
 10
540.69780829717763
 20
1003.260870530285
 30
0.0
 11
540.69780829717763
 21
1015.214300530285
 31
0.0
  0
LINE
  5
DA2C
  8
0
  6
CONTINUOUS
 62
     0
 10
454.69777829717788
 20
794.98102053028538
 30
0.0
 11
454.69777829717788
 21
962.9810205302847
 31
0.0
  0
LINE
  5
DA2D
  8
0
  6
CONTINUOUS
 62
     0
 10
490.33732829717758
 20
793.82374053028514
 30
0.0
 11
454.69777829717788
 21
795.06826066971394
 31
0.0
  0
LINE
  5
DA2E
  8
0
  6
CONTINUOUS
 62
     0
 10
490.3373882971776
 20
964.13825053028461
 30
0.0
 11
454.69777829717788
 21
962.8936552681572
 31
0.0
  0
LINE
  5
DA2F
  8
0
  6
CONTINUOUS
 62
     0
 10
490.33744829717813
 20
966.49836053028537
 30
0.0
 11
459.19786829717771
 21
965.41095053028516
 31
0.0
  0
LINE
  5
DA30
  8
0
  6
CONTINUOUS
 62
     0
 10
459.19780829717757
 20
963.05085053028472
 30
0.0
 11
459.19780829717757
 21
965.41095053028516
 31
0.0
  0
LINE
  5
DA31
  8
0
  6
CONTINUOUS
 62
     0
 10
459.19780829717757
 20
794.91114053028514
 30
0.0
 11
459.19780829717757
 21
792.55103053028506
 31
0.0
  0
LINE
  5
DA32
  8
0
  6
CONTINUOUS
 62
     0
 10
490.3373882971776
 20
791.46363053028517
 30
0.0
 11
459.19786829717771
 21
792.55109053028536
 31
0.0
  0
ARC
  5
DA33
  8
0
  6
CONTINUOUS
 62
     0
 10
510.19780829717757
 20
1005.725960530285
 30
0.0
 40
2.0
 50
91.999997999994051
 51
180.000010000001
  0
ARC
  5
DA34
  8
0
  6
CONTINUOUS
 62
     0
 10
497.19780829717757
 20
993.10553053028525
 30
0.0
 40
3.0
 50
100.000000000005
 51
180.000010000001
  0
ARC
  5
DA35
  8
0
  6
CONTINUOUS
 62
     0
 10
505.19780829717757
 20
1000.608710530285
 30
0.0
 40
3.0
 50
280.00001000000123
 51
0.0
  0
ARC
  5
DA36
  8
0
  6
CONTINUOUS
 62
     0
 10
636.19780829717774
 20
927.22364053028525
 30
0.0
 40
3.0
 50
179.999989999999
 51
224.99999999999079
  0
ARC
  5
DA37
  8
0
  6
CONTINUOUS
 62
     0
 10
636.19780829717774
 20
845.22364053028514
 30
0.0
 40
3.0
 50
315.00000000000921
 51
0.0
  0
ARC
  5
DA38
  8
0
  6
CONTINUOUS
 62
     0
 10
636.19780829717774
 20
918.73835053028517
 30
0.0
 40
3.0
 50
0.0
 51
45.000000999994569
  0
ARC
  5
DA39
  8
0
  6
CONTINUOUS
 62
     0
 10
636.19780829717774
 20
836.73835053028461
 30
0.0
 40
3.0
 50
135.00000000000921
 51
180.000010000001
  0
ARC
  5
DA3A
  8
0
  6
CONTINUOUS
 62
     0
 10
451.19780829717757
 20
1011.044930530285
 30
0.0
 40
4.0
 50
92.999998999995213
 51
180.000010000001
  0
ARC
  5
DA3B
  8
0
  6
CONTINUOUS
 62
     0
 10
635.19780829717774
 20
971.78980053028533
 30
0.0
 40
4.0
 50
278.21321999998997
 51
0.0
  0
CIRCLE
  5
DA3C
  8
0
  6
CONTINUOUS
 62
     0
 10
618.19780829717774
 20
993.98102053028515
 30
0.0
 40
9.5
  0
CIRCLE
  5
DA3D
  8
0
  6
CONTINUOUS
 62
     0
 10
468.19780829717757
 20
993.98102053028515
 30
0.0
 40
9.5
  0
ARC
  5
DA3E
  8
0
  6
CONTINUOUS
 62
     0
 10
635.19780829717774
 20
746.78980053028522
 30
0.0
 40
4.0
 50
272.00000000000369
 51
0.0
  0
ARC
  5
DA3F
  8
0
  6
CONTINUOUS
 62
     0
 10
451.19780829717757
 20
783.40406053028505
 30
0.0
 40
4.0
 50
95.00000199999208
 51
180.000010000001
  0
CIRCLE
  5
DA40
  8
0
  6
CONTINUOUS
 62
     0
 10
468.19780829717757
 20
763.98102053028492
 30
0.0
 40
9.5
  0
CIRCLE
  5
DA41
  8
0
  6
CONTINUOUS
 62
     0
 10
618.19780829717774
 20
763.98102053028492
 30
0.0
 40
9.5
  0
ARC
  5
DA42
  8
0
  6
CONTINUOUS
 62
     0
 10
635.19780829717774
 20
786.17219053028521
 30
0.0
 40
4.0
 50
0.0
 51
81.786789000013059
  0
ARC
  5
DA43
  8
0
  6
CONTINUOUS
 62
     0
 10
451.19780829717757
 20
746.9170605302852
 30
0.0
 40
4.0
 50
180.000010000001
 51
266.99998999999372
  0
ARC
  5
DA44
  8
0
  6
CONTINUOUS
 62
     0
 10
635.19780829717774
 20
1011.172190530285
 30
0.0
 40
4.0
 50
0.0
 51
87.999999999996248
  0
ARC
  5
DA45
  8
0
  6
CONTINUOUS
 62
     0
 10
636.19780829717774
 20
836.73835053028461
 30
0.0
 40
3.0
 50
135.00000000000921
 51
180.000010000001
  0
ARC
  5
DA46
  8
0
  6
CONTINUOUS
 62
     0
 10
636.19780829717774
 20
918.73835053028517
 30
0.0
 40
3.0
 50
0.0
 51
44.999998000015431
  0
ARC
  5
DA47
  8
0
  6
CONTINUOUS
 62
     0
 10
636.19780829717774
 20
845.22364053028514
 30
0.0
 40
3.0
 50
315.00000000000921
 51
0.0
  0
ARC
  5
DA48
  8
0
  6
CONTINUOUS
 62
     0
 10
636.19780829717774
 20
927.22364053028525
 30
0.0
 40
3.0
 50
180.000010000001
 51
224.99999999999079
  0
ARC
  5
DA49
  8
0
  6
CONTINUOUS
 62
     0
 10
565.63713829717824
 20
1012.148990530285
 30
0.0
 40
10.0
 50
223.48296000001511
 51
267.99999999999619
  0
ARC
  5
DA4A
  8
0
  6
CONTINUOUS
 62
     0
 10
583.19780829717774
 20
993.52485053028511
 30
0.0
 40
8.0
 50
0.0
 51
87.999999999996248
  0
ARC
  5
DA4B
  8
0
  6
CONTINUOUS
 62
     0
 10
541.75846829717807
 20
1008.263010530285
 30
0.0
 40
10.0
 50
43.482964999999631
 51
87.999999999996248
  0
ARC
  5
DA4C
  8
0
  6
CONTINUOUS
 62
     0
 10
500.19780829717757
 20
1004.6909805302849
 30
0.0
 40
5.0
 50
82.860167000000104
 51
180.000010000001
  0
ARC
  5
DA4D
  8
0
  6
CONTINUOUS
 62
     0
 10
596.19780829717774
 20
1011.533510530285
 30
0.0
 40
5.0
 50
87.999999999996248
 51
180.000010000001
  0
ARC
  5
DA4E
  8
0
  6
CONTINUOUS
 62
     0
 10
601.19780829717774
 20
987.98102053028515
 30
0.0
 40
10.0
 50
180.000010000001
 51
270.0
  0
ARC
  5
DA4F
  8
0
  6
CONTINUOUS
 62
     0
 10
628.19780829717774
 20
960.18177053028535
 30
0.0
 40
5.0
 50
0.0
 51
87.999999999996248
  0
ARC
  5
DA50
  8
0
  6
CONTINUOUS
 62
     0
 10
636.19780829717774
 20
964.8615805302851
 30
0.0
 40
3.0
 50
98.213209000014999
 51
180.000010000001
  0
ARC
  5
DA51
  8
0
  6
CONTINUOUS
 62
     0
 10
565.63713829717824
 20
745.81293053028514
 30
0.0
 40
10.0
 50
91.999997999994051
 51
136.5170399999848
  0
ARC
  5
DA52
  8
0
  6
CONTINUOUS
 62
     0
 10
583.19780829717774
 20
764.43720053028517
 30
0.0
 40
8.0
 50
272.00000000000369
 51
0.0
  0
ARC
  5
DA53
  8
0
  6
CONTINUOUS
 62
     0
 10
541.75846829717807
 20
749.69898053028521
 30
0.0
 40
10.0
 50
272.00000000000369
 51
316.51703999998477
  0
ARC
  5
DA54
  8
0
  6
CONTINUOUS
 62
     0
 10
596.19780829717774
 20
746.42853053028523
 30
0.0
 40
5.0
 50
180.000010000001
 51
271.99999000000793
  0
ARC
  5
DA55
  8
0
  6
CONTINUOUS
 62
     0
 10
601.19780829717774
 20
769.98102053028538
 30
0.0
 40
10.0
 50
90.000002999984659
 51
180.000010000001
  0
ARC
  5
DA56
  8
0
  6
CONTINUOUS
 62
     0
 10
628.19780829717774
 20
797.78022053028508
 30
0.0
 40
5.0
 50
272.00000000000369
 51
0.0
  0
ARC
  5
DA57
  8
0
  6
CONTINUOUS
 62
     0
 10
636.19780829717774
 20
793.10041053028522
 30
0.0
 40
3.0
 50
180.000010000001
 51
261.78678000000991
  0
ARC
  5
DA58
  8
0
  6
CONTINUOUS
 62
     0
 10
603.19780829717774
 20
787.98102053028504
 30
0.0
 40
8.0
 50
270.0
 51
0.0
  0
ARC
  5
DA59
  8
0
  6
CONTINUOUS
 62
     0
 10
618.80192829717771
 20
784.44416053028522
 30
0.0
 40
8.0
 50
91.999997999994051
 51
167.22924999999881
  0
ARC
  5
DA5A
  8
0
  6
CONTINUOUS
 62
     0
 10
603.19780829717774
 20
969.9810205302847
 30
0.0
 40
8.0
 50
0.0
 51
90.000002999984659
  0
ARC
  5
DA5B
  8
0
  6
CONTINUOUS
 62
     0
 10
618.80192829717771
 20
973.51783053028521
 30
0.0
 40
8.0
 50
192.77075000000119
 51
267.99999999999619
  0
ARC
  5
DA5C
  8
0
  6
CONTINUOUS
 62
     0
 10
534.19780829717763
 20
752.30585053028506
 30
0.0
 40
2.0
 50
272.00000000000369
 51
0.0
  0
ARC
  5
DA5D
  8
0
  6
CONTINUOUS
 62
     0
 10
538.19780829717763
 20
754.42280053028514
 30
0.0
 40
2.0
 50
91.999997999994051
 51
180.000010000001
  0
ARC
  5
DA5E
  8
0
  6
CONTINUOUS
 62
     0
 10
534.19780829717763
 20
799.41523053028504
 30
0.0
 40
2.0
 50
0.0
 51
90.000002999984659
  0
ARC
  5
DA5F
  8
0
  6
CONTINUOUS
 62
     0
 10
534.19780829717763
 20
829.41645053028515
 30
0.0
 40
2.0
 50
270.0
 51
0.0
  0
ARC
  5
DA60
  8
0
  6
CONTINUOUS
 62
     0
 10
540.22587829717793
 20
801.03473053028517
 30
0.0
 40
2.0
 50
270.0
 51
296.80020000000297
  0
ARC
  5
DA61
  8
0
  6
CONTINUOUS
 62
     0
 10
539.74736829717756
 20
833.30042053028524
 30
0.0
 40
3.0
 50
54.34832400001379
 51
90.000002999984659
  0
ARC
  5
DA62
  8
0
  6
CONTINUOUS
 62
     0
 10
540.22587829717793
 20
956.92719053028509
 30
0.0
 40
2.0
 50
63.199808999996499
 51
90.000002999984659
  0
ARC
  5
DA63
  8
0
  6
CONTINUOUS
 62
     0
 10
534.19780829717763
 20
1005.6561305302851
 30
0.0
 40
2.0
 50
0.0
 51
87.999999999996248
  0
ARC
  5
DA64
  8
0
  6
CONTINUOUS
 62
     0
 10
538.19780829717763
 20
1003.5391905302851
 30
0.0
 40
2.0
 50
180.000010000001
 51
267.99999999999619
  0
ARC
  5
DA65
  8
0
  6
CONTINUOUS
 62
     0
 10
539.74736829717756
 20
924.66157053028519
 30
0.0
 40
3.0
 50
270.0
 51
305.65167000001168
  0
ARC
  5
DA66
  8
0
  6
CONTINUOUS
 62
     0
 10
534.19780829717763
 20
958.54676053028504
 30
0.0
 40
2.0
 50
270.0
 51
0.0
  0
ARC
  5
DA67
  8
0
  6
CONTINUOUS
 62
     0
 10
534.19780829717763
 20
928.54554053028471
 30
0.0
 40
2.0
 50
0.0
 51
90.000002999984659
  0
ARC
  5
DA68
  8
0
  6
CONTINUOUS
 62
     0
 10
657.19780829717774
 20
878.98096053028473
 30
0.0
 40
6.0000037999999991
 50
90.000002999984659
 51
270.0
  0
ARC
  5
DA69
  8
0
  6
CONTINUOUS
 62
     0
 10
511.19767829717728
 20
1015.190740530285
 30
0.0
 40
3.0
 50
92.999998999995213
 51
180.000010000001
  0
ARC
  5
DA6A
  8
0
  6
CONTINUOUS
 62
     0
 10
510.19780829717757
 20
752.23603053028535
 30
0.0
 40
2.0
 50
179.999989999999
 51
268.00000999999207
  0
ARC
  5
DA6B
  8
0
  6
CONTINUOUS
 62
     0
 10
497.19780829717757
 20
764.85639053028524
 30
0.0
 40
3.0
 50
179.999989999999
 51
259.999999999995
  0
ARC
  5
DA6C
  8
0
  6
CONTINUOUS
 62
     0
 10
505.19780829717757
 20
757.35328053028513
 30
0.0
 40
3.0
 50
0.0
 51
79.999998000001099
  0
ARC
  5
DA6D
  8
0
  6
CONTINUOUS
 62
     0
 10
511.19767829717728
 20
742.77118053028539
 30
0.0
 40
3.0
 50
180.000010000001
 51
266.99998999999372
  0
ARC
  5
DA6E
  8
0
  6
CONTINUOUS
 62
     0
 10
500.19780829717757
 20
753.27106053028524
 30
0.0
 40
5.0
 50
180.000010000001
 51
277.13982999999359
  0
ARC
  5
DA6F
  8
0
  6
CONTINUOUS
 62
     0
 10
505.19780829717757
 20
878.98102053028538
 30
0.0
 40
10.0
 50
23.578037000006329
 51
156.42195999999231
  0
ARC
  5
DA70
  8
0
  6
CONTINUOUS
 62
     0
 10
488.69780829717757
 20
878.98096053028473
 30
0.0
 40
3.9999962
 50
90.000002999984659
 51
270.0
  0
ARC
  5
DA71
  8
0
  6
CONTINUOUS
 62
     0
 10
521.69780829717763
 20
878.98096053028473
 30
0.0
 40
3.9999962
 50
270.0
 51
90.000002999984659
  0
ARC
  5
DA72
  8
0
  6
CONTINUOUS
 62
     0
 10
505.19780829717757
 20
878.98102053028538
 30
0.0
 40
10.0
 50
203.57826999999861
 51
336.4217200000013
  0
ARC
  5
DA73
  8
0
  6
CONTINUOUS
 62
     0
 10
490.19780829717757
 20
789.82618053028523
 30
0.0
 40
4.0
 50
0.0
 51
87.999999999996248
  0
ARC
  5
DA74
  8
0
  6
CONTINUOUS
 62
     0
 10
490.19780829717757
 20
968.1358105302852
 30
0.0
 40
4.0
 50
272.00000000000369
 51
0.0
  0
ARC
  5
DA75
  8
0
  6
CONTINUOUS
 62
     0
 10
490.19780829717757
 20
970.49592053028516
 30
0.0
 40
4.0
 50
272.00000000000369
 51
0.0
  0
ARC
  5
DA76
  8
0
  6
CONTINUOUS
 62
     0
 10
490.19780829717757
 20
787.46601053028519
 30
0.0
 40
4.0
 50
0.0
 51
87.999999999996248
  0
POLYLINE
  5
DA77
  8
0
  6
CONTINUOUS
 62
     0
 66
     1
 10
0.0
 20
0.0
 30
0.0
  0
VERTEX
  5
DA78
  8
0
  6
CONTINUOUS
 62
     0
 10
541.12749829717814
 20
799.24947053028495
 30
0.0
 42
0.11075717
  0
VERTEX
  5
DA79
  8
0
  6
CONTINUOUS
 62
     0
 10
554.00843829717769
 20
809.15725053028507
 30
0.0
 42
0.20375769
  0
VERTEX
  5
DA7A
  8
0
  6
CONTINUOUS
 62
     0
 10
556.26616829717784
 20
816.8227205302851
 30
0.0
  0
VERTEX
  5
DA7B
  8
0
  6
CONTINUOUS
 62
     0
 10
541.49636829717838
 20
835.73787053028491
 30
0.0
 42
-1.0
  0
SEQEND
  5
DA7C
  8
0
 62
     0
  0
POLYLINE
  5
DA7D
  8
0
  6
CONTINUOUS
 62
     0
 66
     1
 10
0.0
 20
0.0
 30
0.0
  0
VERTEX
  5
DA7E
  8
0
  6
CONTINUOUS
 62
     0
 10
541.12749829717814
 20
958.71245053028508
 30
0.0
 42
-0.11075703
  0
VERTEX
  5
DA7F
  8
0
  6
CONTINUOUS
 62
     0
 10
554.0084682971783
 20
948.80474053028536
 30
0.0
 42
-0.20375918
  0
VERTEX
  5
DA80
  8
0
  6
CONTINUOUS
 62
     0
 10
556.26616829717784
 20
941.13926053028536
 30
0.0
  0
VERTEX
  5
DA81
  8
0
  6
CONTINUOUS
 62
     0
 10
541.49636829717838
 20
922.22412053028518
 30
0.0
 42
-1.0
  0
SEQEND
  5
DA82
  8
0
 62
     0
  0
LINE
  5
DA83
  8
0
 62
     0
 10
454.69777829717788
 20
793.98102053028538
 30
0.0
 11
454.69777829717788
 21
963.98102053028504
 31
0.0
  0
ARC
  5
DA84
  8
0
 10
235.5307782971781
 20
751.80500053028516
 30
0.0
 40
7.3402899999999969
 50
116.67697999999911
 51
177.34798000000251
  0
ARC
  5
DA85
  8
0
 10
225.40480829717811
 20
771.06501053028524
 30
0.0
 40
15.0
 50
316.51494999999102
 51
336.88495000000182
  0
ARC
  5
DA86
  8
0
 10
235.5307782971781
 20
745.15705053028535
 30
0.0
 40
7.3402899999999969
 50
182.65198000000061
 51
265.23795999998953
  0
ARC
  5
DA87
  8
0
 10
235.5307782971781
 20
744.47797053028523
 30
0.0
 40
7.3402899999999969
 50
94.761785000011997
 51
177.34798000000251
  0
ARC
  5
DA88
  8
0
 10
225.40480829717811
 20
763.7379805302852
 30
0.0
 40
15.0
 50
316.51494999999102
 51
336.88495000000182
  0
ARC
  5
DA89
  8
0
 10
239.103778297178
 20
757.44501053028523
 30
0.0
 40
5.8039399999999972
 50
283.12597000000932
 51
344.53994999999787
  0
ARC
  5
DA8A
  8
0
 10
250.69777829717799
 20
755.27094053028509
 30
0.0
 40
6.0
 50
89.999989000004106
 51
179.99997999999789
  0
ARC
  5
DA8B
  8
0
 10
250.69777829717799
 20
752.9419605302852
 30
0.0
 40
12.5
 50
89.999989000004106
 51
156.88497999999879
  0
ARC
  5
DA8C
  8
0
 10
397.86378829717802
 20
751.80500053028516
 30
0.0
 40
7.3402899999999969
 50
2.6518660000028751
 51
63.32309399999528
  0
ARC
  5
DA8D
  8
0
 10
407.98976829717822
 20
771.06501053028524
 30
0.0
 40
15.0
 50
203.1149699999892
 51
223.48497000000251
  0
ARC
  5
DA8E
  8
0
 10
397.86378829717802
 20
745.15705053028535
 30
0.0
 40
7.3402899999999969
 50
274.76196000001192
 51
357.34795000000082
  0
ARC
  5
DA8F
  8
0
 10
397.86378829717802
 20
744.47797053028523
 30
0.0
 40
7.3402899999999969
 50
2.6518660000028751
 51
85.238185999988175
  0
ARC
  5
DA90
  8
0
 10
407.98976829717822
 20
763.7379805302852
 30
0.0
 40
15.0
 50
203.1149699999892
 51
223.48497000000251
  0
ARC
  5
DA91
  8
0
 10
394.29176829717829
 20
732.19001053028524
 30
0.0
 40
5.8039399999999972
 50
103.12598999998779
 51
164.539980000002
  0
ARC
  5
DA92
  8
0
 10
394.29176829717829
 20
757.44501053028523
 30
0.0
 40
5.8039399999999972
 50
195.4599800000006
 51
256.87396999999709
  0
ARC
  5
DA93
  8
0
 10
239.103778297178
 20
732.19001053028524
 30
0.0
 40
5.8039399999999972
 50
15.459701000003831
 51
76.873785999998731
  0
ARC
  5
DA94
  8
0
 10
250.69777829717799
 20
725.98102053028515
 30
0.0
 40
6.0
 50
179.99997999999789
 51
269.9999499999949
  0
ARC
  5
DA95
  8
0
 10
250.69777829717799
 20
730.53959453028506
 30
0.0
 40
12.5
 50
179.99997999999789
 51
269.9999499999949
  0
ARC
  5
DA96
  8
0
 10
382.6977782971781
 20
725.98102053028515
 30
0.0
 40
6.0
 50
269.99995999999589
 51
359.9999500000016
  0
ARC
  5
DA97
  8
0
 10
382.6977782971781
 20
730.53959453028506
 30
0.0
 40
12.5
 50
269.99995999999589
 51
359.9999500000016
  0
ARC
  5
DA98
  8
0
 10
382.6977782971781
 20
755.27094053028509
 30
0.0
 40
6.0
 50
0.0
 51
89.999989000004106
  0
ARC
  5
DA99
  8
0
 10
382.6977782971781
 20
752.9419605302852
 30
0.0
 40
12.5
 50
23.114595000003099
 51
89.999989000004106
  0
ARC
  5
DA9A
  8
0
 10
249.69777829717799
 20
767.98102053028515
 30
0.0
 40
6.0
 50
89.999989000004106
 51
147.54197999998669
  0
ARC
  5
DA9B
  8
0
 10
250.69777829717799
 20
760.26899053028524
 30
0.0
 40
12.5
 50
89.999989000004106
 51
156.9299800000019
  0
ARC
  5
DA9C
  8
0
 10
383.69777829717799
 20
767.98102053028515
 30
0.0
 40
6.0
 50
32.458496999997593
 51
89.999989000004106
  0
ARC
  5
DA9D
  8
0
 10
382.6977782971781
 20
760.26899053028524
 30
0.0
 40
12.5
 50
23.114595000003099
 51
89.999989000004106
  0
LINE
  5
DA9E
  8
0
 10
385.1977782971781
 20
773.78998053028522
 30
0.0
 11
385.1977782971781
 21
776.98102053028538
 31
0.0
  0
LINE
  5
DA9F
  8
0
 10
310.19777829717799
 20
773.98102053028538
 30
0.0
 11
310.19777829717799
 21
776.98102053028538
 31
0.0
  0
LINE
  5
DAA0
  8
0
 10
236.28871829717809
 20
760.74299053028517
 30
0.0
 11
232.23573829717819
 21
758.36396053028523
 31
0.0
  0
LINE
  5
DAA1
  8
0
 10
234.92176829717801
 20
737.84198053028524
 30
0.0
 11
240.42176829717801
 21
737.84198053028524
 31
0.0
  0
LINE
  5
DAA2
  8
0
 10
236.28871829717809
 20
753.41602053028521
 30
0.0
 11
232.23579829717801
 21
751.03602053028521
 31
0.0
  0
LINE
  5
DAA3
  8
0
 10
234.8877182971782
 20
751.79004053028507
 30
0.0
 11
240.4217082971781
 21
751.79310053028519
 31
0.0
  0
LINE
  5
DAA4
  8
0
 10
228.1977782971781
 20
744.84003053028539
 30
0.0
 11
228.1977782971781
 21
752.12201053028537
 31
0.0
  0
LINE
  5
DAA5
  8
0
 10
238.19777829717799
 20
741.66803053028514
 30
0.0
 11
238.19777829717799
 21
748.53095053028505
 31
0.0
  0
LINE
  5
DAA6
  8
0
 10
241.69581829717799
 20
744.8169605302852
 30
0.0
 11
235.43776829717811
 21
744.8169605302852
 31
0.0
  0
LINE
  5
DAA7
  8
0
 10
397.1067082971781
 20
760.74305053028513
 30
0.0
 11
401.15974829717828
 21
758.36402053028507
 31
0.0
  0
LINE
  5
DAA8
  8
0
 10
398.47377829717789
 20
737.84198053028524
 30
0.0
 11
392.97377829717789
 21
737.84198053028524
 31
0.0
  0
LINE
  5
DAA9
  8
0
 10
397.10676829717801
 20
753.41596053028513
 30
0.0
 11
401.15974829717828
 21
751.03595053028539
 31
0.0
  0
LINE
  5
DAAA
  8
0
 10
398.50666829717841
 20
751.78998053028522
 30
0.0
 11
392.9737182971781
 21
751.79303053028514
 31
0.0
  0
LINE
  5
DAAB
  8
0
 10
405.19777829717782
 20
744.84003053028539
 30
0.0
 11
405.19777829717782
 21
752.12201053028537
 31
0.0
  0
LINE
  5
DAAC
  8
0
 10
395.1977782971781
 20
741.66803053028514
 30
0.0
 11
395.1977782971781
 21
748.53095053028505
 31
0.0
  0
LINE
  5
DAAD
  8
0
 10
391.6987482971781
 20
744.8169605302852
 30
0.0
 11
397.95680829717821
 21
744.8169605302852
 31
0.0
  0
LINE
  5
DAAE
  8
0
 10
244.6977782971781
 20
725.98102253028514
 30
0.0
 11
244.6977782971781
 21
755.27094053028509
 31
0.0
  0
LINE
  5
DAAF
  8
0
 10
238.19777829717799
 20
730.53959453028506
 30
0.0
 11
238.19777829717799
 21
737.84198053028524
 31
0.0
  0
LINE
  5
DAB0
  8
0
 10
388.6977782971781
 20
725.98101553028539
 30
0.0
 11
388.6977782971781
 21
755.27094053028509
 31
0.0
  0
LINE
  5
DAB1
  8
0
 10
250.69777829717799
 20
765.4419605302852
 30
0.0
 11
382.6977782971781
 21
765.4419605302852
 31
0.0
  0
LINE
  5
DAB2
  8
0
 10
395.1977782971781
 20
730.53959453028506
 30
0.0
 11
395.1977782971781
 21
737.84198053028524
 31
0.0
  0
LINE
  5
DAB3
  8
0
 10
250.69777829717799
 20
718.03959453028506
 30
0.0
 11
382.6977782971781
 21
718.03959453028506
 31
0.0
  0
LINE
  5
DAB4
  8
0
 10
250.69777829717799
 20
719.98102053028538
 30
0.0
 11
382.6977782971781
 21
719.98102053028538
 31
0.0
  0
LINE
  5
DAB5
  8
0
 10
250.69777829717799
 20
761.2709405302852
 30
0.0
 11
382.6977782971781
 21
761.2709405302852
 31
0.0
  0
LINE
  5
DAB6
  8
0
 10
249.69777829717799
 20
773.98102053028538
 30
0.0
 11
383.69777829717799
 21
773.98102053028538
 31
0.0
  0
LINE
  5
DAB7
  8
0
 10
250.69777829717799
 20
772.76899053028524
 30
0.0
 11
382.6977782971781
 21
772.76899053028524
 31
0.0
  0
LINE
  5
DAB8
  8
0
 10
249.69777829717799
 20
770.98102053028515
 30
0.0
 11
383.69777829717799
 21
770.98102053028515
 31
0.0
  0
ARC
  5
DAB9
  8
0
 10
255.641422297178
 20
796.58034053028507
 30
0.0
 40
2.0
 50
189.99999999999861
 51
270.0
  0
LINE
  5
DABA
  8
0
 10
253.67180729717799
 20
796.23304453028516
 30
0.0
 11
250.69777829717799
 21
813.09959853028533
 31
0.0
  0
LINE
  5
DABB
  8
0
 10
250.69777829717799
 20
813.09959853028533
 30
0.0
 11
251.75951729717781
 21
813.09959853028533
 31
0.0
  0
LINE
  5
DABC
  8
0
 10
449.16191929717792
 20
965.15332753028508
 30
0.0
 11
449.69777829717799
 21
965.15332753028508
 31
0.0
  0
LINE
  5
DABD
  8
0
 10
449.42231029717823
 20
966.71558453028535
 30
0.0
 11
449.69777829717799
 21
966.71558453028535
 31
0.0
  0
LINE
  5
DABE
  8
0
 10
451.37597729717788
 20
790.98117153028511
 30
0.0
 11
451.69777829717771
 21
790.98117153028511
 31
0.0
  0
LINE
  5
DABF
  8
0
 10
447.51838329717788
 20
795.82903453028507
 30
0.0
 11
449.69777829717799
 21
795.82903453028507
 31
0.0
  0
LINE
  5
DAC0
  8
0
 10
448.52446629717809
 20
807.93460453028536
 30
0.0
 11
449.69777829717799
 21
807.93460453028536
 31
0.0
  0
LINE
  5
DAC1
  8
0
 10
347.69777829717799
 20
771.32505553028523
 30
0.0
 11
347.69777829717799
 21
780.50677153028505
 31
0.0
  0
ARC
  5
DAC2
  8
0
 10
445.94065829717778
 20
967.98926853028559
 30
0.0
 40
2.0
 50
9.9999999999986073
 51
90.0
  0
ARC
  5
DAC3
  8
0
 10
446.00667529717782
 20
971.53006753028535
 30
0.0
 40
2.0
 50
9.9999999999986073
 51
90.0
  0
ARC
  5
DAC4
  8
0
 10
446.09259329717821
 20
974.08180453028524
 30
0.0
 40
2.0
 50
9.9999999999986073
 51
90.0
  0
ARC
  5
DAC5
  8
0
 10
446.12134229717759
 20
975.48102053028538
 30
0.0
 40
2.0
 50
9.9999999999986073
 51
90.0
  0
LINE
  5
DAC6
  8
0
 10
454.6977812971781
 20
963.98102053028538
 30
0.0
 11
451.6977812971781
 21
966.98102053028515
 31
0.0
  0
LINE
  5
DAC7
  8
0
 10
242.19777829717799
 20
975.98099453028567
 30
0.0
 11
242.19777829717799
 21
781.98102053028538
 31
0.0
  0
LINE
  5
DAC8
  8
0
 10
449.65097429717758
 20
966.98102053028515
 30
0.0
 11
451.69777829717771
 21
966.98102053028515
 31
0.0
  0
LINE
  5
DAC9
  8
0
 10
454.69777829717788
 20
793.98102053028538
 30
0.0
 11
451.69777829717771
 21
790.98102053028538
 31
0.0
  0
LINE
  5
DACA
  8
0
 10
451.69777829717771
 20
790.98102053028538
 30
0.0
 11
451.69777829717771
 21
816.60140653028554
 31
0.0
  0
LINE
  5
DACB
  8
0
 10
454.69777829717788
 20
793.98102053028538
 30
0.0
 11
454.69777829717788
 21
963.98102053028538
 31
0.0
  0
CIRCLE
  5
DACC
  8
0
 10
347.69777829717799
 20
878.98102053028538
 30
0.0
 40
11.0
  0
LINE
  5
DACD
  8
0
 10
254.9838982971778
 20
977.48102053028538
 30
0.0
 11
306.69777829717799
 21
977.48102053028538
 31
0.0
  0
LINE
  5
DACE
  8
0
 10
386.6977782971781
 20
969.98926853028536
 30
0.0
 11
386.6977782971781
 21
975.48102053028538
 31
0.0
  0
LINE
  5
DACF
  8
0
 10
308.69777829717799
 20
969.98926853028536
 30
0.0
 11
308.69777829717799
 21
975.48102053028538
 31
0.0
  0
ARC
  5
DAD0
  8
0
 10
306.69777829717799
 20
975.48102053028538
 30
0.0
 40
2.0
 50
0.0
 51
90.0
  0
ARC
  5
DAD1
  8
0
 10
388.6977782971781
 20
975.48102053028538
 30
0.0
 40
2.0
 50
90.0
 51
180.0
  0
LINE
  5
DAD2
  8
0
 10
388.6977782971781
 20
977.48102053028538
 30
0.0
 11
446.12134229717759
 21
977.48102053028538
 31
0.0
  0
LINE
  5
DAD3
  8
0
 10
446.09259329717821
 20
976.08180453028535
 30
0.0
 11
388.6977782971781
 21
976.08180453028535
 31
0.0
  0
LINE
  5
DAD4
  8
0
 10
449.69777829717799
 20
965.15332753028508
 30
0.0
 11
448.0622092971779
 21
974.42910053028515
 31
0.0
  0
LINE
  5
DAD5
  8
0
 10
449.69777829717799
 20
966.71558453028535
 30
0.0
 11
448.09095729717808
 21
975.82831653028518
 31
0.0
  0
LINE
  5
DAD6
  8
0
 10
250.69777829717799
 20
962.69076653028515
 30
0.0
 11
253.0142832971778
 21
975.82831653028518
 31
0.0
  0
ARC
  5
DAD7
  8
0
 10
254.9838982971778
 20
975.48102053028538
 30
0.0
 40
2.0
 50
90.0
 51
170.00000000000139
  0
LINE
  5
DAD8
  8
0
 10
250.69777829717799
 20
961.03170553028542
 30
0.0
 11
253.060100297178
 21
974.42910053028515
 31
0.0
  0
ARC
  5
DAD9
  8
0
 10
255.02971629717831
 20
974.08180453028524
 30
0.0
 40
2.0
 50
90.0
 51
170.00000000000139
  0
ARC
  5
DADA
  8
0
 10
306.69777829717799
 20
974.08180453028524
 30
0.0
 40
2.0
 50
0.0
 51
90.0
  0
ARC
  5
DADB
  8
0
 10
388.6977782971781
 20
974.08180453028524
 30
0.0
 40
2.0
 50
90.0
 51
180.0
  0
LINE
  5
DADC
  8
0
 10
306.69777829717799
 20
976.08180453028535
 30
0.0
 11
255.02971629717831
 21
976.08180453028535
 31
0.0
  0
LINE
  5
DADD
  8
0
 10
446.00667529717782
 20
973.53006753028535
 30
0.0
 11
388.6977782971781
 21
973.53006753028535
 31
0.0
  0
LINE
  5
DADE
  8
0
 10
449.56899829717798
 20
962.84466953028516
 30
0.0
 11
447.97629029717791
 21
971.87736453028515
 31
0.0
  0
LINE
  5
DADF
  8
0
 10
250.69777829717799
 20
957.81091453028569
 30
0.0
 11
253.1780732971784
 21
971.87736453028515
 31
0.0
  0
ARC
  5
DAE0
  8
0
 10
255.14768829717789
 20
971.53006753028535
 30
0.0
 40
2.0
 50
90.0
 51
170.00000000000139
  0
ARC
  5
DAE1
  8
0
 10
306.69777829717799
 20
971.53006753028535
 30
0.0
 40
2.0
 50
0.0
 51
90.0
  0
ARC
  5
DAE2
  8
0
 10
388.6977782971781
 20
971.53006753028535
 30
0.0
 40
2.0
 50
90.0
 51
180.0
  0
LINE
  5
DAE3
  8
0
 10
306.69777829717799
 20
973.53006753028535
 30
0.0
 11
255.14768829717789
 21
973.53006753028535
 31
0.0
  0
LINE
  5
DAE4
  8
0
 10
445.94065829717778
 20
969.98926853028536
 30
0.0
 11
255.30919729717789
 21
969.98926853028536
 31
0.0
  0
LINE
  5
DAE5
  8
0
 10
448.87864329717831
 20
962.84466953028516
 30
0.0
 11
447.9102742971782
 21
968.33656453028539
 31
0.0
  0
LINE
  5
DAE6
  8
0
 10
250.69777829717799
 20
953.35415453028509
 30
0.0
 11
253.339581297178
 21
968.33656453028539
 31
0.0
  0
ARC
  5
DAE7
  8
0
 10
255.30919729717789
 20
967.98926853028559
 30
0.0
 40
2.0
 50
90.0
 51
170.00000000000139
  0
LINE
  5
DAE8
  8
0
 10
379.7541342971781
 20
963.38170053028523
 30
0.0
 11
255.641422297178
 21
963.38170053028523
 31
0.0
  0
LINE
  5
DAE9
  8
0
 10
384.69777829717799
 20
944.86244253028508
 30
0.0
 11
381.72374929717807
 21
961.72899653028537
 31
0.0
  0
ARC
  5
DAEA
  8
0
 10
379.7541342971781
 20
961.38170053028546
 30
0.0
 40
2.0
 50
9.9999999999986073
 51
90.0
  0
LINE
  5
DAEB
  8
0
 10
250.69777829717799
 20
944.86244253028508
 30
0.0
 11
253.67180729717799
 21
961.72899653028537
 31
0.0
  0
ARC
  5
DAEC
  8
0
 10
255.641422297178
 20
961.38170053028546
 30
0.0
 40
2.0
 50
90.0
 51
170.00000000000139
  0
LINE
  5
DAED
  8
0
 10
379.42387029717793
 20
957.97965653028564
 30
0.0
 11
255.97168629717819
 21
957.97965653028564
 31
0.0
  0
LINE
  5
DAEE
  8
0
 10
384.47672729717812
 20
938.84102053028539
 30
0.0
 11
381.39348629717819
 21
956.32695353028521
 31
0.0
  0
ARC
  5
DAEF
  8
0
 10
379.42387029717793
 20
955.97965653028518
 30
0.0
 40
2.0
 50
9.9999999999986073
 51
90.0
  0
LINE
  5
DAF0
  8
0
 10
250.97477229717791
 20
939.15828853028506
 30
0.0
 11
254.00207029717799
 21
956.32695353028521
 31
0.0
  0
ARC
  5
DAF1
  8
0
 10
255.97168629717819
 20
955.97965653028518
 30
0.0
 40
2.0
 50
90.0
 51
170.00000000000139
  0
LINE
  5
DAF2
  8
0
 10
449.69777829717799
 20
884.01117253028519
 30
0.0
 11
449.69777829717799
 21
886.95886453028515
 31
0.0
  0
LINE
  5
DAF3
  8
0
 10
449.69777829717799
 20
894.01064853028538
 30
0.0
 11
449.69777829717799
 21
896.97212753028543
 31
0.0
  0
LINE
  5
DAF4
  8
0
 10
449.69777829717799
 20
905.00282853028546
 30
0.0
 11
449.69777829717799
 21
907.99545553028508
 31
0.0
  0
LINE
  5
DAF5
  8
0
 10
449.69777829717799
 20
915.98562353028535
 30
0.0
 11
449.69777829717799
 21
919.03132953028523
 31
0.0
  0
LINE
  5
DAF6
  8
0
 10
449.69777829717799
 20
926.95550253028568
 30
0.0
 11
449.69777829717799
 21
930.08641553028519
 31
0.0
  0
LINE
  5
DAF7
  8
0
 10
449.69777829717799
 20
935.91397853028536
 30
0.0
 11
449.69777829717799
 21
939.15828853028506
 31
0.0
  0
LINE
  5
DAF8
  8
0
 10
399.69777829717799
 20
953.35415453028509
 30
0.0
 11
383.20046029717832
 21
953.35415453028509
 31
0.0
  0
LINE
  5
DAF9
  8
0
 10
431.48455529717762
 20
958.19912253028542
 30
0.0
 11
415.69777829717799
 21
958.19912253028542
 31
0.0
  0
LINE
  5
DAFA
  8
0
 10
399.69777829717799
 20
953.35415453028509
 30
0.0
 11
415.69777829717799
 21
958.19912253028542
 31
0.0
  0
LINE
  5
DAFB
  8
0
 10
415.69777829717799
 20
958.19912253028542
 30
0.0
 11
415.69777829717799
 21
954.83380753028507
 31
0.0
  0
LINE
  5
DAFC
  8
0
 10
399.69777829717799
 20
953.35415453028509
 30
0.0
 11
399.69777829717799
 21
939.15828853028506
 31
0.0
  0
LINE
  5
DAFD
  8
0
 10
435.19777829717782
 20
942.04698253028539
 30
0.0
 11
435.19777829717782
 21
960.84466953028539
 31
0.0
  0
ARC
  5
DAFE
  8
0
 10
437.19777829717799
 20
960.84466953028539
 30
0.0
 40
2.0
 50
90.0
 51
180.0
  0
LINE
  5
DAFF
  8
0
 10
435.19777829717782
 20
946.43708053028536
 30
0.0
 11
415.69777829717799
 21
946.43708053028536
 31
0.0
  0
LINE
  5
DB00
  8
0
 10
429.79778429717811
 20
954.83380753028507
 30
0.0
 11
415.69777829717799
 21
954.83380753028507
 31
0.0
  0
LINE
  5
DB01
  8
0
 10
415.69777829717799
 20
946.43708053028536
 30
0.0
 11
415.69777829717799
 21
939.15828853028506
 31
0.0
  0
ARC
  5
DB02
  8
0
  6
CONTINUOUS
 10
432.3975772971778
 20
950.46428653028522
 30
0.0
 40
2.6003989999999999
 50
179.99998200000081
 51
269.99997800000818
  0
ARC
  5
DB03
  8
0
  6
CONTINUOUS
 10
432.3975772971778
 20
955.76427453028509
 30
0.0
 40
2.600403
 50
90.0
 51
179.99998200000081
  0
LINE
  5
DB04
  8
0
  6
CONTINUOUS
 10
435.19777829717782
 20
953.18030553028518
 30
0.0
 11
433.69777829717788
 21
952.31428053028515
 31
0.0
  0
LINE
  5
DB05
  8
0
  6
CONTINUOUS
 10
435.19777829717782
 20
954.18030553028507
 30
0.0
 11
433.69777829717788
 21
953.31428053028515
 31
0.0
  0
LINE
  5
DB06
  8
0
  6
CONTINUOUS
 10
435.19777829717782
 20
959.21428053028535
 30
0.0
 11
435.19777829717782
 21
947.01428053028519
 31
0.0
  0
LINE
  5
DB07
  8
0
  6
CONTINUOUS
 10
433.69777829717788
 20
959.21428053028535
 30
0.0
 11
435.19777829717782
 21
959.21428053028535
 31
0.0
  0
LINE
  5
DB08
  8
0
  6
CONTINUOUS
 10
433.69777829717788
 20
947.01428053028519
 30
0.0
 11
435.19777829717782
 21
947.01428053028519
 31
0.0
  0
LINE
  5
DB09
  8
0
  6
CONTINUOUS
 10
429.79778429717811
 20
955.76427453028509
 30
0.0
 11
429.79778429717811
 21
950.46428653028522
 31
0.0
  0
LINE
  5
DB0A
  8
0
  6
CONTINUOUS
 10
433.69777829717788
 20
959.21428053028535
 30
0.0
 11
433.69777829717788
 21
947.01428053028519
 31
0.0
  0
LINE
  5
DB0B
  8
0
  6
CONTINUOUS
 10
433.69777829717788
 20
947.86428053028521
 30
0.0
 11
432.3975772971778
 21
947.86428053028521
 31
0.0
  0
LINE
  5
DB0C
  8
0
  6
CONTINUOUS
 10
433.69777829717788
 20
958.36428053028533
 30
0.0
 11
432.3975772971778
 21
958.36428053028533
 31
0.0
  0
LINE
  5
DB0D
  8
0
 10
454.69777829717788
 20
962.84466953028516
 30
0.0
 11
437.19777829717799
 21
962.84466953028516
 31
0.0
  0
LINE
  5
DB0E
  8
0
 10
454.69777829717788
 20
941.04698253028539
 30
0.0
 11
434.19777829717782
 21
941.04698253028539
 31
0.0
  0
ARC
  5
DB0F
  8
0
 10
434.19777829717782
 20
942.04698253028539
 30
0.0
 40
1.0
 50
270.0
 51
0.0
  0
LINE
  5
DB10
  8
0
 10
454.69777829717788
 20
954.72066453028515
 30
0.0
 11
437.19777829717799
 21
954.72066453028515
 31
0.0
  0
LINE
  5
DB11
  8
0
 10
242.19777829717799
 20
962.98102053028538
 30
0.0
 11
250.69777829717799
 21
962.98102053028538
 31
0.0
  0
ARC
  5
DB12
  8
0
 10
451.37597729717788
 20
788.98102053028515
 30
0.0
 40
2.0
 50
90.0
 51
170.00000000000139
  0
ARC
  5
DB13
  8
0
 10
387.44042029717821
 20
783.98736353028505
 30
0.0
 40
1.9936590000000001
 50
90.075931000003507
 51
178.17025399999861
  0
LINE
  5
DB14
  8
0
 10
387.43777829717777
 20
785.98102053028538
 30
0.0
 11
447.13794429717791
 21
785.98102053028538
 31
0.0
  0
LINE
  5
DB15
  8
0
 10
385.1977782971781
 20
776.98102053028538
 30
0.0
 11
385.8138072971779
 21
794.58034053028518
 31
0.0
  0
LINE
  5
DB16
  8
0
 10
449.40636229717768
 20
789.32831653028506
 30
0.0
 11
449.10755929717777
 21
787.63372453028524
 31
0.0
  0
ARC
  5
DB17
  8
0
 10
447.13794429717791
 20
787.98102053028515
 30
0.0
 40
2.0
 50
270.0
 51
350.00000000000142
  0
LINE
  5
DB18
  8
0
 10
251.2751282971781
 20
793.98102053028538
 30
0.0
 11
258.49200729717808
 21
781.48102053028538
 31
0.0
  0
LINE
  5
DB19
  8
0
 10
260.22405729717821
 20
780.48102053028515
 30
0.0
 11
308.14274929717789
 21
780.48102053028515
 31
0.0
  0
LINE
  5
DB1A
  8
0
 10
310.19777829717799
 20
776.98102053028538
 30
0.0
 11
310.14146629717789
 21
778.5526355302851
 31
0.0
  0
ARC
  5
DB1B
  8
0
 10
249.54307729717809
 20
792.98102053028515
 30
0.0
 40
2.0
 50
30.000000000000551
 51
90.0
  0
ARC
  5
DB1C
  8
0
 10
260.22405729717821
 20
782.48102053028538
 30
0.0
 40
2.0
 50
210.00000000000051
 51
270.0
  0
ARC
  5
DB1D
  8
0
 10
308.14274929717789
 20
778.48102053028538
 30
0.0
 40
2.0
 50
2.0520649999985339
 51
90.0
  0
LINE
  5
DB1E
  8
0
 10
310.19777829717799
 20
776.98102053028538
 30
0.0
 11
385.1977782971781
 21
776.98102053028538
 31
0.0
  0
LINE
  5
DB1F
  8
0
 10
259.22405729717821
 20
780.74896953028519
 30
0.0
 11
259.22405729717821
 21
794.58034053028518
 31
0.0
  0
LINE
  5
DB20
  8
0
 10
445.66486229717782
 20
794.58034053028518
 30
0.0
 11
255.641422297178
 21
794.58034053028518
 31
0.0
  0
LINE
  5
DB21
  8
0
 10
445.4440762971779
 20
799.98238453028523
 30
0.0
 11
255.75063529717821
 21
799.98238453028523
 31
0.0
  0
LINE
  5
DB22
  8
0
 10
449.69777829717799
 20
814.58878653028546
 30
0.0
 11
415.69777829717799
 21
814.58878653028546
 31
0.0
  0
LINE
  5
DB23
  8
0
 10
449.69777829717799
 20
814.58878653028546
 30
0.0
 11
447.41369129717782
 21
801.63508753028509
 31
0.0
  0
ARC
  5
DB24
  8
0
 10
445.4440762971779
 20
801.98238453028534
 30
0.0
 40
2.0
 50
270.0
 51
350.00000000000142
  0
LINE
  5
DB25
  8
0
 10
449.69777829717799
 20
807.93460453028536
 30
0.0
 11
447.63447729717791
 21
796.23304453028516
 31
0.0
  0
ARC
  5
DB26
  8
0
 10
445.66486229717782
 20
796.58034053028507
 30
0.0
 40
2.0
 50
270.0
 51
350.00000000000142
  0
LINE
  5
DB27
  8
0
 10
254.44051629717799
 20
794.98102053028538
 30
0.0
 11
242.19777829717799
 21
794.98102053028538
 31
0.0
  0
LINE
  5
DB28
  8
0
 10
449.69777829717799
 20
795.82903453028507
 30
0.0
 11
448.25272429717819
 21
787.63372453028524
 31
0.0
  0
ARC
  5
DB29
  8
0
 10
446.28310829717788
 20
787.98102053028515
 30
0.0
 40
2.0
 50
270.0
 51
350.00000000000142
  0
LINE
  5
DB2A
  8
0
 10
384.69777829717799
 20
830.82102053028518
 30
0.0
 11
384.69777829717799
 21
828.12102053028514
 31
0.0
  0
LINE
  5
DB2B
  8
0
 10
454.69777829717788
 20
816.77138353028545
 30
0.0
 11
437.19777829717799
 21
816.77138353028545
 31
0.0
  0
LINE
  5
DB2C
  8
0
 10
454.69777829717788
 20
829.07902253028533
 30
0.0
 11
437.19777829717799
 21
829.07902253028533
 31
0.0
  0
LINE
  5
DB2D
  8
0
 10
454.69777829717788
 20
839.25831453028536
 30
0.0
 11
449.69777829717799
 21
839.25831453028536
 31
0.0
  0
LINE
  5
DB2E
  8
0
 10
435.19777829717782
 20
838.25831453028536
 30
0.0
 11
435.19777829717782
 21
818.77138353028533
 31
0.0
  0
ARC
  5
DB2F
  8
0
 10
434.19777829717782
 20
838.25831453028536
 30
0.0
 40
1.0
 50
0.0
 51
42.252324000004279
  0
ARC
  5
DB30
  8
0
 10
437.19777829717799
 20
818.77138353028533
 30
0.0
 40
2.0
 50
180.0
 51
270.0
  0
LINE
  5
DB31
  8
0
 10
399.69777829717799
 20
935.91397853028536
 30
0.0
 11
399.69777829717799
 21
930.08641553028519
 31
0.0
  0
LINE
  5
DB32
  8
0
 10
415.69777829717799
 20
935.91397853028536
 30
0.0
 11
415.69777829717799
 21
930.08641553028519
 31
0.0
  0
LINE
  5
DB33
  8
0
 10
399.69777829717799
 20
926.95550253028568
 30
0.0
 11
399.69777829717799
 21
919.03132953028523
 31
0.0
  0
LINE
  5
DB34
  8
0
 10
399.69777829717799
 20
915.98562353028535
 30
0.0
 11
399.69777829717799
 21
907.99545553028508
 31
0.0
  0
LINE
  5
DB35
  8
0
 10
399.69777829717799
 20
905.00282853028546
 30
0.0
 11
399.69777829717799
 21
896.97212753028543
 31
0.0
  0
LINE
  5
DB36
  8
0
 10
399.69777829717799
 20
894.01064853028538
 30
0.0
 11
399.69777829717799
 21
886.95886453028515
 31
0.0
  0
LINE
  5
DB37
  8
0
 10
399.69777829717799
 20
884.14102053028546
 30
0.0
 11
399.69777829717799
 21
873.95086853028545
 31
0.0
  0
LINE
  5
DB38
  8
0
 10
415.69777829717799
 20
884.14102053028546
 30
0.0
 11
415.69777829717799
 21
873.95086853028545
 31
0.0
  0
LINE
  5
DB39
  8
0
 10
415.69777829717799
 20
894.01064853028538
 30
0.0
 11
415.69777829717799
 21
886.95886453028515
 31
0.0
  0
LINE
  5
DB3A
  8
0
 10
415.69777829717799
 20
905.00282853028546
 30
0.0
 11
415.69777829717799
 21
896.97212753028543
 31
0.0
  0
LINE
  5
DB3B
  8
0
 10
415.69777829717799
 20
915.98562353028535
 30
0.0
 11
415.69777829717799
 21
907.99545553028508
 31
0.0
  0
LINE
  5
DB3C
  8
0
 10
415.69777829717799
 20
926.95550253028568
 30
0.0
 11
415.69777829717799
 21
919.03132953028523
 31
0.0
  0
LINE
  5
DB3D
  8
0
 10
399.69777829717799
 20
871.00317653028537
 30
0.0
 11
399.69777829717799
 21
863.95139253028515
 31
0.0
  0
LINE
  5
DB3E
  8
0
 10
415.69777829717799
 20
871.00317653028537
 30
0.0
 11
415.69777829717799
 21
863.95139253028515
 31
0.0
  0
LINE
  5
DB3F
  8
0
 10
415.69777829717799
 20
860.98991353028521
 30
0.0
 11
415.69777829717799
 21
852.95921253028507
 31
0.0
  0
LINE
  5
DB40
  8
0
 10
399.69777829717799
 20
860.98991353028521
 30
0.0
 11
399.69777829717799
 21
852.95921253028507
 31
0.0
  0
LINE
  5
DB41
  8
0
 10
399.69777829717799
 20
849.96658553028522
 30
0.0
 11
399.69777829717799
 21
841.97641753028518
 31
0.0
  0
LINE
  5
DB42
  8
0
 10
415.69777829717799
 20
849.96658553028522
 30
0.0
 11
415.69777829717799
 21
841.97641753028518
 31
0.0
  0
LINE
  5
DB43
  8
0
 10
430.24717329717782
 20
822.96022453028513
 30
0.0
 11
415.69777729717822
 21
822.96022453028513
 31
0.0
  0
LINE
  5
DB44
  8
0
 10
435.19777829717782
 20
834.37257453028553
 30
0.0
 11
415.69777729717822
 21
834.37257453028553
 31
0.0
  0
LINE
  5
DB45
  8
0
 10
399.69777829717799
 20
838.93071153028518
 30
0.0
 11
399.69777829717799
 21
818.93071153028507
 31
0.0
  0
LINE
  5
DB46
  8
0
 10
451.69777829717771
 20
962.84466953028516
 30
0.0
 11
451.69777829717771
 21
966.98102053028515
 31
0.0
  0
LINE
  5
DB47
  8
0
 10
449.69777829717799
 20
792.77927653028519
 30
0.0
 11
448.79047829717808
 21
787.63372453028524
 31
0.0
  0
ARC
  5
DB48
  8
0
 10
446.82086329717811
 20
787.98102053028515
 30
0.0
 40
2.0
 50
270.0
 51
350.00000000000142
  0
LINE
  5
DB49
  8
0
 10
415.69777829717799
 20
838.93071153028518
 30
0.0
 11
415.69777829717799
 21
834.37257453028553
 31
0.0
  0
LINE
  5
DB4A
  8
0
 10
451.69777829717771
 20
839.25831453028536
 30
0.0
 11
451.69777829717771
 21
941.04698253028539
 31
0.0
  0
LINE
  5
DB4B
  8
0
 10
250.69777829717799
 20
819.12102053028514
 30
0.0
 11
253.7810202971782
 21
801.63508753028509
 31
0.0
  0
ARC
  5
DB4C
  8
0
 10
255.75063529717821
 20
801.98238453028534
 30
0.0
 40
2.0
 50
189.99999999999861
 51
270.0
  0
LINE
  5
DB4D
  8
0
 10
400.4031752971776
 20
827.67531453028505
 30
0.0
 11
415.69777829717799
 21
822.96022453028513
 31
0.0
  0
LINE
  5
DB4E
  8
0
 10
415.69777829717799
 20
834.37257453028553
 30
0.0
 11
400.6618372971779
 21
833.83182353028508
 31
0.0
  0
LINE
  5
DB4F
  8
0
 10
415.69777829717799
 20
822.96022453028513
 30
0.0
 11
415.69777829717799
 21
814.58878653028546
 31
0.0
  0
ARC
  5
DB50
  8
0
 10
400.69777829717782
 20
832.83246953028515
 30
0.0
 40
1.0
 50
92.059690999990565
 51
180.0
  0
ARC
  5
DB51
  8
0
 10
400.69777829717782
 20
828.63093453028534
 30
0.0
 40
1.0
 50
180.0
 51
252.8662750000021
  0
LINE
  5
DB52
  8
0
 10
415.69777829717799
 20
954.83380753028507
 30
0.0
 11
400.39731929717789
 21
950.01394153028536
 31
0.0
  0
LINE
  5
DB53
  8
0
 10
400.7463332971779
 20
945.71026053028515
 30
0.0
 11
415.69777829717799
 21
946.43708053028536
 31
0.0
  0
ARC
  5
DB54
  8
0
 10
400.69777829717782
 20
949.06014653028524
 30
0.0
 40
1.0
 50
107.4851790000144
 51
180.0
  0
ARC
  5
DB55
  8
0
 10
400.69777829717782
 20
946.70908153028506
 30
0.0
 40
1.0
 50
180.0
 51
270.0
  0
ARC
  5
DB56
  8
0
  6
CONTINUOUS
 10
432.3975772971778
 20
824.42235953028523
 30
0.0
 40
2.6003989999999999
 50
179.99998200000081
 51
269.99997800000818
  0
ARC
  5
DB57
  8
0
  6
CONTINUOUS
 10
432.3975772971778
 20
829.72234753028511
 30
0.0
 40
2.600403
 50
90.0
 51
179.99998200000081
  0
LINE
  5
DB58
  8
0
  6
CONTINUOUS
 10
435.19777829717782
 20
827.13837853028542
 30
0.0
 11
433.69777829717788
 21
826.27235353028516
 31
0.0
  0
LINE
  5
DB59
  8
0
  6
CONTINUOUS
 10
435.19777829717782
 20
828.13837853028519
 30
0.0
 11
433.69777829717788
 21
827.27235353028505
 31
0.0
  0
LINE
  5
DB5A
  8
0
  6
CONTINUOUS
 10
435.19777829717782
 20
833.17235353028514
 30
0.0
 11
435.19777829717782
 21
820.97235353028532
 31
0.0
  0
LINE
  5
DB5B
  8
0
  6
CONTINUOUS
 10
433.69777829717788
 20
833.17235353028514
 30
0.0
 11
435.19777829717782
 21
833.17235353028514
 31
0.0
  0
LINE
  5
DB5C
  8
0
  6
CONTINUOUS
 10
433.69777829717788
 20
820.97235353028532
 30
0.0
 11
435.19777829717782
 21
820.97235353028532
 31
0.0
  0
LINE
  5
DB5D
  8
0
  6
CONTINUOUS
 10
429.79778429717811
 20
829.72234753028511
 30
0.0
 11
429.79778429717811
 21
824.42235953028523
 31
0.0
  0
LINE
  5
DB5E
  8
0
  6
CONTINUOUS
 10
433.69777829717788
 20
833.17235353028514
 30
0.0
 11
433.69777829717788
 21
820.97235353028532
 31
0.0
  0
LINE
  5
DB5F
  8
0
  6
CONTINUOUS
 10
433.69777829717788
 20
821.82235353028523
 30
0.0
 11
432.3975772971778
 21
821.82235353028523
 31
0.0
  0
LINE
  5
DB60
  8
0
  6
CONTINUOUS
 10
433.69777829717788
 20
832.32235353028534
 30
0.0
 11
432.3975772971778
 21
832.32235353028534
 31
0.0
  0
LINE
  5
DB61
  8
0
 10
449.69777829717799
 20
939.15828853028506
 30
0.0
 11
250.69777829717799
 21
939.15828853028506
 31
0.0
  0
LINE
  5
DB62
  8
0
 10
449.69777829717799
 20
935.91397853028536
 30
0.0
 11
250.69777829717799
 21
935.91397853028536
 31
0.0
  0
LINE
  5
DB63
  8
0
 10
449.69777829717799
 20
930.08641553028519
 30
0.0
 11
250.69777829717799
 21
930.08641553028519
 31
0.0
  0
LINE
  5
DB64
  8
0
 10
449.69777829717799
 20
926.95550253028568
 30
0.0
 11
250.69777829717799
 21
926.95550253028568
 31
0.0
  0
LINE
  5
DB65
  8
0
 10
449.69777829717799
 20
919.03132953028523
 30
0.0
 11
250.69777829717799
 21
919.03132953028523
 31
0.0
  0
LINE
  5
DB66
  8
0
 10
449.69777829717799
 20
915.98562353028535
 30
0.0
 11
250.69777829717799
 21
915.98562353028535
 31
0.0
  0
LINE
  5
DB67
  8
0
 10
449.69777829717799
 20
907.99545553028508
 30
0.0
 11
250.69777829717799
 21
907.99545553028508
 31
0.0
  0
LINE
  5
DB68
  8
0
 10
449.69777829717799
 20
905.00282853028546
 30
0.0
 11
250.69777829717799
 21
905.00282853028546
 31
0.0
  0
LINE
  5
DB69
  8
0
 10
449.69777829717799
 20
896.97212753028543
 30
0.0
 11
250.69777829717799
 21
896.97212753028543
 31
0.0
  0
LINE
  5
DB6A
  8
0
 10
449.69777829717799
 20
894.01064853028538
 30
0.0
 11
250.69777829717799
 21
894.01064853028538
 31
0.0
  0
LINE
  5
DB6B
  8
0
 10
449.69777829717799
 20
886.95886453028515
 30
0.0
 11
355.27102129717792
 21
886.95886453028515
 31
0.0
  0
LINE
  5
DB6C
  8
0
 10
449.69777829717799
 20
884.01117253028519
 30
0.0
 11
362.08342529717811
 21
884.01117253028519
 31
0.0
  0
LINE
  5
DB6D
  8
0
 10
447.61885729717812
 20
938.48102053028515
 30
0.0
 11
447.61885729717812
 21
936.48102053028538
 31
0.0
  0
LINE
  5
DB6E
  8
0
 10
252.77669929717831
 20
936.48102053028538
 30
0.0
 11
447.61885729717812
 21
936.48102053028538
 31
0.0
  0
LINE
  5
DB6F
  8
0
 10
252.77669929717831
 20
938.48102053028515
 30
0.0
 11
447.61885729717812
 21
938.48102053028515
 31
0.0
  0
LINE
  5
DB70
  8
0
 10
252.77669929717831
 20
927.48102053028538
 30
0.0
 11
447.61885729717812
 21
927.48102053028538
 31
0.0
  0
LINE
  5
DB71
  8
0
 10
252.77669929717831
 20
929.48102053028515
 30
0.0
 11
447.61885729717812
 21
929.48102053028515
 31
0.0
  0
LINE
  5
DB72
  8
0
 10
252.77669929717831
 20
916.48102053028538
 30
0.0
 11
447.61885729717812
 21
916.48102053028538
 31
0.0
  0
LINE
  5
DB73
  8
0
 10
252.77669929717831
 20
918.48102053028538
 30
0.0
 11
447.61885729717812
 21
918.48102053028538
 31
0.0
  0
LINE
  5
DB74
  8
0
 10
252.77669929717831
 20
905.48102053028515
 30
0.0
 11
447.61885729717812
 21
905.48102053028515
 31
0.0
  0
LINE
  5
DB75
  8
0
 10
252.77669929717831
 20
907.48102053028515
 30
0.0
 11
447.61885729717812
 21
907.48102053028515
 31
0.0
  0
LINE
  5
DB76
  8
0
 10
252.77669929717831
 20
894.48102053028538
 30
0.0
 11
447.61885729717812
 21
894.48102053028538
 31
0.0
  0
LINE
  5
DB77
  8
0
 10
252.77669929717831
 20
896.48102053028515
 30
0.0
 11
447.61885729717812
 21
896.48102053028515
 31
0.0
  0
LINE
  5
DB78
  8
0
 10
361.47275529717808
 20
884.48102053028538
 30
0.0
 11
447.61885729717812
 21
884.48102053028538
 31
0.0
  0
LINE
  5
DB79
  8
0
 10
355.744516297178
 20
886.48102053028538
 30
0.0
 11
447.61885729717812
 21
886.48102053028538
 31
0.0
  0
LINE
  5
DB7A
  8
0
 10
447.61885729717812
 20
938.48102053028515
 30
0.0
 11
449.69777829717799
 21
939.15828853028506
 31
0.0
  0
LINE
  5
DB7B
  8
0
 10
447.61885729717812
 20
936.48102053028538
 30
0.0
 11
449.69777829717799
 21
935.91397853028536
 31
0.0
  0
LINE
  5
DB7C
  8
0
 10
447.61885729717812
 20
929.48102053028515
 30
0.0
 11
449.69777829717799
 21
930.08641553028519
 31
0.0
  0
LINE
  5
DB7D
  8
0
 10
447.61885729717812
 20
927.48102053028538
 30
0.0
 11
449.69777829717799
 21
926.95550253028568
 31
0.0
  0
LINE
  5
DB7E
  8
0
 10
447.61885729717812
 20
918.48102053028538
 30
0.0
 11
449.69777829717799
 21
919.03132953028523
 31
0.0
  0
LINE
  5
DB7F
  8
0
 10
447.61885729717812
 20
916.48102053028538
 30
0.0
 11
449.69777829717799
 21
915.98562353028535
 31
0.0
  0
LINE
  5
DB80
  8
0
 10
447.61885729717812
 20
907.48102053028515
 30
0.0
 11
449.69777829717799
 21
907.99545553028508
 31
0.0
  0
LINE
  5
DB81
  8
0
 10
447.61885729717812
 20
905.48102053028515
 30
0.0
 11
449.69777829717799
 21
905.00282853028546
 31
0.0
  0
LINE
  5
DB82
  8
0
 10
447.61885729717812
 20
896.48102053028515
 30
0.0
 11
449.69777829717799
 21
896.97212753028543
 31
0.0
  0
LINE
  5
DB83
  8
0
 10
447.61885729717812
 20
894.48102053028538
 30
0.0
 11
449.69777829717799
 21
894.01064853028538
 31
0.0
  0
LINE
  5
DB84
  8
0
 10
447.61885729717812
 20
886.48102053028538
 30
0.0
 11
449.69777829717799
 21
886.95886453028515
 31
0.0
  0
LINE
  5
DB85
  8
0
 10
447.61885729717812
 20
884.48102053028538
 30
0.0
 11
449.69777829717799
 21
884.01117253028519
 31
0.0
  0
LINE
  5
DB86
  8
0
 10
447.61885729717812
 20
929.48102053028515
 30
0.0
 11
447.61885729717812
 21
927.48102053028538
 31
0.0
  0
LINE
  5
DB87
  8
0
 10
447.61885729717812
 20
918.48102053028538
 30
0.0
 11
447.61885729717812
 21
916.48102053028538
 31
0.0
  0
LINE
  5
DB88
  8
0
 10
447.61885729717812
 20
907.48102053028515
 30
0.0
 11
447.61885729717812
 21
905.48102053028515
 31
0.0
  0
LINE
  5
DB89
  8
0
 10
447.61885729717812
 20
896.48102053028515
 30
0.0
 11
447.61885729717812
 21
894.48102053028538
 31
0.0
  0
LINE
  5
DB8A
  8
0
 10
447.61885729717812
 20
886.48102053028538
 30
0.0
 11
447.61885729717812
 21
884.48102053028538
 31
0.0
  0
ARC
  5
DB8B
  8
0
 10
361.47275529717808
 20
881.48102053028515
 30
0.0
 40
3.0
 50
90.0
 51
190.2865610000006
  0
ARC
  5
DB8C
  8
0
 10
362.08342529717811
 20
880.54117253028505
 30
0.0
 40
3.4700000000000002
 50
90.0
 51
186.1896490000004
  0
LINE
  5
DB8D
  8
0
 10
267.77669929717831
 20
886.48102053028538
 30
0.0
 11
267.77669929717831
 21
884.48102053028538
 31
0.0
  0
LINE
  5
DB8E
  8
0
 10
252.77669929717831
 20
896.48102053028515
 30
0.0
 11
252.77669929717831
 21
894.48102053028538
 31
0.0
  0
LINE
  5
DB8F
  8
0
 10
252.77669929717831
 20
907.48102053028515
 30
0.0
 11
252.77669929717831
 21
905.48102053028515
 31
0.0
  0
LINE
  5
DB90
  8
0
 10
252.77669929717831
 20
918.48102053028538
 30
0.0
 11
252.77669929717831
 21
916.48102053028538
 31
0.0
  0
LINE
  5
DB91
  8
0
 10
252.77669929717831
 20
929.48102053028515
 30
0.0
 11
252.77669929717831
 21
927.48102053028538
 31
0.0
  0
LINE
  5
DB92
  8
0
 10
267.77669929717831
 20
884.48102053028538
 30
0.0
 11
265.6977782971781
 21
884.01117253028519
 31
0.0
  0
LINE
  5
DB93
  8
0
 10
267.77669929717831
 20
886.48102053028538
 30
0.0
 11
265.6977782971781
 21
886.95886453028515
 31
0.0
  0
LINE
  5
DB94
  8
0
 10
252.77669929717831
 20
894.48102053028538
 30
0.0
 11
250.69777829717799
 21
894.01064853028538
 31
0.0
  0
LINE
  5
DB95
  8
0
 10
252.77669929717831
 20
896.48102053028515
 30
0.0
 11
250.69777829717799
 21
896.97212753028543
 31
0.0
  0
LINE
  5
DB96
  8
0
 10
252.77669929717831
 20
905.48102053028515
 30
0.0
 11
250.69777829717799
 21
905.00282853028546
 31
0.0
  0
LINE
  5
DB97
  8
0
 10
252.77669929717831
 20
907.48102053028515
 30
0.0
 11
250.69777829717799
 21
907.99545553028508
 31
0.0
  0
LINE
  5
DB98
  8
0
 10
252.77669929717831
 20
916.48102053028538
 30
0.0
 11
250.69777829717799
 21
915.98562353028535
 31
0.0
  0
LINE
  5
DB99
  8
0
 10
252.77669929717831
 20
918.48102053028538
 30
0.0
 11
250.69777829717799
 21
919.03132953028523
 31
0.0
  0
LINE
  5
DB9A
  8
0
 10
252.77669929717831
 20
927.48102053028538
 30
0.0
 11
250.69777829717799
 21
926.95550253028568
 31
0.0
  0
LINE
  5
DB9B
  8
0
 10
252.77669929717831
 20
929.48102053028515
 30
0.0
 11
250.69777829717799
 21
930.08641553028519
 31
0.0
  0
LINE
  5
DB9C
  8
0
 10
252.77669929717831
 20
936.48102053028538
 30
0.0
 11
250.69777829717799
 21
935.91397853028536
 31
0.0
  0
LINE
  5
DB9D
  8
0
 10
252.77669929717831
 20
938.48102053028515
 30
0.0
 11
250.69777829717799
 21
939.15828853028506
 31
0.0
  0
LINE
  5
DB9E
  8
0
 10
252.77669929717831
 20
938.48102053028515
 30
0.0
 11
252.77669929717831
 21
936.48102053028538
 31
0.0
  0
LINE
  5
DB9F
  8
0
 10
250.69777829717799
 20
935.91397853028536
 30
0.0
 11
250.69777829717799
 21
939.15828853028506
 31
0.0
  0
LINE
  5
DBA0
  8
0
 10
250.69777829717799
 20
926.95550253028568
 30
0.0
 11
250.69777829717799
 21
930.08641553028519
 31
0.0
  0
LINE
  5
DBA1
  8
0
 10
250.69777829717799
 20
915.98562353028535
 30
0.0
 11
250.69777829717799
 21
919.03132953028523
 31
0.0
  0
LINE
  5
DBA2
  8
0
 10
250.69777829717799
 20
905.00282853028546
 30
0.0
 11
250.69777829717799
 21
907.99545553028508
 31
0.0
  0
LINE
  5
DBA3
  8
0
 10
250.69777829717799
 20
894.01064853028538
 30
0.0
 11
250.69777829717799
 21
896.97212753028543
 31
0.0
  0
LINE
  5
DBA4
  8
0
 10
265.6977782971781
 20
884.01117253028519
 30
0.0
 11
265.6977782971781
 21
886.95886453028515
 31
0.0
  0
LINE
  5
DBA5
  8
0
 10
265.6977782971781
 20
886.95886453028515
 30
0.0
 11
340.12453529717823
 21
886.95886453028515
 31
0.0
  0
LINE
  5
DBA6
  8
0
 10
265.6977782971781
 20
884.01117253028519
 30
0.0
 11
333.31213129717798
 21
884.01117253028519
 31
0.0
  0
LINE
  5
DBA7
  8
0
 10
333.92280129717801
 20
884.48102053028538
 30
0.0
 11
267.77669929717831
 21
884.48102053028538
 31
0.0
  0
LINE
  5
DBA8
  8
0
 10
339.65104029717799
 20
886.48102053028538
 30
0.0
 11
267.77669929717831
 21
886.48102053028538
 31
0.0
  0
ARC
  5
DBA9
  8
0
 10
333.92280129717801
 20
881.48102053028515
 30
0.0
 40
3.0
 50
349.71343899999943
 51
90.0
  0
ARC
  5
DBAA
  8
0
 10
333.31213129717798
 20
880.54117253028505
 30
0.0
 40
3.4700000000000002
 50
353.81035099999951
 51
90.0
  0
LINE
  5
DBAB
  8
0
 10
449.69777829717799
 20
838.93071153028518
 30
0.0
 11
250.69777829717799
 21
838.93071153028518
 31
0.0
  0
LINE
  5
DBAC
  8
0
 10
449.69777829717799
 20
841.97641753028518
 30
0.0
 11
250.69777829717799
 21
841.97641753028518
 31
0.0
  0
LINE
  5
DBAD
  8
0
 10
449.69777829717799
 20
849.96658553028522
 30
0.0
 11
250.69777829717799
 21
849.96658553028522
 31
0.0
  0
LINE
  5
DBAE
  8
0
 10
449.69777829717799
 20
852.95921253028507
 30
0.0
 11
250.69777829717799
 21
852.95921253028507
 31
0.0
  0
LINE
  5
DBAF
  8
0
 10
449.69777829717799
 20
860.98991353028521
 30
0.0
 11
250.69777829717799
 21
860.98991353028521
 31
0.0
  0
LINE
  5
DBB0
  8
0
 10
449.69777829717799
 20
863.95139253028515
 30
0.0
 11
250.69777829717799
 21
863.95139253028515
 31
0.0
  0
LINE
  5
DBB1
  8
0
 10
252.77669929717831
 20
841.48102053028515
 30
0.0
 11
447.61885729717812
 21
841.48102053028515
 31
0.0
  0
LINE
  5
DBB2
  8
0
 10
252.77669929717831
 20
839.48102053028515
 30
0.0
 11
447.61885729717812
 21
839.48102053028515
 31
0.0
  0
LINE
  5
DBB3
  8
0
 10
252.77669929717831
 20
852.48102053028538
 30
0.0
 11
447.61885729717812
 21
852.48102053028538
 31
0.0
  0
LINE
  5
DBB4
  8
0
 10
252.77669929717831
 20
850.48102053028538
 30
0.0
 11
447.61885729717812
 21
850.48102053028538
 31
0.0
  0
LINE
  5
DBB5
  8
0
 10
252.77669929717831
 20
863.48102053028515
 30
0.0
 11
447.61885729717812
 21
863.48102053028515
 31
0.0
  0
LINE
  5
DBB6
  8
0
 10
252.77669929717831
 20
861.48102053028538
 30
0.0
 11
447.61885729717812
 21
861.48102053028538
 31
0.0
  0
LINE
  5
DBB7
  8
0
 10
265.6977782971781
 20
871.00317653028537
 30
0.0
 11
340.12453529717823
 21
871.00317653028537
 31
0.0
  0
LINE
  5
DBB8
  8
0
 10
265.6977782971781
 20
873.95086853028545
 30
0.0
 11
333.31213129717798
 21
873.95086853028545
 31
0.0
  0
LINE
  5
DBB9
  8
0
 10
333.92280129717801
 20
873.48102053028515
 30
0.0
 11
267.77669929717831
 21
873.48102053028515
 31
0.0
  0
LINE
  5
DBBA
  8
0
 10
339.65104029717799
 20
871.48102053028515
 30
0.0
 11
267.77669929717831
 21
871.48102053028515
 31
0.0
  0
LINE
  5
DBBB
  8
0
 10
265.6977782971781
 20
873.95086853028545
 30
0.0
 11
265.6977782971781
 21
871.00317653028537
 31
0.0
  0
LINE
  5
DBBC
  8
0
 10
250.69777829717799
 20
863.95139253028515
 30
0.0
 11
250.69777829717799
 21
860.98991353028521
 31
0.0
  0
LINE
  5
DBBD
  8
0
 10
250.69777829717799
 20
852.95921253028507
 30
0.0
 11
250.69777829717799
 21
849.96658553028522
 31
0.0
  0
LINE
  5
DBBE
  8
0
 10
250.69777829717799
 20
841.97641753028518
 30
0.0
 11
250.69777829717799
 21
838.93071153028518
 31
0.0
  0
LINE
  5
DBBF
  8
0
 10
252.77669929717831
 20
839.48102053028515
 30
0.0
 11
250.69777829717799
 21
838.93071153028518
 31
0.0
  0
LINE
  5
DBC0
  8
0
 10
252.77669929717831
 20
841.48102053028515
 30
0.0
 11
250.69777829717799
 21
841.97641753028518
 31
0.0
  0
LINE
  5
DBC1
  8
0
 10
252.77669929717831
 20
850.48102053028538
 30
0.0
 11
250.69777829717799
 21
849.96658553028522
 31
0.0
  0
LINE
  5
DBC2
  8
0
 10
252.77669929717831
 20
852.48102053028538
 30
0.0
 11
250.69777829717799
 21
852.95921253028507
 31
0.0
  0
LINE
  5
DBC3
  8
0
 10
252.77669929717831
 20
861.48102053028538
 30
0.0
 11
250.69777829717799
 21
860.98991353028521
 31
0.0
  0
LINE
  5
DBC4
  8
0
 10
252.77669929717831
 20
863.48102053028515
 30
0.0
 11
250.69777829717799
 21
863.95139253028515
 31
0.0
  0
LINE
  5
DBC5
  8
0
 10
267.77669929717831
 20
871.48102053028515
 30
0.0
 11
265.6977782971781
 21
871.00317653028537
 31
0.0
  0
LINE
  5
DBC6
  8
0
 10
267.77669929717831
 20
873.48102053028515
 30
0.0
 11
265.6977782971781
 21
873.95086853028545
 31
0.0
  0
LINE
  5
DBC7
  8
0
 10
252.77669929717831
 20
839.48102053028515
 30
0.0
 11
252.77669929717831
 21
841.48102053028515
 31
0.0
  0
LINE
  5
DBC8
  8
0
 10
252.77669929717831
 20
850.48102053028538
 30
0.0
 11
252.77669929717831
 21
852.48102053028538
 31
0.0
  0
LINE
  5
DBC9
  8
0
 10
252.77669929717831
 20
861.48102053028538
 30
0.0
 11
252.77669929717831
 21
863.48102053028515
 31
0.0
  0
LINE
  5
DBCA
  8
0
 10
267.77669929717831
 20
871.48102053028515
 30
0.0
 11
267.77669929717831
 21
873.48102053028515
 31
0.0
  0
ARC
  5
DBCB
  8
0
 10
333.92280129717801
 20
876.48102053028538
 30
0.0
 40
3.0
 50
270.0
 51
10.286561000000651
  0
ARC
  5
DBCC
  8
0
 10
333.31213129717798
 20
877.42086853028536
 30
0.0
 40
3.4700000000000002
 50
270.0
 51
6.1896490000005366
  0
LINE
  5
DBCD
  8
0
 10
449.69777829717799
 20
871.00317653028537
 30
0.0
 11
355.27102129717792
 21
871.00317653028537
 31
0.0
  0
LINE
  5
DBCE
  8
0
 10
449.69777829717799
 20
873.95086853028545
 30
0.0
 11
362.08342529717811
 21
873.95086853028545
 31
0.0
  0
LINE
  5
DBCF
  8
0
 10
361.47275529717808
 20
873.48102053028515
 30
0.0
 11
447.61885729717812
 21
873.48102053028515
 31
0.0
  0
LINE
  5
DBD0
  8
0
 10
355.744516297178
 20
871.48102053028515
 30
0.0
 11
447.61885729717812
 21
871.48102053028515
 31
0.0
  0
ARC
  5
DBD1
  8
0
 10
361.47275529717808
 20
876.48102053028538
 30
0.0
 40
3.0
 50
169.71343899999931
 51
270.0
  0
ARC
  5
DBD2
  8
0
 10
362.08342529717811
 20
877.42086853028536
 30
0.0
 40
3.4700000000000002
 50
173.8103509999994
 51
270.0
  0
LINE
  5
DBD3
  8
0
 10
447.61885729717812
 20
871.48102053028515
 30
0.0
 11
447.61885729717812
 21
873.48102053028515
 31
0.0
  0
LINE
  5
DBD4
  8
0
 10
447.61885729717812
 20
861.48102053028538
 30
0.0
 11
447.61885729717812
 21
863.48102053028515
 31
0.0
  0
LINE
  5
DBD5
  8
0
 10
447.61885729717812
 20
850.48102053028538
 30
0.0
 11
447.61885729717812
 21
852.48102053028538
 31
0.0
  0
LINE
  5
DBD6
  8
0
 10
447.61885729717812
 20
839.48102053028515
 30
0.0
 11
447.61885729717812
 21
841.48102053028515
 31
0.0
  0
LINE
  5
DBD7
  8
0
 10
447.61885729717812
 20
873.48102053028515
 30
0.0
 11
449.69777829717799
 21
873.95086853028545
 31
0.0
  0
LINE
  5
DBD8
  8
0
 10
447.61885729717812
 20
871.48102053028515
 30
0.0
 11
449.69777829717799
 21
871.00317653028537
 31
0.0
  0
LINE
  5
DBD9
  8
0
 10
447.61885729717812
 20
863.48102053028515
 30
0.0
 11
449.69777829717799
 21
863.95139253028515
 31
0.0
  0
LINE
  5
DBDA
  8
0
 10
447.61885729717812
 20
861.48102053028538
 30
0.0
 11
449.69777829717799
 21
860.98991353028521
 31
0.0
  0
LINE
  5
DBDB
  8
0
 10
447.61885729717812
 20
852.48102053028538
 30
0.0
 11
449.69777829717799
 21
852.95921253028507
 31
0.0
  0
LINE
  5
DBDC
  8
0
 10
447.61885729717812
 20
850.48102053028538
 30
0.0
 11
449.69777829717799
 21
849.96658553028522
 31
0.0
  0
LINE
  5
DBDD
  8
0
 10
447.61885729717812
 20
841.48102053028515
 30
0.0
 11
449.69777829717799
 21
841.97641753028518
 31
0.0
  0
LINE
  5
DBDE
  8
0
 10
447.61885729717812
 20
839.48102053028515
 30
0.0
 11
449.69777829717799
 21
838.93071153028518
 31
0.0
  0
LINE
  5
DBDF
  8
0
 10
449.69777829717799
 20
841.97641753028518
 30
0.0
 11
449.69777829717799
 21
838.93071153028518
 31
0.0
  0
LINE
  5
DBE0
  8
0
 10
449.69777829717799
 20
852.95921253028507
 30
0.0
 11
449.69777829717799
 21
849.96658553028522
 31
0.0
  0
LINE
  5
DBE1
  8
0
 10
449.69777829717799
 20
863.95139253028515
 30
0.0
 11
449.69777829717799
 21
860.98991353028521
 31
0.0
  0
LINE
  5
DBE2
  8
0
 10
449.69777829717799
 20
873.95086853028545
 30
0.0
 11
449.69777829717799
 21
871.00317653028537
 31
0.0
  0
LINE
  5
DBE3
  8
0
 10
382.61885729717778
 20
830.48102053028515
 30
0.0
 11
384.69777829717799
 21
830.97641753028518
 31
0.0
  0
LINE
  5
DBE4
  8
0
 10
384.69777829717799
 20
830.97641753028518
 30
0.0
 11
250.69777829717799
 21
830.97641753028518
 31
0.0
  0
LINE
  5
DBE5
  8
0
 10
252.77669929717831
 20
830.48102053028515
 30
0.0
 11
382.61885729717778
 21
830.48102053028515
 31
0.0
  0
LINE
  5
DBE6
  8
0
 10
382.61885729717778
 20
828.48102053028538
 30
0.0
 11
382.61885729717778
 21
830.48102053028515
 31
0.0
  0
LINE
  5
DBE7
  8
0
 10
384.69777829717799
 20
827.93071153028518
 30
0.0
 11
250.69777829717799
 21
827.93071153028518
 31
0.0
  0
LINE
  5
DBE8
  8
0
 10
252.77669929717831
 20
828.48102053028538
 30
0.0
 11
382.61885729717778
 21
828.48102053028538
 31
0.0
  0
LINE
  5
DBE9
  8
0
 10
382.61885729717778
 20
828.48102053028538
 30
0.0
 11
384.69777829717799
 21
827.93071153028518
 31
0.0
  0
LINE
  5
DBEA
  8
0
 10
384.69777829717799
 20
821.97641753028518
 30
0.0
 11
250.69777829717799
 21
821.97641753028518
 31
0.0
  0
LINE
  5
DBEB
  8
0
 10
252.77669929717831
 20
821.48102053028515
 30
0.0
 11
382.61885729717778
 21
821.48102053028515
 31
0.0
  0
LINE
  5
DBEC
  8
0
 10
384.69777829717799
 20
818.93071153028507
 30
0.0
 11
250.73133529717779
 21
818.93071153028507
 31
0.0
  0
LINE
  5
DBED
  8
0
 10
252.77669929717831
 20
819.48102053028538
 30
0.0
 11
382.61885729717778
 21
819.48102053028538
 31
0.0
  0
LINE
  5
DBEE
  8
0
 10
382.61885729717778
 20
819.48102053028538
 30
0.0
 11
384.69777829717799
 21
818.93071153028507
 31
0.0
  0
LINE
  5
DBEF
  8
0
 10
384.69777829717799
 20
821.97641753028518
 30
0.0
 11
384.69777829717799
 21
818.93071153028507
 31
0.0
  0
LINE
  5
DBF0
  8
0
 10
382.61885729717778
 20
819.48102053028538
 30
0.0
 11
382.61885729717778
 21
821.48102053028515
 31
0.0
  0
LINE
  5
DBF1
  8
0
 10
382.61885729717778
 20
821.48102053028515
 30
0.0
 11
384.69777829717799
 21
821.97641753028518
 31
0.0
  0
LINE
  5
DBF2
  8
0
 10
384.69777829717799
 20
818.93071153028507
 30
0.0
 11
399.69777829717799
 21
818.93071153028507
 31
0.0
  0
LINE
  5
DBF3
  8
0
 10
399.69777829717799
 20
818.93071153028507
 30
0.0
 11
415.69777829717799
 21
814.58878653028546
 31
0.0
  0
LINE
  5
DBF4
  8
0
 10
250.69777829717799
 20
830.97641753028518
 30
0.0
 11
250.69777829717799
 21
827.93071153028518
 31
0.0
  0
LINE
  5
DBF5
  8
0
 10
250.69777829717799
 20
821.97641753028518
 30
0.0
 11
250.69777829717799
 21
818.93071153028507
 31
0.0
  0
LINE
  5
DBF6
  8
0
 10
252.77669929717831
 20
828.48102053028538
 30
0.0
 11
252.77669929717831
 21
830.48102053028515
 31
0.0
  0
LINE
  5
DBF7
  8
0
 10
252.77669929717831
 20
830.48102053028515
 30
0.0
 11
250.69777829717799
 21
830.97641753028518
 31
0.0
  0
LINE
  5
DBF8
  8
0
 10
252.77669929717831
 20
828.48102053028538
 30
0.0
 11
250.69777829717799
 21
827.93071153028518
 31
0.0
  0
LINE
  5
DBF9
  8
0
 10
252.77669929717831
 20
821.48102053028515
 30
0.0
 11
250.69777829717799
 21
821.97641753028518
 31
0.0
  0
LINE
  5
DBFA
  8
0
 10
252.77669929717831
 20
819.48102053028538
 30
0.0
 11
252.77669929717831
 21
821.48102053028515
 31
0.0
  0
LINE
  5
DBFB
  8
0
 10
252.77669929717831
 20
819.48102053028538
 30
0.0
 11
250.69777829717799
 21
818.93071153028507
 31
0.0
  0
LINE
  5
DBFC
  8
0
 10
142.59780829717781
 20
978.98102053028538
 30
0.0
 11
220.1977782971781
 21
978.98102053028538
 31
0.0
  0
LINE
  5
DBFD
  8
0
 10
142.59780829717781
 20
984.98102053028515
 30
0.0
 11
220.1977782971781
 21
984.98102053028515
 31
0.0
  0
LINE
  5
DBFE
  8
0
 10
242.19777829717799
 20
975.98102053028515
 30
0.0
 11
138.69777829717799
 21
975.98102053028515
 31
0.0
  0
LINE
  5
DBFF
  8
0
 10
231.19777829717799
 20
978.98102053028538
 30
0.0
 11
244.6977782971781
 21
978.98102053028538
 31
0.0
  0
ARC
  5
DC00
  8
0
 10
888.98475829717779
 20
878.98102053028538
 30
0.0
 40
764.28698999999995
 50
172.82194999999871
 51
187.17804000000049
  0
LINE
  5
DC01
  8
0
 10
135.34780829717781
 20
785.38098053028523
 30
0.0
 11
135.34780829717781
 21
972.67096053028536
 31
0.0
  0
LINE
  5
DC02
  8
0
 10
129.69777829717799
 20
941.42096053028536
 30
0.0
 11
129.69777829717799
 21
815.8410005302851
 31
0.0
  0
LINE
  5
DC03
  8
0
 10
127.697778297178
 20
941.42096053028536
 30
0.0
 11
127.697778297178
 21
816.53094053028508
 31
0.0
  0
LINE
  5
DC04
  8
0
 10
242.19777829717799
 20
781.98102053028538
 30
0.0
 11
138.69777829717799
 21
781.98102053028538
 31
0.0
  0
LINE
  5
DC05
  8
0
 10
129.84774829717799
 20
813.15100053028505
 30
0.0
 11
134.75777829717799
 21
785.28100053028538
 31
0.0
  0
ARC
  5
DC06
  8
0
 10
142.59951829717829
 20
784.9790605302851
 30
0.0
 40
5.9980479999999998
 50
207.0535100000092
 51
269.98324000000241
  0
ARC
  5
DC07
  8
0
 10
142.60024829717801
 20
784.97711053028536
 30
0.0
 40
11.996128000000001
 50
187.16444000000149
 51
269.98822000000808
  0
ARC
  5
DC08
  8
0
 10
128.8581782971778
 20
812.98407053028518
 30
0.0
 40
1.0035289999999999
 50
9.5734909999996063
 51
62.10181499998955
  0
ARC
  5
DC09
  8
0
 10
130.6963182971781
 20
816.53900053028508
 30
0.0
 40
2.9985330000000001
 50
180.1533100000014
 51
242.84512999998921
  0
ARC
  5
DC0A
  8
0
 10
138.697168297178
 20
785.98236053028506
 30
0.0
 40
4.0014059999999976
 50
190.09553000000011
 51
270.00785000000678
  0
LINE
  5
DC0B
  8
0
 10
129.84774829717799
 20
944.80096053028569
 30
0.0
 11
134.75771829717809
 21
972.67096053028536
 31
0.0
  0
ARC
  5
DC0C
  8
0
 10
138.69729829717829
 20
971.98163053028532
 30
0.0
 40
3.9993959999999982
 50
89.993275000011238
 51
170.07405999999821
  0
ARC
  5
DC0D
  8
0
 10
128.8584282971778
 20
944.98016053028516
 30
0.0
 40
1.0054319999999961
 50
297.82706000000729
 51
349.7352699999982
  0
ARC
  5
DC0E
  8
0
 10
130.6949782971777
 20
941.4237705302852
 30
0.0
 40
2.997211999999998
 50
117.13965999999481
 51
180.05330999999691
  0
ARC
  5
DC0F
  8
0
 10
142.59865829717819
 20
972.98431053028514
 30
0.0
 40
5.9966319999999991
 50
90.008472000013285
 51
152.954760000004
  0
ARC
  5
DC10
  8
0
 10
142.59926829717821
 20
972.98596053028518
 30
0.0
 40
11.995034
 50
90.007167000000024
 51
172.8401600000048
  0
LINE
  5
DC11
  8
0
 10
122.3077682971779
 20
873.98102053028538
 30
0.0
 11
122.3077682971779
 21
883.98102053028515
 31
0.0
  0
LINE
  5
DC12
  8
0
 10
124.71779829717789
 20
883.98102053028515
 30
0.0
 11
122.3077682971779
 21
883.98102053028515
 31
0.0
  0
LINE
  5
DC13
  8
0
 10
124.71779829717789
 20
873.98102053028538
 30
0.0
 11
122.3077682971779
 21
873.98102053028538
 31
0.0
  0
LINE
  5
DC14
  8
0
 10
244.6977782971781
 20
984.98102053028515
 30
0.0
 11
244.6977782971781
 21
978.98102053028538
 31
0.0
  0
LINE
  5
DC15
  8
0
 10
220.1977782971781
 20
985.98102053028515
 30
0.0
 11
220.1977782971781
 21
975.98102053028515
 31
0.0
  0
LINE
  5
DC16
  8
0
 10
231.19777829717799
 20
985.98102053028515
 30
0.0
 11
231.19777829717799
 21
975.98102053028515
 31
0.0
  0
LINE
  5
DC17
  8
0
 10
231.19777829717799
 20
984.98102053028515
 30
0.0
 11
244.6977782971781
 21
984.98102053028515
 31
0.0
  0
LINE
  5
DC18
  8
0
 10
220.1977782971781
 20
985.98102053028515
 30
0.0
 11
231.19777829717799
 21
985.98102053028515
 31
0.0
  0
LINE
  5
DC19
  8
0
 10
142.5978042971783
 20
778.98097953028525
 30
0.0
 11
220.19777429717811
 21
778.98097653028515
 31
0.0
  0
LINE
  5
DC1A
  8
0
 10
142.5978042971783
 20
772.98097953028537
 30
0.0
 11
220.19777429717811
 21
772.98097653028537
 31
0.0
  0
LINE
  5
DC1B
  8
0
 10
220.19777429717811
 20
771.98097653028515
 30
0.0
 11
220.19777429717811
 21
781.98097653028537
 31
0.0
  0
LINE
  5
DC1C
  8
0
 10
220.19777429717811
 20
771.98097653028515
 30
0.0
 11
231.19777429717811
 21
771.98097653028515
 31
0.0
  0
LINE
  5
DC1D
  8
0
 10
231.19777429717811
 20
771.98097653028515
 30
0.0
 11
231.19777429717811
 21
781.98097653028537
 31
0.0
  0
LINE
  5
DC1E
  8
0
 10
231.19777429717811
 20
772.98097653028537
 30
0.0
 11
244.697774297178
 21
772.98097653028537
 31
0.0
  0
LINE
  5
DC1F
  8
0
 10
244.697774297178
 20
772.98097653028537
 30
0.0
 11
244.697774297178
 21
778.98097653028515
 31
0.0
  0
LINE
  5
DC20
  8
0
 10
231.19777429717811
 20
778.98097653028515
 30
0.0
 11
244.697774297178
 21
778.98097653028515
 31
0.0
  0
LINE
  5
DC21
  8
0
 10
242.19777829717799
 20
886.62479153028505
 30
0.0
 11
253.6977782971781
 21
886.62479153028505
 31
0.0
  0
LINE
  5
DC22
  8
0
 10
242.19777829717799
 20
886.95886953028548
 30
0.0
 11
254.37777829717791
 21
886.95886953028548
 31
0.0
  0
LINE
  5
DC23
  8
0
 10
255.6977782971781
 20
884.62479153028517
 30
0.0
 11
255.6977782971781
 21
878.98102453028537
 31
0.0
  0
LINE
  5
DC24
  8
0
 10
257.377778297178
 20
889.95886953028514
 30
0.0
 11
257.377778297178
 21
878.98102453028537
 31
0.0
  0
ARC
  5
DC25
  8
0
 10
254.37777829717791
 20
889.95886953028514
 30
0.0
 40
3.0
 50
270.0
 51
0.0
  0
LINE
  5
DC26
  8
0
 10
242.19777829717799
 20
871.33725653028534
 30
0.0
 11
253.6977782971781
 21
871.33725653028534
 31
0.0
  0
LINE
  5
DC27
  8
0
 10
242.19777829717799
 20
871.00317942063612
 30
0.0
 11
254.37777829717791
 21
871.00317853028537
 31
0.0
  0
LINE
  5
DC28
  8
0
 10
255.6977782971781
 20
873.33725653028534
 30
0.0
 11
255.6977782971781
 21
878.98102453028537
 31
0.0
  0
LINE
  5
DC29
  8
0
 10
257.377778297178
 20
868.00317853028514
 30
0.0
 11
257.377778297178
 21
878.98102453028537
 31
0.0
  0
ARC
  5
DC2A
  8
0
 10
254.37777829717791
 20
868.00317853028514
 30
0.0
 40
3.0
 50
359.99999799999722
 51
89.999998000010223
  0
LINE
  5
DC2B
  8
0
 10
494.19782829717758
 20
589.77473497825122
 30
0.0
 11
454.69777829717788
 21
589.77473497825122
 31
0.0
  0
LINE
  5
DC2C
  8
0
 10
494.19782829717758
 20
581.65072997825132
 30
0.0
 11
454.69777829717788
 21
581.65072997825132
 31
0.0
  0
LINE
  5
DC2D
  8
0
 10
494.19782829717758
 20
567.97701897825118
 30
0.0
 11
454.69777829717788
 21
567.97701897825118
 31
0.0
  0
LINE
  5
DC2E
  8
0
 10
494.19782829717758
 20
443.72180697825132
 30
0.0
 11
454.69777829717788
 21
443.72180697825132
 31
0.0
  0
LINE
  5
DC2F
  8
0
 10
494.19782829717758
 20
456.00908797825127
 30
0.0
 11
454.69777829717788
 21
456.00908797825127
 31
0.0
  0
LINE
  5
DC30
  8
0
 10
494.19782829717758
 20
466.18837997825131
 30
0.0
 11
454.69777829717788
 21
466.18837997825131
 31
0.0
  0
TEXT
  5
DF11
  8
0
  6
CONTINUOUS
 62
     0
 10
862.28329081062498
 20
851.95641745580235
 30
0.0
 40
15.0
  1
VX22-040EB~VX22-050EB
  0
ENDSEC
  0
EOF
