  0
SECTION
  2
HEADER
  9
$ACADVER
  1
AC1009
  9
$INSBASE
 10
0.0
 20
0.0
 30
0.0
  9
$EXTMIN
 10
130.44214339814329
 20
419.21466636613877
 30
-0.0000000000000053
  9
$EXTMAX
 10
1480.315113563448
 20
1271.9878967991581
 30
0.0000000000000099
  9
$LIMMIN
 10
0.0000005999945643
 20
-0.0000005963913736
  9
$LIMMAX
 10
1707.000000599995
 20
1109.9999994036091
  9
$ORTHOMODE
 70
     1
  9
$REGENMODE
 70
     1
  9
$FILLMODE
 70
     1
  9
$QTEXTMODE
 70
     0
  9
$MIRRTEXT
 70
     0
  9
$DRAGMODE
 70
     2
  9
$LTSCALE
 40
1.0
  9
$OSMODE
 70
   551
  9
$ATTMODE
 70
     1
  9
$TEXTSIZE
 40
2.5
  9
$TRACEWID
 40
1.0
  9
$TEXTSTYLE
  7
STANDARD
  9
$CLAYER
  8
0
  9
$CELTYPE
  6
BYLAYER
  9
$CECOLOR
 62
   256
  9
$DIMSCALE
 40
1.0
  9
$DIMASZ
 40
2.0
  9
$DIMEXO
 40
1.0
  9
$DIMDLI
 40
8.0
  9
$DIMRND
 40
0.0
  9
$DIMDLE
 40
0.0
  9
$DIMEXE
 40
1.0
  9
$DIMTP
 40
-0.025
  9
$DIMTM
 40
0.043
  9
$DIMTXT
 40
2.5
  9
$DIMCEN
 40
0.0
  9
$DIMTSZ
 40
0.0
  9
$DIMTOL
 70
     0
  9
$DIMLIM
 70
     0
  9
$DIMTIH
 70
     0
  9
$DIMTOH
 70
     0
  9
$DIMSE1
 70
     0
  9
$DIMSE2
 70
     0
  9
$DIMTAD
 70
     3
  9
$DIMZIN
 70
     8
  9
$DIMBLK
  1

  9
$DIMASO
 70
     1
  9
$DIMSHO
 70
     1
  9
$DIMPOST
  1

  9
$DIMAPOST
  1
"
  9
$DIMALT
 70
     0
  9
$DIMALTD
 70
     2
  9
$DIMALTF
 40
0.0393701
  9
$DIMLFAC
 40
1.0
  9
$DIMTOFL
 70
     1
  9
$DIMTVP
 40
0.0
  9
$DIMTIX
 70
     0
  9
$DIMSOXD
 70
     0
  9
$DIMSAH
 70
     0
  9
$DIMBLK1
  1

  9
$DIMBLK2
  1

  9
$DIMSTYLE
  2
AM_JIS
  9
$DIMCLRD
 70
     2
  9
$DIMCLRE
 70
     2
  9
$DIMCLRT
 70
     4
  9
$DIMTFAC
 40
0.71
  9
$DIMGAP
 40
1.5
  9
$LUNITS
 70
     2
  9
$LUPREC
 70
     2
  9
$SKETCHINC
 40
1.0
  9
$FILLETRAD
 40
0.0
  9
$AUNITS
 70
     0
  9
$AUPREC
 70
     0
  9
$MENU
  1
.
  9
$ELEVATION
 40
0.0
  9
$PELEVATION
 40
0.0
  9
$THICKNESS
 40
0.0
  9
$LIMCHECK
 70
     0
  9
$BLIPMODE
 70
     0
  9
$CHAMFERA
 40
3.0
  9
$CHAMFERB
 40
3.0
  9
$SKPOLY
 70
     0
  9
$TDCREATE
 40
2456829.3841110538
  9
$TDUPDATE
 40
2458540.725485371
  9
$TDINDWG
 40
0.6629674653
  9
$TDUSRTIMER
 40
0.6629670833
  9
$USRTIMER
 70
     1
  9
$ANGBASE
 50
0.0
  9
$ANGDIR
 70
     0
  9
$PDMODE
 70
     0
  9
$PDSIZE
 40
0.0
  9
$PLINEWID
 40
0.0
  9
$COORDS
 70
     1
  9
$SPLFRAME
 70
     0
  9
$SPLINETYPE
 70
     6
  9
$SPLINESEGS
 70
     8
  9
$ATTDIA
 70
     1
  9
$ATTREQ
 70
     1
  9
$HANDLING
 70
     1
  9
$HANDSEED
  5
D5D1
  9
$SURFTAB1
 70
     6
  9
$SURFTAB2
 70
     6
  9
$SURFTYPE
 70
     6
  9
$SURFU
 70
     6
  9
$SURFV
 70
     6
  9
$UCSNAME
  2

  9
$UCSORG
 10
0.0
 20
0.0
 30
0.0
  9
$UCSXDIR
 10
1.0
 20
0.0
 30
0.0
  9
$UCSYDIR
 10
0.0
 20
1.0
 30
0.0
  9
$PUCSNAME
  2

  9
$PUCSORG
 10
0.0
 20
0.0
 30
0.0
  9
$PUCSXDIR
 10
1.0
 20
0.0
 30
0.0
  9
$PUCSYDIR
 10
0.0
 20
1.0
 30
0.0
  9
$USERI1
 70
     0
  9
$USERI2
 70
     0
  9
$USERI3
 70
     0
  9
$USERI4
 70
     0
  9
$USERI5
 70
     0
  9
$USERR1
 40
0.0
  9
$USERR2
 40
0.0
  9
$USERR3
 40
0.0
  9
$USERR4
 40
0.0
  9
$USERR5
 40
0.0
  9
$WORLDVIEW
 70
     1
  9
$SHADEDGE
 70
     3
  9
$SHADEDIF
 70
    70
  9
$TILEMODE
 70
     1
  9
$MAXACTVP
 70
    64
  9
$PLIMCHECK
 70
     0
  9
$PEXTMIN
 10
1.0000000000000000E+020
 20
1.0000000000000000E+020
 30
1.0000000000000000E+020
  9
$PEXTMAX
 10
-1.0000000000000000E+020
 20
-1.0000000000000000E+020
 30
-1.0000000000000000E+020
  9
$PLIMMIN
 10
0.0
 20
0.0
  9
$PLIMMAX
 10
420.0
 20
297.0
  9
$UNITMODE
 70
     0
  9
$VISRETAIN
 70
     1
  9
$PLINEGEN
 70
     0
  9
$PSLTSCALE
 70
     1
  0
ENDSEC
  0
SECTION
  2
TABLES
  0
TABLE
  2
VPORT
 70
     1
  0
VPORT
  2
*ACTIVE
 70
     0
 10
0.0
 20
0.0
 11
1.0
 21
1.0
 12
805.37862848079567
 22
845.60128158264843
 13
0.0
 23
0.0
 14
15.0
 24
15.0
 15
60.0
 25
60.0
 16
0.0
 26
0.0
 36
1.0
 17
0.0
 27
0.0
 37
0.0
 40
858.62750890281131
 41
1.7571592210767459
 42
50.0
 43
0.0
 44
0.0
 50
0.0
 51
0.0
 71
     0
 72
  1000
 73
     1
 74
     3
 75
     0
 76
     0
 77
     0
 78
     0
  0
ENDTAB
  0
TABLE
  2
LTYPE
 70
    24
  0
LTYPE
  2
CONTINUOUS
 70
     0
  3
Solid line
 72
    65
 73
     0
 40
0.0
  0
LTYPE
  2
CENTER
 70
     0
  3
Center ____ _ ____ _ ____ _ ____ _ ____ _ ____
 72
    65
 73
     4
 40
50.799999999999997
 49
31.75
 49
-6.3499999999999979
 49
6.3499999999999979
 49
-6.3499999999999979
  0
LTYPE
  2
AM_ISO02W050
 70
     0
  3
__ __ __ __ __ __ __ __ __ __ __ __ __ __ __
 72
    65
 73
     2
 40
7.5
 49
6.0
 49
-1.5
  0
LTYPE
  2
AM_ISO08W050
 70
     0
  3
____ . ____ . ____ . ____ . ____ . ____ . ____
 72
    65
 73
     4
 40
18.0
 49
12.0
 49
-1.5
 49
3.0
 49
-1.5
  0
LTYPE
  2
AM_ISO09W050
 70
     0
  3
_____ . . _____ . . _____ . . ____ .. ____
 72
    65
 73
     6
 40
22.5
 49
12.0
 49
-1.5
 49
3.0
 49
-1.5
 49
3.0
 49
-1.5
  0
LTYPE
  2
AMCONSTR
 70
     0
  3
_______________________
 72
    65
 73
     2
 40
9999.0
 49
9999.0
 49
0.0
  0
LTYPE
  2
AM_ISO08W050X2
 70
     0
  3
__ . __ . __ . __ . __ . __
 72
    65
 73
     4
 40
9.0
 49
6.0
 49
-0.75
 49
1.5
 49
-0.75
  0
LTYPE
  2
AM_ISO02W050X2
 70
     0
  3
 _ _ _ _ _ _ _ _ _ _ _ _
 72
    65
 73
     2
 40
3.75
 49
3.0
 49
-0.75
  0
LTYPE
  2
AMZIGZAG
 70
     0
  3
/\/-/\/-/\/-/\/-/\/-/\/
 72
    65
 73
     2
 40
11.0001
 49
0.0001
 49
-11.0
  0
LTYPE
  2
ACANSTGBM
 70
     0
  3
__ . . __ . .
 72
    65
 73
     6
 40
9.0
 49
4.0
 49
-1.0
 49
1.0
 49
-1.0
 49
1.0
 49
-1.0
  0
LTYPE
  2
ACANSTGLM
 70
     0
  3
_ _ _ _ _
 72
    65
 73
     2
 40
3.0
 49
2.0
 49
-1.0
  0
LTYPE
  2
ACISOWELD
 70
     0
  3
_ _ _ _ _
 72
    65
 73
     2
 40
2.0
 49
2.0
 49
-1.0
  0
LTYPE
  2
ACISOTGB
 70
     0
  3
__ . . __ . .
 72
    65
 73
     6
 40
9.0
 49
4.0
 49
-1.0
 49
1.0
 49
-1.0
 49
1.0
 49
-1.0
  0
LTYPE
  2
ACISOTGL
 70
     0
  3
_ _ _ _ _
 72
    65
 73
     2
 40
3.0
 49
2.0
 49
-1.0
  0
LTYPE
  2
ACJISTGB
 70
     0
  3
__ . . __ . .
 72
    65
 73
     6
 40
9.0
 49
4.0
 49
-1.0
 49
1.0
 49
-1.0
 49
1.0
 49
-1.0
  0
LTYPE
  2
ACJISTGL
 70
     0
  3
_ _ _ _ _
 72
    65
 73
     2
 40
3.0
 49
2.0
 49
-1.0
  0
LTYPE
  2
HIDDEN
 70
     0
  3
Hidden __ __ __ __ __ __ __ __ __ __ __ __ __ _
 72
    65
 73
     2
 40
9.5249999999999968
 49
6.349999999999997
 49
-3.174999999999998
  0
LTYPE
  2
PHANTOM2
 70
     0
  3
Phantom (.5x) ___ _ _ ___ _ _ ___ _ _ ___ _ _
 72
    65
 73
     6
 40
31.75
 49
15.875
 49
-3.174999999999998
 49
3.174999999999998
 49
-3.174999999999998
 49
3.174999999999998
 49
-3.174999999999998
  0
LTYPE
  2
CENTER2
 70
     0
  3
Center (.5x) ___ _ ___ _ ___ _ ___ _ ___ _ ___
 72
    65
 73
     4
 40
1.125
 49
0.75
 49
-0.125
 49
0.125
 49
-0.125
  0
LTYPE
  2
HIDDEN2
 70
     0
  3
Hidden (.5x) _ _ _ _ _ _ _ _ _ _ _ _ _ _ _ _ _
 72
    65
 73
     2
 40
0.1875
 49
0.125
 49
-0.0625
  0
LTYPE
  2
AMZIGZAG2
 70
     0
  3
/\/-/\/-/\/-/\/-/\/-/\/
 72
    65
 73
     2
 40
0.4401
 49
0.0001
 49
-0.4400000000000003
  0
LTYPE
  2
ACANSTGB
 70
     0
  3
__ . . __ . .
 72
    65
 73
     6
 40
0.35433070866
 49
0.15748031496
 49
-0.03937007874
 49
0.03937007874
 49
-0.03937007874
 49
0.03937007874
 49
-0.03937007874
  0
LTYPE
  2
ACANSTGL
 70
     0
  3
_ _ _ _ _
 72
    65
 73
     2
 40
0.11811023622
 49
0.07874015748
 49
-0.03937007874
  0
ENDTAB
  0
TABLE
  2
LAYER
 70
     4
  0
LAYER
  2
0
 70
     0
 62
     7
  6
CONTINUOUS
  0
LAYER
  2
DEFPOINTS
 70
     0
 62
     7
  6
CONTINUOUS
  0
LAYER
  2
AM_5
 70
     0
 62
     2
  6
CONTINUOUS
  0
LAYER
  2
AM_CL
 70
     0
 62
     1
  6
AMCONSTR
  0
ENDTAB
  0
TABLE
  2
STYLE
 70
     8
  0
STYLE
  2
STANDARD
 70
     0
 40
0.0
 41
0.7400000000000003
 50
0.0
 71
     0
 42
2.5
  3
txt.shx
  4
bigfont.shx
  0
STYLE
  2

 70
     1
 40
0.0
 41
1.0
 50
0.0
 71
     0
 42
2.5
  3
ltypeshp.shx
  4

  0
STYLE
  2
ACANSTS
 70
     0
 40
1.0
 41
1.0
 50
0.0
 71
     0
 42
2.5
  3
romans.shx
  4
bigfont.shx
  0
STYLE
  2
ACANSGDT
 70
     0
 40
0.0
 41
1.0
 50
0.0
 71
     0
 42
2.5
  3
amgdtans.shx
  4

  0
STYLE
  2
ACISOTS
 70
     0
 40
1.0
 41
1.0
 50
0.0
 71
     0
 42
2.5
  3
isocp.shx
  4
extfont.shx
  0
STYLE
  2
ACISOGDT
 70
     0
 40
0.0
 41
1.0
 50
0.0
 71
     0
 42
2.5
  3
amgdt.shx
  4

  0
STYLE
  2
ACJISGDT
 70
     0
 40
0.0
 41
1.0
 50
0.0
 71
     0
 42
2.5
  3
amgdt.shx
  4

  0
STYLE
  2
ACJISTS
 70
     0
 40
1.0
 41
1.0
 50
0.0
 71
     0
 42
2.5
  3
isocp.shx
  4
extfont.shx
  0
ENDTAB
  0
TABLE
  2
VIEW
 70
     6
  0
VIEW
  2
AM_VIEW1
 70
     0
 40
555.00000000000011
 10
586.60142408753904
 20
832.49999940360885
 41
1173.202846975089
 11
0.0
 21
0.0
 31
1.0
 12
0.0
 22
0.0
 32
0.0
 42
50.0
 43
0.0
 44
0.0
 50
0.0
 71
     0
  0
VIEW
  2
AM_VIEW2
 70
     0
 40
555.00000000000011
 10
1120.3985771124501
 20
832.49999940360885
 41
1173.202846975089
 11
0.0
 21
0.0
 31
1.0
 12
0.0
 22
0.0
 32
0.0
 42
50.0
 43
0.0
 44
0.0
 50
0.0
 71
     0
  0
VIEW
  2
AM_VIEW3
 70
     0
 40
555.00000000000011
 10
586.60142408753904
 20
277.49999940360868
 41
1173.202846975089
 11
0.0
 21
0.0
 31
1.0
 12
0.0
 22
0.0
 32
0.0
 42
50.0
 43
0.0
 44
0.0
 50
0.0
 71
     0
  0
VIEW
  2
AM_VIEW4
 70
     0
 40
555.00000000000011
 10
1120.3985771124501
 20
277.49999940360868
 41
1173.202846975089
 11
0.0
 21
0.0
 31
1.0
 12
0.0
 22
0.0
 32
0.0
 42
50.0
 43
0.0
 44
0.0
 50
0.0
 71
     0
  0
VIEW
  2
AM_VIEW5
 70
     0
 40
555.00000000000011
 10
853.50000059999445
 20
554.99999940360874
 41
1173.202846975089
 11
0.0
 21
0.0
 31
1.0
 12
0.0
 22
0.0
 32
0.0
 42
50.0
 43
0.0
 44
0.0
 50
0.0
 71
     0
  0
VIEW
  2
AM_VIEW6
 70
     0
 40
1109.9889000000001
 10
853.50000059999445
 20
554.99999940360874
 41
2346.3822298932391
 11
0.0
 21
0.0
 31
1.0
 12
0.0
 22
0.0
 32
0.0
 42
50.0
 43
0.0
 44
0.0
 50
0.0
 71
     0
  0
ENDTAB
  0
TABLE
  2
UCS
 70
     0
  0
ENDTAB
  0
TABLE
  2
APPID
 70
   158
  0
APPID
  2
ACAD
 70
     0
  0
APPID
  2
ACADANNOTATIVE
 70
     0
  0
APPID
  2
ACAD_MLEADERVER
 70
     0
  0
APPID
  2
MCAD_NO_VIS
 70
     0
  0
APPID
  2
ACAD_TEMP_GRAPHIC
 70
     0
  0
APPID
  2
AD_DRAW
 70
     0
  0
APPID
  2
ACATTRIBSERVICES
 70
     0
  0
APPID
  2
DESIGNERASSEMBLIES
 70
     0
  0
APPID
  2
ACADM_DIM_EDIT
 70
     0
  0
APPID
  2
AMDT_DM_ADJ
 70
     0
  0
APPID
  2
GENIUS_GENDIMSH_14
 70
     0
  0
APPID
  2
GEVID1057795304
 70
     0
  0
APPID
  2
GEVDC
 70
     0
  0
APPID
  2
GEVCON
 70
     0
  0
APPID
  2
GENIUS_GENBH_13
 70
     0
  0
APPID
  2
GENIUS_GENOENT_13
 70
     0
  0
APPID
  2
GENIUS_GENOBJ-NBEHI-BHF_13
 70
     0
  0
APPID
  2
GENIUS_GENOLIS_13
 70
     0
  0
APPID
  2
GENIUS_GENODEF_13
 70
     0
  0
APPID
  2
GENIUS_GENOREF_13
 70
     0
  0
APPID
  2
GENIUS_GENOBJ-NBEHI-BHB_13
 70
     0
  0
APPID
  2
GENIUS_GENOBJ-F-SCPASSM_13
 70
     0
  0
APPID
  2
GENIUS_GENDTOL_13
 70
     0
  0
APPID
  2
GENIUS_GENTRA_14
 70
     0
  0
APPID
  2
ASURF_PCURVE_APPNAME
 70
     0
  0
APPID
  2
GENIUS_GENCFG_13
 70
     0
  0
APPID
  2
GENIUS_GE3CFG0_13
 70
     0
  0
APPID
  2
GENIUS_GENCFG0_13
 70
     0
  0
APPID
  2
GENIUS_GENCFG1_13
 70
     0
  0
APPID
  2
GENIUS_GENCFG2_13
 70
     0
  0
APPID
  2
GENIUS_GENCFG3_13
 70
     0
  0
APPID
  2
GENIUS_GENCFG4_13
 70
     0
  0
APPID
  2
GENIUS_GEVCFG0_13
 70
     0
  0
APPID
  2
GENIUS_GENOBJ-N-TIT_13
 70
     0
  0
APPID
  2
GENIUS_GENTITLE_13
 70
     0
  0
APPID
  2
GENIUS_GENSCREG_15
 70
     0
  0
APPID
  2
GENIUS_GENOBJ-N-SDF_13
 70
     0
  0
APPID
  2
GENIUS_GENFIL_13
 70
     0
  0
APPID
  2
GENIUS_GENOBJ-N-CHA_13
 70
     0
  0
APPID
  2
GENIUS_GEFSH_13
 70
     0
  0
APPID
  2
GENIUS_GENOBJ-F-SHS_13
 70
     0
  0
APPID
  2
GENIUS_GENOBJ-N-CEN_13
 70
     0
  0
APPID
  2
GENIUS_GENREC_14
 70
     0
  0
APPID
  2
GENIUS_GENOBJ-N-REC_13
 70
     0
  0
APPID
  2
GENIUS_GENOBJ-N-HTC_13
 70
     0
  0
APPID
  2
GENIUS_GENHATCH_13
 70
     0
  0
APPID
  2
ACAD_PSEXT
 70
     0
  0
APPID
  2
ACAD_EXEMPT_FROM_CAD_STANDARDS
 70
     0
  0
APPID
  2
ACAECLAYERSTANDARD
 70
     0
  0
APPID
  2
GENIUS_GENCEN_19
 70
     0
  0
APPID
  2
ACAD_DSTYLE_DIMINSPECT
 70
     0
  0
APPID
  2
ACAD_DSTYLE_DIMANGULAR_EXT
 70
     0
  0
APPID
  2
ACADANNOPO
 70
     0
  0
APPID
  2
ACAD_NAV_VCDISPLAY
 70
     0
  0
APPID
  2
GENIUS_GENOBJ-N-FIL_13
 70
     0
  0
APPID
  2
ACAD_DSTYLE_DIMBREAK
 70
     0
  0
APPID
  2
ACAD_DSTYLE_DIMJAG
 70
     0
  0
APPID
  2
ACAD_DSTYLE_DIMRADIAL_EXTENSION
 70
     0
  0
APPID
  2
GENIUS_GENHINW_13
 70
     0
  0
APPID
  2
GENIUS_FIRSTVISTXT_14
 70
     0
  0
APPID
  2
GENIUS_GENOBJ-N-LEADER_13
 70
     0
  0
APPID
  2
DCO15
 70
     0
  0
APPID
  2
GENIUS_DUMCFG0_13
 70
     0
  0
APPID
  2
ACAD_DSTYLE_DIMTEXT_FILL
 70
     0
  0
APPID
  2
AMG_2DHIDE
 70
     0
  0
APPID
  2
GENIUS_GEFSHEP_13
 70
     0
  0
APPID
  2
GENIUS_GENOBJ-F-SHE_13
 70
     0
  0
APPID
  2
GENIUS_GEFSHE_13
 70
     0
  0
APPID
  2
ACAD_DIMASSOC_DIMLFAC
 70
     0
  0
APPID
  2
ACAD_DIMASSOC_CALC_DIMLFAC
 70
     0
  0
APPID
  2
ACAD_DIMASSOC_OVERRIDDEN_D
 70
     0
  0
APPID
  2
GENIUS_GENOBJ-F-SHSV_13
 70
     0
  0
APPID
  2
GENIUS_GEFWELD_13
 70
     0
  0
APPID
  2
GENIUS_GENOBJ-N-CRS_13
 70
     0
  0
APPID
  2
GENIUS_GENOBJ-N-RSBK_13
 70
     0
  0
APPID
  2
GENIUS_GENOBJ-N-LIB_13
 70
     0
  0
APPID
  2
GENIUS_GENSCALE_13
 70
     0
  0
APPID
  2
GENIUS_GENDREL_13
 70
     0
  0
APPID
  2
GEVPT
 70
     0
  0
APPID
  2
GEVIT
 70
     0
  0
APPID
  2
VCC
 70
     0
  0
APPID
  2
GENBH
 70
     0
  0
APPID
  2
GEVMK
 70
     0
  0
APPID
  2
GENIUS_GENOBJ-F-DESC_13
 70
     0
  0
APPID
  2
GENIUS_GEFDESC_14
 70
     0
  0
APPID
  2
GENIUS_GENOBJ-F-FEAT_13
 70
     0
  0
APPID
  2
GENIUS_GEFFEAT_14
 70
     0
  0
APPID
  2
GENIUS_GEFPARTINS_13
 70
     0
  0
APPID
  2
GENIUS_GENSCREG_13
 70
     0
  0
APPID
  2
GENIUS_GEFSHP_13
 70
     0
  0
APPID
  2
GEVID1025574798
 70
     0
  0
APPID
  2
GEVID1025574769
 70
     0
  0
APPID
  2
GEVID1025757451
 70
     0
  0
APPID
  2
GEVID1240528327
 70
     0
  0
APPID
  2
AMG_2DSTRUCT_BTR
 70
     0
  0
APPID
  2
ACADM_2DVIEW_IGN_NOTIFY
 70
     0
  0
APPID
  2
GEVID1240528328
 70
     0
  0
APPID
  2
GEVID1240528329
 70
     0
  0
APPID
  2
GEVRADREF
 70
     0
  0
APPID
  2
GEVID1240528330
 70
     0
  0
APPID
  2
GEVID1240528331
 70
     0
  0
APPID
  2
GEVID1240528332
 70
     0
  0
APPID
  2
GEVID1240791080
 70
     0
  0
APPID
  2
GEVID1240791081
 70
     0
  0
APPID
  2
GEVID1240791082
 70
     0
  0
APPID
  2
GEVID1240791083
 70
     0
  0
APPID
  2
GEVID1240791084
 70
     0
  0
APPID
  2
GEVID1240791085
 70
     0
  0
APPID
  2
GEVID1240791086
 70
     0
  0
APPID
  2
GEVID1240791087
 70
     0
  0
APPID
  2
GEVID1240791088
 70
     0
  0
APPID
  2
GEVID1240791089
 70
     0
  0
APPID
  2
GEVID1240791090
 70
     0
  0
APPID
  2
GEVID1240791091
 70
     0
  0
APPID
  2
GEVID1240791092
 70
     0
  0
APPID
  2
GEVID1240791093
 70
     0
  0
APPID
  2
GEVID1240791094
 70
     0
  0
APPID
  2
GEVID1240791095
 70
     0
  0
APPID
  2
GEVID1240791096
 70
     0
  0
APPID
  2
GEVID1240791097
 70
     0
  0
APPID
  2
GEVID1240791098
 70
     0
  0
APPID
  2
GEVID1240791099
 70
     0
  0
APPID
  2
GEVID1240791100
 70
     0
  0
APPID
  2
GEVID1240791101
 70
     0
  0
APPID
  2
GEVID1240791102
 70
     0
  0
APPID
  2
GEVID1240791103
 70
     0
  0
APPID
  2
GEVID1240791104
 70
     0
  0
APPID
  2
GEVID1240791105
 70
     0
  0
APPID
  2
GEVID1240875381
 70
     0
  0
APPID
  2
GEVID1240875382
 70
     0
  0
APPID
  2
GEVID1240875383
 70
     0
  0
APPID
  2
GEVID1240875384
 70
     0
  0
APPID
  2
GEVID1240875385
 70
     0
  0
APPID
  2
GEVID1240875386
 70
     0
  0
APPID
  2
GEVID1240875387
 70
     0
  0
APPID
  2
GEVID1240875388
 70
     0
  0
APPID
  2
GEVID1240875389
 70
     0
  0
APPID
  2
GEVID1240875390
 70
     0
  0
APPID
  2
GEVID1240875391
 70
     0
  0
APPID
  2
GEVID1240875392
 70
     0
  0
APPID
  2
GEVID1240875393
 70
     0
  0
APPID
  2
GEVID1240875394
 70
     0
  0
APPID
  2
GEVID1240875395
 70
     0
  0
APPID
  2
GEVID1240875396
 70
     0
  0
APPID
  2
GEVID1240875397
 70
     0
  0
APPID
  2
GEVID1240875398
 70
     0
  0
APPID
  2
GEVID1240875399
 70
     0
  0
APPID
  2
GEVID1240908996
 70
     0
  0
APPID
  2
GEVID1240908997
 70
     0
  0
APPID
  2
GEVID1240908998
 70
     0
  0
APPID
  2
GEVID1240908999
 70
     0
  0
APPID
  2
GEVID1240909000
 70
     0
  0
APPID
  2
GENIUS_GENOBJ-N-ZOO_13
 70
     0
  0
APPID
  2
GENIUS_GENZOO_17
 70
     0
  0
APPID
  2
GENIUS_GE3SECT_13
 70
     0
  0
APPID
  2
GEV_VCCNULL_SWITCH_OFF
 70
     0
  0
APPID
  2
ACAD_DSTYLE_DIMTALN
 70
     0
  0
APPID
  2
CONTENTBLOCKDESCRIPTION
 70
     0
  0
ENDTAB
  0
TABLE
  2
DIMSTYLE
 70
    21
  0
DIMSTYLE
  2
AM_ANSI
 70
     0
  3

  4
"
  5

  6

  7

 40
1.0
 41
2.5
 42
1.0
 43
10.0
 44
1.0
 45
0.0
 46
0.0
 47
0.1
 48
0.1
140
3.5
141
0.0
142
0.0
143
0.0393701
144
1.0
145
0.0
146
0.71
147
1.5
 71
     0
 72
     0
 73
     1
 74
     1
 75
     0
 76
     0
 77
     0
 78
     8
170
     0
171
     2
172
     0
173
     0
174
     0
175
     0
176
     2
177
     2
178
     4
  0
DIMSTYLE
  2
AM_ANSI$3
 70
     0
  3

  4
"
  5

  6

  7

 40
1.0
 41
2.5
 42
1.0
 43
10.0
 44
1.0
 45
0.0
 46
0.0
 47
0.1
 48
0.1
140
3.5
141
0.0
142
0.0
143
0.0393701
144
1.0
145
0.0
146
0.71
147
1.5
 71
     0
 72
     0
 73
     1
 74
     1
 75
     0
 76
     0
 77
     0
 78
     8
170
     0
171
     2
172
     0
173
     0
174
     0
175
     0
176
     2
177
     2
178
     4
  0
DIMSTYLE
  2
AM_ANSI$4
 70
     0
  3

  4
"
  5

  6

  7

 40
1.0
 41
2.5
 42
1.0
 43
10.0
 44
1.0
 45
0.0
 46
0.0
 47
0.1
 48
0.1
140
3.5
141
0.0
142
0.0
143
0.0393701
144
1.0
145
0.0
146
0.71
147
1.5
 71
     0
 72
     0
 73
     1
 74
     1
 75
     0
 76
     0
 77
     0
 78
     8
170
     0
171
     2
172
     0
173
     0
174
     0
175
     0
176
     2
177
     2
178
     4
  0
DIMSTYLE
  2
AM_ANSI$7
 70
     0
  3

  4
"
  5

  6

  7

 40
1.0
 41
2.5
 42
1.0
 43
10.0
 44
1.0
 45
0.0
 46
0.0
 47
0.1
 48
0.1
140
5.0
141
0.0
142
0.0
143
0.0393701
144
1.0
145
0.0
146
0.71
147
1.5
 71
     0
 72
     0
 73
     1
 74
     1
 75
     0
 76
     0
 77
     0
 78
     8
170
     0
171
     2
172
     0
173
     0
174
     0
175
     0
176
     2
177
     2
178
     4
  0
DIMSTYLE
  2
AM_ANSI$SF
 70
     0
  3

  4
"
  5

  6

  7

 40
1.0
 41
2.5
 42
1.0
 43
10.0
 44
1.0
 45
0.0
 46
0.0
 47
0.1
 48
0.1
140
3.5
141
0.0
142
0.0
143
0.0393701
144
1.0
145
0.0
146
0.71
147
1.5
 71
     0
 72
     0
 73
     1
 74
     1
 75
     1
 76
     1
 77
     0
 78
     8
170
     0
171
     2
172
     0
173
     0
174
     0
175
     0
176
     2
177
     2
178
     4
  0
DIMSTYLE
  2
AM_ANSI$SH
 70
     0
  3

  4
"
  5

  6
GENAXEH
  7

 40
1.0
 41
2.5
 42
1.0
 43
10.0
 44
1.0
 45
0.0
 46
0.0
 47
0.1
 48
0.1
140
3.5
141
0.0
142
0.0
143
0.0393701
144
1.0
145
0.0
146
0.71
147
1.5
 71
     0
 72
     0
 73
     1
 74
     1
 75
     1
 76
     1
 77
     0
 78
     8
170
     0
171
     2
172
     0
173
     1
174
     0
175
     0
176
     2
177
     2
178
     4
  0
DIMSTYLE
  2
AM_ISO
 70
     0
  3

  4
"
  5

  6

  7

 40
1.0
 41
2.5
 42
1.0
 43
10.0
 44
1.0
 45
0.0
 46
0.0
 47
0.1
 48
0.1
140
3.5
141
0.0
142
0.0
143
0.0393701
144
1.0
145
0.0
146
0.71
147
1.5
 71
     0
 72
     0
 73
     0
 74
     0
 75
     0
 76
     0
 77
     1
 78
     8
170
     0
171
     2
172
     1
173
     0
174
     0
175
     0
176
   256
177
   256
178
     2
  0
DIMSTYLE
  2
AM_ISO$3
 70
     0
  3

  4
"
  5

  6

  7

 40
1.0
 41
2.5
 42
1.0
 43
10.0
 44
1.0
 45
0.0
 46
0.0
 47
0.1
 48
0.1
140
3.5
141
0.0
142
0.0
143
0.0393701
144
1.0
145
0.0
146
0.71
147
1.5
 71
     0
 72
     0
 73
     0
 74
     1
 75
     0
 76
     0
 77
     1
 78
     8
170
     0
171
     2
172
     0
173
     0
174
     0
175
     0
176
   256
177
   256
178
     2
  0
DIMSTYLE
  2
AM_ISO$4
 70
     0
  3

  4
"
  5

  6

  7

 40
1.0
 41
2.5
 42
1.0
 43
10.0
 44
1.0
 45
0.0
 46
0.0
 47
0.1
 48
0.1
140
3.5
141
0.0
142
0.0
143
0.0393701
144
1.0
145
0.0
146
0.71
147
1.5
 71
     0
 72
     0
 73
     0
 74
     1
 75
     0
 76
     0
 77
     1
 78
     8
170
     0
171
     2
172
     0
173
     0
174
     0
175
     0
176
   256
177
   256
178
     2
  0
DIMSTYLE
  2
AM_ISO$6
 70
     0
  3

  4
"
  5

  6

  7

 40
1.0
 41
2.5
 42
1.0
 43
10.0
 44
1.0
 45
0.0
 46
0.0
 47
0.1
 48
0.1
140
3.5
141
0.0
142
0.0
143
0.0393701
144
1.0
145
0.0
146
0.71
147
1.5
 71
     0
 72
     0
 73
     0
 74
     0
 75
     0
 76
     0
 77
     0
 78
     8
170
     0
171
     2
172
     1
173
     0
174
     0
175
     0
176
   256
177
   256
178
     2
  0
DIMSTYLE
  2
AM_ISO$7
 70
     0
  3

  4
"
  5

  6

  7

 40
1.0
 41
2.5
 42
1.0
 43
10.0
 44
1.0
 45
0.0
 46
0.0
 47
0.1
 48
0.1
140
5.0
141
0.0
142
0.0
143
0.0393701
144
1.0
145
0.0
146
0.71
147
1.5
 71
     0
 72
     0
 73
     0
 74
     0
 75
     0
 76
     0
 77
     1
 78
     8
170
     0
171
     2
172
     1
173
     0
174
     0
175
     0
176
   256
177
   256
178
     2
  0
DIMSTYLE
  2
AM_ISO$SF
 70
     0
  3

  4
"
  5

  6

  7

 40
1.0
 41
2.5
 42
1.0
 43
10.0
 44
1.0
 45
0.0
 46
0.0
 47
0.1
 48
0.1
140
3.5
141
0.0
142
0.0
143
0.0393701
144
1.0
145
0.0
146
0.71
147
1.5
 71
     0
 72
     0
 73
     0
 74
     0
 75
     1
 76
     1
 77
     1
 78
     8
170
     0
171
     2
172
     1
173
     0
174
     0
175
     0
176
   256
177
   256
178
     2
  0
DIMSTYLE
  2
AM_ISO$SH
 70
     0
  3

  4
"
  5

  6
GENAXEH
  7

 40
1.0
 41
2.5
 42
1.0
 43
10.0
 44
1.0
 45
0.0
 46
0.0
 47
0.1
 48
0.1
140
3.5
141
0.0
142
0.0
143
0.0393701
144
2.0
145
0.0
146
0.71
147
1.5
 71
     0
 72
     0
 73
     0
 74
     0
 75
     1
 76
     1
 77
     1
 78
     8
170
     0
171
     2
172
     1
173
     1
174
     0
175
     0
176
   256
177
   256
178
     2
  0
DIMSTYLE
  2
AM_JIS
 70
     0
  3

  4
"
  5

  6

  7

 40
1.0
 41
2.0
 42
1.0
 43
8.0
 44
1.0
 45
0.0
 46
0.0
 47
0.1
 48
0.1
140
2.5
141
0.0
142
0.0
143
0.0393701
144
1.0
145
0.0
146
0.71
147
1.5
 71
     0
 72
     0
 73
     0
 74
     0
 75
     0
 76
     0
 77
     3
 78
     8
170
     0
171
     2
172
     1
173
     0
174
     0
175
     0
176
     2
177
     2
178
     4
  0
DIMSTYLE
  2
AM_JIS$3
 70
     0
  3

  4
"
  5

  6

  7

 40
1.0
 41
2.0
 42
1.0
 43
10.0
 44
1.0
 45
0.0
 46
0.0
 47
0.1
 48
0.1
140
2.5
141
0.0
142
0.0
143
0.0393701
144
1.0
145
0.0
146
0.71
147
1.5
 71
     0
 72
     0
 73
     0
 74
     1
 75
     0
 76
     0
 77
     3
 78
     8
170
     0
171
     2
172
     0
173
     0
174
     0
175
     0
176
     2
177
     2
178
     4
  0
DIMSTYLE
  2
AM_JIS$4
 70
     0
  3

  4
"
  5

  6

  7

 40
1.0
 41
2.0
 42
1.0
 43
10.0
 44
1.0
 45
0.0
 46
0.0
 47
0.1
 48
0.1
140
2.5
141
0.0
142
0.0
143
0.0393701
144
1.0
145
0.0
146
0.71
147
1.5
 71
     0
 72
     0
 73
     0
 74
     0
 75
     0
 76
     0
 77
     3
 78
     8
170
     0
171
     2
172
     0
173
     0
174
     0
175
     0
176
     2
177
     2
178
     4
  0
DIMSTYLE
  2
AM_JIS$6
 70
     0
  3

  4
"
  5

  6

  7

 40
1.0
 41
2.0
 42
1.0
 43
10.0
 44
1.0
 45
0.0
 46
0.0
 47
0.1
 48
0.1
140
2.5
141
0.0
142
0.0
143
0.0393701
144
1.0
145
0.0
146
0.71
147
1.5
 71
     0
 72
     0
 73
     0
 74
     0
 75
     0
 76
     0
 77
     0
 78
     8
170
     0
171
     2
172
     1
173
     0
174
     0
175
     0
176
     2
177
     2
178
     4
  0
DIMSTYLE
  2
AM_JIS$7
 70
     0
  3

  4
"
  5

  6
OPEN30
  7
OPEN30
 40
1.0
 41
2.0
 42
1.0
 43
10.0
 44
1.0
 45
0.0
 46
0.0
 47
0.1
 48
0.1
140
2.5
141
0.0
142
0.0
143
0.0393701
144
1.0
145
0.0
146
0.71
147
1.5
 71
     0
 72
     0
 73
     0
 74
     0
 75
     0
 76
     0
 77
     3
 78
     8
170
     0
171
     2
172
     1
173
     0
174
     0
175
     0
176
     2
177
     2
178
     4
  0
DIMSTYLE
  2
AM_JIS$SF
 70
     0
  3

  4
"
  5

  6

  7

 40
1.0
 41
2.0
 42
1.0
 43
10.0
 44
1.0
 45
0.0
 46
0.0
 47
0.1
 48
0.1
140
2.5
141
0.0
142
0.0
143
0.0393701
144
1.0
145
0.0
146
0.71
147
1.5
 71
     0
 72
     0
 73
     0
 74
     0
 75
     1
 76
     1
 77
     3
 78
     8
170
     0
171
     2
172
     1
173
     0
174
     0
175
     0
176
     2
177
     2
178
     4
  0
DIMSTYLE
  2
AM_JIS$SH
 70
     0
  3

  4
"
  5

  6
GENAXEH
  7

 40
1.0
 41
2.0
 42
1.0
 43
10.0
 44
1.0
 45
0.0
 46
0.0
 47
0.1
 48
0.1
140
2.5
141
0.0
142
0.0
143
0.0393701
144
2.0
145
0.0
146
0.71
147
1.5
 71
     0
 72
     0
 73
     0
 74
     0
 75
     1
 76
     1
 77
     3
 78
     8
170
     0
171
     2
172
     1
173
     1
174
     0
175
     0
176
     2
177
     2
178
     4
  0
DIMSTYLE
  2
AM_JIS$0
 70
     0
  3

  4
"
  5

  6

  7

 40
1.0
 41
2.0
 42
1.0
 43
8.0
 44
1.0
 45
0.0
 46
0.0
 47
0.1
 48
0.1
140
2.5
141
0.0
142
0.0
143
0.0393701
144
1.0
145
0.0
146
0.71
147
1.5
 71
     0
 72
     0
 73
     0
 74
     0
 75
     0
 76
     0
 77
     3
 78
     8
170
     0
171
     2
172
     1
173
     0
174
     0
175
     0
176
     2
177
     2
178
     4
  0
ENDTAB
  0
ENDSEC
  0
SECTION
  2
BLOCKS
  0
BLOCK
  8
0
  2
$MODEL_SPACE
 70
     0
 10
0.0
 20
0.0
 30
0.0
  3
$MODEL_SPACE
  1

  0
ENDBLK
  5
77
  8
0
  0
BLOCK
 67
     1
  8
0
  2
$PAPER_SPACE
 70
     0
 10
0.0
 20
0.0
 30
0.0
  3
$PAPER_SPACE
  1

  0
ENDBLK
  5
73
 67
     1
  8
0
  0
BLOCK
  8
0
  2
GENAXEH
 70
     0
 10
0.0
 20
0.0
 30
0.0
  3
GENAXEH
  1

  0
LINE
  5
D443
  8
0
 10
-1.0
 20
0.0
 30
0.0
 11
1.0
 21
0.0
 31
0.0
  0
ENDBLK
  5
D444
  8
0
  0
BLOCK
  8
0
  6
BYBLOCK
 62
     0
  2
$6-45
 70
     0
 10
0.0
 20
0.0
 30
0.0
  3
$6-45
  1

  0
ARC
  5
B2DD
  8
0
  6
CONTINUOUS
 62
     0
 10
-2.6499939999999902
 20
2.800201000000015
 30
0.0
 40
2.6003989999999999
 50
89.999982000000799
 51
179.99997799999841
  0
ARC
  5
B2DE
  8
0
  6
CONTINUOUS
 62
     0
 10
2.6499939999999902
 20
2.800201000000015
 30
0.0
 40
2.600403
 50
0.0
 51
89.999982000000799
  0
LINE
  5
B2DF
  8
0
  6
CONTINUOUS
 62
     0
 10
0.0660249999999678
 20
0.0
 30
0.0
 11
-0.7999999999999548
 21
1.5
 31
0.0
  0
LINE
  5
B2E0
  8
0
  6
CONTINUOUS
 62
     0
 10
1.0660249999999669
 20
0.0
 30
0.0
 11
0.2000000000000455
 21
1.5
 31
0.0
  0
LINE
  5
B2E1
  8
0
  6
CONTINUOUS
 62
     0
 10
6.1000000000000218
 20
0.0
 30
0.0
 11
-6.1000000000000218
 21
0.0
 31
0.0
  0
LINE
  5
B2E2
  8
0
  6
CONTINUOUS
 62
     0
 10
6.1000000000000218
 20
1.5
 30
0.0
 11
6.1000000000000218
 21
0.0
 31
0.0
  0
LINE
  5
B2E3
  8
0
  6
CONTINUOUS
 62
     0
 10
-6.1000000000000218
 20
1.5
 30
0.0
 11
-6.1000000000000218
 21
0.0
 31
0.0
  0
LINE
  5
B2E4
  8
0
  6
CONTINUOUS
 62
     0
 10
2.6499939999999902
 20
5.3999939999999906
 30
0.0
 11
-2.6499939999999902
 21
5.3999939999999906
 31
0.0
  0
LINE
  5
B2E5
  8
0
  6
CONTINUOUS
 62
     0
 10
6.1000000000000218
 20
1.5
 30
0.0
 11
-6.1000000000000218
 21
1.5
 31
0.0
  0
LINE
  5
B2E6
  8
0
  6
CONTINUOUS
 62
     0
 10
-5.25
 20
1.5
 30
0.0
 11
-5.25
 21
2.800201000000015
 31
0.0
  0
LINE
  5
B2E7
  8
0
  6
CONTINUOUS
 62
     0
 10
5.25
 20
1.5
 30
0.0
 11
5.25
 21
2.800201000000015
 31
0.0
  0
ENDBLK
  5
B2E8
  8
0
  6
BYBLOCK
 62
     0
  0
BLOCK
  8
0
  2
_OPEN30
 70
     0
 10
0.0
 20
0.0
 30
0.0
  3
_OPEN30
  1

  0
LINE
  5
D48A
  8
0
  6
BYBLOCK
 62
     0
 10
-1.0
 20
0.26794919
 30
0.0
 11
0.0
 21
0.0
 31
0.0
  0
LINE
  5
D48B
  8
0
  6
BYBLOCK
 62
     0
 10
0.0
 20
0.0
 30
0.0
 11
-1.0
 21
-0.26794919
 31
0.0
  0
LINE
  5
D48C
  8
0
  6
BYBLOCK
 62
     0
 10
0.0
 20
0.0
 30
0.0
 11
-1.0
 21
0.0
 31
0.0
  0
ENDBLK
  5
D48D
  8
0
  0
BLOCK
  8
0
  2
_ACMFILLEDHALF
 70
     0
 10
0.0
 20
0.0
 30
0.0
  3
_ACMFILLEDHALF
  1

  0
TRACE
  5
D54C
  8
0
  6
CONTINUOUS
 62
     0
 10
-0.8
 20
0.0
 30
0.0
 11
-1.0
 21
0.166666666
 31
0.0
 12
0.0
 22
0.0
 32
0.0
 13
0.0
 23
0.0
 33
0.0
  0
LINE
  5
D54D
  8
0
  6
CONTINUOUS
 62
     0
 10
-1.0
 20
0.0
 30
0.0
 11
-0.8
 21
0.0
 31
0.0
  0
ENDBLK
  5
D54E
  8
0
  0
ENDSEC
  0
SECTION
  2
ENTITIES
  0
LINE
  5
9CBB
  8
0
 10
862.72837914217598
 20
687.69517088288683
 30
0.0
 11
943.72842914217631
 21
687.69517088288683
 31
0.0
  0
LINE
  5
9CBC
  8
0
 10
862.72837914217598
 20
687.69517088288683
 30
0.0
 11
862.72837914217598
 21
683.69517088288671
 31
0.0
  0
LINE
  5
9CBD
  8
0
 10
838.7283791421761
 20
623.69515088288654
 30
0.0
 11
943.72842914217631
 21
623.69515088288654
 31
0.0
  0
LINE
  5
9CBE
  8
0
 10
838.7283791421761
 20
683.69517088288671
 30
0.0
 11
943.72842914217631
 21
683.69517088288671
 31
0.0
  0
LINE
  5
9CBF
  8
0
 10
943.72842914217631
 20
687.69517088288683
 30
0.0
 11
943.72842914217631
 21
623.69515088288654
 31
0.0
  0
LINE
  5
9CC0
  8
0
 10
838.7283791421761
 20
686.19517088288615
 30
0.0
 11
838.7283791421761
 21
621.19515088288654
 31
0.0
  0
LINE
  5
9CC1
  8
0
 10
832.72837914217587
 20
621.19515088288654
 30
0.0
 11
838.7283791421761
 21
621.19515088288654
 31
0.0
  0
LINE
  5
9CC2
  8
0
 10
832.72837914217587
 20
686.19517088288615
 30
0.0
 11
838.7283791421761
 21
686.19517088288615
 31
0.0
  0
LINE
  5
9CC3
  8
0
 10
1280.4552054750659
 20
687.69517088288683
 30
0.0
 11
1280.4552054750659
 21
676.69517088288615
 31
0.0
  0
LINE
  5
9CC4
  8
0
 10
1262.455205475065
 20
676.69517088288615
 30
0.0
 11
1280.4552054750659
 21
676.69517088288615
 31
0.0
  0
LINE
  5
9CC5
  8
0
 10
1262.455205475065
 20
687.69517088288683
 30
0.0
 11
1280.4552054750659
 21
687.69517088288683
 31
0.0
  0
LINE
  5
9CC6
  8
0
 10
1262.455205475065
 20
687.69517088288683
 30
0.0
 11
1262.455205475065
 21
676.69517088288615
 31
0.0
  0
LINE
  5
9CC7
  8
0
 10
1266.4552354750649
 20
831.69517088288649
 30
0.0
 11
1266.4552354750649
 21
789.69517088288649
 31
0.0
  0
LINE
  5
9CC8
  8
0
 10
1276.455235475066
 20
831.69517088288649
 30
0.0
 11
1276.455235475066
 21
789.69517088288649
 31
0.0
  0
LINE
  5
9CC9
  8
0
 10
1284.0738554750669
 20
785.25232088288681
 30
0.0
 11
1281.7047154750669
 21
794.09407088288685
 31
0.0
  0
LINE
  5
9CCA
  8
0
 10
1258.8365504750659
 20
785.25227088288682
 30
0.0
 11
1261.2056904750671
 21
794.09407088288685
 31
0.0
  0
LINE
  5
9CCB
  8
0
 10
1261.977175475065
 20
794.81612088288648
 30
0.0
 11
1266.455205475067
 21
795.70387088288624
 31
0.0
  0
LINE
  5
9CCC
  8
0
 10
1276.455235475066
 20
795.70392088288622
 30
0.0
 11
1280.9332954750671
 21
794.81617088288624
 31
0.0
  0
LINE
  5
9CCD
  8
0
 10
690.22837914217575
 20
785.69517088288649
 30
0.0
 11
690.22837914217575
 21
505.9332458828863
 31
0.0
  0
LINE
  5
9CCE
  8
0
 10
829.62372914217656
 20
718.80357088288645
 30
0.0
 11
829.83312914217549
 21
718.79622088288625
 31
0.0
  0
LINE
  5
9CCF
  8
0
 10
645.62492914217523
 20
463.45375588288658
 30
0.0
 11
692.12492914217535
 21
507.73946088288659
 31
0.0
  0
LINE
  5
9CD0
  8
0
 10
1171.455235475066
 20
455.69514588288672
 30
0.0
 11
1171.455235475066
 21
428.69514588288661
 31
0.0
  0
LINE
  5
9CD1
  8
0
 10
1091.4552204750639
 20
428.69514588288661
 30
0.0
 11
1171.455235475066
 21
428.69514588288661
 31
0.0
  0
LINE
  5
9CD2
  8
0
 10
1096.4552204750651
 20
460.69514588288661
 30
0.0
 11
1166.455235475066
 21
460.69514588288661
 31
0.0
  0
LINE
  5
9CD3
  8
0
 10
1174.4552054750659
 20
431.69514588288661
 30
0.0
 11
1271.455235475066
 21
431.69514588288661
 31
0.0
  0
LINE
  5
9CD4
  8
0
 10
1134.6367804750671
 20
685.49672088288662
 30
0.0
 11
1091.4552204750639
 21
463.34666588288661
 31
0.0
  0
LINE
  5
9CD5
  8
0
 10
1091.4552204750639
 20
463.34663588288657
 30
0.0
 11
1091.4552204750639
 21
428.69514588288661
 31
0.0
  0
LINE
  5
9CD6
  8
0
 10
572.72837914217598
 20
455.69514588288672
 30
0.0
 11
572.72837914217598
 21
428.69514588288661
 31
0.0
  0
LINE
  5
9CD7
  8
0
 10
577.72837914217575
 20
460.69514588288661
 30
0.0
 11
638.72837914217598
 21
460.69514588288661
 31
0.0
  0
LINE
  5
9CD8
  8
0
 10
832.72837914217587
 20
455.69514588288672
 30
0.0
 11
832.72837914217587
 21
428.69514588288661
 31
0.0
  0
LINE
  5
9CD9
  8
0
 10
781.72837914217575
 20
460.69514588288661
 30
0.0
 11
827.72837914217598
 21
460.69514588288661
 31
0.0
  0
LINE
  5
9CDA
  8
0
 10
766.72837914217575
 20
499.34712588288608
 30
0.0
 11
786.72837914217575
 21
499.34712588288608
 31
0.0
  0
LINE
  5
9CDB
  8
0
 10
572.72837914217598
 20
428.69514588288661
 30
0.0
 11
832.72837914217587
 21
428.69514588288661
 31
0.0
  0
LINE
  5
9CDC
  8
0
 10
805.85692914217543
 20
747.52122088288684
 30
0.0
 11
819.42572914217544
 21
746.33407088288641
 31
0.0
  0
LINE
  5
9CDD
  8
0
 10
832.72837914217587
 20
715.79807088288669
 30
0.0
 11
832.72837914217587
 21
591.59221588288665
 31
0.0
  0
LINE
  5
9CDE
  8
0
 10
826.72837914217587
 20
738.36447088288685
 30
0.0
 11
826.72837914217587
 21
460.69514588288661
 31
0.0
  0
LINE
  5
9CDF
  8
0
 10
695.22837914217575
 20
582.99736588288624
 30
0.0
 11
695.22837914217575
 21
514.98085588288654
 31
0.0
  0
LINE
  5
9CE0
  8
0
 10
829.62372914217656
 20
588.58675088288624
 30
0.0
 11
829.83312914217549
 21
588.59404588288669
 31
0.0
  0
LINE
  5
9CE1
  8
0
 10
796.7283791421761
 20
767.31612088288625
 30
0.0
 11
796.7283791421761
 21
509.3471258828863
 31
0.0
  0
LINE
  5
9CE2
  8
0
 10
766.72837914217575
 20
689.62207088288608
 30
0.0
 11
766.72837914217575
 21
475.69514588288661
 31
0.0
  0
LINE
  5
9CE3
  8
0
 10
731.94357914217562
 20
779.2353708828864
 30
0.0
 11
787.07737914217535
 21
777.31007088288652
 31
0.0
  0
LINE
  5
9CE4
  8
0
 10
781.72837914217575
 20
704.62207088288619
 30
0.0
 11
796.7283791421761
 21
704.62207088288619
 31
0.0
  0
LINE
  5
9CE5
  8
0
 10
1141.4552354750649
 20
702.99717088288662
 30
0.0
 11
1141.4552354750649
 21
565.69515088288654
 31
0.0
  0
LINE
  5
9CE6
  8
0
 10
690.22842914217563
 20
785.69517088288649
 30
0.0
 11
715.24492914217524
 21
784.82157088288682
 31
0.0
  0
LINE
  5
9CE7
  8
0
 10
724.54687914217516
 20
782.15427088288675
 30
0.0
 11
727.29257914217578
 21
780.56907088288665
 31
0.0
  0
LINE
  5
9CE8
  8
0
 10
1164.455205475065
 20
638.69515088288654
 30
0.0
 11
1164.455205475065
 21
475.69514588288661
 31
0.0
  0
LINE
  5
9CE9
  8
0
 10
690.22837914217575
 20
582.99736588288624
 30
0.0
 11
720.22837914217575
 21
582.99736588288624
 31
0.0
  0
LINE
  5
9CEA
  8
0
 10
720.22837914217575
 20
784.00972088288654
 30
0.0
 11
720.22837914217575
 21
582.99736588288624
 31
0.0
  0
LINE
  5
9CEB
  8
0
 10
1205.6322054750669
 20
443.37468088288682
 30
0.0
 11
1195.457155475066
 21
450.76729088288658
 31
0.0
  0
LINE
  5
9CEC
  8
0
 10
1211.5100754750661
 20
441.46486088288668
 30
0.0
 11
1271.455235475066
 21
441.46486088288668
 31
0.0
  0
LINE
  5
9CED
  8
0
 10
1174.384160475066
 20
441.62407088288637
 30
0.0
 11
1182.5082754750661
 21
449.74818588288599
 31
0.0
  0
LINE
  5
9CEE
  8
0
 10
1368.5262804750651
 20
441.62410088288658
 30
0.0
 11
1360.4021654750679
 21
449.74818588288599
 31
0.0
  0
LINE
  5
9CEF
  8
0
 10
1331.4003654750661
 20
441.46486088288668
 30
0.0
 11
1271.455235475066
 21
441.46486088288668
 31
0.0
  0
LINE
  5
9CF0
  8
0
 10
1337.278175475067
 20
443.3747108828868
 30
0.0
 11
1347.4532504750671
 21
450.76732088288679
 31
0.0
  0
LINE
  5
9CF1
  8
0
 10
1378.4552054750659
 20
638.69515088288654
 30
0.0
 11
1378.4552054750659
 21
475.69514588288661
 31
0.0
  0
LINE
  5
9CF2
  8
0
 10
1401.4552204750689
 20
702.99717088288662
 30
0.0
 11
1401.4552204750689
 21
565.69515088288654
 31
0.0
  0
LINE
  5
9CF3
  8
0
 10
1451.455220475068
 20
463.34663588288657
 30
0.0
 11
1451.455220475068
 21
428.69514588288661
 31
0.0
  0
LINE
  5
9CF4
  8
0
 10
1408.273610475065
 20
685.49672088288662
 30
0.0
 11
1451.4552054750659
 21
463.34666588288661
 31
0.0
  0
LINE
  5
9CF5
  8
0
 10
1368.4552054750659
 20
431.69514588288661
 30
0.0
 11
1271.455235475066
 21
431.69514588288661
 31
0.0
  0
LINE
  5
9CF6
  8
0
 10
1446.455220475068
 20
460.69514588288661
 30
0.0
 11
1376.455220475068
 21
460.69514588288661
 31
0.0
  0
LINE
  5
9CF7
  8
0
 10
1451.455220475068
 20
428.69514588288661
 30
0.0
 11
1371.455220475068
 21
428.69514588288661
 31
0.0
  0
LINE
  5
9CF8
  8
0
 10
1371.455220475068
 20
455.69514588288672
 30
0.0
 11
1371.455220475068
 21
428.69514588288661
 31
0.0
  0
LINE
  5
9CF9
  8
0
 10
631.47537914217526
 20
751.69272088288665
 30
0.0
 11
618.98142914217522
 21
741.69757088288623
 31
0.0
  0
LINE
  5
9CFA
  8
0
 10
618.1929791421752
 20
476.97514588288658
 30
0.0
 11
632.26382914217515
 21
463.0450008828866
 31
0.0
  0
LINE
  5
9CFB
  8
0
 10
668.22842914217563
 20
773.44272088288653
 30
0.0
 11
668.22842914217563
 21
760.81582088288678
 31
0.0
  0
LINE
  5
9CFC
  8
0
 10
570.72842914217563
 20
493.69514588288661
 30
0.0
 11
610.22837914217598
 21
493.69514588288661
 31
0.0
  0
LINE
  5
9CFD
  8
0
 10
555.72842914217563
 20
485.69514588288661
 30
0.0
 11
566.72837914217575
 21
485.69514588288661
 31
0.0
  0
LINE
  5
9CFE
  8
0
 10
555.72842914217563
 20
725.69517088288683
 30
0.0
 11
566.72837914217575
 21
725.69517088288683
 31
0.0
  0
LINE
  5
9CFF
  8
0
 10
635.22837914217598
 20
783.69522088288682
 30
0.0
 11
635.22837914217598
 21
460.69514588288661
 31
0.0
  0
LINE
  5
9D01
  8
0
 10
568.72837914217587
 20
723.69517088288615
 30
0.0
 11
568.72837914217587
 21
487.69518088288658
 31
0.0
  0
LINE
  5
9D02
  8
0
 10
570.72842914217563
 20
717.69517088288683
 30
0.0
 11
610.22837914217598
 21
717.69517088288683
 31
0.0
  0
LINE
  5
9D03
  8
0
 10
555.72842914217563
 20
725.69517088288683
 30
0.0
 11
555.72842914217563
 21
485.69514588288661
 31
0.0
  0
LINE
  5
9D04
  8
0
 10
615.22837914217575
 20
733.88887088288675
 30
0.0
 11
615.22837914217575
 21
484.08165088288661
 31
0.0
  0
LINE
  5
9D05
  8
0
 10
640.0538791421767
 20
783.9430208828868
 30
0.0
 11
690.22837914217575
 21
785.69517088288649
 31
0.0
  0
LINE
  5
9D06
  8
0
 10
637.22842914217563
 20
785.69517088288649
 30
0.0
 11
690.22837914217575
 21
785.69517088288649
 31
0.0
  0
LINE
  5
9D07
  8
0
 10
640.434379142176
 20
794.69517088288649
 30
0.0
 11
660.02247914217594
 21
794.69517088288649
 31
0.0
  0
LINE
  5
9D08
  8
0
 10
637.72837914217598
 20
785.69517088288649
 30
0.0
 11
639.97887914217608
 21
794.09407088288685
 31
0.0
  0
LINE
  5
9D09
  8
0
 10
662.72837914217598
 20
785.69522088288682
 30
0.0
 11
660.47797914217574
 21
794.09407088288685
 31
0.0
  0
LINE
  5
9D0A
  8
0
 10
640.75037914217671
 20
794.81617088288624
 30
0.0
 11
650.22837914217598
 21
796.69517088288615
 31
0.0
  0
LINE
  5
9D0B
  8
0
 10
650.22852914217674
 20
796.69507088288685
 30
0.0
 11
659.70647914217523
 21
794.81612088288648
 31
0.0
  0
LINE
  5
9D0C
  8
0
 10
528.72837914217575
 20
705.42237088288607
 30
0.0
 11
568.72837914217587
 21
705.42237088288607
 31
0.0
  0
LINE
  5
9D0D
  8
0
 10
526.72837914217598
 20
689.8659708828867
 30
0.0
 11
568.72837914217587
 21
689.8659708828867
 31
0.0
  0
LINE
  5
9D0E
  8
0
 10
526.72837914217598
 20
521.52428088288661
 30
0.0
 11
568.72837914217587
 21
521.52428088288661
 31
0.0
  0
LINE
  5
9D0F
  8
0
 10
528.72837914217575
 20
505.96794588288662
 30
0.0
 11
568.72837914217587
 21
505.96794588288662
 31
0.0
  0
LINE
  5
9D10
  8
0
 10
568.72837914217587
 20
534.76235088288661
 30
0.0
 11
615.22837914217575
 21
534.76235088288661
 31
0.0
  0
LINE
  5
9D11
  8
0
 10
568.72837914217587
 20
519.02028088288682
 30
0.0
 11
615.22837914217575
 21
519.02028088288682
 31
0.0
  0
LINE
  5
9D12
  8
0
 10
568.72837914217587
 20
676.62797088288653
 30
0.0
 11
615.22837914217575
 21
676.62797088288653
 31
0.0
  0
LINE
  5
9D13
  8
0
 10
568.72837914217587
 20
692.37002088288625
 30
0.0
 11
615.22837914217575
 21
692.37002088288625
 31
0.0
  0
LINE
  5
9D14
  8
0
 10
539.72842914217563
 20
681.69177088288632
 30
0.0
 11
568.72837914217587
 21
681.69177088288632
 31
0.0
  0
LINE
  5
9D15
  8
0
 10
539.72842914217563
 20
529.69850588288625
 30
0.0
 11
568.72837914217587
 21
529.69850588288625
 31
0.0
  0
LINE
  5
9D16
  8
0
 10
640.22837914217575
 20
516.36867088288682
 30
0.0
 11
666.22837914217575
 21
516.36867088288682
 31
0.0
  0
LINE
  5
9D17
  8
0
 10
640.22837914217575
 20
556.63805088288655
 30
0.0
 11
666.22837914217575
 21
556.63805088288655
 31
0.0
  0
LINE
  5
9D18
  8
0
 10
640.22837914217575
 20
641.74599088288619
 30
0.0
 11
666.22837914217575
 21
641.74599088288619
 31
0.0
  0
LINE
  5
9D19
  8
0
 10
640.22837914217575
 20
678.92017088288617
 30
0.0
 11
666.22837914217575
 21
678.92017088288617
 31
0.0
  0
LINE
  5
9D1A
  8
0
 10
640.22837914217575
 20
758.81582088288701
 30
0.0
 11
666.22837914217575
 21
758.81582088288701
 31
0.0
  0
LINE
  5
9D1B
  8
0
 10
640.22837914217575
 20
775.44272088288665
 30
0.0
 11
666.22837914217575
 21
775.44272088288665
 31
0.0
  0
LINE
  5
9D1C
  8
0
 10
668.22842914217563
 20
554.63802088288605
 30
0.0
 11
668.22842914217563
 21
518.36870088288663
 31
0.0
  0
LINE
  5
9D1D
  8
0
 10
668.22842914217563
 20
676.92017088288617
 30
0.0
 11
668.22842914217563
 21
643.7459908828863
 31
0.0
  0
LINE
  5
9D1E
  8
0
 10
540.72842914217563
 20
725.69517088288683
 30
0.0
 11
555.72842914217563
 21
725.69517088288683
 31
0.0
  0
LINE
  5
9D1F
  8
0
 10
519.55387914217681
 20
484.43193588288619
 30
0.0
 11
555.72842914217563
 21
485.69518088288658
 31
0.0
  0
LINE
  5
9D20
  8
0
 10
514.72842914217563
 20
502.96794588288623
 30
0.0
 11
514.72837919217454
 21
463.19514211523659
 31
0.0
  0
LINE
  5
9D21
  8
0
 10
526.72837914217598
 20
507.96794588288623
 30
0.0
 11
526.72837914217598
 21
537.69847588288656
 31
0.0
  0
LINE
  5
9D22
  8
0
 10
475.22837914217592
 20
630.19518088288658
 30
0.0
 11
489.83312914217538
 21
630.70519088288665
 31
0.0
  0
LINE
  5
9D23
  8
0
 10
475.22837914217592
 20
460.19517588288659
 30
0.0
 11
511.72837914217592
 21
460.19517588288659
 31
0.0
  0
LINE
  5
9D24
  8
0
 10
508.72837914217598
 20
545.19518088288669
 30
0.0
 11
508.72837914217598
 21
681.17847088288659
 31
0.0
  0
LINE
  5
9D25
  8
0
 10
492.72837914217598
 20
630.95873550760609
 30
0.0
 11
492.72837914217598
 21
652.69518088288669
 31
0.0
  0
LINE
  5
9D26
  8
0
 10
495.72837914217592
 20
655.69515088288654
 30
0.0
 11
505.72837914217598
 21
655.69515088288654
 31
0.0
  0
LINE
  5
9D27
  8
0
 10
509.39832914217709
 20
683.6784708828867
 30
0.0
 11
525.19247914217613
 21
711.03492088288624
 31
0.0
  0
LINE
  5
9D28
  8
0
 10
492.72837914217598
 20
630.43237088288652
 30
0.0
 11
507.98662914217579
 21
630.43237088288652
 31
0.0
  0
LINE
  5
9D29
  8
0
 10
537.72837914217575
 20
722.69517088288615
 30
0.0
 11
537.72837914217575
 21
705.42237088288607
 31
0.0
  0
LINE
  5
9D2A
  8
0
 10
527.79057914217515
 20
712.53492088288669
 30
0.0
 11
534.72842914217563
 21
712.53492088288669
 31
0.0
  0
LINE
  5
9D2B
  8
0
 10
537.72837914217575
 20
679.69182088288653
 30
0.0
 11
537.72837914217575
 21
531.69850588288625
 31
0.0
  0
LINE
  5
9D2C
  8
0
 10
526.72837914217598
 20
673.69177088288632
 30
0.0
 11
526.72837914217598
 21
703.42237088288618
 31
0.0
  0
ARC
  5
9D2D
  8
0
 10
1271.455235475066
 20
653.69515088288654
 30
0.0
 40
30.000000499999999
 50
107.457600000035
 51
72.542383999963974
  0
ARC
  5
9D2E
  8
0
 10
1271.455235475066
 20
831.69517088288649
 30
0.0
 40
5.0
 50
0.0
 51
179.999989999999
  0
ARC
  5
9D2F
  8
0
 10
1262.171635475067
 20
793.83527088288645
 30
0.0
 40
1.0
 50
101.2132899999918
 51
164.9999899999971
  0
ARC
  5
9D30
  8
0
 10
1280.738835475066
 20
793.83527088288645
 30
0.0
 40
1.0
 50
14.99999999999444
 51
78.786710000008199
  0
ARC
  5
9D31
  8
0
 10
1278.455235475066
 20
789.69517088288649
 30
0.0
 40
2.0000000500000001
 50
179.999989999999
 51
270.0
  0
ARC
  5
9D32
  8
0
 10
1264.455205475065
 20
789.69517088288649
 30
0.0
 40
2.0000000500000001
 50
270.0
 51
0.0
  0
CIRCLE
  5
9D33
  8
0
 10
1271.455235475066
 20
653.69515088288654
 30
0.0
 40
6.0
  0
CIRCLE
  5
9D34
  8
0
 10
1271.455235475066
 20
653.69515088288654
 30
0.0
 40
4.500000049999997
  0
CIRCLE
  5
9D35
  8
0
 10
1271.455235475066
 20
653.69515088288654
 30
0.0
 40
65.0
  0
ARC
  5
9D36
  8
0
 10
1096.4552204750651
 20
455.69514588288672
 30
0.0
 40
5.0
 50
90.000002999984659
 51
180.00001000000091
  0
ARC
  5
9D37
  8
0
 10
786.72837914217575
 20
509.3471258828863
 30
0.0
 40
10.0
 50
270.0
 51
0.0
  0
ARC
  5
9D38
  8
0
 10
1174.4552054750659
 20
428.69514588288661
 30
0.0
 40
3.0000000500000001
 50
90.000002999984659
 51
180.00001000000091
  0
ARC
  5
9D39
  8
0
 10
1271.455235475066
 20
605.69515088288654
 30
0.0
 40
180.00000499999999
 50
90.000002999984659
 51
108.48476000001961
  0
ARC
  5
9D3A
  8
0
 10
1166.455235475066
 20
455.69514588288672
 30
0.0
 40
5.0
 50
0.0
 51
90.000002999984659
  0
ARC
  5
9D3B
  8
0
 10
1252.432100475065
 20
662.59966088288616
 30
0.0
 40
120.0
 50
108.48476000001961
 51
169.00000000001569
  0
ARC
  5
9D3C
  8
0
 10
577.72837914217575
 20
455.69514588288672
 30
0.0
 40
5.0
 50
90.000002999984659
 51
180.00001000000091
  0
ARC
  5
9D3D
  8
0
 10
781.72837914217575
 20
475.69514588288661
 30
0.0
 40
15.0
 50
179.999989999999
 51
270.0
  0
ARC
  5
9D3E
  8
0
 10
781.72837914217575
 20
689.62207088288608
 30
0.0
 40
15.0
 50
90.000002999984659
 51
180.00001000000091
  0
ARC
  5
9D3F
  8
0
 10
806.72837914217575
 20
757.48312088288685
 30
0.0
 40
10.0
 50
179.999989999999
 51
265.00000000002638
  0
ARC
  5
9D40
  8
0
 10
827.72837914217598
 20
455.69514588288672
 30
0.0
 40
5.0
 50
0.0
 51
90.000002999984659
  0
ARC
  5
9D41
  8
0
 10
829.72842914217574
 20
591.59221588288665
 30
0.0
 40
3.0000000500000001
 50
272.00000000000369
 51
0.0
  0
ARC
  5
9D42
  8
0
 10
818.72837914217587
 20
738.36447088288685
 30
0.0
 40
8.0
 50
0.0
 51
84.999996999985655
  0
ARC
  5
9D43
  8
0
 10
829.72842914217574
 20
721.80172088288623
 30
0.0
 40
3.0000000500000001
 50
179.999989999999
 51
268.00000999999207
  0
ARC
  5
9D44
  8
0
 10
1271.455235475066
 20
605.69515088288654
 30
0.0
 40
175.00000499999999
 50
90.000002999984659
 51
111.4753500000155
  0
ARC
  5
9D45
  8
0
 10
1271.455235475066
 20
565.69515088288654
 30
0.0
 40
130.0
 50
179.999989999999
 51
214.60598999999581
  0
ARC
  5
9D46
  8
0
 10
786.72837914217575
 20
767.31612088288625
 30
0.0
 40
10.0
 50
0.0
 51
87.999999999996362
  0
ARC
  5
9D47
  8
0
 10
1151.455235475066
 20
702.99717088288662
 30
0.0
 40
10.0
 50
155.21109000000271
 51
180.00001000000091
  0
ARC
  5
9D48
  8
0
 10
1271.455235475066
 20
638.69515088288654
 30
0.0
 40
107.0
 50
90.000002999984659
 51
180.00001000000091
  0
ARC
  5
9D49
  8
0
 10
638.72837914217598
 20
470.69514588288661
 30
0.0
 40
10.0
 50
270.0
 51
313.60281999996982
  0
ARC
  5
9D4A
  8
0
 10
685.22837914217598
 20
514.98085588288654
 30
0.0
 40
10.0
 50
313.60281999996982
 51
0.0
  0
ARC
  5
9D4B
  8
0
 10
829.72842914217574
 20
585.58858088288673
 30
0.0
 40
3.0000000500000001
 50
91.999997999994051
 51
180.00001000000091
  0
ARC
  5
9D4C
  8
0
 10
829.72842914217574
 20
715.79807088288669
 30
0.0
 40
3.0000000500000001
 50
0.0
 51
87.999999999996362
  0
ARC
  5
9D4D
  8
0
 10
1251.319645475068
 20
656.87679088288633
 30
0.0
 40
120.0
 50
111.4753500000155
 51
169.00000000001569
  0
ARC
  5
9D4E
  8
0
 10
1149.4552004750669
 20
475.69514588288661
 30
0.0
 40
15.0
 50
270.0
 51
0.0
  0
ARC
  5
9D4F
  8
0
 10
714.54687914217538
 20
764.83372088288684
 30
0.0
 40
20.000000499999999
 50
60.000001999986701
 51
87.999999999996362
  0
ARC
  5
9D50
  8
0
 10
732.29257914217578
 20
789.22932088288621
 30
0.0
 40
10.0
 50
240.0000000000002
 51
267.99999999999642
  0
ARC
  5
9D51
  8
0
 10
1211.5100754750661
 20
451.46486088288663
 30
0.0
 40
10.0
 50
233.99999999998889
 51
270.0
  0
ARC
  5
9D52
  8
0
 10
1189.5793204750671
 20
442.67711088288661
 30
0.0
 40
10.0
 50
54.000001999974742
 51
135.00000000000941
  0
ARC
  5
9D53
  8
0
 10
1181.455235475066
 20
434.55302588288612
 30
0.0
 40
10.0
 50
135.00000000000941
 51
180.00001000000091
  0
ARC
  5
9D54
  8
0
 10
1361.455235475066
 20
434.55302588288612
 30
0.0
 40
10.0
 50
0.0
 51
45.000001000028973
  0
ARC
  5
9D55
  8
0
 10
1353.3310904750681
 20
442.67711088288661
 30
0.0
 40
10.0
 50
45.000001000028973
 51
126.0000000000111
  0
ARC
  5
9D56
  8
0
 10
1331.4003654750661
 20
451.46486088288663
 30
0.0
 40
10.0
 50
270.0
 51
306.00000000001108
  0
ARC
  5
9D57
  8
0
 10
1393.455205475065
 20
475.69514588288661
 30
0.0
 40
15.0
 50
179.999989999999
 51
270.0
  0
ARC
  5
9D58
  8
0
 10
1291.5907654750649
 20
656.87679088288633
 30
0.0
 40
120.0
 50
10.999999999984301
 51
68.524650999994023
  0
ARC
  5
9D59
  8
0
 10
1271.455235475066
 20
638.69515088288654
 30
0.0
 40
107.0
 50
0.0
 51
90.000002999984659
  0
ARC
  5
9D5A
  8
0
 10
1391.455220475068
 20
702.99717088288662
 30
0.0
 40
10.0
 50
0.0
 51
24.78891099997702
  0
ARC
  5
9D5B
  8
0
 10
1271.455235475066
 20
605.69515088288654
 30
0.0
 40
175.00000499999999
 50
68.524644999992361
 51
90.000002999984659
  0
ARC
  5
9D5C
  8
0
 10
1271.455235475066
 20
565.69515088288654
 30
0.0
 40
130.0
 50
325.39400000001319
 51
0.0
  0
ARC
  5
9D5D
  8
0
 10
1290.4783654750649
 20
662.59966088288616
 30
0.0
 40
120.0
 50
10.999999999984301
 51
71.515242999973225
  0
ARC
  5
9D5E
  8
0
 10
1368.4552054750659
 20
428.69514588288661
 30
0.0
 40
3.0000000500000001
 50
0.0
 51
90.000002999984659
  0
ARC
  5
9D5F
  8
0
 10
1376.455220475068
 20
455.69514588288672
 30
0.0
 40
5.0
 50
90.000002999984659
 51
180.00001000000091
  0
ARC
  5
9D60
  8
0
 10
1271.455235475066
 20
605.69515088288654
 30
0.0
 40
180.00000499999999
 50
71.515242999973225
 51
90.000002999984659
  0
ARC
  5
9D61
  8
0
 10
1446.455220475068
 20
455.69514588288672
 30
0.0
 40
5.0
 50
0.0
 51
90.000002999984659
  0
ARC
  5
9D62
  8
0
 10
637.22842914217563
 20
783.69522088288682
 30
0.0
 40
2.0000000500000001
 50
90.000002999984659
 51
180.00001000000091
  0
ARC
  5
9D63
  8
0
 10
625.22837914217598
 20
455.93846588288642
 30
0.0
 40
10.0
 50
28.402999999994758
 51
45.287917999991379
  0
ARC
  5
9D64
  8
0
 10
610.22837914217598
 20
488.69514588288672
 30
0.0
 40
5.0
 50
0.0
 51
90.000002999984659
  0
ARC
  5
9D65
  8
0
 10
625.22837914217598
 20
759.50137088288625
 30
0.0
 40
10.0
 50
308.65980999996481
 51
0.0
  0
ARC
  5
9D66
  8
0
 10
640.22837914217575
 20
778.94607088288637
 30
0.0
 40
5.0
 50
91.999997999994051
 51
180.00001000000091
  0
ARC
  5
9D67
  8
0
 10
610.22837914217598
 20
722.69517088288615
 30
0.0
 40
5.0
 50
270.0
 51
0.0
  0
ARC
  5
9D68
  8
0
 10
566.72837914217575
 20
723.69517088288615
 30
0.0
 40
2.0000000500000001
 50
0.0
 51
90.000002999984659
  0
ARC
  5
9D69
  8
0
 10
566.72837914217575
 20
487.69518088288658
 30
0.0
 40
2.0000000500000001
 50
270.0
 51
0.0
  0
ARC
  5
9D6A
  8
0
 10
625.22837914217598
 20
733.88887088288675
 30
0.0
 40
10.0
 50
128.65980999996489
 51
180.00001000000091
  0
ARC
  5
9D6B
  8
0
 10
570.72842914217563
 20
491.69514588288661
 30
0.0
 40
2.0000000500000001
 50
90.000002999984659
 51
180.00001000000091
  0
ARC
  5
9D6C
  8
0
 10
570.72842914217563
 20
719.69517088288615
 30
0.0
 40
2.0000000500000001
 50
179.999989999999
 51
270.0
  0
ARC
  5
9D6D
  8
0
 10
625.22837914217598
 20
484.08165088288661
 30
0.0
 40
10.0
 50
179.999989999999
 51
225.28791999999629
  0
CIRCLE
  5
9D6E
  8
0
 10
650.22837914217598
 20
811.69517088288637
 30
0.0
 40
15.0
  0
ARC
  5
9D6F
  8
0
 10
650.22837914217598
 20
811.69517088288637
 30
0.0
 40
25.000000499999999
 50
306.46672000003292
 51
233.5332899999535
  0
ARC
  5
9D70
  8
0
 10
640.94482914217576
 20
793.83527088288645
 30
0.0
 40
1.0
 50
101.2132899999918
 51
164.9999899999971
  0
ARC
  5
9D71
  8
0
 10
659.51202914217527
 20
793.83527088288645
 30
0.0
 40
1.0
 50
14.99999999999444
 51
78.786710000008199
  0
ARC
  5
9D72
  8
0
 10
631.80337914217671
 20
786.76487088288638
 30
0.0
 40
6.0
 50
349.72994999998753
 51
53.533291000035632
  0
ARC
  5
9D73
  8
0
 10
668.65342914217558
 20
786.76487088288638
 30
0.0
 40
6.0
 50
126.46669999999681
 51
190.27005999999309
  0
ARC
  5
9D74
  8
0
 10
666.22837914217575
 20
760.81582088288678
 30
0.0
 40
2.0000000500000001
 50
270.0
 51
0.0
  0
ARC
  5
9D75
  8
0
 10
666.22837914217575
 20
773.44272088288653
 30
0.0
 40
2.0000000500000001
 50
0.0
 51
90.000002999984659
  0
ARC
  5
9D76
  8
0
 10
666.22837914217575
 20
518.36870088288663
 30
0.0
 40
2.0000000500000001
 50
270.0
 51
0.0
  0
ARC
  5
9D77
  8
0
 10
666.22837914217575
 20
554.63802088288605
 30
0.0
 40
2.0000000500000001
 50
0.0
 51
90.000002999984659
  0
ARC
  5
9D78
  8
0
 10
666.22837914217575
 20
643.7459908828863
 30
0.0
 40
2.0000000500000001
 50
270.0
 51
0.0
  0
ARC
  5
9D79
  8
0
 10
666.22837914217575
 20
676.92017088288617
 30
0.0
 40
2.0000000500000001
 50
0.0
 51
90.000002999984659
  0
ARC
  5
9D7A
  8
0
 10
640.22837914217575
 20
511.36867088288659
 30
0.0
 40
5.0
 50
90.000002999984659
 51
180.00001000000091
  0
ARC
  5
9D7B
  8
0
 10
640.22837914217575
 20
561.63805088288655
 30
0.0
 40
5.0
 50
179.999989999999
 51
270.0
  0
ARC
  5
9D7C
  8
0
 10
640.22837914217575
 20
636.7459908828863
 30
0.0
 40
5.0
 50
90.000002999984659
 51
180.00001000000091
  0
ARC
  5
9D7D
  8
0
 10
640.22837914217575
 20
683.9201708828864
 30
0.0
 40
5.0
 50
179.999989999999
 51
270.0
  0
ARC
  5
9D7E
  8
0
 10
640.22837914217575
 20
753.81582088288678
 30
0.0
 40
5.0
 50
90.000002999984659
 51
180.00001000000091
  0
ARC
  5
9D7F
  8
0
 10
640.22837914217575
 20
780.44272088288665
 30
0.0
 40
5.0
 50
179.999989999999
 51
270.0
  0
ARC
  5
9D80
  8
0
 10
519.72842914217654
 20
479.43498588288668
 30
0.0
 40
5.0
 50
91.999997999994051
 51
180.00001000000091
  0
ARC
  5
9D81
  8
0
 10
495.72837914217592
 20
652.69518088288669
 30
0.0
 40
3.0000000500000001
 50
90.000002999984659
 51
180.00001000000091
  0
ARC
  5
9D82
  8
0
 10
505.72837914217598
 20
658.69515088288654
 30
0.0
 40
3.0000000500000001
 50
270.0
 51
0.0
  0
ARC
  5
9D83
  8
0
 10
511.72837914217592
 20
463.19514588288661
 30
0.0
 40
3.0000000500000001
 50
270.0
 51
0.2885557991143159
  0
ARC
  5
9D84
  8
0
 10
513.72837914217598
 20
681.17847088288659
 30
0.0
 40
5.0
 50
149.9999999999807
 51
180.00001000000091
  0
ARC
  5
9D85
  8
0
 10
489.72852914217651
 20
633.70333088288623
 30
0.0
 40
3.0000000500000001
 50
272.00000000000369
 51
0.0
  0
ARC
  5
9D86
  8
0
 10
489.72852914217651
 20
630.92873088288673
 30
0.0
 40
3.0000000500000001
 50
270.0
 51
0.5730556653541667
  0
ARC
  5
9D87
  8
0
 10
540.72842914217563
 20
722.69517088288615
 30
0.0
 40
3.0000000500000001
 50
90.000002999984659
 51
180.00001000000091
  0
ARC
  5
9D88
  8
0
 10
528.72837914217575
 20
703.42237088288618
 30
0.0
 40
2.0000000500000001
 50
90.000002999984659
 51
180.00001000000091
  0
ARC
  5
9D89
  8
0
 10
534.72842914217563
 20
715.53487088288682
 30
0.0
 40
3.0000000500000001
 50
270.0
 51
0.0
  0
ARC
  5
9D8A
  8
0
 10
527.79057914217515
 20
709.53487088288625
 30
0.0
 40
3.0000000500000001
 50
90.000002999984659
 51
149.9999999999807
  0
ARC
  5
9D8B
  8
0
 10
517.72837914217598
 20
502.96794588288623
 30
0.0
 40
3.0000000500000001
 50
90.000002999984659
 51
180.00001000000091
  0
ARC
  5
9D8C
  8
0
 10
528.72837914217575
 20
507.96794588288623
 30
0.0
 40
2.0000000500000001
 50
179.999989999999
 51
270.0
  0
ARC
  5
9D8D
  8
0
 10
539.72842914217563
 20
679.69182088288653
 30
0.0
 40
2.0000000500000001
 50
90.000002999984659
 51
180.00001000000091
  0
ARC
  5
9D8E
  8
0
 10
524.72842914217654
 20
673.69177088288632
 30
0.0
 40
2.0000000500000001
 50
270.0
 51
0.0
  0
ARC
  5
9D8F
  8
0
 10
524.72842914217654
 20
537.69847588288656
 30
0.0
 40
2.0000000500000001
 50
0.0
 51
90.000002999984659
  0
ARC
  5
9D90
  8
0
 10
539.72842914217563
 20
531.69850588288625
 30
0.0
 40
2.0000000500000001
 50
179.999989999999
 51
270.0
  0
LINE
  5
9D92
  8
0
  6
AM_ISO08W050
 10
1126.455235475066
 20
465.53355588288628
 30
0.0
 11
1126.455235475066
 21
422.45558588288679
 31
0.0
  0
LINE
  5
9D93
  8
0
  6
ACJISTGL
 10
1138.455235475066
 20
460.69514588288661
 30
0.0
 11
1138.455235475066
 21
428.69514588288661
 31
0.0
  0
LINE
  5
9D94
  8
0
  6
ACJISTGL
 10
1114.4552204750671
 20
460.69514588288661
 30
0.0
 11
1114.4552204750671
 21
428.69514588288661
 31
0.0
  0
LINE
  5
9D95
  8
0
  6
ACJISTGL
 10
1428.4552054750659
 20
460.69514588288661
 30
0.0
 11
1428.4552054750659
 21
428.69514588288661
 31
0.0
  0
LINE
  5
9D96
  8
0
  6
ACJISTGL
 10
1404.4552204750651
 20
460.69514588288661
 30
0.0
 11
1404.4552204750651
 21
428.69514588288661
 31
0.0
  0
LINE
  5
9D97
  8
0
  6
AM_ISO08W050
 10
1421.455235475066
 20
653.69515088288654
 30
0.0
 11
1121.455235475066
 21
653.69515088288654
 31
0.0
  0
LINE
  5
9D98
  8
0
  6
AM_ISO08W050
 10
1416.4552204750651
 20
465.53355588288628
 30
0.0
 11
1416.4552204750651
 21
422.45558588288679
 31
0.0
  0
LINE
  5
9D99
  8
0
  6
AM_ISO08W050
 10
1271.455235475066
 20
845.47294438326787
 30
0.0
 11
1271.455235475066
 21
419.25763088288659
 31
0.0
  0
LINE
  5
9DA1
  8
0
  6
AM_ISO08W050
 10
946.66742914217548
 20
653.69515088288654
 30
0.0
 11
596.47908744252322
 21
653.69515088288654
 31
0.0
  0
LINE
  5
9DA2
  8
0
  6
AM_ISO08W050
 10
602.72837914217575
 20
464.99492088288662
 30
0.0
 11
602.72837914217575
 21
423.3819908828865
 31
0.0
  0
LINE
  5
9DA3
  8
0
  6
AM_ISO08W050
 10
802.72837914217598
 20
464.99492088288662
 30
0.0
 11
802.72837914217598
 21
423.3819908828865
 31
0.0
  0
LINE
  5
9DA4
  8
0
  6
ACJISTGL
 10
790.72842914217563
 20
460.69514588288661
 30
0.0
 11
790.72842914217563
 21
428.69514588288661
 31
0.0
  0
LINE
  5
9DA5
  8
0
  6
ACJISTGL
 10
814.72842914217563
 20
460.69514588288661
 30
0.0
 11
814.72842914217563
 21
428.69514588288661
 31
0.0
  0
LINE
  5
9DA6
  8
0
  6
ACJISTGL
 10
590.72842914217563
 20
460.69514588288661
 30
0.0
 11
590.72842914217563
 21
428.69514588288661
 31
0.0
  0
LINE
  5
9DA7
  8
0
  6
ACJISTGL
 10
614.72842914217563
 20
460.69514588288661
 30
0.0
 11
614.72842914217563
 21
428.69514588288661
 31
0.0
  0
LINE
  5
9DA8
  8
0
  6
AM_ISO08W050
 10
133.22033486031791
 20
545.19518088288669
 30
0.0
 11
609.5727297483927
 21
545.19518088288669
 31
0.0
  0
LINE
  5
B52F
  8
0
 10
475.22837914217592
 20
460.1951808828868
 30
0.0
 11
475.22837914217592
 21
630.19518088288658
 31
0.0
  0
LINE
  5
C068
  8
0
 10
262.7283791421761
 20
479.45062604691122
 30
0.0
 11
262.72837914217598
 21
458.19511988288667
 31
0.0
  0
LINE
  5
C069
  8
0
 10
368.22837914217598
 20
490.78435288288659
 30
0.0
 11
368.22837914217598
 21
470.79940288288662
 31
0.0
  0
LINE
  5
C06A
  8
0
 10
409.22837914217598
 20
541.25831688288667
 30
0.0
 11
422.7583791421759
 21
541.25831688288667
 31
0.0
  0
LINE
  5
C06B
  8
0
 10
252.298379142176
 20
541.25831688288667
 30
0.0
 11
265.22837914217598
 21
541.25831688288667
 31
0.0
  0
LINE
  5
C06C
  8
0
 10
258.72837914217598
 20
534.69831688288662
 30
0.0
 11
258.72837914217598
 21
547.9683168828866
 31
0.0
  0
LINE
  5
C06D
  8
0
 10
403.22837914217592
 20
598.13831688288656
 30
0.0
 11
271.22837914217598
 21
598.13831688288656
 31
0.0
  0
LINE
  5
C06E
  8
0
 10
265.22837914217598
 20
592.13831688288656
 30
0.0
 11
265.22837914217598
 21
491.05831688288669
 31
0.0
  0
LINE
  5
C06F
  8
0
 10
409.22837914217598
 20
592.13831688288656
 30
0.0
 11
409.22837914217598
 21
491.05831688288669
 31
0.0
  0
LINE
  5
C070
  8
0
 10
271.22837914217598
 20
485.05831688288657
 30
0.0
 11
403.22837914217592
 21
485.05831688288657
 31
0.0
  0
LINE
  5
C071
  8
0
 10
415.74786314217579
 20
563.58522988288655
 30
0.0
 11
415.72837914217592
 21
592.15831688288665
 31
0.0
  0
LINE
  5
C072
  8
0
 10
403.22837914217592
 20
604.63831688288656
 30
0.0
 11
271.22837914217598
 21
604.63831688288656
 31
0.0
  0
LINE
  5
C073
  8
0
 10
258.72837914217598
 20
563.61831688288669
 30
0.0
 11
258.72837914217598
 21
592.13831688288656
 31
0.0
  0
LINE
  5
C074
  8
0
 10
258.72837914217598
 20
518.88831688288667
 30
0.0
 11
258.72837914217598
 21
488.61831688288657
 31
0.0
  0
LINE
  5
C075
  8
0
 10
415.72837914217592
 20
518.88831688288667
 30
0.0
 11
415.72837914217592
 21
488.61831688288657
 31
0.0
  0
LINE
  5
C076
  8
0
 10
271.22837914217598
 20
476.11831688288657
 30
0.0
 11
403.22837914217592
 21
476.11831688288657
 31
0.0
  0
ARC
  5
C077
  8
0
 10
430.7299411421759
 20
518.89727488288668
 30
0.0
 40
15.001564999999999
 50
131.81297400000079
 51
180.03421299999579
  0
ARC
  5
C078
  8
0
 10
403.2278671421758
 20
592.1378048828866
 30
0.0
 40
6.0005119999999996
 50
0.0048859999974049
 51
89.995114000002559
  0
ARC
  5
C079
  8
0
 10
271.226886142176
 20
592.13980988288665
 30
0.0
 40
5.998507
 50
89.985740000000476
 51
180.0142599999995
  0
ARC
  5
C07A
  8
0
 10
271.22587514217588
 20
491.05581288288658
 30
0.0
 40
5.9974970000000001
 50
179.9760820000013
 51
270.02391799999867
  0
ARC
  5
C07B
  8
0
 10
403.22887814217592
 20
491.05781788288658
 30
0.0
 40
5.9995010000000004
 50
269.99523699999969
 51
0.0047630000002228
  0
ARC
  5
C07C
  8
0
 10
243.72944414217599
 20
563.61818088288658
 30
0.0
 40
14.998934999999999
 50
311.8084959999992
 51
0.0005210000016347
  0
ARC
  5
C07D
  8
0
 10
243.726267142176
 20
518.88957288288668
 30
0.0
 40
15.007673
 50
358.4401929999994
 51
48.205064000001038
  0
ARC
  5
C07E
  8
0
 10
250.22532614217599
 20
514.46100788288663
 30
0.0
 40
15.003053
 50
359.98972200000082
 51
63.249136000002181
  0
ARC
  5
C07F
  8
0
 10
250.22801414217599
 20
568.0439708828867
 30
0.0
 40
15.000365
 50
296.74454000000122
 51
0.0166020000037755
  0
ARC
  5
C080
  8
0
 10
263.72637514217593
 20
541.25331688288668
 30
0.0
 40
14.998716
 50
116.7375830000023
 51
243.2624169999977
  0
ARC
  5
C081
  8
0
 10
424.22852514217578
 20
514.46279788288655
 30
0.0
 40
15.000147
 50
116.74402700000201
 51
180.01711599999811
  0
ARC
  5
C082
  8
0
 10
424.22583614217592
 20
568.04218088288656
 30
0.0
 40
14.997458999999999
 50
179.97655699999851
 51
243.26230100000319
  0
ARC
  5
C083
  8
0
 10
410.72637414217598
 20
541.25331688288668
 30
0.0
 40
15.00052
 50
296.75125799999751
 51
63.248742000002501
  0
ARC
  5
C084
  8
0
 10
403.225378142176
 20
592.13529488288657
 30
0.0
 40
12.503022
 50
0.1054989999989078
 51
89.986247999999051
  0
ARC
  5
C085
  8
0
 10
271.226886142176
 20
592.13980988288665
 30
0.0
 40
12.498507
 50
89.993155999999715
 51
180.0068440000002
  0
ARC
  5
C086
  8
0
 10
271.22387514217598
 20
488.61381288288658
 30
0.0
 40
12.495497
 50
179.97934999999549
 51
270.020649999998
  0
ARC
  5
C087
  8
0
 10
403.23087814217592
 20
488.61581788288657
 30
0.0
 40
12.497502000000001
 50
269.98854500000192
 51
0.0114549999980713
  0
ARC
  5
C088
  8
0
 10
430.74785914217591
 20
563.59545888288665
 30
0.0
 40
15.0
 50
180.03906999999671
 51
228.13549799999799
  0
LINE
  5
C089
  8
0
 10
420.18525514217578
 20
594.38018088288663
 30
0.0
 11
420.18525514217578
 21
574.01518088288663
 31
0.0
  0
LINE
  5
C08A
  8
0
 10
436.22837814217581
 20
594.38018088288663
 30
0.0
 11
436.22837814217581
 21
574.01518088288663
 31
0.0
  0
LINE
  5
C08B
  8
0
 10
450.77777414217599
 20
489.17438488288661
 30
0.0
 11
436.22837814217581
 21
489.17438488288661
 31
0.0
  0
LINE
  5
C08C
  8
0
 10
455.72837914217598
 20
500.58673488288662
 30
0.0
 11
436.22837814217581
 21
500.58673488288662
 31
0.0
  0
LINE
  5
C08D
  8
0
 10
420.93377614217587
 20
493.88947488288659
 30
0.0
 11
436.22837914217581
 21
489.17438488288661
 31
0.0
  0
LINE
  5
C08E
  8
0
 10
436.22837914217581
 20
500.58673488288662
 30
0.0
 11
421.19243814217572
 21
500.04598388288667
 31
0.0
  0
ARC
  5
C08F
  8
0
 10
421.22837914217592
 20
499.04662988288658
 30
0.0
 40
1.0
 50
92.059690999997201
 51
180.0
  0
ARC
  5
C090
  8
0
 10
421.22837914217592
 20
494.8450948828866
 30
0.0
 40
1.0
 50
180.0
 51
252.8662750000021
  0
LINE
  5
C091
  8
0
 10
436.22837914217581
 20
621.04796788288672
 30
0.0
 11
420.92792014217559
 21
616.22810188288656
 31
0.0
  0
ARC
  5
C092
  8
0
 10
421.22837914217592
 20
615.27430688288678
 30
0.0
 40
1.0
 50
107.485179
 51
180.0
  0
ARC
  5
C093
  8
0
 10
421.22837914217592
 20
612.92324188288671
 30
0.0
 40
1.0
 50
180.0
 51
270.0
  0
LINE
  5
C094
  8
0
 10
421.27693414217589
 20
611.92442088288669
 30
0.0
 11
436.22837914217581
 21
612.65124088288655
 31
0.0
  0
LINE
  5
C095
  8
0
 10
455.72837914217598
 20
612.65124088288655
 30
0.0
 11
436.22837914217581
 21
612.65124088288655
 31
0.0
  0
LINE
  5
C096
  8
0
 10
379.22837914217598
 20
643.48167388288675
 30
0.0
 11
466.67556414217592
 21
643.48167388288675
 31
0.0
  0
ARC
  5
C097
  8
0
 10
290.492624142176
 20
641.48167388288675
 30
0.0
 40
2.0
 50
90.0
 51
156.10179999999909
  0
ARC
  5
C098
  8
0
 10
466.67556414217592
 20
641.48167388288675
 30
0.0
 40
2.0
 50
10.000001999998901
 51
90.0
  0
LINE
  5
C099
  8
0
 10
470.22837914217592
 20
632.85019788288673
 30
0.0
 11
468.645179142176
 21
641.82897088288655
 31
0.0
  0
LINE
  5
C09A
  8
0
 10
469.96757114217593
 20
632.85019788288673
 30
0.0
 11
470.22837914217592
 21
632.85019788288673
 31
0.0
  0
ARC
  5
C09B
  8
0
 10
275.55959414217602
 20
640.2918998828867
 30
0.0
 40
2.0
 50
90.0
 51
169.99999800000111
  0
LINE
  5
C09C
  8
0
 10
271.22837914217598
 20
627.24589688288665
 30
0.0
 11
273.58997914217588
 21
640.63919688288672
 31
0.0
  0
ARC
  5
C09D
  8
0
 10
466.62454514217592
 20
640.2918998828867
 30
0.0
 40
2.0
 50
10.000001999998901
 51
90.0
  0
LINE
  5
C09E
  8
0
 10
470.22837914217592
 20
631.37107988288665
 30
0.0
 11
468.59416014217589
 21
640.63919688288672
 31
0.0
  0
LINE
  5
C09F
  8
0
 10
271.22837914217598
 20
627.24589688288665
 30
0.0
 11
271.79628514217598
 21
627.24589688288665
 31
0.0
  0
LINE
  5
C0A0
  8
0
 10
469.69240814217602
 20
631.37107988288665
 30
0.0
 11
470.22837914217592
 21
631.37107988288665
 31
0.0
  0
ARC
  5
C0A1
  8
0
 10
466.53869014217599
 20
637.73916588288671
 30
0.0
 40
2.0
 50
10.00000100000252
 51
90.0
  0
ARC
  5
C0A2
  8
0
 10
275.67738514217592
 20
637.73916588288671
 30
0.0
 40
2.0
 50
90.0
 51
169.9999989999975
  0
LINE
  5
C0A3
  8
0
 10
271.22837914217598
 20
624.02514088288672
 30
0.0
 11
273.70776914217601
 21
638.08646188288662
 31
0.0
  0
ARC
  5
C0A4
  8
0
 10
275.85852614217589
 20
633.77398088288669
 30
0.0
 40
2.0
 50
90.0
 51
170.00000000000139
  0
LINE
  5
C0A5
  8
0
 10
271.22837914217598
 20
619.03265588288673
 30
0.0
 11
273.88891014217597
 21
634.12127688288672
 31
0.0
  0
ARC
  5
C0A6
  8
0
 10
276.139754142176
 20
628.19655288288675
 30
0.0
 40
2.0
 50
90.0
 51
170.00000000000139
  0
LINE
  5
C0A7
  8
0
 10
271.22837914217598
 20
611.86030388288657
 30
0.0
 11
274.17013814217592
 21
628.54384988288678
 31
0.0
  0
ARC
  5
C0A8
  8
0
 10
276.23501814217587
 20
622.19588588288661
 30
0.0
 40
2.0
 50
90.0
 51
169.9999989999975
  0
LINE
  5
C0A9
  8
0
 10
271.22837914217598
 20
605.3193678828867
 30
0.0
 11
274.26540214217607
 21
622.54318188288664
 31
0.0
  0
LINE
  5
C0AA
  8
0
 10
470.10012014217591
 20
629.0588298828867
 30
0.0
 11
468.5083051421758
 21
638.08646188288662
 31
0.0
  0
LINE
  5
C0AB
  8
0
 10
271.22837914217598
 20
624.02514088288672
 30
0.0
 11
272.10868914217599
 21
624.02514088288672
 31
0.0
  0
ARC
  5
C0AC
  8
0
 10
466.40931214217602
 20
633.77398088288669
 30
0.0
 40
2.0
 50
9.9999999999986073
 51
90.0
  0
LINE
  5
C0AD
  8
0
 10
469.27157414217601
 20
629.0588298828867
 30
0.0
 11
468.37892814217582
 21
634.12127688288672
 31
0.0
  0
ARC
  5
C0AE
  8
0
 10
401.61739714217589
 20
628.19655288288675
 30
0.0
 40
2.0
 50
5.5986529999986434
 51
90.0
  0
ARC
  5
C0AF
  8
0
 10
401.61544214217588
 20
622.19588588288661
 30
0.0
 40
2.0
 50
5.4290190000020546
 51
90.0
  0
LINE
  5
C0B0
  8
0
 10
472.22837914217598
 20
505.47247488288662
 30
0.0
 11
472.22837914217598
 21
607.26111388288655
 31
0.0
  0
LINE
  5
C0B1
  8
0
 10
472.22837914217598
 20
629.0588298828867
 30
0.0
 11
472.22837914217598
 21
633.19518088288669
 31
0.0
  0
LINE
  5
C0B2
  8
0
 10
420.18525514217578
 20
619.03265588288673
 30
0.0
 11
436.22837814217581
 21
623.63251788288676
 31
0.0
  0
LINE
  5
C0B3
  8
0
 10
404.5252941421756
 20
619.03265588288673
 30
0.0
 11
420.18525514217578
 21
619.03265588288673
 31
0.0
  0
LINE
  5
C0B4
  8
0
 10
436.22837814217581
 20
623.63251788288676
 30
0.0
 11
450.92166214217559
 21
623.63251788288676
 31
0.0
  0
INSERT
  5
C0B5
  8
0
  2
$6-45
 10
455.72837914217598
 20
619.32844088288675
 30
0.0
 50
90.0
  0
INSERT
  5
C0B6
  8
0
  2
$6-45
 10
455.72837914217598
 20
493.2865138828866
 30
0.0
 50
90.0
  0
LINE
  5
C0B7
  8
0
 10
231.22837914217601
 20
548.19518088288658
 30
0.0
 11
163.236847142176
 21
548.19518088288658
 31
0.0
  0
LINE
  5
C0B8
  8
0
 10
470.16754914217597
 20
633.19518088288669
 30
0.0
 11
472.22837914217598
 21
633.19518088288669
 31
0.0
  0
LINE
  5
C0B9
  8
0
 10
275.85852614217589
 20
635.77398088288669
 30
0.0
 11
466.40931214217602
 21
635.77398088288669
 31
0.0
  0
LINE
  5
C0BA
  8
0
 10
275.67738514217592
 20
639.7391658828866
 30
0.0
 11
466.53869014217599
 21
639.7391658828866
 31
0.0
  0
LINE
  5
C0BB
  8
0
 10
275.55959414217602
 20
642.29189988288658
 30
0.0
 11
466.62454514217592
 21
642.29189988288658
 31
0.0
  0
LINE
  5
C0BC
  8
0
 10
262.72837914217598
 20
638.69518088288658
 30
0.0
 11
273.24719714217599
 21
638.69518088288658
 31
0.0
  0
LINE
  5
C0BD
  8
0
 10
290.492624142176
 20
643.48167388288675
 30
0.0
 11
357.22837914217598
 21
643.48167388288675
 31
0.0
  0
LINE
  5
C0BE
  8
0
 10
436.22837814217581
 20
602.35518088288654
 30
0.0
 11
436.22837814217581
 21
597.01018088288674
 31
0.0
  0
LINE
  5
C0BF
  8
0
 10
420.18525514217578
 20
602.35518088288654
 30
0.0
 11
420.18525514217578
 21
597.01018088288674
 31
0.0
  0
LINE
  5
C0C0
  8
0
 10
436.22837814217581
 20
612.65124088288655
 30
0.0
 11
436.22837814217581
 21
605.0551808828867
 31
0.0
  0
LINE
  5
C0C1
  8
0
 10
436.22837814217581
 20
621.04796788288672
 30
0.0
 11
450.32838514217599
 21
621.04796788288672
 31
0.0
  0
LINE
  5
C0C2
  8
0
 10
271.22837914217598
 20
605.3193678828867
 30
0.0
 11
405.22837914217598
 21
605.3193678828867
 31
0.0
  0
LINE
  5
C0C3
  8
0
 10
404.55075214217578
 20
611.86030388288657
 30
0.0
 11
405.22837914217598
 21
611.86030388288657
 31
0.0
  0
LINE
  5
C0C4
  8
0
 10
276.23501814217587
 20
624.19588588288661
 30
0.0
 11
401.61544214217588
 21
624.19588588288661
 31
0.0
  0
LINE
  5
C0C5
  8
0
 10
271.22837914217598
 20
611.86030388288657
 30
0.0
 11
272.38172214217587
 21
611.86030388288657
 31
0.0
  0
LINE
  5
C0C6
  8
0
 10
276.139754142176
 20
630.19655288288675
 30
0.0
 11
401.61739714217589
 21
630.19655288288675
 31
0.0
  0
LINE
  5
C0C7
  8
0
 10
472.22837914217598
 20
607.26111388288655
 30
0.0
 11
475.22837914217592
 21
605.52906288288671
 31
0.0
  0
ARC
  5
C0C8
  8
0
 10
454.72837914217598
 20
608.26111388288655
 30
0.0
 40
1.0
 50
270.0
 51
0.0
  0
ARC
  5
C0C9
  8
0
 10
457.72837914217592
 20
627.0588298828867
 30
0.0
 40
2.0
 50
90.0
 51
180.0
  0
ARC
  5
C0CA
  8
0
 10
457.72837914217592
 20
622.93482488288657
 30
0.0
 40
2.0
 50
180.0
 51
270.0
  0
ARC
  5
C0CB
  8
0
 10
457.72837914217592
 20
618.93482488288657
 30
0.0
 40
2.0
 50
90.0
 51
180.0
  0
LINE
  5
C0CC
  8
0
 10
457.72837914217592
 20
629.0588298828867
 30
0.0
 11
475.22837914217592
 21
629.0588298828867
 31
0.0
  0
LINE
  5
C0CD
  8
0
 10
455.72837914217598
 20
607.26111388288655
 30
0.0
 11
472.22837914217598
 21
607.26111388288655
 31
0.0
  0
LINE
  5
C0CE
  8
0
 10
457.72837914217592
 20
620.93482488288669
 30
0.0
 11
475.22837914217592
 21
620.93482488288669
 31
0.0
  0
LINE
  5
C0CF
  8
0
 10
455.72837914217598
 20
608.26111388288655
 30
0.0
 11
455.72837914217598
 21
627.0588298828867
 31
0.0
  0
LINE
  5
C0D0
  8
0
 10
271.22837914217598
 20
461.19518088288658
 30
0.0
 11
262.7283791421761
 21
461.19518088288658
 31
0.0
  0
LINE
  5
C0D1
  8
0
 10
272.05257414217601
 20
476.11831688288657
 30
0.0
 11
272.82112114217603
 21
467.77092488288662
 31
0.0
  0
LINE
  5
C0D2
  8
0
 10
271.22837914217598
 20
471.35770588288671
 30
0.0
 11
271.91115614217603
 21
471.35770588288671
 31
0.0
  0
LINE
  5
C0D3
  8
0
 10
271.22837914217598
 20
466.3652208828866
 30
0.0
 11
271.75289214217588
 21
466.3652208828866
 31
0.0
  0
LINE
  5
C0D4
  8
0
 10
271.22837914217598
 20
463.14446488288672
 30
0.0
 11
271.58832114217603
 21
463.14446488288672
 31
0.0
  0
LINE
  5
C0D5
  8
0
 10
271.18160214217608
 20
461.57488388288658
 30
0.0
 11
271.4119931421759
 21
461.57488388288658
 31
0.0
  0
LINE
  5
C0D6
  8
0
 10
271.45796614217602
 20
476.11831688288657
 30
0.0
 11
272.81603114217592
 21
461.85228388288658
 31
0.0
  0
LINE
  5
C0D7
  8
0
 10
271.22837914217598
 20
471.35770588288671
 30
0.0
 11
272.80021214217589
 21
456.3964948828866
 31
0.0
  0
LINE
  5
C0D8
  8
0
 10
271.22837914217598
 20
466.3652208828866
 30
0.0
 11
272.78969014217603
 21
452.3946298828867
 31
0.0
  0
LINE
  5
C0D9
  8
0
 10
271.22837914217598
 20
463.14446488288672
 30
0.0
 11
272.78159814217599
 21
449.8671368828866
 31
0.0
  0
LINE
  5
C0DA
  8
0
 10
271.18160214217608
 20
461.57488388288658
 30
0.0
 11
272.772118142176
 21
448.66414988288659
 31
0.0
  0
ARC
  5
C0DB
  8
0
 10
274.81269714217592
 20
467.9542898828866
 30
0.0
 40
2.0
 50
185.26041100000501
 51
270.0
  0
ARC
  5
C0DC
  8
0
 10
274.80702914217602
 20
462.04181888288667
 30
0.0
 40
2.0
 50
185.4379219999999
 51
270.0
  0
ARC
  5
C0DD
  8
0
 10
274.78926514217602
 20
456.60546588288668
 30
0.0
 40
2.0
 50
185.99752600000051
 51
270.0
  0
ARC
  5
C0DE
  8
0
 10
274.77731614217601
 20
452.61676088288658
 30
0.0
 40
2.0
 50
186.37674200000069
 51
270.0
  0
ARC
  5
C0DF
  8
0
 10
274.76805214217597
 20
450.09951788288657
 30
0.0
 40
2.0
 50
186.67229399999829
 51
270.0
  0
ARC
  5
C0E0
  8
0
 10
274.75711214217603
 20
448.90868788288662
 30
0.0
 40
2.0
 50
187.0230689999963
 51
270.0
  0
LINE
  5
C0E1
  8
0
 10
470.22837914217592
 20
560.37518088288664
 30
0.0
 11
468.46837914217582
 21
560.92518088288671
 31
0.0
  0
LINE
  5
C0E2
  8
0
 10
470.22837914217592
 20
563.01518088288663
 30
0.0
 11
470.22837914217592
 21
560.37518088288664
 31
0.0
  0
LINE
  5
C0E3
  8
0
 10
468.46837914217582
 20
562.52518088288662
 30
0.0
 11
470.22837914217592
 21
563.01518088288663
 31
0.0
  0
LINE
  5
C0E4
  8
0
 10
468.46837914217582
 20
562.52518088288662
 30
0.0
 11
468.46837914217582
 21
560.92518088288671
 31
0.0
  0
LINE
  5
C0E5
  8
0
 10
470.22837914217592
 20
549.37518088288664
 30
0.0
 11
468.46837914217582
 21
549.92518088288671
 31
0.0
  0
LINE
  5
C0E6
  8
0
 10
470.22837914217592
 20
552.01518088288663
 30
0.0
 11
470.22837914217592
 21
549.37518088288664
 31
0.0
  0
LINE
  5
C0E7
  8
0
 10
468.46837914217582
 20
551.52518088288662
 30
0.0
 11
470.22837914217592
 21
552.01518088288663
 31
0.0
  0
LINE
  5
C0E8
  8
0
 10
468.46837914217582
 20
551.52518088288662
 30
0.0
 11
468.46837914217582
 21
549.92518088288671
 31
0.0
  0
LINE
  5
C0E9
  8
0
 10
470.22837914217592
 20
538.37518088288675
 30
0.0
 11
468.46837914217582
 21
538.92518088288659
 31
0.0
  0
LINE
  5
C0EA
  8
0
 10
470.22837914217592
 20
541.01518088288663
 30
0.0
 11
470.22837914217592
 21
538.37518088288675
 31
0.0
  0
LINE
  5
C0EB
  8
0
 10
468.46837914217582
 20
540.5251808828865
 30
0.0
 11
470.22837914217592
 21
541.01518088288663
 31
0.0
  0
LINE
  5
C0EC
  8
0
 10
468.46837914217582
 20
540.5251808828865
 30
0.0
 11
468.46837914217582
 21
538.92518088288659
 31
0.0
  0
LINE
  5
C0ED
  8
0
 10
470.22837914217592
 20
527.37518088288664
 30
0.0
 11
468.46837914217582
 21
527.92518088288671
 31
0.0
  0
LINE
  5
C0EE
  8
0
 10
470.22837914217592
 20
530.01518088288663
 30
0.0
 11
470.22837914217592
 21
527.37518088288664
 31
0.0
  0
LINE
  5
C0EF
  8
0
 10
468.46837914217582
 20
529.52518088288662
 30
0.0
 11
470.22837914217592
 21
530.01518088288663
 31
0.0
  0
LINE
  5
C0F0
  8
0
 10
468.46837914217582
 20
529.52518088288662
 30
0.0
 11
468.46837914217582
 21
527.92518088288671
 31
0.0
  0
LINE
  5
C0F1
  8
0
 10
469.64004814217589
 20
458.68590088288659
 30
0.0
 11
468.60841914217599
 21
449.86713988288659
 31
0.0
  0
LINE
  5
C0F2
  8
0
 10
468.57316214217587
 20
452.3943338828866
 30
0.0
 11
469.62811914217599
 21
461.8213208828866
 31
0.0
  0
LINE
  5
C0F3
  8
0
 10
468.60023214217591
 20
456.3951898828866
 30
0.0
 11
469.6991441421759
 21
466.78936388288662
 31
0.0
  0
LINE
  5
C0F4
  8
0
 10
469.75008514217592
 20
473.32598388288659
 30
0.0
 11
468.624804142176
 21
461.84669988288658
 31
0.0
  0
LINE
  5
C0F5
  8
0
 10
469.79125214217601
 20
480.73572588288658
 30
0.0
 11
468.5585351421758
 21
467.76506488288658
 31
0.0
  0
LINE
  5
C0F6
  8
0
 10
469.70017114217592
 20
457.54957288288659
 30
0.0
 11
468.62813814217589
 21
448.66899488288658
 31
0.0
  0
LINE
  5
C0F7
  8
0
 10
468.46837914217582
 20
518.52518088288662
 30
0.0
 11
468.46837914217582
 21
516.92518088288671
 31
0.0
  0
LINE
  5
C0F8
  8
0
 10
468.46837914217582
 20
518.52518088288662
 30
0.0
 11
470.22837914217592
 21
519.01518088288663
 31
0.0
  0
LINE
  5
C0F9
  8
0
 10
470.22837914217592
 20
519.01518088288663
 30
0.0
 11
470.22837914217592
 21
516.37518088288664
 31
0.0
  0
LINE
  5
C0FA
  8
0
 10
470.22837914217592
 20
516.37518088288664
 30
0.0
 11
468.46837914217582
 21
516.92518088288671
 31
0.0
  0
LINE
  5
C0FB
  8
0
 10
468.46837914217582
 20
573.52518088288673
 30
0.0
 11
468.46837914217582
 21
571.92518088288659
 31
0.0
  0
LINE
  5
C0FC
  8
0
 10
468.46837914217582
 20
573.52518088288673
 30
0.0
 11
470.22837914217592
 21
574.01518088288663
 31
0.0
  0
LINE
  5
C0FD
  8
0
 10
470.22837914217592
 20
574.01518088288663
 30
0.0
 11
470.22837914217592
 21
571.37518088288675
 31
0.0
  0
LINE
  5
C0FE
  8
0
 10
470.22837914217592
 20
571.37518088288675
 30
0.0
 11
468.46837914217582
 21
571.92518088288659
 31
0.0
  0
LINE
  5
C0FF
  8
0
 10
420.18525514217578
 20
571.37518088288675
 30
0.0
 11
420.18525514217578
 21
563.01518088288663
 31
0.0
  0
LINE
  5
C100
  8
0
 10
436.22837814217581
 20
571.37518088288675
 30
0.0
 11
436.22837814217581
 21
563.01518088288663
 31
0.0
  0
LINE
  5
C101
  8
0
 10
436.22837814217581
 20
560.37518088288664
 30
0.0
 11
436.22837814217581
 21
552.01518088288663
 31
0.0
  0
LINE
  5
C102
  8
0
 10
420.18525514217578
 20
560.37518088288664
 30
0.0
 11
420.18525514217578
 21
552.89570388288655
 31
0.0
  0
LINE
  5
C103
  8
0
 10
436.22837814217581
 20
549.37518088288664
 30
0.0
 11
436.22837814217581
 21
541.01518088288663
 31
0.0
  0
LINE
  5
C104
  8
0
 10
436.22837814217581
 20
538.37518088288675
 30
0.0
 11
436.22837814217581
 21
530.01518088288663
 31
0.0
  0
LINE
  5
C105
  8
0
 10
420.18525514217578
 20
527.37518088288664
 30
0.0
 11
420.18525514217578
 21
519.01518088288663
 31
0.0
  0
LINE
  5
C106
  8
0
 10
436.22837814217581
 20
527.37518088288664
 30
0.0
 11
436.22837814217581
 21
519.01518088288663
 31
0.0
  0
LINE
  5
C107
  8
0
 10
436.22837814217581
 20
516.37518088288664
 30
0.0
 11
436.22837814217581
 21
500.58673488288662
 31
0.0
  0
LINE
  5
C108
  8
0
 10
420.18525514217578
 20
516.37518088288664
 30
0.0
 11
420.18525514217578
 21
485.07011188288658
 31
0.0
  0
LINE
  5
C109
  8
0
 10
469.79125214217601
 20
480.73572588288658
 30
0.0
 11
436.22837814217581
 21
480.73572588288658
 31
0.0
  0
LINE
  5
C10A
  8
0
 10
469.75008514217592
 20
473.32598388288659
 30
0.0
 11
469.08703914217602
 21
473.32598388288659
 31
0.0
  0
ARC
  5
C10B
  8
0
 10
466.567507142176
 20
467.9542898828866
 30
0.0
 40
2.0
 50
270.0
 51
354.57098099999791
  0
ARC
  5
C10C
  8
0
 10
466.63434514217579
 20
462.04181888288667
 30
0.0
 40
2.0
 50
270.0
 51
354.40134700000141
  0
ARC
  5
C10D
  8
0
 10
466.61131714217578
 20
456.60546588288668
 30
0.0
 40
2.0
 50
270.0
 51
353.96488600000072
  0
ARC
  5
C10E
  8
0
 10
466.58556914217598
 20
452.61676088288658
 30
0.0
 40
2.0
 50
270.0
 51
353.61470099999991
  0
ARC
  5
C10F
  8
0
 10
466.6219651421759
 20
450.09951788288657
 30
0.0
 40
2.0
 50
270.0
 51
353.32779999999769
  0
ARC
  5
C110
  8
0
 10
466.64255414217598
 20
448.90868788288662
 30
0.0
 40
2.0
 50
270.0
 51
353.11676000000102
  0
LINE
  5
C111
  8
0
 10
469.6991441421759
 20
466.78936388288662
 30
0.0
 11
469.10931914217559
 21
466.78936388288662
 31
0.0
  0
LINE
  5
C112
  8
0
 10
469.62811914217599
 20
461.8213208828866
 30
0.0
 11
469.1739041421759
 21
461.8213208828866
 31
0.0
  0
LINE
  5
C113
  8
0
 10
469.64004814217589
 20
458.68590088288659
 30
0.0
 11
469.27724014217591
 21
458.68590088288659
 31
0.0
  0
LINE
  5
C114
  8
0
 10
469.70017114217592
 20
457.54957288288659
 30
0.0
 11
469.50711914217578
 21
457.54957288288659
 31
0.0
  0
LINE
  5
C115
  8
0
 10
472.22837914217598
 20
505.47247488288662
 30
0.0
 11
455.72837914217598
 21
505.47247488288662
 31
0.0
  0
LINE
  5
C116
  8
0
 10
475.22837914217592
 20
495.29318288288658
 30
0.0
 11
457.72837914217592
 21
495.29318288288658
 31
0.0
  0
LINE
  5
C117
  8
0
 10
475.22837914217592
 20
483.00590188288658
 30
0.0
 11
457.72837914217592
 21
483.00590188288658
 31
0.0
  0
LINE
  5
C118
  8
0
 10
455.72837914217598
 20
504.47247488288662
 30
0.0
 11
455.72837914217598
 21
485.00590188288658
 31
0.0
  0
LINE
  5
C119
  8
0
 10
472.22837914217598
 20
505.47247488288662
 30
0.0
 11
475.22837914217592
 21
507.20452588288663
 31
0.0
  0
ARC
  5
C11A
  8
0
 10
457.72837914217592
 20
497.29318288288658
 30
0.0
 40
2.0
 50
180.0
 51
270.0
  0
ARC
  5
C11B
  8
0
 10
457.72837914217592
 20
485.00590188288658
 30
0.0
 40
2.0
 50
180.0
 51
270.0
  0
ARC
  5
C11C
  8
0
 10
457.72837914217592
 20
493.29318288288658
 30
0.0
 40
2.0
 50
90.0
 51
180.0
  0
LINE
  5
C11D
  8
0
 10
436.22837814217581
 20
489.17438488288661
 30
0.0
 11
436.22837814217581
 21
480.73572588288658
 31
0.0
  0
LINE
  5
C11E
  8
0
 10
420.18525514217578
 20
485.07011188288658
 30
0.0
 11
436.22837814217581
 21
480.73572588288658
 31
0.0
  0
ARC
  5
C11F
  8
0
 10
454.72837914217598
 20
504.47247488288662
 30
0.0
 40
1.0
 50
0.0
 51
90.0
  0
LINE
  5
C120
  8
0
 10
420.18525514217578
 20
485.07011188288658
 30
0.0
 11
415.21484814217592
 21
485.07011188288658
 31
0.0
  0
LINE
  5
C121
  8
0
 10
466.64255414217598
 20
446.90868788288668
 30
0.0
 11
274.75711214217603
 21
446.90868788288668
 31
0.0
  0
LINE
  5
C122
  8
0
 10
466.6219651421759
 20
448.09951788288657
 30
0.0
 11
274.76805214217597
 21
448.09951788288657
 31
0.0
  0
LINE
  5
C123
  8
0
 10
466.58556914217598
 20
450.61676088288658
 30
0.0
 11
274.77731614217601
 21
450.61676088288658
 31
0.0
  0
LINE
  5
C124
  8
0
 10
466.61131714217578
 20
454.60546588288651
 30
0.0
 11
274.78926514217602
 21
454.60546588288651
 31
0.0
  0
LINE
  5
C125
  8
0
 10
466.63434514217579
 20
460.04181888288662
 30
0.0
 11
274.80702914217602
 21
460.04181888288662
 31
0.0
  0
LINE
  5
C126
  8
0
 10
466.567507142176
 20
465.9542898828866
 30
0.0
 11
274.81269714217592
 21
465.9542898828866
 31
0.0
  0
LINE
  5
C127
  8
0
 10
420.18525514217578
 20
619.03265588288673
 30
0.0
 11
420.18525514217578
 21
605.0551808828867
 31
0.0
  0
LINE
  5
C128
  8
0
 10
436.22837814217581
 20
623.63251788288676
 30
0.0
 11
436.22837814217581
 21
621.04796788288672
 31
0.0
  0
LINE
  5
C129
  8
0
 10
415.7407511421759
 20
574.01518088288663
 30
0.0
 11
470.22837914217592
 21
574.01518088288663
 31
0.0
  0
LINE
  5
C12A
  8
0
 10
415.7410851421759
 20
573.52518088288673
 30
0.0
 11
468.46837914217582
 21
573.52518088288673
 31
0.0
  0
LINE
  5
C12B
  8
0
 10
415.74217614217571
 20
571.92518088288659
 30
0.0
 11
468.46837914217582
 21
571.92518088288659
 31
0.0
  0
LINE
  5
C12C
  8
0
 10
415.7425511421759
 20
571.37518088288675
 30
0.0
 11
470.22837914217592
 21
571.37518088288675
 31
0.0
  0
LINE
  5
C12D
  8
0
 10
415.7288391421759
 20
519.01518088288663
 30
0.0
 11
470.22837914217592
 21
519.01518088288663
 31
0.0
  0
LINE
  5
C12E
  8
0
 10
415.72837914217592
 20
518.52518088288662
 30
0.0
 11
468.46837914217582
 21
518.52518088288662
 31
0.0
  0
LINE
  5
C12F
  8
0
 10
415.72837914217592
 20
516.92518088288671
 30
0.0
 11
468.46837914217582
 21
516.92518088288671
 31
0.0
  0
LINE
  5
C130
  8
0
 10
415.72837914217592
 20
516.37518088288664
 30
0.0
 11
470.22837914217592
 21
516.37518088288664
 31
0.0
  0
LINE
  5
C131
  8
0
 10
423.33791314217592
 20
549.37518088288664
 30
0.0
 11
470.22837914217592
 21
549.37518088288664
 31
0.0
  0
LINE
  5
C132
  8
0
 10
422.96624214217587
 20
549.92518088288671
 30
0.0
 11
468.46837914217582
 21
549.92518088288671
 31
0.0
  0
LINE
  5
C133
  8
0
 10
420.66216314217593
 20
530.01518088288663
 30
0.0
 11
470.22837914217592
 21
530.01518088288663
 31
0.0
  0
LINE
  5
C134
  8
0
 10
420.14246914217603
 20
529.52518088288662
 30
0.0
 11
468.46837914217582
 21
529.52518088288662
 31
0.0
  0
LINE
  5
C135
  8
0
 10
418.74896214217591
 20
527.92518088288671
 30
0.0
 11
468.46837914217582
 21
527.92518088288671
 31
0.0
  0
LINE
  5
C136
  8
0
 10
418.35367114217581
 20
527.37518088288664
 30
0.0
 11
470.22837914217592
 21
527.37518088288664
 31
0.0
  0
LINE
  5
C137
  8
0
 10
425.72500414217598
 20
541.01518088288663
 30
0.0
 11
470.22837914217592
 21
541.01518088288663
 31
0.0
  0
LINE
  5
C138
  8
0
 10
425.70921114217589
 20
540.5251808828865
 30
0.0
 11
468.46837914217582
 21
540.5251808828865
 31
0.0
  0
LINE
  5
C139
  8
0
 10
425.54512514217578
 20
538.92518088288659
 30
0.0
 11
468.46837914217582
 21
538.92518088288659
 31
0.0
  0
LINE
  5
C13A
  8
0
 10
425.44819214217591
 20
538.37518088288675
 30
0.0
 11
470.22837914217592
 21
538.37518088288675
 31
0.0
  0
LINE
  5
C13B
  8
0
 10
415.75908814217593
 20
563.01518088288663
 30
0.0
 11
470.22837914217592
 21
563.01518088288663
 31
0.0
  0
LINE
  5
C13C
  8
0
 10
415.78609114217579
 20
562.52518088288662
 30
0.0
 11
468.46837914217582
 21
562.52518088288662
 31
0.0
  0
LINE
  5
C13D
  8
0
 10
415.98745214217598
 20
560.92518088288671
 30
0.0
 11
468.46837914217582
 21
560.92518088288671
 31
0.0
  0
LINE
  5
C13E
  8
0
 10
416.09761014217571
 20
560.37518088288664
 30
0.0
 11
470.22837914217592
 21
560.37518088288664
 31
0.0
  0
LINE
  5
C13F
  8
0
 10
421.17615314217602
 20
552.01518088288663
 30
0.0
 11
470.22837914217592
 21
552.01518088288663
 31
0.0
  0
LINE
  5
C140
  8
0
 10
421.65818114217592
 20
551.52518088288662
 30
0.0
 11
468.46837914217582
 21
551.52518088288662
 31
0.0
  0
LINE
  5
C142
  8
0
 10
472.22837914217598
 20
457.19518088288658
 30
0.0
 11
472.22837914217598
 21
483.00590188288658
 31
0.0
  0
LINE
  5
C143
  8
0
 10
469.65739014217598
 20
457.19518088288658
 30
0.0
 11
472.22837914217598
 21
457.19518088288658
 31
0.0
  0
LINE
  5
C144
  8
0
 10
470.22837914217592
 20
605.0551808828867
 30
0.0
 11
468.46837914217582
 21
604.49518088288664
 31
0.0
  0
LINE
  5
C145
  8
0
 10
468.46837914217582
 20
602.89518088288673
 30
0.0
 11
470.22837914217592
 21
602.35518088288654
 31
0.0
  0
LINE
  5
C146
  8
0
 10
470.22837914217592
 20
602.35518088288654
 30
0.0
 11
470.22837914217592
 21
605.0551808828867
 31
0.0
  0
LINE
  5
C147
  8
0
 10
468.46837914217582
 20
602.89518088288673
 30
0.0
 11
468.46837914217582
 21
604.49518088288664
 31
0.0
  0
LINE
  5
C148
  8
0
 10
470.22837914217592
 20
597.01018088288674
 30
0.0
 11
468.46837914217582
 21
596.47018088288655
 31
0.0
  0
LINE
  5
C149
  8
0
 10
468.46837914217582
 20
594.87018088288664
 30
0.0
 11
470.22837914217592
 21
594.38018088288663
 31
0.0
  0
LINE
  5
C14A
  8
0
 10
468.46837914217582
 20
594.87018088288664
 30
0.0
 11
468.46837914217582
 21
596.47018088288655
 31
0.0
  0
LINE
  5
C14B
  8
0
 10
470.22837914217592
 20
594.38018088288663
 30
0.0
 11
470.22837914217592
 21
597.01018088288674
 31
0.0
  0
LINE
  5
C14C
  8
0
 10
405.22837914217598
 20
605.3193678828867
 30
0.0
 11
403.60647014217591
 21
622.38511088288669
 31
0.0
  0
LINE
  5
C14D
  8
0
 10
405.22837914217598
 20
611.86030388288657
 30
0.0
 11
403.60785614217582
 21
628.39167188288673
 31
0.0
  0
LINE
  5
C14E
  8
0
 10
150.28691214217599
 20
610.52715088288664
 30
0.0
 11
155.28801014217589
 21
638.88976088288655
 31
0.0
  0
LINE
  5
C14F
  8
0
 10
158.008225142176
 20
635.76091588288671
 30
0.0
 11
158.008225142176
 21
546.87306888288663
 31
0.0
  0
ARC
  5
C150
  8
0
 10
159.22725014217599
 20
638.19518088288658
 30
0.0
 40
4.0
 50
90.0
 51
170.00018299999601
  0
LINE
  5
C151
  8
0
 10
150.22837914217601
 20
602.79515688288654
 30
0.0
 11
150.22837914217601
 21
516.48415288288663
 31
0.0
  0
ARC
  5
C152
  8
0
 10
151.22837914217601
 20
607.19518088288669
 30
0.0
 40
3.0
 50
118.7876889999995
 51
180.0
  0
LINE
  5
C153
  8
0
 10
148.22837914217601
 20
607.19518088288669
 30
0.0
 11
148.22837914217601
 21
495.34346688288662
 31
0.0
  0
LINE
  5
C154
  8
0
 10
158.008225142176
 20
535.01455588288661
 30
0.0
 11
158.008225142176
 21
464.18321788288682
 31
0.0
  0
LINE
  5
C155
  8
0
 10
151.91639814217601
 20
470.62185888288673
 30
0.0
 11
153.5247351421759
 21
461.5006008828866
 31
0.0
  0
ARC
  5
C156
  8
0
 10
157.463975142176
 20
462.19518088288658
 30
0.0
 40
4.0
 50
189.9998320000031
 51
270.0
  0
ARC
  5
C157
  8
0
 10
149.30210914217591
 20
610.70085688288668
 30
0.0
 40
1.0
 50
298.7879640000001
 51
350.00021400000242
  0
LINE
  5
C158
  8
0
 10
152.28574414217599
 20
538.23120288288669
 30
0.0
 11
145.24171514217591
 21
463.77339988288662
 31
0.0
  0
LINE
  5
C159
  8
0
 10
158.25907314217599
 20
537.66609988288656
 30
0.0
 11
151.215043142176
 21
463.2082968828866
 31
0.0
  0
ARC
  5
C15A
  8
0
 10
163.236847142176
 20
537.19518088288669
 30
0.0
 40
5.0
 50
90.0
 51
174.59565700000161
  0
ARC
  5
C15B
  8
0
 10
163.236847142176
 20
537.19518088288669
 30
0.0
 40
11.0
 50
90.0
 51
174.59565700000161
  0
ARC
  5
C15C
  8
0
 10
148.22837914217601
 20
463.49084788288661
 30
0.0
 40
3.0
 50
174.59565700000161
 51
354.59565700000172
  0
ARC
  5
C15D
  8
0
 10
148.22837914217601
 20
463.49084788288661
 30
0.0
 40
3.799999999999998
 50
220.00000000000131
 51
32.140571999997661
  0
LINE
  5
C15E
  8
0
 10
142.84462614217591
 20
464.84767588288662
 30
0.0
 11
145.25916914217601
 21
461.12698988288662
 31
0.0
  0
LINE
  5
C15F
  8
0
 10
143.4620891421759
 20
465.36578888288659
 30
0.0
 11
145.930246142176
 21
461.56248488288668
 31
0.0
  0
LINE
  5
C160
  8
0
 10
143.4620891421759
 20
465.36578888288659
 30
0.0
 11
142.84462614217591
 21
464.84767588288662
 31
0.0
  0
LINE
  5
C161
  8
0
 10
272.4930581421761
 20
619.03265588288673
 30
0.0
 11
271.22837914217598
 21
619.03265588288673
 31
0.0
  0
LINE
  5
C162
  8
0
 10
271.22837914217598
 20
605.0551808828867
 30
0.0
 11
272.53852514217601
 21
604.63831688288656
 31
0.0
  0
LINE
  5
C163
  8
0
 10
271.22837914217598
 20
604.63831688288656
 30
0.0
 11
271.22837914217598
 21
605.0551808828867
 31
0.0
  0
LINE
  5
C164
  8
0
 10
262.72837914217592
 20
628.81547788288663
 30
0.0
 11
271.50513814217589
 21
628.81547788288674
 31
0.0
  0
LINE
  5
C165
  8
0
 10
246.22837914217601
 20
558.59820988288664
 30
0.0
 11
246.22837914217601
 21
534.21218088288663
 31
0.0
  0
LINE
  5
C166
  8
0
 10
231.72837914217601
 20
547.69518088288658
 30
0.0
 11
250.1814916116999
 21
547.69518088288658
 31
0.0
  0
ARC
  5
C167
  8
0
 10
246.22837914217601
 20
545.19518088288669
 30
0.0
 40
9.0
 50
43.898216756325418
 51
163.87239099999641
  0
ARC
  5
C168
  8
0
 10
246.22837914217601
 20
545.19518088288669
 30
0.0
 40
5.5
 50
37.234941055984187
 51
152.9643079999955
  0
LINE
  5
C169
  8
0
 10
231.72837914217601
 20
542.69518088288658
 30
0.0
 11
248.7971249984426
 21
542.69518088288658
 31
0.0
  0
ARC
  5
C16A
  8
0
 10
246.22837914217601
 20
545.19518088288669
 30
0.0
 40
9.0
 50
196.1276090000035
 51
290.7110054129422
  0
ARC
  5
C16B
  8
0
 10
246.22837914217601
 20
545.19518088288669
 30
0.0
 40
5.5
 50
207.03569200000439
 51
297.3742811132829
  0
LINE
  5
C16C
  8
0
 10
262.72837914217598
 20
642.19518088288658
 30
0.0
 11
262.72837914217598
 21
601.30430965101368
 31
0.0
  0
LINE
  5
C16D
  8
0
 10
231.72837914217601
 20
547.69518088288658
 30
0.0
 11
231.22837914217601
 21
548.19518088288658
 31
0.0
  0
LINE
  5
C16E
  8
0
 10
231.72837914217601
 20
542.69518088288658
 30
0.0
 11
231.22837914217601
 21
542.19518088288658
 31
0.0
  0
LINE
  5
C16F
  8
0
 10
357.22837914217598
 20
646.19518088288658
 30
0.0
 11
379.22837914217598
 21
646.19518088288658
 31
0.0
  0
LINE
  5
C170
  8
0
 10
357.22837914217598
 20
646.19518088288658
 30
0.0
 11
357.22837914217598
 21
642.29189988288658
 31
0.0
  0
LINE
  5
C171
  8
0
 10
379.22837914217598
 20
646.19518088288658
 30
0.0
 11
379.22837914217598
 21
642.29189988288658
 31
0.0
  0
LINE
  5
C172
  8
0
 10
231.22837914217601
 20
542.19518088288658
 30
0.0
 11
163.236847142176
 21
542.19518088288658
 31
0.0
  0
LINE
  5
C173
  8
0
 10
262.72837914217598
 20
458.19518088288658
 30
0.0
 11
157.463975142176
 21
458.19518088288658
 31
0.0
  0
LINE
  5
C174
  8
0
 10
262.72837914217598
 20
642.19518088288658
 30
0.0
 11
159.22725014217599
 21
642.19518088288658
 31
0.0
  0
LINE
  5
C175
  8
0
 10
409.59329814217591
 20
602.89518088288673
 30
0.0
 11
468.46837914217582
 21
602.89518088288673
 31
0.0
  0
LINE
  5
C176
  8
0
 10
405.11184714217598
 20
604.49518088288664
 30
0.0
 11
468.46837914217582
 21
604.49518088288664
 31
0.0
  0
LINE
  5
C177
  8
0
 10
410.428119142176
 20
602.35518088288654
 30
0.0
 11
470.22837914217592
 21
602.35518088288654
 31
0.0
  0
LINE
  5
C178
  8
0
 10
271.22837914217598
 20
605.0551808828867
 30
0.0
 11
470.22837914217592
 21
605.0551808828867
 31
0.0
  0
LINE
  5
C179
  8
0
 10
415.5252171421759
 20
594.38018088288663
 30
0.0
 11
470.22837914217592
 21
594.38018088288663
 31
0.0
  0
LINE
  5
C17A
  8
0
 10
414.73889414217592
 20
597.01018088288674
 30
0.0
 11
470.22837914217592
 21
597.01018088288674
 31
0.0
  0
LINE
  5
C17B
  8
0
 10
415.42562214217588
 20
594.87018088288664
 30
0.0
 11
468.46837914217582
 21
594.87018088288664
 31
0.0
  0
LINE
  5
C17C
  8
0
 10
414.9528811421759
 20
596.47018088288655
 30
0.0
 11
468.46837914217582
 21
596.47018088288655
 31
0.0
  0
LINE
  5
C17D
  8
0
 10
475.22837914217592
 20
460.19518088288658
 30
0.0
 11
472.22837914217598
 21
457.19518088288658
 31
0.0
  0
LINE
  5
C17E
  8
0
 10
475.22837914217592
 20
460.19518088288658
 30
0.0
 11
475.22837914217592
 21
630.19518088288658
 31
0.0
  0
LINE
  5
C17F
  8
0
 10
475.22837914217592
 20
630.19518088288658
 30
0.0
 11
472.22837914217598
 21
633.19518088288669
 31
0.0
  0
LINE
  5
C180
  8
0
 10
415.95837914217572
 20
534.69831688288662
 30
0.0
 11
415.95837914217572
 21
547.9683168828866
 31
0.0
  0
LINE
  5
CDE3
  8
0
 62
     0
 10
516.07691470472764
 20
505.47247488288662
 30
0.0
 11
475.22837914217592
 21
505.47247488288662
 31
0.0
  0
LINE
  5
CDE4
  8
0
 62
     0
 10
514.7284195035686
 20
495.29318288288653
 30
0.0
 11
475.22837914217592
 21
495.29318288288653
 31
0.0
  0
LINE
  5
CDE5
  8
0
 62
     0
 10
514.72840407217723
 20
483.00590188288658
 30
0.0
 11
475.22837914217592
 21
483.00590188288658
 31
0.0
  0
LINE
  5
CDE6
  8
0
 62
     0
 10
475.22837914217592
 20
629.0588298828867
 30
0.0
 11
492.07447682918871
 21
629.0588298828867
 31
0.0
  0
LINE
  5
CDE7
  8
0
 62
     0
 10
475.22837914217592
 20
620.93482488288669
 30
0.0
 11
508.72837914217598
 21
620.93482488288669
 31
0.0
  0
LINE
  5
CDE8
  8
0
 62
     0
 10
475.22837914217592
 20
607.26111388288655
 30
0.0
 11
508.72837914217598
 21
607.26111388288655
 31
0.0
  0
LINE
  5
D048
  8
0
  6
CONTINUOUS
 62
     0
 10
475.22846914217621
 20
1052.2368511695749
 30
0.0
 11
508.72846914217689
 21
1052.2368511695749
 31
0.0
  0
LINE
  5
D049
  8
0
  6
CONTINUOUS
 62
     0
 10
475.22846914217621
 20
1042.0575591695761
 30
0.0
 11
508.72846914217689
 21
1042.0575591695761
 31
0.0
  0
LINE
  5
D04A
  8
0
  6
CONTINUOUS
 62
     0
 10
475.22846914217621
 20
1029.749920169575
 30
0.0
 11
508.72846914217689
 21
1029.749920169575
 31
0.0
  0
LINE
  5
D04B
  8
0
  6
CONTINUOUS
 62
     0
 10
475.22846914217621
 20
1154.025519169576
 30
0.0
 11
508.72846914217689
 21
1154.025519169576
 31
0.0
  0
LINE
  5
D04C
  8
0
  6
CONTINUOUS
 62
     0
 10
475.22846914217621
 20
1167.6992011695761
 30
0.0
 11
508.72846914217689
 21
1167.6992011695761
 31
0.0
  0
LINE
  5
D04D
  8
0
  6
AM_ISO08W050
 10
130.54806349588119
 20
1091.9595771695761
 30
0.0
 11
959.55136914217621
 21
1091.9595771695761
 31
0.0
  0
LINE
  5
D04E
  8
0
  6
CONTINUOUS
 62
     0
 10
862.7284291421762
 20
1100.9595771695761
 30
0.0
 11
862.7284291421762
 21
1082.9595771695761
 31
0.0
  0
LINE
  5
D04F
  8
0
  6
CONTINUOUS
 62
     0
 10
838.7284291421762
 20
1121.9595771695761
 30
0.0
 11
943.72842914217631
 21
1121.9595771695761
 31
0.0
  0
LINE
  5
D050
  8
0
  6
CONTINUOUS
 62
     0
 10
838.7284291421762
 20
1124.4595771695761
 30
0.0
 11
838.7284291421762
 21
1059.4595771695761
 31
0.0
  0
LINE
  5
D051
  8
0
  6
CONTINUOUS
 62
     0
 10
943.72842914217631
 20
1121.9595771695761
 30
0.0
 11
943.72842914217631
 21
1061.9595771695761
 31
0.0
  0
LINE
  5
D052
  8
0
  6
CONTINUOUS
 62
     0
 10
832.72842914217597
 20
1059.4595771695761
 30
0.0
 11
838.7284291421762
 21
1059.4595771695761
 31
0.0
  0
LINE
  5
D053
  8
0
  6
CONTINUOUS
 62
     0
 10
832.72842914217597
 20
1124.4595771695761
 30
0.0
 11
838.7284291421762
 21
1124.4595771695761
 31
0.0
  0
LINE
  5
D054
  8
0
  6
CONTINUOUS
 62
     0
 10
838.7284291421762
 20
1061.9595771695761
 30
0.0
 11
943.72842914217631
 21
1061.9595771695761
 31
0.0
  0
LINE
  5
D055
  8
0
  6
CONTINUOUS
 62
     0
 10
572.72846914217712
 20
1262.853337169576
 30
0.0
 11
572.72846914217712
 21
1207.258637169575
 31
0.0
  0
LINE
  5
D056
  8
0
  6
CONTINUOUS
 62
     0
 10
829.62375914217603
 20
1157.0679371695751
 30
0.0
 11
829.83316914217608
 21
1157.060637169576
 31
0.0
  0
LINE
  5
D057
  8
0
  6
CONTINUOUS
 62
     0
 10
577.55386914217593
 20
1267.850337169574
 30
0.0
 11
695.22842914217608
 21
1271.959737169575
 31
0.0
  0
LINE
  5
D058
  8
0
  6
CONTINUOUS
 62
     0
 10
695.22842914217608
 20
1271.959537169575
 30
0.0
 11
827.90292914217639
 21
1267.326537169575
 31
0.0
  0
LINE
  5
D059
  8
0
  6
CENTER
 62
     0
 10
584.82166914217601
 20
1236.959537169575
 30
0.0
 11
621.00460914217615
 21
1236.959537169575
 31
0.0
  0
LINE
  5
D05A
  8
0
  6
CENTER
 62
     0
 10
783.82791914217592
 20
1236.959537169575
 30
0.0
 11
822.88247914217641
 21
1236.959537169575
 31
0.0
  0
LINE
  5
D05B
  8
0
  6
CENTER
 62
     0
 10
802.72842914217608
 20
1256.5024371695749
 30
0.0
 11
802.72842914217608
 21
1216.586237169575
 31
0.0
  0
LINE
  5
D05C
  8
0
  6
CENTER
 62
     0
 10
602.72842914217631
 20
1255.928037169575
 30
0.0
 11
602.72842914217631
 21
1217.1606371695759
 31
0.0
  0
LINE
  5
D05D
  8
0
  6
CONTINUOUS
 62
     0
 10
826.72842914217608
 20
1192.424437169575
 30
0.0
 11
826.72842914217608
 21
991.494667169575
 31
0.0
  0
LINE
  5
D05E
  8
0
  6
CONTINUOUS
 62
     0
 10
832.72842914217597
 20
1154.062437169576
 30
0.0
 11
832.72842914217597
 21
1029.8566671695751
 31
0.0
  0
LINE
  5
D05F
  8
0
  6
CONTINUOUS
 62
     0
 10
832.72842914217597
 20
1262.329537169574
 30
0.0
 11
832.72842914217597
 21
1201.589537169576
 31
0.0
  0
LINE
  5
D060
  8
0
  6
CONTINUOUS
 62
     0
 10
690.2284291421762
 20
1250.906637169576
 30
0.0
 11
690.2284291421762
 21
933.01255716957564
 31
0.0
  0
LINE
  5
D061
  8
0
  6
CONTINUOUS
 62
     0
 10
832.72842914217597
 20
921.58963716957567
 30
0.0
 11
832.72842914217597
 21
982.32950716957509
 31
0.0
  0
LINE
  5
D062
  8
0
  6
CENTER
 62
     0
 10
602.72842914217631
 20
926.77597716957564
 30
0.0
 11
602.72842914217631
 21
965.47971716957534
 31
0.0
  0
LINE
  5
D063
  8
0
  6
CENTER
 62
     0
 10
802.72842914217608
 20
926.27689716957536
 30
0.0
 11
802.72842914217608
 21
966.30710716957515
 31
0.0
  0
LINE
  5
D064
  8
0
  6
CENTER
 62
     0
 10
802.72842914217608
 20
946.95957716957571
 30
0.0
 11
822.84707914217665
 21
946.95957716957571
 31
0.0
  0
LINE
  5
D065
  8
0
  6
CENTER
 62
     0
 10
583.09086914217608
 20
946.95957716957571
 30
0.0
 11
622.39468914217616
 21
946.95957716957571
 31
0.0
  0
LINE
  5
D066
  8
0
  6
CONTINUOUS
 62
     0
 10
695.22836914217601
 20
911.9595771695756
 30
0.0
 11
827.90286914217609
 21
916.59269716957522
 31
0.0
  0
LINE
  5
D067
  8
0
  6
CONTINUOUS
 62
     0
 10
577.55376914217607
 20
916.06888716957519
 30
0.0
 11
695.22842914217608
 21
911.9595771695756
 31
0.0
  0
LINE
  5
D068
  8
0
  6
CONTINUOUS
 62
     0
 10
829.62375914217603
 20
1026.8511171695759
 30
0.0
 11
829.833109142176
 21
1026.8584371695749
 31
0.0
  0
LINE
  5
D069
  8
0
  6
CONTINUOUS
 62
     0
 10
572.72846914217712
 20
921.0658371695755
 30
0.0
 11
572.72846914217712
 21
976.66056716957564
 31
0.0
  0
LINE
  5
D06A
  8
0
  6
CONTINUOUS
 62
     0
 10
759.00760914217619
 20
935.41440716957516
 30
0.0
 11
690.2284291421762
 21
933.01255716957564
 31
0.0
  0
LINE
  5
D06B
  8
0
  6
CONTINUOUS
 62
     0
 10
691.04165914217606
 20
929.59476716957533
 30
0.0
 11
648.54159914217632
 21
922.5895171695754
 31
0.0
  0
LINE
  5
D06C
  8
0
  6
CONTINUOUS
 62
     0
 10
643.51376914217633
 20
913.89005716957558
 30
0.0
 11
686.45559914217631
 21
919.20005716957553
 31
0.0
  0
LINE
  5
D06D
  8
0
  6
CONTINUOUS
 62
     0
 10
695.22842914217608
 20
929.12449716957565
 30
0.0
 11
695.22842914217608
 21
933.18717716957565
 31
0.0
  0
LINE
  5
D06E
  8
0
  6
CONTINUOUS
 62
     0
 10
766.72842914217597
 20
924.81168716957563
 30
0.0
 11
766.72842914217597
 21
946.42661716957559
 31
0.0
  0
LINE
  5
D06F
  8
0
  6
CONTINUOUS
 62
     0
 10
796.7284291421762
 20
971.61643716957519
 30
0.0
 11
796.7284291421762
 21
1212.3027371695759
 31
0.0
  0
LINE
  5
D070
  8
0
  6
CONTINUOUS
 62
     0
 10
787.07736914217662
 20
961.62253716957559
 30
0.0
 11
781.20492914217596
 21
961.41752716957558
 31
0.0
  0
LINE
  5
D071
  8
0
  6
CONTINUOUS
 62
     0
 10
819.00760914217619
 20
984.6899171695751
 30
0.0
 11
806.37942914217615
 21
984.24894716957533
 31
0.0
  0
LINE
  5
D072
  8
0
  6
CONTINUOUS
 62
     0
 10
695.22842914217608
 20
1254.794637169575
 30
0.0
 11
695.22842914217608
 21
1250.7319371695751
 31
0.0
  0
LINE
  5
D073
  8
0
  6
CONTINUOUS
 62
     0
 10
787.07736914217662
 20
1222.296637169575
 30
0.0
 11
781.20492914217596
 21
1222.501737169576
 31
0.0
  0
LINE
  5
D074
  8
0
  6
CONTINUOUS
 62
     0
 10
766.72842914217597
 20
1259.107437169574
 30
0.0
 11
766.72842914217597
 21
1237.492537169574
 31
0.0
  0
LINE
  5
D075
  8
0
  6
CONTINUOUS
 62
     0
 10
759.00760914217619
 20
1248.504837169575
 30
0.0
 11
690.2284291421762
 21
1250.906737169576
 31
0.0
  0
LINE
  5
D076
  8
0
  6
CONTINUOUS
 62
     0
 10
819.00760914217619
 20
1199.229237169576
 30
0.0
 11
806.37948914217623
 21
1199.6702371695751
 31
0.0
  0
LINE
  5
D077
  8
0
  6
CONTINUOUS
 62
     0
 10
643.51376914217633
 20
1270.0291371695751
 30
0.0
 11
686.45553914217601
 21
1264.719137169576
 31
0.0
  0
LINE
  5
D078
  8
0
  6
CONTINUOUS
 62
     0
 10
691.0415991421761
 20
1254.3243371695739
 30
0.0
 11
648.54159914217632
 21
1261.329537169574
 31
0.0
  0
LINE
  5
D079
  8
0
  6
CONTINUOUS
 62
     0
 10
862.7284291421762
 20
1082.9595771695761
 30
0.0
 11
943.72842914217631
 21
1082.9595771695761
 31
0.0
  0
LINE
  5
D07A
  8
0
  6
CONTINUOUS
 62
     0
 10
862.7284291421762
 20
1100.9595771695761
 30
0.0
 11
943.72842914217631
 21
1100.9595771695761
 31
0.0
  0
LINE
  5
D07B
  8
0
  6
CENTER
 62
     0
 10
650.22842914217631
 20
1074.8246871695751
 30
0.0
 11
650.22842914217631
 21
1107.872907169575
 31
0.0
  0
LINE
  5
D07C
  8
0
  6
CONTINUOUS
 62
     0
 10
630.22842914217631
 20
1086.9595771695749
 30
0.0
 11
670.2284291421762
 21
1086.9595771695749
 31
0.0
  0
LINE
  5
D07D
  8
0
  6
CONTINUOUS
 62
     0
 10
630.22842914217631
 20
1096.9595771695749
 30
0.0
 11
670.2284291421762
 21
1096.9595771695749
 31
0.0
  0
LINE
  5
D07E
  8
0
  6
CONTINUOUS
 62
     0
 10
570.72846914217769
 20
979.95957716957582
 30
0.0
 11
610.22836914217601
 21
979.95957716957582
 31
0.0
  0
LINE
  5
D07F
  8
0
  6
CONTINUOUS
 62
     0
 10
539.72846914217621
 20
971.95957716957571
 30
0.0
 11
566.72846914217621
 21
971.95957716957571
 31
0.0
  0
LINE
  5
D080
  8
0
  6
CONTINUOUS
 62
     0
 10
539.72846914217621
 20
1211.959537169575
 30
0.0
 11
566.72846914217621
 21
1211.959537169575
 31
0.0
  0
LINE
  5
D081
  8
0
  6
CONTINUOUS
 62
     0
 10
568.72836914217817
 20
1209.959537169575
 30
0.0
 11
568.72836914217817
 21
973.95957716957571
 31
0.0
  0
LINE
  5
D082
  8
0
  6
CONTINUOUS
 62
     0
 10
570.72846914217769
 20
1203.959537169575
 30
0.0
 11
610.22836914217601
 21
1203.959537169575
 31
0.0
  0
LINE
  5
D083
  8
0
  6
CONTINUOUS
 62
     0
 10
555.72846914217621
 20
1211.959537169575
 30
0.0
 11
555.72846914217621
 21
971.95957716957571
 31
0.0
  0
LINE
  5
D084
  8
0
  6
CONTINUOUS
 62
     0
 10
568.72836914217817
 20
1021.026777169575
 30
0.0
 11
615.22836914217601
 21
1021.026777169575
 31
0.0
  0
LINE
  5
D085
  8
0
  6
CONTINUOUS
 62
     0
 10
555.72846914217621
 20
1191.6867371695739
 30
0.0
 11
568.72836914217817
 21
1191.6867371695739
 31
0.0
  0
LINE
  5
D086
  8
0
  6
CONTINUOUS
 62
     0
 10
555.72846914217621
 20
1176.1303371695749
 30
0.0
 11
568.72836914217817
 21
1176.1303371695749
 31
0.0
  0
LINE
  5
D087
  8
0
  6
CONTINUOUS
 62
     0
 10
568.72836914217817
 20
1162.8923371695751
 30
0.0
 11
615.22836914217601
 21
1162.8923371695751
 31
0.0
  0
LINE
  5
D088
  8
0
  6
CONTINUOUS
 62
     0
 10
555.72846914217621
 20
1167.956137169575
 30
0.0
 11
568.72836914217817
 21
1167.956137169575
 31
0.0
  0
LINE
  5
D089
  8
0
  6
CONTINUOUS
 62
     0
 10
555.72846914217621
 20
1015.962867169575
 30
0.0
 11
568.72836914217817
 21
1015.962867169575
 31
0.0
  0
LINE
  5
D08A
  8
0
  6
CONTINUOUS
 62
     0
 10
568.72836914217817
 20
1178.6345371695729
 30
0.0
 11
615.22836914217601
 21
1178.6345371695729
 31
0.0
  0
LINE
  5
D08B
  8
0
  6
CONTINUOUS
 62
     0
 10
555.72846914217621
 20
1007.788677169575
 30
0.0
 11
568.72836914217817
 21
1007.788677169575
 31
0.0
  0
LINE
  5
D08C
  8
0
  6
CONTINUOUS
 62
     0
 10
555.72846914217621
 20
992.23233716957509
 30
0.0
 11
568.72836914217817
 21
992.23233716957509
 31
0.0
  0
LINE
  5
D08D
  8
0
  6
CONTINUOUS
 62
     0
 10
568.72836914217817
 20
1005.284707169575
 30
0.0
 11
615.22836914217601
 21
1005.284707169575
 31
0.0
  0
LINE
  5
D08E
  8
0
  6
CONTINUOUS
 62
     0
 10
635.22836914217601
 20
939.76163716957569
 30
0.0
 11
635.22836914217601
 21
1086.9595771695749
 31
0.0
  0
LINE
  5
D08F
  8
0
  6
CONTINUOUS
 62
     0
 10
690.2284291421762
 20
933.01255716957564
 30
0.0
 11
640.05386914217593
 21
934.76468716957515
 31
0.0
  0
LINE
  5
D090
  8
0
  6
CONTINUOUS
 62
     0
 10
690.2284291421762
 20
1250.906637169576
 30
0.0
 11
640.05386914217593
 21
1249.1545371695761
 31
0.0
  0
LINE
  5
D091
  8
0
  6
CONTINUOUS
 62
     0
 10
640.22836914217601
 20
997.01542716957579
 30
0.0
 11
666.2284291421762
 21
997.01542716957579
 31
0.0
  0
LINE
  5
D092
  8
0
  6
CONTINUOUS
 62
     0
 10
640.22836914217601
 20
1042.931007169575
 30
0.0
 11
666.2284291421762
 21
1042.931007169575
 31
0.0
  0
LINE
  5
D093
  8
0
  6
CONTINUOUS
 62
     0
 10
640.22836914217601
 20
955.65995716957536
 30
0.0
 11
666.2284291421762
 21
955.65995716957536
 31
0.0
  0
LINE
  5
D094
  8
0
  6
CONTINUOUS
 62
     0
 10
640.22836914217601
 20
944.86954716957507
 30
0.0
 11
666.2284291421762
 21
944.86954716957507
 31
0.0
  0
LINE
  5
D095
  8
0
  6
CONTINUOUS
 62
     0
 10
668.22842914217631
 20
946.86954716957507
 30
0.0
 11
668.22842914217631
 21
953.65995716957536
 31
0.0
  0
LINE
  5
D096
  8
0
  6
CONTINUOUS
 62
     0
 10
668.22842914217631
 20
999.01542716957556
 30
0.0
 11
668.22842914217631
 21
1040.931007169575
 31
0.0
  0
LINE
  5
D097
  8
0
  6
CONTINUOUS
 62
     0
 10
640.22836914217601
 20
1239.0495371695749
 30
0.0
 11
666.2284291421762
 21
1239.0495371695749
 31
0.0
  0
LINE
  5
D098
  8
0
  6
CONTINUOUS
 62
     0
 10
668.22842914217631
 20
1184.903837169576
 30
0.0
 11
668.22842914217631
 21
1142.9881371695751
 31
0.0
  0
LINE
  5
D099
  8
0
  6
CONTINUOUS
 62
     0
 10
640.22836914217601
 20
1186.903837169576
 30
0.0
 11
666.2284291421762
 21
1186.903837169576
 31
0.0
  0
LINE
  5
D09A
  8
0
  6
CONTINUOUS
 62
     0
 10
640.22836914217601
 20
1228.2591371695751
 30
0.0
 11
666.2284291421762
 21
1228.2591371695751
 31
0.0
  0
LINE
  5
D09B
  8
0
  6
CONTINUOUS
 62
     0
 10
640.22836914217601
 20
1140.9881371695751
 30
0.0
 11
666.2284291421762
 21
1140.9881371695751
 31
0.0
  0
LINE
  5
D09C
  8
0
  6
CONTINUOUS
 62
     0
 10
668.22842914217631
 20
1237.0495371695761
 30
0.0
 11
668.22842914217631
 21
1230.259137169576
 31
0.0
  0
LINE
  5
D09D
  8
0
  6
CONTINUOUS
 62
     0
 10
615.22836914217601
 20
967.02817716957509
 30
0.0
 11
615.22836914217601
 21
1216.890937169574
 31
0.0
  0
LINE
  5
D09E
  8
0
  6
CONTINUOUS
 62
     0
 10
630.56240914217631
 20
961.32499716957523
 30
0.0
 11
619.89438914217612
 21
962.03934716957519
 31
0.0
  0
LINE
  5
D09F
  8
0
  6
CONTINUOUS
 62
     0
 10
630.56247914217624
 20
1222.5941371695751
 30
0.0
 11
619.89431914217653
 21
1221.879737169575
 31
0.0
  0
LINE
  5
D0A0
  8
0
  6
CONTINUOUS
 62
     0
 10
635.22836914217601
 20
1096.9595771695749
 30
0.0
 11
635.22836914217601
 21
1244.1574371695749
 31
0.0
  0
LINE
  5
D0A1
  8
0
  6
CONTINUOUS
 62
     0
 10
720.22836914217601
 20
1249.859037169575
 30
0.0
 11
720.22836914217601
 21
934.06022716957546
 31
0.0
  0
LINE
  5
D0A2
  8
0
  6
CONTINUOUS
 62
     0
 10
537.72846914217621
 20
1209.959537169575
 30
0.0
 11
537.72846914217621
 21
973.95957716957571
 31
0.0
  0
LINE
  5
D0A3
  8
0
  6
CONTINUOUS
 62
     0
 10
508.72846914217689
 20
1185.903437169575
 30
0.0
 11
508.72846914217689
 21
998.01572716957594
 31
0.0
  0
LINE
  5
D0A4
  8
0
  6
CONTINUOUS
 62
     0
 10
503.90286914217592
 20
1006.958237169575
 30
0.0
 11
475.22846914217621
 21
1007.9595771695761
 31
0.0
  0
LINE
  5
D0A5
  8
0
  6
CONTINUOUS
 62
     0
 10
503.90286914217592
 20
1176.9609371695749
 30
0.0
 11
475.22846914217621
 21
1175.959537169575
 31
0.0
  0
LINE
  5
D0A6
  8
0
  6
CONTINUOUS
 62
     0
 10
475.22846914217621
 20
1007.9595771695761
 30
0.0
 11
475.22846914217621
 21
1175.959537169575
 31
0.0
  0
LINE
  5
D0A7
  8
0
  6
CONTINUOUS
 62
     0
 10
512.01826914217793
 20
1190.6019371695729
 30
0.0
 11
534.43846914217784
 21
1198.762237169575
 31
0.0
  0
LINE
  5
D0A8
  8
0
  6
CONTINUOUS
 62
     0
 10
512.01836914217586
 20
993.31730716957475
 30
0.0
 11
534.43846914217784
 21
985.15702716957503
 31
0.0
  0
ARC
  5
D0A9
  8
0
  6
CONTINUOUS
 62
     0
 10
827.72842914217608
 20
1201.589537169576
 30
0.0
 40
5.0
 50
293.57817999998298
 51
0.0
  0
CIRCLE
  5
D0AA
  8
0
  6
CONTINUOUS
 62
     0
 10
802.72842914217608
 20
1236.959537169575
 30
0.0
 40
12.0
  0
ARC
  5
D0AB
  8
0
  6
CONTINUOUS
 62
     0
 10
829.7284291421762
 20
1154.062437169576
 30
0.0
 40
3.0
 50
0.0
 51
87.999999999996476
  0
ARC
  5
D0AC
  8
0
  6
CONTINUOUS
 62
     0
 10
577.72846914217632
 20
1262.853337169576
 30
0.0
 40
5.0
 50
91.999997999994306
 51
180.000010000001
  0
CIRCLE
  5
D0AD
  8
0
  6
CONTINUOUS
 62
     0
 10
602.72842914217631
 20
1236.959537169575
 30
0.0
 40
12.0
  0
ARC
  5
D0AE
  8
0
  6
CONTINUOUS
 62
     0
 10
827.72842914217608
 20
1262.329537169574
 30
0.0
 40
5.0
 50
0.0
 51
87.999999999996476
  0
ARC
  5
D0AF
  8
0
  6
CONTINUOUS
 62
     0
 10
829.7284291421762
 20
1160.0661371695751
 30
0.0
 40
3.0
 50
180.000010000001
 51
267.99999999999648
  0
ARC
  5
D0B0
  8
0
  6
CONTINUOUS
 62
     0
 10
577.72846914217632
 20
1207.258637169575
 30
0.0
 40
5.0
 50
180.000010000001
 51
221.2849400000012
  0
ARC
  5
D0B1
  8
0
  6
CONTINUOUS
 62
     0
 10
831.7284291421762
 20
1192.424437169575
 30
0.0
 40
5.0
 50
113.57817999998301
 51
180.000010000001
  0
ARC
  5
D0B2
  8
0
  6
CONTINUOUS
 62
     0
 10
831.7284291421762
 20
991.494667169575
 30
0.0
 40
5.0
 50
180.000010000001
 51
246.42182000001699
  0
ARC
  5
D0B3
  8
0
  6
CONTINUOUS
 62
     0
 10
577.72846914217632
 20
976.66056716957564
 30
0.0
 40
5.0
 50
138.7152999999978
 51
180.000010000001
  0
ARC
  5
D0B4
  8
0
  6
CONTINUOUS
 62
     0
 10
829.7284291421762
 20
1023.853007169575
 30
0.0
 40
3.0
 50
91.999997999994306
 51
180.000010000001
  0
ARC
  5
D0B5
  8
0
  6
CONTINUOUS
 62
     0
 10
577.72846914217632
 20
921.0658371695755
 30
0.0
 40
5.0
 50
180.000010000001
 51
267.99999999999648
  0
ARC
  5
D0B6
  8
0
  6
CONTINUOUS
 62
     0
 10
827.72842914217608
 20
921.58963716957567
 30
0.0
 40
5.0
 50
272.00000000000352
 51
0.0
  0
CIRCLE
  5
D0B7
  8
0
  6
CONTINUOUS
 62
     0
 10
602.72842914217631
 20
946.95957716957571
 30
0.0
 40
12.0
  0
ARC
  5
D0B8
  8
0
  6
CONTINUOUS
 62
     0
 10
829.7284291421762
 20
1029.8566671695751
 30
0.0
 40
3.0
 50
272.00000000000352
 51
0.0
  0
CIRCLE
  5
D0B9
  8
0
  6
CONTINUOUS
 62
     0
 10
802.72842914217608
 20
946.95957716957571
 30
0.0
 40
12.0
  0
ARC
  5
D0BA
  8
0
  6
CONTINUOUS
 62
     0
 10
827.72842914217608
 20
982.32950716957509
 30
0.0
 40
5.0
 50
0.0
 51
66.421821000015456
  0
ARC
  5
D0BB
  8
0
  6
CONTINUOUS
 62
     0
 10
690.2284291421762
 20
934.5281771695752
 30
0.0
 40
5.0
 50
279.35985999998599
 51
344.36583000000542
  0
ARC
  5
D0BC
  8
0
  6
CONTINUOUS
 62
     0
 10
685.22842914217631
 20
929.12449716957565
 30
0.0
 40
10.0
 50
277.04919999998998
 51
0.0
  0
ARC
  5
D0BD
  8
0
  6
CONTINUOUS
 62
     0
 10
776.7284291421762
 20
924.81168716957563
 30
0.0
 40
10.0
 50
180.000010000001
 51
271.99998999998161
  0
ARC
  5
D0BE
  8
0
  6
CONTINUOUS
 62
     0
 10
647.72842914217631
 20
927.52292716957561
 30
0.0
 40
5.0
 50
180.000010000001
 51
279.3598499999901
  0
ARC
  5
D0BF
  8
0
  6
CONTINUOUS
 62
     0
 10
758.72842914217597
 20
943.40952716957509
 30
0.0
 40
8.0
 50
272.00000000000352
 51
0.0
  0
ARC
  5
D0C0
  8
0
  6
CONTINUOUS
 62
     0
 10
781.7284291421762
 20
946.42661716957559
 30
0.0
 40
15.0
 50
91.999997999994306
 51
180.000010000001
  0
ARC
  5
D0C1
  8
0
  6
CONTINUOUS
 62
     0
 10
786.72842914217608
 20
971.61643716957519
 30
0.0
 40
10.0
 50
272.00000000000352
 51
0.0
  0
ARC
  5
D0C2
  8
0
  6
CONTINUOUS
 62
     0
 10
806.7284291421762
 20
974.25504716957516
 30
0.0
 40
10.0
 50
91.999997999994306
 51
180.000010000001
  0
ARC
  5
D0C3
  8
0
  6
CONTINUOUS
 62
     0
 10
818.72842914217608
 20
992.68509716957465
 30
0.0
 40
8.0
 50
272.00000000000352
 51
0.0
  0
ARC
  5
D0C4
  8
0
  6
CONTINUOUS
 62
     0
 10
818.72842914217608
 20
1191.234137169575
 30
0.0
 40
8.0
 50
0.0
 51
87.999999999996476
  0
ARC
  5
D0C5
  8
0
  6
CONTINUOUS
 62
     0
 10
806.7284291421762
 20
1209.6640371695751
 30
0.0
 40
10.0
 50
180.000010000001
 51
267.99999999999648
  0
ARC
  5
D0C6
  8
0
  6
CONTINUOUS
 62
     0
 10
781.7284291421762
 20
1237.492537169574
 30
0.0
 40
15.0
 50
180.000010000001
 51
267.99999999999648
  0
ARC
  5
D0C7
  8
0
  6
CONTINUOUS
 62
     0
 10
786.72842914217608
 20
1212.3027371695759
 30
0.0
 40
10.0
 50
0.0
 51
87.999999999996476
  0
ARC
  5
D0C8
  8
0
  6
CONTINUOUS
 62
     0
 10
758.72842914217597
 20
1240.509637169574
 30
0.0
 40
8.0
 50
0.0
 51
87.999999999996476
  0
ARC
  5
D0C9
  8
0
  6
CONTINUOUS
 62
     0
 10
690.2284291421762
 20
1249.390937169575
 30
0.0
 40
5.0
 50
15.63417199999704
 51
80.640142999995817
  0
ARC
  5
D0CA
  8
0
  6
CONTINUOUS
 62
     0
 10
685.22842914217631
 20
1254.794637169575
 30
0.0
 40
10.0
 50
0.0
 51
82.950795999992309
  0
ARC
  5
D0CB
  8
0
  6
CONTINUOUS
 62
     0
 10
776.7284291421762
 20
1259.107437169574
 30
0.0
 40
10.0
 50
87.999999999996476
 51
180.000010000001
  0
ARC
  5
D0CC
  8
0
  6
CONTINUOUS
 62
     0
 10
647.72842914217631
 20
1256.396237169575
 30
0.0
 40
5.0
 50
80.640142999995817
 51
180.000010000001
  0
ARC
  5
D0CD
  8
0
  6
CONTINUOUS
 62
     0
 10
862.7284291421762
 20
1091.9595771695761
 30
0.0
 40
8.9999962
 50
90.000002999984659
 51
270.0
  0
ARC
  5
D0CE
  8
0
  6
CONTINUOUS
 62
     0
 10
670.2284291421762
 20
1091.9595771695761
 30
0.0
 40
5.0
 50
270.0
 51
90.000002999984659
  0
ARC
  5
D0CF
  8
0
  6
CONTINUOUS
 62
     0
 10
630.22842914217631
 20
1091.9595771695761
 30
0.0
 40
5.0
 50
90.000002999984659
 51
270.0
  0
ARC
  5
D0D0
  8
0
  6
CONTINUOUS
 62
     0
 10
650.22842914217631
 20
1091.9595771695761
 30
0.0
 40
12.5
 50
23.578179999997541
 51
156.42182000000241
  0
ARC
  5
D0D1
  8
0
  6
CONTINUOUS
 62
     0
 10
650.22842914217631
 20
1091.9595771695761
 30
0.0
 40
12.5
 50
203.5781799999975
 51
336.42182999999483
  0
ARC
  5
D0D2
  8
0
  6
CONTINUOUS
 62
     0
 10
610.22836914217601
 20
974.95957716957571
 30
0.0
 40
5.0
 50
0.0
 51
90.000002999984659
  0
ARC
  5
D0D3
  8
0
  6
CONTINUOUS
 62
     0
 10
610.22836914217601
 20
1208.9595371695759
 30
0.0
 40
5.0
 50
270.0
 51
0.0
  0
ARC
  5
D0D4
  8
0
  6
CONTINUOUS
 62
     0
 10
566.72846914217621
 20
1209.959537169575
 30
0.0
 40
2.0
 50
0.0
 51
90.000002999984659
  0
ARC
  5
D0D5
  8
0
  6
CONTINUOUS
 62
     0
 10
566.72846914217621
 20
973.95957716957571
 30
0.0
 40
2.0
 50
270.0
 51
0.0
  0
ARC
  5
D0D6
  8
0
  6
CONTINUOUS
 62
     0
 10
570.72846914217769
 20
977.9595771695756
 30
0.0
 40
2.0
 50
90.000002999984659
 51
180.000010000001
  0
ARC
  5
D0D7
  8
0
  6
CONTINUOUS
 62
     0
 10
570.72846914217769
 20
1205.959537169575
 30
0.0
 40
2.0
 50
179.999989999999
 51
270.0
  0
ARC
  5
D0D8
  8
0
  6
CONTINUOUS
 62
     0
 10
640.22836914217601
 20
939.76163716957569
 30
0.0
 40
5.0
 50
180.000010000001
 51
268.00001000001851
  0
ARC
  5
D0D9
  8
0
  6
CONTINUOUS
 62
     0
 10
640.22836914217601
 20
1244.1574371695749
 30
0.0
 40
5.0
 50
91.999997999994306
 51
180.000010000001
  0
ARC
  5
D0DA
  8
0
  6
CONTINUOUS
 62
     0
 10
666.2284291421762
 20
946.86954716957507
 30
0.0
 40
2.0
 50
270.0
 51
0.0
  0
ARC
  5
D0DB
  8
0
  6
CONTINUOUS
 62
     0
 10
666.2284291421762
 20
953.65995716957536
 30
0.0
 40
2.0
 50
0.0
 51
90.000002999984659
  0
ARC
  5
D0DC
  8
0
  6
CONTINUOUS
 62
     0
 10
666.2284291421762
 20
999.01542716957556
 30
0.0
 40
2.0
 50
270.0
 51
0.0
  0
ARC
  5
D0DD
  8
0
  6
CONTINUOUS
 62
     0
 10
666.2284291421762
 20
1040.931007169575
 30
0.0
 40
2.0
 50
0.0
 51
90.000002999984659
  0
ARC
  5
D0DE
  8
0
  6
CONTINUOUS
 62
     0
 10
640.22836914217601
 20
1047.931007169575
 30
0.0
 40
5.0
 50
180.000010000001
 51
270.0
  0
ARC
  5
D0DF
  8
0
  6
CONTINUOUS
 62
     0
 10
640.22836914217601
 20
992.01542716957476
 30
0.0
 40
5.0
 50
90.000002999984659
 51
180.000010000001
  0
ARC
  5
D0E0
  8
0
  6
CONTINUOUS
 62
     0
 10
640.22836914217601
 20
960.65995716957525
 30
0.0
 40
5.0
 50
180.000010000001
 51
270.0
  0
ARC
  5
D0E1
  8
0
  6
CONTINUOUS
 62
     0
 10
640.22836914217601
 20
939.86954716957564
 30
0.0
 40
5.0
 50
90.000002999984659
 51
180.000010000001
  0
ARC
  5
D0E2
  8
0
  6
CONTINUOUS
 62
     0
 10
640.22836914217601
 20
1244.049537169574
 30
0.0
 40
5.0
 50
180.000010000001
 51
270.0
  0
ARC
  5
D0E3
  8
0
  6
CONTINUOUS
 62
     0
 10
666.2284291421762
 20
1142.9881371695751
 30
0.0
 40
2.0
 50
270.0
 51
0.0
  0
ARC
  5
D0E4
  8
0
  6
CONTINUOUS
 62
     0
 10
666.2284291421762
 20
1230.259137169576
 30
0.0
 40
2.0
 50
270.0
 51
0.0
  0
ARC
  5
D0E5
  8
0
  6
CONTINUOUS
 62
     0
 10
666.2284291421762
 20
1237.0495371695761
 30
0.0
 40
2.0
 50
0.0
 51
90.000002999984659
  0
ARC
  5
D0E6
  8
0
  6
CONTINUOUS
 62
     0
 10
640.22836914217601
 20
1135.9881371695731
 30
0.0
 40
5.0
 50
90.000002999984659
 51
180.000010000001
  0
ARC
  5
D0E7
  8
0
  6
CONTINUOUS
 62
     0
 10
666.2284291421762
 20
1184.903837169576
 30
0.0
 40
2.0
 50
0.0
 51
90.000002999984659
  0
ARC
  5
D0E8
  8
0
  6
CONTINUOUS
 62
     0
 10
640.22836914217601
 20
1191.903837169576
 30
0.0
 40
5.0
 50
180.000010000001
 51
270.0
  0
ARC
  5
D0E9
  8
0
  6
CONTINUOUS
 62
     0
 10
640.22836914217601
 20
1223.259137169576
 30
0.0
 40
5.0
 50
90.000002999984659
 51
180.000010000001
  0
ARC
  5
D0EA
  8
0
  6
CONTINUOUS
 62
     0
 10
630.22836914217589
 20
956.33616716957567
 30
0.0
 40
5.0
 50
0.0
 51
86.169160999992286
  0
ARC
  5
D0EB
  8
0
  6
CONTINUOUS
 62
     0
 10
620.22836914217601
 20
967.02817716957509
 30
0.0
 40
5.0
 50
180.000010000001
 51
266.16916000000413
  0
ARC
  5
D0EC
  8
0
  6
CONTINUOUS
 62
     0
 10
620.22836914217601
 20
1216.890937169574
 30
0.0
 40
5.0
 50
93.830837000004578
 51
180.000010000001
  0
ARC
  5
D0ED
  8
0
  6
CONTINUOUS
 62
     0
 10
630.22836914217589
 20
1227.583037169574
 30
0.0
 40
5.0
 50
273.83083999999587
 51
0.0
  0
ARC
  5
D0EE
  8
0
  6
CONTINUOUS
 62
     0
 10
539.72846914217621
 20
973.95957716957571
 30
0.0
 40
2.0
 50
179.999989999999
 51
270.0
  0
ARC
  5
D0EF
  8
0
  6
CONTINUOUS
 62
     0
 10
539.72846914217621
 20
1209.959537169575
 30
0.0
 40
2.0
 50
90.000002999984659
 51
180.000010000001
  0
ARC
  5
D0F0
  8
0
  6
CONTINUOUS
 62
     0
 10
532.72846914217712
 20
1203.460637169575
 30
0.0
 40
5.0
 50
289.9999999999892
 51
0.0
  0
ARC
  5
D0F1
  8
0
  6
CONTINUOUS
 62
     0
 10
513.72846914217598
 20
1185.903437169575
 30
0.0
 40
5.0
 50
109.9999999999892
 51
180.000010000001
  0
ARC
  5
D0F2
  8
0
  6
CONTINUOUS
 62
     0
 10
532.72846914217712
 20
980.45853716957538
 30
0.0
 40
5.0
 50
0.0
 51
70.000000000010758
  0
ARC
  5
D0F3
  8
0
  6
CONTINUOUS
 62
     0
 10
513.72846914217598
 20
998.01572716957594
 30
0.0
 40
5.0
 50
179.999989999999
 51
250.0000000000108
  0
ARC
  5
D0F4
  8
0
  6
CONTINUOUS
 62
     0
 10
503.72846914217791
 20
1181.957837169575
 30
0.0
 40
5.0
 50
272.00000000000352
 51
0.0
  0
ARC
  5
D0F5
  8
0
  6
CONTINUOUS
 62
     0
 10
503.72846914217791
 20
1001.961287169575
 30
0.0
 40
5.0
 50
0.0
 51
87.999999999996476
  0
LINE
  5
D0F6
  8
0
 62
     0
 10
475.22846914217621
 20
1006.959557169575
 30
0.0
 11
475.22846914217621
 21
1176.959557169575
 31
0.0
  0
ARC
  5
D0F7
  8
0
 10
256.06146914217641
 20
964.78355716957583
 30
0.0
 40
7.3402899999999969
 50
116.67697999999911
 51
177.34798000000251
  0
ARC
  5
D0F8
  8
0
 10
245.93549914217621
 20
984.04356716957557
 30
0.0
 40
15.0
 50
316.51494999999102
 51
336.8849499999958
  0
ARC
  5
D0F9
  8
0
 10
256.06146914217641
 20
958.13560716957556
 30
0.0
 40
7.3402899999999969
 50
182.65198000000061
 51
265.23795999998902
  0
ARC
  5
D0FA
  8
0
 10
256.06146914217641
 20
957.45652716957579
 30
0.0
 40
7.3402899999999969
 50
94.761785000012509
 51
177.34798000000251
  0
ARC
  5
D0FB
  8
0
 10
245.93549914217621
 20
976.71653716957564
 30
0.0
 40
15.0
 50
316.51494999999102
 51
336.8849499999958
  0
ARC
  5
D0FC
  8
0
 10
259.63446914217621
 20
970.42356716957568
 30
0.0
 40
5.8039399999999972
 50
283.12597000000932
 51
344.53994999999787
  0
ARC
  5
D0FD
  8
0
 10
271.2284691421761
 20
968.24949716957576
 30
0.0
 40
6.0
 50
89.999989000004106
 51
179.99997999999789
  0
ARC
  5
D0FE
  8
0
 10
271.2284691421761
 20
965.92051716957576
 30
0.0
 40
12.5
 50
89.999989000004106
 51
156.88497999999879
  0
ARC
  5
D0FF
  8
0
 10
418.39447914217612
 20
964.78355716957583
 30
0.0
 40
7.3402899999999969
 50
2.6518660000028751
 51
63.323093999992352
  0
ARC
  5
D100
  8
0
 10
428.52045914217638
 20
984.04356716957557
 30
0.0
 40
15.0
 50
203.1149699999952
 51
223.48497000000251
  0
ARC
  5
D101
  8
0
 10
418.39447914217612
 20
958.13560716957556
 30
0.0
 40
7.3402899999999969
 50
274.76196000001192
 51
357.34794999999428
  0
ARC
  5
D102
  8
0
 10
418.39447914217612
 20
957.45652716957579
 30
0.0
 40
7.3402899999999969
 50
2.6518660000028751
 51
85.238185999987664
  0
ARC
  5
D103
  8
0
 10
428.52045914217638
 20
976.71653716957564
 30
0.0
 40
15.0
 50
203.1149699999952
 51
223.48497000000251
  0
ARC
  5
D104
  8
0
 10
414.82245914217629
 20
945.16856716957557
 30
0.0
 40
5.8039399999999972
 50
103.1259899999863
 51
164.53997999999399
  0
ARC
  5
D105
  8
0
 10
414.82245914217629
 20
970.42356716957568
 30
0.0
 40
5.8039399999999972
 50
195.4599800000087
 51
256.87396999999709
  0
ARC
  5
D106
  8
0
 10
259.63446914217621
 20
945.16856716957557
 30
0.0
 40
5.8039399999999972
 50
15.459700999997549
 51
76.873786000000194
  0
ARC
  5
D107
  8
0
 10
271.2284691421761
 20
938.95957716957571
 30
0.0
 40
6.0
 50
179.99997999999789
 51
269.9999499999949
  0
ARC
  5
D108
  8
0
 10
271.2284691421761
 20
943.51815116957562
 30
0.0
 40
12.5
 50
179.99997999999789
 51
269.9999499999949
  0
ARC
  5
D109
  8
0
 10
403.22846914217621
 20
938.95957716957571
 30
0.0
 40
6.0
 50
269.99995999999589
 51
359.9999499999949
  0
ARC
  5
D10A
  8
0
 10
403.22846914217621
 20
943.51815116957562
 30
0.0
 40
12.5
 50
269.99995999999589
 51
359.9999499999949
  0
ARC
  5
D10B
  8
0
 10
403.22846914217621
 20
968.24949716957576
 30
0.0
 40
6.0
 50
0.0
 51
89.999989000004106
  0
ARC
  5
D10C
  8
0
 10
403.22846914217621
 20
965.92051716957576
 30
0.0
 40
12.5
 50
23.114595000003099
 51
89.999989000004106
  0
ARC
  5
D10D
  8
0
 10
270.22846914217621
 20
980.95957716957571
 30
0.0
 40
6.0
 50
89.999989000004106
 51
147.54197999998669
  0
ARC
  5
D10E
  8
0
 10
271.2284691421761
 20
973.2475471695758
 30
0.0
 40
12.5
 50
89.999989000004106
 51
156.9299800000019
  0
ARC
  5
D10F
  8
0
 10
404.22846914217621
 20
980.95957716957571
 30
0.0
 40
6.0
 50
32.458496999997593
 51
89.999989000004106
  0
ARC
  5
D110
  8
0
 10
403.22846914217621
 20
973.2475471695758
 30
0.0
 40
12.5
 50
23.114595000003099
 51
89.999989000004106
  0
LINE
  5
D111
  8
0
 10
405.7284691421761
 20
986.76853716957578
 30
0.0
 11
405.7284691421761
 21
989.95957716957571
 31
0.0
  0
LINE
  5
D112
  8
0
 10
330.72846914217621
 20
986.95957716957582
 30
0.0
 11
330.72846914217621
 21
989.95957716957571
 31
0.0
  0
LINE
  5
D113
  8
0
 10
256.81940914217631
 20
973.72154716957584
 30
0.0
 11
252.76642914217629
 21
971.34251716957579
 31
0.0
  0
LINE
  5
D114
  8
0
 10
255.4524591421762
 20
950.8205371695758
 30
0.0
 11
260.95245914217622
 21
950.8205371695758
 31
0.0
  0
LINE
  5
D115
  8
0
 10
256.81940914217631
 20
966.39457716957565
 30
0.0
 11
252.7664891421762
 21
964.01457716957577
 31
0.0
  0
LINE
  5
D116
  8
0
 10
255.41840914217639
 20
964.76859716957551
 30
0.0
 11
260.95239914217632
 21
964.77165716957575
 31
0.0
  0
LINE
  5
D117
  8
0
 10
248.72846914217621
 20
957.81858716957561
 30
0.0
 11
248.72846914217621
 21
965.10056716957592
 31
0.0
  0
LINE
  5
D118
  8
0
 10
258.7284691421761
 20
954.64658716957558
 30
0.0
 11
258.7284691421761
 21
961.50950716957573
 31
0.0
  0
LINE
  5
D119
  8
0
 10
262.22650914217621
 20
957.79551716957565
 30
0.0
 11
255.96845914217619
 21
957.79551716957565
 31
0.0
  0
LINE
  5
D11A
  8
0
 10
417.63739914217621
 20
973.7216071695758
 30
0.0
 11
421.69043914217622
 21
971.34257716957575
 31
0.0
  0
LINE
  5
D11B
  8
0
 10
419.00446914217599
 20
950.8205371695758
 30
0.0
 11
413.50446914217582
 21
950.8205371695758
 31
0.0
  0
LINE
  5
D11C
  8
0
 10
417.63745914217611
 20
966.39451716957558
 30
0.0
 11
421.69043914217622
 21
964.01450716957595
 31
0.0
  0
LINE
  5
D11D
  8
0
 10
419.03735914217651
 20
964.76853716957589
 30
0.0
 11
413.5044091421762
 21
964.7715871695757
 31
0.0
  0
LINE
  5
D11E
  8
0
 10
425.7284691421761
 20
957.81858716957561
 30
0.0
 11
425.7284691421761
 21
965.10056716957592
 31
0.0
  0
LINE
  5
D11F
  8
0
 10
415.72846914217621
 20
954.64658716957558
 30
0.0
 11
415.72846914217621
 21
961.50950716957573
 31
0.0
  0
LINE
  5
D120
  8
0
 10
412.22943914217609
 20
957.79551716957565
 30
0.0
 11
418.48749914217638
 21
957.79551716957565
 31
0.0
  0
LINE
  5
D121
  8
0
 10
265.2284691421761
 20
938.9595791695757
 30
0.0
 11
265.2284691421761
 21
968.24949716957576
 31
0.0
  0
LINE
  5
D122
  8
0
 10
258.7284691421761
 20
943.51815116957562
 30
0.0
 11
258.7284691421761
 21
950.8205371695758
 31
0.0
  0
LINE
  5
D123
  8
0
 10
409.2284691421761
 20
938.95957216957549
 30
0.0
 11
409.2284691421761
 21
968.24949716957576
 31
0.0
  0
LINE
  5
D124
  8
0
 10
271.2284691421761
 20
978.42051716957576
 30
0.0
 11
403.22846914217621
 21
978.42051716957576
 31
0.0
  0
LINE
  5
D125
  8
0
 10
415.72846914217621
 20
943.51815116957562
 30
0.0
 11
415.72846914217621
 21
950.8205371695758
 31
0.0
  0
LINE
  5
D126
  8
0
 10
271.2284691421761
 20
931.01815116957562
 30
0.0
 11
403.22846914217621
 21
931.01815116957562
 31
0.0
  0
LINE
  5
D127
  8
0
 10
271.2284691421761
 20
932.95957716957594
 30
0.0
 11
403.22846914217621
 21
932.95957716957594
 31
0.0
  0
LINE
  5
D128
  8
0
 10
271.2284691421761
 20
974.24949716957565
 30
0.0
 11
403.22846914217621
 21
974.24949716957565
 31
0.0
  0
LINE
  5
D129
  8
0
 10
270.22846914217621
 20
986.95957716957582
 30
0.0
 11
404.22846914217621
 21
986.95957716957582
 31
0.0
  0
LINE
  5
D12A
  8
0
 10
271.2284691421761
 20
985.7475471695758
 30
0.0
 11
403.22846914217621
 21
985.7475471695758
 31
0.0
  0
LINE
  5
D12B
  8
0
 10
270.22846914217621
 20
983.95957716957582
 30
0.0
 11
404.22846914217621
 21
983.95957716957582
 31
0.0
  0
ARC
  5
D12C
  8
0
 10
276.17211314217622
 20
1009.558897169576
 30
0.0
 40
2.0
 50
190.000000000005
 51
270.0
  0
LINE
  5
D12D
  8
0
 10
274.20249814217618
 20
1009.2116011695761
 30
0.0
 11
271.2284691421761
 21
1026.078155169575
 31
0.0
  0
LINE
  5
D12E
  8
0
 10
271.2284691421761
 20
1026.078155169575
 30
0.0
 11
272.29020814217603
 21
1026.078155169575
 31
0.0
  0
LINE
  5
D12F
  8
0
 10
469.69261014217608
 20
1178.1318841695761
 30
0.0
 11
470.22846914217621
 21
1178.1318841695761
 31
0.0
  0
LINE
  5
D130
  8
0
 10
469.95300114217628
 20
1179.6941411695759
 30
0.0
 11
470.22846914217621
 21
1179.6941411695759
 31
0.0
  0
LINE
  5
D131
  8
0
 10
471.9066681421761
 20
1003.959728169576
 30
0.0
 11
472.2284691421761
 21
1003.959728169576
 31
0.0
  0
LINE
  5
D132
  8
0
 10
468.04907414217621
 20
1008.8075911695749
 30
0.0
 11
470.22846914217621
 21
1008.8075911695749
 31
0.0
  0
LINE
  5
D133
  8
0
 10
469.05515714217631
 20
1020.913161169576
 30
0.0
 11
470.22846914217621
 21
1020.913161169576
 31
0.0
  0
LINE
  5
D134
  8
0
 10
368.22846914217621
 20
984.30361216957579
 30
0.0
 11
368.22846914217621
 21
993.48532816957561
 31
0.0
  0
ARC
  5
D135
  8
0
 10
466.471349142176
 20
1180.9678251695759
 30
0.0
 40
2.0
 50
10.00000000000502
 51
90.0
  0
ARC
  5
D136
  8
0
 10
466.53736614217593
 20
1184.508624169576
 30
0.0
 40
2.0
 50
10.00000000000502
 51
90.0
  0
ARC
  5
D137
  8
0
 10
466.6232841421762
 20
1187.060361169576
 30
0.0
 40
2.0
 50
10.00000000000502
 51
90.0
  0
ARC
  5
D138
  8
0
 10
466.65203314217592
 20
1188.4595771695761
 30
0.0
 40
2.0
 50
10.00000000000502
 51
90.0
  0
LINE
  5
D139
  8
0
 10
475.22847214217609
 20
1176.9595771695761
 30
0.0
 11
472.2284721421762
 21
1179.9595771695761
 31
0.0
  0
LINE
  5
D13A
  8
0
 10
262.72846914217621
 20
1188.9595511695759
 30
0.0
 11
262.72846914217621
 21
994.95957716957582
 31
0.0
  0
LINE
  5
D13B
  8
0
 10
470.18166514217609
 20
1179.9595771695761
 30
0.0
 11
472.2284691421761
 21
1179.9595771695761
 31
0.0
  0
LINE
  5
D13C
  8
0
 10
475.22846914217621
 20
1006.9595771695761
 30
0.0
 11
472.2284691421761
 21
1003.9595771695761
 31
0.0
  0
LINE
  5
D13D
  8
0
 10
472.2284691421761
 20
1003.9595771695761
 30
0.0
 11
472.2284691421761
 21
1029.5799631695761
 31
0.0
  0
LINE
  5
D13E
  8
0
 10
475.22846914217621
 20
1006.9595771695761
 30
0.0
 11
475.22846914217621
 21
1176.9595771695761
 31
0.0
  0
CIRCLE
  5
D13F
  8
0
 10
368.22846914217621
 20
1091.9595771695761
 30
0.0
 40
11.0
  0
LINE
  5
D140
  8
0
 10
275.51458914217602
 20
1190.4595771695761
 30
0.0
 11
327.22846914217621
 21
1190.4595771695761
 31
0.0
  0
LINE
  5
D141
  8
0
 10
407.22846914217621
 20
1182.9678251695759
 30
0.0
 11
407.22846914217621
 21
1188.4595771695761
 31
0.0
  0
LINE
  5
D142
  8
0
 10
329.22846914217621
 20
1182.9678251695759
 30
0.0
 11
329.22846914217621
 21
1188.4595771695761
 31
0.0
  0
ARC
  5
D143
  8
0
 10
327.22846914217621
 20
1188.4595771695761
 30
0.0
 40
2.0
 50
0.0
 51
90.0
  0
ARC
  5
D144
  8
0
 10
409.2284691421761
 20
1188.4595771695761
 30
0.0
 40
2.0
 50
90.0
 51
180.0
  0
LINE
  5
D145
  8
0
 10
409.2284691421761
 20
1190.4595771695761
 30
0.0
 11
466.65203314217592
 21
1190.4595771695761
 31
0.0
  0
LINE
  5
D146
  8
0
 10
466.6232841421762
 20
1189.060361169576
 30
0.0
 11
409.2284691421761
 21
1189.060361169576
 31
0.0
  0
LINE
  5
D147
  8
0
 10
470.22846914217621
 20
1178.1318841695761
 30
0.0
 11
468.59290014217618
 21
1187.407657169575
 31
0.0
  0
LINE
  5
D148
  8
0
 10
470.22846914217621
 20
1179.6941411695759
 30
0.0
 11
468.62164814217613
 21
1188.806873169576
 31
0.0
  0
LINE
  5
D149
  8
0
 10
271.2284691421761
 20
1175.669323169576
 30
0.0
 11
273.54497414217599
 21
1188.806873169576
 31
0.0
  0
ARC
  5
D14A
  8
0
 10
275.51458914217602
 20
1188.4595771695761
 30
0.0
 40
2.0
 50
90.0
 51
169.99999999999491
  0
LINE
  5
D14B
  8
0
 10
271.2284691421761
 20
1174.010262169576
 30
0.0
 11
273.59079114217622
 21
1187.407657169575
 31
0.0
  0
ARC
  5
D14C
  8
0
 10
275.56040714217647
 20
1187.060361169576
 30
0.0
 40
2.0
 50
90.0
 51
169.99999999999491
  0
ARC
  5
D14D
  8
0
 10
327.22846914217621
 20
1187.060361169576
 30
0.0
 40
2.0
 50
0.0
 51
90.0
  0
ARC
  5
D14E
  8
0
 10
409.2284691421761
 20
1187.060361169576
 30
0.0
 40
2.0
 50
90.0
 51
180.0
  0
LINE
  5
D14F
  8
0
 10
327.22846914217621
 20
1189.060361169576
 30
0.0
 11
275.56040714217647
 21
1189.060361169576
 31
0.0
  0
LINE
  5
D150
  8
0
 10
466.53736614217593
 20
1186.508624169576
 30
0.0
 11
409.2284691421761
 21
1186.508624169576
 31
0.0
  0
LINE
  5
D151
  8
0
 10
470.0996891421762
 20
1175.8232261695759
 30
0.0
 11
468.50698114217607
 21
1184.8559211695749
 31
0.0
  0
LINE
  5
D152
  8
0
 10
271.2284691421761
 20
1170.789471169576
 30
0.0
 11
273.70876414217651
 21
1184.8559211695749
 31
0.0
  0
ARC
  5
D153
  8
0
 10
275.67837914217603
 20
1184.508624169576
 30
0.0
 40
2.0
 50
90.0
 51
169.99999999999491
  0
ARC
  5
D154
  8
0
 10
327.22846914217621
 20
1184.508624169576
 30
0.0
 40
2.0
 50
0.0
 51
90.0
  0
ARC
  5
D155
  8
0
 10
409.2284691421761
 20
1184.508624169576
 30
0.0
 40
2.0
 50
90.0
 51
180.0
  0
LINE
  5
D156
  8
0
 10
327.22846914217621
 20
1186.508624169576
 30
0.0
 11
275.67837914217603
 21
1186.508624169576
 31
0.0
  0
LINE
  5
D157
  8
0
 10
466.471349142176
 20
1182.9678251695759
 30
0.0
 11
275.83988814217611
 21
1182.9678251695759
 31
0.0
  0
LINE
  5
D158
  8
0
 10
469.40933414217648
 20
1175.8232261695759
 30
0.0
 11
468.44096514217631
 21
1181.3151211695761
 31
0.0
  0
LINE
  5
D159
  8
0
 10
271.2284691421761
 20
1166.332711169576
 30
0.0
 11
273.87027214217619
 21
1181.3151211695761
 31
0.0
  0
ARC
  5
D15A
  8
0
 10
275.83988814217611
 20
1180.9678251695759
 30
0.0
 40
2.0
 50
90.0
 51
169.99999999999491
  0
LINE
  5
D15B
  8
0
 10
400.28482514217609
 20
1176.360257169576
 30
0.0
 11
276.17211314217622
 21
1176.360257169576
 31
0.0
  0
LINE
  5
D15C
  8
0
 10
405.2284691421761
 20
1157.8409991695751
 30
0.0
 11
402.25444014217618
 21
1174.707553169575
 31
0.0
  0
ARC
  5
D15D
  8
0
 10
400.28482514217609
 20
1174.360257169576
 30
0.0
 40
2.0
 50
10.00000000000502
 51
90.0
  0
LINE
  5
D15E
  8
0
 10
271.2284691421761
 20
1157.8409991695751
 30
0.0
 11
274.20249814217618
 21
1174.707553169575
 31
0.0
  0
ARC
  5
D15F
  8
0
 10
276.17211314217622
 20
1174.360257169576
 30
0.0
 40
2.0
 50
90.0
 51
169.99999999999491
  0
LINE
  5
D160
  8
0
 10
399.9545611421762
 20
1170.9582131695761
 30
0.0
 11
276.50237714217627
 21
1170.9582131695761
 31
0.0
  0
LINE
  5
D161
  8
0
 10
405.00741814217622
 20
1151.819577169575
 30
0.0
 11
401.92417714217618
 21
1169.3055101695761
 31
0.0
  0
ARC
  5
D162
  8
0
 10
399.9545611421762
 20
1168.9582131695761
 30
0.0
 40
2.0
 50
10.00000000000502
 51
90.0
  0
LINE
  5
D163
  8
0
 10
271.50546314217598
 20
1152.1368451695751
 30
0.0
 11
274.53276114217601
 21
1169.3055101695761
 31
0.0
  0
ARC
  5
D164
  8
0
 10
276.50237714217627
 20
1168.9582131695761
 30
0.0
 40
2.0
 50
90.0
 51
169.99999999999491
  0
LINE
  5
D165
  8
0
 10
470.22846914217621
 20
1096.9897291695761
 30
0.0
 11
470.22846914217621
 21
1099.9374211695761
 31
0.0
  0
LINE
  5
D166
  8
0
 10
470.22846914217621
 20
1106.9892051695749
 30
0.0
 11
470.22846914217621
 21
1109.9506841695761
 31
0.0
  0
LINE
  5
D167
  8
0
 10
470.22846914217621
 20
1117.981385169576
 30
0.0
 11
470.22846914217621
 21
1120.974012169575
 31
0.0
  0
LINE
  5
D168
  8
0
 10
470.22846914217621
 20
1128.9641801695759
 30
0.0
 11
470.22846914217621
 21
1132.0098861695751
 31
0.0
  0
LINE
  5
D169
  8
0
 10
470.22846914217621
 20
1139.9340591695759
 30
0.0
 11
470.22846914217621
 21
1143.0649721695761
 31
0.0
  0
LINE
  5
D16A
  8
0
 10
470.22846914217621
 20
1148.8925351695759
 30
0.0
 11
470.22846914217621
 21
1152.1368451695751
 31
0.0
  0
LINE
  5
D16B
  8
0
 10
420.22846914217621
 20
1166.332711169576
 30
0.0
 11
403.73115114217649
 21
1166.332711169576
 31
0.0
  0
LINE
  5
D16C
  8
0
 10
452.01524614217578
 20
1171.1776791695761
 30
0.0
 11
436.22846914217621
 21
1171.1776791695761
 31
0.0
  0
LINE
  5
D16D
  8
0
 10
420.22846914217621
 20
1166.332711169576
 30
0.0
 11
436.22846914217621
 21
1171.1776791695761
 31
0.0
  0
LINE
  5
D16E
  8
0
 10
436.22846914217621
 20
1171.1776791695761
 30
0.0
 11
436.22846914217621
 21
1167.8123641695761
 31
0.0
  0
LINE
  5
D16F
  8
0
 10
420.22846914217621
 20
1166.332711169576
 30
0.0
 11
420.22846914217621
 21
1152.1368451695751
 31
0.0
  0
LINE
  5
D170
  8
0
 10
455.72846914217621
 20
1155.025539169575
 30
0.0
 11
455.72846914217621
 21
1173.8232261695759
 31
0.0
  0
ARC
  5
D171
  8
0
 10
457.72846914217621
 20
1173.8232261695759
 30
0.0
 40
2.0
 50
90.0
 51
180.0
  0
LINE
  5
D172
  8
0
 10
455.72846914217621
 20
1159.415637169576
 30
0.0
 11
436.22846914217621
 21
1159.415637169576
 31
0.0
  0
LINE
  5
D173
  8
0
 10
450.3284751421761
 20
1167.8123641695761
 30
0.0
 11
436.22846914217621
 21
1167.8123641695761
 31
0.0
  0
LINE
  5
D174
  8
0
 10
436.22846914217621
 20
1159.415637169576
 30
0.0
 11
436.22846914217621
 21
1152.1368451695751
 31
0.0
  0
ARC
  5
D175
  8
0
  6
CONTINUOUS
 10
452.92826814217608
 20
1163.442843169576
 30
0.0
 40
2.6003989999999999
 50
179.99998200000081
 51
269.99997800000818
  0
ARC
  5
D176
  8
0
  6
CONTINUOUS
 10
452.92826814217608
 20
1168.742831169576
 30
0.0
 40
2.600403
 50
90.0
 51
179.99998200000081
  0
LINE
  5
D177
  8
0
  6
CONTINUOUS
 10
455.72846914217621
 20
1166.1588621695751
 30
0.0
 11
454.22846914217621
 21
1165.2928371695759
 31
0.0
  0
LINE
  5
D178
  8
0
  6
CONTINUOUS
 10
455.72846914217621
 20
1167.158862169576
 30
0.0
 11
454.22846914217621
 21
1166.2928371695759
 31
0.0
  0
LINE
  5
D179
  8
0
  6
CONTINUOUS
 10
455.72846914217621
 20
1172.192837169576
 30
0.0
 11
455.72846914217621
 21
1159.992837169576
 31
0.0
  0
LINE
  5
D17A
  8
0
  6
CONTINUOUS
 10
454.22846914217621
 20
1172.192837169576
 30
0.0
 11
455.72846914217621
 21
1172.192837169576
 31
0.0
  0
LINE
  5
D17B
  8
0
  6
CONTINUOUS
 10
454.22846914217621
 20
1159.992837169576
 30
0.0
 11
455.72846914217621
 21
1159.992837169576
 31
0.0
  0
LINE
  5
D17C
  8
0
  6
CONTINUOUS
 10
450.3284751421761
 20
1168.742831169576
 30
0.0
 11
450.3284751421761
 21
1163.442843169576
 31
0.0
  0
LINE
  5
D17D
  8
0
  6
CONTINUOUS
 10
454.22846914217621
 20
1172.192837169576
 30
0.0
 11
454.22846914217621
 21
1159.992837169576
 31
0.0
  0
LINE
  5
D17E
  8
0
  6
CONTINUOUS
 10
454.22846914217621
 20
1160.8428371695759
 30
0.0
 11
452.92826814217608
 21
1160.8428371695759
 31
0.0
  0
LINE
  5
D17F
  8
0
  6
CONTINUOUS
 10
454.22846914217621
 20
1171.342837169575
 30
0.0
 11
452.92826814217608
 21
1171.342837169575
 31
0.0
  0
LINE
  5
D180
  8
0
 10
475.22846914217621
 20
1175.8232261695759
 30
0.0
 11
457.72846914217621
 21
1175.8232261695759
 31
0.0
  0
LINE
  5
D181
  8
0
 10
475.22846914217621
 20
1154.025539169575
 30
0.0
 11
454.7284691421761
 21
1154.025539169575
 31
0.0
  0
ARC
  5
D182
  8
0
 10
454.7284691421761
 20
1155.025539169575
 30
0.0
 40
1.0
 50
270.0
 51
0.0
  0
LINE
  5
D183
  8
0
 10
475.22846914217621
 20
1167.699221169576
 30
0.0
 11
457.72846914217621
 21
1167.699221169576
 31
0.0
  0
LINE
  5
D184
  8
0
 10
262.72846914217621
 20
1175.9595771695761
 30
0.0
 11
271.2284691421761
 21
1175.9595771695761
 31
0.0
  0
ARC
  5
D185
  8
0
 10
471.9066681421761
 20
1001.9595771695761
 30
0.0
 40
2.0
 50
90.0
 51
169.99999999999491
  0
ARC
  5
D186
  8
0
 10
407.97111114217631
 20
996.96592016957584
 30
0.0
 40
1.9936590000000001
 50
90.075931000003507
 51
178.1702539999921
  0
LINE
  5
D187
  8
0
 10
407.96846914217599
 20
998.95957716957594
 30
0.0
 11
467.66863514217607
 21
998.95957716957594
 31
0.0
  0
LINE
  5
D188
  8
0
 10
405.7284691421761
 20
989.95957716957571
 30
0.0
 11
406.34449814217601
 21
1007.558897169576
 31
0.0
  0
LINE
  5
D189
  8
0
 10
469.93705314217613
 20
1002.3068731695751
 30
0.0
 11
469.63825014217588
 21
1000.612281169576
 31
0.0
  0
ARC
  5
D18A
  8
0
 10
467.66863514217607
 20
1000.9595771695761
 30
0.0
 40
2.0
 50
270.0
 51
349.99999999999488
  0
LINE
  5
D18B
  8
0
 10
271.80581914217618
 20
1006.9595771695761
 30
0.0
 11
279.0226981421763
 21
994.45957716957571
 31
0.0
  0
LINE
  5
D18C
  8
0
 10
280.75474814217642
 20
993.45957716957571
 30
0.0
 11
328.6734401421761
 21
993.45957716957571
 31
0.0
  0
LINE
  5
D18D
  8
0
 10
330.72846914217621
 20
989.95957716957571
 30
0.0
 11
330.6721571421761
 21
991.53119216957577
 31
0.0
  0
ARC
  5
D18E
  8
0
 10
270.07376814217628
 20
1005.959577169575
 30
0.0
 40
2.0
 50
30.000000000000551
 51
90.0
  0
ARC
  5
D18F
  8
0
 10
280.75474814217642
 20
995.45957716957594
 30
0.0
 40
2.0
 50
210.00000000000051
 51
270.0
  0
ARC
  5
D190
  8
0
 10
328.6734401421761
 20
991.45957716957582
 30
0.0
 40
2.0
 50
2.0520649999985339
 51
90.0
  0
LINE
  5
D191
  8
0
 10
330.72846914217621
 20
989.95957716957571
 30
0.0
 11
405.7284691421761
 21
989.95957716957571
 31
0.0
  0
LINE
  5
D192
  8
0
 10
279.75474814217642
 20
993.72752616957575
 30
0.0
 11
279.75474814217642
 21
1007.558897169576
 31
0.0
  0
LINE
  5
D193
  8
0
 10
466.19555314217592
 20
1007.558897169576
 30
0.0
 11
276.17211314217622
 21
1007.558897169576
 31
0.0
  0
LINE
  5
D194
  8
0
 10
465.97476714217618
 20
1012.960941169576
 30
0.0
 11
276.28132614217628
 21
1012.960941169576
 31
0.0
  0
LINE
  5
D195
  8
0
 10
470.22846914217621
 20
1027.5673431695759
 30
0.0
 11
436.22846914217621
 21
1027.5673431695759
 31
0.0
  0
LINE
  5
D196
  8
0
 10
470.22846914217621
 20
1027.5673431695759
 30
0.0
 11
467.94438214217621
 21
1014.613644169576
 31
0.0
  0
ARC
  5
D197
  8
0
 10
465.97476714217618
 20
1014.960941169576
 30
0.0
 40
2.0
 50
270.0
 51
349.99999999999488
  0
LINE
  5
D198
  8
0
 10
470.22846914217621
 20
1020.913161169576
 30
0.0
 11
468.16516814217613
 21
1009.2116011695761
 31
0.0
  0
ARC
  5
D199
  8
0
 10
466.19555314217592
 20
1009.558897169576
 30
0.0
 40
2.0
 50
270.0
 51
349.99999999999488
  0
LINE
  5
D19A
  8
0
 10
274.97120714217613
 20
1007.9595771695761
 30
0.0
 11
262.72846914217621
 21
1007.9595771695761
 31
0.0
  0
LINE
  5
D19B
  8
0
 10
470.22846914217621
 20
1008.8075911695749
 30
0.0
 11
468.78341514217612
 21
1000.612281169576
 31
0.0
  0
ARC
  5
D19C
  8
0
 10
466.81379914217609
 20
1000.9595771695761
 30
0.0
 40
2.0
 50
270.0
 51
349.99999999999488
  0
LINE
  5
D19D
  8
0
 10
405.2284691421761
 20
1043.799577169576
 30
0.0
 11
405.2284691421761
 21
1041.0995771695759
 31
0.0
  0
LINE
  5
D19E
  8
0
 10
475.22846914217621
 20
1029.7499401695759
 30
0.0
 11
457.72846914217621
 21
1029.7499401695759
 31
0.0
  0
LINE
  5
D19F
  8
0
 10
475.22846914217621
 20
1042.057579169576
 30
0.0
 11
457.72846914217621
 21
1042.057579169576
 31
0.0
  0
LINE
  5
D1A0
  8
0
 10
475.22846914217621
 20
1052.236871169576
 30
0.0
 11
470.22846914217621
 21
1052.236871169576
 31
0.0
  0
LINE
  5
D1A1
  8
0
 10
455.72846914217621
 20
1051.236871169576
 30
0.0
 11
455.72846914217621
 21
1031.7499401695759
 31
0.0
  0
ARC
  5
D1A2
  8
0
 10
454.7284691421761
 20
1051.236871169576
 30
0.0
 40
1.0
 50
0.0
 51
42.252324000004279
  0
ARC
  5
D1A3
  8
0
 10
457.72846914217621
 20
1031.7499401695759
 30
0.0
 40
2.0
 50
180.0
 51
270.0
  0
LINE
  5
D1A4
  8
0
 10
420.22846914217621
 20
1148.8925351695759
 30
0.0
 11
420.22846914217621
 21
1143.0649721695761
 31
0.0
  0
LINE
  5
D1A5
  8
0
 10
436.22846914217621
 20
1148.8925351695759
 30
0.0
 11
436.22846914217621
 21
1143.0649721695761
 31
0.0
  0
LINE
  5
D1A6
  8
0
 10
420.22846914217621
 20
1139.9340591695759
 30
0.0
 11
420.22846914217621
 21
1132.0098861695751
 31
0.0
  0
LINE
  5
D1A7
  8
0
 10
420.22846914217621
 20
1128.9641801695759
 30
0.0
 11
420.22846914217621
 21
1120.974012169575
 31
0.0
  0
LINE
  5
D1A8
  8
0
 10
420.22846914217621
 20
1117.981385169576
 30
0.0
 11
420.22846914217621
 21
1109.9506841695761
 31
0.0
  0
LINE
  5
D1A9
  8
0
 10
420.22846914217621
 20
1106.9892051695749
 30
0.0
 11
420.22846914217621
 21
1099.9374211695761
 31
0.0
  0
LINE
  5
D1AA
  8
0
 10
420.22846914217621
 20
1097.1195771695759
 30
0.0
 11
420.22846914217621
 21
1086.929425169576
 31
0.0
  0
LINE
  5
D1AB
  8
0
 10
436.22846914217621
 20
1097.1195771695759
 30
0.0
 11
436.22846914217621
 21
1086.929425169576
 31
0.0
  0
LINE
  5
D1AC
  8
0
 10
436.22846914217621
 20
1106.9892051695749
 30
0.0
 11
436.22846914217621
 21
1099.9374211695761
 31
0.0
  0
LINE
  5
D1AD
  8
0
 10
436.22846914217621
 20
1117.981385169576
 30
0.0
 11
436.22846914217621
 21
1109.9506841695761
 31
0.0
  0
LINE
  5
D1AE
  8
0
 10
436.22846914217621
 20
1128.9641801695759
 30
0.0
 11
436.22846914217621
 21
1120.974012169575
 31
0.0
  0
LINE
  5
D1AF
  8
0
 10
436.22846914217621
 20
1139.9340591695759
 30
0.0
 11
436.22846914217621
 21
1132.0098861695751
 31
0.0
  0
LINE
  5
D1B0
  8
0
 10
420.22846914217621
 20
1083.981733169576
 30
0.0
 11
420.22846914217621
 21
1076.929949169576
 31
0.0
  0
LINE
  5
D1B1
  8
0
 10
436.22846914217621
 20
1083.981733169576
 30
0.0
 11
436.22846914217621
 21
1076.929949169576
 31
0.0
  0
LINE
  5
D1B2
  8
0
 10
436.22846914217621
 20
1073.9684701695751
 30
0.0
 11
436.22846914217621
 21
1065.9377691695761
 31
0.0
  0
LINE
  5
D1B3
  8
0
 10
420.22846914217621
 20
1073.9684701695751
 30
0.0
 11
420.22846914217621
 21
1065.9377691695761
 31
0.0
  0
LINE
  5
D1B4
  8
0
 10
420.22846914217621
 20
1062.945142169576
 30
0.0
 11
420.22846914217621
 21
1054.954974169576
 31
0.0
  0
LINE
  5
D1B5
  8
0
 10
436.22846914217621
 20
1062.945142169576
 30
0.0
 11
436.22846914217621
 21
1054.954974169576
 31
0.0
  0
LINE
  5
D1B6
  8
0
 10
450.7778641421761
 20
1035.9387811695749
 30
0.0
 11
436.22846814217621
 21
1035.9387811695749
 31
0.0
  0
LINE
  5
D1B7
  8
0
 10
455.72846914217621
 20
1047.3511311695761
 30
0.0
 11
436.22846814217621
 21
1047.3511311695761
 31
0.0
  0
LINE
  5
D1B8
  8
0
 10
420.22846914217621
 20
1051.9092681695761
 30
0.0
 11
420.22846914217621
 21
1031.9092681695761
 31
0.0
  0
LINE
  5
D1B9
  8
0
 10
472.2284691421761
 20
1175.8232261695759
 30
0.0
 11
472.2284691421761
 21
1179.9595771695761
 31
0.0
  0
LINE
  5
D1BA
  8
0
 10
470.22846914217621
 20
1005.757833169576
 30
0.0
 11
469.32116914217642
 21
1000.612281169576
 31
0.0
  0
ARC
  5
D1BB
  8
0
 10
467.35155414217621
 20
1000.9595771695761
 30
0.0
 40
2.0
 50
270.0
 51
349.99999999999488
  0
LINE
  5
D1BC
  8
0
 10
436.22846914217621
 20
1051.9092681695761
 30
0.0
 11
436.22846914217621
 21
1047.3511311695761
 31
0.0
  0
LINE
  5
D1BD
  8
0
 10
472.2284691421761
 20
1052.236871169576
 30
0.0
 11
472.2284691421761
 21
1154.025539169575
 31
0.0
  0
LINE
  5
D1BE
  8
0
 10
271.2284691421761
 20
1032.0995771695759
 30
0.0
 11
274.31171114217642
 21
1014.613644169576
 31
0.0
  0
ARC
  5
D1BF
  8
0
 10
276.28132614217628
 20
1014.960941169576
 30
0.0
 40
2.0
 50
190.000000000005
 51
270.0
  0
LINE
  5
D1C0
  8
0
 10
420.93386614217582
 20
1040.653871169576
 30
0.0
 11
436.22846914217621
 21
1035.9387811695749
 31
0.0
  0
LINE
  5
D1C1
  8
0
 10
436.22846914217621
 20
1047.3511311695761
 30
0.0
 11
421.19252814217612
 21
1046.8103801695761
 31
0.0
  0
LINE
  5
D1C2
  8
0
 10
436.22846914217621
 20
1035.9387811695749
 30
0.0
 11
436.22846914217621
 21
1027.5673431695759
 31
0.0
  0
ARC
  5
D1C3
  8
0
 10
421.2284691421761
 20
1045.8110261695761
 30
0.0
 40
1.0
 50
92.059690999990565
 51
180.0
  0
ARC
  5
D1C4
  8
0
 10
421.2284691421761
 20
1041.6094911695759
 30
0.0
 40
1.0
 50
180.0
 51
252.86627500000029
  0
LINE
  5
D1C5
  8
0
 10
436.22846914217621
 20
1167.8123641695761
 30
0.0
 11
420.92801014217611
 21
1162.992498169576
 31
0.0
  0
LINE
  5
D1C6
  8
0
 10
421.27702414217578
 20
1158.6888171695759
 30
0.0
 11
436.22846914217621
 21
1159.415637169576
 31
0.0
  0
ARC
  5
D1C7
  8
0
 10
421.2284691421761
 20
1162.038703169575
 30
0.0
 40
1.0
 50
107.4851790000144
 51
180.0
  0
ARC
  5
D1C8
  8
0
 10
421.2284691421761
 20
1159.6876381695761
 30
0.0
 40
1.0
 50
180.0
 51
270.0
  0
ARC
  5
D1C9
  8
0
  6
CONTINUOUS
 10
452.92826814217608
 20
1037.400916169576
 30
0.0
 40
2.6003989999999999
 50
179.99998200000081
 51
269.99997800000818
  0
ARC
  5
D1CA
  8
0
  6
CONTINUOUS
 10
452.92826814217608
 20
1042.700904169576
 30
0.0
 40
2.600403
 50
90.0
 51
179.99998200000081
  0
LINE
  5
D1CB
  8
0
  6
CONTINUOUS
 10
455.72846914217621
 20
1040.116935169576
 30
0.0
 11
454.22846914217621
 21
1039.2509101695759
 31
0.0
  0
LINE
  5
D1CC
  8
0
  6
CONTINUOUS
 10
455.72846914217621
 20
1041.116935169576
 30
0.0
 11
454.22846914217621
 21
1040.2509101695759
 31
0.0
  0
LINE
  5
D1CD
  8
0
  6
CONTINUOUS
 10
455.72846914217621
 20
1046.150910169576
 30
0.0
 11
455.72846914217621
 21
1033.950910169576
 31
0.0
  0
LINE
  5
D1CE
  8
0
  6
CONTINUOUS
 10
454.22846914217621
 20
1046.150910169576
 30
0.0
 11
455.72846914217621
 21
1046.150910169576
 31
0.0
  0
LINE
  5
D1CF
  8
0
  6
CONTINUOUS
 10
454.22846914217621
 20
1033.950910169576
 30
0.0
 11
455.72846914217621
 21
1033.950910169576
 31
0.0
  0
LINE
  5
D1D0
  8
0
  6
CONTINUOUS
 10
450.3284751421761
 20
1042.700904169576
 30
0.0
 11
450.3284751421761
 21
1037.400916169576
 31
0.0
  0
LINE
  5
D1D1
  8
0
  6
CONTINUOUS
 10
454.22846914217621
 20
1046.150910169576
 30
0.0
 11
454.22846914217621
 21
1033.950910169576
 31
0.0
  0
LINE
  5
D1D2
  8
0
  6
CONTINUOUS
 10
454.22846914217621
 20
1034.8009101695759
 30
0.0
 11
452.92826814217608
 21
1034.8009101695759
 31
0.0
  0
LINE
  5
D1D3
  8
0
  6
CONTINUOUS
 10
454.22846914217621
 20
1045.3009101695759
 30
0.0
 11
452.92826814217608
 21
1045.3009101695759
 31
0.0
  0
LINE
  5
D1D4
  8
0
 10
470.22846914217621
 20
1152.1368451695751
 30
0.0
 11
271.2284691421761
 21
1152.1368451695751
 31
0.0
  0
LINE
  5
D1D5
  8
0
 10
470.22846914217621
 20
1148.8925351695759
 30
0.0
 11
271.2284691421761
 21
1148.8925351695759
 31
0.0
  0
LINE
  5
D1D6
  8
0
 10
470.22846914217621
 20
1143.0649721695761
 30
0.0
 11
271.2284691421761
 21
1143.0649721695761
 31
0.0
  0
LINE
  5
D1D7
  8
0
 10
470.22846914217621
 20
1139.9340591695759
 30
0.0
 11
271.2284691421761
 21
1139.9340591695759
 31
0.0
  0
LINE
  5
D1D8
  8
0
 10
470.22846914217621
 20
1132.0098861695751
 30
0.0
 11
271.2284691421761
 21
1132.0098861695751
 31
0.0
  0
LINE
  5
D1D9
  8
0
 10
470.22846914217621
 20
1128.9641801695759
 30
0.0
 11
271.2284691421761
 21
1128.9641801695759
 31
0.0
  0
LINE
  5
D1DA
  8
0
 10
470.22846914217621
 20
1120.974012169575
 30
0.0
 11
271.2284691421761
 21
1120.974012169575
 31
0.0
  0
LINE
  5
D1DB
  8
0
 10
470.22846914217621
 20
1117.981385169576
 30
0.0
 11
271.2284691421761
 21
1117.981385169576
 31
0.0
  0
LINE
  5
D1DC
  8
0
 10
470.22846914217621
 20
1109.9506841695761
 30
0.0
 11
271.2284691421761
 21
1109.9506841695761
 31
0.0
  0
LINE
  5
D1DD
  8
0
 10
470.22846914217621
 20
1106.9892051695749
 30
0.0
 11
271.2284691421761
 21
1106.9892051695749
 31
0.0
  0
LINE
  5
D1DE
  8
0
 10
470.22846914217621
 20
1099.9374211695761
 30
0.0
 11
375.80171214217597
 21
1099.9374211695761
 31
0.0
  0
LINE
  5
D1DF
  8
0
 10
470.22846914217621
 20
1096.9897291695761
 30
0.0
 11
382.61411614217627
 21
1096.9897291695761
 31
0.0
  0
LINE
  5
D1E0
  8
0
 10
468.14954814217612
 20
1151.4595771695761
 30
0.0
 11
468.14954814217612
 21
1149.4595771695761
 31
0.0
  0
LINE
  5
D1E1
  8
0
 10
273.30739014217647
 20
1149.4595771695761
 30
0.0
 11
468.14954814217612
 21
1149.4595771695761
 31
0.0
  0
LINE
  5
D1E2
  8
0
 10
273.30739014217647
 20
1151.4595771695761
 30
0.0
 11
468.14954814217612
 21
1151.4595771695761
 31
0.0
  0
LINE
  5
D1E3
  8
0
 10
273.30739014217647
 20
1140.4595771695761
 30
0.0
 11
468.14954814217612
 21
1140.4595771695761
 31
0.0
  0
LINE
  5
D1E4
  8
0
 10
273.30739014217647
 20
1142.4595771695761
 30
0.0
 11
468.14954814217612
 21
1142.4595771695761
 31
0.0
  0
LINE
  5
D1E5
  8
0
 10
273.30739014217647
 20
1129.4595771695761
 30
0.0
 11
468.14954814217612
 21
1129.4595771695761
 31
0.0
  0
LINE
  5
D1E6
  8
0
 10
273.30739014217647
 20
1131.4595771695761
 30
0.0
 11
468.14954814217612
 21
1131.4595771695761
 31
0.0
  0
LINE
  5
D1E7
  8
0
 10
273.30739014217647
 20
1118.4595771695761
 30
0.0
 11
468.14954814217612
 21
1118.4595771695761
 31
0.0
  0
LINE
  5
D1E8
  8
0
 10
273.30739014217647
 20
1120.4595771695761
 30
0.0
 11
468.14954814217612
 21
1120.4595771695761
 31
0.0
  0
LINE
  5
D1E9
  8
0
 10
273.30739014217647
 20
1107.4595771695761
 30
0.0
 11
468.14954814217612
 21
1107.4595771695761
 31
0.0
  0
LINE
  5
D1EA
  8
0
 10
273.30739014217647
 20
1109.4595771695761
 30
0.0
 11
468.14954814217612
 21
1109.4595771695761
 31
0.0
  0
LINE
  5
D1EB
  8
0
 10
382.0034461421763
 20
1097.4595771695761
 30
0.0
 11
468.14954814217612
 21
1097.4595771695761
 31
0.0
  0
LINE
  5
D1EC
  8
0
 10
376.27520714217621
 20
1099.4595771695761
 30
0.0
 11
468.14954814217612
 21
1099.4595771695761
 31
0.0
  0
LINE
  5
D1ED
  8
0
 10
468.14954814217612
 20
1151.4595771695761
 30
0.0
 11
470.22846914217621
 21
1152.1368451695751
 31
0.0
  0
LINE
  5
D1EE
  8
0
 10
468.14954814217612
 20
1149.4595771695761
 30
0.0
 11
470.22846914217621
 21
1148.8925351695759
 31
0.0
  0
LINE
  5
D1EF
  8
0
 10
468.14954814217612
 20
1142.4595771695761
 30
0.0
 11
470.22846914217621
 21
1143.0649721695761
 31
0.0
  0
LINE
  5
D1F0
  8
0
 10
468.14954814217612
 20
1140.4595771695761
 30
0.0
 11
470.22846914217621
 21
1139.9340591695759
 31
0.0
  0
LINE
  5
D1F1
  8
0
 10
468.14954814217612
 20
1131.4595771695761
 30
0.0
 11
470.22846914217621
 21
1132.0098861695751
 31
0.0
  0
LINE
  5
D1F2
  8
0
 10
468.14954814217612
 20
1129.4595771695761
 30
0.0
 11
470.22846914217621
 21
1128.9641801695759
 31
0.0
  0
LINE
  5
D1F3
  8
0
 10
468.14954814217612
 20
1120.4595771695761
 30
0.0
 11
470.22846914217621
 21
1120.974012169575
 31
0.0
  0
LINE
  5
D1F4
  8
0
 10
468.14954814217612
 20
1118.4595771695761
 30
0.0
 11
470.22846914217621
 21
1117.981385169576
 31
0.0
  0
LINE
  5
D1F5
  8
0
 10
468.14954814217612
 20
1109.4595771695761
 30
0.0
 11
470.22846914217621
 21
1109.9506841695761
 31
0.0
  0
LINE
  5
D1F6
  8
0
 10
468.14954814217612
 20
1107.4595771695761
 30
0.0
 11
470.22846914217621
 21
1106.9892051695749
 31
0.0
  0
LINE
  5
D1F7
  8
0
 10
468.14954814217612
 20
1099.4595771695761
 30
0.0
 11
470.22846914217621
 21
1099.9374211695761
 31
0.0
  0
LINE
  5
D1F8
  8
0
 10
468.14954814217612
 20
1097.4595771695761
 30
0.0
 11
470.22846914217621
 21
1096.9897291695761
 31
0.0
  0
LINE
  5
D1F9
  8
0
 10
468.14954814217612
 20
1142.4595771695761
 30
0.0
 11
468.14954814217612
 21
1140.4595771695761
 31
0.0
  0
LINE
  5
D1FA
  8
0
 10
468.14954814217612
 20
1131.4595771695761
 30
0.0
 11
468.14954814217612
 21
1129.4595771695761
 31
0.0
  0
LINE
  5
D1FB
  8
0
 10
468.14954814217612
 20
1120.4595771695761
 30
0.0
 11
468.14954814217612
 21
1118.4595771695761
 31
0.0
  0
LINE
  5
D1FC
  8
0
 10
468.14954814217612
 20
1109.4595771695761
 30
0.0
 11
468.14954814217612
 21
1107.4595771695761
 31
0.0
  0
LINE
  5
D1FD
  8
0
 10
468.14954814217612
 20
1099.4595771695761
 30
0.0
 11
468.14954814217612
 21
1097.4595771695761
 31
0.0
  0
ARC
  5
D1FE
  8
0
 10
382.0034461421763
 20
1094.4595771695749
 30
0.0
 40
3.0
 50
90.0
 51
190.28656100000819
  0
ARC
  5
D1FF
  8
0
 10
382.61411614217627
 20
1093.5197291695749
 30
0.0
 40
3.4700000000000002
 50
90.0
 51
186.1896490000004
  0
LINE
  5
D200
  8
0
 10
288.30739014217647
 20
1099.4595771695761
 30
0.0
 11
288.30739014217647
 21
1097.4595771695761
 31
0.0
  0
LINE
  5
D201
  8
0
 10
273.30739014217647
 20
1109.4595771695761
 30
0.0
 11
273.30739014217647
 21
1107.4595771695761
 31
0.0
  0
LINE
  5
D202
  8
0
 10
273.30739014217647
 20
1120.4595771695761
 30
0.0
 11
273.30739014217647
 21
1118.4595771695761
 31
0.0
  0
LINE
  5
D203
  8
0
 10
273.30739014217647
 20
1131.4595771695761
 30
0.0
 11
273.30739014217647
 21
1129.4595771695761
 31
0.0
  0
LINE
  5
D204
  8
0
 10
273.30739014217647
 20
1142.4595771695761
 30
0.0
 11
273.30739014217647
 21
1140.4595771695761
 31
0.0
  0
LINE
  5
D205
  8
0
 10
288.30739014217647
 20
1097.4595771695761
 30
0.0
 11
286.2284691421761
 21
1096.9897291695761
 31
0.0
  0
LINE
  5
D206
  8
0
 10
288.30739014217647
 20
1099.4595771695761
 30
0.0
 11
286.2284691421761
 21
1099.9374211695761
 31
0.0
  0
LINE
  5
D207
  8
0
 10
273.30739014217647
 20
1107.4595771695761
 30
0.0
 11
271.2284691421761
 21
1106.9892051695749
 31
0.0
  0
LINE
  5
D208
  8
0
 10
273.30739014217647
 20
1109.4595771695761
 30
0.0
 11
271.2284691421761
 21
1109.9506841695761
 31
0.0
  0
LINE
  5
D209
  8
0
 10
273.30739014217647
 20
1118.4595771695761
 30
0.0
 11
271.2284691421761
 21
1117.981385169576
 31
0.0
  0
LINE
  5
D20A
  8
0
 10
273.30739014217647
 20
1120.4595771695761
 30
0.0
 11
271.2284691421761
 21
1120.974012169575
 31
0.0
  0
LINE
  5
D20B
  8
0
 10
273.30739014217647
 20
1129.4595771695761
 30
0.0
 11
271.2284691421761
 21
1128.9641801695759
 31
0.0
  0
LINE
  5
D20C
  8
0
 10
273.30739014217647
 20
1131.4595771695761
 30
0.0
 11
271.2284691421761
 21
1132.0098861695751
 31
0.0
  0
LINE
  5
D20D
  8
0
 10
273.30739014217647
 20
1140.4595771695761
 30
0.0
 11
271.2284691421761
 21
1139.9340591695759
 31
0.0
  0
LINE
  5
D20E
  8
0
 10
273.30739014217647
 20
1142.4595771695761
 30
0.0
 11
271.2284691421761
 21
1143.0649721695761
 31
0.0
  0
LINE
  5
D20F
  8
0
 10
273.30739014217647
 20
1149.4595771695761
 30
0.0
 11
271.2284691421761
 21
1148.8925351695759
 31
0.0
  0
LINE
  5
D210
  8
0
 10
273.30739014217647
 20
1151.4595771695761
 30
0.0
 11
271.2284691421761
 21
1152.1368451695751
 31
0.0
  0
LINE
  5
D211
  8
0
 10
273.30739014217647
 20
1151.4595771695761
 30
0.0
 11
273.30739014217647
 21
1149.4595771695761
 31
0.0
  0
LINE
  5
D212
  8
0
 10
271.2284691421761
 20
1148.8925351695759
 30
0.0
 11
271.2284691421761
 21
1152.1368451695751
 31
0.0
  0
LINE
  5
D213
  8
0
 10
271.2284691421761
 20
1139.9340591695759
 30
0.0
 11
271.2284691421761
 21
1143.0649721695761
 31
0.0
  0
LINE
  5
D214
  8
0
 10
271.2284691421761
 20
1128.9641801695759
 30
0.0
 11
271.2284691421761
 21
1132.0098861695751
 31
0.0
  0
LINE
  5
D215
  8
0
 10
271.2284691421761
 20
1117.981385169576
 30
0.0
 11
271.2284691421761
 21
1120.974012169575
 31
0.0
  0
LINE
  5
D216
  8
0
 10
271.2284691421761
 20
1106.9892051695749
 30
0.0
 11
271.2284691421761
 21
1109.9506841695761
 31
0.0
  0
LINE
  5
D217
  8
0
 10
286.2284691421761
 20
1096.9897291695761
 30
0.0
 11
286.2284691421761
 21
1099.9374211695761
 31
0.0
  0
LINE
  5
D218
  8
0
 10
286.2284691421761
 20
1099.9374211695761
 30
0.0
 11
360.65522614217639
 21
1099.9374211695761
 31
0.0
  0
LINE
  5
D219
  8
0
 10
286.2284691421761
 20
1096.9897291695761
 30
0.0
 11
353.84282214217609
 21
1096.9897291695761
 31
0.0
  0
LINE
  5
D21A
  8
0
 10
354.45349214217617
 20
1097.4595771695761
 30
0.0
 11
288.30739014217647
 21
1097.4595771695761
 31
0.0
  0
LINE
  5
D21B
  8
0
 10
360.1817311421762
 20
1099.4595771695761
 30
0.0
 11
288.30739014217647
 21
1099.4595771695761
 31
0.0
  0
ARC
  5
D21C
  8
0
 10
354.45349214217617
 20
1094.4595771695749
 30
0.0
 40
3.0
 50
349.71343899999181
 51
90.0
  0
ARC
  5
D21D
  8
0
 10
353.84282214217609
 20
1093.5197291695749
 30
0.0
 40
3.4700000000000002
 50
353.81035099999951
 51
90.0
  0
LINE
  5
D21E
  8
0
 10
470.22846914217621
 20
1051.9092681695761
 30
0.0
 11
271.2284691421761
 21
1051.9092681695761
 31
0.0
  0
LINE
  5
D21F
  8
0
 10
470.22846914217621
 20
1054.954974169576
 30
0.0
 11
271.2284691421761
 21
1054.954974169576
 31
0.0
  0
LINE
  5
D220
  8
0
 10
470.22846914217621
 20
1062.945142169576
 30
0.0
 11
271.2284691421761
 21
1062.945142169576
 31
0.0
  0
LINE
  5
D221
  8
0
 10
470.22846914217621
 20
1065.9377691695761
 30
0.0
 11
271.2284691421761
 21
1065.9377691695761
 31
0.0
  0
LINE
  5
D222
  8
0
 10
470.22846914217621
 20
1073.9684701695751
 30
0.0
 11
271.2284691421761
 21
1073.9684701695751
 31
0.0
  0
LINE
  5
D223
  8
0
 10
470.22846914217621
 20
1076.929949169576
 30
0.0
 11
271.2284691421761
 21
1076.929949169576
 31
0.0
  0
LINE
  5
D224
  8
0
 10
273.30739014217647
 20
1054.4595771695761
 30
0.0
 11
468.14954814217612
 21
1054.4595771695761
 31
0.0
  0
LINE
  5
D225
  8
0
 10
273.30739014217647
 20
1052.4595771695749
 30
0.0
 11
468.14954814217612
 21
1052.4595771695749
 31
0.0
  0
LINE
  5
D226
  8
0
 10
273.30739014217647
 20
1065.4595771695761
 30
0.0
 11
468.14954814217612
 21
1065.4595771695761
 31
0.0
  0
LINE
  5
D227
  8
0
 10
273.30739014217647
 20
1063.4595771695761
 30
0.0
 11
468.14954814217612
 21
1063.4595771695761
 31
0.0
  0
LINE
  5
D228
  8
0
 10
273.30739014217647
 20
1076.4595771695749
 30
0.0
 11
468.14954814217612
 21
1076.4595771695749
 31
0.0
  0
LINE
  5
D229
  8
0
 10
273.30739014217647
 20
1074.4595771695761
 30
0.0
 11
468.14954814217612
 21
1074.4595771695761
 31
0.0
  0
LINE
  5
D22A
  8
0
 10
286.2284691421761
 20
1083.981733169576
 30
0.0
 11
360.65522614217639
 21
1083.981733169576
 31
0.0
  0
LINE
  5
D22B
  8
0
 10
286.2284691421761
 20
1086.929425169576
 30
0.0
 11
353.84282214217609
 21
1086.929425169576
 31
0.0
  0
LINE
  5
D22C
  8
0
 10
354.45349214217617
 20
1086.4595771695761
 30
0.0
 11
288.30739014217647
 21
1086.4595771695761
 31
0.0
  0
LINE
  5
D22D
  8
0
 10
360.1817311421762
 20
1084.4595771695749
 30
0.0
 11
288.30739014217647
 21
1084.4595771695749
 31
0.0
  0
LINE
  5
D22E
  8
0
 10
286.2284691421761
 20
1086.929425169576
 30
0.0
 11
286.2284691421761
 21
1083.981733169576
 31
0.0
  0
LINE
  5
D22F
  8
0
 10
271.2284691421761
 20
1076.929949169576
 30
0.0
 11
271.2284691421761
 21
1073.9684701695751
 31
0.0
  0
LINE
  5
D230
  8
0
 10
271.2284691421761
 20
1065.9377691695761
 30
0.0
 11
271.2284691421761
 21
1062.945142169576
 31
0.0
  0
LINE
  5
D231
  8
0
 10
271.2284691421761
 20
1054.954974169576
 30
0.0
 11
271.2284691421761
 21
1051.9092681695761
 31
0.0
  0
LINE
  5
D232
  8
0
 10
273.30739014217647
 20
1052.4595771695749
 30
0.0
 11
271.2284691421761
 21
1051.9092681695761
 31
0.0
  0
LINE
  5
D233
  8
0
 10
273.30739014217647
 20
1054.4595771695761
 30
0.0
 11
271.2284691421761
 21
1054.954974169576
 31
0.0
  0
LINE
  5
D234
  8
0
 10
273.30739014217647
 20
1063.4595771695761
 30
0.0
 11
271.2284691421761
 21
1062.945142169576
 31
0.0
  0
LINE
  5
D235
  8
0
 10
273.30739014217647
 20
1065.4595771695761
 30
0.0
 11
271.2284691421761
 21
1065.9377691695761
 31
0.0
  0
LINE
  5
D236
  8
0
 10
273.30739014217647
 20
1074.4595771695761
 30
0.0
 11
271.2284691421761
 21
1073.9684701695751
 31
0.0
  0
LINE
  5
D237
  8
0
 10
273.30739014217647
 20
1076.4595771695749
 30
0.0
 11
271.2284691421761
 21
1076.929949169576
 31
0.0
  0
LINE
  5
D238
  8
0
 10
288.30739014217647
 20
1084.4595771695749
 30
0.0
 11
286.2284691421761
 21
1083.981733169576
 31
0.0
  0
LINE
  5
D239
  8
0
 10
288.30739014217647
 20
1086.4595771695761
 30
0.0
 11
286.2284691421761
 21
1086.929425169576
 31
0.0
  0
LINE
  5
D23A
  8
0
 10
273.30739014217647
 20
1052.4595771695749
 30
0.0
 11
273.30739014217647
 21
1054.4595771695761
 31
0.0
  0
LINE
  5
D23B
  8
0
 10
273.30739014217647
 20
1063.4595771695761
 30
0.0
 11
273.30739014217647
 21
1065.4595771695761
 31
0.0
  0
LINE
  5
D23C
  8
0
 10
273.30739014217647
 20
1074.4595771695761
 30
0.0
 11
273.30739014217647
 21
1076.4595771695749
 31
0.0
  0
LINE
  5
D23D
  8
0
 10
288.30739014217647
 20
1084.4595771695749
 30
0.0
 11
288.30739014217647
 21
1086.4595771695761
 31
0.0
  0
ARC
  5
D23E
  8
0
 10
354.45349214217617
 20
1089.4595771695761
 30
0.0
 40
3.0
 50
270.0
 51
10.28656100000822
  0
ARC
  5
D23F
  8
0
 10
353.84282214217609
 20
1090.399425169576
 30
0.0
 40
3.4700000000000002
 50
270.0
 51
6.1896490000005366
  0
LINE
  5
D240
  8
0
 10
470.22846914217621
 20
1083.981733169576
 30
0.0
 11
375.80171214217597
 21
1083.981733169576
 31
0.0
  0
LINE
  5
D241
  8
0
 10
470.22846914217621
 20
1086.929425169576
 30
0.0
 11
382.61411614217627
 21
1086.929425169576
 31
0.0
  0
LINE
  5
D242
  8
0
 10
382.0034461421763
 20
1086.4595771695761
 30
0.0
 11
468.14954814217612
 21
1086.4595771695761
 31
0.0
  0
LINE
  5
D243
  8
0
 10
376.27520714217621
 20
1084.4595771695749
 30
0.0
 11
468.14954814217612
 21
1084.4595771695749
 31
0.0
  0
ARC
  5
D244
  8
0
 10
382.0034461421763
 20
1089.4595771695761
 30
0.0
 40
3.0
 50
169.71343899999181
 51
270.0
  0
ARC
  5
D245
  8
0
 10
382.61411614217627
 20
1090.399425169576
 30
0.0
 40
3.4700000000000002
 50
173.8103509999994
 51
270.0
  0
LINE
  5
D246
  8
0
 10
468.14954814217612
 20
1084.4595771695749
 30
0.0
 11
468.14954814217612
 21
1086.4595771695761
 31
0.0
  0
LINE
  5
D247
  8
0
 10
468.14954814217612
 20
1074.4595771695761
 30
0.0
 11
468.14954814217612
 21
1076.4595771695749
 31
0.0
  0
LINE
  5
D248
  8
0
 10
468.14954814217612
 20
1063.4595771695761
 30
0.0
 11
468.14954814217612
 21
1065.4595771695761
 31
0.0
  0
LINE
  5
D249
  8
0
 10
468.14954814217612
 20
1052.4595771695749
 30
0.0
 11
468.14954814217612
 21
1054.4595771695761
 31
0.0
  0
LINE
  5
D24A
  8
0
 10
468.14954814217612
 20
1086.4595771695761
 30
0.0
 11
470.22846914217621
 21
1086.929425169576
 31
0.0
  0
LINE
  5
D24B
  8
0
 10
468.14954814217612
 20
1084.4595771695749
 30
0.0
 11
470.22846914217621
 21
1083.981733169576
 31
0.0
  0
LINE
  5
D24C
  8
0
 10
468.14954814217612
 20
1076.4595771695749
 30
0.0
 11
470.22846914217621
 21
1076.929949169576
 31
0.0
  0
LINE
  5
D24D
  8
0
 10
468.14954814217612
 20
1074.4595771695761
 30
0.0
 11
470.22846914217621
 21
1073.9684701695751
 31
0.0
  0
LINE
  5
D24E
  8
0
 10
468.14954814217612
 20
1065.4595771695761
 30
0.0
 11
470.22846914217621
 21
1065.9377691695761
 31
0.0
  0
LINE
  5
D24F
  8
0
 10
468.14954814217612
 20
1063.4595771695761
 30
0.0
 11
470.22846914217621
 21
1062.945142169576
 31
0.0
  0
LINE
  5
D250
  8
0
 10
468.14954814217612
 20
1054.4595771695761
 30
0.0
 11
470.22846914217621
 21
1054.954974169576
 31
0.0
  0
LINE
  5
D251
  8
0
 10
468.14954814217612
 20
1052.4595771695749
 30
0.0
 11
470.22846914217621
 21
1051.9092681695761
 31
0.0
  0
LINE
  5
D252
  8
0
 10
470.22846914217621
 20
1054.954974169576
 30
0.0
 11
470.22846914217621
 21
1051.9092681695761
 31
0.0
  0
LINE
  5
D253
  8
0
 10
470.22846914217621
 20
1065.9377691695761
 30
0.0
 11
470.22846914217621
 21
1062.945142169576
 31
0.0
  0
LINE
  5
D254
  8
0
 10
470.22846914217621
 20
1076.929949169576
 30
0.0
 11
470.22846914217621
 21
1073.9684701695751
 31
0.0
  0
LINE
  5
D255
  8
0
 10
470.22846914217621
 20
1086.929425169576
 30
0.0
 11
470.22846914217621
 21
1083.981733169576
 31
0.0
  0
LINE
  5
D256
  8
0
 10
403.14954814217577
 20
1043.4595771695761
 30
0.0
 11
405.2284691421761
 21
1043.9549741695751
 31
0.0
  0
LINE
  5
D257
  8
0
 10
405.2284691421761
 20
1043.9549741695751
 30
0.0
 11
271.2284691421761
 21
1043.9549741695751
 31
0.0
  0
LINE
  5
D258
  8
0
 10
273.30739014217647
 20
1043.4595771695761
 30
0.0
 11
403.14954814217577
 21
1043.4595771695761
 31
0.0
  0
LINE
  5
D259
  8
0
 10
403.14954814217577
 20
1041.4595771695761
 30
0.0
 11
403.14954814217577
 21
1043.4595771695761
 31
0.0
  0
LINE
  5
D25A
  8
0
 10
405.2284691421761
 20
1040.9092681695761
 30
0.0
 11
271.2284691421761
 21
1040.9092681695761
 31
0.0
  0
LINE
  5
D25B
  8
0
 10
273.30739014217647
 20
1041.4595771695761
 30
0.0
 11
403.14954814217577
 21
1041.4595771695761
 31
0.0
  0
LINE
  5
D25C
  8
0
 10
403.14954814217577
 20
1041.4595771695761
 30
0.0
 11
405.2284691421761
 21
1040.9092681695761
 31
0.0
  0
LINE
  5
D25D
  8
0
 10
405.2284691421761
 20
1034.954974169576
 30
0.0
 11
271.2284691421761
 21
1034.954974169576
 31
0.0
  0
LINE
  5
D25E
  8
0
 10
273.30739014217647
 20
1034.4595771695761
 30
0.0
 11
403.14954814217577
 21
1034.4595771695761
 31
0.0
  0
LINE
  5
D25F
  8
0
 10
405.2284691421761
 20
1031.9092681695761
 30
0.0
 11
271.26202614217601
 21
1031.9092681695761
 31
0.0
  0
LINE
  5
D260
  8
0
 10
273.30739014217647
 20
1032.4595771695761
 30
0.0
 11
403.14954814217577
 21
1032.4595771695761
 31
0.0
  0
LINE
  5
D261
  8
0
 10
403.14954814217577
 20
1032.4595771695761
 30
0.0
 11
405.2284691421761
 21
1031.9092681695761
 31
0.0
  0
LINE
  5
D262
  8
0
 10
405.2284691421761
 20
1034.954974169576
 30
0.0
 11
405.2284691421761
 21
1031.9092681695761
 31
0.0
  0
LINE
  5
D263
  8
0
 10
403.14954814217577
 20
1032.4595771695761
 30
0.0
 11
403.14954814217577
 21
1034.4595771695761
 31
0.0
  0
LINE
  5
D264
  8
0
 10
403.14954814217577
 20
1034.4595771695761
 30
0.0
 11
405.2284691421761
 21
1034.954974169576
 31
0.0
  0
LINE
  5
D265
  8
0
 10
405.2284691421761
 20
1031.9092681695761
 30
0.0
 11
420.22846914217621
 21
1031.9092681695761
 31
0.0
  0
LINE
  5
D266
  8
0
 10
420.22846914217621
 20
1031.9092681695761
 30
0.0
 11
436.22846914217621
 21
1027.5673431695759
 31
0.0
  0
LINE
  5
D267
  8
0
 10
271.2284691421761
 20
1043.9549741695751
 30
0.0
 11
271.2284691421761
 21
1040.9092681695761
 31
0.0
  0
LINE
  5
D268
  8
0
 10
271.2284691421761
 20
1034.954974169576
 30
0.0
 11
271.2284691421761
 21
1031.9092681695761
 31
0.0
  0
LINE
  5
D269
  8
0
 10
273.30739014217647
 20
1041.4595771695761
 30
0.0
 11
273.30739014217647
 21
1043.4595771695761
 31
0.0
  0
LINE
  5
D26A
  8
0
 10
273.30739014217647
 20
1043.4595771695761
 30
0.0
 11
271.2284691421761
 21
1043.9549741695751
 31
0.0
  0
LINE
  5
D26B
  8
0
 10
273.30739014217647
 20
1041.4595771695761
 30
0.0
 11
271.2284691421761
 21
1040.9092681695761
 31
0.0
  0
LINE
  5
D26C
  8
0
 10
273.30739014217647
 20
1034.4595771695761
 30
0.0
 11
271.2284691421761
 21
1034.954974169576
 31
0.0
  0
LINE
  5
D26D
  8
0
 10
273.30739014217647
 20
1032.4595771695761
 30
0.0
 11
273.30739014217647
 21
1034.4595771695761
 31
0.0
  0
LINE
  5
D26E
  8
0
 10
273.30739014217647
 20
1032.4595771695761
 30
0.0
 11
271.2284691421761
 21
1031.9092681695761
 31
0.0
  0
LINE
  5
D26F
  8
0
 10
163.128499142176
 20
1191.9595771695761
 30
0.0
 11
240.72846914217621
 21
1191.9595771695761
 31
0.0
  0
LINE
  5
D270
  8
0
 10
163.128499142176
 20
1197.9595771695761
 30
0.0
 11
240.72846914217621
 21
1197.9595771695761
 31
0.0
  0
LINE
  5
D271
  8
0
 10
262.72846914217621
 20
1188.9595771695761
 30
0.0
 11
159.22846914217621
 21
1188.9595771695761
 31
0.0
  0
LINE
  5
D272
  8
0
 10
251.72846914217621
 20
1191.9595771695761
 30
0.0
 11
265.2284691421761
 21
1191.9595771695761
 31
0.0
  0
ARC
  5
D273
  8
0
 10
909.51544914217607
 20
1091.9595771695761
 30
0.0
 40
764.28698999999995
 50
172.82194999999871
 51
187.17804000000049
  0
LINE
  5
D274
  8
0
 10
155.878499142176
 20
998.35953716957556
 30
0.0
 11
155.878499142176
 21
1185.649517169576
 31
0.0
  0
LINE
  5
D275
  8
0
 10
150.22846914217621
 20
1154.399517169576
 30
0.0
 11
150.22846914217621
 21
1028.8195571695751
 31
0.0
  0
LINE
  5
D276
  8
0
 10
148.22846914217621
 20
1154.399517169576
 30
0.0
 11
148.22846914217621
 21
1029.509497169576
 31
0.0
  0
LINE
  5
D277
  8
0
 10
262.72846914217621
 20
994.95957716957582
 30
0.0
 11
159.22846914217621
 21
994.95957716957582
 31
0.0
  0
LINE
  5
D278
  8
0
 10
150.37843914217609
 20
1026.1295571695759
 30
0.0
 11
155.2884691421761
 21
998.25955716957594
 31
0.0
  0
ARC
  5
D279
  8
0
 10
163.1302091421764
 20
997.95761716957566
 30
0.0
 40
5.9980479999999998
 50
207.05350999999459
 51
269.98324000000241
  0
ARC
  5
D27A
  8
0
 10
163.1309391421762
 20
997.95566716957569
 30
0.0
 40
11.996128000000001
 50
187.16444000000149
 51
269.98822000000808
  0
ARC
  5
D27B
  8
0
 10
149.38886914217591
 20
1025.9626271695761
 30
0.0
 40
1.0035289999999999
 50
9.5734909999996063
 51
62.10181499998955
  0
ARC
  5
D27C
  8
0
 10
151.2270091421762
 20
1029.5175571695761
 30
0.0
 40
2.9985330000000001
 50
180.1533100000014
 51
242.84512999999231
  0
ARC
  5
D27D
  8
0
 10
159.2278591421761
 20
998.96091716957585
 30
0.0
 40
4.0014059999999976
 50
190.09553000000011
 51
270.00785000000678
  0
LINE
  5
D27E
  8
0
 10
150.37843914217609
 20
1157.7795171695759
 30
0.0
 11
155.28840914217631
 21
1185.649517169576
 31
0.0
  0
ARC
  5
D27F
  8
0
 10
159.22798914217651
 20
1184.9601871695761
 30
0.0
 40
3.9993959999999982
 50
89.993275000011238
 51
170.07406000000469
  0
ARC
  5
D280
  8
0
 10
149.38911914217601
 20
1157.9587171695759
 30
0.0
 40
1.0054319999999961
 50
297.82706000000439
 51
349.7352699999982
  0
ARC
  5
D281
  8
0
 10
151.225669142176
 20
1154.402327169576
 30
0.0
 40
2.997211999999998
 50
117.13965999999481
 51
180.05331000000339
  0
ARC
  5
D282
  8
0
 10
163.1293491421763
 20
1185.9628671695759
 30
0.0
 40
5.9966319999999991
 50
90.008472000013285
 51
152.954760000004
  0
ARC
  5
D283
  8
0
 10
163.1299591421764
 20
1185.9645171695761
 30
0.0
 40
11.995034
 50
90.007167000000024
 51
172.84015999999829
  0
LINE
  5
D284
  8
0
 10
142.83845914217611
 20
1086.9595771695761
 30
0.0
 11
142.83845914217611
 21
1096.9595771695761
 31
0.0
  0
LINE
  5
D285
  8
0
 10
145.24848914217611
 20
1096.9595771695761
 30
0.0
 11
142.83845914217611
 21
1096.9595771695761
 31
0.0
  0
LINE
  5
D286
  8
0
 10
145.24848914217611
 20
1086.9595771695761
 30
0.0
 11
142.83845914217611
 21
1086.9595771695761
 31
0.0
  0
LINE
  5
D287
  8
0
 10
265.2284691421761
 20
1197.9595771695761
 30
0.0
 11
265.2284691421761
 21
1191.9595771695761
 31
0.0
  0
LINE
  5
D288
  8
0
 10
240.72846914217621
 20
1198.9595771695761
 30
0.0
 11
240.72846914217621
 21
1188.9595771695761
 31
0.0
  0
LINE
  5
D289
  8
0
 10
251.72846914217621
 20
1198.9595771695761
 30
0.0
 11
251.72846914217621
 21
1188.9595771695761
 31
0.0
  0
LINE
  5
D28A
  8
0
 10
251.72846914217621
 20
1197.9595771695761
 30
0.0
 11
265.2284691421761
 21
1197.9595771695761
 31
0.0
  0
LINE
  5
D28B
  8
0
 10
240.72846914217621
 20
1198.9595771695761
 30
0.0
 11
251.72846914217621
 21
1198.9595771695761
 31
0.0
  0
LINE
  5
D28C
  8
0
 10
163.1284951421764
 20
991.95953616957581
 30
0.0
 11
240.72846514217619
 21
991.95953316957582
 31
0.0
  0
LINE
  5
D28D
  8
0
 10
163.1284951421764
 20
985.95953616957581
 30
0.0
 11
240.72846514217619
 21
985.95953316957571
 31
0.0
  0
LINE
  5
D28E
  8
0
 10
240.72846514217619
 20
984.95953316957571
 30
0.0
 11
240.72846514217619
 21
994.95953316957571
 31
0.0
  0
LINE
  5
D28F
  8
0
 10
240.72846514217619
 20
984.95953316957571
 30
0.0
 11
251.72846514217611
 21
984.95953316957571
 31
0.0
  0
LINE
  5
D290
  8
0
 10
251.72846514217611
 20
984.95953316957571
 30
0.0
 11
251.72846514217611
 21
994.95953316957571
 31
0.0
  0
LINE
  5
D291
  8
0
 10
251.72846514217611
 20
985.95953316957571
 30
0.0
 11
265.22846514217622
 21
985.95953316957571
 31
0.0
  0
LINE
  5
D292
  8
0
 10
265.22846514217622
 20
985.95953316957571
 30
0.0
 11
265.22846514217622
 21
991.95953316957582
 31
0.0
  0
LINE
  5
D293
  8
0
 10
251.72846514217611
 20
991.95953316957582
 30
0.0
 11
265.22846514217622
 21
991.95953316957582
 31
0.0
  0
LINE
  5
D294
  8
0
 10
262.72846914217621
 20
1099.6033481695761
 30
0.0
 11
274.22846914217621
 21
1099.6033481695761
 31
0.0
  0
LINE
  5
D295
  8
0
 10
262.72846914217621
 20
1099.9374261695759
 30
0.0
 11
274.9084691421761
 21
1099.9374261695759
 31
0.0
  0
LINE
  5
D296
  8
0
 10
276.2284691421761
 20
1097.6033481695761
 30
0.0
 11
276.2284691421761
 21
1091.959581169576
 31
0.0
  0
LINE
  5
D297
  8
0
 10
277.90846914217599
 20
1102.9374261695759
 30
0.0
 11
277.90846914217599
 21
1091.959581169576
 31
0.0
  0
ARC
  5
D298
  8
0
 10
274.9084691421761
 20
1102.9374261695759
 30
0.0
 40
3.0
 50
270.0
 51
0.0
  0
LINE
  5
D299
  8
0
 10
262.72846914217621
 20
1084.3158131695759
 30
0.0
 11
274.22846914217621
 21
1084.3158131695759
 31
0.0
  0
LINE
  5
D29A
  8
0
 10
262.72846914217621
 20
1083.9817360599261
 30
0.0
 11
274.9084691421761
 21
1083.981735169576
 31
0.0
  0
LINE
  5
D29B
  8
0
 10
276.2284691421761
 20
1086.3158131695759
 30
0.0
 11
276.2284691421761
 21
1091.959581169576
 31
0.0
  0
LINE
  5
D29C
  8
0
 10
277.90846914217599
 20
1080.981735169576
 30
0.0
 11
277.90846914217599
 21
1091.959581169576
 31
0.0
  0
ARC
  5
D29D
  8
0
 10
274.9084691421761
 20
1080.981735169576
 30
0.0
 40
3.0
 50
359.99999799999722
 51
89.999998000010223
  0
TEXT
  5
D584
  8
0
  6
CONTINUOUS
 62
     0
 10
1063.565892659115
 20
1059.728794704957
 30
0.0
 40
20.0
  1
VX22-240EB~VX22-300EB
  0
ENDSEC
  0
EOF
