  0
SECTION
  2
HEADER
  9
$ACADVER
  1
AC1009
  9
$INSBASE
 10
0.0
 20
0.0
 30
0.0
  9
$EXTMIN
 10
173.02858448775939
 20
426.97254941552501
 30
-0.000000000000013
  9
$EXTMAX
 10
1418.975010342624
 20
1239.1146797464551
 30
0.0000000000000023
  9
$LIMMIN
 10
0.0000005999945643
 20
-0.0000005963913736
  9
$LIMMAX
 10
1707.000000599995
 20
1109.9999994036091
  9
$ORTHOMODE
 70
     0
  9
$REGENMODE
 70
     1
  9
$FILLMODE
 70
     1
  9
$QTEXTMODE
 70
     0
  9
$MIRRTEXT
 70
     0
  9
$DRAGMODE
 70
     2
  9
$LTSCALE
 40
1.0
  9
$OSMODE
 70
   551
  9
$ATTMODE
 70
     1
  9
$TEXTSIZE
 40
12.5
  9
$TRACEWID
 40
1.0
  9
$TEXTSTYLE
  7
USER1
  9
$CLAYER
  8
0
  9
$CELTYPE
  6
BYLAYER
  9
$CECOLOR
 62
   256
  9
$DIMSCALE
 40
1.0
  9
$DIMASZ
 40
2.0
  9
$DIMEXO
 40
1.0
  9
$DIMDLI
 40
8.0
  9
$DIMRND
 40
0.0
  9
$DIMDLE
 40
0.0
  9
$DIMEXE
 40
1.0
  9
$DIMTP
 40
-0.025
  9
$DIMTM
 40
0.043
  9
$DIMTXT
 40
2.5
  9
$DIMCEN
 40
0.0
  9
$DIMTSZ
 40
0.0
  9
$DIMTOL
 70
     0
  9
$DIMLIM
 70
     0
  9
$DIMTIH
 70
     0
  9
$DIMTOH
 70
     0
  9
$DIMSE1
 70
     0
  9
$DIMSE2
 70
     0
  9
$DIMTAD
 70
     3
  9
$DIMZIN
 70
     8
  9
$DIMBLK
  1

  9
$DIMASO
 70
     1
  9
$DIMSHO
 70
     1
  9
$DIMPOST
  1

  9
$DIMAPOST
  1
"
  9
$DIMALT
 70
     0
  9
$DIMALTD
 70
     2
  9
$DIMALTF
 40
0.0393701
  9
$DIMLFAC
 40
1.0
  9
$DIMTOFL
 70
     1
  9
$DIMTVP
 40
0.0
  9
$DIMTIX
 70
     0
  9
$DIMSOXD
 70
     0
  9
$DIMSAH
 70
     0
  9
$DIMBLK1
  1

  9
$DIMBLK2
  1

  9
$DIMSTYLE
  2
AM_JIS
  9
$DIMCLRD
 70
     2
  9
$DIMCLRE
 70
     2
  9
$DIMCLRT
 70
     4
  9
$DIMTFAC
 40
0.71
  9
$DIMGAP
 40
1.5
  9
$LUNITS
 70
     2
  9
$LUPREC
 70
     2
  9
$SKETCHINC
 40
1.0
  9
$FILLETRAD
 40
0.0
  9
$AUNITS
 70
     0
  9
$AUPREC
 70
     0
  9
$MENU
  1
.
  9
$ELEVATION
 40
0.0
  9
$PELEVATION
 40
0.0
  9
$THICKNESS
 40
0.0
  9
$LIMCHECK
 70
     0
  9
$BLIPMODE
 70
     0
  9
$CHAMFERA
 40
3.0
  9
$CHAMFERB
 40
3.0
  9
$SKPOLY
 70
     0
  9
$TDCREATE
 40
2456829.3841110538
  9
$TDUPDATE
 40
2458540.7287324192
  9
$TDINDWG
 40
0.5827945949
  9
$TDUSRTIMER
 40
0.5827942245
  9
$USRTIMER
 70
     1
  9
$ANGBASE
 50
0.0
  9
$ANGDIR
 70
     0
  9
$PDMODE
 70
     0
  9
$PDSIZE
 40
0.0
  9
$PLINEWID
 40
0.0
  9
$COORDS
 70
     1
  9
$SPLFRAME
 70
     0
  9
$SPLINETYPE
 70
     6
  9
$SPLINESEGS
 70
     8
  9
$ATTDIA
 70
     1
  9
$ATTREQ
 70
     1
  9
$HANDLING
 70
     1
  9
$HANDSEED
  5
C84B
  9
$SURFTAB1
 70
     6
  9
$SURFTAB2
 70
     6
  9
$SURFTYPE
 70
     6
  9
$SURFU
 70
     6
  9
$SURFV
 70
     6
  9
$UCSNAME
  2

  9
$UCSORG
 10
0.0
 20
0.0
 30
0.0
  9
$UCSXDIR
 10
1.0
 20
0.0
 30
0.0
  9
$UCSYDIR
 10
0.0
 20
1.0
 30
0.0
  9
$PUCSNAME
  2

  9
$PUCSORG
 10
0.0
 20
0.0
 30
0.0
  9
$PUCSXDIR
 10
1.0
 20
0.0
 30
0.0
  9
$PUCSYDIR
 10
0.0
 20
1.0
 30
0.0
  9
$USERI1
 70
     0
  9
$USERI2
 70
     0
  9
$USERI3
 70
     0
  9
$USERI4
 70
     0
  9
$USERI5
 70
     0
  9
$USERR1
 40
0.0
  9
$USERR2
 40
0.0
  9
$USERR3
 40
0.0
  9
$USERR4
 40
0.0
  9
$USERR5
 40
0.0
  9
$WORLDVIEW
 70
     1
  9
$SHADEDGE
 70
     3
  9
$SHADEDIF
 70
    70
  9
$TILEMODE
 70
     1
  9
$MAXACTVP
 70
    64
  9
$PLIMCHECK
 70
     0
  9
$PEXTMIN
 10
1.0000000000000000E+020
 20
1.0000000000000000E+020
 30
1.0000000000000000E+020
  9
$PEXTMAX
 10
-1.0000000000000000E+020
 20
-1.0000000000000000E+020
 30
-1.0000000000000000E+020
  9
$PLIMMIN
 10
0.0
 20
0.0
  9
$PLIMMAX
 10
420.0
 20
297.0
  9
$UNITMODE
 70
     0
  9
$VISRETAIN
 70
     1
  9
$PLINEGEN
 70
     0
  9
$PSLTSCALE
 70
     1
  0
ENDSEC
  0
SECTION
  2
TABLES
  0
TABLE
  2
VPORT
 70
     1
  0
VPORT
  2
*ACTIVE
 70
     0
 10
0.0
 20
0.0
 11
1.0
 21
1.0
 12
796.00179741519173
 22
833.04361458098992
 13
0.0
 23
0.0
 14
15.0
 24
15.0
 15
60.0
 25
60.0
 16
0.0
 26
0.0
 36
1.0
 17
0.0
 27
0.0
 37
0.0
 40
817.71747676340783
 41
1.7571592210767459
 42
50.0
 43
0.0
 44
0.0
 50
0.0
 51
0.0
 71
    16
 72
  1000
 73
     1
 74
     3
 75
     0
 76
     0
 77
     0
 78
     0
  0
ENDTAB
  0
TABLE
  2
LTYPE
 70
    24
  0
LTYPE
  2
CONTINUOUS
 70
     0
  3
Solid line
 72
    65
 73
     0
 40
0.0
  0
LTYPE
  2
CENTER
 70
     0
  3
Center ____ _ ____ _ ____ _ ____ _ ____ _ ____
 72
    65
 73
     4
 40
50.799999999999997
 49
31.75
 49
-6.3499999999999979
 49
6.3499999999999979
 49
-6.3499999999999979
  0
LTYPE
  2
AM_ISO02W050
 70
     0
  3
__ __ __ __ __ __ __ __ __ __ __ __ __ __ __
 72
    65
 73
     2
 40
7.5
 49
6.0
 49
-1.5
  0
LTYPE
  2
AM_ISO08W050
 70
     0
  3
____ . ____ . ____ . ____ . ____ . ____ . ____
 72
    65
 73
     4
 40
18.0
 49
12.0
 49
-1.5
 49
3.0
 49
-1.5
  0
LTYPE
  2
AM_ISO09W050
 70
     0
  3
_____ . . _____ . . _____ . . ____ .. ____
 72
    65
 73
     6
 40
22.5
 49
12.0
 49
-1.5
 49
3.0
 49
-1.5
 49
3.0
 49
-1.5
  0
LTYPE
  2
AMCONSTR
 70
     0
  3
_______________________
 72
    65
 73
     2
 40
9999.0
 49
9999.0
 49
0.0
  0
LTYPE
  2
AM_ISO08W050X2
 70
     0
  3
__ . __ . __ . __ . __ . __
 72
    65
 73
     4
 40
9.0
 49
6.0
 49
-0.75
 49
1.5
 49
-0.75
  0
LTYPE
  2
AM_ISO02W050X2
 70
     0
  3
 _ _ _ _ _ _ _ _ _ _ _ _
 72
    65
 73
     2
 40
3.75
 49
3.0
 49
-0.75
  0
LTYPE
  2
AMZIGZAG
 70
     0
  3
/\/-/\/-/\/-/\/-/\/-/\/
 72
    65
 73
     2
 40
11.0001
 49
0.0001
 49
-11.0
  0
LTYPE
  2
ACANSTGBM
 70
     0
  3
__ . . __ . .
 72
    65
 73
     6
 40
9.0
 49
4.0
 49
-1.0
 49
1.0
 49
-1.0
 49
1.0
 49
-1.0
  0
LTYPE
  2
ACANSTGLM
 70
     0
  3
_ _ _ _ _
 72
    65
 73
     2
 40
3.0
 49
2.0
 49
-1.0
  0
LTYPE
  2
ACISOWELD
 70
     0
  3
_ _ _ _ _
 72
    65
 73
     2
 40
2.0
 49
2.0
 49
-1.0
  0
LTYPE
  2
ACISOTGB
 70
     0
  3
__ . . __ . .
 72
    65
 73
     6
 40
9.0
 49
4.0
 49
-1.0
 49
1.0
 49
-1.0
 49
1.0
 49
-1.0
  0
LTYPE
  2
ACISOTGL
 70
     0
  3
_ _ _ _ _
 72
    65
 73
     2
 40
3.0
 49
2.0
 49
-1.0
  0
LTYPE
  2
ACJISTGB
 70
     0
  3
__ . . __ . .
 72
    65
 73
     6
 40
9.0
 49
4.0
 49
-1.0
 49
1.0
 49
-1.0
 49
1.0
 49
-1.0
  0
LTYPE
  2
ACJISTGL
 70
     0
  3
_ _ _ _ _
 72
    65
 73
     2
 40
3.0
 49
2.0
 49
-1.0
  0
LTYPE
  2
HIDDEN
 70
     0
  3
Hidden __ __ __ __ __ __ __ __ __ __ __ __ __ _
 72
    65
 73
     2
 40
9.5249999999999968
 49
6.349999999999997
 49
-3.174999999999998
  0
LTYPE
  2
PHANTOM2
 70
     0
  3
Phantom (.5x) ___ _ _ ___ _ _ ___ _ _ ___ _ _
 72
    65
 73
     6
 40
31.75
 49
15.875
 49
-3.174999999999998
 49
3.174999999999998
 49
-3.174999999999998
 49
3.174999999999998
 49
-3.174999999999998
  0
LTYPE
  2
CENTER2
 70
     0
  3
Center (.5x) ___ _ ___ _ ___ _ ___ _ ___ _ ___
 72
    65
 73
     4
 40
1.125
 49
0.75
 49
-0.125
 49
0.125
 49
-0.125
  0
LTYPE
  2
HIDDEN2
 70
     0
  3
Hidden (.5x) _ _ _ _ _ _ _ _ _ _ _ _ _ _ _ _ _
 72
    65
 73
     2
 40
0.1875
 49
0.125
 49
-0.0625
  0
LTYPE
  2
AMZIGZAG2
 70
     0
  3
/\/-/\/-/\/-/\/-/\/-/\/
 72
    65
 73
     2
 40
0.4401
 49
0.0001
 49
-0.4400000000000003
  0
LTYPE
  2
ACANSTGB
 70
     0
  3
__ . . __ . .
 72
    65
 73
     6
 40
0.35433070866
 49
0.15748031496
 49
-0.03937007874
 49
0.03937007874
 49
-0.03937007874
 49
0.03937007874
 49
-0.03937007874
  0
LTYPE
  2
ACANSTGL
 70
     0
  3
_ _ _ _ _
 72
    65
 73
     2
 40
0.11811023622
 49
0.07874015748
 49
-0.03937007874
  0
ENDTAB
  0
TABLE
  2
LAYER
 70
     4
  0
LAYER
  2
0
 70
     0
 62
     7
  6
CONTINUOUS
  0
LAYER
  2
DEFPOINTS
 70
     0
 62
     7
  6
CONTINUOUS
  0
LAYER
  2
AM_5
 70
     0
 62
     2
  6
CONTINUOUS
  0
LAYER
  2
AM_CL
 70
     0
 62
     1
  6
AMCONSTR
  0
ENDTAB
  0
TABLE
  2
STYLE
 70
     9
  0
STYLE
  2
STANDARD
 70
     0
 40
0.0
 41
0.7400000000000003
 50
0.0
 71
     0
 42
2.5
  3
txt.shx
  4
bigfont.shx
  0
STYLE
  2

 70
     1
 40
0.0
 41
1.0
 50
0.0
 71
     0
 42
2.5
  3
ltypeshp.shx
  4

  0
STYLE
  2
ACANSTS
 70
     0
 40
1.0
 41
1.0
 50
0.0
 71
     0
 42
2.5
  3
romans.shx
  4
bigfont.shx
  0
STYLE
  2
ACANSGDT
 70
     0
 40
0.0
 41
1.0
 50
0.0
 71
     0
 42
2.5
  3
amgdtans.shx
  4

  0
STYLE
  2
ACISOTS
 70
     0
 40
1.0
 41
1.0
 50
0.0
 71
     0
 42
2.5
  3
isocp.shx
  4
extfont.shx
  0
STYLE
  2
ACISOGDT
 70
     0
 40
0.0
 41
1.0
 50
0.0
 71
     0
 42
2.5
  3
amgdt.shx
  4

  0
STYLE
  2
ACJISGDT
 70
     0
 40
0.0
 41
1.0
 50
0.0
 71
     0
 42
2.5
  3
amgdt.shx
  4

  0
STYLE
  2
ACJISTS
 70
     0
 40
1.0
 41
1.0
 50
0.0
 71
     0
 42
2.5
  3
isocp.shx
  4
extfont.shx
  0
STYLE
  2
USER1
 70
     0
 40
0.0
 41
1.0
 50
0.0
 71
     0
 42
12.5
  3
TXT.SHX
  4

  0
ENDTAB
  0
TABLE
  2
VIEW
 70
     6
  0
VIEW
  2
AM_VIEW1
 70
     0
 40
555.00000000000011
 10
599.14035147718755
 20
832.49999940360885
 41
1198.280701754386
 11
0.0
 21
0.0
 31
1.0
 12
0.0
 22
0.0
 32
0.0
 42
50.0
 43
0.0
 44
0.0
 50
0.0
 71
    16
  0
VIEW
  2
AM_VIEW2
 70
     0
 40
555.00000000000011
 10
1107.8596497228009
 20
832.49999940360885
 41
1198.280701754386
 11
0.0
 21
0.0
 31
1.0
 12
0.0
 22
0.0
 32
0.0
 42
50.0
 43
0.0
 44
0.0
 50
0.0
 71
    16
  0
VIEW
  2
AM_VIEW3
 70
     0
 40
555.00000000000011
 10
599.14035147718755
 20
277.49999940360868
 41
1198.280701754386
 11
0.0
 21
0.0
 31
1.0
 12
0.0
 22
0.0
 32
0.0
 42
50.0
 43
0.0
 44
0.0
 50
0.0
 71
    16
  0
VIEW
  2
AM_VIEW4
 70
     0
 40
555.00000000000011
 10
1107.8596497228009
 20
277.49999940360868
 41
1198.280701754386
 11
0.0
 21
0.0
 31
1.0
 12
0.0
 22
0.0
 32
0.0
 42
50.0
 43
0.0
 44
0.0
 50
0.0
 71
    16
  0
VIEW
  2
AM_VIEW5
 70
     0
 40
555.00000000000011
 10
853.50000059999445
 20
554.99999940360874
 41
1198.280701754386
 11
0.0
 21
0.0
 31
1.0
 12
0.0
 22
0.0
 32
0.0
 42
50.0
 43
0.0
 44
0.0
 50
0.0
 71
    16
  0
VIEW
  2
AM_VIEW6
 70
     0
 40
1109.9889000000001
 10
853.50000059999445
 20
554.99999940360874
 41
2396.5374378947372
 11
0.0
 21
0.0
 31
1.0
 12
0.0
 22
0.0
 32
0.0
 42
50.0
 43
0.0
 44
0.0
 50
0.0
 71
    16
  0
ENDTAB
  0
TABLE
  2
UCS
 70
     0
  0
ENDTAB
  0
TABLE
  2
APPID
 70
   157
  0
APPID
  2
ACAD
 70
     0
  0
APPID
  2
ACADANNOTATIVE
 70
     0
  0
APPID
  2
ACAD_MLEADERVER
 70
     0
  0
APPID
  2
MCAD_NO_VIS
 70
     0
  0
APPID
  2
ACAD_TEMP_GRAPHIC
 70
     0
  0
APPID
  2
AD_DRAW
 70
     0
  0
APPID
  2
ACATTRIBSERVICES
 70
     0
  0
APPID
  2
DESIGNERASSEMBLIES
 70
     0
  0
APPID
  2
ACADM_DIM_EDIT
 70
     0
  0
APPID
  2
AMDT_DM_ADJ
 70
     0
  0
APPID
  2
GENIUS_GENDIMSH_14
 70
     0
  0
APPID
  2
GEVID1057795304
 70
     0
  0
APPID
  2
GEVDC
 70
     0
  0
APPID
  2
GEVCON
 70
     0
  0
APPID
  2
GENIUS_GENBH_13
 70
     0
  0
APPID
  2
GENIUS_GENOENT_13
 70
     0
  0
APPID
  2
GENIUS_GENOBJ-NBEHI-BHF_13
 70
     0
  0
APPID
  2
GENIUS_GENOLIS_13
 70
     0
  0
APPID
  2
GENIUS_GENODEF_13
 70
     0
  0
APPID
  2
GENIUS_GENOREF_13
 70
     0
  0
APPID
  2
GENIUS_GENOBJ-NBEHI-BHB_13
 70
     0
  0
APPID
  2
GENIUS_GENOBJ-F-SCPASSM_13
 70
     0
  0
APPID
  2
GENIUS_GENDTOL_13
 70
     0
  0
APPID
  2
GENIUS_GENTRA_14
 70
     0
  0
APPID
  2
ASURF_PCURVE_APPNAME
 70
     0
  0
APPID
  2
GENIUS_GENCFG_13
 70
     0
  0
APPID
  2
GENIUS_GE3CFG0_13
 70
     0
  0
APPID
  2
GENIUS_GENCFG0_13
 70
     0
  0
APPID
  2
GENIUS_GENCFG1_13
 70
     0
  0
APPID
  2
GENIUS_GENCFG2_13
 70
     0
  0
APPID
  2
GENIUS_GENCFG3_13
 70
     0
  0
APPID
  2
GENIUS_GENCFG4_13
 70
     0
  0
APPID
  2
GENIUS_GEVCFG0_13
 70
     0
  0
APPID
  2
GENIUS_GENOBJ-N-TIT_13
 70
     0
  0
APPID
  2
GENIUS_GENTITLE_13
 70
     0
  0
APPID
  2
GENIUS_GENSCREG_15
 70
     0
  0
APPID
  2
GENIUS_GENOBJ-N-SDF_13
 70
     0
  0
APPID
  2
GENIUS_GENFIL_13
 70
     0
  0
APPID
  2
GENIUS_GENOBJ-N-CHA_13
 70
     0
  0
APPID
  2
GENIUS_GEFSH_13
 70
     0
  0
APPID
  2
GENIUS_GENOBJ-F-SHS_13
 70
     0
  0
APPID
  2
GENIUS_GENOBJ-N-CEN_13
 70
     0
  0
APPID
  2
GENIUS_GENREC_14
 70
     0
  0
APPID
  2
GENIUS_GENOBJ-N-REC_13
 70
     0
  0
APPID
  2
GENIUS_GENOBJ-N-HTC_13
 70
     0
  0
APPID
  2
GENIUS_GENHATCH_13
 70
     0
  0
APPID
  2
ACAD_PSEXT
 70
     0
  0
APPID
  2
ACAD_EXEMPT_FROM_CAD_STANDARDS
 70
     0
  0
APPID
  2
ACAECLAYERSTANDARD
 70
     0
  0
APPID
  2
GENIUS_GENCEN_19
 70
     0
  0
APPID
  2
ACAD_DSTYLE_DIMINSPECT
 70
     0
  0
APPID
  2
ACAD_DSTYLE_DIMANGULAR_EXT
 70
     0
  0
APPID
  2
ACADANNOPO
 70
     0
  0
APPID
  2
ACAD_NAV_VCDISPLAY
 70
     0
  0
APPID
  2
GENIUS_GENOBJ-N-FIL_13
 70
     0
  0
APPID
  2
ACAD_DSTYLE_DIMBREAK
 70
     0
  0
APPID
  2
ACAD_DSTYLE_DIMJAG
 70
     0
  0
APPID
  2
ACAD_DSTYLE_DIMRADIAL_EXTENSION
 70
     0
  0
APPID
  2
GENIUS_GENHINW_13
 70
     0
  0
APPID
  2
GENIUS_FIRSTVISTXT_14
 70
     0
  0
APPID
  2
GENIUS_GENOBJ-N-LEADER_13
 70
     0
  0
APPID
  2
GENIUS_DUMCFG0_13
 70
     0
  0
APPID
  2
ACAD_DSTYLE_DIMTEXT_FILL
 70
     0
  0
APPID
  2
AMG_2DHIDE
 70
     0
  0
APPID
  2
GENIUS_GEFSHEP_13
 70
     0
  0
APPID
  2
GENIUS_GENOBJ-F-SHE_13
 70
     0
  0
APPID
  2
GENIUS_GEFSHE_13
 70
     0
  0
APPID
  2
ACAD_DIMASSOC_DIMLFAC
 70
     0
  0
APPID
  2
ACAD_DIMASSOC_CALC_DIMLFAC
 70
     0
  0
APPID
  2
ACAD_DIMASSOC_OVERRIDDEN_D
 70
     0
  0
APPID
  2
GENIUS_GENOBJ-F-SHSV_13
 70
     0
  0
APPID
  2
GENIUS_GEFWELD_13
 70
     0
  0
APPID
  2
GENIUS_GENOBJ-N-CRS_13
 70
     0
  0
APPID
  2
GENIUS_GENOBJ-N-RSBK_13
 70
     0
  0
APPID
  2
GENIUS_GENOBJ-N-LIB_13
 70
     0
  0
APPID
  2
GENIUS_GENSCALE_13
 70
     0
  0
APPID
  2
GENIUS_GENDREL_13
 70
     0
  0
APPID
  2
GEVPT
 70
     0
  0
APPID
  2
GEVIT
 70
     0
  0
APPID
  2
VCC
 70
     0
  0
APPID
  2
GENBH
 70
     0
  0
APPID
  2
GEVMK
 70
     0
  0
APPID
  2
GENIUS_GENOBJ-F-DESC_13
 70
     0
  0
APPID
  2
GENIUS_GEFDESC_14
 70
     0
  0
APPID
  2
GENIUS_GENOBJ-F-FEAT_13
 70
     0
  0
APPID
  2
GENIUS_GEFFEAT_14
 70
     0
  0
APPID
  2
GENIUS_GEFPARTINS_13
 70
     0
  0
APPID
  2
GENIUS_GENSCREG_13
 70
     0
  0
APPID
  2
GENIUS_GEFSHP_13
 70
     0
  0
APPID
  2
GEVID1025574798
 70
     0
  0
APPID
  2
GEVID1025574769
 70
     0
  0
APPID
  2
GEVID1025757451
 70
     0
  0
APPID
  2
GEVID1240528327
 70
     0
  0
APPID
  2
AMG_2DSTRUCT_BTR
 70
     0
  0
APPID
  2
ACADM_2DVIEW_IGN_NOTIFY
 70
     0
  0
APPID
  2
GEVID1240528328
 70
     0
  0
APPID
  2
GEVID1240528329
 70
     0
  0
APPID
  2
GEVRADREF
 70
     0
  0
APPID
  2
GEVID1240528330
 70
     0
  0
APPID
  2
GEVID1240528331
 70
     0
  0
APPID
  2
GEVID1240528332
 70
     0
  0
APPID
  2
GEVID1240791080
 70
     0
  0
APPID
  2
GEVID1240791081
 70
     0
  0
APPID
  2
GEVID1240791082
 70
     0
  0
APPID
  2
GEVID1240791083
 70
     0
  0
APPID
  2
GEVID1240791084
 70
     0
  0
APPID
  2
GEVID1240791085
 70
     0
  0
APPID
  2
GEVID1240791086
 70
     0
  0
APPID
  2
GEVID1240791087
 70
     0
  0
APPID
  2
GEVID1240791088
 70
     0
  0
APPID
  2
GEVID1240791089
 70
     0
  0
APPID
  2
GEVID1240791090
 70
     0
  0
APPID
  2
GEVID1240791091
 70
     0
  0
APPID
  2
GEVID1240791092
 70
     0
  0
APPID
  2
GEVID1240791093
 70
     0
  0
APPID
  2
GEVID1240791094
 70
     0
  0
APPID
  2
GEVID1240791095
 70
     0
  0
APPID
  2
GEVID1240791096
 70
     0
  0
APPID
  2
GEVID1240791097
 70
     0
  0
APPID
  2
GEVID1240791098
 70
     0
  0
APPID
  2
GEVID1240791099
 70
     0
  0
APPID
  2
GEVID1240791100
 70
     0
  0
APPID
  2
GEVID1240791101
 70
     0
  0
APPID
  2
GEVID1240791102
 70
     0
  0
APPID
  2
GEVID1240791103
 70
     0
  0
APPID
  2
GEVID1240791104
 70
     0
  0
APPID
  2
GEVID1240791105
 70
     0
  0
APPID
  2
GEVID1240875381
 70
     0
  0
APPID
  2
GEVID1240875382
 70
     0
  0
APPID
  2
GEVID1240875383
 70
     0
  0
APPID
  2
GEVID1240875384
 70
     0
  0
APPID
  2
GEVID1240875385
 70
     0
  0
APPID
  2
GEVID1240875386
 70
     0
  0
APPID
  2
GEVID1240875387
 70
     0
  0
APPID
  2
GEVID1240875388
 70
     0
  0
APPID
  2
GEVID1240875389
 70
     0
  0
APPID
  2
GEVID1240875390
 70
     0
  0
APPID
  2
GEVID1240875391
 70
     0
  0
APPID
  2
GEVID1240875392
 70
     0
  0
APPID
  2
GEVID1240875393
 70
     0
  0
APPID
  2
GEVID1240875394
 70
     0
  0
APPID
  2
GEVID1240875395
 70
     0
  0
APPID
  2
GEVID1240875396
 70
     0
  0
APPID
  2
GEVID1240875397
 70
     0
  0
APPID
  2
GEVID1240875398
 70
     0
  0
APPID
  2
GEVID1240875399
 70
     0
  0
APPID
  2
GEVID1240908996
 70
     0
  0
APPID
  2
GEVID1240908997
 70
     0
  0
APPID
  2
GEVID1240908998
 70
     0
  0
APPID
  2
GEVID1240908999
 70
     0
  0
APPID
  2
GEVID1240909000
 70
     0
  0
APPID
  2
GENIUS_GENOBJ-N-ZOO_13
 70
     0
  0
APPID
  2
GENIUS_GENZOO_17
 70
     0
  0
APPID
  2
GENIUS_GE3SECT_13
 70
     0
  0
APPID
  2
GEV_VCCNULL_SWITCH_OFF
 70
     0
  0
APPID
  2
ACAD_DSTYLE_DIMTALN
 70
     0
  0
APPID
  2
DCO15
 70
     0
  0
ENDTAB
  0
TABLE
  2
DIMSTYLE
 70
    21
  0
DIMSTYLE
  2
AM_ANSI
 70
     0
  3

  4
"
  5

  6

  7

 40
1.0
 41
2.5
 42
1.0
 43
10.0
 44
1.0
 45
0.0
 46
0.0
 47
0.1
 48
0.1
140
3.5
141
0.0
142
0.0
143
0.0393701
144
1.0
145
0.0
146
0.71
147
1.5
 71
     0
 72
     0
 73
     1
 74
     1
 75
     0
 76
     0
 77
     0
 78
     8
170
     0
171
     2
172
     0
173
     0
174
     0
175
     0
176
     2
177
     2
178
     4
  0
DIMSTYLE
  2
AM_ANSI$3
 70
     0
  3

  4
"
  5

  6

  7

 40
1.0
 41
2.5
 42
1.0
 43
10.0
 44
1.0
 45
0.0
 46
0.0
 47
0.1
 48
0.1
140
3.5
141
0.0
142
0.0
143
0.0393701
144
1.0
145
0.0
146
0.71
147
1.5
 71
     0
 72
     0
 73
     1
 74
     1
 75
     0
 76
     0
 77
     0
 78
     8
170
     0
171
     2
172
     0
173
     0
174
     0
175
     0
176
     2
177
     2
178
     4
  0
DIMSTYLE
  2
AM_ANSI$4
 70
     0
  3

  4
"
  5

  6

  7

 40
1.0
 41
2.5
 42
1.0
 43
10.0
 44
1.0
 45
0.0
 46
0.0
 47
0.1
 48
0.1
140
3.5
141
0.0
142
0.0
143
0.0393701
144
1.0
145
0.0
146
0.71
147
1.5
 71
     0
 72
     0
 73
     1
 74
     1
 75
     0
 76
     0
 77
     0
 78
     8
170
     0
171
     2
172
     0
173
     0
174
     0
175
     0
176
     2
177
     2
178
     4
  0
DIMSTYLE
  2
AM_ANSI$7
 70
     0
  3

  4
"
  5

  6

  7

 40
1.0
 41
2.5
 42
1.0
 43
10.0
 44
1.0
 45
0.0
 46
0.0
 47
0.1
 48
0.1
140
5.0
141
0.0
142
0.0
143
0.0393701
144
1.0
145
0.0
146
0.71
147
1.5
 71
     0
 72
     0
 73
     1
 74
     1
 75
     0
 76
     0
 77
     0
 78
     8
170
     0
171
     2
172
     0
173
     0
174
     0
175
     0
176
     2
177
     2
178
     4
  0
DIMSTYLE
  2
AM_ANSI$SF
 70
     0
  3

  4
"
  5

  6

  7

 40
1.0
 41
2.5
 42
1.0
 43
10.0
 44
1.0
 45
0.0
 46
0.0
 47
0.1
 48
0.1
140
3.5
141
0.0
142
0.0
143
0.0393701
144
1.0
145
0.0
146
0.71
147
1.5
 71
     0
 72
     0
 73
     1
 74
     1
 75
     1
 76
     1
 77
     0
 78
     8
170
     0
171
     2
172
     0
173
     0
174
     0
175
     0
176
     2
177
     2
178
     4
  0
DIMSTYLE
  2
AM_ANSI$SH
 70
     0
  3

  4
"
  5

  6
GENAXEH
  7

 40
1.0
 41
2.5
 42
1.0
 43
10.0
 44
1.0
 45
0.0
 46
0.0
 47
0.1
 48
0.1
140
3.5
141
0.0
142
0.0
143
0.0393701
144
1.0
145
0.0
146
0.71
147
1.5
 71
     0
 72
     0
 73
     1
 74
     1
 75
     1
 76
     1
 77
     0
 78
     8
170
     0
171
     2
172
     0
173
     1
174
     0
175
     0
176
     2
177
     2
178
     4
  0
DIMSTYLE
  2
AM_ISO
 70
     0
  3

  4
"
  5

  6

  7

 40
1.0
 41
2.5
 42
1.0
 43
10.0
 44
1.0
 45
0.0
 46
0.0
 47
0.1
 48
0.1
140
3.5
141
0.0
142
0.0
143
0.0393701
144
1.0
145
0.0
146
0.71
147
1.5
 71
     0
 72
     0
 73
     0
 74
     0
 75
     0
 76
     0
 77
     1
 78
     8
170
     0
171
     2
172
     1
173
     0
174
     0
175
     0
176
   256
177
   256
178
     2
  0
DIMSTYLE
  2
AM_ISO$3
 70
     0
  3

  4
"
  5

  6

  7

 40
1.0
 41
2.5
 42
1.0
 43
10.0
 44
1.0
 45
0.0
 46
0.0
 47
0.1
 48
0.1
140
3.5
141
0.0
142
0.0
143
0.0393701
144
1.0
145
0.0
146
0.71
147
1.5
 71
     0
 72
     0
 73
     0
 74
     1
 75
     0
 76
     0
 77
     1
 78
     8
170
     0
171
     2
172
     0
173
     0
174
     0
175
     0
176
   256
177
   256
178
     2
  0
DIMSTYLE
  2
AM_ISO$4
 70
     0
  3

  4
"
  5

  6

  7

 40
1.0
 41
2.5
 42
1.0
 43
10.0
 44
1.0
 45
0.0
 46
0.0
 47
0.1
 48
0.1
140
3.5
141
0.0
142
0.0
143
0.0393701
144
1.0
145
0.0
146
0.71
147
1.5
 71
     0
 72
     0
 73
     0
 74
     1
 75
     0
 76
     0
 77
     1
 78
     8
170
     0
171
     2
172
     0
173
     0
174
     0
175
     0
176
   256
177
   256
178
     2
  0
DIMSTYLE
  2
AM_ISO$6
 70
     0
  3

  4
"
  5

  6

  7

 40
1.0
 41
2.5
 42
1.0
 43
10.0
 44
1.0
 45
0.0
 46
0.0
 47
0.1
 48
0.1
140
3.5
141
0.0
142
0.0
143
0.0393701
144
1.0
145
0.0
146
0.71
147
1.5
 71
     0
 72
     0
 73
     0
 74
     0
 75
     0
 76
     0
 77
     0
 78
     8
170
     0
171
     2
172
     1
173
     0
174
     0
175
     0
176
   256
177
   256
178
     2
  0
DIMSTYLE
  2
AM_ISO$7
 70
     0
  3

  4
"
  5

  6

  7

 40
1.0
 41
2.5
 42
1.0
 43
10.0
 44
1.0
 45
0.0
 46
0.0
 47
0.1
 48
0.1
140
5.0
141
0.0
142
0.0
143
0.0393701
144
1.0
145
0.0
146
0.71
147
1.5
 71
     0
 72
     0
 73
     0
 74
     0
 75
     0
 76
     0
 77
     1
 78
     8
170
     0
171
     2
172
     1
173
     0
174
     0
175
     0
176
   256
177
   256
178
     2
  0
DIMSTYLE
  2
AM_ISO$SF
 70
     0
  3

  4
"
  5

  6

  7

 40
1.0
 41
2.5
 42
1.0
 43
10.0
 44
1.0
 45
0.0
 46
0.0
 47
0.1
 48
0.1
140
3.5
141
0.0
142
0.0
143
0.0393701
144
1.0
145
0.0
146
0.71
147
1.5
 71
     0
 72
     0
 73
     0
 74
     0
 75
     1
 76
     1
 77
     1
 78
     8
170
     0
171
     2
172
     1
173
     0
174
     0
175
     0
176
   256
177
   256
178
     2
  0
DIMSTYLE
  2
AM_ISO$SH
 70
     0
  3

  4
"
  5

  6
GENAXEH
  7

 40
1.0
 41
2.5
 42
1.0
 43
10.0
 44
1.0
 45
0.0
 46
0.0
 47
0.1
 48
0.1
140
3.5
141
0.0
142
0.0
143
0.0393701
144
2.0
145
0.0
146
0.71
147
1.5
 71
     0
 72
     0
 73
     0
 74
     0
 75
     1
 76
     1
 77
     1
 78
     8
170
     0
171
     2
172
     1
173
     1
174
     0
175
     0
176
   256
177
   256
178
     2
  0
DIMSTYLE
  2
AM_JIS
 70
     0
  3

  4
"
  5

  6

  7

 40
1.0
 41
2.0
 42
1.0
 43
8.0
 44
1.0
 45
0.0
 46
0.0
 47
0.1
 48
0.1
140
2.5
141
0.0
142
0.0
143
0.0393701
144
1.0
145
0.0
146
0.71
147
1.5
 71
     0
 72
     0
 73
     0
 74
     0
 75
     0
 76
     0
 77
     3
 78
     8
170
     0
171
     2
172
     1
173
     0
174
     0
175
     0
176
     2
177
     2
178
     4
  0
DIMSTYLE
  2
AM_JIS$3
 70
     0
  3

  4
"
  5

  6

  7

 40
1.0
 41
2.0
 42
1.0
 43
10.0
 44
1.0
 45
0.0
 46
0.0
 47
0.1
 48
0.1
140
2.5
141
0.0
142
0.0
143
0.0393701
144
1.0
145
0.0
146
0.71
147
1.5
 71
     0
 72
     0
 73
     0
 74
     1
 75
     0
 76
     0
 77
     3
 78
     8
170
     0
171
     2
172
     0
173
     0
174
     0
175
     0
176
     2
177
     2
178
     4
  0
DIMSTYLE
  2
AM_JIS$4
 70
     0
  3

  4
"
  5

  6

  7

 40
1.0
 41
2.0
 42
1.0
 43
10.0
 44
1.0
 45
0.0
 46
0.0
 47
0.1
 48
0.1
140
2.5
141
0.0
142
0.0
143
0.0393701
144
1.0
145
0.0
146
0.71
147
1.5
 71
     0
 72
     0
 73
     0
 74
     0
 75
     0
 76
     0
 77
     3
 78
     8
170
     0
171
     2
172
     0
173
     0
174
     0
175
     0
176
     2
177
     2
178
     4
  0
DIMSTYLE
  2
AM_JIS$6
 70
     0
  3

  4
"
  5

  6

  7

 40
1.0
 41
2.0
 42
1.0
 43
10.0
 44
1.0
 45
0.0
 46
0.0
 47
0.1
 48
0.1
140
2.5
141
0.0
142
0.0
143
0.0393701
144
1.0
145
0.0
146
0.71
147
1.5
 71
     0
 72
     0
 73
     0
 74
     0
 75
     0
 76
     0
 77
     0
 78
     8
170
     0
171
     2
172
     1
173
     0
174
     0
175
     0
176
     2
177
     2
178
     4
  0
DIMSTYLE
  2
AM_JIS$7
 70
     0
  3

  4
"
  5

  6
OPEN30
  7
OPEN30
 40
1.0
 41
2.0
 42
1.0
 43
10.0
 44
1.0
 45
0.0
 46
0.0
 47
0.1
 48
0.1
140
2.5
141
0.0
142
0.0
143
0.0393701
144
1.0
145
0.0
146
0.71
147
1.5
 71
     0
 72
     0
 73
     0
 74
     0
 75
     0
 76
     0
 77
     3
 78
     8
170
     0
171
     2
172
     1
173
     0
174
     0
175
     0
176
     2
177
     2
178
     4
  0
DIMSTYLE
  2
AM_JIS$SF
 70
     0
  3

  4
"
  5

  6

  7

 40
1.0
 41
2.0
 42
1.0
 43
10.0
 44
1.0
 45
0.0
 46
0.0
 47
0.1
 48
0.1
140
2.5
141
0.0
142
0.0
143
0.0393701
144
1.0
145
0.0
146
0.71
147
1.5
 71
     0
 72
     0
 73
     0
 74
     0
 75
     1
 76
     1
 77
     3
 78
     8
170
     0
171
     2
172
     1
173
     0
174
     0
175
     0
176
     2
177
     2
178
     4
  0
DIMSTYLE
  2
AM_JIS$SH
 70
     0
  3

  4
"
  5

  6
GENAXEH
  7

 40
1.0
 41
2.0
 42
1.0
 43
10.0
 44
1.0
 45
0.0
 46
0.0
 47
0.1
 48
0.1
140
2.5
141
0.0
142
0.0
143
0.0393701
144
2.0
145
0.0
146
0.71
147
1.5
 71
     0
 72
     0
 73
     0
 74
     0
 75
     1
 76
     1
 77
     3
 78
     8
170
     0
171
     2
172
     1
173
     1
174
     0
175
     0
176
     2
177
     2
178
     4
  0
DIMSTYLE
  2
AM_JIS$0
 70
     0
  3

  4
"
  5

  6

  7

 40
1.0
 41
2.0
 42
1.0
 43
8.0
 44
1.0
 45
0.0
 46
0.0
 47
0.1
 48
0.1
140
2.5
141
0.0
142
0.0
143
0.0393701
144
1.0
145
0.0
146
0.71
147
1.5
 71
     0
 72
     0
 73
     0
 74
     0
 75
     0
 76
     0
 77
     3
 78
     8
170
     0
171
     2
172
     1
173
     0
174
     0
175
     0
176
     2
177
     2
178
     4
  0
ENDTAB
  0
ENDSEC
  0
SECTION
  2
BLOCKS
  0
BLOCK
  8
0
  2
$MODEL_SPACE
 70
     0
 10
0.0
 20
0.0
 30
0.0
  3
$MODEL_SPACE
  1

  0
ENDBLK
  5
77
  8
0
  0
BLOCK
 67
     1
  8
0
  2
$PAPER_SPACE
 70
     0
 10
0.0
 20
0.0
 30
0.0
  3
$PAPER_SPACE
  1

  0
ENDBLK
  5
73
 67
     1
  8
0
  0
BLOCK
  8
0
  2
GENAXEH
 70
     0
 10
0.0
 20
0.0
 30
0.0
  3
GENAXEH
  1

  0
LINE
  5
C6BC
  8
0
 10
-1.0
 20
0.0
 30
0.0
 11
1.0
 21
0.0
 31
0.0
  0
ENDBLK
  5
C6BD
  8
0
  0
BLOCK
  8
0
  2
_OPEN30
 70
     0
 10
0.0
 20
0.0
 30
0.0
  3
_OPEN30
  1

  0
LINE
  5
C703
  8
0
  6
BYBLOCK
 62
     0
 10
-1.0
 20
0.26794919
 30
0.0
 11
0.0
 21
0.0
 31
0.0
  0
LINE
  5
C704
  8
0
  6
BYBLOCK
 62
     0
 10
0.0
 20
0.0
 30
0.0
 11
-1.0
 21
-0.26794919
 31
0.0
  0
LINE
  5
C705
  8
0
  6
BYBLOCK
 62
     0
 10
0.0
 20
0.0
 30
0.0
 11
-1.0
 21
0.0
 31
0.0
  0
ENDBLK
  5
C706
  8
0
  0
BLOCK
  8
0
  2
_ACMFILLEDHALF
 70
     0
 10
0.0
 20
0.0
 30
0.0
  3
_ACMFILLEDHALF
  1

  0
TRACE
  5
C7C6
  8
0
  6
CONTINUOUS
 62
     0
 10
-0.8
 20
0.0
 30
0.0
 11
-1.0
 21
0.166666666
 31
0.0
 12
0.0
 22
0.0
 32
0.0
 13
0.0
 23
0.0
 33
0.0
  0
LINE
  5
C7C7
  8
0
  6
CONTINUOUS
 62
     0
 10
-1.0
 20
0.0
 30
0.0
 11
-0.8
 21
0.0
 31
0.0
  0
ENDBLK
  5
C7C8
  8
0
  0
ENDSEC
  0
SECTION
  2
ENTITIES
  0
LINE
  5
9CEB
  8
0
 10
867.11685030609965
 20
661.76711576092873
 30
0.0
 11
867.11685030609965
 21
657.76711576092873
 31
0.0
  0
LINE
  5
9CEC
  8
0
 10
867.11685030609965
 20
661.76711576092873
 30
0.0
 11
929.11685030609988
 21
661.76711576092873
 31
0.0
  0
LINE
  5
9CED
  8
0
 10
847.11685030609988
 20
602.76711576092873
 30
0.0
 11
929.11685030609988
 21
602.76711576092873
 31
0.0
  0
LINE
  5
9CEE
  8
0
 10
929.11685030609988
 20
661.76711576092873
 30
0.0
 11
929.11685030609988
 21
602.76711576092873
 31
0.0
  0
LINE
  5
9CEF
  8
0
 10
847.11685030609988
 20
660.26711576092873
 30
0.0
 11
847.11685030609988
 21
600.26711576092873
 31
0.0
  0
LINE
  5
9CF0
  8
0
 10
847.11685030609988
 20
657.76711576092873
 30
0.0
 11
929.11685030609988
 21
657.76711576092873
 31
0.0
  0
LINE
  5
9CF1
  8
0
 10
841.11685030609988
 20
660.26711576092873
 30
0.0
 11
847.11685030609988
 21
660.26711576092873
 31
0.0
  0
LINE
  5
9CF2
  8
0
 10
841.11685030609988
 20
600.26711576092873
 30
0.0
 11
847.11685030609988
 21
600.26711576092873
 31
0.0
  0
LINE
  5
9CF3
  8
0
 10
1245.9452604581729
 20
651.48438314125519
 30
0.0
 11
1261.9452604581729
 21
651.48438314125519
 31
0.0
  0
LINE
  5
9CF4
  8
0
 10
1245.9452604581729
 20
661.48438314125497
 30
0.0
 11
1261.9452604581729
 21
661.48438314125497
 31
0.0
  0
LINE
  5
9CF5
  8
0
 10
1245.9452604581729
 20
651.48438314125519
 30
0.0
 11
1245.9452604581729
 21
661.48438314125497
 31
0.0
  0
LINE
  5
9CF6
  8
0
 10
1261.9452604581729
 20
651.48438314125519
 30
0.0
 11
1261.9452604581729
 21
661.48438314125497
 31
0.0
  0
LINE
  5
9CF7
  8
0
 10
1120.9452604581729
 20
638.45078314125465
 30
0.0
 11
1120.9452604581729
 21
624.61008314125525
 31
0.0
  0
LINE
  5
9CF8
  8
0
 10
1153.9452904581731
 20
471.98434814125511
 30
0.0
 11
1153.9452904581731
 21
614.98438314125497
 31
0.0
  0
LINE
  5
9CF9
  8
0
 10
699.11685030609988
 20
622.37310076092854
 30
0.0
 11
719.11685030609988
 21
622.37310076092854
 31
0.0
  0
LINE
  5
9CFA
  8
0
 10
838.04710030610033
 20
690.37430076092858
 30
0.0
 11
839.18670030610065
 21
690.33455076092866
 31
0.0
  0
LINE
  5
9CFB
  8
0
 10
818.24535030609957
 20
716.83070076092861
 30
0.0
 11
831.55265030610019
 21
715.6664507609288
 31
0.0
  0
LINE
  5
9CFC
  8
0
 10
1088.945270458174
 20
459.98437814125509
 30
0.0
 11
1088.945270458174
 21
429.98437814125498
 31
0.0
  0
LINE
  5
9CFD
  8
0
 10
1153.9452904581731
 20
459.98437814125509
 30
0.0
 11
1093.945270458174
 21
459.98437814125509
 31
0.0
  0
LINE
  5
9CFE
  8
0
 10
1158.9452904581731
 20
429.98437814125498
 30
0.0
 11
1088.945270458174
 21
429.98437814125498
 31
0.0
  0
LINE
  5
9CFF
  8
0
 10
1253.945290458174
 20
436.98437814125509
 30
0.0
 11
1163.9452904581731
 21
436.98437814125509
 31
0.0
  0
LINE
  5
9D00
  8
0
 10
836.11685030609965
 20
710.68540076092836
 30
0.0
 11
836.11685030609965
 21
463.92736076092859
 31
0.0
  0
LINE
  5
9D01
  8
0
 10
786.11685030609988
 20
460.26711076092857
 30
0.0
 11
836.11685030609965
 21
460.26711076092857
 31
0.0
  0
LINE
  5
9D02
  8
0
 10
841.11685030609988
 20
455.26711076092857
 30
0.0
 11
841.11685030609988
 21
430.26711076092857
 31
0.0
  0
LINE
  5
9D03
  8
0
 10
694.11685030609988
 20
752.26710076092877
 30
0.0
 11
714.29140030610029
 21
751.56260076092838
 31
0.0
  0
LINE
  5
9D04
  8
0
 10
841.11685030609988
 20
688.33575076092814
 30
0.0
 11
841.11685030609988
 21
572.19851076092823
 31
0.0
  0
LINE
  5
9D05
  8
0
 10
722.14510030610029
 20
747.28830076092868
 30
0.0
 11
799.46585030610004
 21
744.58825076092853
 31
0.0
  0
LINE
  5
9D06
  8
0
 10
611.11685030609988
 20
430.26711076092857
 30
0.0
 11
841.11685030609988
 21
430.26711076092857
 31
0.0
  0
LINE
  5
9D07
  8
0
 10
838.04705030610046
 20
570.15990576092861
 30
0.0
 11
839.18660030610044
 21
570.19970076092875
 31
0.0
  0
LINE
  5
9D08
  8
0
 10
611.11685030609988
 20
455.26711076092857
 30
0.0
 11
611.11685030609988
 21
430.26711076092857
 31
0.0
  0
LINE
  5
9D09
  8
0
 10
616.11685030609988
 20
460.26711076092857
 30
0.0
 11
662.94625030610041
 21
460.26711076092857
 31
0.0
  0
LINE
  5
9D0A
  8
0
 10
719.11685030609988
 20
746.56565076092875
 30
0.0
 11
719.11685030609988
 21
622.37310076092854
 31
0.0
  0
LINE
  5
9D0B
  8
0
 10
699.11685030609988
 20
622.37310076092854
 30
0.0
 11
699.11685030609988
 21
532.5060957609287
 31
0.0
  0
LINE
  5
9D0C
  8
0
 10
809.11685030609965
 20
734.59430076092815
 30
0.0
 11
809.11685030609965
 21
486.57412076092862
 31
0.0
  0
LINE
  5
9D0D
  8
0
 10
1136.9452604581729
 20
536.94827814125495
 30
0.0
 11
1136.9452604581729
 21
680.91816814125491
 31
0.0
  0
LINE
  5
9D0E
  8
0
 10
791.11685030609988
 20
682.2247507609286
 30
0.0
 11
809.11685030609965
 21
682.2247507609286
 31
0.0
  0
LINE
  5
9D0F
  8
0
 10
776.11685030609965
 20
476.57412076092862
 30
0.0
 11
799.11685030609988
 21
476.57412076092862
 31
0.0
  0
LINE
  5
9D10
  8
0
 10
776.11685030609965
 20
667.22475076092826
 30
0.0
 11
776.11685030609965
 21
470.26711076092857
 31
0.0
  0
LINE
  5
9D11
  8
0
 10
1158.9452904581731
 20
454.98437814125498
 30
0.0
 11
1158.9452904581731
 21
429.98437814125498
 31
0.0
  0
LINE
  5
9D12
  8
0
 10
1088.945270458174
 20
459.98437814125509
 30
0.0
 11
1127.1426154581729
 21
656.49271314125474
 31
0.0
  0
LINE
  5
9D13
  8
0
 10
667.46885030610065
 20
463.13500076092862
 30
0.0
 11
698.16215030610033
 21
528.2419057609286
 31
0.0
  0
LINE
  5
9D14
  8
0
 10
1253.945290458174
 20
445.98437814125492
 30
0.0
 11
1194.9359504581739
 21
445.98437814125492
 31
0.0
  0
LINE
  5
9D15
  8
0
 10
1161.8742154581739
 20
442.91330314125503
 30
0.0
 11
1170.064675458173
 21
451.10379314125458
 31
0.0
  0
LINE
  5
9D16
  8
0
 10
1189.200175458174
 20
447.79284814125498
 30
0.0
 11
1182.8715004581741
 21
452.22424814125509
 31
0.0
  0
LINE
  5
9D17
  8
0
 10
694.11685030609988
 20
752.26710076092877
 30
0.0
 11
694.11685030609988
 21
519.66103076092861
 31
0.0
  0
LINE
  5
9D18
  8
0
 10
1386.945280458174
 20
638.45078314125465
 30
0.0
 11
1386.945280458174
 21
624.61008314125525
 31
0.0
  0
LINE
  5
9D19
  8
0
 10
1353.9452604581729
 20
471.98434814125511
 30
0.0
 11
1353.9452604581729
 21
614.98438314125497
 31
0.0
  0
LINE
  5
9D1A
  8
0
 10
1418.9452654581739
 20
459.98437814125509
 30
0.0
 11
1418.9452654581739
 21
429.98437814125498
 31
0.0
  0
LINE
  5
9D1B
  8
0
 10
1353.9452604581729
 20
459.98437814125509
 30
0.0
 11
1413.9452654581739
 21
459.98437814125509
 31
0.0
  0
LINE
  5
9D1C
  8
0
 10
1348.9452604581729
 20
429.98437814125498
 30
0.0
 11
1418.9452654581739
 21
429.98437814125498
 31
0.0
  0
LINE
  5
9D1D
  8
0
 10
1253.945290458174
 20
436.98437814125509
 30
0.0
 11
1343.9452604581729
 21
436.98437814125509
 31
0.0
  0
LINE
  5
9D1E
  8
0
 10
1370.9452604581729
 20
536.94827814125495
 30
0.0
 11
1370.9452604581729
 21
680.91816814125491
 31
0.0
  0
LINE
  5
9D1F
  8
0
 10
1348.9452604581729
 20
454.98437814125498
 30
0.0
 11
1348.9452604581729
 21
429.98437814125498
 31
0.0
  0
LINE
  5
9D20
  8
0
 10
1418.9452654581739
 20
459.98440814125502
 30
0.0
 11
1380.7479204581739
 21
656.49271314125474
 31
0.0
  0
LINE
  5
9D21
  8
0
 10
1253.945290458174
 20
445.98437814125492
 30
0.0
 11
1312.9546004581739
 21
445.98437814125492
 31
0.0
  0
LINE
  5
9D22
  8
0
 10
1346.0163554581729
 20
442.91330314125503
 30
0.0
 11
1337.825875458173
 21
451.10376314125472
 31
0.0
  0
LINE
  5
9D23
  8
0
 10
1318.690350458173
 20
447.79284814125498
 30
0.0
 11
1325.019025458173
 21
452.22421814125499
 31
0.0
  0
LINE
  5
9D24
  8
0
 10
684.11685030609965
 20
749.98650076092883
 30
0.0
 11
684.11685030609965
 21
498.44893576092858
 31
0.0
  0
LINE
  5
9D25
  8
0
 10
661.11685030609988
 20
747.26710076092866
 30
0.0
 11
661.11685030609988
 21
699.26710076092866
 31
0.0
  0
LINE
  5
9D26
  8
0
 10
666.11685030609988
 20
752.26710076092877
 30
0.0
 11
693.8168503061006
 21
752.26710076092877
 31
0.0
  0
LINE
  5
9D27
  8
0
 10
686.04705030610023
 20
751.98530076092845
 30
0.0
 11
693.81680030610005
 21
752.25665076092855
 31
0.0
  0
LINE
  5
9D28
  8
0
 10
630.11690030610043
 20
473.26711076092857
 30
0.0
 11
672.24540030610024
 21
473.26711076092857
 31
0.0
  0
LINE
  5
9D2A
  8
0
 10
628.11685030609988
 20
703.26710076092866
 30
0.0
 11
628.11685030609988
 21
467.26708076092859
 31
0.0
  0
LINE
  5
9D2C
  8
0
 10
630.11690030610043
 20
697.26710076092866
 30
0.0
 11
659.11685030609965
 21
697.26710076092866
 31
0.0
  0
LINE
  5
9D2D
  8
0
 10
674.61685030609988
 20
714.81695076092865
 30
0.0
 11
674.61685030609988
 21
478.29741576092852
 31
0.0
  0
LINE
  5
9D2E
  8
0
 10
615.11690030610043
 20
465.26711076092857
 30
0.0
 11
626.11685030609965
 21
465.26711076092857
 31
0.0
  0
LINE
  5
9D2F
  8
0
 10
615.11690030610043
 20
705.26715076092876
 30
0.0
 11
626.11685030609965
 21
705.26715076092876
 31
0.0
  0
LINE
  5
9D30
  8
0
 10
659.11685030609965
 20
697.26710076092866
 30
0.0
 11
672.61690030610043
 21
697.26710076092866
 31
0.0
  0
LINE
  5
9D31
  8
0
 10
683.34095030610024
 20
730.04200076092854
 30
0.0
 11
675.39280030609973
 21
717.49220076092865
 31
0.0
  0
LINE
  5
9D32
  8
0
 10
628.11685030609988
 20
671.94200076092875
 30
0.0
 11
674.61685030609988
 21
671.94200076092875
 31
0.0
  0
LINE
  5
9D33
  8
0
 10
628.11685030609988
 20
656.19994576092824
 30
0.0
 11
674.61685030609988
 21
656.19994576092824
 31
0.0
  0
LINE
  5
9D34
  8
0
 10
628.11685030609988
 20
514.33431076092825
 30
0.0
 11
674.61685030609988
 21
514.33431076092825
 31
0.0
  0
LINE
  5
9D35
  8
0
 10
628.11685030609988
 20
498.59221576092858
 30
0.0
 11
674.61685030609988
 21
498.59221576092858
 31
0.0
  0
LINE
  5
9D36
  8
0
 10
666.32280030610036
 20
761.26710076092877
 30
0.0
 11
685.91085030610066
 21
761.26710076092877
 31
0.0
  0
LINE
  5
9D37
  8
0
 10
663.40220030609999
 20
751.46600076092864
 30
0.0
 11
665.86735030609998
 21
760.66605076092821
 31
0.0
  0
LINE
  5
9D38
  8
0
 10
688.61685030609965
 20
752.26710076092877
 30
0.0
 11
686.36635030609978
 21
760.66600076092823
 31
0.0
  0
LINE
  5
9D39
  8
0
 10
666.63880030610005
 20
761.38805076092865
 30
0.0
 11
676.11685030609965
 21
763.26710076092866
 31
0.0
  0
LINE
  5
9D3A
  8
0
 10
676.11690030610043
 20
763.26710076092866
 30
0.0
 11
685.5949003061005
 21
761.38810076092875
 31
0.0
  0
LINE
  5
9D3B
  8
0
 10
693.8168503061006
 20
752.26710076092877
 30
0.0
 11
694.11685030609988
 21
752.26710076092877
 31
0.0
  0
LINE
  5
9D3C
  8
0
 10
616.09575030609983
 20
659.70406576092864
 30
0.0
 11
627.12465030610019
 21
659.70406576092864
 31
0.0
  0
LINE
  5
9D3D
  8
0
 10
615.11690030610043
 20
684.9943007609287
 30
0.0
 11
626.11685030609965
 21
684.9943007609287
 31
0.0
  0
LINE
  5
9D3E
  8
0
 10
615.11690030610043
 20
669.43795076092874
 30
0.0
 11
626.11685030609965
 21
669.43795076092874
 31
0.0
  0
LINE
  5
9D3F
  8
0
 10
615.11690030610043
 20
485.53991076092859
 30
0.0
 11
626.11685030609965
 21
485.53991076092859
 31
0.0
  0
LINE
  5
9D40
  8
0
 10
615.11690030610043
 20
501.09624576092858
 30
0.0
 11
626.11685030609965
 21
501.09624576092858
 31
0.0
  0
LINE
  5
9D41
  8
0
 10
616.09575030609983
 20
510.83016076092861
 30
0.0
 11
627.12465030610019
 21
510.83016076092861
 31
0.0
  0
ARC
  5
9D52
  8
0
 10
1253.945290458174
 20
629.98438314125531
 30
0.0
 40
27.500000499999999
 50
106.9123900000052
 51
73.087596999986047
  0
ARC
  5
9D53
  8
0
 10
838.11685030609988
 20
568.16115576092852
 30
0.0
 40
2.0000000500000001
 50
91.999997999994051
 51
180.00001000000091
  0
ARC
  5
9D54
  8
0
 10
836.11685030609965
 20
455.26711076092857
 30
0.0
 40
5.0
 50
0.0
 51
90.000002999984659
  0
ARC
  5
9D55
  8
0
 10
662.94625030610041
 20
465.26711076092857
 30
0.0
 40
5.0
 50
270.0
 51
334.75946999999019
  0
ARC
  5
9D56
  8
0
 10
838.11685030609988
 20
692.37310076092854
 30
0.0
 40
2.0000000500000001
 50
179.999989999999
 51
268.00000999999207
  0
ARC
  5
9D57
  8
0
 10
799.11685030609988
 20
734.59430076092815
 30
0.0
 40
10.0
 50
0.0
 51
87.999999999996362
  0
ARC
  5
9D58
  8
0
 10
1253.945290458174
 20
614.98438314125497
 30
0.0
 40
100.0
 50
90.000002999984659
 51
180.00001000000091
  0
ARC
  5
9D59
  8
0
 10
831.11685030609988
 20
710.68540076092836
 30
0.0
 40
5.0
 50
0.0
 51
84.999997000010964
  0
ARC
  5
9D5A
  8
0
 10
839.11685030609988
 20
688.33575076092814
 30
0.0
 40
2.0000000500000001
 50
0.0
 51
87.999999999996362
  0
ARC
  5
9D5B
  8
0
 10
1093.945270458174
 20
454.98437814125498
 30
0.0
 40
5.0
 50
90.000002999984659
 51
180.00001000000091
  0
ARC
  5
9D5C
  8
0
 10
1253.945290458174
 20
604.98438314125531
 30
0.0
 40
147.0
 50
90.000002999984659
 51
134.59796000000421
  0
ARC
  5
9D5D
  8
0
 10
1253.945290458174
 20
604.98438314125531
 30
0.0
 40
142.0
 50
90.000002999984659
 51
136.44564000002089
  0
ARC
  5
9D5E
  8
0
 10
1253.945290458174
 20
629.98438314125531
 30
0.0
 40
60.0
 50
90.000002999984659
 51
270.0
  0
ARC
  5
9D5F
  8
0
 10
786.11685030609988
 20
470.26711076092857
 30
0.0
 40
10.0
 50
179.999989999999
 51
270.0
  0
ARC
  5
9D60
  8
0
 10
839.11685030609988
 20
572.19851076092823
 30
0.0
 40
2.0000000500000001
 50
272.00000000000369
 51
0.0
  0
ARC
  5
9D61
  8
0
 10
722.31965030609967
 20
752.28525076092865
 30
0.0
 40
5.0
 50
214.88734000000031
 51
267.99999999999642
  0
ARC
  5
9D62
  8
0
 10
714.11685030609965
 20
746.56565076092875
 30
0.0
 40
5.0
 50
34.887349999987919
 51
87.999999999996362
  0
ARC
  5
9D63
  8
0
 10
791.11685030609988
 20
667.22475076092826
 30
0.0
 40
15.0
 50
90.000002999984659
 51
180.00001000000091
  0
ARC
  5
9D64
  8
0
 10
1253.945290458174
 20
536.98434814125505
 30
0.0
 40
117.0
 50
179.999989999999
 51
211.27329999999679
  0
ARC
  5
9D65
  8
0
 10
1141.9452604581729
 20
471.98434814125511
 30
0.0
 40
12.0
 50
270.0
 51
0.0
  0
ARC
  5
9D66
  8
0
 10
799.11685030609988
 20
486.57412076092862
 30
0.0
 40
10.0
 50
270.0
 51
0.0
  0
ARC
  5
9D67
  8
0
 10
1218.4339704581739
 20
638.74747314125511
 30
0.0
 40
93.0
 50
136.44564000002089
 51
169.00000000000099
  0
ARC
  5
9D68
  8
0
 10
819.11685030609965
 20
726.79260076092817
 30
0.0
 40
10.0
 50
179.999989999999
 51
264.99999999999937
  0
ARC
  5
9D69
  8
0
 10
1163.9452904581731
 20
431.98437814125509
 30
0.0
 40
5.0
 50
90.000002999984659
 51
180.00001000000091
  0
ARC
  5
9D6A
  8
0
 10
1153.9452904581731
 20
454.98437814125498
 30
0.0
 40
5.0
 50
0.0
 51
90.000002999984659
  0
ARC
  5
9D6B
  8
0
 10
689.11685030609965
 20
532.5060957609287
 30
0.0
 40
10.0
 50
334.75946999999019
 51
0.0
  0
ARC
  5
9D6C
  8
0
 10
1146.9452604581729
 20
680.91816814125491
 30
0.0
 40
10.0
 50
149.46391999999179
 51
180.00001000000091
  0
ARC
  5
9D6D
  8
0
 10
616.11685030609988
 20
455.26711076092857
 30
0.0
 40
5.0
 50
90.000002999984659
 51
180.00001000000091
  0
ARC
  5
9D6E
  8
0
 10
841.11685030609988
 20
463.92736076092859
 30
0.0
 40
5.0
 50
179.999989999999
 51
240.0000099999892
  0
ARC
  5
9D6F
  8
0
 10
1220.9452604581729
 20
638.45078314125465
 30
0.0
 40
100.0
 50
134.59796000000421
 51
180.00001000000091
  0
ARC
  5
9D70
  8
0
 10
1194.9359504581739
 20
455.98437814125458
 30
0.0
 40
10.0
 50
234.99999999998201
 51
270.0
  0
ARC
  5
9D71
  8
0
 10
1168.9452904581731
 20
435.84222814125508
 30
0.0
 40
10.0
 50
135.00000000000861
 51
180.00001000000091
  0
ARC
  5
9D72
  8
0
 10
1177.1357504581731
 20
444.03271814125497
 30
0.0
 40
10.0
 50
54.999998999998937
 51
135.00000000000861
  0
ARC
  5
9D73
  8
0
 10
1253.945290458174
 20
614.98438314125497
 30
0.0
 40
100.0
 50
0.0
 51
90.000002999984659
  0
ARC
  5
9D74
  8
0
 10
1413.9452654581739
 20
454.98437814125498
 30
0.0
 40
5.0
 50
0.0
 51
90.000002999984659
  0
ARC
  5
9D75
  8
0
 10
1253.945290458174
 20
604.98438314125531
 30
0.0
 40
147.0
 50
45.402042999998812
 51
90.000002999984659
  0
ARC
  5
9D76
  8
0
 10
1253.945290458174
 20
604.98438314125531
 30
0.0
 40
142.0
 50
43.554364000004981
 51
90.000002999984659
  0
ARC
  5
9D77
  8
0
 10
1253.945290458174
 20
629.98438314125531
 30
0.0
 40
60.0
 50
270.0
 51
90.000002999984659
  0
ARC
  5
9D78
  8
0
 10
1253.945290458174
 20
536.98434814125505
 30
0.0
 40
117.0
 50
328.72670000000312
 51
0.0
  0
ARC
  5
9D79
  8
0
 10
1365.9452604581729
 20
471.98434814125511
 30
0.0
 40
12.0
 50
180.00001000000091
 51
270.0
  0
ARC
  5
9D7A
  8
0
 10
1289.456585458174
 20
638.74747314125511
 30
0.0
 40
93.0
 50
10.999999999999
 51
43.554364000004981
  0
ARC
  5
9D7B
  8
0
 10
1343.9452604581729
 20
431.98437814125509
 30
0.0
 40
5.0
 50
0.0
 51
90.000002999984659
  0
ARC
  5
9D7C
  8
0
 10
1353.9452604581729
 20
454.98437814125498
 30
0.0
 40
5.0
 50
90.000002999984659
 51
180.00001000000091
  0
ARC
  5
9D7D
  8
0
 10
1360.9452604581729
 20
680.91816814125491
 30
0.0
 40
10.0
 50
0.0
 51
30.536084999989679
  0
ARC
  5
9D7E
  8
0
 10
1286.9452604581729
 20
638.45078314125465
 30
0.0
 40
100.0
 50
0.0
 51
45.402042999998812
  0
ARC
  5
9D7F
  8
0
 10
1312.9546004581739
 20
455.98437814125458
 30
0.0
 40
10.0
 50
270.0
 51
305.00000000001791
  0
ARC
  5
9D80
  8
0
 10
1338.9452604581729
 20
435.84222814125508
 30
0.0
 40
10.0
 50
0.0
 51
45.000000999994349
  0
ARC
  5
9D81
  8
0
 10
1330.754770458173
 20
444.03271814125497
 30
0.0
 40
10.0
 50
45.000000999994349
 51
125.00000000001791
  0
CIRCLE
  5
9D82
  8
0
 10
1253.945290458174
 20
629.98438314125531
 30
0.0
 40
6.0
  0
CIRCLE
  5
9D83
  8
0
 10
1253.945290458174
 20
629.98438314125531
 30
0.0
 40
4.500000049999997
  0
ARC
  5
9D84
  8
0
 10
686.11685030609988
 20
749.98650076092883
 30
0.0
 40
2.0000000500000001
 50
91.999997999994051
 51
180.00001000000091
  0
ARC
  5
9D85
  8
0
 10
630.11690030610043
 20
699.26710076092866
 30
0.0
 40
2.0000000500000001
 50
179.999989999999
 51
270.0
  0
ARC
  5
9D86
  8
0
 10
626.11685030609965
 20
703.26710076092866
 30
0.0
 40
2.0000000500000001
 50
0.0
 51
90.000002999984659
  0
ARC
  5
9D87
  8
0
 10
666.11685030609988
 20
747.26710076092866
 30
0.0
 40
5.0
 50
90.000002999984659
 51
180.00001000000091
  0
ARC
  5
9D88
  8
0
 10
679.11685030609976
 20
732.71730076092854
 30
0.0
 40
5.0
 50
327.65255999999499
 51
0.0
  0
ARC
  5
9D89
  8
0
 10
679.61685030609965
 20
714.81695076092865
 30
0.0
 40
5.0
 50
147.65255999999471
 51
180.00001000000091
  0
ARC
  5
9D8A
  8
0
 10
626.11685030609965
 20
467.26708076092859
 30
0.0
 40
2.0000000500000001
 50
270.0
 51
0.0
  0
ARC
  5
9D8B
  8
0
 10
659.11685030609965
 20
699.26710076092866
 30
0.0
 40
2.0000000500000001
 50
270.0
 51
0.0
  0
ARC
  5
9D8C
  8
0
 10
630.11690030610043
 20
471.26711076092857
 30
0.0
 40
2.0000000500000001
 50
90.000002999984659
 51
180.00001000000091
  0
ARC
  5
9D8D
  8
0
 10
672.61690030610043
 20
699.26710076092866
 30
0.0
 40
2.0000000500000001
 50
270.0
 51
0.0
  0
CIRCLE
  5
9D8E
  8
0
 10
676.11685030609965
 20
778.26710076092866
 30
0.0
 40
15.0
  0
ARC
  5
9D8F
  8
0
 10
676.11685030609965
 20
778.26710076092866
 30
0.0
 40
25.000000499999999
 50
306.46671999999978
 51
233.53328999998459
  0
ARC
  5
9D90
  8
0
 10
666.83330030610068
 20
760.40720076092884
 30
0.0
 40
1.0
 50
101.21328999999341
 51
164.99998999999789
  0
ARC
  5
9D91
  8
0
 10
685.40050030610018
 20
760.40720076092884
 30
0.0
 40
1.0
 50
14.999999999994451
 51
78.786710000006536
  0
ARC
  5
9D92
  8
0
 10
657.69180030610005
 20
753.3368507609282
 30
0.0
 40
6.0
 50
349.72994999999929
 51
53.533291000005747
  0
ARC
  5
9D93
  8
0
 10
694.54185030609995
 20
753.3368507609282
 30
0.0
 40
6.0
 50
126.4666999999944
 51
190.2700600000052
  0
ARC
  5
9D94
  8
0
 10
626.11685030609965
 20
682.99430076092824
 30
0.0
 40
2.0000000500000001
 50
0.0
 51
90.000002999984659
  0
ARC
  5
9D95
  8
0
 10
626.11685030609965
 20
667.43795076092874
 30
0.0
 40
2.0000000500000001
 50
0.0
 51
90.000002999984659
  0
ARC
  5
9D96
  8
0
 10
626.11685030609965
 20
503.09624576092858
 30
0.0
 40
2.0000000500000001
 50
270.0
 51
0.0
  0
ARC
  5
9D97
  8
0
 10
626.11685030609965
 20
487.53987576092862
 30
0.0
 40
2.0000000500000001
 50
270.0
 51
0.0
  0
LINE
  5
9DA7
  8
0
  6
AM_ISO08W050
 10
1253.9452904581749
 20
431.2574027670891
 30
0.0
 11
1253.9452904581749
 21
805.98366814125552
 31
0.0
  0
LINE
  5
9DA8
  8
0
  6
AM_ISO08W050
 10
1121.445290458174
 20
464.6456331412553
 30
0.0
 11
1121.445290458174
 21
426.98437814125532
 31
0.0
  0
LINE
  5
9DA9
  8
0
  6
ACANSTGLM
 10
1111.9452604581741
 20
459.98437814125532
 30
0.0
 11
1111.9452604581741
 21
429.98437814125532
 31
0.0
  0
LINE
  5
9DAA
  8
0
  6
ACANSTGLM
 10
1130.9452604581741
 20
459.98437814125532
 30
0.0
 11
1130.9452604581741
 21
429.98437814125532
 31
0.0
  0
LINE
  5
9DAB
  8
0
  6
AM_ISO08W050
 10
1386.4452654581739
 20
464.6456331412553
 30
0.0
 11
1386.4452654581739
 21
426.98437814125532
 31
0.0
  0
LINE
  5
9DAC
  8
0
  6
ACANSTGLM
 10
1376.9452804581761
 20
459.98437814125532
 30
0.0
 11
1376.9452804581761
 21
429.98437814125532
 31
0.0
  0
LINE
  5
9DAD
  8
0
  6
ACANSTGLM
 10
1395.9452654581739
 20
459.98437814125532
 30
0.0
 11
1395.9452654581739
 21
429.98437814125532
 31
0.0
  0
LINE
  5
9DAE
  8
0
  6
AM_ISO08W050
 10
1342.0695062232201
 20
629.98438314125531
 30
0.0
 11
1165.821074693127
 21
629.98438314125531
 31
0.0
  0
LINE
  5
9DBB
  8
0
  6
AM_ISO08W050
 10
649.18707327267293
 20
629.98438314125531
 30
0.0
 11
943.10428144627997
 21
629.98438314125531
 31
0.0
  0
LINE
  5
9DBC
  8
0
  6
AM_ISO08W050
 10
641.11685030609988
 20
463.89224814125532
 30
0.0
 11
641.11685030609988
 21
426.98437814125532
 31
0.0
  0
LINE
  5
9DBD
  8
0
  6
ACANSTGLM
 10
650.61685030609965
 20
460.26711076092857
 30
0.0
 11
650.61685030609965
 21
430.26711076092857
 31
0.0
  0
LINE
  5
9DBE
  8
0
  6
ACANSTGLM
 10
631.61685030610079
 20
460.26711076092857
 30
0.0
 11
631.61685030610079
 21
430.26711076092857
 31
0.0
  0
LINE
  5
9DBF
  8
0
  6
AM_ISO08W050
 10
811.11685030609965
 20
463.89224814125532
 30
0.0
 11
811.11685030609965
 21
426.98437814125532
 31
0.0
  0
LINE
  5
9DC0
  8
0
  6
ACANSTGLM
 10
801.61685030609988
 20
460.26711076092857
 30
0.0
 11
801.61685030609988
 21
430.26711076092857
 31
0.0
  0
LINE
  5
9DC1
  8
0
  6
ACANSTGLM
 10
820.61685030609965
 20
460.26711076092857
 30
0.0
 11
820.61685030609965
 21
430.26711076092857
 31
0.0
  0
LINE
  5
9DC2
  8
0
  6
AM_ISO08W050
 10
668.73092036390528
 20
584.98438564125513
 30
0.0
 11
179.916632311304
 21
584.98438564125513
 31
0.0
  0
LINE
  5
B640
  8
0
 10
342.11690030610038
 20
581.98426364125521
 30
0.0
 11
342.11690030610038
 21
544.9294616412551
 31
0.0
  0
ARC
  5
B641
  8
0
 10
354.11690030610038
 20
633.44800864125511
 30
0.0
 40
2.0
 50
103.9145969999995
 51
180.00000899999949
  0
ARC
  5
B642
  8
0
 10
370.98958130610038
 20
645.67405264125512
 30
0.0
 40
10.0
 50
90.00000299999769
 51
107.64566599999689
  0
ARC
  5
B643
  8
0
 10
354.11690030610038
 20
648.70188464125522
 30
0.0
 40
2.0
 50
107.6456559999996
 51
180.00000899999949
  0
LINE
  5
B644
  8
0
 10
354.11683330610049
 20
635.50844964125497
 30
0.0
 11
353.63596330610039
 21
635.38931664125505
 31
0.0
  0
LINE
  5
B645
  8
0
 10
352.11690030610038
 20
629.37424764125512
 30
0.0
 11
352.11690030610038
 21
633.44800864125511
 31
0.0
  0
LINE
  5
B646
  8
0
 10
367.95829030610048
 20
655.20353364125515
 30
0.0
 11
353.51061530610048
 21
650.60778364125508
 31
0.0
  0
LINE
  5
B647
  8
0
 10
352.11690030610038
 20
643.82737264125512
 30
0.0
 11
352.11690030610038
 21
648.70188464125522
 31
0.0
  0
LINE
  5
B648
  8
0
 10
350.11690030610038
 20
573.14542564125509
 30
0.0
 11
350.11690030610038
 21
544.9294616412551
 31
0.0
  0
LINE
  5
B649
  8
0
 10
350.11690030610038
 20
657.58438564125515
 30
0.0
 11
350.11690030610038
 21
596.55588964125513
 31
0.0
  0
LINE
  5
B64A
  8
0
 10
342.11690030610038
 20
544.9294616412551
 30
0.0
 11
354.11683330610049
 21
544.9294616412551
 31
0.0
  0
LINE
  5
B64B
  8
0
 10
378.11695030610042
 20
457.43420364125512
 30
0.0
 11
356.11695030610031
 21
457.43420364125512
 31
0.0
  0
LINE
  5
B64C
  8
0
 10
378.11690030610049
 20
657.58438564125515
 30
0.0
 11
342.11690030610038
 21
657.58438564125515
 31
0.0
  0
LINE
  5
B64D
  8
0
 10
372.21979430610043
 20
452.73407964125511
 30
0.0
 11
593.01398430610016
 21
452.73407964125511
 31
0.0
  0
LINE
  5
B64E
  8
0
 10
377.11688830610052
 20
451.43438164125507
 30
0.0
 11
588.11688830610024
 21
451.43438164125507
 31
0.0
  0
ARC
  5
B64F
  8
0
 10
377.11688830610052
 20
453.43438164125507
 30
0.0
 40
2.0
 50
200.496600000001
 51
269.99999700000228
  0
ARC
  5
B650
  8
0
 10
372.21979430610043
 20
462.73407964125511
 30
0.0
 40
10.0
 50
238.90249299999979
 51
269.99999700000228
  0
LINE
  5
B651
  8
0
 10
615.11690030610043
 20
699.98439964125498
 30
0.0
 11
613.11692830610025
 21
699.99839764125511
 31
0.0
  0
LINE
  5
B652
  8
0
 10
613.11690030610043
 20
705.65804564125494
 30
0.0
 11
613.11690030610043
 21
689.5387536412552
 31
0.0
  0
LINE
  5
B653
  8
0
 10
597.27557830610044
 20
655.20355364125521
 30
0.0
 11
611.72322430610006
 21
650.60781364125512
 31
0.0
  0
LINE
  5
B654
  8
0
 10
596.98086430610044
 20
639.01062964125504
 30
0.0
 11
611.5978643061004
 21
635.38933764125522
 31
0.0
  0
LINE
  5
B655
  8
0
 10
596.61851230610023
 20
621.65768164125495
 30
0.0
 11
611.44803830610044
 21
619.16792364125513
 31
0.0
  0
LINE
  5
B656
  8
0
 10
596.21796630610049
 20
603.53518564125511
 30
0.0
 11
611.28580830610042
 21
602.25785364125522
 31
0.0
  0
LINE
  5
B657
  8
0
 10
541.11683330610049
 20
621.79572564125499
 30
0.0
 11
594.96272630610042
 21
621.79572564125499
 31
0.0
  0
LINE
  5
B658
  8
0
 10
613.11690030610043
 20
643.82737364125512
 30
0.0
 11
613.11690030610043
 21
648.70188364125511
 31
0.0
  0
LINE
  5
B659
  8
0
 10
613.11690030610043
 20
629.37424764125512
 30
0.0
 11
613.11690030610043
 21
633.448009641255
 31
0.0
  0
LINE
  5
B65A
  8
0
 10
613.11690030610043
 20
614.05710964125524
 30
0.0
 11
613.11690030610043
 21
617.19553764125521
 31
0.0
  0
LINE
  5
B65B
  8
0
 10
541.11683330610049
 20
614.05710964125524
 30
0.0
 11
610.11690030610043
 21
614.05710964125524
 31
0.0
  0
LINE
  5
B65C
  8
0
 10
541.11683330610049
 20
629.37424764125512
 30
0.0
 11
610.11690030610043
 21
629.37424764125512
 31
0.0
  0
LINE
  5
B65D
  8
0
 10
540.52431130610034
 20
643.82737364125512
 30
0.0
 11
610.11690030610043
 21
643.82737364125512
 31
0.0
  0
LINE
  5
B65E
  8
0
 10
543.81287030610031
 20
598.17408364125504
 30
0.0
 11
610.11690030610043
 21
598.17408364125504
 31
0.0
  0
LINE
  5
B65F
  8
0
 10
595.79641430610025
 20
587.05115764125503
 30
0.0
 11
611.67170230610043
 21
586.48339964125512
 31
0.0
  0
LINE
  5
B660
  8
0
 10
595.79634430610042
 20
587.05119764125504
 30
0.0
 11
550.33983630610044
 21
587.72000964125505
 31
0.0
  0
LINE
  5
B661
  8
0
 10
613.11690030610043
 20
598.17408364125504
 30
0.0
 11
613.11690030610043
 21
600.26502564125497
 31
0.0
  0
LINE
  5
B662
  8
0
 10
541.45842230610026
 20
603.57093364125512
 30
0.0
 11
595.37324830610044
 21
603.57093364125512
 31
0.0
  0
LINE
  5
B663
  8
0
 10
497.61690030610032
 20
671.82865364125496
 30
0.0
 11
497.61690030610032
 21
686.28962164125505
 31
0.0
  0
LINE
  5
B664
  8
0
 10
350.11690030610038
 20
657.13517364125505
 30
0.0
 11
615.11690030610043
 21
657.13517364125505
 31
0.0
  0
LINE
  5
B665
  8
0
 10
378.11690030610049
 20
670.82865364125507
 30
0.0
 11
593.90858830610023
 21
670.82865364125507
 31
0.0
  0
LINE
  5
B666
  8
0
 10
604.99757830610042
 20
667.22617564125505
 30
0.0
 11
615.11690030610043
 21
667.22617564125505
 31
0.0
  0
LINE
  5
B667
  8
0
 10
604.99752830610043
 20
667.22617564125505
 30
0.0
 11
597.55434030610047
 21
670.14037364125511
 31
0.0
  0
LINE
  5
B668
  8
0
 10
378.11690030610049
 20
687.28962164125505
 30
0.0
 11
593.57820430610047
 21
687.28962164125505
 31
0.0
  0
LINE
  5
B669
  8
0
 10
604.99756630610045
 20
682.9963736412551
 30
0.0
 11
597.80660630610043
 21
686.351691641255
 31
0.0
  0
LINE
  5
B66A
  8
0
 10
498.61690030610038
 20
682.99636364125513
 30
0.0
 11
615.11690030610043
 21
682.99636364125513
 31
0.0
  0
LINE
  5
B66B
  8
0
 10
378.11690030610049
 20
698.241191641255
 30
0.0
 11
593.36623030610042
 21
698.241191641255
 31
0.0
  0
LINE
  5
B66C
  8
0
 10
612.03476630610044
 20
689.8532356412552
 30
0.0
 11
597.95558430610015
 21
697.12585364125505
 31
0.0
  0
LINE
  5
B66D
  8
0
 10
613.11690030610043
 20
688.07631964125505
 30
0.0
 11
613.11690030610043
 21
682.99636364125513
 31
0.0
  0
LINE
  5
B66E
  8
0
 10
378.11690030610049
 20
706.98839964125523
 30
0.0
 11
593.20155630610043
 21
706.98839964125523
 31
0.0
  0
LINE
  5
B66F
  8
0
 10
598.06392230610038
 20
705.72662164125518
 30
0.0
 11
612.08935430610018
 21
697.92220564125523
 31
0.0
  0
LINE
  5
B670
  8
0
 10
378.11690030610049
 20
713.36089564125507
 30
0.0
 11
593.08424630610023
 21
713.36089564125507
 31
0.0
  0
LINE
  5
B671
  8
0
 10
612.12741030610016
 20
703.79889564125494
 30
0.0
 11
598.13691630610015
 21
711.99048364125508
 31
0.0
  0
LINE
  5
B672
  8
0
 10
378.11690030610049
 20
717.23469164125504
 30
0.0
 11
593.01399630610024
 21
717.23469164125504
 31
0.0
  0
LINE
  5
B673
  8
0
 10
612.14988630610026
 20
707.37065364125522
 30
0.0
 11
598.17897030610038
 21
715.79761964125487
 31
0.0
  0
LINE
  5
B674
  8
0
 10
378.11690030610049
 20
718.53438964125496
 30
0.0
 11
588.11690030610043
 21
718.53438964125496
 31
0.0
  0
LINE
  5
B675
  8
0
 10
466.61690030610032
 20
682.99636364125513
 30
0.0
 11
378.11690030610049
 21
682.99636364125513
 31
0.0
  0
LINE
  5
B676
  8
0
 10
467.61690030610032
 20
671.82865364125496
 30
0.0
 11
467.61690030610032
 21
686.28962164125505
 31
0.0
  0
LINE
  5
B677
  8
0
 10
471.11690030610009
 20
721.98438564125524
 30
0.0
 11
494.11690030610038
 21
721.98438564125524
 31
0.0
  0
LINE
  5
B678
  8
0
 10
471.11690030610009
 20
721.98438564125524
 30
0.0
 11
471.11690030610009
 21
718.53438964125496
 31
0.0
  0
LINE
  5
B679
  8
0
 10
494.11690030610038
 20
721.98438564125524
 30
0.0
 11
494.11690030610038
 21
718.53438964125496
 31
0.0
  0
ARC
  5
B67A
  8
0
 10
611.11690030610043
 20
600.26502564125497
 30
0.0
 40
2.0
 50
0.0
 51
85.154495999998488
  0
ARC
  5
B67B
  8
0
 10
611.11690030610043
 20
617.19553764125521
 30
0.0
 40
2.0
 50
0.0
 51
80.469389000002835
  0
ARC
  5
B67C
  8
0
 10
611.11690030610043
 20
633.448009641255
 30
0.0
 40
2.0
 50
0.0
 51
76.085411000000079
  0
ARC
  5
B67D
  8
0
 10
611.11690030610043
 20
648.70188364125511
 30
0.0
 40
2.0
 50
0.0
 51
72.354331999996703
  0
ARC
  5
B67E
  8
0
 10
594.24422030610049
 20
645.67405164125512
 30
0.0
 40
10.0
 50
72.354331999996703
 51
90.00000299999769
  0
ARC
  5
B67F
  8
0
 10
594.57613030610025
 20
629.30405764125499
 30
0.0
 40
10.0
 50
76.085411000000079
 51
90.00000299999769
  0
ARC
  5
B680
  8
0
 10
594.96272630610042
 20
611.7957256412551
 30
0.0
 40
10.0
 50
80.469389000002835
 51
90.00000299999769
  0
ARC
  5
B681
  8
0
 10
595.37324830610044
 20
593.57093364125512
 30
0.0
 40
10.0
 50
85.154495999998488
 51
90.00000299999769
  0
ARC
  5
B682
  8
0
 10
611.61812230610042
 20
584.98319564125495
 30
0.0
 40
1.498794
 50
0.04549800000434
 51
90.00000299999769
  0
ARC
  5
B683
  8
0
 10
593.90858830610023
 20
660.8286536412553
 30
0.0
 40
10.0
 50
68.618382000002711
 51
90.00000299999769
  0
ARC
  5
B684
  8
0
 10
593.57820430610047
 20
677.28962164125505
 30
0.0
 40
10.0
 50
64.9861420000001
 51
90.00000299999769
  0
ARC
  5
B685
  8
0
 10
593.36623030610042
 20
688.241191641255
 30
0.0
 40
10.0
 50
62.681328999998101
 51
90.00000299999769
  0
ARC
  5
B686
  8
0
 10
611.11690030610043
 20
688.07631964125505
 30
0.0
 40
2.0
 50
0.0
 51
62.681328999998101
  0
ARC
  5
B687
  8
0
 10
593.20155630610043
 20
696.98839964125523
 30
0.0
 40
10.0
 50
60.906360999999372
 51
90.00000299999769
  0
ARC
  5
B688
  8
0
 10
611.11690030610043
 20
696.17457164125517
 30
0.0
 40
2.0
 50
0.0
 51
60.906360999999372
  0
ARC
  5
B689
  8
0
 10
593.08424630610023
 20
703.36089564125507
 30
0.0
 40
10.0
 50
59.650561999998729
 51
90.00000299999769
  0
ARC
  5
B68A
  8
0
 10
611.11690030610043
 20
702.07299364125515
 30
0.0
 40
2.0
 50
0.0
 51
59.650561999998729
  0
ARC
  5
B68B
  8
0
 10
611.11690030610043
 20
705.65804564125494
 30
0.0
 40
2.0
 50
0.0
 51
58.902492999999822
  0
ARC
  5
B68C
  8
0
 10
593.01399630610024
 20
707.23469164125504
 30
0.0
 40
10.0
 50
58.902492999999822
 51
90.00000299999769
  0
ARC
  5
B68D
  8
0
 10
588.11690030610043
 20
716.53438964125519
 30
0.0
 40
2.0
 50
20.4965989999992
 51
90.00000299999769
  0
ARC
  5
B68E
  8
0
 10
498.61690030610038
 20
671.82865364125496
 30
0.0
 40
1.0
 50
179.9999949999995
 51
269.99999700000228
  0
ARC
  5
B68F
  8
0
 10
466.61690030610032
 20
671.82865364125496
 30
0.0
 40
1.0
 50
269.99999700000228
 51
0.0
  0
ARC
  5
B690
  8
0
 10
498.61690030610038
 20
681.99636364125513
 30
0.0
 40
1.0
 50
89.999998999998596
 51
180.00000899999949
  0
ARC
  5
B691
  8
0
 10
466.61690030610032
 20
681.99636364125513
 30
0.0
 40
1.0
 50
0.0
 51
90.00000299999769
  0
ARC
  5
B692
  8
0
 10
498.61690030610038
 20
686.28962164125505
 30
0.0
 40
1.0
 50
89.999998999998596
 51
180.00000899999949
  0
ARC
  5
B693
  8
0
 10
466.61690030610032
 20
686.28962164125505
 30
0.0
 40
1.0
 50
0.0
 51
90.00000299999769
  0
LINE
  5
B694
  8
0
 10
541.11683330610049
 20
639.30405764125521
 30
0.0
 11
594.57613030610025
 21
639.30405764125521
 31
0.0
  0
LINE
  5
B695
  8
0
 10
370.97240630610031
 20
655.67403764125515
 30
0.0
 11
594.24422030610049
 21
655.67403764125515
 31
0.0
  0
LINE
  5
B696
  8
0
 10
615.11690030610043
 20
469.98437164125511
 30
0.0
 11
613.11692830610025
 21
469.97037364125498
 31
0.0
  0
LINE
  5
B697
  8
0
 10
613.11690030610043
 20
464.31072564125509
 30
0.0
 11
613.11690030610043
 21
480.43001764125512
 31
0.0
  0
LINE
  5
B698
  8
0
 10
378.11695030610042
 20
514.29473364125511
 30
0.0
 11
594.24422030610049
 21
514.29473364125511
 31
0.0
  0
LINE
  5
B699
  8
0
 10
597.27557830610044
 20
514.76521764125505
 30
0.0
 11
611.72322430610006
 21
519.36095764125514
 31
0.0
  0
LINE
  5
B69A
  8
0
 10
596.98086430610044
 20
530.95814164125522
 30
0.0
 11
611.5978643061004
 21
534.57943364125504
 31
0.0
  0
LINE
  5
B69B
  8
0
 10
596.61851230610023
 20
548.31108964125519
 30
0.0
 11
611.44803830610044
 21
550.80084764125513
 31
0.0
  0
LINE
  5
B69C
  8
0
 10
596.21796630610049
 20
566.43358564125515
 30
0.0
 11
611.28580830610042
 21
567.71091764125515
 31
0.0
  0
LINE
  5
B69D
  8
0
 10
541.11683330610049
 20
548.17304564125504
 30
0.0
 11
594.96272630610042
 21
548.17304564125504
 31
0.0
  0
LINE
  5
B69E
  8
0
 10
613.11690030610043
 20
526.14139764125514
 30
0.0
 11
613.11690030610043
 21
521.26688764125515
 31
0.0
  0
LINE
  5
B69F
  8
0
 10
613.11690030610043
 20
540.59452364125514
 30
0.0
 11
613.11690030610043
 21
536.52076164125515
 31
0.0
  0
LINE
  5
B6A0
  8
0
 10
613.11690030610043
 20
555.91166164125514
 30
0.0
 11
613.11690030610043
 21
552.77323364125505
 31
0.0
  0
LINE
  5
B6A1
  8
0
 10
541.11683330610049
 20
555.91166164125514
 30
0.0
 11
610.11690030610043
 21
555.91166164125514
 31
0.0
  0
LINE
  5
B6A2
  8
0
 10
541.11683330610049
 20
540.59452364125514
 30
0.0
 11
610.11690030610043
 21
540.59452364125514
 31
0.0
  0
LINE
  5
B6A3
  8
0
 10
544.18423430610028
 20
571.79468764125522
 30
0.0
 11
610.11690030610043
 21
571.79468764125522
 31
0.0
  0
LINE
  5
B6A4
  8
0
 10
595.79641430610025
 20
582.91761364125523
 30
0.0
 11
611.67170230610043
 21
583.48537164125514
 31
0.0
  0
LINE
  5
B6A5
  8
0
 10
595.79634430610042
 20
582.91757364125476
 30
0.0
 11
550.38957630610025
 21
582.24949264125496
 31
0.0
  0
LINE
  5
B6A6
  8
0
 10
613.11690030610043
 20
571.79468764125522
 30
0.0
 11
613.11690030610043
 21
569.70374564125518
 31
0.0
  0
LINE
  5
B6A7
  8
0
 10
541.51906330610041
 20
566.39783764125514
 30
0.0
 11
595.37324830610044
 21
566.39783764125514
 31
0.0
  0
LINE
  5
B6A8
  8
0
 10
497.61690030610032
 20
498.14011764125507
 30
0.0
 11
497.61690030610032
 21
483.67914964125498
 31
0.0
  0
LINE
  5
B6A9
  8
0
 10
378.11695030610042
 20
512.83359764125521
 30
0.0
 11
615.11690030610043
 21
512.83359764125521
 31
0.0
  0
LINE
  5
B6AA
  8
0
 10
378.11695030610042
 20
499.14011764125502
 30
0.0
 11
593.90858830610023
 21
499.14011764125502
 31
0.0
  0
LINE
  5
B6AB
  8
0
 10
604.99757830610042
 20
502.74259564125498
 30
0.0
 11
615.11690030610043
 21
502.74259564125498
 31
0.0
  0
LINE
  5
B6AC
  8
0
 10
604.99752830610043
 20
502.74259564125498
 30
0.0
 11
597.55434030610047
 21
499.82839764125498
 31
0.0
  0
LINE
  5
B6AD
  8
0
 10
378.11695030610042
 20
482.67914964125521
 30
0.0
 11
593.57820430610047
 21
482.67914964125521
 31
0.0
  0
LINE
  5
B6AE
  8
0
 10
604.99756630610045
 20
486.9723976412551
 30
0.0
 11
597.80660630610043
 21
483.61707964125509
 31
0.0
  0
LINE
  5
B6AF
  8
0
 10
498.61690030610038
 20
486.97240764125507
 30
0.0
 11
615.11690030610043
 21
486.97240764125507
 31
0.0
  0
LINE
  5
B6B0
  8
0
 10
378.11695030610042
 20
471.72757964125498
 30
0.0
 11
593.36623030610042
 21
471.72757964125498
 31
0.0
  0
LINE
  5
B6B1
  8
0
 10
612.03476630610044
 20
480.11553564125512
 30
0.0
 11
597.95558430610015
 21
472.8429176412551
 31
0.0
  0
LINE
  5
B6B2
  8
0
 10
613.11690030610043
 20
481.89245164125498
 30
0.0
 11
613.11690030610043
 21
486.97240764125507
 31
0.0
  0
LINE
  5
B6B3
  8
0
 10
378.11695030610042
 20
462.98037164125509
 30
0.0
 11
593.20155630610043
 21
462.98037164125509
 31
0.0
  0
LINE
  5
B6B4
  8
0
 10
598.06392230610038
 20
464.24214964125508
 30
0.0
 11
612.08935430610018
 21
472.04656564125497
 31
0.0
  0
LINE
  5
B6B5
  8
0
 10
372.14954230610039
 20
456.60787564125508
 30
0.0
 11
593.08424630610023
 21
456.60787564125508
 31
0.0
  0
LINE
  5
B6B6
  8
0
 10
612.12741030610016
 20
466.16987564125498
 30
0.0
 11
598.13691630610015
 21
457.97828764125512
 31
0.0
  0
LINE
  5
B6B7
  8
0
 10
612.14988630610026
 20
462.59811764125499
 30
0.0
 11
598.17897030610038
 21
454.17115164125511
 31
0.0
  0
LINE
  5
B6B8
  8
0
 10
466.61690030610032
 20
486.97240764125507
 30
0.0
 11
378.11695030610042
 21
486.97240764125507
 31
0.0
  0
LINE
  5
B6B9
  8
0
 10
467.61690030610032
 20
498.14011764125507
 30
0.0
 11
467.61690030610032
 21
483.67914964125498
 31
0.0
  0
LINE
  5
B6BA
  8
0
 10
471.11690030610009
 20
447.98438564125507
 30
0.0
 11
494.11690030610038
 21
447.98438564125507
 31
0.0
  0
LINE
  5
B6BB
  8
0
 10
471.11690030610009
 20
447.98438564125507
 30
0.0
 11
471.11690030610009
 21
451.43438164125507
 31
0.0
  0
LINE
  5
B6BC
  8
0
 10
494.11690030610038
 20
447.98438564125507
 30
0.0
 11
494.11690030610038
 21
451.43438164125507
 31
0.0
  0
ARC
  5
B6BD
  8
0
 10
611.11690030610043
 20
569.70374564125518
 30
0.0
 40
2.0
 50
274.8455040000016
 51
0.0
  0
ARC
  5
B6BE
  8
0
 10
611.11690030610043
 20
552.77323364125505
 30
0.0
 40
2.0
 50
279.53061099999718
 51
0.0
  0
ARC
  5
B6BF
  8
0
 10
611.11690030610043
 20
536.52076164125515
 30
0.0
 40
2.0
 50
283.91458899999992
 51
0.0
  0
ARC
  5
B6C0
  8
0
 10
611.11690030610043
 20
521.26688764125515
 30
0.0
 40
2.0
 50
287.6456680000033
 51
0.0
  0
ARC
  5
B6C1
  8
0
 10
594.24422030610049
 20
524.29471964125514
 30
0.0
 40
10.0
 50
269.99999700000228
 51
287.6456680000033
  0
ARC
  5
B6C2
  8
0
 10
594.57613030610025
 20
540.66471364125505
 30
0.0
 40
10.0
 50
269.99999700000228
 51
283.91458899999992
  0
ARC
  5
B6C3
  8
0
 10
594.96272630610042
 20
558.17304564125504
 30
0.0
 40
10.0
 50
269.99999700000228
 51
279.53061099999718
  0
ARC
  5
B6C4
  8
0
 10
595.37324830610044
 20
576.39783764125514
 30
0.0
 40
10.0
 50
269.99999700000228
 51
274.8455040000016
  0
ARC
  5
B6C5
  8
0
 10
611.61812230610042
 20
584.98557564125508
 30
0.0
 40
1.498794
 50
272.04545800000011
 51
359.95450199999573
  0
ARC
  5
B6C6
  8
0
 10
593.90858830610023
 20
509.14011764125507
 30
0.0
 40
10.0
 50
269.99999700000228
 51
291.38161799999727
  0
ARC
  5
B6C7
  8
0
 10
593.57820430610047
 20
492.67914964125498
 30
0.0
 40
10.0
 50
269.99999700000228
 51
295.01385799999991
  0
ARC
  5
B6C8
  8
0
 10
593.36623030610042
 20
481.72757964125509
 30
0.0
 40
10.0
 50
269.99999700000228
 51
297.31867100000193
  0
ARC
  5
B6C9
  8
0
 10
611.11690030610043
 20
481.89245164125498
 30
0.0
 40
2.0
 50
297.31867100000193
 51
0.0
  0
ARC
  5
B6CA
  8
0
 10
593.20155630610043
 20
472.98037164125509
 30
0.0
 40
10.0
 50
269.99999700000228
 51
299.09363900000062
  0
ARC
  5
B6CB
  8
0
 10
611.11690030610043
 20
473.79419964125498
 30
0.0
 40
2.0
 50
299.09363900000062
 51
0.0
  0
ARC
  5
B6CC
  8
0
 10
593.08424630610023
 20
466.60787564125508
 30
0.0
 40
10.0
 50
269.99999700000228
 51
300.34943800000133
  0
ARC
  5
B6CD
  8
0
 10
611.11690030610043
 20
467.89577764125511
 30
0.0
 40
2.0
 50
300.34943800000133
 51
0.0
  0
ARC
  5
B6CE
  8
0
 10
611.11690030610043
 20
464.31072564125509
 30
0.0
 40
2.0
 50
301.09750700000012
 51
0.0
  0
ARC
  5
B6CF
  8
0
 10
593.01399630610024
 20
462.73407964125511
 30
0.0
 40
10.0
 50
269.99999700000228
 51
301.09750700000012
  0
ARC
  5
B6D0
  8
0
 10
588.11690030610043
 20
453.43438164125507
 30
0.0
 40
2.0
 50
269.99999700000228
 51
339.50340100000079
  0
ARC
  5
B6D1
  8
0
 10
498.61690030610038
 20
498.14011764125507
 30
0.0
 40
1.0
 50
90.00000299999769
 51
180.0000050000005
  0
ARC
  5
B6D2
  8
0
 10
466.61690030610032
 20
498.14011764125507
 30
0.0
 40
1.0
 50
0.0
 51
90.00000299999769
  0
ARC
  5
B6D3
  8
0
 10
498.61690030610038
 20
487.97240764125507
 30
0.0
 40
1.0
 50
179.99999100000039
 51
270.00000100000142
  0
ARC
  5
B6D4
  8
0
 10
466.61690030610032
 20
487.97240764125507
 30
0.0
 40
1.0
 50
269.99999700000228
 51
0.0
  0
ARC
  5
B6D5
  8
0
 10
498.61690030610038
 20
483.67914964125498
 30
0.0
 40
1.0
 50
179.99999100000039
 51
270.00000100000142
  0
ARC
  5
B6D6
  8
0
 10
466.61690030610032
 20
483.67914964125498
 30
0.0
 40
1.0
 50
269.99999700000228
 51
0.0
  0
LINE
  5
B6D7
  8
0
 10
541.11683330610049
 20
530.66471364125505
 30
0.0
 11
594.57613030610025
 21
530.66471364125505
 31
0.0
  0
LINE
  5
B6D8
  8
0
 10
541.00721930610041
 20
526.14139764125514
 30
0.0
 11
610.11690030610043
 21
526.14139764125514
 31
0.0
  0
LINE
  5
B6D9
  8
0
  6
AM_ISO08W050
 10
482.61689430610039
 20
536.11179864125495
 30
0.0
 11
482.61689430610039
 21
508.94936364125522
 31
0.0
  0
LINE
  5
B6DA
  8
0
 10
615.11690030610043
 20
705.26715076092876
 30
0.0
 11
615.11690030610043
 21
465.26711076092857
 31
0.0
  0
LINE
  5
B6DB
  8
0
 10
275.11690030610038
 20
721.85057464125521
 30
0.0
 11
378.11690030610049
 21
721.85077964125503
 31
0.0
  0
LINE
  5
B6DC
  8
0
 10
204.1169003061004
 20
508.63577164125508
 30
0.0
 11
204.1169003061004
 21
683.60627264125515
 31
0.0
  0
LINE
  5
B6DD
  8
0
 10
198.1169003061004
 20
487.47863864125509
 30
0.0
 11
198.1169003061004
 21
685.47614564125502
 31
0.0
  0
LINE
  5
B6DE
  8
0
 10
216.3451713061005
 20
705.39728864125505
 30
0.0
 11
216.3451713061005
 21
555.5995796412551
 31
0.0
  0
LINE
  5
B6DF
  8
0
 10
275.11690030610038
 20
587.9843966412551
 30
0.0
 11
275.11690030610038
 21
721.85057464125521
 31
0.0
  0
ARC
  5
B6E0
  8
0
 10
272.51680230610037
 20
719.42011564125505
 30
0.0
 40
0.6
 50
273.00006100000229
 51
0.0
  0
ARC
  5
B6E1
  8
0
 10
274.71699830610049
 20
719.25068164125514
 30
0.0
 40
1.6000000000000001
 50
75.526099999996745
 51
180.0
  0
LINE
  5
B6E2
  8
0
 10
205.17866830610041
 20
691.48078464125501
 30
0.0
 11
209.95210530610049
 21
709.93830364125495
 31
0.0
  0
ARC
  5
B6E3
  8
0
 10
217.6972223061004
 20
707.93513064125523
 30
0.0
 40
8.0
 50
93.000053000002623
 51
165.4999080000008
  0
ARC
  5
B6E4
  8
0
 10
199.61690030610029
 20
685.47614564125502
 30
0.0
 40
1.5
 50
91.884964000000949
 51
180.0
  0
ARC
  5
B6E5
  8
0
 10
199.36983030610051
 20
692.98322564125499
 30
0.0
 40
6.0
 50
271.88500999999673
 51
345.50021400000162
  0
LINE
  5
B6E6
  8
0
 10
272.5482963061005
 20
718.82075064125502
 30
0.0
 11
217.27852130610049
 21
715.92426564125503
 31
0.0
  0
LINE
  5
B6E7
  8
0
 10
275.11690030610038
 20
454.8506166412551
 30
0.0
 11
356.11695030610031
 21
454.85070064125512
 31
0.0
  0
LINE
  5
B6E8
  8
0
 10
275.11690030610038
 20
454.85059664125509
 30
0.0
 11
275.11690030610038
 21
581.98437464125504
 31
0.0
  0
LINE
  5
B6E9
  8
0
 10
216.3451713061005
 20
532.60469864125503
 30
0.0
 11
216.3451713061005
 21
467.34424864125498
 31
0.0
  0
LINE
  5
B6EA
  8
0
 10
205.17866830610041
 20
478.22034764125522
 30
0.0
 11
208.1169003061004
 21
466.85914164125512
 31
0.0
  0
ARC
  5
B6EB
  8
0
 10
274.71699830610049
 20
457.4506946412551
 30
0.0
 40
1.6000000000000001
 50
180.0
 51
284.4739000000032
  0
ARC
  5
B6EC
  8
0
 10
272.51680230610037
 20
457.28126064125507
 30
0.0
 40
0.6
 50
0.0
 51
86.999924000002295
  0
ARC
  5
B6ED
  8
0
 10
215.8620173061004
 20
468.86219364125509
 30
0.0
 40
8.0
 50
194.50007599999699
 51
267.00003099999992
  0
LINE
  5
B6EE
  8
0
 10
272.5482963061005
 20
457.8803816412551
 30
0.0
 11
215.4433163061004
 21
460.87317964125498
 31
0.0
  0
LINE
  5
B6EF
  8
0
 10
378.11690030610049
 20
721.85077964125503
 30
0.0
 11
378.11690030610049
 21
657.58438564125515
 31
0.0
  0
LINE
  5
B6F0
  8
0
 10
378.11695030610042
 20
515.29316264125487
 30
0.0
 11
378.11695030610042
 21
457.43420364125512
 31
0.0
  0
LINE
  5
B6F1
  8
0
 10
342.11690030610038
 20
657.58438564125515
 30
0.0
 11
342.11690030610038
 21
587.98426364125521
 31
0.0
  0
LINE
  5
B6F2
  8
0
 10
197.31660730610039
 20
484.51675464125498
 30
0.0
 11
197.31660730610039
 21
503.3504136412551
 31
0.0
  0
LINE
  5
B6F3
  8
0
 10
197.31660730610039
 20
503.3504136412551
 30
0.0
 11
198.11665630610051
 21
503.3504136412551
 31
0.0
  0
LINE
  5
B6F4
  8
0
 10
354.11683330610049
 20
606.75385564125497
 30
0.0
 11
354.11683330610049
 21
640.02448564125496
 31
0.0
  0
LINE
  5
B6F5
  8
0
 10
366.61683330610049
 20
652.52448564125496
 30
0.0
 11
528.61683330610049
 21
652.52448564125496
 31
0.0
  0
LINE
  5
B6F6
  8
0
 10
525.61683330610049
 20
644.55536964125508
 30
0.0
 11
369.61683330610049
 21
644.55536964125508
 31
0.0
  0
LINE
  5
B6F7
  8
0
 10
361.11683330610049
 20
636.05536964125508
 30
0.0
 11
361.11683330610049
 21
534.92402164125497
 31
0.0
  0
ARC
  5
B6F8
  8
0
 10
369.61683330610049
 20
636.05536964125508
 30
0.0
 40
8.5
 50
90.0
 51
180.0
  0
ARC
  5
B6F9
  8
0
 10
366.61683330610049
 20
640.02448564125496
 30
0.0
 40
12.5
 50
90.0
 51
180.0
  0
ARC
  5
B6FA
  8
0
 10
342.11683330610049
 20
614.00104864125512
 30
0.0
 40
19.0
 50
300.9777949999982
 51
0.0
  0
LINE
  5
B6FB
  8
0
  6
AM_ISO08W050
 10
354.61683330610049
 20
572.79499364125513
 30
0.0
 11
354.61683330610049
 21
595.01826064125521
 31
0.0
  0
ARC
  5
B6FC
  8
0
 10
359.61683330610049
 20
584.85065764125511
 30
0.0
 40
15.0
 50
120.9777979999991
 51
239.02220200000079
  0
ARC
  5
B6FD
  8
0
 10
339.11683330610049
 20
606.75385564125497
 30
0.0
 40
15.0
 50
313.10465999999877
 51
0.0
  0
LINE
  5
B6FE
  8
0
 10
354.11683330610049
 20
562.94745964125514
 30
0.0
 11
354.11683330610049
 21
527.79316264125487
 31
0.0
  0
ARC
  5
B6FF
  8
0
 10
339.11683330610049
 20
562.94745964125514
 30
0.0
 40
15.0
 50
0.0
 51
46.895329000001901
  0
ARC
  5
B700
  8
0
 10
342.11683330610049
 20
555.70014464125506
 30
0.0
 40
19.0
 50
0.0
 51
59.022189999997167
  0
LINE
  5
B701
  8
0
 10
366.61683330610049
 20
515.29316264125487
 30
0.0
 11
528.61683330610049
 21
515.29316264125487
 31
0.0
  0
LINE
  5
B702
  8
0
 10
369.61683330610049
 20
526.42402164125508
 30
0.0
 11
525.61683330610049
 21
526.42402164125508
 31
0.0
  0
ARC
  5
B703
  8
0
 10
369.61683330610049
 20
534.92402164125497
 30
0.0
 40
8.5
 50
180.0
 51
270.0
  0
ARC
  5
B704
  8
0
 10
366.61683330610049
 20
527.79316264125487
 30
0.0
 40
12.5
 50
180.0
 51
270.0
  0
LINE
  5
B705
  8
0
 10
541.11683330610049
 20
606.75385564125497
 30
0.0
 11
541.11683330610049
 21
640.02448564125496
 31
0.0
  0
LINE
  5
B706
  8
0
 10
534.11683330610049
 20
636.05536964125508
 30
0.0
 11
534.11683330610049
 21
534.92402164125497
 31
0.0
  0
LINE
  5
B707
  8
0
 10
541.11683330610049
 20
562.94745964125514
 30
0.0
 11
541.11683330610049
 21
527.79316264125487
 31
0.0
  0
ARC
  5
B708
  8
0
 10
556.11683330610026
 20
606.75385564125497
 30
0.0
 40
15.0
 50
180.0
 51
226.89534000000111
  0
ARC
  5
B709
  8
0
 10
553.11683330610015
 20
614.00104864125512
 30
0.0
 40
19.0
 50
180.0
 51
239.0222469999965
  0
ARC
  5
B70A
  8
0
 10
556.11683330610026
 20
562.94745964125514
 30
0.0
 40
15.0
 50
133.10467499999899
 51
180.0
  0
ARC
  5
B70B
  8
0
 10
553.11683330610015
 20
555.70014464125506
 30
0.0
 40
19.0
 50
120.9777450000001
 51
180.0
  0
LINE
  5
B70C
  8
0
  6
AM_ISO08W050
 10
540.61683330610015
 20
576.55097464125515
 30
0.0
 11
540.61683330610015
 21
594.39216164125514
 31
0.0
  0
ARC
  5
B70D
  8
0
 10
535.61683330610026
 20
584.85065764125511
 30
0.0
 40
15.0
 50
300.97784399999682
 51
59.022129000000739
  0
ARC
  5
B70E
  8
0
 10
528.61683330610049
 20
640.02448564125496
 30
0.0
 40
12.5
 50
0.0
 51
90.0
  0
ARC
  5
B70F
  8
0
 10
525.61683330610049
 20
636.05536964125508
 30
0.0
 40
8.5
 50
0.0
 51
90.0
  0
ARC
  5
B710
  8
0
 10
528.61683330610049
 20
527.79316264125487
 30
0.0
 40
12.5
 50
270.0
 51
0.0
  0
ARC
  5
B711
  8
0
 10
525.61683330610049
 20
534.92402164125497
 30
0.0
 40
8.5
 50
270.0
 51
0.0
  0
LINE
  5
B712
  8
0
 10
356.11695030610031
 20
457.43420364125512
 30
0.0
 11
356.11695030610031
 21
454.85070064125512
 31
0.0
  0
LINE
  5
B713
  8
0
 10
361.64474430610051
 20
457.43439564125498
 30
0.0
 11
367.0548183061004
 21
454.17115164125511
 31
0.0
  0
ARC
  5
B714
  8
0
 10
372.14954230610039
 20
466.60787564125508
 30
0.0
 40
10.0
 50
246.5414089999968
 51
270.00000299999761
  0
ARC
  5
B717
  8
0
 10
476.61689430610028
 20
725.28939364125517
 30
0.0
 40
3.999994999999998
 50
112.5229880000022
 51
179.999977999995
  0
ARC
  5
B718
  8
0
 10
488.61689430610039
 20
725.28939364125517
 30
0.0
 40
4.0
 50
0.0
 51
67.46979699999892
  0
ARC
  5
B719
  8
0
 10
482.61689430610039
 20
710.82039964125522
 30
0.0
 40
19.663599000000001
 50
67.475363999996873
 51
112.52499699999861
  0
ARC
  5
B71A
  8
0
 10
482.61689430610039
 20
742.98440064125521
 30
0.0
 40
20.5
 50
303.58634299999773
 51
236.41396600000081
  0
ARC
  5
B71B
  8
0
 10
469.61690930610041
 20
723.40738964125524
 30
0.0
 40
3.0
 50
0.0
 51
56.413954000001098
  0
ARC
  5
B71C
  8
0
 10
495.61689430610039
 20
723.40738964125524
 30
0.0
 40
3.000011999999999
 50
123.5861670000015
 51
179.999977999995
  0
CIRCLE
  5
B71D
  8
0
 10
482.61689430610039
 20
742.98440064125521
 30
0.0
 40
12.5
  0
LINE
  5
B71E
  8
0
 10
472.61690930610018
 20
725.28939364125517
 30
0.0
 11
472.61690930610018
 21
721.98438564125524
 31
0.0
  0
LINE
  5
B71F
  8
0
 10
492.61689430610039
 20
725.28939364125517
 30
0.0
 11
492.61689430610039
 21
721.98438564125524
 31
0.0
  0
LINE
  5
B720
  8
0
 10
490.14991430610041
 20
728.98438564125524
 30
0.0
 11
475.08491230610008
 21
728.98438564125524
 31
0.0
  0
ARC
  5
B721
  8
0
 10
325.11690030610038
 20
584.98427464125507
 30
0.0
 40
6.5
 50
202.6198650000035
 51
337.38013499999653
  0
ARC
  5
B722
  8
0
 10
325.11690030610038
 20
584.98427464125507
 30
0.0
 40
11.0
 50
193.1365589999983
 51
346.86344099999542
  0
ARC
  5
B723
  8
0
 10
325.11690030610038
 20
584.98425264125513
 30
0.0
 40
6.5
 50
22.619865000003461
 51
157.3801349999965
  0
ARC
  5
B724
  8
0
 10
325.11690030610038
 20
584.98425264125513
 30
0.0
 40
11.0
 50
13.136558999998311
 51
166.86344100000159
  0
LINE
  5
B725
  8
0
 10
309.61690030610038
 20
587.48425264125513
 30
0.0
 11
340.59844830610052
 21
587.48425264125513
 31
0.0
  0
LINE
  5
B726
  8
0
 10
309.61690030610038
 20
582.48427464125496
 30
0.0
 11
340.59844830610052
 21
582.48427464125496
 31
0.0
  0
LINE
  5
B727
  8
0
  6
AM_ISO08W050
 10
325.11690030610038
 20
570.73064764125513
 30
0.0
 11
325.11690030610038
 21
599.23787964125529
 31
0.0
  0
LINE
  5
B728
  8
0
 10
228.49345130610041
 20
577.54989064125505
 30
0.0
 11
200.99455030610039
 21
475.81174864125512
 31
0.0
  0
ARC
  5
B729
  8
0
 10
234.2856013061004
 20
575.98432464125494
 30
0.0
 40
12.0
 50
90.0
 51
164.8748879999994
  0
ARC
  5
B72A
  8
0
 10
234.2856013061004
 20
575.98432464125494
 30
0.0
 40
6.0
 50
90.0
 51
164.8748879999994
  0
LINE
  5
B72B
  8
0
 10
309.11688930610052
 20
587.98426364125521
 30
0.0
 11
234.24732830610029
 21
587.98426364125521
 31
0.0
  0
LINE
  5
B72C
  8
0
 10
309.61690030610038
 20
587.48425264125513
 30
0.0
 11
309.11688930610052
 21
587.98426364125521
 31
0.0
  0
LINE
  5
B72D
  8
0
 10
309.11688930610052
 20
581.98426364125521
 30
0.0
 11
234.25853830610049
 21
581.98426364125521
 31
0.0
  0
LINE
  5
B72E
  8
0
 10
309.61690030610038
 20
582.48427464125496
 30
0.0
 11
309.11688930610052
 21
581.98426364125521
 31
0.0
  0
LINE
  5
B72F
  8
0
 10
222.70130030610039
 20
579.11545664125515
 30
0.0
 11
195.2024003061004
 21
477.377314641255
 31
0.0
  0
LINE
  5
B730
  8
0
 10
193.2142163061003
 20
478.37048364125508
 30
0.0
 11
192.55698930610049
 21
477.9143546412551
 31
0.0
  0
LINE
  5
B731
  8
0
 10
192.55698930610049
 20
477.9143546412551
 30
0.0
 11
194.97665130610039
 21
474.42791864125508
 31
0.0
  0
LINE
  5
B732
  8
0
 10
193.2142163061003
 20
478.37048364125508
 30
0.0
 11
195.6338773061004
 21
474.88404764125511
 31
0.0
  0
ARC
  5
B733
  8
0
 10
198.0984753061004
 20
476.59453164125512
 30
0.0
 40
3.799999999999998
 50
216.32635400000021
 51
22.738533999997919
  0
ARC
  5
B734
  8
0
 10
198.0984753061004
 20
476.59453164125512
 30
0.0
 40
3.0
 50
164.8748879999994
 51
344.87488799999937
  0
ARC
  5
B735
  8
0
 10
199.36983030610051
 20
476.85175664125512
 30
0.0
 40
6.0
 50
14.5004039999992
 51
56.120363999999988
  0
LINE
  5
B736
  8
0
 10
343.09845930610038
 20
587.98426364125521
 30
0.0
 11
343.09845930610038
 21
581.98426364125521
 31
0.0
  0
LINE
  5
B737
  8
0
 10
341.09845930610038
 20
587.98426364125521
 30
0.0
 11
343.09845930610038
 21
587.98426364125521
 31
0.0
  0
LINE
  5
B738
  8
0
 10
341.09845930610038
 20
581.98426364125521
 30
0.0
 11
343.09845930610038
 21
581.98426364125521
 31
0.0
  0
LINE
  5
B739
  8
0
 10
340.59844830610052
 20
587.48425264125513
 30
0.0
 11
341.09845930610038
 21
587.98426364125521
 31
0.0
  0
LINE
  5
B73A
  8
0
 10
340.59844830610052
 20
582.48427464125496
 30
0.0
 11
341.09845930610038
 21
581.98426364125521
 31
0.0
  0
LINE
  5
B77A
  8
0
 10
1120.4452904581749
 20
630.98438564125513
 30
0.0
 11
1120.9452604581729
 21
630.98438564125513
 31
0.0
  0
LINE
  5
B77C
  8
0
 10
1120.4452904581749
 20
622.03795758943465
 30
0.0
 11
1120.4452904581749
 21
636.22199164125504
 31
0.0
  0
ARC
  5
B77D
  8
0
 10
1114.4452904581749
 20
636.22199164125504
 30
0.0
 40
6.0
 50
0.0
 51
63.49974400000616
  0
LINE
  5
B77E
  8
0
 10
1104.9355914581749
 20
649.53122764125487
 30
0.0
 11
1053.9890584581749
 21
523.43430364125516
 31
0.0
  0
LINE
  5
B77F
  8
0
 10
1055.3967724581751
 20
634.68894264125515
 30
0.0
 11
1055.3967724581751
 21
527.3069846412551
 31
0.0
  0
ARC
  5
B780
  8
0
 10
1109.5715774581749
 20
647.65818064125529
 30
0.0
 40
5.0
 50
68.000000000005642
 51
157.9999999999967
  0
LINE
  5
B781
  8
0
 10
1103.484663458175
 20
645.9399186412553
 30
0.0
 11
1104.9355914581749
 21
649.53122764125487
 31
0.0
  0
ARC
  5
B782
  8
0
 10
1101.630171458175
 20
646.68906464125507
 30
0.0
 40
2.0
 50
269.99978599999929
 51
337.9999999999967
  0
ARC
  5
B783
  8
0
 10
1114.0373974581751
 20
645.36460164125515
 30
0.0
 40
2.0
 50
217.99929799999489
 51
243.49931299999841
  0
ARC
  5
B784
  8
0
 10
1065.3967724581751
 20
634.68906464125507
 30
0.0
 40
10.0
 50
89.999961999998746
 51
180.0000459999994
  0
LINE
  5
B785
  8
0
 10
1101.630171458175
 20
644.68906464125496
 30
0.0
 11
1065.3967724581751
 21
644.68906464125496
 31
0.0
  0
LINE
  5
B786
  8
0
 10
1101.2912605057579
 20
523.49900064125518
 30
0.0
 11
1063.9924764581749
 21
523.49900064125518
 31
0.0
  0
ARC
  5
B787
  8
0
 10
1058.6250444581749
 20
521.56125664125511
 30
0.0
 40
5.0
 50
157.9999999999967
 51
248.00000000000571
  0
LINE
  5
B789
  8
0
 10
1060.4607374581749
 20
515.42685764125497
 30
0.0
 11
1056.7519974581751
 21
516.92527064125488
 31
0.0
  0
ARC
  5
B78A
  8
0
 10
1053.3967724581751
 20
527.3069846412551
 30
0.0
 40
2.0
 50
337.9999999999967
 51
359.99979600000029
  0
ARC
  5
B78B
  8
0
 10
1063.9924764581749
 20
521.49900064125495
 30
0.0
 40
2.0
 50
89.999992000001797
 51
97.999847000002802
  0
LINE
  5
B78C
  8
0
 10
1115.153120458175
 20
650.79575364125515
 30
0.0
 11
1111.444624458175
 21
652.29416764125517
 31
0.0
  0
LINE
  5
B78D
  8
0
 10
1117.1225014581751
 20
641.59158564125505
 30
0.0
 11
1113.1450634581749
 21
643.57468464125498
 31
0.0
  0
LINE
  5
B78E
  8
0
 10
1060.464872458175
 20
515.42518664125498
 30
0.0
 11
1115.153120458175
 21
650.79575364125515
 31
0.0
  0
LINE
  5
B879
  8
0
 10
1258.9452867612781
 20
761.99319914125522
 30
0.0
 11
1263.4233147612781
 21
761.10549914125522
 31
0.0
  0
LINE
  5
B87A
  8
0
 10
1244.467226761278
 20
761.10549914125522
 30
0.0
 11
1248.945254761278
 21
761.99325914125495
 31
0.0
  0
LINE
  5
B87B
  8
0
 10
1241.299256761278
 20
751.43949914125506
 30
0.0
 11
1243.6957407612781
 21
760.38333914125508
 31
0.0
  0
LINE
  5
B87C
  8
0
 10
1266.5912787612781
 20
751.43943914125521
 30
0.0
 11
1264.1947647612781
 21
760.38327914125523
 31
0.0
  0
LINE
  5
B87D
  8
0
 10
1258.9452867612781
 20
797.9843791412552
 30
0.0
 11
1258.9452867612781
 21
755.9843791412552
 31
0.0
  0
LINE
  5
B87E
  8
0
 10
1248.945254761278
 20
797.9843791412552
 30
0.0
 11
1248.945254761278
 21
755.9843791412552
 31
0.0
  0
ARC
  5
B87F
  8
0
 10
1246.945250761278
 20
755.9843791412552
 30
0.0
 40
2.0000000399999989
 50
270.0
 51
0.0
  0
ARC
  5
B880
  8
0
 10
1260.945254761278
 20
755.9843791412552
 30
0.0
 40
2.0000000399999989
 50
179.999989999999
 51
270.0
  0
ARC
  5
B881
  8
0
 10
1263.228824761278
 20
760.12449914125523
 30
0.0
 40
1.000000019999995
 50
15.000000000000719
 51
78.786709999994926
  0
ARC
  5
B882
  8
0
 10
1244.6616867612779
 20
760.12449914125523
 30
0.0
 40
1.000000019999995
 50
101.213290000005
 51
164.99998999999701
  0
ARC
  5
B883
  8
0
 10
1253.9452827612779
 20
797.9843791412552
 30
0.0
 40
4.9999996800000002
 50
359.999989999999
 51
179.999989999999
  0
LINE
  5
C3C9
  8
0
  6
AM_ISO08W050
 10
173.04464655087591
 20
1074.037774267066
 30
0.0
 11
939.73410030610023
 21
1074.037774267066
 31
0.0
  0
LINE
  5
C3CA
  8
0
  6
CONTINUOUS
 10
841.11691030610018
 20
1104.037774267066
 30
0.0
 11
847.11685030609988
 21
1104.037774267066
 31
0.0
  0
LINE
  5
C3CB
  8
0
  6
CONTINUOUS
 10
841.11691030610018
 20
1044.037774267066
 30
0.0
 11
847.11685030609988
 21
1044.037774267066
 31
0.0
  0
LINE
  5
C3CC
  8
0
  6
CONTINUOUS
 10
867.11685030609999
 20
1082.037774267066
 30
0.0
 11
867.11685030609999
 21
1066.0377142670659
 31
0.0
  0
LINE
  5
C3CD
  8
0
  6
CONTINUOUS
 10
847.11685030609988
 20
1046.537774267066
 30
0.0
 11
929.11685030609988
 21
1046.537774267066
 31
0.0
  0
LINE
  5
C3CE
  8
0
  6
CONTINUOUS
 10
929.11685030609988
 20
1101.537774267066
 30
0.0
 11
929.11685030609988
 21
1046.537774267066
 31
0.0
  0
LINE
  5
C3CF
  8
0
  6
CONTINUOUS
 10
847.11685030609988
 20
1104.037774267066
 30
0.0
 11
847.11685030609988
 21
1044.037774267066
 31
0.0
  0
LINE
  5
C3D0
  8
0
  6
CONTINUOUS
 10
847.11685030609988
 20
1101.537774267066
 30
0.0
 11
929.11685030609988
 21
1101.537774267066
 31
0.0
  0
LINE
  5
C3D1
  8
0
  6
CONTINUOUS
 10
776.11691030610029
 20
1231.1711942670661
 30
0.0
 11
776.11691030610029
 21
1202.626024267066
 31
0.0
  0
LINE
  5
C3D2
  8
0
  6
CONTINUOUS
 10
694.11691030610018
 20
1207.037774267066
 30
0.0
 11
719.1168503061009
 21
1206.164724267066
 31
0.0
  0
LINE
  5
C3D3
  8
0
  6
CONTINUOUS
 10
719.1168503061009
 20
1206.164724267066
 30
0.0
 11
723.26162030610078
 21
1202.020014267066
 31
0.0
  0
LINE
  5
C3D4
  8
0
  6
CONTINUOUS
 10
723.26162030610078
 20
1202.020014267066
 30
0.0
 11
772.95681030610035
 21
1200.284594267066
 31
0.0
  0
LINE
  5
C3D5
  8
0
  6
CONTINUOUS
 10
787.69808030609965
 20
1190.6333542670659
 30
0.0
 11
801.39608030610009
 21
1190.155024267066
 31
0.0
  0
LINE
  5
C3D6
  8
0
  6
CONTINUOUS
 10
699.11691030610029
 20
1224.096304267066
 30
0.0
 11
699.11691030610029
 21
1206.863154267066
 31
0.0
  0
LINE
  5
C3D7
  8
0
  6
CONTINUOUS
 10
816.83767030610045
 20
1173.768114267066
 30
0.0
 11
828.39608030610032
 21
1173.364494267066
 31
0.0
  0
LINE
  5
C3D8
  8
0
  6
CENTER
 10
797.08377030610075
 20
1206.537774267066
 30
0.0
 11
825.88510030609996
 21
1206.537774267066
 31
0.0
  0
LINE
  5
C3D9
  8
0
  6
CONTINUOUS
 10
694.11691030610018
 20
1207.037774267066
 30
0.0
 11
694.11691030610018
 21
1079.037774267066
 31
0.0
  0
LINE
  5
C3DA
  8
0
  6
CONTINUOUS
 10
841.11691030610018
 20
1229.2505442670661
 30
0.0
 11
841.11691030610018
 21
1178.824944267066
 31
0.0
  0
LINE
  5
C3DB
  8
0
  6
CONTINUOUS
 10
838.04708030609982
 20
1134.144944267066
 30
0.0
 11
839.18667030610072
 21
1134.1051542670659
 31
0.0
  0
LINE
  5
C3DC
  8
0
  6
CONTINUOUS
 10
611.11691030610007
 20
1231.136284267066
 30
0.0
 11
611.1169103061012
 21
1198.3340875765459
 31
0.0
  0
LINE
  5
C3DD
  8
0
  6
CONTINUOUS
 10
841.11691030610018
 20
1132.106374267066
 30
0.0
 11
841.11691030610018
 21
1015.969164267066
 31
0.0
  0
LINE
  5
C3DE
  8
0
  6
CONTINUOUS
 10
836.11691030610029
 20
1171.4087442670659
 30
0.0
 11
836.11691030610029
 21
976.66680426706637
 31
0.0
  0
LINE
  5
C3DF
  8
0
  6
CONTINUOUS
 10
699.11685030610079
 20
1239.0377342670661
 30
0.0
 11
836.29135030610007
 21
1234.2475342670659
 31
0.0
  0
LINE
  5
C3E0
  8
0
  6
CONTINUOUS
 10
699.11691030610029
 20
1239.0377342670661
 30
0.0
 11
615.9423503060998
 21
1236.133234267066
 31
0.0
  0
LINE
  5
C3E1
  8
0
  6
CENTER
 10
627.14895030610023
 20
1206.537774267066
 30
0.0
 11
655.29202030610043
 21
1206.537774267066
 31
0.0
  0
LINE
  5
C3E2
  8
0
  6
CENTER
 10
641.11691030610007
 20
1220.946524267066
 30
0.0
 11
641.11691030610007
 21
1191.816034267066
 31
0.0
  0
LINE
  5
C3E3
  8
0
  6
CENTER
 10
811.11691030610029
 20
1221.069994267066
 30
0.0
 11
811.11691030610029
 21
1192.2686042670659
 31
0.0
  0
LINE
  5
C3E4
  8
0
  6
CONTINUOUS
 10
670.11685030610067
 20
1225.8644342670659
 30
0.0
 11
697.1169703061006
 21
1216.3180442670659
 31
0.0
  0
LINE
  5
C3E5
  8
0
  6
CONTINUOUS
 10
666.65310030610021
 20
1237.695734267066
 30
0.0
 11
697.11691030610029
 21
1226.9246742670659
 31
0.0
  0
LINE
  5
C3E6
  8
0
  6
CENTER
 10
811.11691030610029
 20
925.75725426706629
 30
0.0
 11
811.11691030610029
 21
956.84758426706628
 31
0.0
  0
LINE
  5
C3E7
  8
0
  6
CENTER
 10
641.11691030610007
 20
924.78563426706626
 30
0.0
 11
641.11691030610007
 21
956.36180426706608
 31
0.0
  0
LINE
  5
C3E8
  8
0
  6
CENTER
 10
627.26919030610043
 20
941.53777426706631
 30
0.0
 11
656.41641030610037
 21
941.53777426706631
 31
0.0
  0
LINE
  5
C3E9
  8
0
  6
CONTINUOUS
 10
699.11685030610079
 20
909.0377742670662
 30
0.0
 11
615.9423503060998
 21
911.94225426706635
 31
0.0
  0
LINE
  5
C3EA
  8
0
  6
CONTINUOUS
 10
699.11691030610029
 20
909.03771426706624
 30
0.0
 11
836.29141030610026
 21
913.8279942670664
 31
0.0
  0
LINE
  5
C3EB
  8
0
  6
CONTINUOUS
 10
611.11691030610007
 20
916.93926426706605
 30
0.0
 11
611.11691030610007
 21
949.88306029229818
 31
0.0
  0
LINE
  5
C3EC
  8
0
  6
CONTINUOUS
 10
838.04708030609982
 20
1013.930594267066
 30
0.0
 11
839.1867303061008
 21
1013.970384267066
 31
0.0
  0
LINE
  5
C3ED
  8
0
  6
CONTINUOUS
 10
841.11691030610018
 20
918.82494426706603
 30
0.0
 11
841.11691030610018
 21
969.25054426706606
 31
0.0
  0
LINE
  5
C3EE
  8
0
  6
CENTER
 10
796.56576030609995
 20
941.53777426706631
 30
0.0
 11
825.71298030609989
 21
941.53777426706631
 31
0.0
  0
LINE
  5
C3EF
  8
0
  6
CONTINUOUS
 10
809.11691030610018
 20
965.91564426706634
 30
0.0
 11
809.11691030610018
 21
1182.1598442670661
 31
0.0
  0
LINE
  5
C3F0
  8
0
  6
CONTINUOUS
 10
816.83773030610064
 20
974.30736426706619
 30
0.0
 11
828.39608030610032
 21
974.71098426706635
 31
0.0
  0
LINE
  5
C3F1
  8
0
  6
CONTINUOUS
 10
787.69808030609965
 20
957.44219426706604
 30
0.0
 11
801.39614030610028
 21
957.92052426706618
 31
0.0
  0
LINE
  5
C3F2
  8
0
  6
CONTINUOUS
 10
723.26162030610078
 20
946.05553426706638
 30
0.0
 11
772.95687030610031
 21
947.79088426706608
 31
0.0
  0
LINE
  5
C3F3
  8
0
  6
CONTINUOUS
 10
719.11691030610018
 20
941.91075426706618
 30
0.0
 11
723.26168030610006
 21
946.05547426706619
 31
0.0
  0
LINE
  5
C3F4
  8
0
  6
CONTINUOUS
 10
694.1168503061009
 20
941.03777426706631
 30
0.0
 11
719.11691030610018
 21
941.91075426706618
 31
0.0
  0
LINE
  5
C3F5
  8
0
  6
CONTINUOUS
 10
666.65316030610018
 20
910.37975426706635
 30
0.0
 11
697.11691030610029
 21
921.15074426706633
 31
0.0
  0
LINE
  5
C3F6
  8
0
  6
CONTINUOUS
 10
670.11691030610007
 20
922.2110542670664
 30
0.0
 11
697.11691030610029
 21
931.75743426706629
 31
0.0
  0
LINE
  5
C3F7
  8
0
  6
CONTINUOUS
 10
699.11691030610029
 20
923.97917426706636
 30
0.0
 11
699.11691030610029
 21
941.21233426706624
 31
0.0
  0
LINE
  5
C3F8
  8
0
  6
CONTINUOUS
 10
776.11691030610029
 20
916.90428426706626
 30
0.0
 11
776.11691030610029
 21
945.44951426706598
 31
0.0
  0
LINE
  5
C3F9
  8
0
  6
CONTINUOUS
 10
719.1168503061009
 20
941.91075426706618
 30
0.0
 11
719.1168503061009
 21
1206.164724267066
 31
0.0
  0
LINE
  5
C3FA
  8
0
  6
CONTINUOUS
 10
867.11691030610018
 20
1066.0377142670659
 30
0.0
 11
929.11685030609988
 21
1066.0377142670659
 31
0.0
  0
LINE
  5
C3FB
  8
0
  6
CONTINUOUS
 10
867.11691030610018
 20
1082.037774267066
 30
0.0
 11
929.11685030609988
 21
1082.037774267066
 31
0.0
  0
LINE
  5
C3FC
  8
0
  6
CONTINUOUS
 10
694.11691030610018
 20
941.03777426706631
 30
0.0
 11
687.01217030610042
 21
941.28587426706622
 31
0.0
  0
LINE
  5
C3FD
  8
0
  6
CONTINUOUS
 10
694.1168503061009
 20
1207.037774267066
 30
0.0
 11
687.01217030610042
 21
1206.789664267066
 31
0.0
  0
LINE
  5
C3FE
  8
0
  6
CENTER
 10
676.11691030610018
 20
1058.857474267066
 30
0.0
 11
676.11691030610018
 21
1088.592334267066
 31
0.0
  0
LINE
  5
C3FF
  8
0
  6
CONTINUOUS
 10
656.11691030610007
 20
1069.037774267066
 30
0.0
 11
696.11691030610029
 21
1069.037774267066
 31
0.0
  0
LINE
  5
C400
  8
0
  6
CONTINUOUS
 10
656.11691030610007
 20
1079.037774267066
 30
0.0
 11
696.11691030610029
 21
1079.037774267066
 31
0.0
  0
LINE
  5
C401
  8
0
  6
CONTINUOUS
 10
694.11691030610018
 20
1069.037774267066
 30
0.0
 11
694.11691030610018
 21
941.03777426706631
 31
0.0
  0
LINE
  5
C402
  8
0
  6
CONTINUOUS
 10
616.09579030609973
 20
999.60082426706629
 30
0.0
 11
627.12466030610074
 21
999.60082426706629
 31
0.0
  0
LINE
  5
C403
  8
0
  6
CONTINUOUS
 10
615.11691030610007
 20
989.8668742670659
 30
0.0
 11
626.11691030610018
 21
989.8668742670659
 31
0.0
  0
LINE
  5
C404
  8
0
  6
CONTINUOUS
 10
615.11691030610007
 20
974.31053426706626
 30
0.0
 11
626.11691030610018
 21
974.31053426706626
 31
0.0
  0
LINE
  5
C405
  8
0
  6
CONTINUOUS
 10
615.11691030610007
 20
1158.208604267066
 30
0.0
 11
626.11691030610018
 21
1158.208604267066
 31
0.0
  0
LINE
  5
C406
  8
0
  6
CONTINUOUS
 10
615.11691030610007
 20
1173.7649442670661
 30
0.0
 11
626.11691030610018
 21
1173.7649442670661
 31
0.0
  0
LINE
  5
C407
  8
0
  6
CONTINUOUS
 10
616.09579030609973
 20
1148.474724267066
 30
0.0
 11
627.12466030610074
 21
1148.474724267066
 31
0.0
  0
LINE
  5
C408
  8
0
  6
CONTINUOUS
 10
630.11691030610018
 20
962.0377742670662
 30
0.0
 11
682.11685030610079
 21
962.0377742670662
 31
0.0
  0
LINE
  5
C409
  8
0
  6
CONTINUOUS
 10
628.11685030610079
 20
1192.037774267066
 30
0.0
 11
628.11685030610079
 21
956.03777426706608
 31
0.0
  0
LINE
  5
C40A
  8
0
  6
CONTINUOUS
 10
615.11691030610007
 20
1194.037774267066
 30
0.0
 11
615.11691030610007
 21
954.0377742670662
 31
0.0
  0
LINE
  5
C40B
  8
0
  6
CONTINUOUS
 10
630.11691030610018
 20
1186.0377142670659
 30
0.0
 11
682.11685030610079
 21
1186.0377142670659
 31
0.0
  0
LINE
  5
C40C
  8
0
  6
CONTINUOUS
 10
615.11691030610007
 20
954.0377742670662
 30
0.0
 11
626.11691030610018
 21
954.0377742670662
 31
0.0
  0
LINE
  5
C40D
  8
0
  6
CONTINUOUS
 10
615.11691030610007
 20
1194.037774267066
 30
0.0
 11
626.11691030610018
 21
1194.037774267066
 31
0.0
  0
LINE
  5
C40E
  8
0
  6
CONTINUOUS
 10
628.11685030610079
 20
1160.7126342670661
 30
0.0
 11
674.61691030610007
 21
1160.7126342670661
 31
0.0
  0
LINE
  5
C40F
  8
0
  6
CONTINUOUS
 10
628.11685030610079
 20
1144.970574267066
 30
0.0
 11
674.61691030610007
 21
1144.970574267066
 31
0.0
  0
LINE
  5
C410
  8
0
  6
CONTINUOUS
 10
628.11685030610079
 20
1003.104914267066
 30
0.0
 11
674.61691030610007
 21
1003.104914267066
 31
0.0
  0
LINE
  5
C411
  8
0
  6
CONTINUOUS
 10
628.11685030610079
 20
987.36284426706618
 30
0.0
 11
674.61691030610007
 21
987.36284426706618
 31
0.0
  0
LINE
  5
C412
  8
0
  6
CONTINUOUS
 10
684.11685030609965
 20
944.28404426706629
 30
0.0
 11
684.11685030609965
 21
1051.037774267066
 31
0.0
  0
LINE
  5
C413
  8
0
  6
CONTINUOUS
 10
682.65243030610065
 20
963.50218426706635
 30
0.0
 11
676.08139030609982
 21
970.07323426706625
 31
0.0
  0
LINE
  5
C414
  8
0
  6
CONTINUOUS
 10
676.08132030610068
 20
1178.0022442670661
 30
0.0
 11
682.65237030610024
 21
1184.5732942670661
 31
0.0
  0
LINE
  5
C415
  8
0
  6
CONTINUOUS
 10
674.61691030610007
 20
973.60881426706635
 30
0.0
 11
674.61691030610007
 21
1055.1234642670661
 31
0.0
  0
LINE
  5
C416
  8
0
  6
CONTINUOUS
 10
684.11685030609965
 20
1097.037774267066
 30
0.0
 11
684.11685030609965
 21
1203.7914942670659
 31
0.0
  0
LINE
  5
C417
  8
0
  6
CONTINUOUS
 10
674.61691030610007
 20
1092.952014267066
 30
0.0
 11
674.61691030610007
 21
1174.466724267066
 31
0.0
  0
ARC
  5
C418
  8
0
  6
CONTINUOUS
 10
801.11691030610029
 20
1182.1598442670661
 30
0.0
 40
8.0
 50
0.0
 51
87.999999999996476
  0
ARC
  5
C419
  8
0
  6
CONTINUOUS
 10
817.11691030610018
 20
1181.7632342670661
 30
0.0
 40
8.0
 50
180.000010000001
 51
267.99999999999648
  0
ARC
  5
C41A
  8
0
  6
CONTINUOUS
 10
669.11691030610007
 20
1223.0360042670659
 30
0.0
 40
3.0
 50
70.527973000001808
 51
180.000010000001
  0
ARC
  5
C41B
  8
0
  6
CONTINUOUS
 10
828.11691030610029
 20
1165.369374267066
 30
0.0
 40
8.0
 50
0.0
 51
87.999999999996476
  0
ARC
  5
C41C
  8
0
  6
CONTINUOUS
 10
781.11691030610018
 20
1231.1711942670661
 30
0.0
 40
5.0
 50
87.999999999996476
 51
180.000010000001
  0
CIRCLE
  5
C41D
  8
0
  6
CONTINUOUS
 10
641.11691030610007
 20
1206.537774267066
 30
0.0
 40
9.5
  0
ARC
  5
C41E
  8
0
  6
CONTINUOUS
 10
839.11691030610018
 20
1132.106374267066
 30
0.0
 40
2.0
 50
0.0
 51
87.999999999996476
  0
ARC
  5
C41F
  8
0
  6
CONTINUOUS
 10
838.11691030610029
 20
1136.1437242670661
 30
0.0
 40
2.0
 50
180.000010000001
 51
267.99999999999648
  0
ARC
  5
C420
  8
0
  6
CONTINUOUS
 10
616.11691030610007
 20
1231.136284267066
 30
0.0
 40
5.0
 50
91.999997999994306
 51
180.000010000001
  0
ARC
  5
C421
  8
0
  6
CONTINUOUS
 10
836.11691030610029
 20
1229.2505442670661
 30
0.0
 40
5.0
 50
0.0
 51
87.999999999996476
  0
ARC
  5
C422
  8
0
  6
CONTINUOUS
 10
836.11691030610029
 20
1178.824944267066
 30
0.0
 40
5.0
 50
292.02431000000541
 51
0.0
  0
CIRCLE
  5
C423
  8
0
  6
CONTINUOUS
 10
811.11691030610029
 20
1206.537774267066
 30
0.0
 40
9.5
  0
ARC
  5
C424
  8
0
  6
CONTINUOUS
 10
696.11691030610029
 20
1213.4896142670659
 30
0.0
 40
3.0
 50
0.0
 51
70.527973000001808
  0
ARC
  5
C425
  8
0
  6
CONTINUOUS
 10
696.11691030610029
 20
1224.096304267066
 30
0.0
 40
3.0
 50
0.0
 51
70.527973000001808
  0
CIRCLE
  5
C426
  8
0
  6
CONTINUOUS
 10
811.11691030610029
 20
941.53777426706631
 30
0.0
 40
9.5
  0
ARC
  5
C427
  8
0
  6
CONTINUOUS
 10
836.11691030610029
 20
969.25054426706606
 30
0.0
 40
5.0
 50
0.0
 51
67.975688999975844
  0
ARC
  5
C428
  8
0
  6
CONTINUOUS
 10
836.11691030610029
 20
918.82494426706603
 30
0.0
 40
5.0
 50
272.00000000000352
 51
0.0
  0
ARC
  5
C429
  8
0
  6
CONTINUOUS
 10
616.11691030610007
 20
916.93926426706605
 30
0.0
 40
5.0
 50
180.000010000001
 51
267.99999999999648
  0
ARC
  5
C42A
  8
0
  6
CONTINUOUS
 10
838.11691030610029
 20
1011.931814267066
 30
0.0
 40
2.0
 50
91.999997999994306
 51
180.000010000001
  0
ARC
  5
C42B
  8
0
  6
CONTINUOUS
 10
839.11691030610018
 20
1015.969164267066
 30
0.0
 40
2.0
 50
272.00000000000352
 51
0.0
  0
CIRCLE
  5
C42C
  8
0
  6
CONTINUOUS
 10
641.11691030610007
 20
941.53777426706631
 30
0.0
 40
9.5
  0
ARC
  5
C42D
  8
0
  6
CONTINUOUS
 10
839.11691030610018
 20
1171.4087442670659
 30
0.0
 40
3.0
 50
112.0243100000053
 51
180.000010000001
  0
ARC
  5
C42E
  8
0
  6
CONTINUOUS
 10
839.11691030610018
 20
976.66680426706637
 30
0.0
 40
3.0
 50
180.000010000001
 51
247.9756899999947
  0
ARC
  5
C42F
  8
0
  6
CONTINUOUS
 10
828.11691030610029
 20
982.70610426706628
 30
0.0
 40
8.0
 50
272.00000000000352
 51
0.0
  0
ARC
  5
C430
  8
0
  6
CONTINUOUS
 10
817.11691030610018
 20
966.31224426706615
 30
0.0
 40
8.0
 50
91.999997999994306
 51
180.000010000001
  0
ARC
  5
C431
  8
0
  6
CONTINUOUS
 10
801.11691030610029
 20
965.91564426706634
 30
0.0
 40
8.0
 50
272.00000000000352
 51
0.0
  0
ARC
  5
C432
  8
0
  6
CONTINUOUS
 10
696.11691030610029
 20
923.97917426706636
 30
0.0
 40
3.0
 50
289.47201999997509
 51
0.0
  0
ARC
  5
C433
  8
0
  6
CONTINUOUS
 10
696.11691030610029
 20
934.58586426706609
 30
0.0
 40
3.0
 50
289.47201999997509
 51
0.0
  0
ARC
  5
C434
  8
0
  6
CONTINUOUS
 10
781.11691030610018
 20
916.90428426706626
 30
0.0
 40
5.0
 50
180.000010000001
 51
271.99999000000759
  0
ARC
  5
C435
  8
0
  6
CONTINUOUS
 10
669.11691030610007
 20
925.03948426706631
 30
0.0
 40
3.0
 50
180.000010000001
 51
289.47202999997052
  0
ARC
  5
C436
  8
0
  6
CONTINUOUS
 10
788.11691030610029
 20
1202.626024267066
 30
0.0
 40
12.0
 50
180.000010000001
 51
267.99999999999648
  0
ARC
  5
C437
  8
0
  6
CONTINUOUS
 10
772.78231030610004
 20
1195.2876442670661
 30
0.0
 40
5.0
 50
25.573516999983941
 51
87.999999999996476
  0
ARC
  5
C438
  8
0
  6
CONTINUOUS
 10
788.11691030610029
 20
945.44951426706598
 30
0.0
 40
12.0
 50
91.999997999994306
 51
180.000010000001
  0
ARC
  5
C439
  8
0
  6
CONTINUOUS
 10
772.78231030610004
 20
952.78789426706635
 30
0.0
 40
5.0
 50
272.00000000000352
 51
334.42647999998837
  0
ARC
  5
C43A
  8
0
  6
CONTINUOUS
 10
867.11691030610018
 20
1074.0377142670659
 30
0.0
 40
8.0000113999999982
 50
90.000002999984659
 51
270.0
  0
ARC
  5
C43B
  8
0
  6
CONTINUOUS
 10
676.11691030610018
 20
1074.037774267066
 30
0.0
 40
15.0
 50
90.000145999983417
 51
160.5287699999848
  0
ARC
  5
C43C
  8
0
  6
CONTINUOUS
 10
676.11691030610018
 20
1074.037774267066
 30
0.0
 40
12.5
 50
23.578179999997541
 51
156.42182000000241
  0
ARC
  5
C43D
  8
0
  6
CONTINUOUS
 10
656.11691030610007
 20
1074.037774267066
 30
0.0
 40
5.0
 50
90.000002999984659
 51
270.0
  0
ARC
  5
C43E
  8
0
  6
CONTINUOUS
 10
696.11691030610029
 20
1074.037774267066
 30
0.0
 40
5.0
 50
270.0
 51
90.000002999984659
  0
ARC
  5
C43F
  8
0
  6
CONTINUOUS
 10
676.11691030610018
 20
1074.037774267066
 30
0.0
 40
12.5
 50
203.5781799999975
 51
336.42183000002109
  0
ARC
  5
C440
  8
0
  6
CONTINUOUS
 10
676.11691030610018
 20
1074.037774267066
 30
0.0
 40
15.0
 50
199.47123000001511
 51
269.99984999998492
  0
ARC
  5
C441
  8
0
  6
CONTINUOUS
 10
626.11691030610018
 20
976.31047426706607
 30
0.0
 40
2.0
 50
269.999989999999
 51
0.0000006832429909
  0
ARC
  5
C442
  8
0
  6
CONTINUOUS
 10
626.11691030610018
 20
991.86687426706635
 30
0.0
 40
2.0
 50
269.999989999999
 51
0.0000006832429909
  0
ARC
  5
C443
  8
0
  6
CONTINUOUS
 10
626.11691030610018
 20
1156.2085442670659
 30
0.0
 40
2.0
 50
0.0
 51
90.000002999984659
  0
ARC
  5
C444
  8
0
  6
CONTINUOUS
 10
626.11691030610018
 20
1171.7649442670661
 30
0.0
 40
2.0
 50
0.0
 51
90.000002999984659
  0
ARC
  5
C445
  8
0
  6
CONTINUOUS
 10
630.11691030610018
 20
1188.0377142670659
 30
0.0
 40
2.0
 50
179.999989999999
 51
270.0
  0
ARC
  5
C446
  8
0
  6
CONTINUOUS
 10
626.11691030610018
 20
1192.037774267066
 30
0.0
 40
2.0
 50
0.0
 51
90.000002999984659
  0
ARC
  5
C447
  8
0
  6
CONTINUOUS
 10
626.11691030610018
 20
956.03777426706608
 30
0.0
 40
2.0
 50
269.999989999999
 51
0.0000006832429909
  0
ARC
  5
C448
  8
0
  6
CONTINUOUS
 10
630.11691030610018
 20
960.0377742670662
 30
0.0
 40
2.0
 50
90.000002999984659
 51
180.000010000001
  0
ARC
  5
C449
  8
0
  6
CONTINUOUS
 10
687.11685030610067
 20
944.28404426706629
 30
0.0
 40
3.0
 50
180.000010000001
 51
267.99999999999648
  0
ARC
  5
C44A
  8
0
  6
CONTINUOUS
 10
687.11685030610067
 20
1203.7914942670659
 30
0.0
 40
3.0
 50
91.999997999994306
 51
180.000010000001
  0
ARC
  5
C44B
  8
0
  6
CONTINUOUS
 10
679.61691030610018
 20
973.60881426706635
 30
0.0
 40
5.0
 50
180.000010000001
 51
224.99999999999079
  0
ARC
  5
C44C
  8
0
  6
CONTINUOUS
 10
679.61691030610018
 20
1174.466724267066
 30
0.0
 40
5.0
 50
135.00000000000921
 51
180.000010000001
  0
ARC
  5
C44D
  8
0
  6
CONTINUOUS
 10
679.11685030610067
 20
959.96672426706618
 30
0.0
 40
5.0
 50
0.0
 51
44.999997999987791
  0
ARC
  5
C44E
  8
0
  6
CONTINUOUS
 10
679.11685030610067
 20
1188.108814267066
 30
0.0
 40
5.0
 50
315.00000000000921
 51
0.0
  0
ARC
  5
C44F
  8
0
  6
CONTINUOUS
 10
676.11685030609999
 20
1051.037774267066
 30
0.0
 40
8.0
 50
0.0
 51
89.999858999991005
  0
ARC
  5
C450
  8
0
  6
CONTINUOUS
 10
676.11685030609999
 20
1097.037774267066
 30
0.0
 40
8.0
 50
270.00015000001508
 51
0.0
  0
ARC
  5
C451
  8
0
  6
CONTINUOUS
 10
669.61691030610007
 20
1055.1234642670661
 30
0.0
 40
5.0
 50
0.0
 51
71.034342999969283
  0
ARC
  5
C452
  8
0
  6
CONTINUOUS
 10
669.61691030610007
 20
1092.952014267066
 30
0.0
 40
5.0
 50
288.96565999997392
 51
0.0
  0
ARC
  5
C453
  8
0
  6
CONTINUOUS
 10
682.11685030610079
 20
960.0377742670662
 30
0.0
 40
2.0
 50
0.0
 51
90.000002999984659
  0
ARC
  5
C454
  8
0
  6
CONTINUOUS
 10
682.11685030610079
 20
1188.0377142670659
 30
0.0
 40
2.0
 50
270.0
 51
0.0
  0
LINE
  5
C455
  8
0
 10
615.11691030610007
 20
1189.0377872670661
 30
0.0
 11
615.11691030610007
 21
959.0377742670662
 31
0.0
  0
ARC
  5
C456
  8
0
  6
CONTINUOUS
 10
611.11691030610007
 20
955.87366926706602
 30
0.0
 40
2.0
 50
299.99999800001649
 51
0.0
  0
LINE
  5
C457
  8
0
  6
CONTINUOUS
 10
612.11691130610063
 20
954.141643267066
 30
0.0
 11
606.77719730609999
 21
951.0587572670662
 31
0.0
  0
ARC
  5
C458
  8
0
  6
CONTINUOUS
 10
601.77718830610058
 20
959.71900626706622
 30
0.0
 40
10.0
 50
269.99999700001541
 51
299.99999800001649
  0
LINE
  5
C459
  8
0
  6
CONTINUOUS
 10
530.67512530610031
 20
949.71900626706633
 30
0.0
 11
601.77718830610058
 21
949.71900626706633
 31
0.0
  0
LINE
  5
C45A
  8
0
  6
CONTINUOUS
 10
615.11688930610035
 20
1189.0377872670661
 30
0.0
 11
613.11697130610003
 21
1189.0517872670659
 31
0.0
  0
LINE
  5
C45B
  8
0
  6
CONTINUOUS
 10
613.11697130610003
 20
1197.1077212670659
 30
0.0
 11
596.92220830610052
 21
1207.037774267066
 31
0.0
  0
LINE
  5
C45C
  8
0
  6
CONTINUOUS
 10
378.11691030610029
 20
1207.037774267066
 30
0.0
 11
596.92208630610014
 21
1207.037774267066
 31
0.0
  0
LINE
  5
C45D
  8
0
  6
CENTER
 10
482.61691030610029
 20
932.42600426706622
 30
0.0
 11
482.61691030610029
 21
946.87103626706607
 31
0.0
  0
LINE
  5
C45E
  8
0
  6
CONTINUOUS
 10
615.11688930610035
 20
959.03776126706623
 30
0.0
 11
608.16667630610027
 21
958.98910926706606
 31
0.0
  0
ARC
  5
C45F
  8
0
  6
CONTINUOUS
 10
601.77718830610058
 20
956.03777426706608
 30
0.0
 40
10.0
 50
269.99999700001541
 51
299.99999800001649
  0
ARC
  5
C460
  8
0
  6
CONTINUOUS
 10
614.61691030610007
 20
957.53423426706615
 30
0.0
 40
1.5
 50
90.401064000021776
 51
180.0000050000005
  0
ARC
  5
C461
  8
0
  6
CONTINUOUS
 10
611.11691030610007
 20
952.19243726706623
 30
0.0
 40
2.0
 50
299.99999800001649
 51
0.0
  0
LINE
  5
C462
  8
0
  6
CONTINUOUS
 10
612.11691130610063
 20
950.46041126706621
 30
0.0
 11
606.77719730609999
 21
947.37752526706606
 31
0.0
  0
LINE
  5
C463
  8
0
  6
CONTINUOUS
 10
613.11691030610018
 20
952.19243726706623
 30
0.0
 11
613.11691030610018
 21
957.53423426706615
 31
0.0
  0
LINE
  5
C464
  8
0
  6
CONTINUOUS
 10
529.68868730610041
 20
946.0377742670662
 30
0.0
 11
601.77718830610058
 21
946.0377742670662
 31
0.0
  0
LINE
  5
C465
  8
0
  6
CONTINUOUS
 10
528.61694430609975
 20
942.03777226706632
 30
0.0
 11
531.39488930610071
 21
952.40520426706621
 31
0.0
  0
ARC
  5
C466
  8
0
  6
CONTINUOUS
 10
432.84121430610043
 20
944.53777426706608
 30
0.0
 40
3.0
 50
14.999999999994451
 51
90.000002999984659
  0
ARC
  5
C467
  8
0
  6
CONTINUOUS
 10
386.37521130610008
 20
952.53777426706608
 30
0.0
 40
5.0
 50
239.99999700002189
 51
269.99999700001541
  0
LINE
  5
C468
  8
0
  6
CONTINUOUS
 10
436.61689930610009
 20
942.03782226706608
 30
0.0
 11
435.73897730610042
 21
945.31427026706604
 31
0.0
  0
LINE
  5
C469
  8
0
  6
CONTINUOUS
 10
386.37521130610008
 20
947.5377742670662
 30
0.0
 11
432.84121430610043
 21
947.5377742670662
 31
0.0
  0
LINE
  5
C46A
  8
0
  6
CONTINUOUS
 10
376.60487730610032
 20
952.40520426706621
 30
0.0
 11
383.87525230610038
 21
948.20765126706601
 31
0.0
  0
LINE
  5
C46B
  8
0
  6
CONTINUOUS
 10
342.11691030610029
 20
957.85518526706619
 30
0.0
 11
342.11691030610029
 21
937.03766526706625
 31
0.0
  0
LINE
  5
C46C
  8
0
  6
CONTINUOUS
 10
342.11691030610029
 20
957.85518526706619
 30
0.0
 11
378.11691030610029
 21
957.85518526706619
 31
0.0
  0
LINE
  5
C46D
  8
0
  6
CONTINUOUS
 10
343.11691030610029
 20
927.03766426706625
 30
0.0
 11
343.11691030610029
 21
933.03787526706606
 31
0.0
  0
LINE
  5
C46E
  8
0
  6
CONTINUOUS
 10
503.11691030610012
 20
1074.037776267066
 30
0.0
 11
613.11697130610003
 21
1074.037776267066
 31
0.0
  0
LINE
  5
C46F
  8
0
  6
CONTINUOUS
 10
601.07839730610067
 20
1004.448909267066
 30
0.0
 11
615.11691030610007
 21
1004.448909267066
 31
0.0
  0
LINE
  5
C470
  8
0
  6
CONTINUOUS
 10
613.11697130610003
 20
974.83562726706623
 30
0.0
 11
596.92220830610052
 21
971.9972482670662
 31
0.0
  0
LINE
  5
C471
  8
0
  6
CONTINUOUS
 10
596.92226930610025
 20
988.55633026706607
 30
0.0
 11
613.11697130610003
 21
991.58758026706619
 31
0.0
  0
LINE
  5
C472
  8
0
  6
CONTINUOUS
 10
613.11697130610003
 20
1008.336360267066
 30
0.0
 11
596.92220830610052
 21
1003.106868267066
 31
0.0
  0
LINE
  5
C473
  8
0
  6
CONTINUOUS
 10
613.11697130610003
 20
1024.2714182670661
 30
0.0
 11
596.92220830610052
 21
1021.265437267066
 31
0.0
  0
LINE
  5
C474
  8
0
  6
CONTINUOUS
 10
613.11697130610003
 20
1039.644709267066
 30
0.0
 11
596.92220830610052
 21
1037.9148512670661
 31
0.0
  0
LINE
  5
C475
  8
0
  6
CONTINUOUS
 10
613.11697130610003
 20
1056.858577267066
 30
0.0
 11
596.92220830610052
 21
1055.6273752670661
 31
0.0
  0
LINE
  5
C476
  8
0
  6
CONTINUOUS
 10
601.07839730610067
 20
1143.6266432670659
 30
0.0
 11
615.11691030610007
 21
1143.6266432670659
 31
0.0
  0
LINE
  5
C477
  8
0
  6
CONTINUOUS
 10
613.11697130610003
 20
1091.2169752670659
 30
0.0
 11
596.92220830610052
 21
1092.4481762670659
 31
0.0
  0
LINE
  5
C478
  8
0
  6
CONTINUOUS
 10
613.11697130610003
 20
1108.4308422670661
 30
0.0
 11
596.92220830610052
 21
1110.1607012670661
 31
0.0
  0
LINE
  5
C479
  8
0
  6
CONTINUOUS
 10
613.11697130610003
 20
1123.8041332670659
 30
0.0
 11
596.92220830610052
 21
1126.8101152670661
 31
0.0
  0
LINE
  5
C47A
  8
0
  6
CONTINUOUS
 10
613.11697130610003
 20
1139.7391922670661
 30
0.0
 11
596.92220830610052
 21
1144.968684267066
 31
0.0
  0
LINE
  5
C47B
  8
0
  6
CONTINUOUS
 10
596.92226930610025
 20
1159.5192212670661
 30
0.0
 11
613.11697130610003
 21
1156.4879712670661
 31
0.0
  0
LINE
  5
C47C
  8
0
  6
CONTINUOUS
 10
613.11697130610003
 20
1173.239924267066
 30
0.0
 11
596.92220830610052
 21
1176.0783032670661
 31
0.0
  0
LINE
  5
C47D
  8
0
  6
CONTINUOUS
 10
613.11697130610003
 20
1178.075862267066
 30
0.0
 11
596.92220830610052
 21
1186.9279122670659
 31
0.0
  0
LINE
  5
C47E
  8
0
  6
CONTINUOUS
 10
613.11697130610003
 20
1186.1879222670659
 30
0.0
 11
596.92220830610052
 21
1195.670344267066
 31
0.0
  0
LINE
  5
C47F
  8
0
  6
CONTINUOUS
 10
613.11697130610003
 20
1192.2421212670661
 30
0.0
 11
596.92220830610052
 21
1201.8831132670659
 31
0.0
  0
LINE
  5
C480
  8
0
  6
CONTINUOUS
 10
613.11697130610003
 20
1195.8134112670659
 30
0.0
 11
596.92220830610052
 21
1205.743464267066
 31
0.0
  0
LINE
  5
C481
  8
0
  6
CONTINUOUS
 10
378.11691030610029
 20
1205.743464267066
 30
0.0
 11
596.92208630610014
 21
1205.743464267066
 31
0.0
  0
LINE
  5
C482
  8
0
  6
CONTINUOUS
 10
378.11691030610029
 20
1201.8831132670659
 30
0.0
 11
596.92220830610052
 21
1201.8831132670659
 31
0.0
  0
LINE
  5
C483
  8
0
  6
CONTINUOUS
 10
378.11691030610029
 20
1195.670344267066
 30
0.0
 11
596.92226930610025
 21
1195.670344267066
 31
0.0
  0
LINE
  5
C484
  8
0
  6
CONTINUOUS
 10
378.11684930610062
 20
1186.9279122670659
 30
0.0
 11
596.92226930610025
 21
1186.9279122670659
 31
0.0
  0
LINE
  5
C485
  8
0
  6
CONTINUOUS
 10
378.11691030610029
 20
1176.078053267066
 30
0.0
 11
596.92172030609981
 21
1176.0783032670661
 31
0.0
  0
LINE
  5
C486
  8
0
  6
CONTINUOUS
 10
378.11691030610029
 20
1159.5192212670661
 30
0.0
 11
596.92196430610056
 21
1159.5192212670661
 31
0.0
  0
LINE
  5
C487
  8
0
  6
CONTINUOUS
 10
378.11691030610029
 20
1144.968684267066
 30
0.0
 11
596.92226930610025
 21
1144.968684267066
 31
0.0
  0
LINE
  5
C488
  8
0
  6
CONTINUOUS
 10
378.11691030610029
 20
1126.8099932670659
 30
0.0
 11
596.92239130610062
 21
1126.8099932670659
 31
0.0
  0
LINE
  5
C489
  8
0
  6
CONTINUOUS
 10
378.11691030610029
 20
1110.161506267066
 30
0.0
 11
596.92214730610078
 21
1110.1607012670661
 31
0.0
  0
LINE
  5
C48A
  8
0
  6
CONTINUOUS
 10
378.11691030610029
 20
1092.4481762670659
 30
0.0
 11
596.92287930610007
 21
1092.4481762670659
 31
0.0
  0
LINE
  5
C48B
  8
0
  6
CONTINUOUS
 10
378.11691030610029
 20
1074.037776267066
 30
0.0
 11
462.11691030610029
 21
1074.037776267066
 31
0.0
  0
LINE
  5
C48C
  8
0
  6
CONTINUOUS
 10
378.11691030610029
 20
957.85518526706619
 30
0.0
 11
378.11691030610029
 21
1211.0378982670661
 31
0.0
  0
LINE
  5
C48D
  8
0
  6
CONTINUOUS
 10
198.11691030610029
 20
976.66575626706617
 30
0.0
 11
198.11691030610029
 21
1174.6632642670661
 31
0.0
  0
LINE
  5
C48E
  8
0
  6
CONTINUOUS
 10
275.11691030610029
 20
1211.037654267066
 30
0.0
 11
378.11691030610029
 21
1211.0378592670661
 31
0.0
  0
LINE
  5
C48F
  8
0
  6
CONTINUOUS
 10
275.11691030610029
 20
937.03762426706624
 30
0.0
 11
275.11691030610029
 21
1211.037654267066
 31
0.0
  0
LINE
  5
C490
  8
0
  6
CONTINUOUS
 10
204.11691030610029
 20
975.04941726706591
 30
0.0
 11
204.11691030610029
 21
1172.793391267066
 31
0.0
  0
ARC
  5
C491
  8
0
  6
CONTINUOUS
 10
272.52756630610031
 20
1208.6213062670661
 30
0.0
 40
0.6
 50
273.00006100002201
 51
0.0
  0
ARC
  5
C492
  8
0
  6
CONTINUOUS
 10
274.71700830610018
 20
1208.437800267066
 30
0.0
 40
1.6000000000000001
 50
75.526100000002202
 51
180.0
  0
LINE
  5
C493
  8
0
  6
CONTINUOUS
 10
272.54830730610058
 20
1208.0078692670661
 30
0.0
 11
216.5463863061006
 21
1205.073015267066
 31
0.0
  0
LINE
  5
C494
  8
0
  6
CONTINUOUS
 10
205.1786783060999
 20
1180.6679032670661
 30
0.0
 11
210.1356933060998
 21
1199.835267267066
 31
0.0
  0
LINE
  5
C495
  8
0
  6
CONTINUOUS
 10
216.34518230610061
 20
1194.5844072670659
 30
0.0
 11
216.34518230610061
 21
954.27569426706623
 31
0.0
  0
LINE
  5
C496
  8
0
  6
CONTINUOUS
 10
197.3166173061
 20
992.53753226706624
 30
0.0
 11
198.1166663061004
 21
992.53753226706624
 31
0.0
  0
LINE
  5
C497
  8
0
  6
CONTINUOUS
 10
198.1166663061004
 20
973.41204326706622
 30
0.0
 11
198.1166663061004
 21
992.53753226706624
 31
0.0
  0
LINE
  5
C498
  8
0
  6
CONTINUOUS
 10
197.3166173061
 20
1155.537776267066
 30
0.0
 11
197.3166173061
 21
992.53753226706624
 31
0.0
  0
ARC
  5
C499
  8
0
  6
CONTINUOUS
 10
199.3698403061008
 20
1182.170344267066
 30
0.0
 40
6.0
 50
271.88500999997711
 51
345.50021400000162
  0
ARC
  5
C49A
  8
0
  6
CONTINUOUS
 10
199.61691030610029
 20
1174.6632642670661
 30
0.0
 40
1.5
 50
91.884964000020602
 51
180.0
  0
LINE
  5
C49B
  8
0
  6
CONTINUOUS
 10
275.11691030610029
 20
937.03762426706624
 30
0.0
 11
342.11691030610029
 21
937.03765626706615
 31
0.0
  0
LINE
  5
C49C
  8
0
  6
CONTINUOUS
 10
226.61716730609999
 20
1221.0376972670661
 30
0.0
 11
223.87150430610029
 21
1220.482071267066
 31
0.0
  0
LINE
  5
C49D
  8
0
  6
CONTINUOUS
 10
223.87150430610029
 20
1220.482071267066
 30
0.0
 11
221.14699230610049
 21
1218.8195772670661
 31
0.0
  0
LINE
  5
C49E
  8
0
  6
CONTINUOUS
 10
221.14699230610049
 20
1218.8195772670661
 30
0.0
 11
218.46411030610051
 21
1216.0628152670661
 31
0.0
  0
LINE
  5
C49F
  8
0
  6
CONTINUOUS
 10
218.46411030610051
 20
1216.0628152670661
 30
0.0
 11
215.84327630610019
 21
1212.232767267066
 31
0.0
  0
LINE
  5
C4A0
  8
0
  6
CONTINUOUS
 10
215.84327630610019
 20
1212.232767267066
 30
0.0
 11
213.3044353061006
 21
1207.3585822670659
 31
0.0
  0
LINE
  5
C4A1
  8
0
  6
CONTINUOUS
 10
213.3044353061006
 20
1207.3585822670659
 30
0.0
 11
211.0365103061005
 21
1201.8865632670661
 31
0.0
  0
LINE
  5
C4A2
  8
0
  6
CONTINUOUS
 10
197.3166173061
 20
1127.3297762670661
 30
0.0
 11
197.01659230610051
 21
1123.972595267066
 31
0.0
  0
LINE
  5
C4A3
  8
0
  6
CONTINUOUS
 10
197.01659230610051
 20
1123.972595267066
 30
0.0
 11
196.1902473061001
 21
1111.825234267066
 31
0.0
  0
LINE
  5
C4A4
  8
0
  6
CONTINUOUS
 10
196.1902473061001
 20
1111.825234267066
 30
0.0
 11
195.59546630610029
 21
1099.3902882670659
 31
0.0
  0
LINE
  5
C4A5
  8
0
  6
CONTINUOUS
 10
195.59546630610029
 20
1099.3902882670659
 30
0.0
 11
195.23677730610061
 21
1086.7623922670659
 31
0.0
  0
LINE
  5
C4A6
  8
0
  6
CONTINUOUS
 10
195.23677730610061
 20
1086.7623922670659
 30
0.0
 11
195.11691030610029
 21
1074.037654267066
 31
0.0
  0
LINE
  5
C4A7
  8
0
  6
CONTINUOUS
 10
195.11691030610029
 20
1074.037654267066
 30
0.0
 11
195.23677730610061
 21
1061.312915267066
 31
0.0
  0
LINE
  5
C4A8
  8
0
  6
CONTINUOUS
 10
195.23677730610061
 20
1061.312915267066
 30
0.0
 11
195.59546630610029
 21
1048.685020267066
 31
0.0
  0
LINE
  5
C4A9
  8
0
  6
CONTINUOUS
 10
195.59546630610029
 20
1048.685020267066
 30
0.0
 11
196.1902473061001
 21
1036.250073267066
 31
0.0
  0
LINE
  5
C4AA
  8
0
  6
CONTINUOUS
 10
196.1902473061001
 20
1036.250073267066
 30
0.0
 11
197.01659230610051
 21
1024.1027132670661
 31
0.0
  0
LINE
  5
C4AB
  8
0
  6
CONTINUOUS
 10
197.01659230610051
 20
1024.1027132670661
 30
0.0
 11
197.3166173061
 21
1020.745531267066
 31
0.0
  0
ARC
  5
C4AC
  8
0
  6
CONTINUOUS
 10
274.71700830610018
 20
939.63750726706633
 30
0.0
 40
1.6000000000000001
 50
180.0
 51
284.4738999999978
  0
LINE
  5
C4AD
  8
0
  6
CONTINUOUS
 10
272.54830730610058
 20
940.06743926706622
 30
0.0
 11
216.5463863061006
 21
943.0022922670662
 31
0.0
  0
ARC
  5
C4AE
  8
0
  6
CONTINUOUS
 10
272.51681230610041
 20
939.46807426706596
 30
0.0
 40
0.6
 50
0.0
 51
86.999938999978056
  0
LINE
  5
C4AF
  8
0
  6
CONTINUOUS
 10
205.1786783060999
 20
967.40740526706588
 30
0.0
 11
210.1356933060998
 21
948.24004026706609
 31
0.0
  0
ARC
  5
C4B0
  8
0
  6
CONTINUOUS
 10
199.3698403061008
 20
965.90496326706625
 30
0.0
 40
6.0
 50
14.49978599999838
 51
88.114990000022914
  0
ARC
  5
C4B1
  8
0
  6
CONTINUOUS
 10
199.61691030610029
 20
973.41204326706622
 30
0.0
 40
1.5
 50
180.0
 51
268.1150359999794
  0
LINE
  5
C4B2
  8
0
  6
CONTINUOUS
 10
343.11691030610029
 20
1221.0376732670661
 30
0.0
 11
343.11691030610029
 21
1215.0376732670661
 31
0.0
  0
LINE
  5
C4B3
  8
0
  6
CONTINUOUS
 10
331.11691030610029
 20
1215.0376792670661
 30
0.0
 11
343.11691030610029
 21
1215.0376732670661
 31
0.0
  0
LINE
  5
C4B4
  8
0
  6
CONTINUOUS
 10
331.11690930610001
 20
1221.0376792670661
 30
0.0
 11
343.11691030610029
 21
1221.0376732670661
 31
0.0
  0
LINE
  5
C4B5
  8
0
  6
CONTINUOUS
 10
331.11691030610029
 20
1221.037654267066
 30
0.0
 11
331.11691030610029
 21
1211.0377652670661
 31
0.0
  0
LINE
  5
C4B6
  8
0
  6
CONTINUOUS
 10
319.11691030610029
 20
1221.037684267066
 30
0.0
 11
331.11691030610029
 21
1221.0376792670661
 31
0.0
  0
LINE
  5
C4B7
  8
0
  6
CONTINUOUS
 10
319.11691030610029
 20
1221.037654267066
 30
0.0
 11
319.11691030610029
 21
1211.0377412670659
 31
0.0
  0
LINE
  5
C4B8
  8
0
  6
CONTINUOUS
 10
227.21816930610029
 20
1215.0376962670659
 30
0.0
 11
319.11691030610029
 21
1215.037654267066
 31
0.0
  0
LINE
  5
C4B9
  8
0
  6
CONTINUOUS
 10
226.6169113061006
 20
1221.0376972670661
 30
0.0
 11
319.11691030610029
 21
1221.037654267066
 31
0.0
  0
LINE
  5
C4BA
  8
0
  6
CONTINUOUS
 10
227.21816930610029
 20
1215.0376962670659
 30
0.0
 11
226.09593930610041
 21
1214.8105962670661
 31
0.0
  0
LINE
  5
C4BB
  8
0
  6
CONTINUOUS
 10
226.09593930610041
 20
1214.8105962670661
 30
0.0
 11
224.91871230610019
 21
1214.092254267066
 31
0.0
  0
LINE
  5
C4BC
  8
0
  6
CONTINUOUS
 10
224.91871230610019
 20
1214.092254267066
 30
0.0
 11
223.1241503061002
 21
1212.248275267066
 31
0.0
  0
LINE
  5
C4BD
  8
0
  6
CONTINUOUS
 10
223.1241503061002
 20
1212.248275267066
 30
0.0
 11
220.9983143061001
 21
1209.141610267066
 31
0.0
  0
LINE
  5
C4BE
  8
0
  6
CONTINUOUS
 10
220.9983143061001
 20
1209.141610267066
 30
0.0
 11
218.9445483061001
 21
1205.198694267066
 31
0.0
  0
LINE
  5
C4BF
  8
0
  6
CONTINUOUS
 10
192.59933230610031
 20
1069.537654267066
 30
0.0
 11
192.59933230610031
 21
1078.537654267066
 31
0.0
  0
LINE
  5
C4C0
  8
0
  6
CONTINUOUS
 10
192.59933230610031
 20
1078.537654267066
 30
0.0
 11
195.15930030610079
 21
1078.537654267066
 31
0.0
  0
LINE
  5
C4C1
  8
0
  6
CONTINUOUS
 10
192.59933230610031
 20
1069.537654267066
 30
0.0
 11
195.15930030610079
 21
1069.537654267066
 31
0.0
  0
LINE
  5
C4C2
  8
0
  6
CONTINUOUS
 10
378.11691030610029
 20
988.55633026706607
 30
0.0
 11
596.92196430610056
 21
988.55633026706607
 31
0.0
  0
LINE
  5
C4C3
  8
0
  6
CONTINUOUS
 10
378.11691030610029
 20
1003.106868267066
 30
0.0
 11
596.92226930610025
 21
1003.106868267066
 31
0.0
  0
LINE
  5
C4C4
  8
0
  6
CONTINUOUS
 10
378.11691030610029
 20
1021.265559267066
 30
0.0
 11
596.92239130610062
 21
1021.265559267066
 31
0.0
  0
LINE
  5
C4C5
  8
0
  6
CONTINUOUS
 10
378.11691030610029
 20
1037.9140462670659
 30
0.0
 11
596.92214730610078
 21
1037.9148512670661
 31
0.0
  0
LINE
  5
C4C6
  8
0
  6
CONTINUOUS
 10
378.11691030610029
 20
1055.6273752670661
 30
0.0
 11
596.92287930610007
 21
1055.6273752670661
 31
0.0
  0
ARC
  5
C4C7
  8
0
  6
CONTINUOUS
 10
482.61691030610029
 20
1074.037721267066
 30
0.0
 40
11.5
 50
20.35443300000496
 51
159.64561999997829
  0
LINE
  5
C4C8
  8
0
  6
CONTINUOUS
 10
466.11690830610041
 20
1078.037713267066
 30
0.0
 11
499.11690830610041
 21
1078.037729267066
 31
0.0
  0
LINE
  5
C4C9
  8
0
  6
CONTINUOUS
 10
466.11691230609972
 20
1070.037713267066
 30
0.0
 11
499.11691230609978
 21
1070.037729267066
 31
0.0
  0
ARC
  5
C4CA
  8
0
  6
CONTINUOUS
 10
466.11691030610029
 20
1074.037713267066
 30
0.0
 40
4.0
 50
90.000027000018335
 51
270.0
  0
ARC
  5
C4CB
  8
0
  6
CONTINUOUS
 10
499.11691030610029
 20
1074.037729267066
 30
0.0
 40
4.0
 50
270.0
 51
90.0
  0
ARC
  5
C4CC
  8
0
  6
CONTINUOUS
 10
482.61691030610029
 20
1074.037721267066
 30
0.0
 40
11.5
 50
200.35443300000489
 51
339.64561999997829
  0
LINE
  5
C4CD
  8
0
  6
CONTINUOUS
 10
197.3166173061
 20
1155.537776267066
 30
0.0
 11
198.1166663061004
 21
1155.537776267066
 31
0.0
  0
ARC
  5
C4CE
  8
0
  6
CONTINUOUS
 10
216.91272730610041
 20
1198.082608267066
 30
0.0
 40
7.0
 50
92.999915000003085
 51
165.50000500001161
  0
ARC
  5
C4CF
  8
0
  6
CONTINUOUS
 10
272.52756630610031
 20
939.45400226706624
 30
0.0
 40
0.6
 50
0.0
 51
86.999938999978056
  0
LINE
  5
C4D0
  8
0
  6
CONTINUOUS
 10
226.61716730609999
 20
927.03761126706604
 30
0.0
 11
223.87150430610029
 21
927.59323726706589
 31
0.0
  0
LINE
  5
C4D1
  8
0
  6
CONTINUOUS
 10
223.87150430610029
 20
927.59323726706589
 30
0.0
 11
221.14699230610049
 21
929.25573126706638
 31
0.0
  0
LINE
  5
C4D2
  8
0
  6
CONTINUOUS
 10
221.14699230610049
 20
929.25573126706638
 30
0.0
 11
218.46411030610051
 21
932.01249226706591
 31
0.0
  0
LINE
  5
C4D3
  8
0
  6
CONTINUOUS
 10
218.46411030610051
 20
932.01249226706591
 30
0.0
 11
215.84327630610019
 21
935.84254026706594
 31
0.0
  0
LINE
  5
C4D4
  8
0
  6
CONTINUOUS
 10
215.84327630610019
 20
935.84254026706594
 30
0.0
 11
213.3044353061006
 21
940.71672626706606
 31
0.0
  0
LINE
  5
C4D5
  8
0
  6
CONTINUOUS
 10
331.11691030610029
 20
933.03762926706622
 30
0.0
 11
343.11691030610029
 21
933.03763426706598
 31
0.0
  0
LINE
  5
C4D6
  8
0
  6
CONTINUOUS
 10
331.11691030610029
 20
927.03765926706592
 30
0.0
 11
331.11691030610029
 21
937.03754226706621
 31
0.0
  0
LINE
  5
C4D7
  8
0
  6
CONTINUOUS
 10
319.11691030610029
 20
927.03765426706605
 30
0.0
 11
319.11691030610029
 21
937.03756626706615
 31
0.0
  0
LINE
  5
C4D8
  8
0
  6
CONTINUOUS
 10
227.21816930610029
 20
933.03761126706627
 30
0.0
 11
319.11691030610029
 21
933.03765426706605
 31
0.0
  0
LINE
  5
C4D9
  8
0
  6
CONTINUOUS
 10
226.6169113061006
 20
927.03761126706604
 30
0.0
 11
343.11691030610029
 21
927.03766426706625
 31
0.0
  0
LINE
  5
C4DA
  8
0
  6
CONTINUOUS
 10
227.21816930610029
 20
933.03761126706627
 30
0.0
 11
226.09593930610041
 21
933.26471126706599
 31
0.0
  0
LINE
  5
C4DB
  8
0
  6
CONTINUOUS
 10
226.09593930610041
 20
933.26471126706599
 30
0.0
 11
224.91871230610019
 21
933.98305326706623
 31
0.0
  0
LINE
  5
C4DC
  8
0
  6
CONTINUOUS
 10
224.91871230610019
 20
933.98305326706623
 30
0.0
 11
223.1241503061002
 21
935.82703226706622
 31
0.0
  0
LINE
  5
C4DD
  8
0
  6
CONTINUOUS
 10
223.1241503061002
 20
935.82703226706622
 30
0.0
 11
220.9983143061001
 21
938.93369826706635
 31
0.0
  0
LINE
  5
C4DE
  8
0
  6
CONTINUOUS
 10
220.9983143061001
 20
938.93369826706635
 30
0.0
 11
218.9445483061001
 21
942.87661326706609
 31
0.0
  0
LINE
  5
C4DF
  8
0
  6
CONTINUOUS
 10
213.3044353061006
 20
940.71672626706606
 30
0.0
 11
211.0365103061005
 21
946.188744267066
 31
0.0
  0
ARC
  5
C4E0
  8
0
  6
CONTINUOUS
 10
216.91272730610041
 20
949.99270026706608
 30
0.0
 40
7.0
 50
194.49999499998839
 51
267.00008499999689
  0
LINE
  5
C4E1
  8
0
  6
CONTINUOUS
 10
368.1170933061004
 20
940.5377742670662
 30
0.0
 11
528.61691030610029
 21
940.5377742670662
 31
0.0
  0
LINE
  5
C4E2
  8
0
  6
CONTINUOUS
 10
366.6170933061004
 20
935.24548526706621
 30
0.0
 11
528.61709330610017
 21
935.24548526706621
 31
0.0
  0
LINE
  5
C4E3
  8
0
  6
CONTINUOUS
 10
366.6170933061004
 20
928.7558762670659
 30
0.0
 11
528.61709330610017
 21
928.7558762670659
 31
0.0
  0
LINE
  5
C4E4
  8
0
  6
CONTINUOUS
 10
367.1170933061004
 20
922.67689926706601
 30
0.0
 11
528.11709330610029
 21
922.67689926706601
 31
0.0
  0
LINE
  5
C4E5
  8
0
  6
CONTINUOUS
 10
367.1170933061004
 20
875.48877126706623
 30
0.0
 11
527.1170933061004
 21
875.48877126706623
 31
0.0
  0
LINE
  5
C4E6
  8
0
  6
CONTINUOUS
 10
366.6170933061004
 20
873.74035926706608
 30
0.0
 11
528.61709330610017
 21
873.74035926706608
 31
0.0
  0
LINE
  5
C4E7
  8
0
  6
CONTINUOUS
 10
541.11709330610017
 20
886.24035926706608
 30
0.0
 11
541.11709330610017
 21
891.91391726706615
 31
0.0
  0
LINE
  5
C4E8
  8
0
  6
CONTINUOUS
 10
544.1170933061004
 20
902.98428326706608
 30
0.0
 11
549.62644730610009
 21
902.98428326706608
 31
0.0
  0
LINE
  5
C4E9
  8
0
  6
CONTINUOUS
 10
544.10102930610003
 20
894.91387426706615
 30
0.0
 11
549.62644730610009
 21
894.91387426706615
 31
0.0
  0
ARC
  5
C4EA
  8
0
  6
CONTINUOUS
 10
541.8717703061003
 20
898.94907926706605
 30
0.0
 40
8.7417320000000007
 50
332.50944499999753
 51
27.49055500000247
  0
LINE
  5
C4EB
  8
0
  6
CONTINUOUS
 10
534.1170933061004
 20
882.488771267066
 30
0.0
 11
534.1170933061004
 21
916.67689926706589
 31
0.0
  0
ARC
  5
C4EC
  8
0
  6
CONTINUOUS
 10
544.1170933061004
 20
905.98428326706619
 30
0.0
 40
3.0
 50
180.0
 51
270.0
  0
ARC
  5
C4ED
  8
0
  6
CONTINUOUS
 10
528.61709330610017
 20
922.74548526706621
 30
0.0
 40
12.5
 50
0.0
 51
90.0
  0
ARC
  5
C4EE
  8
0
  6
CONTINUOUS
 10
528.61709330610017
 20
916.2558762670659
 30
0.0
 40
12.5
 50
0.0
 51
90.0
  0
ARC
  5
C4EF
  8
0
  6
CONTINUOUS
 10
528.11709330610029
 20
916.67689926706589
 30
0.0
 40
6.0
 50
0.0
 51
90.0
  0
ARC
  5
C4F0
  8
0
  6
CONTINUOUS
 10
528.61709330610017
 20
886.24035926706608
 30
0.0
 40
12.5
 50
270.0
 51
0.0
  0
ARC
  5
C4F1
  8
0
  6
CONTINUOUS
 10
544.1170933061004
 20
891.91391726706615
 30
0.0
 40
3.0
 50
90.0
 51
180.0
  0
LINE
  5
C4F2
  8
0
  6
CONTINUOUS
 10
541.11709330610017
 20
905.98428326706619
 30
0.0
 11
541.11709330610017
 21
922.74548526706621
 31
0.0
  0
LINE
  5
C4F3
  8
0
  6
CENTER
 10
540.61709330610029
 20
896.41903926706618
 30
0.0
 11
540.61709330610029
 21
901.81584426706615
 31
0.0
  0
LINE
  5
C4F4
  8
0
  6
CENTER
 10
537.89295830610001
 20
898.94910026706623
 30
0.0
 11
543.96436330610061
 21
898.94910026706623
 31
0.0
  0
ARC
  5
C4F5
  8
0
  6
CONTINUOUS
 10
366.6170933061004
 20
886.24035926706608
 30
0.0
 40
12.5
 50
180.0
 51
270.0
  0
ARC
  5
C4F6
  8
0
  6
CONTINUOUS
 10
353.36241630610039
 20
898.94907926706605
 30
0.0
 40
8.7417320000000007
 50
152.5094449999975
 51
207.4905550000025
  0
ARC
  5
C4F7
  8
0
  6
CONTINUOUS
 10
366.6170933061004
 20
916.2558762670659
 30
0.0
 40
12.5
 50
90.0
 51
180.0
  0
ARC
  5
C4F8
  8
0
  6
CONTINUOUS
 10
366.6170933061004
 20
922.74548526706621
 30
0.0
 40
12.5
 50
90.0
 51
180.0
  0
ARC
  5
C4F9
  8
0
  6
CONTINUOUS
 10
367.1170933061004
 20
916.67689926706589
 30
0.0
 40
6.0
 50
90.0
 51
180.0
  0
LINE
  5
C4FA
  8
0
  6
CONTINUOUS
 10
354.1170933061004
 20
905.98428326706619
 30
0.0
 11
354.1170933061004
 21
922.74548526706621
 31
0.0
  0
LINE
  5
C4FB
  8
0
  6
CENTER
 10
354.6170933061004
 20
896.41903926706618
 30
0.0
 11
354.6170933061004
 21
901.81584426706615
 31
0.0
  0
LINE
  5
C4FC
  8
0
  6
CENTER
 10
357.34122830609988
 20
898.94910026706623
 30
0.0
 11
351.26982330610008
 21
898.94910026706623
 31
0.0
  0
ARC
  5
C4FD
  8
0
  6
CONTINUOUS
 10
351.1170933061004
 20
905.98428326706619
 30
0.0
 40
3.0
 50
270.0
 51
0.0
  0
LINE
  5
C4FE
  8
0
  6
CONTINUOUS
 10
351.1170933061004
 20
902.98428326706608
 30
0.0
 11
345.60774030610003
 21
902.98428326706608
 31
0.0
  0
LINE
  5
C4FF
  8
0
  6
CONTINUOUS
 10
351.13315830610009
 20
894.91387426706615
 30
0.0
 11
345.60774030610003
 21
894.91387426706615
 31
0.0
  0
ARC
  5
C500
  8
0
  6
CONTINUOUS
 10
351.1170933061004
 20
891.91391726706615
 30
0.0
 40
3.0
 50
0.0
 51
90.0
  0
LINE
  5
C501
  8
0
  6
CONTINUOUS
 10
354.1170933061004
 20
886.24035926706608
 30
0.0
 11
354.1170933061004
 21
891.91391726706615
 31
0.0
  0
LINE
  5
C502
  8
0
  6
CONTINUOUS
 10
361.1170933061004
 20
881.488771267066
 30
0.0
 11
361.1170933061004
 21
916.67689926706589
 31
0.0
  0
ARC
  5
C503
  8
0
  6
CONTINUOUS
 10
544.1170933061004
 20
912.47430526706614
 30
0.0
 40
3.0
 50
180.0
 51
270.0
  0
LINE
  5
C504
  8
0
  6
CONTINUOUS
 10
544.1170933061004
 20
909.47430526706603
 30
0.0
 11
549.62644730610009
 21
909.47430526706603
 31
0.0
  0
ARC
  5
C505
  8
0
  6
CONTINUOUS
 10
541.8717703061003
 20
905.43910026706601
 30
0.0
 40
8.7417320000000007
 50
355.30207200000473
 51
27.49055500000247
  0
LINE
  5
C506
  8
0
  6
CONTINUOUS
 10
550.58413330609983
 20
898.23310926706597
 30
0.0
 11
550.58413330609983
 21
906.15507026706609
 31
0.0
  0
LINE
  5
C507
  8
0
  6
CONTINUOUS
 10
351.1170933061004
 20
909.47430526706603
 30
0.0
 11
345.60774030610003
 21
909.47430526706603
 31
0.0
  0
ARC
  5
C508
  8
0
  6
CONTINUOUS
 10
353.36241630610039
 20
905.43910026706601
 30
0.0
 40
8.7417320000000007
 50
152.5094449999975
 51
184.6979279999953
  0
LINE
  5
C509
  8
0
  6
CONTINUOUS
 10
344.65005330610001
 20
898.23310926706597
 30
0.0
 11
344.65005330610001
 21
906.15507026706609
 31
0.0
  0
ARC
  5
C50A
  8
0
  6
CONTINUOUS
 10
351.1170933061004
 20
912.47430526706614
 30
0.0
 40
3.0
 50
270.0
 51
0.0
  0
ARC
  5
C50B
  8
0
  6
CONTINUOUS
 10
527.1170933061004
 20
933.5377742670662
 30
0.0
 40
7.0
 50
3.5992130000037932
 51
90.0
  0
ARC
  5
C50C
  8
0
  6
CONTINUOUS
 10
527.1170933061004
 20
882.488771267066
 30
0.0
 40
7.0
 50
270.0
 51
0.0
  0
ARC
  5
C50D
  8
0
  6
CONTINUOUS
 10
368.1170933061004
 20
933.5377742670662
 30
0.0
 40
7.0
 50
90.0
 51
176.40078699999609
  0
ARC
  5
C50E
  8
0
  6
CONTINUOUS
 10
368.1170933061004
 20
882.488771267066
 30
0.0
 40
7.0
 50
180.0
 51
270.0
  0
LINE
  5
C50F
  8
0
  6
CONTINUOUS
 10
378.11691030610029
 20
971.99749826706602
 30
0.0
 11
596.92220830610052
 21
971.9972482670662
 31
0.0
  0
LINE
  5
C510
  8
0
  6
CONTINUOUS
 10
528.61691030610029
 20
942.03778926706605
 30
0.0
 11
528.61691030610029
 21
940.5377742670662
 31
0.0
  0
LINE
  5
C511
  8
0
  6
CONTINUOUS
 10
436.61691030610029
 20
942.03778926706605
 30
0.0
 11
436.61691030610029
 21
940.5377742670662
 31
0.0
  0
LINE
  5
C512
  8
0
  6
CONTINUOUS
 10
613.11697130610003
 20
1173.239924267066
 30
0.0
 11
613.11697130610003
 21
1197.1077212670659
 31
0.0
  0
LINE
  5
C513
  8
0
  6
CONTINUOUS
 10
613.1170933061004
 20
1156.487727267066
 30
0.0
 11
615.11691030610007
 21
1156.487727267066
 31
0.0
  0
LINE
  5
C514
  8
0
  6
CONTINUOUS
 10
613.11697130610003
 20
1120.4906572670659
 30
0.0
 11
613.11703230609965
 21
1123.8041332670659
 31
0.0
  0
LINE
  5
C515
  8
0
  6
CONTINUOUS
 10
613.11703230609965
 20
1135.2317452670659
 30
0.0
 11
613.11697130610003
 21
1139.7391922670661
 31
0.0
  0
LINE
  5
C516
  8
0
  6
CONTINUOUS
 10
613.11697130610003
 20
1108.4308422670661
 30
0.0
 11
613.11697130610003
 21
1105.5097002670659
 31
0.0
  0
LINE
  5
C517
  8
0
  6
CONTINUOUS
 10
613.11697130610003
 20
1091.2169752670659
 30
0.0
 11
613.11697130610003
 21
1090.2150222670659
 31
0.0
  0
LINE
  5
C518
  8
0
  6
CONTINUOUS
 10
613.1170933061004
 20
991.58782526706625
 30
0.0
 11
615.11691030610007
 21
991.58782526706625
 31
0.0
  0
LINE
  5
C519
  8
0
  6
CONTINUOUS
 10
613.11703230609965
 20
1012.843806267066
 30
0.0
 11
613.11697130610003
 21
1008.336360267066
 31
0.0
  0
LINE
  5
C51A
  8
0
  6
CONTINUOUS
 10
613.11697130610003
 20
1027.584895267066
 30
0.0
 11
613.11703230609965
 21
1024.2714182670661
 31
0.0
  0
LINE
  5
C51B
  8
0
  6
CONTINUOUS
 10
613.11697130610003
 20
1039.644709267066
 30
0.0
 11
613.11697130610003
 21
1042.565852267066
 31
0.0
  0
LINE
  5
C51C
  8
0
  6
CONTINUOUS
 10
613.11697130610003
 20
1056.858577267066
 30
0.0
 11
613.11697130610003
 21
1057.860530267066
 31
0.0
  0
LINE
  5
C51D
  8
0
  6
CONTINUOUS
 10
436.61693530610017
 20
942.0377742670662
 30
0.0
 11
528.61687430609982
 21
942.0377742670662
 31
0.0
  0
LINE
  5
C51E
  8
0
  6
CONTINUOUS
 10
613.11697130610003
 20
969.99968626706618
 30
0.0
 11
596.92220830610052
 21
961.14763626706622
 31
0.0
  0
LINE
  5
C51F
  8
0
  6
CONTINUOUS
 10
378.11684930610062
 20
961.14763626706622
 30
0.0
 11
596.92226930610025
 21
961.14763626706622
 31
0.0
  0
LINE
  5
C520
  8
0
  6
CONTINUOUS
 10
613.11697130610003
 20
974.83562726706623
 30
0.0
 11
613.11697130610003
 21
961.88762626706625
 31
0.0
  0
LINE
  5
C521
  8
0
  6
CONTINUOUS
 10
613.11697130610003
 20
961.88762626706625
 30
0.0
 11
596.92220830610052
 21
952.40520426706621
 31
0.0
  0
LINE
  5
C522
  8
0
  6
CONTINUOUS
 10
368.31172330610042
 20
952.40520426706621
 30
0.0
 11
596.92226930610025
 21
952.40520426706621
 31
0.0
  0
LINE
  5
C523
  8
0
  6
CONTINUOUS
 10
359.00385330609981
 20
957.85518526706619
 30
0.0
 11
368.31172330610042
 21
952.40520426706621
 31
0.0
  0
LINE
  5
C524
  8
0
  6
CONTINUOUS
 10
615.11691030610007
 20
1189.0377872670661
 30
0.0
 11
615.11691030610007
 21
959.0377742670662
 31
0.0
  0
TEXT
  5
C7FE
  8
0
  6
CONTINUOUS
 62
     0
 10
1082.868195299334
 20
1037.4047919159509
 30
0.0
 40
15.0
  1
VX75-003EB~VX75-020EB
  0
ENDSEC
  0
EOF
