  0
SECTION
  2
HEADER
  9
$ACADVER
  1
AC1009
  9
$INSBASE
 10
0.0
 20
0.0
 30
0.0
  9
$EXTMIN
 10
121.1955460973395
 20
419.77926170320097
 30
-0.0000000000000053
  9
$EXTMAX
 10
1494.1198926322529
 20
1274.6834600029711
 30
0.0000000000000099
  9
$LIMMIN
 10
0.0000005999945643
 20
-0.0000005963913736
  9
$LIMMAX
 10
1707.000000599995
 20
1109.9999994036091
  9
$ORTHOMODE
 70
     1
  9
$REGENMODE
 70
     1
  9
$FILLMODE
 70
     1
  9
$QTEXTMODE
 70
     0
  9
$MIRRTEXT
 70
     0
  9
$DRAGMODE
 70
     2
  9
$LTSCALE
 40
1.0
  9
$OSMODE
 70
   551
  9
$ATTMODE
 70
     1
  9
$TEXTSIZE
 40
2.5
  9
$TRACEWID
 40
1.0
  9
$TEXTSTYLE
  7
STANDARD
  9
$CLAYER
  8
0
  9
$CELTYPE
  6
BYLAYER
  9
$CECOLOR
 62
   256
  9
$DIMSCALE
 40
1.0
  9
$DIMASZ
 40
2.0
  9
$DIMEXO
 40
1.0
  9
$DIMDLI
 40
8.0
  9
$DIMRND
 40
0.0
  9
$DIMDLE
 40
0.0
  9
$DIMEXE
 40
1.0
  9
$DIMTP
 40
-0.025
  9
$DIMTM
 40
0.043
  9
$DIMTXT
 40
2.5
  9
$DIMCEN
 40
0.0
  9
$DIMTSZ
 40
0.0
  9
$DIMTOL
 70
     0
  9
$DIMLIM
 70
     0
  9
$DIMTIH
 70
     0
  9
$DIMTOH
 70
     0
  9
$DIMSE1
 70
     0
  9
$DIMSE2
 70
     0
  9
$DIMTAD
 70
     3
  9
$DIMZIN
 70
     8
  9
$DIMBLK
  1

  9
$DIMASO
 70
     1
  9
$DIMSHO
 70
     1
  9
$DIMPOST
  1

  9
$DIMAPOST
  1
"
  9
$DIMALT
 70
     0
  9
$DIMALTD
 70
     2
  9
$DIMALTF
 40
0.0393701
  9
$DIMLFAC
 40
1.0
  9
$DIMTOFL
 70
     1
  9
$DIMTVP
 40
0.0
  9
$DIMTIX
 70
     0
  9
$DIMSOXD
 70
     0
  9
$DIMSAH
 70
     0
  9
$DIMBLK1
  1

  9
$DIMBLK2
  1

  9
$DIMSTYLE
  2
AM_JIS
  9
$DIMCLRD
 70
     2
  9
$DIMCLRE
 70
     2
  9
$DIMCLRT
 70
     4
  9
$DIMTFAC
 40
0.71
  9
$DIMGAP
 40
1.5
  9
$LUNITS
 70
     2
  9
$LUPREC
 70
     2
  9
$SKETCHINC
 40
1.0
  9
$FILLETRAD
 40
0.0
  9
$AUNITS
 70
     0
  9
$AUPREC
 70
     0
  9
$MENU
  1
.
  9
$ELEVATION
 40
0.0
  9
$PELEVATION
 40
0.0
  9
$THICKNESS
 40
0.0
  9
$LIMCHECK
 70
     0
  9
$BLIPMODE
 70
     0
  9
$CHAMFERA
 40
3.0
  9
$CHAMFERB
 40
3.0
  9
$SKPOLY
 70
     0
  9
$TDCREATE
 40
2456829.3841110538
  9
$TDUPDATE
 40
2458540.729161459
  9
$TDINDWG
 40
0.5754806134
  9
$TDUSRTIMER
 40
0.5754802431
  9
$USRTIMER
 70
     1
  9
$ANGBASE
 50
0.0
  9
$ANGDIR
 70
     0
  9
$PDMODE
 70
     0
  9
$PDSIZE
 40
0.0
  9
$PLINEWID
 40
0.0
  9
$COORDS
 70
     1
  9
$SPLFRAME
 70
     0
  9
$SPLINETYPE
 70
     6
  9
$SPLINESEGS
 70
     8
  9
$ATTDIA
 70
     1
  9
$ATTREQ
 70
     1
  9
$HANDLING
 70
     1
  9
$HANDSEED
  5
CD8B
  9
$SURFTAB1
 70
     6
  9
$SURFTAB2
 70
     6
  9
$SURFTYPE
 70
     6
  9
$SURFU
 70
     6
  9
$SURFV
 70
     6
  9
$UCSNAME
  2

  9
$UCSORG
 10
0.0
 20
0.0
 30
0.0
  9
$UCSXDIR
 10
1.0
 20
0.0
 30
0.0
  9
$UCSYDIR
 10
0.0
 20
1.0
 30
0.0
  9
$PUCSNAME
  2

  9
$PUCSORG
 10
0.0
 20
0.0
 30
0.0
  9
$PUCSXDIR
 10
1.0
 20
0.0
 30
0.0
  9
$PUCSYDIR
 10
0.0
 20
1.0
 30
0.0
  9
$USERI1
 70
     0
  9
$USERI2
 70
     0
  9
$USERI3
 70
     0
  9
$USERI4
 70
     0
  9
$USERI5
 70
     0
  9
$USERR1
 40
0.0
  9
$USERR2
 40
0.0
  9
$USERR3
 40
0.0
  9
$USERR4
 40
0.0
  9
$USERR5
 40
0.0
  9
$WORLDVIEW
 70
     1
  9
$SHADEDGE
 70
     3
  9
$SHADEDIF
 70
    70
  9
$TILEMODE
 70
     1
  9
$MAXACTVP
 70
    64
  9
$PLIMCHECK
 70
     0
  9
$PEXTMIN
 10
1.0000000000000000E+020
 20
1.0000000000000000E+020
 30
1.0000000000000000E+020
  9
$PEXTMAX
 10
-1.0000000000000000E+020
 20
-1.0000000000000000E+020
 30
-1.0000000000000000E+020
  9
$PLIMMIN
 10
0.0
 20
0.0
  9
$PLIMMAX
 10
420.0
 20
297.0
  9
$UNITMODE
 70
     0
  9
$VISRETAIN
 70
     1
  9
$PLINEGEN
 70
     0
  9
$PSLTSCALE
 70
     1
  0
ENDSEC
  0
SECTION
  2
TABLES
  0
TABLE
  2
VPORT
 70
     1
  0
VPORT
  2
*ACTIVE
 70
     0
 10
0.0
 20
0.0
 11
1.0
 21
1.0
 12
807.65771936479632
 22
847.23136085308613
 13
0.0
 23
0.0
 14
15.0
 24
15.0
 15
60.0
 25
60.0
 16
0.0
 26
0.0
 36
1.0
 17
0.0
 27
0.0
 37
0.0
 40
860.77310583958536
 41
1.7571592210767459
 42
50.0
 43
0.0
 44
0.0
 50
0.0
 51
0.0
 71
     0
 72
  1000
 73
     1
 74
     3
 75
     0
 76
     0
 77
     0
 78
     0
  0
ENDTAB
  0
TABLE
  2
LTYPE
 70
    25
  0
LTYPE
  2
CONTINUOUS
 70
     0
  3
Solid line
 72
    65
 73
     0
 40
0.0
  0
LTYPE
  2
CENTER
 70
     0
  3
Center ____ _ ____ _ ____ _ ____ _ ____ _ ____
 72
    65
 73
     4
 40
50.799999999999997
 49
31.75
 49
-6.3499999999999979
 49
6.3499999999999979
 49
-6.3499999999999979
  0
LTYPE
  2
AM_ISO02W050
 70
     0
  3
__ __ __ __ __ __ __ __ __ __ __ __ __ __ __
 72
    65
 73
     2
 40
7.5
 49
6.0
 49
-1.5
  0
LTYPE
  2
AM_ISO08W050
 70
     0
  3
____ . ____ . ____ . ____ . ____ . ____ . ____
 72
    65
 73
     4
 40
18.0
 49
12.0
 49
-1.5
 49
3.0
 49
-1.5
  0
LTYPE
  2
AM_ISO09W050
 70
     0
  3
_____ . . _____ . . _____ . . ____ .. ____
 72
    65
 73
     6
 40
22.5
 49
12.0
 49
-1.5
 49
3.0
 49
-1.5
 49
3.0
 49
-1.5
  0
LTYPE
  2
AMCONSTR
 70
     0
  3
_______________________
 72
    65
 73
     2
 40
9999.0
 49
9999.0
 49
0.0
  0
LTYPE
  2
AM_ISO08W050X2
 70
     0
  3
__ . __ . __ . __ . __ . __
 72
    65
 73
     4
 40
9.0
 49
6.0
 49
-0.75
 49
1.5
 49
-0.75
  0
LTYPE
  2
AM_ISO02W050X2
 70
     0
  3
 _ _ _ _ _ _ _ _ _ _ _ _
 72
    65
 73
     2
 40
3.75
 49
3.0
 49
-0.75
  0
LTYPE
  2
AMZIGZAG
 70
     0
  3
/\/-/\/-/\/-/\/-/\/-/\/
 72
    65
 73
     2
 40
11.0001
 49
0.0001
 49
-11.0
  0
LTYPE
  2
ACANSTGBM
 70
     0
  3
__ . . __ . .
 72
    65
 73
     6
 40
9.0
 49
4.0
 49
-1.0
 49
1.0
 49
-1.0
 49
1.0
 49
-1.0
  0
LTYPE
  2
ACANSTGLM
 70
     0
  3
_ _ _ _ _
 72
    65
 73
     2
 40
3.0
 49
2.0
 49
-1.0
  0
LTYPE
  2
ACISOWELD
 70
     0
  3
_ _ _ _ _
 72
    65
 73
     2
 40
2.0
 49
2.0
 49
-1.0
  0
LTYPE
  2
ACISOTGB
 70
     0
  3
__ . . __ . .
 72
    65
 73
     6
 40
9.0
 49
4.0
 49
-1.0
 49
1.0
 49
-1.0
 49
1.0
 49
-1.0
  0
LTYPE
  2
ACISOTGL
 70
     0
  3
_ _ _ _ _
 72
    65
 73
     2
 40
3.0
 49
2.0
 49
-1.0
  0
LTYPE
  2
ACJISWELD
 70
     0
  3
_ _ _ _ _
 72
    65
 73
     2
 40
2.0
 49
2.0
 49
-1.0
  0
LTYPE
  2
ACJISTGB
 70
     0
  3
__ . . __ . .
 72
    65
 73
     6
 40
9.0
 49
4.0
 49
-1.0
 49
1.0
 49
-1.0
 49
1.0
 49
-1.0
  0
LTYPE
  2
ACJISTGL
 70
     0
  3
_ _ _ _ _
 72
    65
 73
     2
 40
3.0
 49
2.0
 49
-1.0
  0
LTYPE
  2
HIDDEN
 70
     0
  3
Hidden __ __ __ __ __ __ __ __ __ __ __ __ __ _
 72
    65
 73
     2
 40
9.5249999999999968
 49
6.349999999999997
 49
-3.174999999999998
  0
LTYPE
  2
PHANTOM2
 70
     0
  3
Phantom (.5x) ___ _ _ ___ _ _ ___ _ _ ___ _ _
 72
    65
 73
     6
 40
31.75
 49
15.875
 49
-3.174999999999998
 49
3.174999999999998
 49
-3.174999999999998
 49
3.174999999999998
 49
-3.174999999999998
  0
LTYPE
  2
CENTER2
 70
     0
  3
Center (.5x) ___ _ ___ _ ___ _ ___ _ ___ _ ___
 72
    65
 73
     4
 40
1.125
 49
0.75
 49
-0.125
 49
0.125
 49
-0.125
  0
LTYPE
  2
HIDDEN2
 70
     0
  3
Hidden (.5x) _ _ _ _ _ _ _ _ _ _ _ _ _ _ _ _ _
 72
    65
 73
     2
 40
0.1875
 49
0.125
 49
-0.0625
  0
LTYPE
  2
AMZIGZAG2
 70
     0
  3
/\/-/\/-/\/-/\/-/\/-/\/
 72
    65
 73
     2
 40
0.4401
 49
0.0001
 49
-0.4400000000000003
  0
LTYPE
  2
ACANSTGB
 70
     0
  3
__ . . __ . .
 72
    65
 73
     6
 40
0.35433070866
 49
0.15748031496
 49
-0.03937007874
 49
0.03937007874
 49
-0.03937007874
 49
0.03937007874
 49
-0.03937007874
  0
LTYPE
  2
ACANSTGL
 70
     0
  3
_ _ _ _ _
 72
    65
 73
     2
 40
0.11811023622
 49
0.07874015748
 49
-0.03937007874
  0
ENDTAB
  0
TABLE
  2
LAYER
 70
     4
  0
LAYER
  2
0
 70
     0
 62
     7
  6
CONTINUOUS
  0
LAYER
  2
DEFPOINTS
 70
     0
 62
     7
  6
CONTINUOUS
  0
LAYER
  2
AM_CL
 70
     0
 62
     1
  6
AMCONSTR
  0
LAYER
  2
AM_5
 70
     0
 62
     2
  6
CONTINUOUS
  0
ENDTAB
  0
TABLE
  2
STYLE
 70
     8
  0
STYLE
  2
STANDARD
 70
     0
 40
0.0
 41
0.7400000000000003
 50
0.0
 71
     0
 42
2.5
  3
txt.shx
  4
bigfont.shx
  0
STYLE
  2

 70
     1
 40
0.0
 41
1.0
 50
0.0
 71
     0
 42
2.5
  3
ltypeshp.shx
  4

  0
STYLE
  2
ACANSTS
 70
     0
 40
1.0
 41
1.0
 50
0.0
 71
     0
 42
2.5
  3
romans.shx
  4
bigfont.shx
  0
STYLE
  2
ACANSGDT
 70
     0
 40
0.0
 41
1.0
 50
0.0
 71
     0
 42
2.5
  3
amgdtans.shx
  4

  0
STYLE
  2
ACISOTS
 70
     0
 40
1.0
 41
1.0
 50
0.0
 71
     0
 42
2.5
  3
isocp.shx
  4
extfont.shx
  0
STYLE
  2
ACISOGDT
 70
     0
 40
0.0
 41
1.0
 50
0.0
 71
     0
 42
2.5
  3
amgdt.shx
  4

  0
STYLE
  2
ACJISGDT
 70
     0
 40
0.0
 41
1.0
 50
0.0
 71
     0
 42
2.5
  3
amgdt.shx
  4

  0
STYLE
  2
ACJISTS
 70
     0
 40
1.0
 41
1.0
 50
0.0
 71
     0
 42
2.5
  3
isocp.shx
  4
extfont.shx
  0
ENDTAB
  0
TABLE
  2
VIEW
 70
     6
  0
VIEW
  2
AM_VIEW1
 70
     0
 40
555.00000000000011
 10
586.60142408753904
 20
832.49999940360885
 41
1173.202846975089
 11
0.0
 21
0.0
 31
1.0
 12
0.0
 22
0.0
 32
0.0
 42
50.0
 43
0.0
 44
0.0
 50
0.0
 71
     0
  0
VIEW
  2
AM_VIEW2
 70
     0
 40
555.00000000000011
 10
1120.3985771124501
 20
832.49999940360885
 41
1173.202846975089
 11
0.0
 21
0.0
 31
1.0
 12
0.0
 22
0.0
 32
0.0
 42
50.0
 43
0.0
 44
0.0
 50
0.0
 71
     0
  0
VIEW
  2
AM_VIEW3
 70
     0
 40
555.00000000000011
 10
586.60142408753904
 20
277.49999940360868
 41
1173.202846975089
 11
0.0
 21
0.0
 31
1.0
 12
0.0
 22
0.0
 32
0.0
 42
50.0
 43
0.0
 44
0.0
 50
0.0
 71
     0
  0
VIEW
  2
AM_VIEW4
 70
     0
 40
555.00000000000011
 10
1120.3985771124501
 20
277.49999940360868
 41
1173.202846975089
 11
0.0
 21
0.0
 31
1.0
 12
0.0
 22
0.0
 32
0.0
 42
50.0
 43
0.0
 44
0.0
 50
0.0
 71
     0
  0
VIEW
  2
AM_VIEW5
 70
     0
 40
555.00000000000011
 10
853.50000059999445
 20
554.99999940360874
 41
1173.202846975089
 11
0.0
 21
0.0
 31
1.0
 12
0.0
 22
0.0
 32
0.0
 42
50.0
 43
0.0
 44
0.0
 50
0.0
 71
     0
  0
VIEW
  2
AM_VIEW6
 70
     0
 40
1109.9889000000001
 10
853.50000059999445
 20
554.99999940360874
 41
2346.3822298932391
 11
0.0
 21
0.0
 31
1.0
 12
0.0
 22
0.0
 32
0.0
 42
50.0
 43
0.0
 44
0.0
 50
0.0
 71
     0
  0
ENDTAB
  0
TABLE
  2
UCS
 70
     0
  0
ENDTAB
  0
TABLE
  2
APPID
 70
   157
  0
APPID
  2
ACAD
 70
     0
  0
APPID
  2
ACADANNOTATIVE
 70
     0
  0
APPID
  2
ACAD_MLEADERVER
 70
     0
  0
APPID
  2
MCAD_NO_VIS
 70
     0
  0
APPID
  2
ACAD_TEMP_GRAPHIC
 70
     0
  0
APPID
  2
AD_DRAW
 70
     0
  0
APPID
  2
ACATTRIBSERVICES
 70
     0
  0
APPID
  2
DESIGNERASSEMBLIES
 70
     0
  0
APPID
  2
ACADM_DIM_EDIT
 70
     0
  0
APPID
  2
AMDT_DM_ADJ
 70
     0
  0
APPID
  2
GENIUS_GENDIMSH_14
 70
     0
  0
APPID
  2
GEVID1057795304
 70
     0
  0
APPID
  2
GEVDC
 70
     0
  0
APPID
  2
GEVCON
 70
     0
  0
APPID
  2
GENIUS_GENBH_13
 70
     0
  0
APPID
  2
GENIUS_GENOENT_13
 70
     0
  0
APPID
  2
GENIUS_GENOBJ-NBEHI-BHF_13
 70
     0
  0
APPID
  2
GENIUS_GENOLIS_13
 70
     0
  0
APPID
  2
GENIUS_GENODEF_13
 70
     0
  0
APPID
  2
GENIUS_GENOREF_13
 70
     0
  0
APPID
  2
GENIUS_GENOBJ-NBEHI-BHB_13
 70
     0
  0
APPID
  2
GENIUS_GENOBJ-F-SCPASSM_13
 70
     0
  0
APPID
  2
GENIUS_GENDTOL_13
 70
     0
  0
APPID
  2
GENIUS_GENTRA_14
 70
     0
  0
APPID
  2
ASURF_PCURVE_APPNAME
 70
     0
  0
APPID
  2
GENIUS_GENCFG_13
 70
     0
  0
APPID
  2
GENIUS_GE3CFG0_13
 70
     0
  0
APPID
  2
GENIUS_GENCFG0_13
 70
     0
  0
APPID
  2
GENIUS_GENCFG1_13
 70
     0
  0
APPID
  2
GENIUS_GENCFG2_13
 70
     0
  0
APPID
  2
GENIUS_GENCFG3_13
 70
     0
  0
APPID
  2
GENIUS_GENCFG4_13
 70
     0
  0
APPID
  2
GENIUS_GEVCFG0_13
 70
     0
  0
APPID
  2
GENIUS_GENOBJ-N-TIT_13
 70
     0
  0
APPID
  2
GENIUS_GENTITLE_13
 70
     0
  0
APPID
  2
GENIUS_GENSCREG_15
 70
     0
  0
APPID
  2
GENIUS_GENOBJ-N-SDF_13
 70
     0
  0
APPID
  2
GENIUS_GENFIL_13
 70
     0
  0
APPID
  2
GENIUS_GENOBJ-N-CHA_13
 70
     0
  0
APPID
  2
GENIUS_GEFSH_13
 70
     0
  0
APPID
  2
GENIUS_GENOBJ-F-SHS_13
 70
     0
  0
APPID
  2
GENIUS_GENOBJ-N-CEN_13
 70
     0
  0
APPID
  2
GENIUS_GENREC_14
 70
     0
  0
APPID
  2
GENIUS_GENOBJ-N-REC_13
 70
     0
  0
APPID
  2
GENIUS_GENOBJ-N-HTC_13
 70
     0
  0
APPID
  2
GENIUS_GENHATCH_13
 70
     0
  0
APPID
  2
ACAD_PSEXT
 70
     0
  0
APPID
  2
ACAD_EXEMPT_FROM_CAD_STANDARDS
 70
     0
  0
APPID
  2
ACAECLAYERSTANDARD
 70
     0
  0
APPID
  2
GENIUS_GENCEN_19
 70
     0
  0
APPID
  2
ACAD_DSTYLE_DIMINSPECT
 70
     0
  0
APPID
  2
ACAD_DSTYLE_DIMANGULAR_EXT
 70
     0
  0
APPID
  2
ACADANNOPO
 70
     0
  0
APPID
  2
ACAD_NAV_VCDISPLAY
 70
     0
  0
APPID
  2
GENIUS_GENOBJ-N-FIL_13
 70
     0
  0
APPID
  2
ACAD_DSTYLE_DIMBREAK
 70
     0
  0
APPID
  2
ACAD_DSTYLE_DIMJAG
 70
     0
  0
APPID
  2
ACAD_DSTYLE_DIMRADIAL_EXTENSION
 70
     0
  0
APPID
  2
GENIUS_GENHINW_13
 70
     0
  0
APPID
  2
GENIUS_FIRSTVISTXT_14
 70
     0
  0
APPID
  2
GENIUS_GENOBJ-N-LEADER_13
 70
     0
  0
APPID
  2
GENIUS_DUMCFG0_13
 70
     0
  0
APPID
  2
ACAD_DSTYLE_DIMTEXT_FILL
 70
     0
  0
APPID
  2
AMG_2DHIDE
 70
     0
  0
APPID
  2
GENIUS_GEFSHEP_13
 70
     0
  0
APPID
  2
GENIUS_GENOBJ-F-SHE_13
 70
     0
  0
APPID
  2
GENIUS_GEFSHE_13
 70
     0
  0
APPID
  2
ACAD_DIMASSOC_DIMLFAC
 70
     0
  0
APPID
  2
ACAD_DIMASSOC_CALC_DIMLFAC
 70
     0
  0
APPID
  2
ACAD_DIMASSOC_OVERRIDDEN_D
 70
     0
  0
APPID
  2
GENIUS_GENOBJ-F-SHSV_13
 70
     0
  0
APPID
  2
GENIUS_GEFWELD_13
 70
     0
  0
APPID
  2
GENIUS_GENOBJ-N-CRS_13
 70
     0
  0
APPID
  2
GENIUS_GENOBJ-N-RSBK_13
 70
     0
  0
APPID
  2
GENIUS_GENOBJ-N-LIB_13
 70
     0
  0
APPID
  2
GENIUS_GENSCALE_13
 70
     0
  0
APPID
  2
GENIUS_GENDREL_13
 70
     0
  0
APPID
  2
GEVPT
 70
     0
  0
APPID
  2
GEVIT
 70
     0
  0
APPID
  2
VCC
 70
     0
  0
APPID
  2
GENBH
 70
     0
  0
APPID
  2
GEVMK
 70
     0
  0
APPID
  2
GENIUS_GENOBJ-F-DESC_13
 70
     0
  0
APPID
  2
GENIUS_GEFDESC_14
 70
     0
  0
APPID
  2
GENIUS_GENOBJ-F-FEAT_13
 70
     0
  0
APPID
  2
GENIUS_GEFFEAT_14
 70
     0
  0
APPID
  2
GENIUS_GEFPARTINS_13
 70
     0
  0
APPID
  2
GENIUS_GENSCREG_13
 70
     0
  0
APPID
  2
GENIUS_GEFSHP_13
 70
     0
  0
APPID
  2
GEVID1025574798
 70
     0
  0
APPID
  2
GEVID1025574769
 70
     0
  0
APPID
  2
GEVID1025757451
 70
     0
  0
APPID
  2
GEVID1240528327
 70
     0
  0
APPID
  2
AMG_2DSTRUCT_BTR
 70
     0
  0
APPID
  2
ACADM_2DVIEW_IGN_NOTIFY
 70
     0
  0
APPID
  2
GEVID1240528328
 70
     0
  0
APPID
  2
GEVID1240528329
 70
     0
  0
APPID
  2
GEVRADREF
 70
     0
  0
APPID
  2
GEVID1240528330
 70
     0
  0
APPID
  2
GEVID1240528331
 70
     0
  0
APPID
  2
GEVID1240528332
 70
     0
  0
APPID
  2
GEVID1240791080
 70
     0
  0
APPID
  2
GEVID1240791081
 70
     0
  0
APPID
  2
GEVID1240791082
 70
     0
  0
APPID
  2
GEVID1240791083
 70
     0
  0
APPID
  2
GEVID1240791084
 70
     0
  0
APPID
  2
GEVID1240791085
 70
     0
  0
APPID
  2
GEVID1240791086
 70
     0
  0
APPID
  2
GEVID1240791087
 70
     0
  0
APPID
  2
GEVID1240791088
 70
     0
  0
APPID
  2
GEVID1240791089
 70
     0
  0
APPID
  2
GEVID1240791090
 70
     0
  0
APPID
  2
GEVID1240791091
 70
     0
  0
APPID
  2
GEVID1240791092
 70
     0
  0
APPID
  2
GEVID1240791093
 70
     0
  0
APPID
  2
GEVID1240791094
 70
     0
  0
APPID
  2
GEVID1240791095
 70
     0
  0
APPID
  2
GEVID1240791096
 70
     0
  0
APPID
  2
GEVID1240791097
 70
     0
  0
APPID
  2
GEVID1240791098
 70
     0
  0
APPID
  2
GEVID1240791099
 70
     0
  0
APPID
  2
GEVID1240791100
 70
     0
  0
APPID
  2
GEVID1240791101
 70
     0
  0
APPID
  2
GEVID1240791102
 70
     0
  0
APPID
  2
GEVID1240791103
 70
     0
  0
APPID
  2
GEVID1240791104
 70
     0
  0
APPID
  2
GEVID1240791105
 70
     0
  0
APPID
  2
GEVID1240875381
 70
     0
  0
APPID
  2
GEVID1240875382
 70
     0
  0
APPID
  2
GEVID1240875383
 70
     0
  0
APPID
  2
GEVID1240875384
 70
     0
  0
APPID
  2
GEVID1240875385
 70
     0
  0
APPID
  2
GEVID1240875386
 70
     0
  0
APPID
  2
GEVID1240875387
 70
     0
  0
APPID
  2
GEVID1240875388
 70
     0
  0
APPID
  2
GEVID1240875389
 70
     0
  0
APPID
  2
GEVID1240875390
 70
     0
  0
APPID
  2
GEVID1240875391
 70
     0
  0
APPID
  2
GEVID1240875392
 70
     0
  0
APPID
  2
GEVID1240875393
 70
     0
  0
APPID
  2
GEVID1240875394
 70
     0
  0
APPID
  2
GEVID1240875395
 70
     0
  0
APPID
  2
GEVID1240875396
 70
     0
  0
APPID
  2
GEVID1240875397
 70
     0
  0
APPID
  2
GEVID1240875398
 70
     0
  0
APPID
  2
GEVID1240875399
 70
     0
  0
APPID
  2
GEVID1240908996
 70
     0
  0
APPID
  2
GEVID1240908997
 70
     0
  0
APPID
  2
GEVID1240908998
 70
     0
  0
APPID
  2
GEVID1240908999
 70
     0
  0
APPID
  2
GEVID1240909000
 70
     0
  0
APPID
  2
GENIUS_GENOBJ-N-ZOO_13
 70
     0
  0
APPID
  2
GENIUS_GENZOO_17
 70
     0
  0
APPID
  2
GENIUS_GE3SECT_13
 70
     0
  0
APPID
  2
GEV_VCCNULL_SWITCH_OFF
 70
     0
  0
APPID
  2
ACAD_DSTYLE_DIMTALN
 70
     0
  0
APPID
  2
DCO15
 70
     0
  0
ENDTAB
  0
TABLE
  2
DIMSTYLE
 70
    22
  0
DIMSTYLE
  2
AM_ANSI
 70
     0
  3

  4
"
  5

  6

  7

 40
1.0
 41
2.5
 42
1.0
 43
10.0
 44
1.0
 45
0.0
 46
0.0
 47
0.1
 48
0.1
140
3.5
141
0.0
142
0.0
143
0.0393701
144
1.0
145
0.0
146
0.71
147
1.5
 71
     0
 72
     0
 73
     1
 74
     1
 75
     0
 76
     0
 77
     0
 78
     8
170
     0
171
     2
172
     0
173
     0
174
     0
175
     0
176
     2
177
     2
178
     4
  0
DIMSTYLE
  2
AM_ANSI$3
 70
     0
  3

  4
"
  5

  6

  7

 40
1.0
 41
2.5
 42
1.0
 43
10.0
 44
1.0
 45
0.0
 46
0.0
 47
0.1
 48
0.1
140
3.5
141
0.0
142
0.0
143
0.0393701
144
1.0
145
0.0
146
0.71
147
1.5
 71
     0
 72
     0
 73
     1
 74
     1
 75
     0
 76
     0
 77
     0
 78
     8
170
     0
171
     2
172
     0
173
     0
174
     0
175
     0
176
     2
177
     2
178
     4
  0
DIMSTYLE
  2
AM_ANSI$4
 70
     0
  3

  4
"
  5

  6

  7

 40
1.0
 41
2.5
 42
1.0
 43
10.0
 44
1.0
 45
0.0
 46
0.0
 47
0.1
 48
0.1
140
3.5
141
0.0
142
0.0
143
0.0393701
144
1.0
145
0.0
146
0.71
147
1.5
 71
     0
 72
     0
 73
     1
 74
     1
 75
     0
 76
     0
 77
     0
 78
     8
170
     0
171
     2
172
     0
173
     0
174
     0
175
     0
176
     2
177
     2
178
     4
  0
DIMSTYLE
  2
AM_ANSI$7
 70
     0
  3

  4
"
  5

  6

  7

 40
1.0
 41
2.5
 42
1.0
 43
10.0
 44
1.0
 45
0.0
 46
0.0
 47
0.1
 48
0.1
140
5.0
141
0.0
142
0.0
143
0.0393701
144
1.0
145
0.0
146
0.71
147
1.5
 71
     0
 72
     0
 73
     1
 74
     1
 75
     0
 76
     0
 77
     0
 78
     8
170
     0
171
     2
172
     0
173
     0
174
     0
175
     0
176
     2
177
     2
178
     4
  0
DIMSTYLE
  2
AM_ANSI$SF
 70
     0
  3

  4
"
  5

  6

  7

 40
1.0
 41
2.5
 42
1.0
 43
10.0
 44
1.0
 45
0.0
 46
0.0
 47
0.1
 48
0.1
140
3.5
141
0.0
142
0.0
143
0.0393701
144
1.0
145
0.0
146
0.71
147
1.5
 71
     0
 72
     0
 73
     1
 74
     1
 75
     1
 76
     1
 77
     0
 78
     8
170
     0
171
     2
172
     0
173
     0
174
     0
175
     0
176
     2
177
     2
178
     4
  0
DIMSTYLE
  2
AM_ANSI$SH
 70
     0
  3

  4
"
  5

  6
GENAXEH
  7

 40
1.0
 41
2.5
 42
1.0
 43
10.0
 44
1.0
 45
0.0
 46
0.0
 47
0.1
 48
0.1
140
3.5
141
0.0
142
0.0
143
0.0393701
144
1.0
145
0.0
146
0.71
147
1.5
 71
     0
 72
     0
 73
     1
 74
     1
 75
     1
 76
     1
 77
     0
 78
     8
170
     0
171
     2
172
     0
173
     1
174
     0
175
     0
176
     2
177
     2
178
     4
  0
DIMSTYLE
  2
AM_ISO
 70
     0
  3

  4
"
  5

  6

  7

 40
1.0
 41
2.5
 42
1.0
 43
10.0
 44
1.0
 45
0.0
 46
0.0
 47
0.1
 48
0.1
140
3.5
141
0.0
142
0.0
143
0.0393701
144
1.0
145
0.0
146
0.71
147
1.5
 71
     0
 72
     0
 73
     0
 74
     0
 75
     0
 76
     0
 77
     1
 78
     8
170
     0
171
     2
172
     1
173
     0
174
     0
175
     0
176
   256
177
   256
178
     2
  0
DIMSTYLE
  2
AM_ISO$3
 70
     0
  3

  4
"
  5

  6

  7

 40
1.0
 41
2.5
 42
1.0
 43
10.0
 44
1.0
 45
0.0
 46
0.0
 47
0.1
 48
0.1
140
3.5
141
0.0
142
0.0
143
0.0393701
144
1.0
145
0.0
146
0.71
147
1.5
 71
     0
 72
     0
 73
     0
 74
     1
 75
     0
 76
     0
 77
     1
 78
     8
170
     0
171
     2
172
     0
173
     0
174
     0
175
     0
176
   256
177
   256
178
     2
  0
DIMSTYLE
  2
AM_ISO$4
 70
     0
  3

  4
"
  5

  6

  7

 40
1.0
 41
2.5
 42
1.0
 43
10.0
 44
1.0
 45
0.0
 46
0.0
 47
0.1
 48
0.1
140
3.5
141
0.0
142
0.0
143
0.0393701
144
1.0
145
0.0
146
0.71
147
1.5
 71
     0
 72
     0
 73
     0
 74
     1
 75
     0
 76
     0
 77
     1
 78
     8
170
     0
171
     2
172
     0
173
     0
174
     0
175
     0
176
   256
177
   256
178
     2
  0
DIMSTYLE
  2
AM_ISO$6
 70
     0
  3

  4
"
  5

  6

  7

 40
1.0
 41
2.5
 42
1.0
 43
10.0
 44
1.0
 45
0.0
 46
0.0
 47
0.1
 48
0.1
140
3.5
141
0.0
142
0.0
143
0.0393701
144
1.0
145
0.0
146
0.71
147
1.5
 71
     0
 72
     0
 73
     0
 74
     0
 75
     0
 76
     0
 77
     0
 78
     8
170
     0
171
     2
172
     1
173
     0
174
     0
175
     0
176
   256
177
   256
178
     2
  0
DIMSTYLE
  2
AM_ISO$7
 70
     0
  3

  4
"
  5

  6

  7

 40
1.0
 41
2.5
 42
1.0
 43
10.0
 44
1.0
 45
0.0
 46
0.0
 47
0.1
 48
0.1
140
5.0
141
0.0
142
0.0
143
0.0393701
144
1.0
145
0.0
146
0.71
147
1.5
 71
     0
 72
     0
 73
     0
 74
     0
 75
     0
 76
     0
 77
     1
 78
     8
170
     0
171
     2
172
     1
173
     0
174
     0
175
     0
176
   256
177
   256
178
     2
  0
DIMSTYLE
  2
AM_ISO$SF
 70
     0
  3

  4
"
  5

  6

  7

 40
1.0
 41
2.5
 42
1.0
 43
10.0
 44
1.0
 45
0.0
 46
0.0
 47
0.1
 48
0.1
140
3.5
141
0.0
142
0.0
143
0.0393701
144
1.0
145
0.0
146
0.71
147
1.5
 71
     0
 72
     0
 73
     0
 74
     0
 75
     1
 76
     1
 77
     1
 78
     8
170
     0
171
     2
172
     1
173
     0
174
     0
175
     0
176
   256
177
   256
178
     2
  0
DIMSTYLE
  2
AM_ISO$SH
 70
     0
  3

  4
"
  5

  6
GENAXEH
  7

 40
1.0
 41
2.5
 42
1.0
 43
10.0
 44
1.0
 45
0.0
 46
0.0
 47
0.1
 48
0.1
140
3.5
141
0.0
142
0.0
143
0.0393701
144
2.0
145
0.0
146
0.71
147
1.5
 71
     0
 72
     0
 73
     0
 74
     0
 75
     1
 76
     1
 77
     1
 78
     8
170
     0
171
     2
172
     1
173
     1
174
     0
175
     0
176
   256
177
   256
178
     2
  0
DIMSTYLE
  2
AM_JIS
 70
     0
  3

  4
"
  5

  6

  7

 40
1.0
 41
2.0
 42
1.0
 43
8.0
 44
1.0
 45
0.0
 46
0.0
 47
0.1
 48
0.1
140
2.5
141
0.0
142
0.0
143
0.0393701
144
1.0
145
0.0
146
0.71
147
1.5
 71
     0
 72
     0
 73
     0
 74
     0
 75
     0
 76
     0
 77
     3
 78
     8
170
     0
171
     2
172
     1
173
     0
174
     0
175
     0
176
     2
177
     2
178
     4
  0
DIMSTYLE
  2
AM_JIS$3
 70
     0
  3

  4
"
  5

  6

  7

 40
1.0
 41
2.0
 42
1.0
 43
10.0
 44
1.0
 45
0.0
 46
0.0
 47
0.1
 48
0.1
140
2.5
141
0.0
142
0.0
143
0.0393701
144
1.0
145
0.0
146
0.71
147
1.5
 71
     0
 72
     0
 73
     0
 74
     1
 75
     0
 76
     0
 77
     3
 78
     8
170
     0
171
     2
172
     0
173
     0
174
     0
175
     0
176
     2
177
     2
178
     4
  0
DIMSTYLE
  2
AM_JIS$4
 70
     0
  3

  4
"
  5

  6

  7

 40
1.0
 41
2.0
 42
1.0
 43
10.0
 44
1.0
 45
0.0
 46
0.0
 47
0.1
 48
0.1
140
2.5
141
0.0
142
0.0
143
0.0393701
144
1.0
145
0.0
146
0.71
147
1.5
 71
     0
 72
     0
 73
     0
 74
     0
 75
     0
 76
     0
 77
     3
 78
     8
170
     0
171
     2
172
     0
173
     0
174
     0
175
     0
176
     2
177
     2
178
     4
  0
DIMSTYLE
  2
AM_JIS$6
 70
     0
  3

  4
"
  5

  6

  7

 40
1.0
 41
2.0
 42
1.0
 43
10.0
 44
1.0
 45
0.0
 46
0.0
 47
0.1
 48
0.1
140
2.5
141
0.0
142
0.0
143
0.0393701
144
1.0
145
0.0
146
0.71
147
1.5
 71
     0
 72
     0
 73
     0
 74
     0
 75
     0
 76
     0
 77
     0
 78
     8
170
     0
171
     2
172
     1
173
     0
174
     0
175
     0
176
     2
177
     2
178
     4
  0
DIMSTYLE
  2
AM_JIS$7
 70
     0
  3

  4
"
  5

  6
OPEN30
  7
OPEN30
 40
1.0
 41
2.0
 42
1.0
 43
10.0
 44
1.0
 45
0.0
 46
0.0
 47
0.1
 48
0.1
140
2.5
141
0.0
142
0.0
143
0.0393701
144
1.0
145
0.0
146
0.71
147
1.5
 71
     0
 72
     0
 73
     0
 74
     0
 75
     0
 76
     0
 77
     3
 78
     8
170
     0
171
     2
172
     1
173
     0
174
     0
175
     0
176
     2
177
     2
178
     4
  0
DIMSTYLE
  2
AM_JIS$SF
 70
     0
  3

  4
"
  5

  6

  7

 40
1.0
 41
2.0
 42
1.0
 43
10.0
 44
1.0
 45
0.0
 46
0.0
 47
0.1
 48
0.1
140
2.5
141
0.0
142
0.0
143
0.0393701
144
1.0
145
0.0
146
0.71
147
1.5
 71
     0
 72
     0
 73
     0
 74
     0
 75
     1
 76
     1
 77
     3
 78
     8
170
     0
171
     2
172
     1
173
     0
174
     0
175
     0
176
     2
177
     2
178
     4
  0
DIMSTYLE
  2
AM_JIS$SH
 70
     0
  3

  4
"
  5

  6
GENAXEH
  7

 40
1.0
 41
2.0
 42
1.0
 43
10.0
 44
1.0
 45
0.0
 46
0.0
 47
0.1
 48
0.1
140
2.5
141
0.0
142
0.0
143
0.0393701
144
2.0
145
0.0
146
0.71
147
1.5
 71
     0
 72
     0
 73
     0
 74
     0
 75
     1
 76
     1
 77
     3
 78
     8
170
     0
171
     2
172
     1
173
     1
174
     0
175
     0
176
     2
177
     2
178
     4
  0
DIMSTYLE
  2
AM_JIS$0
 70
     0
  3

  4
"
  5

  6

  7

 40
1.0
 41
2.0
 42
1.0
 43
8.0
 44
1.0
 45
0.0
 46
0.0
 47
0.1
 48
0.1
140
2.5
141
0.0
142
0.0
143
0.0393701
144
1.0
145
0.0
146
0.71
147
1.5
 71
     0
 72
     0
 73
     0
 74
     0
 75
     0
 76
     0
 77
     3
 78
     8
170
     0
171
     2
172
     1
173
     0
174
     0
175
     0
176
     2
177
     2
178
     4
  0
DIMSTYLE
  2
AM_JIS$2
 70
     0
  3

  4
"
  5

  6

  7

 40
1.0
 41
2.0
 42
1.0
 43
8.0
 44
1.0
 45
0.0
 46
0.0
 47
0.1
 48
0.1
140
2.5
141
0.0
142
0.0
143
0.0393701
144
1.0
145
0.0
146
0.71
147
1.5
 71
     0
 72
     0
 73
     0
 74
     0
 75
     0
 76
     0
 77
     3
 78
     8
170
     0
171
     2
172
     1
173
     0
174
     0
175
     0
176
     2
177
     2
178
     4
  0
ENDTAB
  0
ENDSEC
  0
SECTION
  2
BLOCKS
  0
BLOCK
  8
0
  2
$MODEL_SPACE
 70
     0
 10
0.0
 20
0.0
 30
0.0
  3
$MODEL_SPACE
  1

  0
ENDBLK
  5
77
  8
0
  0
BLOCK
 67
     1
  8
0
  2
$PAPER_SPACE
 70
     0
 10
0.0
 20
0.0
 30
0.0
  3
$PAPER_SPACE
  1

  0
ENDBLK
  5
73
 67
     1
  8
0
  0
BLOCK
  8
0
  2
GENAXEH
 70
     0
 10
0.0
 20
0.0
 30
0.0
  3
GENAXEH
  1

  0
LINE
  5
CC03
  8
0
 10
-1.0
 20
0.0
 30
0.0
 11
1.0
 21
0.0
 31
0.0
  0
ENDBLK
  5
CC04
  8
0
  0
BLOCK
  8
0
  2
_OPEN30
 70
     0
 10
0.0
 20
0.0
 30
0.0
  3
_OPEN30
  1

  0
LINE
  5
CC4A
  8
0
  6
BYBLOCK
 62
     0
 10
-1.0
 20
0.26794919
 30
0.0
 11
0.0
 21
0.0
 31
0.0
  0
LINE
  5
CC4B
  8
0
  6
BYBLOCK
 62
     0
 10
0.0
 20
0.0
 30
0.0
 11
-1.0
 21
-0.26794919
 31
0.0
  0
LINE
  5
CC4C
  8
0
  6
BYBLOCK
 62
     0
 10
0.0
 20
0.0
 30
0.0
 11
-1.0
 21
0.0
 31
0.0
  0
ENDBLK
  5
CC4D
  8
0
  0
BLOCK
  8
0
  2
_ACMOPEN15
 70
     0
 10
0.0
 20
0.0
 30
0.0
  3
_ACMOPEN15
  1

  0
LINE
  5
C77E
  8
0
 62
     0
 10
-1.0
 20
0.0
 30
0.0
 11
0.0
 21
0.0
 31
0.0
  0
LINE
  5
C77F
  8
0
 62
     0
 10
-1.0
 20
-0.131652497
 30
0.0
 11
0.0
 21
0.0
 31
0.0
  0
LINE
  5
C780
  8
0
 62
     0
 10
0.0
 20
0.0
 30
0.0
 11
-1.0
 21
0.131652497
 31
0.0
  0
ENDBLK
  5
C781
  8
0
  0
BLOCK
  8
0
  2
_ACMFILLEDHALF
 70
     0
 10
0.0
 20
0.0
 30
0.0
  3
_ACMFILLEDHALF
  1

  0
TRACE
  5
C706
  8
0
 62
     0
 10
-0.8
 20
0.0
 30
0.0
 11
-1.0
 21
0.166666666
 31
0.0
 12
0.0
 22
0.0
 32
0.0
 13
0.0
 23
0.0
 33
0.0
  0
LINE
  5
C707
  8
0
 62
     0
 10
-1.0
 20
0.0
 30
0.0
 11
-0.8
 21
0.0
 31
0.0
  0
ENDBLK
  5
C708
  8
0
  0
BLOCK
  8
0
  2
_ACMFILLED
 70
     0
 10
0.0
 20
0.0
 30
0.0
  3
_ACMFILLED
  1

  0
TRACE
  5
C716
  8
0
 62
     0
 10
-1.0
 20
-0.166666666
 30
0.0
 11
-1.0
 21
0.166666666
 31
0.0
 12
0.0
 22
0.0
 32
0.0
 13
0.0
 23
0.0
 33
0.0
  0
ENDBLK
  5
C717
  8
0
  0
BLOCK
  8
0
  2
_ACMFILLED15
 70
     0
 10
0.0
 20
0.0
 30
0.0
  3
_ACMFILLED15
  1

  0
TRACE
  5
C74B
  8
0
 62
     0
 10
-1.0
 20
-0.131652497
 30
0.0
 11
-1.0
 21
0.131652497
 31
0.0
 12
0.0
 22
0.0
 32
0.0
 13
0.0
 23
0.0
 33
0.0
  0
ENDBLK
  5
C74C
  8
0
  0
ENDSEC
  0
SECTION
  2
ENTITIES
  0
LINE
  5
A649
  8
0
 10
832.78021947985883
 20
685.02360006933225
 30
0.0
 11
913.7802694798587
 21
685.02360006933225
 31
0.0
  0
LINE
  5
A64A
  8
0
 10
832.78021947985883
 20
685.02360006933225
 30
0.0
 11
832.78021947985883
 21
681.02360006933225
 31
0.0
  0
LINE
  5
A64B
  8
0
 10
808.78021947985872
 20
621.0235800693323
 30
0.0
 11
913.7802694798587
 21
621.0235800693323
 31
0.0
  0
LINE
  5
A64C
  8
0
 10
808.78021947985872
 20
681.02360006933225
 30
0.0
 11
913.7802694798587
 21
681.02360006933225
 31
0.0
  0
LINE
  5
A64D
  8
0
 10
913.7802694798587
 20
685.02360006933225
 30
0.0
 11
913.7802694798587
 21
621.0235800693323
 31
0.0
  0
LINE
  5
A64E
  8
0
 10
808.78021947985872
 20
683.52360006933225
 30
0.0
 11
808.78021947985872
 21
618.52358006933218
 31
0.0
  0
LINE
  5
A64F
  8
0
 10
802.78021947985872
 20
618.52358006933218
 30
0.0
 11
808.78021947985872
 21
618.52358006933218
 31
0.0
  0
LINE
  5
A650
  8
0
 10
802.78021947985872
 20
683.52360006933225
 30
0.0
 11
808.78021947985872
 21
683.52360006933225
 31
0.0
  0
LINE
  5
A651
  8
0
 10
1263.2637497858109
 20
685.02360006933225
 30
0.0
 11
1263.2637497858109
 21
674.0235800693323
 31
0.0
  0
LINE
  5
A652
  8
0
 10
1245.2637497858109
 20
674.0235800693323
 30
0.0
 11
1263.2637497858109
 21
674.0235800693323
 31
0.0
  0
LINE
  5
A653
  8
0
 10
1245.2637497858109
 20
685.02360006933225
 30
0.0
 11
1263.2637497858109
 21
685.02360006933225
 31
0.0
  0
LINE
  5
A654
  8
0
 10
1245.2637497858109
 20
685.02360006933225
 30
0.0
 11
1245.2637497858109
 21
674.0235800693323
 31
0.0
  0
LINE
  5
A655
  8
0
 10
1249.263779785811
 20
829.02360006933225
 30
0.0
 11
1249.263779785811
 21
787.02360006933225
 31
0.0
  0
LINE
  5
A656
  8
0
 10
1259.263779785811
 20
829.02360006933225
 30
0.0
 11
1259.263779785811
 21
787.02360006933225
 31
0.0
  0
LINE
  5
A657
  8
0
 10
1266.882399785811
 20
782.58070006933235
 30
0.0
 11
1264.5132597858101
 21
791.42250006933216
 31
0.0
  0
LINE
  5
A658
  8
0
 10
1241.6450947858109
 20
782.58070006933235
 30
0.0
 11
1244.0142697858109
 21
791.42250006933216
 31
0.0
  0
LINE
  5
A659
  8
0
 10
1244.78571978581
 20
792.14455006933224
 30
0.0
 11
1249.263779785811
 21
793.03230006933245
 31
0.0
  0
LINE
  5
A65A
  8
0
 10
1259.2637497858109
 20
793.03235006933232
 30
0.0
 11
1263.7418047858109
 21
792.14455006933224
 31
0.0
  0
LINE
  5
A65B
  8
0
 10
660.28021947985883
 20
783.02360006933225
 30
0.0
 11
660.28021947985883
 21
503.26167506933223
 31
0.0
  0
LINE
  5
A65C
  8
0
 10
799.67556947985872
 20
716.13200006933243
 30
0.0
 11
799.88491947985904
 21
716.12465006933223
 31
0.0
  0
LINE
  5
A65D
  8
0
 10
615.67681947985875
 20
460.78215006933209
 30
0.0
 11
662.17681947985875
 21
505.06786006933231
 31
0.0
  0
LINE
  5
A65E
  8
0
 10
1154.263779785811
 20
453.02357506933208
 30
0.0
 11
1154.263779785811
 21
426.0235750693322
 31
0.0
  0
LINE
  5
A65F
  8
0
 10
1074.2637647858089
 20
426.0235750693322
 30
0.0
 11
1154.263779785811
 21
426.0235750693322
 31
0.0
  0
LINE
  5
A660
  8
0
 10
1079.2637647858101
 20
458.02357506933208
 30
0.0
 11
1149.263779785811
 21
458.02357506933208
 31
0.0
  0
LINE
  5
A661
  8
0
 10
1157.2637497858109
 20
429.02357506933208
 30
0.0
 11
1254.263779785811
 21
429.02357506933208
 31
0.0
  0
LINE
  5
A662
  8
0
 10
1117.44535478581
 20
682.82515006933227
 30
0.0
 11
1074.2637647858089
 21
460.67509506933231
 31
0.0
  0
LINE
  5
A663
  8
0
 10
1074.2637647858089
 20
460.67509506933231
 30
0.0
 11
1074.2637647858089
 21
426.0235750693322
 31
0.0
  0
LINE
  5
A664
  8
0
 10
542.78021947985849
 20
453.02357506933208
 30
0.0
 11
542.78021947985849
 21
426.0235750693322
 31
0.0
  0
LINE
  5
A665
  8
0
 10
547.78021947985872
 20
458.02357506933208
 30
0.0
 11
608.7802194798586
 21
458.02357506933208
 31
0.0
  0
LINE
  5
A666
  8
0
 10
802.78021947985872
 20
453.02357506933208
 30
0.0
 11
802.78021947985872
 21
426.0235750693322
 31
0.0
  0
LINE
  5
A667
  8
0
 10
751.78021947985872
 20
458.02357506933208
 30
0.0
 11
797.78021947985872
 21
458.02357506933208
 31
0.0
  0
LINE
  5
A668
  8
0
 10
736.78021947985872
 20
496.67555506933218
 30
0.0
 11
756.78021947985872
 21
496.67555506933218
 31
0.0
  0
LINE
  5
A669
  8
0
 10
542.78021947985849
 20
426.0235750693322
 30
0.0
 11
802.78021947985872
 21
426.0235750693322
 31
0.0
  0
LINE
  5
A66A
  8
0
 10
775.90871947985875
 20
744.84965006933237
 30
0.0
 11
789.47741947985855
 21
743.66250006933217
 31
0.0
  0
LINE
  5
A66B
  8
0
 10
802.78021947985872
 20
713.12650006933245
 30
0.0
 11
802.78021947985872
 21
588.92064506933229
 31
0.0
  0
LINE
  5
A66C
  8
0
 10
796.78021947985872
 20
735.69290006933215
 30
0.0
 11
796.78021947985872
 21
458.02357506933208
 31
0.0
  0
LINE
  5
A66D
  8
0
 10
665.28021947985883
 20
580.32579506933223
 30
0.0
 11
665.28021947985883
 21
512.3092850693323
 31
0.0
  0
LINE
  5
A66E
  8
0
 10
799.67556947985872
 20
585.91518006933222
 30
0.0
 11
799.88496947985868
 21
585.92247506933211
 31
0.0
  0
LINE
  5
A66F
  8
0
 10
766.78021947985872
 20
764.64455006933235
 30
0.0
 11
766.78021947985872
 21
506.67555506933212
 31
0.0
  0
LINE
  5
A670
  8
0
 10
736.78021947985872
 20
686.95055006933239
 30
0.0
 11
736.78021947985872
 21
473.02357506933231
 31
0.0
  0
LINE
  5
A671
  8
0
 10
701.99536947985871
 20
776.56380006933216
 30
0.0
 11
757.12921947985842
 21
774.63845006933241
 31
0.0
  0
LINE
  5
A672
  8
0
 10
751.78021947985872
 20
701.95050006933229
 30
0.0
 11
766.78021947985872
 21
701.95050006933229
 31
0.0
  0
LINE
  5
A673
  8
0
 10
1124.263779785811
 20
700.32560006933227
 30
0.0
 11
1124.263779785811
 21
563.0235800693323
 31
0.0
  0
LINE
  5
A674
  8
0
 10
660.28026947985882
 20
783.02360006933225
 30
0.0
 11
685.29671947985889
 21
782.15000006933235
 31
0.0
  0
LINE
  5
A675
  8
0
 10
694.59871947985846
 20
779.4827000693324
 30
0.0
 11
697.34441947985874
 21
777.89750006933241
 31
0.0
  0
LINE
  5
A676
  8
0
 10
1147.2637497858109
 20
636.0235800693323
 30
0.0
 11
1147.2637497858109
 21
473.02357506933231
 31
0.0
  0
LINE
  5
A677
  8
0
 10
660.28021947985883
 20
580.32579506933223
 30
0.0
 11
690.28021947985872
 21
580.32579506933223
 31
0.0
  0
LINE
  5
A678
  8
0
 10
690.28021947985872
 20
781.3382000693324
 30
0.0
 11
690.28021947985872
 21
580.32579506933223
 31
0.0
  0
LINE
  5
A679
  8
0
 10
1188.44077978581
 20
440.70311006933252
 30
0.0
 11
1178.265699785811
 21
448.09572006933229
 31
0.0
  0
LINE
  5
A67A
  8
0
 10
1194.3186197858111
 20
438.79329006933199
 30
0.0
 11
1254.263779785811
 21
438.79329006933199
 31
0.0
  0
LINE
  5
A67B
  8
0
 10
1157.1926697858109
 20
438.95253006933223
 30
0.0
 11
1165.316784785811
 21
447.07664506933219
 31
0.0
  0
LINE
  5
A67C
  8
0
 10
1351.334824785811
 20
438.9525000693323
 30
0.0
 11
1343.2107097858111
 21
447.07661506933221
 31
0.0
  0
LINE
  5
A67D
  8
0
 10
1314.2089097858111
 20
438.79329006933199
 30
0.0
 11
1254.263779785811
 21
438.79329006933199
 31
0.0
  0
LINE
  5
A67E
  8
0
 10
1320.086749785811
 20
440.70311006933252
 30
0.0
 11
1330.261829785811
 21
448.09572006933229
 31
0.0
  0
LINE
  5
A67F
  8
0
 10
1361.2637497858109
 20
636.0235800693323
 30
0.0
 11
1361.2637497858109
 21
473.02357506933231
 31
0.0
  0
LINE
  5
A680
  8
0
 10
1384.263764785811
 20
700.32560006933227
 30
0.0
 11
1384.263764785811
 21
563.0235800693323
 31
0.0
  0
LINE
  5
A681
  8
0
 10
1434.263764785811
 20
460.67509506933231
 30
0.0
 11
1434.263764785811
 21
426.0235750693322
 31
0.0
  0
LINE
  5
A682
  8
0
 10
1391.0821547858111
 20
682.82515006933227
 30
0.0
 11
1434.263764785811
 21
460.67506506933228
 31
0.0
  0
LINE
  5
A683
  8
0
 10
1351.2637497858109
 20
429.02357506933208
 30
0.0
 11
1254.263779785811
 21
429.02357506933208
 31
0.0
  0
LINE
  5
A684
  8
0
 10
1429.263764785811
 20
458.02357506933208
 30
0.0
 11
1359.263764785811
 21
458.02357506933208
 31
0.0
  0
LINE
  5
A685
  8
0
 10
1434.263764785811
 20
426.0235750693322
 30
0.0
 11
1354.263764785811
 21
426.0235750693322
 31
0.0
  0
LINE
  5
A686
  8
0
 10
1354.263764785811
 20
453.02357506933208
 30
0.0
 11
1354.263764785811
 21
426.0235750693322
 31
0.0
  0
LINE
  5
A687
  8
0
 10
642.21046947985838
 20
782.40310006933248
 30
0.0
 11
659.98021947985842
 21
783.02365006933246
 31
0.0
  0
LINE
  5
A688
  8
0
 10
627.2802694798587
 20
781.02360006933225
 30
0.0
 11
627.2802694798587
 21
744.02670006933238
 31
0.0
  0
LINE
  5
A689
  8
0
 10
640.28021947985883
 20
780.40425006933242
 30
0.0
 11
640.28021947985883
 21
484.49977506933209
 31
0.0
  0
LINE
  5
A68A
  8
0
 10
620.28021947985883
 20
731.2173000693324
 30
0.0
 11
620.28021947985883
 21
470.9241800693319
 31
0.0
  0
LINE
  5
A68B
  8
0
 10
629.28021947985883
 20
783.02360006933225
 30
0.0
 11
659.98021947985842
 21
783.02360006933225
 31
0.0
  0
LINE
  5
A68C
  8
0
 10
578.28026947985882
 20
491.02357506933208
 30
0.0
 11
615.28021947985883
 21
491.02357506933208
 31
0.0
  0
LINE
  5
A68F
  8
0
 10
578.28026947985882
 20
715.02360006933236
 30
0.0
 11
615.28021947985883
 21
715.02360006933236
 31
0.0
  0
LINE
  5
A692
  8
0
 10
639.1543694798587
 20
751.12280006933236
 30
0.0
 11
625.40376947985851
 21
740.12240006933223
 31
0.0
  0
LINE
  5
A693
  8
0
 10
625.70366947985849
 20
740.12240006933223
 30
0.0
 11
624.33331947985869
 21
739.02610006933241
 31
0.0
  0
LINE
  5
A694
  8
0
 10
632.48621947985828
 20
792.02360006933225
 30
0.0
 11
652.07431947985879
 21
792.02360006933225
 31
0.0
  0
LINE
  5
A695
  8
0
 10
629.78026947985882
 20
783.02360006933225
 30
0.0
 11
632.0307694798588
 21
791.42250006933216
 31
0.0
  0
LINE
  5
A696
  8
0
 10
654.7802194798586
 20
783.02360006933225
 30
0.0
 11
652.52971947985861
 21
791.42250006933216
 31
0.0
  0
LINE
  5
A697
  8
0
 10
632.80221947985865
 20
792.14455006933224
 30
0.0
 11
642.28026947985882
 21
794.02350006933227
 31
0.0
  0
LINE
  5
A698
  8
0
 10
642.28026947985882
 20
794.02360006933247
 30
0.0
 11
651.75831947985853
 21
792.14460006933245
 31
0.0
  0
LINE
  5
A69F
  8
0
 10
576.28021947985883
 20
689.69845006933235
 30
0.0
 11
620.28021947985883
 21
689.69845006933235
 31
0.0
  0
LINE
  5
A6A0
  8
0
 10
576.28021947985883
 20
673.95641006933215
 30
0.0
 11
620.28021947985883
 21
673.95641006933215
 31
0.0
  0
LINE
  5
A6A1
  8
0
 10
576.28021947985883
 20
532.09077506933249
 30
0.0
 11
620.28021947985883
 21
532.09077506933249
 31
0.0
  0
LINE
  5
A6A2
  8
0
 10
576.28021947985883
 20
516.34871006933224
 30
0.0
 11
620.28021947985883
 21
516.34871006933224
 31
0.0
  0
LINE
  5
A6A3
  8
0
 10
659.98021947985842
 20
783.02360006933225
 30
0.0
 11
660.28021947985883
 21
783.02360006933225
 31
0.0
  0
ARC
  5
A6AD
  8
0
 10
1254.263779785811
 20
651.02358006933218
 30
0.0
 40
30.000000499999999
 50
107.4575999999803
 51
72.5423840000186
  0
ARC
  5
A6AE
  8
0
 10
1254.263779785811
 20
829.02360006933225
 30
0.0
 40
5.0
 50
0.0
 51
179.999989999999
  0
ARC
  5
A6AF
  8
0
 10
1244.9801797858111
 20
791.16370006933244
 30
0.0
 40
1.0
 50
101.2132899999926
 51
164.99998999999809
  0
ARC
  5
A6B0
  8
0
 10
1263.5473797858101
 20
791.16370006933244
 30
0.0
 40
1.0
 50
14.999999999994451
 51
78.786710000007389
  0
ARC
  5
A6B1
  8
0
 10
1261.263779785811
 20
787.02360006933225
 30
0.0
 40
2.0000000500000001
 50
179.999989999999
 51
270.0
  0
ARC
  5
A6B2
  8
0
 10
1247.2637497858109
 20
787.02360006933225
 30
0.0
 40
2.0000000500000001
 50
270.0
 51
0.0
  0
CIRCLE
  5
A6B3
  8
0
 10
1254.263779785811
 20
651.02358006933218
 30
0.0
 40
6.0
  0
CIRCLE
  5
A6B4
  8
0
 10
1254.263779785811
 20
651.02358006933218
 30
0.0
 40
4.500000049999997
  0
CIRCLE
  5
A6B5
  8
0
 10
1254.263779785811
 20
651.02358006933218
 30
0.0
 40
65.0
  0
ARC
  5
A6B6
  8
0
 10
1079.2637647858101
 20
453.02357506933208
 30
0.0
 40
5.0
 50
90.000002999984659
 51
180.00001000000091
  0
ARC
  5
A6B7
  8
0
 10
756.78021947985872
 20
506.67555506933212
 30
0.0
 40
10.0
 50
270.0
 51
0.0
  0
ARC
  5
A6B8
  8
0
 10
1157.2637497858109
 20
426.0235750693322
 30
0.0
 40
3.0000000500000001
 50
90.000002999984659
 51
180.00001000000091
  0
ARC
  5
A6B9
  8
0
 10
1254.263779785811
 20
603.0235800693323
 30
0.0
 40
180.00000499999999
 50
90.000002999984659
 51
108.4847600000201
  0
ARC
  5
A6BA
  8
0
 10
1149.263779785811
 20
453.02357506933208
 30
0.0
 40
5.0
 50
0.0
 51
90.000002999984659
  0
ARC
  5
A6BB
  8
0
 10
1235.24064478581
 20
659.92809006933226
 30
0.0
 40
120.0
 50
108.4847600000201
 51
169.00000000000091
  0
ARC
  5
A6BC
  8
0
 10
547.78021947985872
 20
453.02357506933208
 30
0.0
 40
5.0
 50
90.000002999984659
 51
180.00001000000091
  0
ARC
  5
A6BD
  8
0
 10
751.78021947985872
 20
473.02357506933231
 30
0.0
 40
15.0
 50
179.999989999999
 51
270.0
  0
ARC
  5
A6BE
  8
0
 10
751.78021947985872
 20
686.95055006933239
 30
0.0
 40
15.0
 50
90.000002999984659
 51
180.00001000000091
  0
ARC
  5
A6BF
  8
0
 10
776.78021947985872
 20
754.81155006933238
 30
0.0
 40
10.0
 50
179.999989999999
 51
264.99999999997448
  0
ARC
  5
A6C0
  8
0
 10
797.78021947985872
 20
453.02357506933208
 30
0.0
 40
5.0
 50
0.0
 51
90.000002999984659
  0
ARC
  5
A6C1
  8
0
 10
799.7802694798587
 20
588.92064506933229
 30
0.0
 40
3.0000000500000001
 50
272.00000000000369
 51
0.0
  0
ARC
  5
A6C2
  8
0
 10
788.78021947985872
 20
735.69290006933215
 30
0.0
 40
8.0
 50
0.0
 51
84.999997000038363
  0
ARC
  5
A6C3
  8
0
 10
799.7802694798587
 20
719.13015006933233
 30
0.0
 40
3.0000000500000001
 50
179.999989999999
 51
268.00000999999259
  0
ARC
  5
A6C4
  8
0
 10
1254.263779785811
 20
603.0235800693323
 30
0.0
 40
175.00000499999999
 50
90.000002999984659
 51
111.4753499999604
  0
ARC
  5
A6C5
  8
0
 10
1254.263779785811
 20
563.0235800693323
 30
0.0
 40
130.0
 50
179.999989999999
 51
214.6059900000005
  0
ARC
  5
A6C6
  8
0
 10
756.78021947985872
 20
764.64455006933235
 30
0.0
 40
10.0
 50
0.0
 51
87.999999999996362
  0
ARC
  5
A6C7
  8
0
 10
1134.263779785811
 20
700.32560006933227
 30
0.0
 40
10.0
 50
155.21108999998839
 51
180.00001000000091
  0
ARC
  5
A6C8
  8
0
 10
1254.263779785811
 20
636.0235800693323
 30
0.0
 40
107.0
 50
90.000002999984659
 51
180.00001000000091
  0
ARC
  5
A6C9
  8
0
 10
608.7802194798586
 20
468.0235750693322
 30
0.0
 40
10.0
 50
270.0
 51
313.6028199999655
  0
ARC
  5
A6CA
  8
0
 10
655.28021947985883
 20
512.3092850693323
 30
0.0
 40
10.0
 50
313.6028199999655
 51
0.0
  0
ARC
  5
A6CB
  8
0
 10
799.7802694798587
 20
582.91701006933249
 30
0.0
 40
3.0000000500000001
 50
91.999997999994434
 51
180.00001000000091
  0
ARC
  5
A6CC
  8
0
 10
799.7802694798587
 20
713.12650006933245
 30
0.0
 40
3.0000000500000001
 50
0.0
 51
87.999999999996362
  0
ARC
  5
A6CD
  8
0
 10
1234.1281897858109
 20
654.20522006933231
 30
0.0
 40
120.0
 50
111.4753499999604
 51
169.00000000000091
  0
ARC
  5
A6CE
  8
0
 10
1132.263744785811
 20
473.02357506933231
 30
0.0
 40
15.0
 50
270.0
 51
0.0
  0
ARC
  5
A6CF
  8
0
 10
684.59871947985857
 20
762.16215006933248
 30
0.0
 40
20.000000499999999
 50
60.000001999984562
 51
87.999999999996362
  0
ARC
  5
A6D0
  8
0
 10
702.34441947985897
 20
786.55770006933244
 30
0.0
 40
10.0
 50
240.00000000000151
 51
267.99999999999642
  0
ARC
  5
A6D1
  8
0
 10
1194.3186197858111
 20
448.79329006933222
 30
0.0
 40
10.0
 50
233.99999999998769
 51
270.0
  0
ARC
  5
A6D2
  8
0
 10
1172.387864785811
 20
440.00554006933231
 30
0.0
 40
10.0
 50
54.000001999978231
 51
135.00000000000901
  0
ARC
  5
A6D3
  8
0
 10
1164.263779785811
 20
431.88145506933222
 30
0.0
 40
10.0
 50
135.00000000000901
 51
180.00001000000091
  0
ARC
  5
A6D4
  8
0
 10
1344.263779785811
 20
431.88145506933222
 30
0.0
 40
10.0
 50
0.0
 51
45.000001000030501
  0
ARC
  5
A6D5
  8
0
 10
1336.139634785811
 20
440.00554006933231
 30
0.0
 40
10.0
 50
45.000001000030501
 51
126.00000000001231
  0
ARC
  5
A6D6
  8
0
 10
1314.2089097858111
 20
448.79329006933222
 30
0.0
 40
10.0
 50
270.0
 51
306.00000000001228
  0
ARC
  5
A6D7
  8
0
 10
1376.2637497858109
 20
473.02357506933231
 30
0.0
 40
15.0
 50
179.999989999999
 51
270.0
  0
ARC
  5
A6D8
  8
0
 10
1274.3993097858111
 20
654.20522006933231
 30
0.0
 40
120.0
 50
10.99999999999908
 51
68.524650999994932
  0
ARC
  5
A6D9
  8
0
 10
1254.263779785811
 20
636.0235800693323
 30
0.0
 40
107.0
 50
0.0
 51
90.000002999984659
  0
ARC
  5
A6DA
  8
0
 10
1374.263764785811
 20
700.32560006933227
 30
0.0
 40
10.0
 50
0.0
 51
24.78891100001756
  0
ARC
  5
A6DB
  8
0
 10
1254.263779785811
 20
603.0235800693323
 30
0.0
 40
175.00000499999999
 50
68.524644999994109
 51
90.000002999984659
  0
ARC
  5
A6DC
  8
0
 10
1254.263779785811
 20
563.0235800693323
 30
0.0
 40
130.0
 50
325.39399999999978
 51
0.0
  0
ARC
  5
A6DD
  8
0
 10
1273.2869097858111
 20
659.92809006933226
 30
0.0
 40
120.0
 50
10.99999999999908
 51
71.515242999972799
  0
ARC
  5
A6DE
  8
0
 10
1351.2637497858109
 20
426.0235750693322
 30
0.0
 40
3.0000000500000001
 50
0.0
 51
90.000002999984659
  0
ARC
  5
A6DF
  8
0
 10
1359.263764785811
 20
453.02357506933208
 30
0.0
 40
5.0
 50
90.000002999984659
 51
180.00001000000091
  0
ARC
  5
A6E0
  8
0
 10
1254.263779785811
 20
603.0235800693323
 30
0.0
 40
180.00000499999999
 50
71.515242999972799
 51
90.000002999984659
  0
ARC
  5
A6E1
  8
0
 10
1429.263764785811
 20
453.02357506933208
 30
0.0
 40
5.0
 50
0.0
 51
90.000002999984659
  0
ARC
  5
A6E2
  8
0
 10
630.28021947985883
 20
731.2173000693324
 30
0.0
 40
10.0
 50
128.65980999999769
 51
180.00001000000091
  0
ARC
  5
A6E3
  8
0
 10
629.28021947985883
 20
781.02360006933225
 30
0.0
 40
2.0000000500000001
 50
90.000002999984659
 51
180.00001000000091
  0
ARC
  5
A6E4
  8
0
 10
637.28026947985882
 20
753.46540006933242
 30
0.0
 40
3.0000000500000001
 50
308.65980999999772
 51
0.0
  0
ARC
  5
A6E7
  8
0
 10
622.28026947985882
 20
744.02670006933238
 30
0.0
 40
5.0
 50
308.65980999999772
 51
0.0
  0
ARC
  5
A6E8
  8
0
 10
615.28021947985883
 20
486.0235750693322
 30
0.0
 40
5.0
 50
0.0
 51
90.000002999984659
  0
ARC
  5
A6E9
  8
0
 10
615.28021947985883
 20
720.02360006933225
 30
0.0
 40
5.0
 50
270.0
 51
0.0
  0
ARC
  5
A6EA
  8
0
 10
630.28021947985883
 20
470.9241800693319
 30
0.0
 40
10.0
 50
179.999989999999
 51
206.54091999998849
  0
ARC
  5
A6EB
  8
0
 10
578.28026947985882
 20
489.0235750693322
 30
0.0
 40
2.0000000500000001
 50
90.000002999984659
 51
180.00001000000091
  0
ARC
  5
A6EC
  8
0
 10
578.28026947985882
 20
717.02360006933225
 30
0.0
 40
2.0000000500000001
 50
179.999989999999
 51
270.0
  0
ARC
  5
A6ED
  8
0
 10
642.28026947985882
 20
780.40425006933242
 30
0.0
 40
2.0000000500000001
 50
91.999997999994434
 51
180.00001000000091
  0
CIRCLE
  5
A6EE
  8
0
 10
642.28026947985882
 20
809.02360006933213
 30
0.0
 40
15.0
  0
ARC
  5
A6EF
  8
0
 10
642.28026947985882
 20
809.02360006933213
 30
0.0
 40
25.000000499999999
 50
306.46671999997358
 51
233.53329000002509
  0
ARC
  5
A6F0
  8
0
 10
632.99666947985861
 20
791.16370006933244
 30
0.0
 40
1.0
 50
101.2132899999926
 51
164.99998999999809
  0
ARC
  5
A6F1
  8
0
 10
651.56381947985869
 20
791.16370006933244
 30
0.0
 40
1.0
 50
14.999999999994451
 51
78.786710000007389
  0
ARC
  5
A6F2
  8
0
 10
623.85521947985842
 20
784.09330006933237
 30
0.0
 40
6.0
 50
349.72994999999929
 51
53.533291000032037
  0
ARC
  5
A6F3
  8
0
 10
660.70526947985843
 20
784.09330006933237
 30
0.0
 40
6.0
 50
126.4666999999895
 51
190.2700600000054
  0
LINE
  5
A703
  8
0
  6
AM_ISO08W050
 10
922.554227230386
 20
651.02358006933218
 30
0.0
 11
604.07004583505523
 21
651.02358006933218
 31
0.0
  0
LINE
  5
A704
  8
0
  6
AM_ISO08W050
 10
572.78021947985906
 20
462.32335006933238
 30
0.0
 11
572.78021947985906
 21
420.71042006933209
 31
0.0
  0
LINE
  5
A705
  8
0
  6
AM_ISO08W050
 10
772.78021947985906
 20
462.32335006933238
 30
0.0
 11
772.78021947985906
 21
420.71042006933209
 31
0.0
  0
LINE
  5
A706
  8
0
  6
ACANSTGLM
 10
760.78026947985973
 20
458.02357506933248
 30
0.0
 11
760.78026947985973
 21
426.02357506933248
 31
0.0
  0
LINE
  5
A707
  8
0
  6
ACANSTGLM
 10
784.78026947985973
 20
458.02357506933248
 30
0.0
 11
784.78026947985973
 21
426.02357506933248
 31
0.0
  0
LINE
  5
A708
  8
0
  6
ACANSTGLM
 10
560.78026947985973
 20
458.02357506933248
 30
0.0
 11
560.78026947985973
 21
426.02357506933248
 31
0.0
  0
LINE
  5
A709
  8
0
  6
ACANSTGLM
 10
584.78026947985973
 20
458.02357506933248
 30
0.0
 11
584.78026947985973
 21
426.02357506933248
 31
0.0
  0
LINE
  5
A70A
  8
0
  6
AM_ISO08W050
 10
613.26466683988156
 20
603.02358756933222
 30
0.0
 11
131.59156975649151
 21
603.02358756933222
 31
0.0
  0
LINE
  5
A71D
  8
0
  6
AM_ISO08W050
 10
1254.2637797858099
 20
840.0139547424634
 30
0.0
 11
1254.2637797858099
 21
421.92850006933219
 31
0.0
  0
LINE
  5
A71E
  8
0
  6
AM_ISO08W050
 10
1109.2637647858089
 20
462.86198506933238
 30
0.0
 11
1109.2637647858089
 21
419.7840150693321
 31
0.0
  0
LINE
  5
A71F
  8
0
  6
AM_ISO08W050
 10
1159.3832161979769
 20
651.02358006933218
 30
0.0
 11
1349.144343373644
 21
651.02358006933218
 31
0.0
  0
LINE
  5
A720
  8
0
  6
ACANSTGLM
 10
1121.2637797858099
 20
458.02357506933248
 30
0.0
 11
1121.2637797858099
 21
426.02357506933248
 31
0.0
  0
LINE
  5
A721
  8
0
  6
ACANSTGLM
 10
1097.2637647858089
 20
458.02357506933248
 30
0.0
 11
1097.2637647858089
 21
426.02357506933248
 31
0.0
  0
LINE
  5
A722
  8
0
  6
ACANSTGLM
 10
1411.2637497858109
 20
458.02357506933248
 30
0.0
 11
1411.2637497858109
 21
426.02357506933248
 31
0.0
  0
LINE
  5
A723
  8
0
  6
ACANSTGLM
 10
1387.2637647858089
 20
458.02357506933248
 30
0.0
 11
1387.2637647858089
 21
426.02357506933248
 31
0.0
  0
LINE
  5
A724
  8
0
  6
AM_ISO08W050
 10
1399.2637647858089
 20
462.86198506933238
 30
0.0
 11
1399.2637647858089
 21
419.7840150693321
 31
0.0
  0
LINE
  5
B76D
  8
0
 10
1105.2540807858099
 20
667.57042956933208
 30
0.0
 11
1054.3075477858099
 21
541.47350556933225
 31
0.0
  0
LINE
  5
B76E
  8
0
 10
1055.7152617858101
 20
652.72814456933224
 30
0.0
 11
1055.7152617858101
 21
545.34618656933219
 31
0.0
  0
ARC
  5
B76F
  8
0
 10
1109.8900667858099
 20
665.69738256933215
 30
0.0
 40
5.0
 50
68.000000000005286
 51
157.9999999999967
  0
LINE
  5
B770
  8
0
 10
1103.80315278581
 20
663.97912056933217
 30
0.0
 11
1105.2540807858099
 21
667.57042956933208
 31
0.0
  0
ARC
  5
B771
  8
0
 10
1101.94866078581
 20
664.72826656933205
 30
0.0
 40
2.0
 50
269.99978599999929
 51
337.9999999999967
  0
ARC
  5
B772
  8
0
 10
1114.3558867858101
 20
663.40380356933224
 30
0.0
 40
2.0
 50
217.99929799999489
 51
239.33435867495231
  0
ARC
  5
B773
  8
0
 10
1065.7152617858101
 20
652.72826656933205
 30
0.0
 40
10.0
 50
89.999961999998746
 51
180.0000459999994
  0
LINE
  5
B774
  8
0
 10
1101.94866078581
 20
662.72826656933205
 30
0.0
 11
1065.7152617858101
 21
662.72826656933205
 31
0.0
  0
LINE
  5
B775
  8
0
 10
1089.9819583023091
 20
541.53820256933227
 30
0.0
 11
1064.3109657858099
 21
541.53820256933227
 31
0.0
  0
ARC
  5
B776
  8
0
 10
1058.9435337858099
 20
539.60045856933198
 30
0.0
 40
5.0
 50
157.9999999999967
 51
248.00000000000529
  0
LINE
  5
B777
  8
0
  6
AM_ISO08W050
 10
1089.26384578581
 20
536.18822756933207
 30
0.0
 11
1089.26384578581
 21
550.24706556933222
 31
0.0
  0
LINE
  5
B778
  8
0
 10
1060.7792267858099
 20
533.46605956933206
 30
0.0
 11
1057.0704867858101
 21
534.96447256933209
 31
0.0
  0
ARC
  5
B779
  8
0
 10
1053.7152617858101
 20
545.34618656933219
 30
0.0
 40
2.0
 50
337.9999999999967
 51
359.99979600000029
  0
ARC
  5
B77A
  8
0
 10
1064.3109657858099
 20
539.53820256933216
 30
0.0
 40
2.0
 50
89.999992000001797
 51
97.999847000002404
  0
LINE
  5
B77B
  8
0
 10
1114.7802367104359
 20
669.11430415036466
 30
0.0
 11
1111.76311378581
 21
670.33336956933226
 31
0.0
  0
LINE
  5
B77D
  8
0
 10
1060.78336178581
 20
533.46438856933219
 30
0.0
 11
1114.0344390454611
 21
665.27750721229415
 31
0.0
  0
LINE
  5
BB15
  8
0
 10
576.28026942985889
 20
721.30630268900586
 30
0.0
 11
576.28026942985889
 21
485.30628268900568
 31
0.0
  0
LINE
  5
BB16
  8
0
 10
563.28031942985945
 20
483.30631268900578
 30
0.0
 11
574.28026942985866
 21
483.30631268900578
 31
0.0
  0
LINE
  5
BB17
  8
0
 10
563.28031942985945
 20
723.30635268900596
 30
0.0
 11
574.28026942985866
 21
723.30635268900596
 31
0.0
  0
LINE
  5
BB18
  8
0
 10
564.25916942985862
 20
677.74326768900573
 30
0.0
 11
575.28806942985921
 21
677.74326768900573
 31
0.0
  0
LINE
  5
BB19
  8
0
 10
563.28031942985945
 20
703.03350268900579
 30
0.0
 11
574.28026942985866
 21
703.03350268900579
 31
0.0
  0
LINE
  5
BB1A
  8
0
 10
563.28031942985945
 20
687.47715268900572
 30
0.0
 11
574.28026942985866
 21
687.47715268900572
 31
0.0
  0
LINE
  5
BB1B
  8
0
 10
563.28031942985945
 20
503.5791126890058
 30
0.0
 11
574.28026942985866
 21
503.5791126890058
 31
0.0
  0
LINE
  5
BB1C
  8
0
 10
563.28031942985945
 20
519.13544768900556
 30
0.0
 11
574.28026942985866
 21
519.13544768900556
 31
0.0
  0
LINE
  5
BB1D
  8
0
 10
564.25916942985862
 20
528.86936268900581
 30
0.0
 11
575.28806942985921
 21
528.86936268900581
 31
0.0
  0
ARC
  5
BB1E
  8
0
 10
574.28026942985866
 20
721.30630268900586
 30
0.0
 40
2.0000000500000001
 50
0.0
 51
90.000002999984659
  0
ARC
  5
BB1F
  8
0
 10
574.28026942985866
 20
485.30628268900568
 30
0.0
 40
2.0000000500000001
 50
270.0
 51
0.0
  0
ARC
  5
BB20
  8
0
 10
574.28026942985866
 20
701.03350268900545
 30
0.0
 40
2.0000000500000001
 50
0.0
 51
90.000002999984659
  0
ARC
  5
BB21
  8
0
 10
574.28026942985866
 20
685.47715268900572
 30
0.0
 40
2.0000000500000001
 50
0.0
 51
90.000002999984659
  0
ARC
  5
BB22
  8
0
 10
574.28026942985866
 20
521.13544768900579
 30
0.0
 40
2.0000000500000001
 50
270.0
 51
0.0
  0
ARC
  5
BB23
  8
0
 10
574.28026942985866
 20
505.57907768900583
 30
0.0
 40
2.0000000500000001
 50
270.0
 51
0.0
  0
LINE
  5
BB24
  8
0
 10
290.2803194298595
 20
600.0234655693323
 30
0.0
 11
290.2803194298595
 21
562.96866356933231
 31
0.0
  0
ARC
  5
BB25
  8
0
 10
302.2803194298595
 20
651.48721056933221
 30
0.0
 40
2.0
 50
103.9145969999999
 51
180.00000899999949
  0
ARC
  5
BB26
  8
0
 10
319.15300042985939
 20
663.71325456933209
 30
0.0
 40
10.0
 50
90.00000299999769
 51
107.64566599999689
  0
ARC
  5
BB27
  8
0
 10
302.2803194298595
 20
666.74108656933231
 30
0.0
 40
2.0
 50
107.6456559999987
 51
180.00000899999949
  0
LINE
  5
BB28
  8
0
 10
302.2802524298595
 20
653.54765156933206
 30
0.0
 11
301.79938242985941
 21
653.42851856933225
 31
0.0
  0
LINE
  5
BB29
  8
0
 10
300.2803194298595
 20
647.41344956933233
 30
0.0
 11
300.2803194298595
 21
651.48721056933221
 31
0.0
  0
LINE
  5
BB2A
  8
0
 10
316.12170942985949
 20
673.24273556933224
 30
0.0
 11
301.67403442985949
 21
668.64698556933229
 31
0.0
  0
LINE
  5
BB2B
  8
0
 10
300.2803194298595
 20
661.86657456933233
 30
0.0
 11
300.2803194298595
 21
666.74108656933231
 31
0.0
  0
LINE
  5
BB2C
  8
0
 10
298.2803194298595
 20
591.18462756933218
 30
0.0
 11
298.2803194298595
 21
562.96866356933231
 31
0.0
  0
LINE
  5
BB2D
  8
0
 10
298.2803194298595
 20
675.62358756933224
 30
0.0
 11
298.2803194298595
 21
614.59509156933223
 31
0.0
  0
LINE
  5
BB2E
  8
0
 10
290.2803194298595
 20
562.96866356933231
 30
0.0
 11
302.2802524298595
 21
562.96866356933231
 31
0.0
  0
LINE
  5
BB2F
  8
0
 10
326.28036942985938
 20
475.4734055693321
 30
0.0
 11
304.28036942985938
 21
475.4734055693321
 31
0.0
  0
LINE
  5
BB30
  8
0
 10
326.28031942985939
 20
675.62358756933224
 30
0.0
 11
290.2803194298595
 21
675.62358756933224
 31
0.0
  0
LINE
  5
BB31
  8
0
 10
320.38321342985938
 20
470.77328156933208
 30
0.0
 11
541.1774034298594
 21
470.77328156933208
 31
0.0
  0
LINE
  5
BB32
  8
0
 10
325.28030742985948
 20
469.47358356933222
 30
0.0
 11
536.28030742985948
 21
469.47358356933222
 31
0.0
  0
ARC
  5
BB33
  8
0
 10
325.28030742985948
 20
471.47358356933222
 30
0.0
 40
2.0
 50
200.496600000001
 51
269.99999700000228
  0
ARC
  5
BB34
  8
0
 10
320.38321342985938
 20
480.7732815693322
 30
0.0
 40
10.0
 50
238.9024929999994
 51
269.99999700000228
  0
LINE
  5
BB35
  8
0
 10
563.28031942985945
 20
718.02360156933219
 30
0.0
 11
561.28034742985915
 21
718.03759956933231
 31
0.0
  0
LINE
  5
BB36
  8
0
 10
561.28031942985945
 20
723.69724756933215
 30
0.0
 11
561.28031942985945
 21
707.57795556933229
 31
0.0
  0
LINE
  5
BB37
  8
0
 10
545.43899742985934
 20
673.24275556933219
 30
0.0
 11
559.88664342985942
 21
668.64701556933232
 31
0.0
  0
LINE
  5
BB38
  8
0
 10
545.14428342985934
 20
657.04983156933201
 30
0.0
 11
559.76128342985942
 21
653.42853956933232
 31
0.0
  0
LINE
  5
BB39
  8
0
 10
544.78193142985947
 20
639.69688356933204
 30
0.0
 11
559.61145742985934
 21
637.20712556933222
 31
0.0
  0
LINE
  5
BB3A
  8
0
 10
544.38138542985939
 20
621.5743875693322
 30
0.0
 11
559.44922742985943
 21
620.29705556933231
 31
0.0
  0
LINE
  5
BB3B
  8
0
 10
489.28025242985939
 20
639.83492756933219
 30
0.0
 11
543.12614542985943
 21
639.83492756933219
 31
0.0
  0
LINE
  5
BB3C
  8
0
 10
561.28031942985945
 20
661.86657556933233
 30
0.0
 11
561.28031942985945
 21
666.74108556933197
 31
0.0
  0
LINE
  5
BB3D
  8
0
 10
561.28031942985945
 20
647.41344956933233
 30
0.0
 11
561.28031942985945
 21
651.4872115693322
 31
0.0
  0
LINE
  5
BB3E
  8
0
 10
561.28031942985945
 20
632.09631156933233
 30
0.0
 11
561.28031942985945
 21
635.23473956933231
 31
0.0
  0
LINE
  5
BB3F
  8
0
 10
489.28025242985939
 20
632.09631156933233
 30
0.0
 11
558.28031942985945
 21
632.09631156933233
 31
0.0
  0
LINE
  5
BB40
  8
0
 10
489.28025242985939
 20
647.41344956933233
 30
0.0
 11
558.28031942985945
 21
647.41344956933233
 31
0.0
  0
LINE
  5
BB41
  8
0
 10
488.68773042985941
 20
661.86657556933233
 30
0.0
 11
558.28031942985945
 21
661.86657556933233
 31
0.0
  0
LINE
  5
BB42
  8
0
 10
491.97628942985921
 20
616.21328556933213
 30
0.0
 11
558.28031942985945
 21
616.21328556933213
 31
0.0
  0
LINE
  5
BB43
  8
0
 10
543.95983342985915
 20
605.09035956933212
 30
0.0
 11
559.83512142985944
 21
604.52260156933232
 31
0.0
  0
LINE
  5
BB44
  8
0
 10
543.95976342985944
 20
605.09039956933225
 30
0.0
 11
498.50325542985939
 21
605.75921156933214
 31
0.0
  0
LINE
  5
BB45
  8
0
 10
561.28031942985945
 20
616.21328556933213
 30
0.0
 11
561.28031942985945
 21
618.30422756933206
 31
0.0
  0
LINE
  5
BB46
  8
0
 10
489.62184142985927
 20
621.61013556933233
 30
0.0
 11
543.53666742985934
 21
621.61013556933233
 31
0.0
  0
LINE
  5
BB47
  8
0
 10
445.78031942985939
 20
689.86785556933216
 30
0.0
 11
445.78031942985939
 21
704.32882356933214
 31
0.0
  0
LINE
  5
BB48
  8
0
 10
298.2803194298595
 20
675.17437556933214
 30
0.0
 11
563.28031942985945
 21
675.17437556933214
 31
0.0
  0
LINE
  5
BB49
  8
0
 10
326.28031942985939
 20
688.86785556933216
 30
0.0
 11
542.07200742985947
 21
688.86785556933216
 31
0.0
  0
LINE
  5
BB4A
  8
0
 10
553.16099742985944
 20
685.26537756933226
 30
0.0
 11
563.28031942985945
 21
685.26537756933226
 31
0.0
  0
LINE
  5
BB4B
  8
0
 10
553.16094742985933
 20
685.26537756933226
 30
0.0
 11
545.71775942985937
 21
688.17957556933231
 31
0.0
  0
LINE
  5
BB4C
  8
0
 10
326.28031942985939
 20
705.32882356933214
 30
0.0
 11
541.74162342985937
 21
705.32882356933214
 31
0.0
  0
LINE
  5
BB4D
  8
0
 10
553.16098542985935
 20
701.03557556933197
 30
0.0
 11
545.97002542985933
 21
704.39089356933209
 31
0.0
  0
LINE
  5
BB4E
  8
0
 10
446.78031942985939
 20
701.03556556933222
 30
0.0
 11
563.28031942985945
 21
701.03556556933222
 31
0.0
  0
LINE
  5
BB4F
  8
0
 10
326.28031942985939
 20
716.28039356933209
 30
0.0
 11
541.52964942985943
 21
716.28039356933209
 31
0.0
  0
LINE
  5
BB50
  8
0
 10
560.19818542985934
 20
707.89243756933229
 30
0.0
 11
546.11900342985939
 21
715.16505556933225
 31
0.0
  0
LINE
  5
BB51
  8
0
 10
561.28031942985945
 20
706.11552156933226
 30
0.0
 11
561.28031942985945
 21
701.03556556933222
 31
0.0
  0
LINE
  5
BB52
  8
0
 10
326.28031942985939
 20
725.02760156933232
 30
0.0
 11
541.36497542985944
 21
725.02760156933232
 31
0.0
  0
LINE
  5
BB53
  8
0
 10
546.22734142985939
 20
723.76582356933227
 30
0.0
 11
560.25277342985942
 21
715.96140756933232
 31
0.0
  0
LINE
  5
BB54
  8
0
 10
326.28031942985939
 20
731.40009756933216
 30
0.0
 11
541.24766542985935
 21
731.40009756933216
 31
0.0
  0
LINE
  5
BB55
  8
0
 10
560.29082942985906
 20
721.83809756933215
 30
0.0
 11
546.3003354298595
 21
730.02968556933217
 31
0.0
  0
LINE
  5
BB56
  8
0
 10
326.28031942985939
 20
735.27389356933213
 30
0.0
 11
541.17741542985925
 21
735.27389356933213
 31
0.0
  0
LINE
  5
BB57
  8
0
 10
560.31330542985916
 20
725.40985556933231
 30
0.0
 11
546.34238942985928
 21
733.83682156933196
 31
0.0
  0
LINE
  5
BB58
  8
0
 10
326.28031942985939
 20
736.57359156933205
 30
0.0
 11
536.28031942985945
 21
736.57359156933205
 31
0.0
  0
LINE
  5
BB59
  8
0
 10
414.78031942985928
 20
701.03556556933222
 30
0.0
 11
326.28031942985939
 21
701.03556556933222
 31
0.0
  0
LINE
  5
BB5A
  8
0
 10
415.78031942985928
 20
689.86785556933216
 30
0.0
 11
415.78031942985928
 21
704.32882356933214
 31
0.0
  0
LINE
  5
BB5B
  8
0
 10
419.28031942985928
 20
740.02358756933222
 30
0.0
 11
442.28031942985939
 21
740.02358756933222
 31
0.0
  0
LINE
  5
BB5C
  8
0
 10
419.28031942985928
 20
740.02358756933222
 30
0.0
 11
419.28031942985928
 21
736.57359156933205
 31
0.0
  0
LINE
  5
BB5D
  8
0
 10
442.28031942985939
 20
740.02358756933222
 30
0.0
 11
442.28031942985939
 21
736.57359156933205
 31
0.0
  0
ARC
  5
BB5E
  8
0
 10
559.28031942985945
 20
618.30422756933206
 30
0.0
 40
2.0
 50
0.0
 51
85.1544959999989
  0
ARC
  5
BB5F
  8
0
 10
559.28031942985945
 20
635.23473956933231
 30
0.0
 40
2.0
 50
0.0
 51
80.469389000002835
  0
ARC
  5
BB60
  8
0
 10
559.28031942985945
 20
651.4872115693322
 30
0.0
 40
2.0
 50
0.0
 51
76.085411000000079
  0
ARC
  5
BB61
  8
0
 10
559.28031942985945
 20
666.74108556933197
 30
0.0
 40
2.0
 50
0.0
 51
72.354331999996262
  0
ARC
  5
BB62
  8
0
 10
542.4076394298595
 20
663.7132535693321
 30
0.0
 40
10.0
 50
72.354331999996262
 51
90.00000299999769
  0
ARC
  5
BB63
  8
0
 10
542.73954942985915
 20
647.34325956933219
 30
0.0
 40
10.0
 50
76.085411000000079
 51
90.00000299999769
  0
ARC
  5
BB64
  8
0
 10
543.12614542985943
 20
629.83492756933231
 30
0.0
 40
10.0
 50
80.469389000002835
 51
90.00000299999769
  0
ARC
  5
BB65
  8
0
 10
543.53666742985934
 20
611.61013556933233
 30
0.0
 40
10.0
 50
85.1544959999989
 51
90.00000299999769
  0
ARC
  5
BB66
  8
0
 10
559.78154142985943
 20
603.02239756933216
 30
0.0
 40
1.498794
 50
0.0454980000043418
 51
90.00000299999769
  0
ARC
  5
BB67
  8
0
 10
542.07200742985947
 20
678.86785556933228
 30
0.0
 40
10.0
 50
68.618382000003152
 51
90.00000299999769
  0
ARC
  5
BB68
  8
0
 10
541.74162342985937
 20
695.32882356933214
 30
0.0
 40
10.0
 50
64.986142000000967
 51
90.00000299999769
  0
ARC
  5
BB69
  8
0
 10
541.52964942985943
 20
706.28039356933175
 30
0.0
 40
10.0
 50
62.681328999998101
 51
90.00000299999769
  0
ARC
  5
BB6A
  8
0
 10
559.28031942985945
 20
706.11552156933226
 30
0.0
 40
2.0
 50
0.0
 51
62.681328999998101
  0
ARC
  5
BB6B
  8
0
 10
541.36497542985944
 20
715.02760156933221
 30
0.0
 40
10.0
 50
60.906360999998121
 51
90.00000299999769
  0
ARC
  5
BB6C
  8
0
 10
559.28031942985945
 20
714.21377356933226
 30
0.0
 40
2.0
 50
0.0
 51
60.906360999998121
  0
ARC
  5
BB6D
  8
0
 10
541.24766542985935
 20
721.40009756933216
 30
0.0
 40
10.0
 50
59.650561999999297
 51
90.00000299999769
  0
ARC
  5
BB6E
  8
0
 10
559.28031942985945
 20
720.11219556933224
 30
0.0
 40
2.0
 50
0.0
 51
59.650561999999297
  0
ARC
  5
BB6F
  8
0
 10
559.28031942985945
 20
723.69724756933215
 30
0.0
 40
2.0
 50
0.0
 51
58.902492999999488
  0
ARC
  5
BB70
  8
0
 10
541.17741542985925
 20
725.27389356933213
 30
0.0
 40
10.0
 50
58.902492999999488
 51
90.00000299999769
  0
ARC
  5
BB71
  8
0
 10
536.28031942985945
 20
734.57359156933205
 30
0.0
 40
2.0
 50
20.4965989999992
 51
90.00000299999769
  0
ARC
  5
BB72
  8
0
 10
446.78031942985939
 20
689.86785556933216
 30
0.0
 40
1.0
 50
179.9999949999995
 51
269.99999700000228
  0
ARC
  5
BB73
  8
0
 10
414.78031942985928
 20
689.86785556933216
 30
0.0
 40
1.0
 50
269.99999700000228
 51
0.0
  0
ARC
  5
BB74
  8
0
 10
446.78031942985939
 20
700.03556556933222
 30
0.0
 40
1.0
 50
89.999998999998596
 51
180.00000899999949
  0
ARC
  5
BB75
  8
0
 10
414.78031942985928
 20
700.03556556933222
 30
0.0
 40
1.0
 50
0.0
 51
90.00000299999769
  0
ARC
  5
BB76
  8
0
 10
446.78031942985939
 20
704.32882356933214
 30
0.0
 40
1.0
 50
89.999998999998596
 51
180.00000899999949
  0
ARC
  5
BB77
  8
0
 10
414.78031942985928
 20
704.32882356933214
 30
0.0
 40
1.0
 50
0.0
 51
90.00000299999769
  0
LINE
  5
BB78
  8
0
 10
489.28025242985939
 20
657.3432595693323
 30
0.0
 11
542.73954942985915
 21
657.3432595693323
 31
0.0
  0
LINE
  5
BB79
  8
0
 10
319.13582542985938
 20
673.71323956933225
 30
0.0
 11
542.4076394298595
 21
673.71323956933225
 31
0.0
  0
LINE
  5
BB7A
  8
0
 10
563.28031942985945
 20
488.0235735693322
 30
0.0
 11
561.28034742985915
 21
488.00957556933213
 31
0.0
  0
LINE
  5
BB7B
  8
0
 10
561.28031942985945
 20
482.34992756933212
 30
0.0
 11
561.28031942985945
 21
498.4692195693321
 31
0.0
  0
LINE
  5
BB7C
  8
0
 10
326.28036942985938
 20
532.33393556933186
 30
0.0
 11
542.4076394298595
 21
532.33393556933186
 31
0.0
  0
LINE
  5
BB7D
  8
0
 10
545.43899742985934
 20
532.80441956933214
 30
0.0
 11
559.88664342985942
 21
537.40015956933223
 31
0.0
  0
LINE
  5
BB7E
  8
0
 10
545.14428342985934
 20
548.99734356933232
 30
0.0
 11
559.76128342985942
 21
552.61863556933213
 31
0.0
  0
LINE
  5
BB7F
  8
0
 10
544.78193142985947
 20
566.35029156933228
 30
0.0
 11
559.61145742985934
 21
568.84004956933222
 31
0.0
  0
LINE
  5
BB80
  8
0
 10
544.38138542985939
 20
584.47278756933224
 30
0.0
 11
559.44922742985943
 21
585.75011956933224
 31
0.0
  0
LINE
  5
BB81
  8
0
 10
489.28025242985939
 20
566.21224756933225
 30
0.0
 11
543.12614542985943
 21
566.21224756933225
 31
0.0
  0
LINE
  5
BB82
  8
0
 10
561.28031942985945
 20
544.18059956933223
 30
0.0
 11
561.28031942985945
 21
539.30608956933224
 31
0.0
  0
LINE
  5
BB83
  8
0
 10
561.28031942985945
 20
558.63372556933211
 30
0.0
 11
561.28031942985945
 21
554.55996356933224
 31
0.0
  0
LINE
  5
BB84
  8
0
 10
561.28031942985945
 20
573.95086356933223
 30
0.0
 11
561.28031942985945
 21
570.81243556933214
 31
0.0
  0
LINE
  5
BB85
  8
0
 10
489.28025242985939
 20
573.95086356933223
 30
0.0
 11
558.28031942985945
 21
573.95086356933223
 31
0.0
  0
LINE
  5
BB86
  8
0
 10
489.28025242985939
 20
558.63372556933211
 30
0.0
 11
558.28031942985945
 21
558.63372556933211
 31
0.0
  0
LINE
  5
BB87
  8
0
 10
492.34765342985918
 20
589.8338895693322
 30
0.0
 11
558.28031942985945
 21
589.8338895693322
 31
0.0
  0
LINE
  5
BB88
  8
0
 10
543.95983342985915
 20
600.95681556933221
 30
0.0
 11
559.83512142985944
 21
601.52457356933223
 31
0.0
  0
LINE
  5
BB89
  8
0
 10
543.95976342985944
 20
600.95677556933197
 30
0.0
 11
498.55299542985932
 21
600.28869456933216
 31
0.0
  0
LINE
  5
BB8A
  8
0
 10
561.28031942985945
 20
589.8338895693322
 30
0.0
 11
561.28031942985945
 21
587.74294756933227
 31
0.0
  0
LINE
  5
BB8B
  8
0
 10
489.68248242985931
 20
584.43703956933223
 30
0.0
 11
543.53666742985934
 21
584.43703956933223
 31
0.0
  0
LINE
  5
BB8C
  8
0
 10
445.78031942985939
 20
516.17931956933205
 30
0.0
 11
445.78031942985939
 21
501.71835156933213
 31
0.0
  0
LINE
  5
BB8D
  8
0
 10
326.28036942985938
 20
530.8727995693323
 30
0.0
 11
563.28031942985945
 21
530.8727995693323
 31
0.0
  0
LINE
  5
BB8E
  8
0
 10
326.28036942985938
 20
517.17931956933216
 30
0.0
 11
542.07200742985947
 21
517.17931956933216
 31
0.0
  0
LINE
  5
BB8F
  8
0
 10
553.16099742985944
 20
520.78179756933218
 30
0.0
 11
563.28031942985945
 21
520.78179756933218
 31
0.0
  0
LINE
  5
BB90
  8
0
 10
553.16094742985933
 20
520.78179756933218
 30
0.0
 11
545.71775942985937
 21
517.86759956933224
 31
0.0
  0
LINE
  5
BB91
  8
0
 10
326.28036942985938
 20
500.71835156933219
 30
0.0
 11
541.74162342985937
 21
500.71835156933219
 31
0.0
  0
LINE
  5
BB92
  8
0
 10
553.16098542985935
 20
505.01159956933219
 30
0.0
 11
545.97002542985933
 21
501.65628156933218
 31
0.0
  0
LINE
  5
BB93
  8
0
 10
446.78031942985939
 20
505.01160956933222
 30
0.0
 11
563.28031942985945
 21
505.01160956933222
 31
0.0
  0
LINE
  5
BB94
  8
0
 10
326.28036942985938
 20
489.76678156933212
 30
0.0
 11
541.52964942985943
 21
489.76678156933212
 31
0.0
  0
LINE
  5
BB95
  8
0
 10
560.19818542985934
 20
498.15473756933221
 30
0.0
 11
546.11900342985939
 21
490.88211956933208
 31
0.0
  0
LINE
  5
BB96
  8
0
 10
561.28031942985945
 20
499.93165356933218
 30
0.0
 11
561.28031942985945
 21
505.01160956933222
 31
0.0
  0
LINE
  5
BB97
  8
0
 10
326.28036942985938
 20
481.01957356933212
 30
0.0
 11
541.36497542985944
 21
481.01957356933212
 31
0.0
  0
LINE
  5
BB98
  8
0
 10
546.22734142985939
 20
482.28135156933189
 30
0.0
 11
560.25277342985942
 21
490.08576756933212
 31
0.0
  0
LINE
  5
BB99
  8
0
 10
320.31296142985951
 20
474.64707756933223
 30
0.0
 11
541.24766542985935
 21
474.64707756933223
 31
0.0
  0
LINE
  5
BB9A
  8
0
 10
560.29082942985906
 20
484.20907756933201
 30
0.0
 11
546.3003354298595
 21
476.01748956933221
 31
0.0
  0
LINE
  5
BB9B
  8
0
 10
560.31330542985916
 20
480.63731956933208
 30
0.0
 11
546.34238942985928
 21
472.2103535693322
 31
0.0
  0
LINE
  5
BB9C
  8
0
 10
414.78031942985928
 20
505.01160956933222
 30
0.0
 11
326.28036942985938
 21
505.01160956933222
 31
0.0
  0
LINE
  5
BB9D
  8
0
 10
415.78031942985928
 20
516.17931956933205
 30
0.0
 11
415.78031942985928
 21
501.71835156933213
 31
0.0
  0
LINE
  5
BB9E
  8
0
 10
419.28031942985928
 20
466.02358756933222
 30
0.0
 11
442.28031942985939
 21
466.02358756933222
 31
0.0
  0
LINE
  5
BB9F
  8
0
 10
419.28031942985928
 20
466.02358756933222
 30
0.0
 11
419.28031942985928
 21
469.47358356933222
 31
0.0
  0
LINE
  5
BBA0
  8
0
 10
442.28031942985939
 20
466.02358756933222
 30
0.0
 11
442.28031942985939
 21
469.47358356933222
 31
0.0
  0
ARC
  5
BBA1
  8
0
 10
559.28031942985945
 20
587.74294756933227
 30
0.0
 40
2.0
 50
274.84550400000109
 51
0.0
  0
ARC
  5
BBA2
  8
0
 10
559.28031942985945
 20
570.81243556933214
 30
0.0
 40
2.0
 50
279.53061099999718
 51
0.0
  0
ARC
  5
BBA3
  8
0
 10
559.28031942985945
 20
554.55996356933224
 30
0.0
 40
2.0
 50
283.91458899999992
 51
0.0
  0
ARC
  5
BBA4
  8
0
 10
559.28031942985945
 20
539.30608956933224
 30
0.0
 40
2.0
 50
287.6456680000037
 51
0.0
  0
ARC
  5
BBA5
  8
0
 10
542.4076394298595
 20
542.33392156933223
 30
0.0
 40
10.0
 50
269.99999700000228
 51
287.6456680000037
  0
ARC
  5
BBA6
  8
0
 10
542.73954942985915
 20
558.70391556933214
 30
0.0
 40
10.0
 50
269.99999700000228
 51
283.91458899999992
  0
ARC
  5
BBA7
  8
0
 10
543.12614542985943
 20
576.21224756933225
 30
0.0
 40
10.0
 50
269.99999700000228
 51
279.53061099999718
  0
ARC
  5
BBA8
  8
0
 10
543.53666742985934
 20
594.43703956933223
 30
0.0
 40
10.0
 50
269.99999700000228
 51
274.84550400000109
  0
ARC
  5
BBA9
  8
0
 10
559.78154142985943
 20
603.02477756933229
 30
0.0
 40
1.498794
 50
272.04545800000011
 51
359.95450199999573
  0
ARC
  5
BBAA
  8
0
 10
542.07200742985947
 20
527.17931956933205
 30
0.0
 40
10.0
 50
269.99999700000228
 51
291.38161799999688
  0
ARC
  5
BBAB
  8
0
 10
541.74162342985937
 20
510.71835156933201
 30
0.0
 40
10.0
 50
269.99999700000228
 51
295.013857999999
  0
ARC
  5
BBAC
  8
0
 10
541.52964942985943
 20
499.76678156933212
 30
0.0
 40
10.0
 50
269.99999700000228
 51
297.31867100000193
  0
ARC
  5
BBAD
  8
0
 10
559.28031942985945
 20
499.93165356933218
 30
0.0
 40
2.0
 50
297.31867100000193
 51
0.0
  0
ARC
  5
BBAE
  8
0
 10
541.36497542985944
 20
491.01957356933218
 30
0.0
 40
10.0
 50
269.99999700000228
 51
299.09363900000187
  0
ARC
  5
BBAF
  8
0
 10
559.28031942985945
 20
491.83340156933212
 30
0.0
 40
2.0
 50
299.09363900000187
 51
0.0
  0
ARC
  5
BBB0
  8
0
 10
541.24766542985935
 20
484.64707756933223
 30
0.0
 40
10.0
 50
269.99999700000228
 51
300.34943800000059
  0
ARC
  5
BBB1
  8
0
 10
559.28031942985945
 20
485.93497956933209
 30
0.0
 40
2.0
 50
300.34943800000059
 51
0.0
  0
ARC
  5
BBB2
  8
0
 10
559.28031942985945
 20
482.34992756933212
 30
0.0
 40
2.0
 50
301.09750700000052
 51
0.0
  0
ARC
  5
BBB3
  8
0
 10
541.17741542985925
 20
480.7732815693322
 30
0.0
 40
10.0
 50
269.99999700000228
 51
301.09750700000052
  0
ARC
  5
BBB4
  8
0
 10
536.28031942985945
 20
471.47358356933222
 30
0.0
 40
2.0
 50
269.99999700000228
 51
339.50340100000079
  0
ARC
  5
BBB5
  8
0
 10
446.78031942985939
 20
516.17931956933205
 30
0.0
 40
1.0
 50
90.00000299999769
 51
180.0000050000005
  0
ARC
  5
BBB6
  8
0
 10
414.78031942985928
 20
516.17931956933205
 30
0.0
 40
1.0
 50
0.0
 51
90.00000299999769
  0
ARC
  5
BBB7
  8
0
 10
446.78031942985939
 20
506.01160956933222
 30
0.0
 40
1.0
 50
179.99999100000039
 51
270.00000100000142
  0
ARC
  5
BBB8
  8
0
 10
414.78031942985928
 20
506.01160956933222
 30
0.0
 40
1.0
 50
269.99999700000228
 51
0.0
  0
ARC
  5
BBB9
  8
0
 10
446.78031942985939
 20
501.71835156933213
 30
0.0
 40
1.0
 50
179.99999100000039
 51
270.00000100000142
  0
ARC
  5
BBBA
  8
0
 10
414.78031942985928
 20
501.71835156933213
 30
0.0
 40
1.0
 50
269.99999700000228
 51
0.0
  0
LINE
  5
BBBB
  8
0
 10
489.28025242985939
 20
548.70391556933214
 30
0.0
 11
542.73954942985915
 21
548.70391556933214
 31
0.0
  0
LINE
  5
BBBC
  8
0
 10
489.17063842985931
 20
544.18059956933223
 30
0.0
 11
558.28031942985945
 21
544.18059956933223
 31
0.0
  0
LINE
  5
BBBD
  8
0
  6
AM_ISO08W050
 10
430.7803134298594
 20
554.15100056933215
 30
0.0
 11
430.7803134298594
 21
526.9885655693322
 31
0.0
  0
LINE
  5
BBBE
  8
0
 10
563.28031942985945
 20
723.30635268900596
 30
0.0
 11
563.28031942985945
 21
483.30631268900578
 31
0.0
  0
LINE
  5
BBBF
  8
0
 10
223.2803194298595
 20
739.88977656933218
 30
0.0
 11
326.28031942985939
 21
739.88998156933212
 31
0.0
  0
LINE
  5
BBC0
  8
0
 10
152.28031942985939
 20
526.67497356933222
 30
0.0
 11
152.28031942985939
 21
701.64547456933224
 31
0.0
  0
LINE
  5
BBC1
  8
0
 10
146.28031942985939
 20
505.51784056933218
 30
0.0
 11
146.28031942985939
 21
703.51534756933211
 31
0.0
  0
LINE
  5
BBC2
  8
0
 10
164.50859042985951
 20
723.43649056933214
 30
0.0
 11
164.50859042985951
 21
573.63878156933231
 31
0.0
  0
LINE
  5
BBC3
  8
0
 10
223.2803194298595
 20
606.02359856933231
 30
0.0
 11
223.2803194298595
 21
739.88977656933218
 31
0.0
  0
ARC
  5
BBC4
  8
0
 10
220.6802214298595
 20
737.45931756933214
 30
0.0
 40
0.6
 50
273.00006100000229
 51
0.0
  0
ARC
  5
BBC5
  8
0
 10
222.88041742985939
 20
737.28988356933223
 30
0.0
 40
1.6000000000000001
 50
75.526099999997555
 51
180.0
  0
LINE
  5
BBC6
  8
0
 10
153.3420874298593
 20
709.5199865693321
 30
0.0
 11
158.11552442985951
 21
727.97750556933215
 31
0.0
  0
ARC
  5
BBC7
  8
0
 10
165.8606414298595
 20
725.97433256933232
 30
0.0
 40
8.0
 50
93.000053000002623
 51
165.4999080000008
  0
ARC
  5
BBC8
  8
0
 10
147.78031942985939
 20
703.51534756933211
 30
0.0
 40
1.5
 50
91.884964000000949
 51
180.0
  0
ARC
  5
BBC9
  8
0
 10
147.5332494298595
 20
711.02242756933219
 30
0.0
 40
6.0
 50
271.88500999999673
 51
345.50021400000151
  0
LINE
  5
BBCA
  8
0
 10
220.71171542985951
 20
736.85995256933211
 30
0.0
 11
165.4419404298595
 21
733.96346756933212
 31
0.0
  0
LINE
  5
BBCB
  8
0
 10
223.2803194298595
 20
472.88981856933219
 30
0.0
 11
304.28036942985938
 21
472.88990256933221
 31
0.0
  0
LINE
  5
BBCC
  8
0
 10
223.2803194298595
 20
472.88979856933207
 30
0.0
 11
223.2803194298595
 21
600.02357656933214
 31
0.0
  0
LINE
  5
BBCD
  8
0
 10
164.50859042985951
 20
550.64390056933212
 30
0.0
 11
164.50859042985951
 21
485.38345056933201
 31
0.0
  0
LINE
  5
BBCE
  8
0
 10
153.3420874298593
 20
496.25954956933219
 30
0.0
 11
156.28031942985939
 21
484.8983435693321
 31
0.0
  0
ARC
  5
BBCF
  8
0
 10
222.88041742985939
 20
475.48989656933207
 30
0.0
 40
1.6000000000000001
 50
180.0
 51
284.47390000000252
  0
ARC
  5
BBD0
  8
0
 10
220.6802214298595
 20
475.32046256933222
 30
0.0
 40
0.6
 50
0.0
 51
86.999924000002295
  0
ARC
  5
BBD1
  8
0
 10
164.02543642985941
 20
486.90139556933212
 30
0.0
 40
8.0
 50
194.50007599999699
 51
267.00003099999992
  0
LINE
  5
BBD2
  8
0
 10
220.71171542985951
 20
475.91958356933208
 30
0.0
 11
163.60673542985941
 21
478.91238156933213
 31
0.0
  0
LINE
  5
BBD3
  8
0
 10
326.28031942985939
 20
739.88998156933212
 30
0.0
 11
326.28031942985939
 21
675.62358756933224
 31
0.0
  0
LINE
  5
BBD4
  8
0
 10
326.28036942985938
 20
533.33236456933207
 30
0.0
 11
326.28036942985938
 21
475.4734055693321
 31
0.0
  0
LINE
  5
BBD5
  8
0
 10
290.2803194298595
 20
675.62358756933224
 30
0.0
 11
290.2803194298595
 21
606.0234655693323
 31
0.0
  0
LINE
  5
BBD6
  8
0
 10
145.48002642985941
 20
502.55595656933201
 30
0.0
 11
145.48002642985941
 21
521.38961556933214
 31
0.0
  0
LINE
  5
BBD7
  8
0
 10
145.48002642985941
 20
521.38961556933214
 30
0.0
 11
146.28007542985949
 21
521.38961556933214
 31
0.0
  0
LINE
  5
BBD8
  8
0
 10
302.2802524298595
 20
624.79305756933206
 30
0.0
 11
302.2802524298595
 21
658.06368756933205
 31
0.0
  0
LINE
  5
BBD9
  8
0
 10
314.7802524298595
 20
670.56368756933205
 30
0.0
 11
476.78025242985939
 21
670.56368756933205
 31
0.0
  0
LINE
  5
BBDA
  8
0
 10
473.78025242985939
 20
662.59457156933229
 30
0.0
 11
317.7802524298595
 21
662.59457156933229
 31
0.0
  0
LINE
  5
BBDB
  8
0
 10
309.2802524298595
 20
654.09457156933229
 30
0.0
 11
309.2802524298595
 21
552.96322356933217
 31
0.0
  0
ARC
  5
BBDC
  8
0
 10
317.7802524298595
 20
654.09457156933229
 30
0.0
 40
8.5
 50
90.0
 51
180.0
  0
ARC
  5
BBDD
  8
0
 10
314.7802524298595
 20
658.06368756933205
 30
0.0
 40
12.5
 50
90.0
 51
180.0
  0
ARC
  5
BBDE
  8
0
 10
290.2802524298595
 20
632.04025056933233
 30
0.0
 40
19.0
 50
300.97779499999791
 51
0.0
  0
LINE
  5
BBDF
  8
0
  6
AM_ISO08W050
 10
302.7802524298595
 20
590.83419556933222
 30
0.0
 11
302.7802524298595
 21
613.0574625693323
 31
0.0
  0
ARC
  5
BBE0
  8
0
 10
307.7802524298595
 20
602.8898595693322
 30
0.0
 40
15.0
 50
120.9777979999982
 51
239.0222020000017
  0
ARC
  5
BBE1
  8
0
 10
287.2802524298595
 20
624.79305756933206
 30
0.0
 40
15.0
 50
313.10465999999991
 51
0.0
  0
LINE
  5
BBE2
  8
0
 10
302.2802524298595
 20
580.98666156933223
 30
0.0
 11
302.2802524298595
 21
545.83236456933207
 31
0.0
  0
ARC
  5
BBE3
  8
0
 10
287.2802524298595
 20
580.98666156933223
 30
0.0
 40
15.0
 50
0.0
 51
46.89532900000161
  0
ARC
  5
BBE4
  8
0
 10
290.2802524298595
 20
573.73934656933216
 30
0.0
 40
19.0
 50
0.0
 51
59.022189999997742
  0
LINE
  5
BBE5
  8
0
 10
314.7802524298595
 20
533.33236456933207
 30
0.0
 11
476.78025242985939
 21
533.33236456933207
 31
0.0
  0
LINE
  5
BBE6
  8
0
 10
317.7802524298595
 20
544.46322356933217
 30
0.0
 11
473.78025242985939
 21
544.46322356933217
 31
0.0
  0
ARC
  5
BBE7
  8
0
 10
317.7802524298595
 20
552.96322356933217
 30
0.0
 40
8.5
 50
180.0
 51
270.0
  0
ARC
  5
BBE8
  8
0
 10
314.7802524298595
 20
545.83236456933207
 30
0.0
 40
12.5
 50
180.0
 51
270.0
  0
LINE
  5
BBE9
  8
0
 10
489.28025242985939
 20
624.79305756933206
 30
0.0
 11
489.28025242985939
 21
658.06368756933205
 31
0.0
  0
LINE
  5
BBEA
  8
0
 10
482.28025242985939
 20
654.09457156933229
 30
0.0
 11
482.28025242985939
 21
552.96322356933217
 31
0.0
  0
LINE
  5
BBEB
  8
0
 10
489.28025242985939
 20
580.98666156933223
 30
0.0
 11
489.28025242985939
 21
545.83236456933207
 31
0.0
  0
ARC
  5
BBEC
  8
0
 10
504.28025242985922
 20
624.79305756933206
 30
0.0
 40
15.0
 50
180.0
 51
226.89534
  0
ARC
  5
BBED
  8
0
 10
501.28025242985927
 20
632.04025056933233
 30
0.0
 40
19.0
 50
180.0
 51
239.02224699999519
  0
ARC
  5
BBEE
  8
0
 10
504.28025242985922
 20
580.98666156933223
 30
0.0
 40
15.0
 50
133.1046750000001
 51
180.0
  0
ARC
  5
BBEF
  8
0
 10
501.28025242985927
 20
573.73934656933216
 30
0.0
 40
19.0
 50
120.9777450000004
 51
180.0
  0
LINE
  5
BBF0
  8
0
  6
AM_ISO08W050
 10
488.78025242985927
 20
594.59017656933224
 30
0.0
 11
488.78025242985927
 21
612.43136356933223
 31
0.0
  0
ARC
  5
BBF1
  8
0
 10
483.78025242985927
 20
602.8898595693322
 30
0.0
 40
15.0
 50
300.97784399999722
 51
59.022129000001307
  0
ARC
  5
BBF2
  8
0
 10
476.78025242985939
 20
658.06368756933205
 30
0.0
 40
12.5
 50
0.0
 51
90.0
  0
ARC
  5
BBF3
  8
0
 10
473.78025242985939
 20
654.09457156933229
 30
0.0
 40
8.5
 50
0.0
 51
90.0
  0
ARC
  5
BBF4
  8
0
 10
476.78025242985939
 20
545.83236456933207
 30
0.0
 40
12.5
 50
270.0
 51
0.0
  0
ARC
  5
BBF5
  8
0
 10
473.78025242985939
 20
552.96322356933217
 30
0.0
 40
8.5
 50
270.0
 51
0.0
  0
LINE
  5
BBF6
  8
0
 10
304.28036942985938
 20
475.4734055693321
 30
0.0
 11
304.28036942985938
 21
472.88990256933221
 31
0.0
  0
LINE
  5
BBF7
  8
0
 10
309.80816342985952
 20
475.47359756933201
 30
0.0
 11
315.21823742985941
 21
472.2103535693322
 31
0.0
  0
ARC
  5
BBF8
  8
0
 10
320.31296142985951
 20
484.64707756933223
 30
0.0
 40
10.0
 50
246.54140899999589
 51
270.00000299999761
  0
ARC
  5
BBF9
  8
0
 10
424.78031342985918
 20
743.32859556933215
 30
0.0
 40
3.999994999999998
 50
112.5229880000019
 51
179.999977999995
  0
ARC
  5
BBFA
  8
0
 10
436.78031342985929
 20
743.32859556933215
 30
0.0
 40
4.0
 50
0.0
 51
67.469796999999772
  0
ARC
  5
BBFB
  8
0
 10
430.7803134298594
 20
728.85960156933231
 30
0.0
 40
19.663599000000001
 50
67.475363999996034
 51
112.5249969999977
  0
ARC
  5
BBFC
  8
0
 10
430.7803134298594
 20
761.0236025693323
 30
0.0
 40
20.5
 50
303.58634299999812
 51
236.41396600000081
  0
ARC
  5
BBFD
  8
0
 10
417.78032842985931
 20
741.4465915693321
 30
0.0
 40
3.0
 50
0.0
 51
56.413954000002391
  0
ARC
  5
BBFE
  8
0
 10
443.78031342985952
 20
741.4465915693321
 30
0.0
 40
3.000011999999999
 50
123.586167000001
 51
179.999977999995
  0
CIRCLE
  5
BBFF
  8
0
 10
430.7803134298594
 20
761.0236025693323
 30
0.0
 40
12.5
  0
LINE
  5
BC00
  8
0
 10
420.78032842985908
 20
743.32859556933215
 30
0.0
 11
420.78032842985908
 21
740.02358756933222
 31
0.0
  0
LINE
  5
BC01
  8
0
 10
440.78031342985929
 20
743.32859556933215
 30
0.0
 11
440.78031342985929
 21
740.02358756933222
 31
0.0
  0
LINE
  5
BC02
  8
0
 10
438.31333342985943
 20
747.02358756933222
 30
0.0
 11
423.24833142985949
 21
747.02358756933222
 31
0.0
  0
ARC
  5
BC03
  8
0
 10
273.2803194298595
 20
603.02347656933227
 30
0.0
 40
6.5
 50
202.6198650000033
 51
337.3801349999967
  0
ARC
  5
BC04
  8
0
 10
273.2803194298595
 20
603.02347656933227
 30
0.0
 40
11.0
 50
193.1365589999983
 51
346.86344099999542
  0
ARC
  5
BC05
  8
0
 10
273.2803194298595
 20
603.02345456933233
 30
0.0
 40
6.5
 50
22.619865000003308
 51
157.3801349999967
  0
ARC
  5
BC06
  8
0
 10
273.2803194298595
 20
603.02345456933233
 30
0.0
 40
11.0
 50
13.1365589999983
 51
166.86344100000159
  0
LINE
  5
BC07
  8
0
 10
257.78031942985939
 20
605.52345456933233
 30
0.0
 11
288.76186742985948
 21
605.52345456933233
 31
0.0
  0
LINE
  5
BC08
  8
0
 10
257.78031942985939
 20
600.52347656933205
 30
0.0
 11
288.76186742985948
 21
600.52347656933205
 31
0.0
  0
LINE
  5
BC09
  8
0
  6
AM_ISO08W050
 10
273.2803194298595
 20
588.76984956933222
 30
0.0
 11
273.2803194298595
 21
617.27708156933215
 31
0.0
  0
LINE
  5
BC0A
  8
0
 10
176.6568704298594
 20
595.58909256933225
 30
0.0
 11
149.15796942985941
 21
493.85095056933221
 31
0.0
  0
ARC
  5
BC0B
  8
0
 10
182.44902042985939
 20
594.02352656933215
 30
0.0
 40
12.0
 50
90.0
 51
164.87488799999949
  0
ARC
  5
BC0C
  8
0
 10
182.44902042985939
 20
594.02352656933215
 30
0.0
 40
6.0
 50
90.0
 51
164.87488799999949
  0
LINE
  5
BC0D
  8
0
 10
257.28030842985947
 20
606.0234655693323
 30
0.0
 11
182.41074742985941
 21
606.0234655693323
 31
0.0
  0
LINE
  5
BC0E
  8
0
 10
257.78031942985939
 20
605.52345456933233
 30
0.0
 11
257.28030842985947
 21
606.0234655693323
 31
0.0
  0
LINE
  5
BC0F
  8
0
 10
257.28030842985947
 20
600.0234655693323
 30
0.0
 11
182.4219574298595
 21
600.0234655693323
 31
0.0
  0
LINE
  5
BC10
  8
0
 10
257.78031942985939
 20
600.52347656933205
 30
0.0
 11
257.28030842985947
 21
600.0234655693323
 31
0.0
  0
LINE
  5
BC11
  8
0
 10
170.86471942985941
 20
597.15465856933224
 30
0.0
 11
143.36581942985941
 21
495.41651656933209
 31
0.0
  0
LINE
  5
BC12
  8
0
 10
141.3776354298594
 20
496.40968556933223
 30
0.0
 11
140.7204084298595
 21
495.95355656933219
 31
0.0
  0
LINE
  5
BC13
  8
0
 10
140.7204084298595
 20
495.95355656933219
 30
0.0
 11
143.14007042985941
 21
492.46712056933211
 31
0.0
  0
LINE
  5
BC14
  8
0
 10
141.3776354298594
 20
496.40968556933223
 30
0.0
 11
143.79729642985939
 21
492.92324956933209
 31
0.0
  0
ARC
  5
BC15
  8
0
 10
146.26189442985941
 20
494.63373356933209
 30
0.0
 40
3.799999999999998
 50
216.3263539999987
 51
22.738533999997919
  0
ARC
  5
BC16
  8
0
 10
146.26189442985941
 20
494.63373356933209
 30
0.0
 40
3.0
 50
164.87488799999949
 51
344.87488799999937
  0
ARC
  5
BC17
  8
0
 10
147.5332494298595
 20
494.89095856933199
 30
0.0
 40
6.0
 50
14.5004039999993
 51
56.120364000000613
  0
LINE
  5
BC18
  8
0
 10
291.26187842985939
 20
606.0234655693323
 30
0.0
 11
291.26187842985939
 21
600.0234655693323
 31
0.0
  0
LINE
  5
BC19
  8
0
 10
289.26187842985939
 20
606.0234655693323
 30
0.0
 11
291.26187842985939
 21
606.0234655693323
 31
0.0
  0
LINE
  5
BC1A
  8
0
 10
289.26187842985939
 20
600.0234655693323
 30
0.0
 11
291.26187842985939
 21
600.0234655693323
 31
0.0
  0
LINE
  5
BC1B
  8
0
 10
288.76186742985948
 20
605.52345456933233
 30
0.0
 11
289.26187842985939
 21
606.0234655693323
 31
0.0
  0
LINE
  5
BC1C
  8
0
 10
288.76186742985948
 20
600.52347656933205
 30
0.0
 11
289.26187842985939
 21
600.0234655693323
 31
0.0
  0
LINE
  5
C920
  8
0
  6
CONTINUOUS
 10
832.78026947985859
 20
1103.6389834409899
 30
0.0
 11
913.7802694798587
 21
1103.6389834409899
 31
0.0
  0
LINE
  5
C921
  8
0
  6
CONTINUOUS
 10
832.78026947985859
 20
1085.6390234409901
 30
0.0
 11
913.7802694798587
 21
1085.6390234409901
 31
0.0
  0
LINE
  5
C922
  8
0
  6
CONTINUOUS
 10
808.78026947985859
 20
1064.6390234409901
 30
0.0
 11
913.7802694798587
 21
1064.6390234409901
 31
0.0
  0
LINE
  5
C923
  8
0
  6
CONTINUOUS
 10
808.78026947985859
 20
1124.6389834409899
 30
0.0
 11
913.7802694798587
 21
1124.6389834409899
 31
0.0
  0
LINE
  5
C924
  8
0
  6
AM_ISO08W050
 10
121.2080057246343
 20
1094.6389834409899
 30
0.0
 11
929.60320947985781
 21
1094.6389834409899
 31
0.0
  0
LINE
  5
C925
  8
0
  6
CONTINUOUS
 10
690.2802094798584
 20
1252.5384834409899
 30
0.0
 11
690.2802094798584
 21
936.73967344099015
 31
0.0
  0
LINE
  5
C926
  8
0
  6
CONTINUOUS
 10
563.28026947985882
 20
1214.638983440989
 30
0.0
 11
563.28026947985882
 21
974.63902344099017
 31
0.0
  0
LINE
  5
C927
  8
0
  6
CONTINUOUS
 10
576.2801694798585
 20
1212.638983440989
 30
0.0
 11
576.2801694798585
 21
976.63902344099017
 31
0.0
  0
LINE
  5
C928
  8
0
  6
CONTINUOUS
 10
766.7802694798587
 20
974.29588344099
 30
0.0
 11
766.7802694798587
 21
1214.98218344099
 31
0.0
  0
LINE
  5
C929
  8
0
  6
CONTINUOUS
 10
660.28026947985882
 20
1253.5860834409909
 30
0.0
 11
660.28026947985882
 21
1099.638983440989
 31
0.0
  0
LINE
  5
C92A
  8
0
  6
CONTINUOUS
 10
802.7802694798587
 20
1156.74188344099
 30
0.0
 11
802.7802694798587
 21
1032.53611344099
 31
0.0
  0
LINE
  5
C92B
  8
0
  6
CONTINUOUS
 10
796.7802694798587
 20
1195.103883440989
 30
0.0
 11
796.7802694798587
 21
994.17411344098957
 31
0.0
  0
LINE
  5
C92C
  8
0
  6
CONTINUOUS
 10
729.05944947985824
 20
938.09385344098985
 30
0.0
 11
660.28026947985882
 21
935.69206344098995
 31
0.0
  0
LINE
  5
C92D
  8
0
  6
CONTINUOUS
 10
665.28026947985859
 20
914.63902344099051
 30
0.0
 11
797.95476947985856
 21
919.27214344099025
 31
0.0
  0
CIRCLE
  5
C92E
  8
0
  6
CONTINUOUS
 10
572.78026947985882
 20
949.63902344099017
 30
0.0
 40
12.0
  0
LINE
  5
C92F
  8
0
  6
CONTINUOUS
 10
576.2801694798585
 20
1007.96415344099
 30
0.0
 11
620.28026947985848
 21
1007.96415344099
 31
0.0
  0
LINE
  5
C930
  8
0
  6
CONTINUOUS
 10
576.2801694798585
 20
1023.70622344099
 30
0.0
 11
620.28026947985848
 21
1023.70622344099
 31
0.0
  0
LINE
  5
C931
  8
0
  6
CONTINUOUS
 10
578.28026947985961
 20
982.6390234409904
 30
0.0
 11
615.28026947985859
 21
982.6390234409904
 31
0.0
  0
LINE
  5
C932
  8
0
  6
CONTINUOUS
 10
547.60560947985812
 20
918.74833344099
 30
0.0
 11
665.28026947985859
 21
914.63908344098991
 31
0.0
  0
LINE
  5
C933
  8
0
  6
CENTER
 10
552.76690947985958
 20
949.63902344099017
 30
0.0
 11
591.53374947985787
 21
949.63902344099017
 31
0.0
  0
LINE
  5
C934
  8
0
  6
CONTINUOUS
 10
542.78030947985951
 20
923.74528344098997
 30
0.0
 11
542.78030947985951
 21
966.63898344099073
 31
0.0
  0
ARC
  5
C935
  8
0
  6
CONTINUOUS
 10
547.7803094798586
 20
923.74528344098997
 30
0.0
 40
5.0
 50
180.000010000001
 51
267.99999999999648
  0
LINE
  5
C936
  8
0
  6
CONTINUOUS
 10
563.28026947985882
 20
994.91178344099035
 30
0.0
 11
576.2801694798585
 21
994.91178344099035
 31
0.0
  0
LINE
  5
C937
  8
0
  6
CONTINUOUS
 10
563.28026947985882
 20
974.63902344099017
 30
0.0
 11
574.28026947985961
 21
974.63902344099017
 31
0.0
  0
ARC
  5
C938
  8
0
  6
CONTINUOUS
 10
578.28026947985961
 20
980.63902344099029
 30
0.0
 40
2.0
 50
90.000002999984659
 51
180.000010000001
  0
ARC
  5
C939
  8
0
  6
CONTINUOUS
 10
574.28026947985961
 20
976.63902344099017
 30
0.0
 40
2.0
 50
270.0
 51
0.0
  0
LINE
  5
C93A
  8
0
  6
CONTINUOUS
 10
563.28026947985882
 20
1010.46812344099
 30
0.0
 11
576.2801694798585
 21
1010.46812344099
 31
0.0
  0
LINE
  5
C93B
  8
0
  6
CONTINUOUS
 10
563.28026947985882
 20
1018.6423134409901
 30
0.0
 11
576.2801694798585
 21
1018.6423134409901
 31
0.0
  0
LINE
  5
C93C
  8
0
  6
CENTER
 10
572.78026947985882
 20
929.53428344098995
 30
0.0
 11
572.78026947985882
 21
969.20274344098993
 31
0.0
  0
ARC
  5
C93D
  8
0
  6
CONTINUOUS
 10
617.78026947985882
 20
930.20237344098996
 30
0.0
 40
5.0
 50
180.000010000001
 51
279.3598500000158
  0
LINE
  5
C93E
  8
0
  6
CONTINUOUS
 10
660.28026947985882
 20
935.69206344098995
 30
0.0
 11
642.21047065531855
 21
936.32307319203642
 31
0.0
  0
LINE
  5
C93F
  8
0
  6
CONTINUOUS
 10
613.56560947985918
 20
916.5695034409905
 30
0.0
 11
656.50743947985882
 21
921.87950344099045
 31
0.0
  0
LINE
  5
C940
  8
0
  6
CONTINUOUS
 10
661.09343947985815
 20
932.27421344099048
 30
0.0
 11
618.59343947985815
 21
925.26896344098998
 31
0.0
  0
ARC
  5
C941
  8
0
  6
CONTINUOUS
 10
655.28026947985882
 20
931.80394344099045
 30
0.0
 40
10.0
 50
277.04920000001749
 51
0.0
  0
ARC
  5
C942
  8
0
  6
CONTINUOUS
 10
660.28026947985882
 20
937.20762344099012
 30
0.0
 40
5.0
 50
279.35986000001168
 51
344.36583000000542
  0
LINE
  5
C943
  8
0
  6
CONTINUOUS
 10
665.28026947985859
 20
931.80394344099045
 30
0.0
 11
665.28026947985859
 21
935.86662344099045
 31
0.0
  0
CIRCLE
  5
C944
  8
0
  6
CONTINUOUS
 10
772.7802694798587
 20
949.63902344099017
 30
0.0
 40
12.0
  0
LINE
  5
C945
  8
0
  6
CONTINUOUS
 10
789.05944947985824
 20
987.3693634409899
 30
0.0
 11
776.43126947985854
 21
986.92839344099048
 31
0.0
  0
LINE
  5
C946
  8
0
  6
CENTER
 10
753.50646947985854
 20
949.63902344099017
 30
0.0
 11
792.94695947985872
 21
949.63902344099017
 31
0.0
  0
ARC
  5
C947
  8
0
  6
CONTINUOUS
 10
751.7802694798587
 20
949.10606344099028
 30
0.0
 40
15.0
 50
91.999997999994306
 51
180.000010000001
  0
LINE
  5
C948
  8
0
  6
CENTER
 10
772.7802694798587
 20
928.51823344098989
 30
0.0
 11
772.7802694798587
 21
968.96141344098999
 31
0.0
  0
LINE
  5
C949
  8
0
  6
CONTINUOUS
 10
736.78026947985848
 20
927.49113344098998
 30
0.0
 11
736.78026947985848
 21
949.10606344099028
 31
0.0
  0
ARC
  5
C94A
  8
0
  6
CONTINUOUS
 10
746.7802694798587
 20
927.49113344098998
 30
0.0
 40
10.0
 50
180.000010000001
 51
271.99999000000759
  0
ARC
  5
C94B
  8
0
  6
CONTINUOUS
 10
728.78026947985848
 20
946.08897344098989
 30
0.0
 40
8.0
 50
272.00000000000352
 51
0.0
  0
ARC
  5
C94C
  8
0
  6
CONTINUOUS
 10
776.7802694798587
 20
976.93449344098985
 30
0.0
 40
10.0
 50
91.999997999994306
 51
180.000010000001
  0
ARC
  5
C94D
  8
0
  6
CONTINUOUS
 10
756.7802694798587
 20
974.29588344099
 30
0.0
 40
10.0
 50
272.00000000000352
 51
0.0
  0
LINE
  5
C94E
  8
0
  6
CONTINUOUS
 10
757.12920947985845
 20
964.30204344099047
 30
0.0
 11
751.25676947985824
 21
964.0969734409905
 31
0.0
  0
LINE
  5
C94F
  8
0
  6
CONTINUOUS
 10
802.7802694798587
 20
924.26908344099024
 30
0.0
 11
802.7802694798587
 21
985.0089534409899
 31
0.0
  0
ARC
  5
C950
  8
0
  6
CONTINUOUS
 10
797.7802694798587
 20
924.26908344099024
 30
0.0
 40
5.0
 50
272.00000000000352
 51
0.0
  0
ARC
  5
C951
  8
0
  6
CONTINUOUS
 10
788.7802694798587
 20
995.36454344099047
 30
0.0
 40
8.0
 50
272.00000000000352
 51
0.0
  0
ARC
  5
C952
  8
0
  6
CONTINUOUS
 10
797.7802694798587
 20
985.0089534409899
 30
0.0
 40
5.0
 50
0.0
 51
66.421820999986366
  0
ARC
  5
C953
  8
0
  6
CONTINUOUS
 10
801.78026947985859
 20
994.17411344098957
 30
0.0
 40
5.0
 50
180.000010000001
 51
246.42181999998789
  0
ARC
  5
C954
  8
0
  6
CONTINUOUS
 10
799.7802694798587
 20
1032.53611344099
 30
0.0
 40
3.0
 50
272.00000000000352
 51
0.0
  0
ARC
  5
C955
  8
0
  6
CONTINUOUS
 10
799.7802694798587
 20
1026.5324534409899
 30
0.0
 40
3.0
 50
91.999997999994306
 51
180.000010000001
  0
LINE
  5
C956
  8
0
  6
CONTINUOUS
 10
799.67559947985785
 20
1029.5305634409899
 30
0.0
 11
799.88500947985835
 21
1029.5378834409901
 31
0.0
  0
LINE
  5
C957
  8
0
  6
CONTINUOUS
 10
729.05944947985824
 20
1251.184283440989
 30
0.0
 11
660.28026947985882
 21
1253.5860834409909
 31
0.0
  0
LINE
  5
C958
  8
0
  6
CONTINUOUS
 10
665.2802094798584
 20
1274.6389834409899
 30
0.0
 11
797.95470947985859
 21
1270.0058834409899
 31
0.0
  0
CIRCLE
  5
C959
  8
0
  6
CONTINUOUS
 10
572.78026947985882
 20
1239.6389834409899
 30
0.0
 40
12.0
  0
LINE
  5
C95A
  8
0
  6
CENTER
 10
572.78026947985882
 20
1258.1699834409881
 30
0.0
 11
572.78026947985882
 21
1220.567883440988
 31
0.0
  0
LINE
  5
C95B
  8
0
  6
CONTINUOUS
 10
542.78030947985951
 20
1265.53278344099
 30
0.0
 11
542.78030947985951
 21
1227.6389834409899
 31
0.0
  0
LINE
  5
C95C
  8
0
  6
CONTINUOUS
 10
576.2801694798585
 20
1181.3139834409899
 30
0.0
 11
620.28026947985848
 21
1181.3139834409899
 31
0.0
  0
LINE
  5
C95D
  8
0
  6
CONTINUOUS
 10
576.2801694798585
 20
1165.57178344099
 30
0.0
 11
620.28026947985848
 21
1165.57178344099
 31
0.0
  0
LINE
  5
C95E
  8
0
  6
CONTINUOUS
 10
578.28026947985961
 20
1206.638983440989
 30
0.0
 11
615.28026947985859
 21
1206.638983440989
 31
0.0
  0
LINE
  5
C95F
  8
0
  6
CONTINUOUS
 10
563.28026947985882
 20
1170.635583440989
 30
0.0
 11
576.2801694798585
 21
1170.635583440989
 31
0.0
  0
LINE
  5
C960
  8
0
  6
CONTINUOUS
 10
563.28026947985882
 20
1178.80978344099
 30
0.0
 11
576.2801694798585
 21
1178.80978344099
 31
0.0
  0
LINE
  5
C961
  8
0
  6
CONTINUOUS
 10
563.28026947985882
 20
1194.3661834409891
 30
0.0
 11
576.2801694798585
 21
1194.3661834409891
 31
0.0
  0
LINE
  5
C962
  8
0
  6
CONTINUOUS
 10
563.28026947985882
 20
1214.638983440989
 30
0.0
 11
574.28026947985961
 21
1214.638983440989
 31
0.0
  0
ARC
  5
C963
  8
0
  6
CONTINUOUS
 10
574.28026947985961
 20
1212.638983440989
 30
0.0
 40
2.0
 50
0.0
 51
90.000002999984659
  0
ARC
  5
C964
  8
0
  6
CONTINUOUS
 10
578.28026947985961
 20
1208.6389834409881
 30
0.0
 40
2.0
 50
179.999989999999
 51
270.0
  0
ARC
  5
C965
  8
0
  6
CONTINUOUS
 10
642.28026947985882
 20
1094.6389834409899
 30
0.0
 40
12.5
 50
203.5781799999975
 51
336.42182999998022
  0
ARC
  5
C966
  8
0
  6
CONTINUOUS
 10
642.28026947985882
 20
1094.6389834409899
 30
0.0
 40
12.5
 50
23.578179999997541
 51
156.42182000000241
  0
LINE
  5
C967
  8
0
  6
CONTINUOUS
 10
622.28026947985882
 20
1099.638983440989
 30
0.0
 11
662.28026947985836
 21
1099.638983440989
 31
0.0
  0
LINE
  5
C968
  8
0
  6
CONTINUOUS
 10
622.28026947985882
 20
1089.638983440989
 30
0.0
 11
662.28026947985836
 21
1089.638983440989
 31
0.0
  0
ARC
  5
C969
  8
0
  6
CONTINUOUS
 10
622.28026947985882
 20
1094.6389834409899
 30
0.0
 40
5.0
 50
90.000002999984659
 51
270.0
  0
ARC
  5
C96A
  8
0
  6
CONTINUOUS
 10
662.28026947985836
 20
1094.6389834409899
 30
0.0
 40
5.0
 50
270.0
 51
90.000002999984659
  0
LINE
  5
C96B
  8
0
  6
CENTER
 10
642.28026947985882
 20
1077.50413344099
 30
0.0
 11
642.28026947985882
 21
1110.5523834409901
 31
0.0
  0
LINE
  5
C96C
  8
0
  6
CENTER
 10
553.4629094798596
 20
1239.6389834409899
 30
0.0
 11
591.98216947985782
 21
1239.6389834409899
 31
0.0
  0
LINE
  5
C96D
  8
0
  6
CONTINUOUS
 10
547.60570947985832
 20
1270.529783440988
 30
0.0
 11
665.28026947985859
 21
1274.6389834409899
 31
0.0
  0
ARC
  5
C96E
  8
0
  6
CONTINUOUS
 10
547.7803094798586
 20
1265.53278344099
 30
0.0
 40
5.0
 50
91.999997999994306
 51
180.000010000001
  0
ARC
  5
C96F
  8
0
  6
CONTINUOUS
 10
617.78026947985882
 20
1259.075683440989
 30
0.0
 40
5.0
 50
80.640142999995817
 51
180.000010000001
  0
LINE
  5
C970
  8
0
  6
CONTINUOUS
 10
660.28026947985882
 20
1253.5860834409909
 30
0.0
 11
642.21046787015564
 21
1252.9550483829739
 31
0.0
  0
LINE
  5
C971
  8
0
  6
CONTINUOUS
 10
613.56566947985823
 20
1272.70858344099
 30
0.0
 11
656.50743947985882
 21
1267.3985834409889
 31
0.0
  0
LINE
  5
C972
  8
0
  6
CONTINUOUS
 10
661.09343947985815
 20
1257.00388344099
 30
0.0
 11
618.59343947985815
 21
1264.0091834409891
 31
0.0
  0
ARC
  5
C973
  8
0
  6
CONTINUOUS
 10
655.28026947985882
 20
1257.4740834409899
 30
0.0
 40
10.0
 50
0.0
 51
82.950795999992309
  0
ARC
  5
C974
  8
0
  6
CONTINUOUS
 10
660.28026947985882
 20
1252.070383440989
 30
0.0
 40
5.0
 50
15.634171999984501
 51
80.640142999995817
  0
LINE
  5
C975
  8
0
  6
CONTINUOUS
 10
665.28026947985859
 20
1257.4740834409899
 30
0.0
 11
665.28026947985859
 21
1253.41138344099
 31
0.0
  0
ARC
  5
C976
  8
0
  6
CONTINUOUS
 10
751.7802694798587
 20
1240.1719834409889
 30
0.0
 40
15.0
 50
180.000010000001
 51
267.99999999999648
  0
CIRCLE
  5
C977
  8
0
  6
CONTINUOUS
 10
772.7802694798587
 20
1239.6389834409899
 30
0.0
 40
12.0
  0
LINE
  5
C978
  8
0
  6
CONTINUOUS
 10
802.7802694798587
 20
1265.008983440988
 30
0.0
 11
802.7802694798587
 21
1204.26898344099
 31
0.0
  0
LINE
  5
C979
  8
0
  6
CENTER
 10
772.7802694798587
 20
1257.77468344099
 30
0.0
 11
772.7802694798587
 21
1218.4971834409889
 31
0.0
  0
LINE
  5
C97A
  8
0
  6
CONTINUOUS
 10
789.05944947985824
 20
1201.9086834409891
 30
0.0
 11
776.43126947985854
 21
1202.349583440988
 31
0.0
  0
ARC
  5
C97B
  8
0
  6
CONTINUOUS
 10
776.7802694798587
 20
1212.34348344099
 30
0.0
 40
10.0
 50
180.000010000001
 51
267.99999999999648
  0
ARC
  5
C97C
  8
0
  6
CONTINUOUS
 10
756.7802694798587
 20
1214.98218344099
 30
0.0
 40
10.0
 50
0.0
 51
87.999999999996476
  0
LINE
  5
C97D
  8
0
  6
CONTINUOUS
 10
757.12920947985845
 20
1224.9760834409899
 30
0.0
 11
751.25676947985824
 21
1225.181183440988
 31
0.0
  0
ARC
  5
C97E
  8
0
  6
CONTINUOUS
 10
832.78026947985859
 20
1094.6389834409899
 30
0.0
 40
8.9999962
 50
90.000002999984659
 51
270.0
  0
LINE
  5
C97F
  8
0
  6
CONTINUOUS
 10
808.78026947985859
 20
1127.1389834409899
 30
0.0
 11
808.78026947985859
 21
1062.1390234409901
 31
0.0
  0
LINE
  5
C980
  8
0
  6
CONTINUOUS
 10
802.7802694798587
 20
1062.1390234409901
 30
0.0
 11
808.78026947985859
 21
1062.1390234409901
 31
0.0
  0
LINE
  5
C981
  8
0
  6
CONTINUOUS
 10
802.7802694798587
 20
1127.1389834409899
 30
0.0
 11
808.78026947985859
 21
1127.1389834409899
 31
0.0
  0
LINE
  5
C982
  8
0
  6
CONTINUOUS
 10
832.78026947985859
 20
1103.6389834409899
 30
0.0
 11
832.78026947985859
 21
1085.6390234409901
 31
0.0
  0
ARC
  5
C983
  8
0
  6
CONTINUOUS
 10
799.7802694798587
 20
1162.74558344099
 30
0.0
 40
3.0
 50
180.000010000001
 51
267.99999999999648
  0
ARC
  5
C984
  8
0
  6
CONTINUOUS
 10
799.7802694798587
 20
1156.74188344099
 30
0.0
 40
3.0
 50
0.0
 51
87.999999999996476
  0
LINE
  5
C985
  8
0
  6
CONTINUOUS
 10
799.67559947985785
 20
1159.7473834409909
 30
0.0
 11
799.8849494798593
 21
1159.74008344099
 31
0.0
  0
ARC
  5
C986
  8
0
  6
CONTINUOUS
 10
788.7802694798587
 20
1193.913583440989
 30
0.0
 40
8.0
 50
0.0
 51
87.999999999996476
  0
ARC
  5
C987
  8
0
  6
CONTINUOUS
 10
801.78026947985859
 20
1195.103883440989
 30
0.0
 40
5.0
 50
113.578180000012
 51
180.000010000001
  0
ARC
  5
C988
  8
0
  6
CONTINUOUS
 10
797.7802694798587
 20
1204.26898344099
 30
0.0
 40
5.0
 50
293.57818000001208
 51
0.0
  0
LINE
  5
C989
  8
0
  6
CENTER
 10
753.41271947985854
 20
1239.6389834409899
 30
0.0
 11
792.6901794798581
 21
1239.6389834409899
 31
0.0
  0
LINE
  5
C98A
  8
0
  6
CONTINUOUS
 10
736.78026947985848
 20
1261.786883440989
 30
0.0
 11
736.78026947985848
 21
1240.1719834409889
 31
0.0
  0
ARC
  5
C98B
  8
0
  6
CONTINUOUS
 10
728.78026947985848
 20
1243.189083440989
 30
0.0
 40
8.0
 50
0.0
 51
87.999999999996476
  0
ARC
  5
C98C
  8
0
  6
CONTINUOUS
 10
746.7802694798587
 20
1261.786883440989
 30
0.0
 40
10.0
 50
87.999999999996476
 51
180.000010000001
  0
ARC
  5
C98D
  8
0
  6
CONTINUOUS
 10
797.7802694798587
 20
1265.008983440988
 30
0.0
 40
5.0
 50
0.0
 51
87.999999999996476
  0
LINE
  5
C98E
  8
0
  6
CONTINUOUS
 10
913.7802694798587
 20
1124.6389834409899
 30
0.0
 11
913.7802694798587
 21
1064.6390234409901
 31
0.0
  0
LINE
  5
C98F
  8
0
  6
CONTINUOUS
 10
640.28026947985859
 20
1250.9562668202991
 30
0.0
 11
640.28026947985859
 21
1106.977946120244
 31
0.0
  0
ARC
  5
C990
  8
0
  6
CONTINUOUS
 10
642.28026947985882
 20
1250.9562668202991
 30
0.0
 40
2.0
 50
92.000074997106424
 51
180.0
1001
GENIUS_GENODEF_13
1002
{
1000
HIER
1070
     0
1002
}
1002
{
1000
MANEDIT
1070
     0
1002
}
1002
{
1000
NOSEL
1070
     0
1002
}
1002
{
1000
BEHIND
1070
     0
1002
}
1002
{
1000
OTHER
1070
     0
1002
}
1002
{
1000
REACTOR
1002
}
1001
GENIUS_GENOBJ-N-FIL_13
1002
{
1000
OWNER
1000
GEN
1002
}
  0
ARC
  5
C991
  8
0
  6
CONTINUOUS
 10
642.28026947985882
 20
938.32185485197124
 30
0.0
 40
2.0
 50
180.0
 51
268.00000484054408
1001
GENIUS_GENOBJ-N-FIL_13
1002
{
1000
OWNER
1000
GEN
1002
}
1001
GENIUS_GENODEF_13
1002
{
1000
HIER
1070
     0
1002
}
1002
{
1000
MANEDIT
1070
     0
1002
}
1002
{
1000
NOSEL
1070
     0
1002
}
1002
{
1000
BEHIND
1070
     0
1002
}
1002
{
1000
OTHER
1070
     0
1002
}
1002
{
1000
REACTOR
1002
}
  0
LINE
  5
C992
  8
0
 10
620.28026947985848
 20
1222.8327034409899
 30
0.0
 11
620.28026947985848
 21
1099.2215591359461
 31
0.0
  0
ARC
  5
C993
  8
0
 10
630.28026947985882
 20
1222.8327034409899
 30
0.0
 40
10.0
 50
128.6598100000289
 51
180.000010000001
  0
LINE
  5
C994
  8
0
 10
639.15441947985835
 20
1242.73820344099
 30
0.0
 11
625.40381947985804
 21
1231.737803440991
 31
0.0
  0
ARC
  5
C995
  8
0
 10
637.28031947985824
 20
1245.0808034409899
 30
0.0
 40
3.0000000500000001
 50
308.65981000002893
 51
0.0
  0
ARC
  5
C996
  8
0
 10
630.28026947985882
 20
966.44526344098995
 30
0.0
 40
10.0
 50
179.999989999999
 51
231.3401899999711
  0
LINE
  5
C997
  8
0
 10
639.15441947985835
 20
946.53976344098999
 30
0.0
 11
625.40381947985804
 21
957.54016344098989
 31
0.0
  0
ARC
  5
C998
  8
0
 10
637.28031947985824
 20
944.19716344099038
 30
0.0
 40
3.0000000500000001
 50
0.0
 51
51.340189999971031
  0
LINE
  5
C999
  8
0
 10
620.28026947985848
 20
1090.056407746034
 30
0.0
 11
620.28026947985848
 21
966.44526518631972
 31
0.0
  0
LINE
  5
C99A
  8
0
  6
CONTINUOUS
 10
660.28026947985882
 20
1089.638983440989
 30
0.0
 11
660.28026947985882
 21
935.69200344099045
 31
0.0
  0
LINE
  5
C99B
  8
0
  6
CONTINUOUS
 10
640.28026947985859
 20
1082.300020761737
 30
0.0
 11
640.28026947985859
 21
938.32185485197124
 31
0.0
  0
ARC
  5
C99C
  8
0
  6
CONTINUOUS
 10
615.28026947985859
 20
1211.638983440987
 30
0.0
 40
5.0
 50
270.0
 51
0.0
1001
GENIUS_GENODEF_13
1002
{
1000
HIER
1070
     0
1002
}
1002
{
1000
MANEDIT
1070
     0
1002
}
1002
{
1000
NOSEL
1070
     0
1002
}
1002
{
1000
BEHIND
1070
     0
1002
}
1002
{
1000
OTHER
1070
     0
1002
}
1002
{
1000
REACTOR
1002
}
1001
GENIUS_GENOBJ-N-FIL_13
1002
{
1000
OWNER
1000
GEN
1002
}
  0
ARC
  5
C99D
  8
0
  6
CONTINUOUS
 10
615.28026947985859
 20
977.63902344099017
 30
0.0
 40
5.0
 50
0.0
 51
90.0
1001
GENIUS_GENOBJ-N-FIL_13
1002
{
1000
OWNER
1000
GEN
1002
}
1001
GENIUS_GENODEF_13
1002
{
1000
HIER
1070
     0
1002
}
1002
{
1000
MANEDIT
1070
     0
1002
}
1002
{
1000
NOSEL
1070
     0
1002
}
1002
{
1000
BEHIND
1070
     0
1002
}
1002
{
1000
OTHER
1070
     0
1002
}
1002
{
1000
REACTOR
1002
}
  0
LINE
  5
C99E
  8
0
 10
563.28026947985882
 20
1209.63899644099
 30
0.0
 11
563.28026947985882
 21
979.63898344099061
 31
0.0
  0
ARC
  5
C99F
  8
0
  6
CONTINUOUS
 10
559.2802694798587
 20
976.47489844098959
 30
0.0
 40
2.0
 50
299.99999800001649
 51
0.0
  0
LINE
  5
C9A0
  8
0
  6
CONTINUOUS
 10
560.28027047985904
 20
974.74287244098957
 30
0.0
 11
554.9405564798584
 21
971.65998644098966
 31
0.0
  0
ARC
  5
C9A1
  8
0
  6
CONTINUOUS
 10
549.94054747985899
 20
980.32023544098968
 30
0.0
 40
10.0
 50
269.99999700001541
 51
299.99999800001649
  0
LINE
  5
C9A2
  8
0
  6
CONTINUOUS
 10
478.83848447985872
 20
970.32023544098956
 30
0.0
 11
549.94054747985899
 21
970.32023544098956
 31
0.0
  0
LINE
  5
C9A3
  8
0
  6
CONTINUOUS
 10
563.28024847985876
 20
1209.6390164409891
 30
0.0
 11
561.28033047985843
 21
1209.6530164409889
 31
0.0
  0
LINE
  5
C9A4
  8
0
  6
CONTINUOUS
 10
561.28033047985843
 20
1217.7089504409889
 30
0.0
 11
545.08556747985881
 21
1227.639003440989
 31
0.0
  0
LINE
  5
C9A5
  8
0
  6
CONTINUOUS
 10
326.2802694798587
 20
1227.639003440989
 30
0.0
 11
545.08544547985844
 21
1227.639003440989
 31
0.0
  0
LINE
  5
C9A6
  8
0
  6
CENTER
 10
430.7802694798587
 20
953.02723344098968
 30
0.0
 11
430.7802694798587
 21
967.47226544098964
 31
0.0
  0
LINE
  5
C9A7
  8
0
  6
CONTINUOUS
 10
563.28024847985876
 20
979.63899044098969
 30
0.0
 11
556.33003547985857
 21
979.59033844098963
 31
0.0
  0
ARC
  5
C9A8
  8
0
  6
CONTINUOUS
 10
549.94054747985899
 20
976.63900344098965
 30
0.0
 40
10.0
 50
269.99999700001541
 51
299.99999800001649
  0
ARC
  5
C9A9
  8
0
  6
CONTINUOUS
 10
562.7802694798587
 20
978.13546344098972
 30
0.0
 40
1.5
 50
90.401064000021776
 51
180.0000050000005
  0
ARC
  5
C9AA
  8
0
  6
CONTINUOUS
 10
559.2802694798587
 20
972.79366644098968
 30
0.0
 40
2.0
 50
299.99999800001649
 51
0.0
  0
LINE
  5
C9AB
  8
0
  6
CONTINUOUS
 10
560.28027047985904
 20
971.06164044098966
 30
0.0
 11
554.9405564798584
 21
967.97875444098952
 31
0.0
  0
LINE
  5
C9AC
  8
0
  6
CONTINUOUS
 10
561.28026947985859
 20
972.79366644098968
 30
0.0
 11
561.28026947985859
 21
978.13546344098972
 31
0.0
  0
LINE
  5
C9AD
  8
0
  6
CONTINUOUS
 10
477.8520464798587
 20
966.63900344098965
 30
0.0
 11
549.94054747985899
 21
966.63900344098965
 31
0.0
  0
LINE
  5
C9AE
  8
0
  6
CONTINUOUS
 10
476.78030347985839
 20
962.63900144098955
 30
0.0
 11
479.55824847985912
 21
973.00643344098967
 31
0.0
  0
ARC
  5
C9AF
  8
0
  6
CONTINUOUS
 10
381.004573479859
 20
965.13900344098965
 30
0.0
 40
3.0
 50
14.999999999994451
 51
90.000002999984659
  0
ARC
  5
C9B0
  8
0
  6
CONTINUOUS
 10
334.53857047985849
 20
973.13900344098965
 30
0.0
 40
5.0
 50
239.99999700002189
 51
269.99999700001541
  0
LINE
  5
C9B1
  8
0
  6
CONTINUOUS
 10
384.78025847985862
 20
962.63905144098942
 30
0.0
 11
383.902336479859
 21
965.91549944098972
 31
0.0
  0
LINE
  5
C9B2
  8
0
  6
CONTINUOUS
 10
334.53857047985849
 20
968.13900344098965
 30
0.0
 11
381.004573479859
 21
968.13900344098965
 31
0.0
  0
LINE
  5
C9B3
  8
0
  6
CONTINUOUS
 10
324.76823647985867
 20
973.00643344098967
 30
0.0
 11
332.03861147985879
 21
968.8088804409897
 31
0.0
  0
LINE
  5
C9B4
  8
0
  6
CONTINUOUS
 10
290.2802694798587
 20
978.45641444098965
 30
0.0
 11
290.2802694798587
 21
957.6388944409897
 31
0.0
  0
LINE
  5
C9B5
  8
0
  6
CONTINUOUS
 10
290.2802694798587
 20
978.45641444098965
 30
0.0
 11
326.2802694798587
 21
978.45641444098965
 31
0.0
  0
LINE
  5
C9B6
  8
0
  6
CONTINUOUS
 10
291.2802694798587
 20
947.6388934409897
 30
0.0
 11
291.2802694798587
 21
953.6391044409894
 31
0.0
  0
LINE
  5
C9B7
  8
0
  6
CONTINUOUS
 10
451.2802694798587
 20
1094.639005440989
 30
0.0
 11
561.28033047985843
 21
1094.639005440989
 31
0.0
  0
LINE
  5
C9B8
  8
0
  6
CONTINUOUS
 10
549.24175647985919
 20
1025.050138440989
 30
0.0
 11
563.28026947985882
 21
1025.050138440989
 31
0.0
  0
LINE
  5
C9B9
  8
0
  6
CONTINUOUS
 10
561.28033047985843
 20
995.43685644098969
 30
0.0
 11
545.08556747985881
 21
992.59847744098954
 31
0.0
  0
LINE
  5
C9BA
  8
0
  6
CONTINUOUS
 10
545.08562847985866
 20
1009.157559440989
 30
0.0
 11
561.28033047985843
 21
1012.188809440989
 31
0.0
  0
LINE
  5
C9BB
  8
0
  6
CONTINUOUS
 10
561.28033047985843
 20
1028.9375894409891
 30
0.0
 11
545.08556747985881
 21
1023.708097440989
 31
0.0
  0
LINE
  5
C9BC
  8
0
  6
CONTINUOUS
 10
561.28033047985843
 20
1044.8726474409891
 30
0.0
 11
545.08556747985881
 21
1041.8666664409891
 31
0.0
  0
LINE
  5
C9BD
  8
0
  6
CONTINUOUS
 10
561.28033047985843
 20
1060.245938440989
 30
0.0
 11
545.08556747985881
 21
1058.5160804409891
 31
0.0
  0
LINE
  5
C9BE
  8
0
  6
CONTINUOUS
 10
561.28033047985843
 20
1077.459806440989
 30
0.0
 11
545.08556747985881
 21
1076.2286044409891
 31
0.0
  0
LINE
  5
C9BF
  8
0
  6
CONTINUOUS
 10
549.24175647985919
 20
1164.22787244099
 30
0.0
 11
563.28026947985882
 21
1164.22787244099
 31
0.0
  0
LINE
  5
C9C0
  8
0
  6
CONTINUOUS
 10
561.28033047985843
 20
1111.8182044409889
 30
0.0
 11
545.08556747985881
 21
1113.0494054409889
 31
0.0
  0
LINE
  5
C9C1
  8
0
  6
CONTINUOUS
 10
561.28033047985843
 20
1129.0320714409891
 30
0.0
 11
545.08556747985881
 21
1130.7619304409891
 31
0.0
  0
LINE
  5
C9C2
  8
0
  6
CONTINUOUS
 10
561.28033047985843
 20
1144.4053624409901
 30
0.0
 11
545.08556747985881
 21
1147.4113444409891
 31
0.0
  0
LINE
  5
C9C3
  8
0
  6
CONTINUOUS
 10
561.28033047985843
 20
1160.3404214409891
 30
0.0
 11
545.08556747985881
 21
1165.569913440989
 31
0.0
  0
LINE
  5
C9C4
  8
0
  6
CONTINUOUS
 10
545.08562847985866
 20
1180.1204504409891
 30
0.0
 11
561.28033047985843
 21
1177.0892004409891
 31
0.0
  0
LINE
  5
C9C5
  8
0
  6
CONTINUOUS
 10
561.28033047985843
 20
1193.841153440989
 30
0.0
 11
545.08556747985881
 21
1196.6795324409891
 31
0.0
  0
LINE
  5
C9C6
  8
0
  6
CONTINUOUS
 10
561.28033047985843
 20
1198.677091440989
 30
0.0
 11
545.08556747985881
 21
1207.529141440989
 31
0.0
  0
LINE
  5
C9C7
  8
0
  6
CONTINUOUS
 10
561.28033047985843
 20
1206.7891514409889
 30
0.0
 11
545.08556747985881
 21
1216.271573440989
 31
0.0
  0
LINE
  5
C9C8
  8
0
  6
CONTINUOUS
 10
561.28033047985843
 20
1212.8433504409891
 30
0.0
 11
545.08556747985881
 21
1222.4843424409901
 31
0.0
  0
LINE
  5
C9C9
  8
0
  6
CONTINUOUS
 10
561.28033047985843
 20
1216.4146404409889
 30
0.0
 11
545.08556747985881
 21
1226.3446934409901
 31
0.0
  0
LINE
  5
C9CA
  8
0
  6
CONTINUOUS
 10
326.2802694798587
 20
1226.3446934409901
 30
0.0
 11
545.08544547985844
 21
1226.3446934409901
 31
0.0
  0
LINE
  5
C9CB
  8
0
  6
CONTINUOUS
 10
326.2802694798587
 20
1222.4843424409901
 30
0.0
 11
545.08556747985881
 21
1222.4843424409901
 31
0.0
  0
LINE
  5
C9CC
  8
0
  6
CONTINUOUS
 10
326.2802694798587
 20
1216.271573440989
 30
0.0
 11
545.08562847985866
 21
1216.271573440989
 31
0.0
  0
LINE
  5
C9CD
  8
0
  6
CONTINUOUS
 10
326.28020847985903
 20
1207.529141440989
 30
0.0
 11
545.08562847985866
 21
1207.529141440989
 31
0.0
  0
LINE
  5
C9CE
  8
0
  6
CONTINUOUS
 10
326.2802694798587
 20
1196.679282440989
 30
0.0
 11
545.08507947985834
 21
1196.6795324409891
 31
0.0
  0
LINE
  5
C9CF
  8
0
  6
CONTINUOUS
 10
326.2802694798587
 20
1180.1204504409891
 30
0.0
 11
545.08532347985874
 21
1180.1204504409891
 31
0.0
  0
LINE
  5
C9D0
  8
0
  6
CONTINUOUS
 10
326.2802694798587
 20
1165.569913440989
 30
0.0
 11
545.08562847985866
 21
1165.569913440989
 31
0.0
  0
LINE
  5
C9D1
  8
0
  6
CONTINUOUS
 10
326.2802694798587
 20
1147.4112224409901
 30
0.0
 11
545.08575047985903
 21
1147.4112224409901
 31
0.0
  0
LINE
  5
C9D2
  8
0
  6
CONTINUOUS
 10
326.2802694798587
 20
1130.762735440989
 30
0.0
 11
545.08550647985919
 21
1130.7619304409891
 31
0.0
  0
LINE
  5
C9D3
  8
0
  6
CONTINUOUS
 10
326.2802694798587
 20
1113.0494054409889
 30
0.0
 11
545.08623847985871
 21
1113.0494054409889
 31
0.0
  0
LINE
  5
C9D4
  8
0
  6
CONTINUOUS
 10
326.2802694798587
 20
1094.639005440989
 30
0.0
 11
410.2802694798587
 21
1094.639005440989
 31
0.0
  0
LINE
  5
C9D5
  8
0
  6
CONTINUOUS
 10
326.2802694798587
 20
978.45641444098965
 30
0.0
 11
326.2802694798587
 21
1231.6391274409889
 31
0.0
  0
LINE
  5
C9D6
  8
0
  6
CONTINUOUS
 10
146.2802694798587
 20
997.26698544098974
 30
0.0
 11
146.2802694798587
 21
1195.2644934409891
 31
0.0
  0
LINE
  5
C9D7
  8
0
  6
CONTINUOUS
 10
223.2802694798587
 20
1231.638883440989
 30
0.0
 11
326.2802694798587
 21
1231.63908844099
 31
0.0
  0
LINE
  5
C9D8
  8
0
  6
CONTINUOUS
 10
223.2802694798587
 20
957.63885344098969
 30
0.0
 11
223.2802694798587
 21
1231.638883440989
 31
0.0
  0
LINE
  5
C9D9
  8
0
  6
CONTINUOUS
 10
152.2802694798587
 20
995.65064644098936
 30
0.0
 11
152.2802694798587
 21
1193.394620440989
 31
0.0
  0
ARC
  5
C9DA
  8
0
  6
CONTINUOUS
 10
220.69092547985869
 20
1229.2225354409891
 30
0.0
 40
0.6
 50
273.00006100002201
 51
0.0
  0
ARC
  5
C9DB
  8
0
  6
CONTINUOUS
 10
222.88036747985859
 20
1229.0390294409899
 30
0.0
 40
1.6000000000000001
 50
75.526100000002202
 51
180.0
  0
LINE
  5
C9DC
  8
0
  6
CONTINUOUS
 10
220.71166647985899
 20
1228.6090984409891
 30
0.0
 11
164.7097454798589
 21
1225.6742444409899
 31
0.0
  0
LINE
  5
C9DD
  8
0
  6
CONTINUOUS
 10
153.34203747985831
 20
1201.2691324409891
 30
0.0
 11
158.2990524798582
 21
1220.436496440989
 31
0.0
  0
LINE
  5
C9DE
  8
0
  6
CONTINUOUS
 10
164.50854147985899
 20
1215.1856364409889
 30
0.0
 11
164.50854147985899
 21
974.87692344098969
 31
0.0
  0
LINE
  5
C9DF
  8
0
  6
CONTINUOUS
 10
145.47997647985841
 20
1013.138761440989
 30
0.0
 11
146.28002547985881
 21
1013.138761440989
 31
0.0
  0
LINE
  5
C9E0
  8
0
  6
CONTINUOUS
 10
146.28002547985881
 20
994.01327244098968
 30
0.0
 11
146.28002547985881
 21
1013.138761440989
 31
0.0
  0
LINE
  5
C9E1
  8
0
  6
CONTINUOUS
 10
145.47997647985841
 20
1176.139005440989
 30
0.0
 11
145.47997647985841
 21
1013.138761440989
 31
0.0
  0
ARC
  5
C9E2
  8
0
  6
CONTINUOUS
 10
147.53319947985921
 20
1202.7715734409901
 30
0.0
 40
6.0
 50
271.88500999997711
 51
345.50021400000162
  0
ARC
  5
C9E3
  8
0
  6
CONTINUOUS
 10
147.78026947985859
 20
1195.2644934409891
 30
0.0
 40
1.5
 50
91.884964000020602
 51
180.0
  0
LINE
  5
C9E4
  8
0
  6
CONTINUOUS
 10
223.2802694798587
 20
957.63885344098969
 30
0.0
 11
290.2802694798587
 21
957.63888544098972
 31
0.0
  0
LINE
  5
C9E5
  8
0
  6
CONTINUOUS
 10
174.78052647985839
 20
1241.6389264409891
 30
0.0
 11
172.0348634798587
 21
1241.0833004409899
 31
0.0
  0
LINE
  5
C9E6
  8
0
  6
CONTINUOUS
 10
172.0348634798587
 20
1241.0833004409899
 30
0.0
 11
169.31035147985889
 21
1239.4208064409891
 31
0.0
  0
LINE
  5
C9E7
  8
0
  6
CONTINUOUS
 10
169.31035147985889
 20
1239.4208064409891
 30
0.0
 11
166.6274694798588
 21
1236.6640444409891
 31
0.0
  0
LINE
  5
C9E8
  8
0
  6
CONTINUOUS
 10
166.6274694798588
 20
1236.6640444409891
 30
0.0
 11
164.0066354798586
 21
1232.833996440989
 31
0.0
  0
LINE
  5
C9E9
  8
0
  6
CONTINUOUS
 10
164.0066354798586
 20
1232.833996440989
 30
0.0
 11
161.46779447985901
 21
1227.9598114409889
 31
0.0
  0
LINE
  5
C9EA
  8
0
  6
CONTINUOUS
 10
161.46779447985901
 20
1227.9598114409889
 30
0.0
 11
159.19986947985879
 21
1222.4877924409891
 31
0.0
  0
LINE
  5
C9EB
  8
0
  6
CONTINUOUS
 10
145.47997647985841
 20
1147.9310054409891
 30
0.0
 11
145.17995147985889
 21
1144.573824440989
 31
0.0
  0
LINE
  5
C9EC
  8
0
  6
CONTINUOUS
 10
145.17995147985889
 20
1144.573824440989
 30
0.0
 11
144.35360647985851
 21
1132.426463440989
 31
0.0
  0
LINE
  5
C9ED
  8
0
  6
CONTINUOUS
 10
144.35360647985851
 20
1132.426463440989
 30
0.0
 11
143.75882547985859
 21
1119.9915174409889
 31
0.0
  0
LINE
  5
C9EE
  8
0
  6
CONTINUOUS
 10
143.75882547985859
 20
1119.9915174409889
 30
0.0
 11
143.40013647985899
 21
1107.3636214409889
 31
0.0
  0
LINE
  5
C9EF
  8
0
  6
CONTINUOUS
 10
143.40013647985899
 20
1107.3636214409889
 30
0.0
 11
143.2802694798587
 21
1094.638883440989
 31
0.0
  0
LINE
  5
C9F0
  8
0
  6
CONTINUOUS
 10
143.2802694798587
 20
1094.638883440989
 30
0.0
 11
143.40013647985899
 21
1081.914144440989
 31
0.0
  0
LINE
  5
C9F1
  8
0
  6
CONTINUOUS
 10
143.40013647985899
 20
1081.914144440989
 30
0.0
 11
143.75882547985859
 21
1069.286249440989
 31
0.0
  0
LINE
  5
C9F2
  8
0
  6
CONTINUOUS
 10
143.75882547985859
 20
1069.286249440989
 30
0.0
 11
144.35360647985851
 21
1056.8513024409899
 31
0.0
  0
LINE
  5
C9F3
  8
0
  6
CONTINUOUS
 10
144.35360647985851
 20
1056.8513024409899
 30
0.0
 11
145.17995147985889
 21
1044.7039424409891
 31
0.0
  0
LINE
  5
C9F4
  8
0
  6
CONTINUOUS
 10
145.17995147985889
 20
1044.7039424409891
 30
0.0
 11
145.47997647985841
 21
1041.3467604409891
 31
0.0
  0
ARC
  5
C9F5
  8
0
  6
CONTINUOUS
 10
222.88036747985859
 20
960.23873644098956
 30
0.0
 40
1.6000000000000001
 50
180.0
 51
284.4738999999978
  0
LINE
  5
C9F6
  8
0
  6
CONTINUOUS
 10
220.71166647985899
 20
960.66866844098968
 30
0.0
 11
164.7097454798589
 21
963.60352144098965
 31
0.0
  0
ARC
  5
C9F7
  8
0
  6
CONTINUOUS
 10
220.68017147985881
 20
960.06930344098964
 30
0.0
 40
0.6
 50
0.0
 51
86.999938999978056
  0
LINE
  5
C9F8
  8
0
  6
CONTINUOUS
 10
153.34203747985831
 20
988.00863444098923
 30
0.0
 11
158.2990524798582
 21
968.84126944098955
 31
0.0
  0
ARC
  5
C9F9
  8
0
  6
CONTINUOUS
 10
147.53319947985921
 20
986.50619244098959
 30
0.0
 40
6.0
 50
14.49978599999838
 51
88.114990000022914
  0
ARC
  5
C9FA
  8
0
  6
CONTINUOUS
 10
147.78026947985859
 20
994.01327244098968
 30
0.0
 40
1.5
 50
180.0
 51
268.1150359999794
  0
LINE
  5
C9FB
  8
0
  6
CONTINUOUS
 10
291.2802694798587
 20
1241.6389024409891
 30
0.0
 11
291.2802694798587
 21
1235.6389024409891
 31
0.0
  0
LINE
  5
C9FC
  8
0
  6
CONTINUOUS
 10
279.2802694798587
 20
1235.63890844099
 30
0.0
 11
291.2802694798587
 21
1235.6389024409891
 31
0.0
  0
LINE
  5
C9FD
  8
0
  6
CONTINUOUS
 10
279.28026847985842
 20
1241.63890844099
 30
0.0
 11
291.2802694798587
 21
1241.6389024409891
 31
0.0
  0
LINE
  5
C9FE
  8
0
  6
CONTINUOUS
 10
279.2802694798587
 20
1241.638883440989
 30
0.0
 11
279.2802694798587
 21
1231.6389944409891
 31
0.0
  0
LINE
  5
C9FF
  8
0
  6
CONTINUOUS
 10
267.2802694798587
 20
1241.638913440989
 30
0.0
 11
279.2802694798587
 21
1241.63890844099
 31
0.0
  0
LINE
  5
CA00
  8
0
  6
CONTINUOUS
 10
267.2802694798587
 20
1241.638883440989
 30
0.0
 11
267.2802694798587
 21
1231.6389704409901
 31
0.0
  0
LINE
  5
CA01
  8
0
  6
CONTINUOUS
 10
175.3815284798587
 20
1235.6389254409889
 30
0.0
 11
267.2802694798587
 21
1235.638883440989
 31
0.0
  0
LINE
  5
CA02
  8
0
  6
CONTINUOUS
 10
174.78027047985901
 20
1241.6389264409891
 30
0.0
 11
267.2802694798587
 21
1241.638883440989
 31
0.0
  0
LINE
  5
CA03
  8
0
  6
CONTINUOUS
 10
175.3815284798587
 20
1235.6389254409889
 30
0.0
 11
174.25929847985881
 21
1235.4118254409891
 31
0.0
  0
LINE
  5
CA04
  8
0
  6
CONTINUOUS
 10
174.25929847985881
 20
1235.4118254409891
 30
0.0
 11
173.0820714798586
 21
1234.693483440989
 31
0.0
  0
LINE
  5
CA05
  8
0
  6
CONTINUOUS
 10
173.0820714798586
 20
1234.693483440989
 30
0.0
 11
171.28750947985861
 21
1232.849504440989
 31
0.0
  0
LINE
  5
CA06
  8
0
  6
CONTINUOUS
 10
171.28750947985861
 20
1232.849504440989
 30
0.0
 11
169.16167347985839
 21
1229.742839440989
 31
0.0
  0
LINE
  5
CA07
  8
0
  6
CONTINUOUS
 10
169.16167347985839
 20
1229.742839440989
 30
0.0
 11
167.1079074798584
 21
1225.799923440989
 31
0.0
  0
LINE
  5
CA08
  8
0
  6
CONTINUOUS
 10
140.76269147985869
 20
1090.138883440989
 30
0.0
 11
140.76269147985869
 21
1099.138883440989
 31
0.0
  0
LINE
  5
CA09
  8
0
  6
CONTINUOUS
 10
140.76269147985869
 20
1099.138883440989
 30
0.0
 11
143.3226594798592
 21
1099.138883440989
 31
0.0
  0
LINE
  5
CA0A
  8
0
  6
CONTINUOUS
 10
140.76269147985869
 20
1090.138883440989
 30
0.0
 11
143.3226594798592
 21
1090.138883440989
 31
0.0
  0
LINE
  5
CA0B
  8
0
  6
CONTINUOUS
 10
326.2802694798587
 20
1009.157559440989
 30
0.0
 11
545.08532347985874
 21
1009.157559440989
 31
0.0
  0
LINE
  5
CA0C
  8
0
  6
CONTINUOUS
 10
326.2802694798587
 20
1023.708097440989
 30
0.0
 11
545.08562847985866
 21
1023.708097440989
 31
0.0
  0
LINE
  5
CA0D
  8
0
  6
CONTINUOUS
 10
326.2802694798587
 20
1041.866788440989
 30
0.0
 11
545.08575047985903
 21
1041.866788440989
 31
0.0
  0
LINE
  5
CA0E
  8
0
  6
CONTINUOUS
 10
326.2802694798587
 20
1058.5152754409889
 30
0.0
 11
545.08550647985919
 21
1058.5160804409891
 31
0.0
  0
LINE
  5
CA0F
  8
0
  6
CONTINUOUS
 10
326.2802694798587
 20
1076.2286044409891
 30
0.0
 11
545.08623847985871
 21
1076.2286044409891
 31
0.0
  0
ARC
  5
CA10
  8
0
  6
CONTINUOUS
 10
430.7802694798587
 20
1094.638950440989
 30
0.0
 40
11.5
 50
20.35443300000496
 51
159.64561999997829
  0
LINE
  5
CA11
  8
0
  6
CONTINUOUS
 10
414.28026747985888
 20
1098.638942440989
 30
0.0
 11
447.28026747985888
 21
1098.638958440989
 31
0.0
  0
LINE
  5
CA12
  8
0
  6
CONTINUOUS
 10
414.28027147985841
 20
1090.638942440989
 30
0.0
 11
447.28027147985841
 21
1090.638958440989
 31
0.0
  0
ARC
  5
CA13
  8
0
  6
CONTINUOUS
 10
414.2802694798587
 20
1094.638942440989
 30
0.0
 40
4.0
 50
90.000027000018335
 51
270.0
  0
ARC
  5
CA14
  8
0
  6
CONTINUOUS
 10
447.2802694798587
 20
1094.638958440989
 30
0.0
 40
4.0
 50
270.0
 51
90.0
  0
ARC
  5
CA15
  8
0
  6
CONTINUOUS
 10
430.7802694798587
 20
1094.638950440989
 30
0.0
 40
11.5
 50
200.35443300000489
 51
339.64561999997829
  0
LINE
  5
CA16
  8
0
  6
CONTINUOUS
 10
145.47997647985841
 20
1176.139005440989
 30
0.0
 11
146.28002547985881
 21
1176.139005440989
 31
0.0
  0
ARC
  5
CA17
  8
0
  6
CONTINUOUS
 10
165.0760864798589
 20
1218.6838374409899
 30
0.0
 40
7.0
 50
92.999915000003085
 51
165.50000500001161
  0
ARC
  5
CA18
  8
0
  6
CONTINUOUS
 10
220.69092547985869
 20
960.0552314409897
 30
0.0
 40
0.6
 50
0.0
 51
86.999938999978056
  0
LINE
  5
CA19
  8
0
  6
CONTINUOUS
 10
174.78052647985839
 20
947.63884044098972
 30
0.0
 11
172.0348634798587
 21
948.19446644098957
 31
0.0
  0
LINE
  5
CA1A
  8
0
  6
CONTINUOUS
 10
172.0348634798587
 20
948.19446644098957
 30
0.0
 11
169.31035147985889
 21
949.85696044098972
 31
0.0
  0
LINE
  5
CA1B
  8
0
  6
CONTINUOUS
 10
169.31035147985889
 20
949.85696044098972
 30
0.0
 11
166.6274694798588
 21
952.61372144098982
 31
0.0
  0
LINE
  5
CA1C
  8
0
  6
CONTINUOUS
 10
166.6274694798588
 20
952.61372144098982
 30
0.0
 11
164.0066354798586
 21
956.44376944098985
 31
0.0
  0
LINE
  5
CA1D
  8
0
  6
CONTINUOUS
 10
164.0066354798586
 20
956.44376944098985
 30
0.0
 11
161.46779447985901
 21
961.31795544098964
 31
0.0
  0
LINE
  5
CA1E
  8
0
  6
CONTINUOUS
 10
279.2802694798587
 20
953.63885844098968
 30
0.0
 11
291.2802694798587
 21
953.63886344098967
 31
0.0
  0
LINE
  5
CA1F
  8
0
  6
CONTINUOUS
 10
279.2802694798587
 20
947.63888844098983
 30
0.0
 11
279.2802694798587
 21
957.63877144098967
 31
0.0
  0
LINE
  5
CA20
  8
0
  6
CONTINUOUS
 10
267.2802694798587
 20
947.63888344098973
 30
0.0
 11
267.2802694798587
 21
957.63879544098972
 31
0.0
  0
LINE
  5
CA21
  8
0
  6
CONTINUOUS
 10
175.3815284798587
 20
953.63884044098984
 30
0.0
 11
267.2802694798587
 21
953.63888344098939
 31
0.0
  0
LINE
  5
CA22
  8
0
  6
CONTINUOUS
 10
174.78027047985901
 20
947.63884044098972
 30
0.0
 11
291.2802694798587
 21
947.6388934409897
 31
0.0
  0
LINE
  5
CA23
  8
0
  6
CONTINUOUS
 10
175.3815284798587
 20
953.63884044098984
 30
0.0
 11
174.25929847985881
 21
953.86594044098956
 31
0.0
  0
LINE
  5
CA24
  8
0
  6
CONTINUOUS
 10
174.25929847985881
 20
953.86594044098956
 30
0.0
 11
173.0820714798586
 21
954.58428244098968
 31
0.0
  0
LINE
  5
CA25
  8
0
  6
CONTINUOUS
 10
173.0820714798586
 20
954.58428244098968
 30
0.0
 11
171.28750947985861
 21
956.42826144098967
 31
0.0
  0
LINE
  5
CA26
  8
0
  6
CONTINUOUS
 10
171.28750947985861
 20
956.42826144098967
 30
0.0
 11
169.16167347985839
 21
959.53492744098958
 31
0.0
  0
LINE
  5
CA27
  8
0
  6
CONTINUOUS
 10
169.16167347985839
 20
959.53492744098958
 30
0.0
 11
167.1079074798584
 21
963.47784244098955
 31
0.0
  0
LINE
  5
CA28
  8
0
  6
CONTINUOUS
 10
161.46779447985901
 20
961.31795544098964
 30
0.0
 11
159.19986947985879
 21
966.78997344098957
 31
0.0
  0
ARC
  5
CA29
  8
0
  6
CONTINUOUS
 10
165.0760864798589
 20
970.59392944098965
 30
0.0
 40
7.0
 50
194.49999499998839
 51
267.00008499999689
  0
LINE
  5
CA2A
  8
0
  6
CONTINUOUS
 10
316.28045247985881
 20
961.13900344098965
 30
0.0
 11
476.7802694798587
 21
961.13900344098965
 31
0.0
  0
LINE
  5
CA2B
  8
0
  6
CONTINUOUS
 10
314.78045247985881
 20
955.84671444098967
 30
0.0
 11
476.78045247985858
 21
955.84671444098967
 31
0.0
  0
LINE
  5
CA2C
  8
0
  6
CONTINUOUS
 10
314.78045247985881
 20
949.35710544098936
 30
0.0
 11
476.78045247985858
 21
949.35710544098936
 31
0.0
  0
LINE
  5
CA2D
  8
0
  6
CONTINUOUS
 10
315.28045247985881
 20
943.27812844098958
 30
0.0
 11
476.28045247985858
 21
943.27812844098958
 31
0.0
  0
LINE
  5
CA2E
  8
0
  6
CONTINUOUS
 10
315.28045247985881
 20
896.09000044098946
 30
0.0
 11
475.2804524798587
 21
896.09000044098946
 31
0.0
  0
LINE
  5
CA2F
  8
0
  6
CONTINUOUS
 10
314.78045247985881
 20
894.34158844098965
 30
0.0
 11
476.78045247985858
 21
894.34158844098965
 31
0.0
  0
LINE
  5
CA30
  8
0
  6
CONTINUOUS
 10
489.28045247985858
 20
906.84158844098965
 30
0.0
 11
489.28045247985858
 21
912.51514644098972
 31
0.0
  0
LINE
  5
CA31
  8
0
  6
CONTINUOUS
 10
492.28045247985858
 20
923.58551244098942
 30
0.0
 11
497.78980647985861
 21
923.58551244098942
 31
0.0
  0
LINE
  5
CA32
  8
0
  6
CONTINUOUS
 10
492.26438847985833
 20
915.51510344098972
 30
0.0
 11
497.78980647985861
 21
915.51510344098972
 31
0.0
  0
ARC
  5
CA33
  8
0
  6
CONTINUOUS
 10
490.0351294798586
 20
919.5503084409894
 30
0.0
 40
8.7417320000000007
 50
332.50944499999753
 51
27.49055500000247
  0
LINE
  5
CA34
  8
0
  6
CONTINUOUS
 10
482.2804524798587
 20
903.09000044098968
 30
0.0
 11
482.2804524798587
 21
937.27812844098958
 31
0.0
  0
ARC
  5
CA35
  8
0
  6
CONTINUOUS
 10
492.28045247985858
 20
926.58551244098953
 30
0.0
 40
3.0
 50
180.0
 51
270.0
  0
ARC
  5
CA36
  8
0
  6
CONTINUOUS
 10
476.78045247985858
 20
943.34671444098967
 30
0.0
 40
12.5
 50
0.0
 51
90.0
  0
ARC
  5
CA37
  8
0
  6
CONTINUOUS
 10
476.78045247985858
 20
936.85710544098936
 30
0.0
 40
12.5
 50
0.0
 51
90.0
  0
ARC
  5
CA38
  8
0
  6
CONTINUOUS
 10
476.28045247985858
 20
937.27812844098958
 30
0.0
 40
6.0
 50
0.0
 51
90.0
  0
ARC
  5
CA39
  8
0
  6
CONTINUOUS
 10
476.78045247985858
 20
906.84158844098965
 30
0.0
 40
12.5
 50
270.0
 51
0.0
  0
ARC
  5
CA3A
  8
0
  6
CONTINUOUS
 10
492.28045247985858
 20
912.51514644098972
 30
0.0
 40
3.0
 50
90.0
 51
180.0
  0
LINE
  5
CA3B
  8
0
  6
CONTINUOUS
 10
489.28045247985858
 20
926.58551244098953
 30
0.0
 11
489.28045247985858
 21
943.34671444098967
 31
0.0
  0
LINE
  5
CA3C
  8
0
  6
CENTER
 10
488.78045247985858
 20
917.02026844098975
 30
0.0
 11
488.78045247985858
 21
922.41707344098972
 31
0.0
  0
LINE
  5
CA3D
  8
0
  6
CENTER
 10
486.05631747985842
 20
919.55032944098969
 30
0.0
 11
492.12772247985902
 21
919.55032944098969
 31
0.0
  0
ARC
  5
CA3E
  8
0
  6
CONTINUOUS
 10
314.78045247985881
 20
906.84158844098965
 30
0.0
 40
12.5
 50
180.0
 51
270.0
  0
ARC
  5
CA3F
  8
0
  6
CONTINUOUS
 10
301.52577547985891
 20
919.5503084409894
 30
0.0
 40
8.7417320000000007
 50
152.5094449999975
 51
207.4905550000025
  0
ARC
  5
CA40
  8
0
  6
CONTINUOUS
 10
314.78045247985881
 20
936.85710544098936
 30
0.0
 40
12.5
 50
90.0
 51
180.0
  0
ARC
  5
CA41
  8
0
  6
CONTINUOUS
 10
314.78045247985881
 20
943.34671444098967
 30
0.0
 40
12.5
 50
90.0
 51
180.0
  0
ARC
  5
CA42
  8
0
  6
CONTINUOUS
 10
315.28045247985881
 20
937.27812844098958
 30
0.0
 40
6.0
 50
90.0
 51
180.0
  0
LINE
  5
CA43
  8
0
  6
CONTINUOUS
 10
302.28045247985881
 20
926.58551244098953
 30
0.0
 11
302.28045247985881
 21
943.34671444098967
 31
0.0
  0
LINE
  5
CA44
  8
0
  6
CENTER
 10
302.78045247985881
 20
917.02026844098975
 30
0.0
 11
302.78045247985881
 21
922.41707344098972
 31
0.0
  0
LINE
  5
CA45
  8
0
  6
CENTER
 10
305.5045874798584
 20
919.55032944098969
 30
0.0
 11
299.4331824798586
 21
919.55032944098969
 31
0.0
  0
ARC
  5
CA46
  8
0
  6
CONTINUOUS
 10
299.28045247985881
 20
926.58551244098953
 30
0.0
 40
3.0
 50
270.0
 51
0.0
  0
LINE
  5
CA47
  8
0
  6
CONTINUOUS
 10
299.28045247985881
 20
923.58551244098942
 30
0.0
 11
293.77109947985838
 21
923.58551244098942
 31
0.0
  0
LINE
  5
CA48
  8
0
  6
CONTINUOUS
 10
299.29651747985861
 20
915.51510344098972
 30
0.0
 11
293.77109947985838
 21
915.51510344098972
 31
0.0
  0
ARC
  5
CA49
  8
0
  6
CONTINUOUS
 10
299.28045247985881
 20
912.51514644098972
 30
0.0
 40
3.0
 50
0.0
 51
90.0
  0
LINE
  5
CA4A
  8
0
  6
CONTINUOUS
 10
302.28045247985881
 20
906.84158844098965
 30
0.0
 11
302.28045247985881
 21
912.51514644098972
 31
0.0
  0
LINE
  5
CA4B
  8
0
  6
CONTINUOUS
 10
309.28045247985881
 20
902.09000044098968
 30
0.0
 11
309.28045247985881
 21
937.27812844098958
 31
0.0
  0
ARC
  5
CA4C
  8
0
  6
CONTINUOUS
 10
492.28045247985858
 20
933.07553444098937
 30
0.0
 40
3.0
 50
180.0
 51
270.0
  0
LINE
  5
CA4D
  8
0
  6
CONTINUOUS
 10
492.28045247985858
 20
930.07553444098926
 30
0.0
 11
497.78980647985861
 21
930.07553444098926
 31
0.0
  0
ARC
  5
CA4E
  8
0
  6
CONTINUOUS
 10
490.0351294798586
 20
926.04032944098969
 30
0.0
 40
8.7417320000000007
 50
355.30207200000473
 51
27.49055500000247
  0
LINE
  5
CA4F
  8
0
  6
CONTINUOUS
 10
498.74749247985829
 20
918.83433844098965
 30
0.0
 11
498.74749247985829
 21
926.75629944098955
 31
0.0
  0
LINE
  5
CA50
  8
0
  6
CONTINUOUS
 10
299.28045247985881
 20
930.07553444098926
 30
0.0
 11
293.77109947985838
 21
930.07553444098926
 31
0.0
  0
ARC
  5
CA51
  8
0
  6
CONTINUOUS
 10
301.52577547985891
 20
926.04032944098969
 30
0.0
 40
8.7417320000000007
 50
152.5094449999975
 51
184.6979279999953
  0
LINE
  5
CA52
  8
0
  6
CONTINUOUS
 10
292.8134124798583
 20
918.83433844098965
 30
0.0
 11
292.8134124798583
 21
926.75629944098955
 31
0.0
  0
ARC
  5
CA53
  8
0
  6
CONTINUOUS
 10
299.28045247985881
 20
933.07553444098937
 30
0.0
 40
3.0
 50
270.0
 51
0.0
  0
ARC
  5
CA54
  8
0
  6
CONTINUOUS
 10
475.2804524798587
 20
954.13900344098965
 30
0.0
 40
7.0
 50
3.5992130000037932
 51
90.0
  0
ARC
  5
CA55
  8
0
  6
CONTINUOUS
 10
475.2804524798587
 20
903.09000044098968
 30
0.0
 40
7.0
 50
270.0
 51
0.0
  0
ARC
  5
CA56
  8
0
  6
CONTINUOUS
 10
316.28045247985881
 20
954.13900344098965
 30
0.0
 40
7.0
 50
90.0
 51
176.40078699999609
  0
ARC
  5
CA57
  8
0
  6
CONTINUOUS
 10
316.28045247985881
 20
903.09000044098968
 30
0.0
 40
7.0
 50
180.0
 51
270.0
  0
LINE
  5
CA58
  8
0
  6
CONTINUOUS
 10
326.2802694798587
 20
992.59872744098959
 30
0.0
 11
545.08556747985881
 21
992.59847744098954
 31
0.0
  0
LINE
  5
CA59
  8
0
  6
CONTINUOUS
 10
476.7802694798587
 20
962.63901844098973
 30
0.0
 11
476.7802694798587
 21
961.13900344098965
 31
0.0
  0
LINE
  5
CA5A
  8
0
  6
CONTINUOUS
 10
384.7802694798587
 20
962.63901844098973
 30
0.0
 11
384.7802694798587
 21
961.13900344098965
 31
0.0
  0
LINE
  5
CA5B
  8
0
  6
CONTINUOUS
 10
561.28033047985843
 20
1193.841153440989
 30
0.0
 11
561.28033047985843
 21
1217.7089504409889
 31
0.0
  0
LINE
  5
CA5C
  8
0
  6
CONTINUOUS
 10
561.28045247985881
 20
1177.088956440989
 30
0.0
 11
563.28026947985882
 21
1177.088956440989
 31
0.0
  0
LINE
  5
CA5D
  8
0
  6
CONTINUOUS
 10
561.28033047985843
 20
1141.0918864409889
 30
0.0
 11
561.28039147985817
 21
1144.4053624409901
 31
0.0
  0
LINE
  5
CA5E
  8
0
  6
CONTINUOUS
 10
561.28039147985817
 20
1155.8329744409889
 30
0.0
 11
561.28033047985843
 21
1160.3404214409891
 31
0.0
  0
LINE
  5
CA5F
  8
0
  6
CONTINUOUS
 10
561.28033047985843
 20
1129.0320714409891
 30
0.0
 11
561.28033047985843
 21
1126.1109294409889
 31
0.0
  0
LINE
  5
CA60
  8
0
  6
CONTINUOUS
 10
561.28033047985843
 20
1111.8182044409889
 30
0.0
 11
561.28033047985843
 21
1110.8162514409889
 31
0.0
  0
LINE
  5
CA61
  8
0
  6
CONTINUOUS
 10
561.28045247985881
 20
1012.189054440989
 30
0.0
 11
563.28026947985882
 21
1012.189054440989
 31
0.0
  0
LINE
  5
CA62
  8
0
  6
CONTINUOUS
 10
561.28039147985817
 20
1033.4450354409889
 30
0.0
 11
561.28033047985843
 21
1028.9375894409891
 31
0.0
  0
LINE
  5
CA63
  8
0
  6
CONTINUOUS
 10
561.28033047985843
 20
1048.186124440989
 30
0.0
 11
561.28039147985817
 21
1044.8726474409891
 31
0.0
  0
LINE
  5
CA64
  8
0
  6
CONTINUOUS
 10
561.28033047985843
 20
1060.245938440989
 30
0.0
 11
561.28033047985843
 21
1063.167081440989
 31
0.0
  0
LINE
  5
CA65
  8
0
  6
CONTINUOUS
 10
561.28033047985843
 20
1077.459806440989
 30
0.0
 11
561.28033047985843
 21
1078.461759440989
 31
0.0
  0
LINE
  5
CA66
  8
0
  6
CONTINUOUS
 10
384.78029447985898
 20
962.63900344098965
 30
0.0
 11
476.78023347985828
 21
962.63900344098965
 31
0.0
  0
LINE
  5
CA67
  8
0
  6
CONTINUOUS
 10
561.28033047985843
 20
990.60091544098975
 30
0.0
 11
545.08556747985881
 21
981.74886544098968
 31
0.0
  0
LINE
  5
CA68
  8
0
  6
CONTINUOUS
 10
326.28020847985903
 20
981.74886544098968
 30
0.0
 11
545.08562847985866
 21
981.74886544098968
 31
0.0
  0
LINE
  5
CA69
  8
0
  6
CONTINUOUS
 10
561.28033047985843
 20
995.43685644098969
 30
0.0
 11
561.28033047985843
 21
982.48885544098971
 31
0.0
  0
LINE
  5
CA6A
  8
0
  6
CONTINUOUS
 10
561.28033047985843
 20
982.48885544098971
 30
0.0
 11
545.08556747985881
 21
973.00643344098967
 31
0.0
  0
LINE
  5
CA6B
  8
0
  6
CONTINUOUS
 10
316.47508247985883
 20
973.00643344098967
 30
0.0
 11
545.08562847985866
 21
973.00643344098967
 31
0.0
  0
LINE
  5
CA6C
  8
0
  6
CONTINUOUS
 10
307.16721247985822
 20
978.45641444098965
 30
0.0
 11
316.47508247985883
 21
973.00643344098967
 31
0.0
  0
LINE
  5
CA6D
  8
0
  6
CONTINUOUS
 10
563.28026947985882
 20
1209.6390164409891
 30
0.0
 11
563.28026947985882
 21
979.63900344098954
 31
0.0
  0
TEXT
  5
CD3E
  8
0
  6
CONTINUOUS
 62
     0
 10
1077.4330570852219
 20
1067.6986442295549
 30
0.0
 40
20.0
  1
VX75-025EB~VX75-030EB
  0
ENDSEC
  0
EOF
