  0
SECTION
  2
HEADER
  9
$ACADVER
  1
AC1009
  9
$INSBASE
 10
0.0
 20
0.0
 30
0.0
  9
$EXTMIN
 10
181.65874263091291
 20
488.2814460565159
 30
-0.0000000000000053
  9
$EXTMAX
 10
1668.233754250133
 20
1545.226377855176
 30
0.0000000000000099
  9
$LIMMIN
 10
0.0000005999945643
 20
-0.0000005963913736
  9
$LIMMAX
 10
1991.5000005999941
 20
1294.9999994036091
  9
$ORTHOMODE
 70
     0
  9
$REGENMODE
 70
     1
  9
$FILLMODE
 70
     1
  9
$QTEXTMODE
 70
     0
  9
$MIRRTEXT
 70
     0
  9
$DRAGMODE
 70
     2
  9
$LTSCALE
 40
1.0
  9
$OSMODE
 70
   551
  9
$ATTMODE
 70
     1
  9
$TEXTSIZE
 40
2.5
  9
$TRACEWID
 40
1.0
  9
$TEXTSTYLE
  7
STANDARD
  9
$CLAYER
  8
0
  9
$CELTYPE
  6
BYLAYER
  9
$CECOLOR
 62
   256
  9
$DIMSCALE
 40
1.0
  9
$DIMASZ
 40
2.0
  9
$DIMEXO
 40
1.0
  9
$DIMDLI
 40
8.0
  9
$DIMRND
 40
0.0
  9
$DIMDLE
 40
0.0
  9
$DIMEXE
 40
1.0
  9
$DIMTP
 40
-0.025
  9
$DIMTM
 40
0.043
  9
$DIMTXT
 40
2.5
  9
$DIMCEN
 40
0.0
  9
$DIMTSZ
 40
0.0
  9
$DIMTOL
 70
     0
  9
$DIMLIM
 70
     0
  9
$DIMTIH
 70
     0
  9
$DIMTOH
 70
     0
  9
$DIMSE1
 70
     0
  9
$DIMSE2
 70
     0
  9
$DIMTAD
 70
     3
  9
$DIMZIN
 70
     8
  9
$DIMBLK
  1

  9
$DIMASO
 70
     1
  9
$DIMSHO
 70
     1
  9
$DIMPOST
  1

  9
$DIMAPOST
  1
"
  9
$DIMALT
 70
     0
  9
$DIMALTD
 70
     2
  9
$DIMALTF
 40
0.0393701
  9
$DIMLFAC
 40
1.0
  9
$DIMTOFL
 70
     1
  9
$DIMTVP
 40
0.0
  9
$DIMTIX
 70
     0
  9
$DIMSOXD
 70
     0
  9
$DIMSAH
 70
     0
  9
$DIMBLK1
  1

  9
$DIMBLK2
  1

  9
$DIMSTYLE
  2
AM_JIS
  9
$DIMCLRD
 70
     2
  9
$DIMCLRE
 70
     2
  9
$DIMCLRT
 70
     4
  9
$DIMTFAC
 40
0.71
  9
$DIMGAP
 40
1.5
  9
$LUNITS
 70
     2
  9
$LUPREC
 70
     2
  9
$SKETCHINC
 40
1.0
  9
$FILLETRAD
 40
0.0
  9
$AUNITS
 70
     0
  9
$AUPREC
 70
     0
  9
$MENU
  1
.
  9
$ELEVATION
 40
0.0
  9
$PELEVATION
 40
0.0
  9
$THICKNESS
 40
0.0
  9
$LIMCHECK
 70
     0
  9
$BLIPMODE
 70
     0
  9
$CHAMFERA
 40
3.5
  9
$CHAMFERB
 40
3.5
  9
$SKPOLY
 70
     0
  9
$TDCREATE
 40
2456829.3841110538
  9
$TDUPDATE
 40
2458540.7295684032
  9
$TDINDWG
 40
0.6278946644
  9
$TDUSRTIMER
 40
0.6278942824
  9
$USRTIMER
 70
     1
  9
$ANGBASE
 50
0.0
  9
$ANGDIR
 70
     0
  9
$PDMODE
 70
     0
  9
$PDSIZE
 40
0.0
  9
$PLINEWID
 40
0.0
  9
$COORDS
 70
     1
  9
$SPLFRAME
 70
     0
  9
$SPLINETYPE
 70
     6
  9
$SPLINESEGS
 70
     8
  9
$ATTDIA
 70
     1
  9
$ATTREQ
 70
     1
  9
$HANDLING
 70
     1
  9
$HANDSEED
  5
DBEE
  9
$SURFTAB1
 70
     6
  9
$SURFTAB2
 70
     6
  9
$SURFTYPE
 70
     6
  9
$SURFU
 70
     6
  9
$SURFV
 70
     6
  9
$UCSNAME
  2

  9
$UCSORG
 10
0.0
 20
0.0
 30
0.0
  9
$UCSXDIR
 10
1.0
 20
0.0
 30
0.0
  9
$UCSYDIR
 10
0.0
 20
1.0
 30
0.0
  9
$PUCSNAME
  2

  9
$PUCSORG
 10
0.0
 20
0.0
 30
0.0
  9
$PUCSXDIR
 10
1.0
 20
0.0
 30
0.0
  9
$PUCSYDIR
 10
0.0
 20
1.0
 30
0.0
  9
$USERI1
 70
     0
  9
$USERI2
 70
     0
  9
$USERI3
 70
     0
  9
$USERI4
 70
     0
  9
$USERI5
 70
     0
  9
$USERR1
 40
0.0
  9
$USERR2
 40
0.0
  9
$USERR3
 40
0.0
  9
$USERR4
 40
0.0
  9
$USERR5
 40
0.0
  9
$WORLDVIEW
 70
     1
  9
$SHADEDGE
 70
     3
  9
$SHADEDIF
 70
    70
  9
$TILEMODE
 70
     1
  9
$MAXACTVP
 70
    64
  9
$PLIMCHECK
 70
     0
  9
$PEXTMIN
 10
1.0000000000000000E+020
 20
1.0000000000000000E+020
 30
1.0000000000000000E+020
  9
$PEXTMAX
 10
-1.0000000000000000E+020
 20
-1.0000000000000000E+020
 30
-1.0000000000000000E+020
  9
$PLIMMIN
 10
0.0
 20
0.0
  9
$PLIMMAX
 10
420.0
 20
297.0
  9
$UNITMODE
 70
     0
  9
$VISRETAIN
 70
     1
  9
$PLINEGEN
 70
     0
  9
$PSLTSCALE
 70
     1
  0
ENDSEC
  0
SECTION
  2
TABLES
  0
TABLE
  2
VPORT
 70
     1
  0
VPORT
  2
*ACTIVE
 70
     0
 10
0.0
 20
0.0
 11
1.0
 21
1.0
 12
924.94624844052305
 22
1016.753911955846
 13
0.0
 23
0.0
 14
17.5
 24
17.5
 15
70.0
 25
70.0
 16
0.0
 26
0.0
 36
1.0
 17
0.0
 27
0.0
 37
0.0
 40
1064.200846662266
 41
1.7571592210767459
 42
50.0
 43
0.0
 44
0.0
 50
0.0
 51
0.0
 71
     0
 72
  1000
 73
     1
 74
     3
 75
     0
 76
     0
 77
     0
 78
     0
  0
ENDTAB
  0
TABLE
  2
LTYPE
 70
    25
  0
LTYPE
  2
CONTINUOUS
 70
     0
  3
Solid line
 72
    65
 73
     0
 40
0.0
  0
LTYPE
  2
AM_ISO02W050
 70
     0
  3
__ __ __ __ __ __ __ __ __ __ __ __ __ __ __
 72
    65
 73
     2
 40
7.5
 49
6.0
 49
-1.5
  0
LTYPE
  2
AM_ISO08W050
 70
     0
  3
____ . ____ . ____ . ____ . ____ . ____ . ____
 72
    65
 73
     4
 40
18.0
 49
12.0
 49
-1.5
 49
3.0
 49
-1.5
  0
LTYPE
  2
AM_ISO09W050
 70
     0
  3
_____ . . _____ . . _____ . . ____ .. ____
 72
    65
 73
     6
 40
22.5
 49
12.0
 49
-1.5
 49
3.0
 49
-1.5
 49
3.0
 49
-1.5
  0
LTYPE
  2
AMCONSTR
 70
     0
  3
_______________________
 72
    65
 73
     2
 40
9999.0
 49
9999.0
 49
0.0
  0
LTYPE
  2
AM_ISO08W050X2
 70
     0
  3
__ . __ . __ . __ . __ . __
 72
    65
 73
     4
 40
9.0
 49
6.0
 49
-0.75
 49
1.5
 49
-0.75
  0
LTYPE
  2
AM_ISO02W050X2
 70
     0
  3
 _ _ _ _ _ _ _ _ _ _ _ _
 72
    65
 73
     2
 40
3.75
 49
3.0
 49
-0.75
  0
LTYPE
  2
AMZIGZAG
 70
     0
  3
/\/-/\/-/\/-/\/-/\/-/\/
 72
    65
 73
     2
 40
11.0001
 49
0.0001
 49
-11.0
  0
LTYPE
  2
ACANSTGBM
 70
     0
  3
__ . . __ . .
 72
    65
 73
     6
 40
9.0
 49
4.0
 49
-1.0
 49
1.0
 49
-1.0
 49
1.0
 49
-1.0
  0
LTYPE
  2
ACANSTGLM
 70
     0
  3
_ _ _ _ _
 72
    65
 73
     2
 40
3.0
 49
2.0
 49
-1.0
  0
LTYPE
  2
ACISOWELD
 70
     0
  3
_ _ _ _ _
 72
    65
 73
     2
 40
2.0
 49
2.0
 49
-1.0
  0
LTYPE
  2
ACISOTGB
 70
     0
  3
__ . . __ . .
 72
    65
 73
     6
 40
9.0
 49
4.0
 49
-1.0
 49
1.0
 49
-1.0
 49
1.0
 49
-1.0
  0
LTYPE
  2
ACISOTGL
 70
     0
  3
_ _ _ _ _
 72
    65
 73
     2
 40
3.0
 49
2.0
 49
-1.0
  0
LTYPE
  2
ACJISTGB
 70
     0
  3
__ . . __ . .
 72
    65
 73
     6
 40
9.0
 49
4.0
 49
-1.0
 49
1.0
 49
-1.0
 49
1.0
 49
-1.0
  0
LTYPE
  2
ACJISTGL
 70
     0
  3
_ _ _ _ _
 72
    65
 73
     2
 40
3.0
 49
2.0
 49
-1.0
  0
LTYPE
  2
CENTER
 70
     0
  3
Center ____ _ ____ _ ____ _ ____ _ ____ _ ____
 72
    65
 73
     4
 40
50.799999999999997
 49
31.75
 49
-6.3499999999999979
 49
6.3499999999999979
 49
-6.3499999999999979
  0
LTYPE
  2
ACJISWELD
 70
     0
  3
_ _ _ _ _
 72
    65
 73
     2
 40
2.0
 49
2.0
 49
-1.0
  0
LTYPE
  2
HIDDEN
 70
     0
  3
Hidden __ __ __ __ __ __ __ __ __ __ __ __ __ _
 72
    65
 73
     2
 40
9.5249999999999968
 49
6.349999999999997
 49
-3.174999999999998
  0
LTYPE
  2
PHANTOM2
 70
     0
  3
Phantom (.5x) ___ _ _ ___ _ _ ___ _ _ ___ _ _
 72
    65
 73
     6
 40
31.75
 49
15.875
 49
-3.174999999999998
 49
3.174999999999998
 49
-3.174999999999998
 49
3.174999999999998
 49
-3.174999999999998
  0
LTYPE
  2
CENTER2
 70
     0
  3
Center (.5x) ___ _ ___ _ ___ _ ___ _ ___ _ ___
 72
    65
 73
     4
 40
1.125
 49
0.75
 49
-0.125
 49
0.125
 49
-0.125
  0
LTYPE
  2
HIDDEN2
 70
     0
  3
Hidden (.5x) _ _ _ _ _ _ _ _ _ _ _ _ _ _ _ _ _
 72
    65
 73
     2
 40
0.1875
 49
0.125
 49
-0.0625
  0
LTYPE
  2
AMZIGZAG2
 70
     0
  3
/\/-/\/-/\/-/\/-/\/-/\/
 72
    65
 73
     2
 40
0.4401
 49
0.0001
 49
-0.4400000000000003
  0
LTYPE
  2
ACANSTGB
 70
     0
  3
__ . . __ . .
 72
    65
 73
     6
 40
0.35433070866
 49
0.15748031496
 49
-0.03937007874
 49
0.03937007874
 49
-0.03937007874
 49
0.03937007874
 49
-0.03937007874
  0
LTYPE
  2
ACANSTGL
 70
     0
  3
_ _ _ _ _
 72
    65
 73
     2
 40
0.11811023622
 49
0.07874015748
 49
-0.03937007874
  0
ENDTAB
  0
TABLE
  2
LAYER
 70
     4
  0
LAYER
  2
0
 70
     0
 62
     7
  6
CONTINUOUS
  0
LAYER
  2
DEFPOINTS
 70
     0
 62
     7
  6
CONTINUOUS
  0
LAYER
  2
AM_5
 70
     0
 62
     2
  6
CONTINUOUS
  0
LAYER
  2
AM_CL
 70
     0
 62
     1
  6
AMCONSTR
  0
ENDTAB
  0
TABLE
  2
STYLE
 70
     8
  0
STYLE
  2
STANDARD
 70
     0
 40
0.0
 41
0.7400000000000003
 50
0.0
 71
     0
 42
2.5
  3
txt.shx
  4
bigfont.shx
  0
STYLE
  2

 70
     1
 40
0.0
 41
1.0
 50
0.0
 71
     0
 42
2.5
  3
ltypeshp.shx
  4

  0
STYLE
  2
ACANSTS
 70
     0
 40
1.0
 41
1.0
 50
0.0
 71
     0
 42
2.5
  3
romans.shx
  4
bigfont.shx
  0
STYLE
  2
ACANSGDT
 70
     0
 40
0.0
 41
1.0
 50
0.0
 71
     0
 42
2.5
  3
amgdtans.shx
  4

  0
STYLE
  2
ACISOTS
 70
     0
 40
1.0
 41
1.0
 50
0.0
 71
     0
 42
2.5
  3
isocp.shx
  4
extfont.shx
  0
STYLE
  2
ACISOGDT
 70
     0
 40
0.0
 41
1.0
 50
0.0
 71
     0
 42
2.5
  3
amgdt.shx
  4

  0
STYLE
  2
ACJISGDT
 70
     0
 40
0.0
 41
1.0
 50
0.0
 71
     0
 42
2.5
  3
amgdt.shx
  4

  0
STYLE
  2
ACJISTS
 70
     0
 40
1.0
 41
1.0
 50
0.0
 71
     0
 42
2.5
  3
isocp.shx
  4
extfont.shx
  0
ENDTAB
  0
TABLE
  2
VIEW
 70
     6
  0
VIEW
  2
AM_VIEW1
 70
     0
 40
647.50000000000011
 10
684.36832800212994
 20
971.24999940360885
 41
1368.7366548042701
 11
0.0
 21
0.0
 31
1.0
 12
0.0
 22
0.0
 32
0.0
 42
50.0
 43
0.0
 44
0.0
 50
0.0
 71
     0
  0
VIEW
  2
AM_VIEW2
 70
     0
 40
647.50000000000011
 10
1307.1316731978591
 20
971.24999940360885
 41
1368.7366548042701
 11
0.0
 21
0.0
 31
1.0
 12
0.0
 22
0.0
 32
0.0
 42
50.0
 43
0.0
 44
0.0
 50
0.0
 71
     0
  0
VIEW
  2
AM_VIEW3
 70
     0
 40
647.50000000000011
 10
684.36832800212994
 20
323.74999940360868
 41
1368.7366548042701
 11
0.0
 21
0.0
 31
1.0
 12
0.0
 22
0.0
 32
0.0
 42
50.0
 43
0.0
 44
0.0
 50
0.0
 71
     0
  0
VIEW
  2
AM_VIEW4
 70
     0
 40
647.50000000000011
 10
1307.1316731978591
 20
323.74999940360868
 41
1368.7366548042701
 11
0.0
 21
0.0
 31
1.0
 12
0.0
 22
0.0
 32
0.0
 42
50.0
 43
0.0
 44
0.0
 50
0.0
 71
     0
  0
VIEW
  2
AM_VIEW5
 70
     0
 40
647.50000000000023
 10
995.75000059999434
 20
647.49999940360874
 41
1368.736654804271
 11
0.0
 21
0.0
 31
1.0
 12
0.0
 22
0.0
 32
0.0
 42
50.0
 43
0.0
 44
0.0
 50
0.0
 71
     0
  0
VIEW
  2
AM_VIEW6
 70
     0
 40
1294.98705
 10
995.75000059999434
 20
647.49999940360863
 41
2737.4459348754458
 11
0.0
 21
0.0
 31
1.0
 12
0.0
 22
0.0
 32
0.0
 42
50.0
 43
0.0
 44
0.0
 50
0.0
 71
     0
  0
ENDTAB
  0
TABLE
  2
UCS
 70
     0
  0
ENDTAB
  0
TABLE
  2
APPID
 70
   157
  0
APPID
  2
ACAD
 70
     0
  0
APPID
  2
ACADANNOTATIVE
 70
     0
  0
APPID
  2
ACAD_MLEADERVER
 70
     0
  0
APPID
  2
MCAD_NO_VIS
 70
     0
  0
APPID
  2
ACAD_TEMP_GRAPHIC
 70
     0
  0
APPID
  2
AD_DRAW
 70
     0
  0
APPID
  2
ACATTRIBSERVICES
 70
     0
  0
APPID
  2
DESIGNERASSEMBLIES
 70
     0
  0
APPID
  2
ACADM_DIM_EDIT
 70
     0
  0
APPID
  2
AMDT_DM_ADJ
 70
     0
  0
APPID
  2
GENIUS_GENDIMSH_14
 70
     0
  0
APPID
  2
GEVID1057795304
 70
     0
  0
APPID
  2
GEVDC
 70
     0
  0
APPID
  2
GEVCON
 70
     0
  0
APPID
  2
GENIUS_GENBH_13
 70
     0
  0
APPID
  2
GENIUS_GENOENT_13
 70
     0
  0
APPID
  2
GENIUS_GENOBJ-NBEHI-BHF_13
 70
     0
  0
APPID
  2
GENIUS_GENOLIS_13
 70
     0
  0
APPID
  2
GENIUS_GENODEF_13
 70
     0
  0
APPID
  2
GENIUS_GENOREF_13
 70
     0
  0
APPID
  2
GENIUS_GENOBJ-NBEHI-BHB_13
 70
     0
  0
APPID
  2
GENIUS_GENOBJ-F-SCPASSM_13
 70
     0
  0
APPID
  2
GENIUS_GENDTOL_13
 70
     0
  0
APPID
  2
GENIUS_GENTRA_14
 70
     0
  0
APPID
  2
ASURF_PCURVE_APPNAME
 70
     0
  0
APPID
  2
GENIUS_GENCFG_13
 70
     0
  0
APPID
  2
GENIUS_GE3CFG0_13
 70
     0
  0
APPID
  2
GENIUS_GENCFG0_13
 70
     0
  0
APPID
  2
GENIUS_GENCFG1_13
 70
     0
  0
APPID
  2
GENIUS_GENCFG2_13
 70
     0
  0
APPID
  2
GENIUS_GENCFG3_13
 70
     0
  0
APPID
  2
GENIUS_GENCFG4_13
 70
     0
  0
APPID
  2
GENIUS_GEVCFG0_13
 70
     0
  0
APPID
  2
GENIUS_GENOBJ-N-TIT_13
 70
     0
  0
APPID
  2
GENIUS_GENTITLE_13
 70
     0
  0
APPID
  2
GENIUS_GENSCREG_15
 70
     0
  0
APPID
  2
GENIUS_GENOBJ-N-SDF_13
 70
     0
  0
APPID
  2
GENIUS_GENFIL_13
 70
     0
  0
APPID
  2
GENIUS_GENOBJ-N-CHA_13
 70
     0
  0
APPID
  2
GENIUS_GEFSH_13
 70
     0
  0
APPID
  2
GENIUS_GENOBJ-F-SHS_13
 70
     0
  0
APPID
  2
GENIUS_GENOBJ-N-CEN_13
 70
     0
  0
APPID
  2
GENIUS_GENREC_14
 70
     0
  0
APPID
  2
GENIUS_GENOBJ-N-REC_13
 70
     0
  0
APPID
  2
GENIUS_GENOBJ-N-HTC_13
 70
     0
  0
APPID
  2
GENIUS_GENHATCH_13
 70
     0
  0
APPID
  2
ACAD_PSEXT
 70
     0
  0
APPID
  2
ACAD_EXEMPT_FROM_CAD_STANDARDS
 70
     0
  0
APPID
  2
ACAECLAYERSTANDARD
 70
     0
  0
APPID
  2
GENIUS_GENCEN_19
 70
     0
  0
APPID
  2
ACAD_DSTYLE_DIMINSPECT
 70
     0
  0
APPID
  2
ACAD_DSTYLE_DIMANGULAR_EXT
 70
     0
  0
APPID
  2
ACADANNOPO
 70
     0
  0
APPID
  2
ACAD_NAV_VCDISPLAY
 70
     0
  0
APPID
  2
GENIUS_GENOBJ-N-FIL_13
 70
     0
  0
APPID
  2
ACAD_DSTYLE_DIMBREAK
 70
     0
  0
APPID
  2
ACAD_DSTYLE_DIMJAG
 70
     0
  0
APPID
  2
ACAD_DSTYLE_DIMRADIAL_EXTENSION
 70
     0
  0
APPID
  2
GENIUS_GENHINW_13
 70
     0
  0
APPID
  2
GENIUS_FIRSTVISTXT_14
 70
     0
  0
APPID
  2
GENIUS_GENOBJ-N-LEADER_13
 70
     0
  0
APPID
  2
GENIUS_DUMCFG0_13
 70
     0
  0
APPID
  2
ACAD_DSTYLE_DIMTEXT_FILL
 70
     0
  0
APPID
  2
AMG_2DHIDE
 70
     0
  0
APPID
  2
GENIUS_GEFSHEP_13
 70
     0
  0
APPID
  2
GENIUS_GENOBJ-F-SHE_13
 70
     0
  0
APPID
  2
GENIUS_GEFSHE_13
 70
     0
  0
APPID
  2
ACAD_DIMASSOC_DIMLFAC
 70
     0
  0
APPID
  2
ACAD_DIMASSOC_CALC_DIMLFAC
 70
     0
  0
APPID
  2
ACAD_DIMASSOC_OVERRIDDEN_D
 70
     0
  0
APPID
  2
GENIUS_GENOBJ-F-SHSV_13
 70
     0
  0
APPID
  2
GENIUS_GEFWELD_13
 70
     0
  0
APPID
  2
GENIUS_GENOBJ-N-CRS_13
 70
     0
  0
APPID
  2
GENIUS_GENOBJ-N-RSBK_13
 70
     0
  0
APPID
  2
GENIUS_GENOBJ-N-LIB_13
 70
     0
  0
APPID
  2
GENIUS_GENSCALE_13
 70
     0
  0
APPID
  2
GENIUS_GENDREL_13
 70
     0
  0
APPID
  2
GEVPT
 70
     0
  0
APPID
  2
GEVIT
 70
     0
  0
APPID
  2
VCC
 70
     0
  0
APPID
  2
GENBH
 70
     0
  0
APPID
  2
GEVMK
 70
     0
  0
APPID
  2
GENIUS_GENOBJ-F-DESC_13
 70
     0
  0
APPID
  2
GENIUS_GEFDESC_14
 70
     0
  0
APPID
  2
GENIUS_GENOBJ-F-FEAT_13
 70
     0
  0
APPID
  2
GENIUS_GEFFEAT_14
 70
     0
  0
APPID
  2
GENIUS_GEFPARTINS_13
 70
     0
  0
APPID
  2
GENIUS_GENSCREG_13
 70
     0
  0
APPID
  2
GENIUS_GEFSHP_13
 70
     0
  0
APPID
  2
GEVID1025574798
 70
     0
  0
APPID
  2
GEVID1025574769
 70
     0
  0
APPID
  2
GEVID1025757451
 70
     0
  0
APPID
  2
GEVID1240528327
 70
     0
  0
APPID
  2
AMG_2DSTRUCT_BTR
 70
     0
  0
APPID
  2
ACADM_2DVIEW_IGN_NOTIFY
 70
     0
  0
APPID
  2
GEVID1240528328
 70
     0
  0
APPID
  2
GEVID1240528329
 70
     0
  0
APPID
  2
GEVRADREF
 70
     0
  0
APPID
  2
GEVID1240528330
 70
     0
  0
APPID
  2
GEVID1240528331
 70
     0
  0
APPID
  2
GEVID1240528332
 70
     0
  0
APPID
  2
GEVID1240791080
 70
     0
  0
APPID
  2
GEVID1240791081
 70
     0
  0
APPID
  2
GEVID1240791082
 70
     0
  0
APPID
  2
GEVID1240791083
 70
     0
  0
APPID
  2
GEVID1240791084
 70
     0
  0
APPID
  2
GEVID1240791085
 70
     0
  0
APPID
  2
GEVID1240791086
 70
     0
  0
APPID
  2
GEVID1240791087
 70
     0
  0
APPID
  2
GEVID1240791088
 70
     0
  0
APPID
  2
GEVID1240791089
 70
     0
  0
APPID
  2
GEVID1240791090
 70
     0
  0
APPID
  2
GEVID1240791091
 70
     0
  0
APPID
  2
GEVID1240791092
 70
     0
  0
APPID
  2
GEVID1240791093
 70
     0
  0
APPID
  2
GEVID1240791094
 70
     0
  0
APPID
  2
GEVID1240791095
 70
     0
  0
APPID
  2
GEVID1240791096
 70
     0
  0
APPID
  2
GEVID1240791097
 70
     0
  0
APPID
  2
GEVID1240791098
 70
     0
  0
APPID
  2
GEVID1240791099
 70
     0
  0
APPID
  2
GEVID1240791100
 70
     0
  0
APPID
  2
GEVID1240791101
 70
     0
  0
APPID
  2
GEVID1240791102
 70
     0
  0
APPID
  2
GEVID1240791103
 70
     0
  0
APPID
  2
GEVID1240791104
 70
     0
  0
APPID
  2
GEVID1240791105
 70
     0
  0
APPID
  2
GEVID1240875381
 70
     0
  0
APPID
  2
GEVID1240875382
 70
     0
  0
APPID
  2
GEVID1240875383
 70
     0
  0
APPID
  2
GEVID1240875384
 70
     0
  0
APPID
  2
GEVID1240875385
 70
     0
  0
APPID
  2
GEVID1240875386
 70
     0
  0
APPID
  2
GEVID1240875387
 70
     0
  0
APPID
  2
GEVID1240875388
 70
     0
  0
APPID
  2
GEVID1240875389
 70
     0
  0
APPID
  2
GEVID1240875390
 70
     0
  0
APPID
  2
GEVID1240875391
 70
     0
  0
APPID
  2
GEVID1240875392
 70
     0
  0
APPID
  2
GEVID1240875393
 70
     0
  0
APPID
  2
GEVID1240875394
 70
     0
  0
APPID
  2
GEVID1240875395
 70
     0
  0
APPID
  2
GEVID1240875396
 70
     0
  0
APPID
  2
GEVID1240875397
 70
     0
  0
APPID
  2
GEVID1240875398
 70
     0
  0
APPID
  2
GEVID1240875399
 70
     0
  0
APPID
  2
GEVID1240908996
 70
     0
  0
APPID
  2
GEVID1240908997
 70
     0
  0
APPID
  2
GEVID1240908998
 70
     0
  0
APPID
  2
GEVID1240908999
 70
     0
  0
APPID
  2
GEVID1240909000
 70
     0
  0
APPID
  2
GENIUS_GENOBJ-N-ZOO_13
 70
     0
  0
APPID
  2
GENIUS_GENZOO_17
 70
     0
  0
APPID
  2
GENIUS_GE3SECT_13
 70
     0
  0
APPID
  2
GEV_VCCNULL_SWITCH_OFF
 70
     0
  0
APPID
  2
ACAD_DSTYLE_DIMTALN
 70
     0
  0
APPID
  2
DCO15
 70
     0
  0
ENDTAB
  0
TABLE
  2
DIMSTYLE
 70
    21
  0
DIMSTYLE
  2
AM_ANSI
 70
     0
  3

  4
"
  5

  6

  7

 40
1.0
 41
2.5
 42
1.0
 43
10.0
 44
1.0
 45
0.0
 46
0.0
 47
0.1
 48
0.1
140
3.5
141
0.0
142
0.0
143
0.0393701
144
1.0
145
0.0
146
0.71
147
1.5
 71
     0
 72
     0
 73
     1
 74
     1
 75
     0
 76
     0
 77
     0
 78
     8
170
     0
171
     2
172
     0
173
     0
174
     0
175
     0
176
     2
177
     2
178
     4
  0
DIMSTYLE
  2
AM_ANSI$3
 70
     0
  3

  4
"
  5

  6

  7

 40
1.0
 41
2.5
 42
1.0
 43
10.0
 44
1.0
 45
0.0
 46
0.0
 47
0.1
 48
0.1
140
3.5
141
0.0
142
0.0
143
0.0393701
144
1.0
145
0.0
146
0.71
147
1.5
 71
     0
 72
     0
 73
     1
 74
     1
 75
     0
 76
     0
 77
     0
 78
     8
170
     0
171
     2
172
     0
173
     0
174
     0
175
     0
176
     2
177
     2
178
     4
  0
DIMSTYLE
  2
AM_ANSI$4
 70
     0
  3

  4
"
  5

  6

  7

 40
1.0
 41
2.5
 42
1.0
 43
10.0
 44
1.0
 45
0.0
 46
0.0
 47
0.1
 48
0.1
140
3.5
141
0.0
142
0.0
143
0.0393701
144
1.0
145
0.0
146
0.71
147
1.5
 71
     0
 72
     0
 73
     1
 74
     1
 75
     0
 76
     0
 77
     0
 78
     8
170
     0
171
     2
172
     0
173
     0
174
     0
175
     0
176
     2
177
     2
178
     4
  0
DIMSTYLE
  2
AM_ANSI$7
 70
     0
  3

  4
"
  5

  6

  7

 40
1.0
 41
2.5
 42
1.0
 43
10.0
 44
1.0
 45
0.0
 46
0.0
 47
0.1
 48
0.1
140
5.0
141
0.0
142
0.0
143
0.0393701
144
1.0
145
0.0
146
0.71
147
1.5
 71
     0
 72
     0
 73
     1
 74
     1
 75
     0
 76
     0
 77
     0
 78
     8
170
     0
171
     2
172
     0
173
     0
174
     0
175
     0
176
     2
177
     2
178
     4
  0
DIMSTYLE
  2
AM_ANSI$SF
 70
     0
  3

  4
"
  5

  6

  7

 40
1.0
 41
2.5
 42
1.0
 43
10.0
 44
1.0
 45
0.0
 46
0.0
 47
0.1
 48
0.1
140
3.5
141
0.0
142
0.0
143
0.0393701
144
1.0
145
0.0
146
0.71
147
1.5
 71
     0
 72
     0
 73
     1
 74
     1
 75
     1
 76
     1
 77
     0
 78
     8
170
     0
171
     2
172
     0
173
     0
174
     0
175
     0
176
     2
177
     2
178
     4
  0
DIMSTYLE
  2
AM_ANSI$SH
 70
     0
  3

  4
"
  5

  6
GENAXEH
  7

 40
1.0
 41
2.5
 42
1.0
 43
10.0
 44
1.0
 45
0.0
 46
0.0
 47
0.1
 48
0.1
140
3.5
141
0.0
142
0.0
143
0.0393701
144
1.0
145
0.0
146
0.71
147
1.5
 71
     0
 72
     0
 73
     1
 74
     1
 75
     1
 76
     1
 77
     0
 78
     8
170
     0
171
     2
172
     0
173
     1
174
     0
175
     0
176
     2
177
     2
178
     4
  0
DIMSTYLE
  2
AM_ISO
 70
     0
  3

  4
"
  5

  6

  7

 40
1.0
 41
2.5
 42
1.0
 43
10.0
 44
1.0
 45
0.0
 46
0.0
 47
0.1
 48
0.1
140
3.5
141
0.0
142
0.0
143
0.0393701
144
1.0
145
0.0
146
0.71
147
1.5
 71
     0
 72
     0
 73
     0
 74
     0
 75
     0
 76
     0
 77
     1
 78
     8
170
     0
171
     2
172
     1
173
     0
174
     0
175
     0
176
   256
177
   256
178
     2
  0
DIMSTYLE
  2
AM_ISO$3
 70
     0
  3

  4
"
  5

  6

  7

 40
1.0
 41
2.5
 42
1.0
 43
10.0
 44
1.0
 45
0.0
 46
0.0
 47
0.1
 48
0.1
140
3.5
141
0.0
142
0.0
143
0.0393701
144
1.0
145
0.0
146
0.71
147
1.5
 71
     0
 72
     0
 73
     0
 74
     1
 75
     0
 76
     0
 77
     1
 78
     8
170
     0
171
     2
172
     0
173
     0
174
     0
175
     0
176
   256
177
   256
178
     2
  0
DIMSTYLE
  2
AM_ISO$4
 70
     0
  3

  4
"
  5

  6

  7

 40
1.0
 41
2.5
 42
1.0
 43
10.0
 44
1.0
 45
0.0
 46
0.0
 47
0.1
 48
0.1
140
3.5
141
0.0
142
0.0
143
0.0393701
144
1.0
145
0.0
146
0.71
147
1.5
 71
     0
 72
     0
 73
     0
 74
     1
 75
     0
 76
     0
 77
     1
 78
     8
170
     0
171
     2
172
     0
173
     0
174
     0
175
     0
176
   256
177
   256
178
     2
  0
DIMSTYLE
  2
AM_ISO$6
 70
     0
  3

  4
"
  5

  6

  7

 40
1.0
 41
2.5
 42
1.0
 43
10.0
 44
1.0
 45
0.0
 46
0.0
 47
0.1
 48
0.1
140
3.5
141
0.0
142
0.0
143
0.0393701
144
1.0
145
0.0
146
0.71
147
1.5
 71
     0
 72
     0
 73
     0
 74
     0
 75
     0
 76
     0
 77
     0
 78
     8
170
     0
171
     2
172
     1
173
     0
174
     0
175
     0
176
   256
177
   256
178
     2
  0
DIMSTYLE
  2
AM_ISO$7
 70
     0
  3

  4
"
  5

  6

  7

 40
1.0
 41
2.5
 42
1.0
 43
10.0
 44
1.0
 45
0.0
 46
0.0
 47
0.1
 48
0.1
140
5.0
141
0.0
142
0.0
143
0.0393701
144
1.0
145
0.0
146
0.71
147
1.5
 71
     0
 72
     0
 73
     0
 74
     0
 75
     0
 76
     0
 77
     1
 78
     8
170
     0
171
     2
172
     1
173
     0
174
     0
175
     0
176
   256
177
   256
178
     2
  0
DIMSTYLE
  2
AM_ISO$SF
 70
     0
  3

  4
"
  5

  6

  7

 40
1.0
 41
2.5
 42
1.0
 43
10.0
 44
1.0
 45
0.0
 46
0.0
 47
0.1
 48
0.1
140
3.5
141
0.0
142
0.0
143
0.0393701
144
1.0
145
0.0
146
0.71
147
1.5
 71
     0
 72
     0
 73
     0
 74
     0
 75
     1
 76
     1
 77
     1
 78
     8
170
     0
171
     2
172
     1
173
     0
174
     0
175
     0
176
   256
177
   256
178
     2
  0
DIMSTYLE
  2
AM_ISO$SH
 70
     0
  3

  4
"
  5

  6
GENAXEH
  7

 40
1.0
 41
2.5
 42
1.0
 43
10.0
 44
1.0
 45
0.0
 46
0.0
 47
0.1
 48
0.1
140
3.5
141
0.0
142
0.0
143
0.0393701
144
2.0
145
0.0
146
0.71
147
1.5
 71
     0
 72
     0
 73
     0
 74
     0
 75
     1
 76
     1
 77
     1
 78
     8
170
     0
171
     2
172
     1
173
     1
174
     0
175
     0
176
   256
177
   256
178
     2
  0
DIMSTYLE
  2
AM_JIS
 70
     0
  3

  4
"
  5

  6

  7

 40
1.0
 41
2.0
 42
1.0
 43
8.0
 44
1.0
 45
0.0
 46
0.0
 47
0.1
 48
0.1
140
2.5
141
0.0
142
0.0
143
0.0393701
144
1.0
145
0.0
146
0.71
147
1.5
 71
     0
 72
     0
 73
     0
 74
     0
 75
     0
 76
     0
 77
     3
 78
     8
170
     0
171
     2
172
     1
173
     0
174
     0
175
     0
176
     2
177
     2
178
     4
  0
DIMSTYLE
  2
AM_JIS$3
 70
     0
  3

  4
"
  5

  6

  7

 40
1.0
 41
2.0
 42
1.0
 43
10.0
 44
1.0
 45
0.0
 46
0.0
 47
0.1
 48
0.1
140
2.5
141
0.0
142
0.0
143
0.0393701
144
1.0
145
0.0
146
0.71
147
1.5
 71
     0
 72
     0
 73
     0
 74
     1
 75
     0
 76
     0
 77
     3
 78
     8
170
     0
171
     2
172
     0
173
     0
174
     0
175
     0
176
     2
177
     2
178
     4
  0
DIMSTYLE
  2
AM_JIS$4
 70
     0
  3

  4
"
  5

  6

  7

 40
1.0
 41
2.0
 42
1.0
 43
10.0
 44
1.0
 45
0.0
 46
0.0
 47
0.1
 48
0.1
140
2.5
141
0.0
142
0.0
143
0.0393701
144
1.0
145
0.0
146
0.71
147
1.5
 71
     0
 72
     0
 73
     0
 74
     0
 75
     0
 76
     0
 77
     3
 78
     8
170
     0
171
     2
172
     0
173
     0
174
     0
175
     0
176
     2
177
     2
178
     4
  0
DIMSTYLE
  2
AM_JIS$6
 70
     0
  3

  4
"
  5

  6

  7

 40
1.0
 41
2.0
 42
1.0
 43
10.0
 44
1.0
 45
0.0
 46
0.0
 47
0.1
 48
0.1
140
2.5
141
0.0
142
0.0
143
0.0393701
144
1.0
145
0.0
146
0.71
147
1.5
 71
     0
 72
     0
 73
     0
 74
     0
 75
     0
 76
     0
 77
     0
 78
     8
170
     0
171
     2
172
     1
173
     0
174
     0
175
     0
176
     2
177
     2
178
     4
  0
DIMSTYLE
  2
AM_JIS$7
 70
     0
  3

  4
"
  5

  6
OPEN30
  7
OPEN30
 40
1.0
 41
2.0
 42
1.0
 43
10.0
 44
1.0
 45
0.0
 46
0.0
 47
0.1
 48
0.1
140
2.5
141
0.0
142
0.0
143
0.0393701
144
1.0
145
0.0
146
0.71
147
1.5
 71
     0
 72
     0
 73
     0
 74
     0
 75
     0
 76
     0
 77
     3
 78
     8
170
     0
171
     2
172
     1
173
     0
174
     0
175
     0
176
     2
177
     2
178
     4
  0
DIMSTYLE
  2
AM_JIS$SF
 70
     0
  3

  4
"
  5

  6

  7

 40
1.0
 41
2.0
 42
1.0
 43
10.0
 44
1.0
 45
0.0
 46
0.0
 47
0.1
 48
0.1
140
2.5
141
0.0
142
0.0
143
0.0393701
144
1.0
145
0.0
146
0.71
147
1.5
 71
     0
 72
     0
 73
     0
 74
     0
 75
     1
 76
     1
 77
     3
 78
     8
170
     0
171
     2
172
     1
173
     0
174
     0
175
     0
176
     2
177
     2
178
     4
  0
DIMSTYLE
  2
AM_JIS$SH
 70
     0
  3

  4
"
  5

  6
GENAXEH
  7

 40
1.0
 41
2.0
 42
1.0
 43
10.0
 44
1.0
 45
0.0
 46
0.0
 47
0.1
 48
0.1
140
2.5
141
0.0
142
0.0
143
0.0393701
144
2.0
145
0.0
146
0.71
147
1.5
 71
     0
 72
     0
 73
     0
 74
     0
 75
     1
 76
     1
 77
     3
 78
     8
170
     0
171
     2
172
     1
173
     1
174
     0
175
     0
176
     2
177
     2
178
     4
  0
DIMSTYLE
  2
AM_JIS$0
 70
     0
  3

  4
"
  5

  6

  7

 40
1.0
 41
2.0
 42
1.0
 43
8.0
 44
1.0
 45
0.0
 46
0.0
 47
0.1
 48
0.1
140
2.5
141
0.0
142
0.0
143
0.0393701
144
1.0
145
0.0
146
0.71
147
1.5
 71
     0
 72
     0
 73
     0
 74
     0
 75
     0
 76
     0
 77
     3
 78
     8
170
     0
171
     2
172
     1
173
     0
174
     0
175
     0
176
     2
177
     2
178
     4
  0
ENDTAB
  0
ENDSEC
  0
SECTION
  2
BLOCKS
  0
BLOCK
  8
0
  2
$MODEL_SPACE
 70
     0
 10
0.0
 20
0.0
 30
0.0
  3
$MODEL_SPACE
  1

  0
ENDBLK
  5
77
  8
0
  0
BLOCK
 67
     1
  8
0
  2
$PAPER_SPACE
 70
     0
 10
0.0
 20
0.0
 30
0.0
  3
$PAPER_SPACE
  1

  0
ENDBLK
  5
73
 67
     1
  8
0
  0
BLOCK
  8
0
  2
GENAXEH
 70
     0
 10
0.0
 20
0.0
 30
0.0
  3
GENAXEH
  1

  0
LINE
  5
DA00
  8
0
 10
-1.0
 20
0.0
 30
0.0
 11
1.0
 21
0.0
 31
0.0
  0
ENDBLK
  5
DA01
  8
0
  0
BLOCK
  8
0
  2
_OPEN30
 70
     0
 10
0.0
 20
0.0
 30
0.0
  3
_OPEN30
  1

  0
LINE
  5
DA47
  8
0
  6
BYBLOCK
 62
     0
 10
-1.0
 20
0.26794919
 30
0.0
 11
0.0
 21
0.0
 31
0.0
  0
LINE
  5
DA48
  8
0
  6
BYBLOCK
 62
     0
 10
0.0
 20
0.0
 30
0.0
 11
-1.0
 21
-0.26794919
 31
0.0
  0
LINE
  5
DA49
  8
0
  6
BYBLOCK
 62
     0
 10
0.0
 20
0.0
 30
0.0
 11
-1.0
 21
0.0
 31
0.0
  0
ENDBLK
  5
DA4A
  8
0
  0
BLOCK
  8
0
  2
_ACMFILLEDHALF
 70
     0
 10
0.0
 20
0.0
 30
0.0
  3
_ACMFILLEDHALF
  1

  0
TRACE
  5
DB69
  8
0
  6
CONTINUOUS
 62
     0
 10
-0.8
 20
0.0
 30
0.0
 11
-1.0
 21
0.166666666
 31
0.0
 12
0.0
 22
0.0
 32
0.0
 13
0.0
 23
0.0
 33
0.0
  0
LINE
  5
DB6A
  8
0
  6
CONTINUOUS
 62
     0
 10
-1.0
 20
0.0
 30
0.0
 11
-0.8
 21
0.0
 31
0.0
  0
ENDBLK
  5
DB6B
  8
0
  0
ENDSEC
  0
SECTION
  2
ENTITIES
  0
ARC
  5
AFD0
  8
0
 10
1427.9032590953821
 20
768.53419390438273
 30
0.0
 40
147.23598000000001
 50
351.58611999999738
 51
188.41388000000259
  0
ARC
  5
AFD1
  8
0
 10
1427.9032590953821
 20
768.53419390438273
 30
0.0
 40
122.828835
 50
356.91788999999602
 51
183.08211000000401
  0
CIRCLE
  5
AFD2
  8
0
 10
1427.9032590953821
 20
778.53414390438274
 30
0.0
 40
60.0
  0
LINE
  5
AFD5
  8
0
 10
1541.8628990953821
 20
656.31213890438278
 30
0.0
 11
1505.3920590953819
 21
798.42094390438274
 31
0.0
  0
LINE
  5
AFD6
  8
0
 10
1550.554414095383
 20
761.93004390438273
 30
0.0
 11
1544.9916390953831
 21
658.61902390438308
 31
0.0
  0
LINE
  5
AFD7
  8
0
 10
1556.0637340953831
 20
628.74103390438279
 30
0.0
 11
1573.5545190953831
 21
746.99023890438275
 31
0.0
  0
LINE
  5
AFD8
  8
0
 10
1597.102919095383
 20
711.47839890438263
 30
0.0
 11
1588.052569095383
 21
785.30514390438293
 31
0.0
  0
LINE
  5
AFD9
  8
0
 10
1582.0939490953831
 20
758.53418890438297
 30
0.0
 11
1652.903239095383
 21
536.53418390438264
 31
0.0
  0
LINE
  5
AFDA
  8
0
 10
1582.0939640953829
 20
748.57886390438262
 30
0.0
 11
1582.0939640953829
 21
703.42599890438282
 31
0.0
  0
LINE
  5
AFDB
  8
0
 10
1273.712489095383
 20
748.57886390438262
 30
0.0
 11
1273.712489095383
 21
703.42599890438282
 31
0.0
  0
LINE
  5
AFDC
  8
0
 10
1273.712519095382
 20
758.53418890438297
 30
0.0
 11
1202.9032090953831
 21
536.53418390438264
 31
0.0
  0
LINE
  5
AFDD
  8
0
 10
1258.7035590953831
 20
711.47842890438278
 30
0.0
 11
1267.7539090953831
 21
785.30514390438293
 31
0.0
  0
LINE
  5
AFDE
  8
0
 10
1299.742734095383
 20
628.74103390438279
 30
0.0
 11
1282.251949095383
 21
746.99023890438275
 31
0.0
  0
LINE
  5
AFDF
  8
0
 10
1305.2521040953829
 20
761.93009390438283
 30
0.0
 11
1310.814879095383
 21
658.61899390438282
 31
0.0
  0
LINE
  5
AFE0
  8
0
 10
1313.9435690953831
 20
656.31219890438274
 30
0.0
 11
1350.4143940953829
 21
798.42094390438274
 31
0.0
  0
ARC
  5
AFE1
  8
0
 10
1600.725634095382
 20
607.97806390438279
 30
0.0
 40
10.0
 50
17.690641000004149
 51
165.20472000000211
  0
LINE
  5
AFE2
  8
0
 10
1582.5352940953831
 20
697.91614390438281
 30
0.0
 11
1618.1179840953821
 21
586.35794390438275
 31
0.0
  0
LINE
  5
AFE3
  8
0
 10
1573.2955340953829
 20
536.53418390438264
 30
0.0
 11
1652.903239095383
 21
536.53418390438264
 31
0.0
  0
LINE
  5
AFE4
  8
0
 10
1652.903239095383
 20
498.53418390438259
 30
0.0
 11
1562.903229095383
 21
498.53418390438259
 31
0.0
  0
ARC
  5
AFE5
  8
0
 10
1310.903254095382
 20
503.53418390438259
 30
0.0
 40
18.000000499999999
 50
90.000002999984659
 51
180.000010000001
  0
ARC
  5
AFE6
  8
0
 10
1302.375669095383
 20
518.94095390438247
 30
0.0
 40
8.0
 50
51.603335999994222
 51
150.0
  0
LINE
  5
AFE7
  8
0
 10
1281.067564095383
 20
544.03418390438264
 30
0.0
 11
1315.8818940953829
 21
604.33441390438281
 31
0.0
  0
LINE
  5
AFE8
  8
0
 10
1292.9032540953831
 20
518.53418390438264
 30
0.0
 11
1326.595609095383
 21
576.89105890438304
 31
0.0
  0
LINE
  5
AFE9
  8
0
 10
1202.9033090953831
 20
536.53418390438264
 30
0.0
 11
1202.9033090953831
 21
498.53418390438259
 31
0.0
  0
LINE
  5
AFEA
  8
0
 10
1287.903254095382
 20
527.19442890438256
 30
0.0
 11
1287.903254095382
 21
498.53418390438259
 31
0.0
  0
LINE
  5
AFEB
  8
0
 10
1292.9032540953831
 20
518.53418390438264
 30
0.0
 11
1282.510954095382
 21
536.53418390438264
 31
0.0
  0
LINE
  5
AFEC
  8
0
 10
1202.9033090953831
 20
498.53418390438259
 30
0.0
 11
1292.9032540953831
 21
498.53418390438259
 31
0.0
  0
LINE
  5
AFED
  8
0
 10
1292.9032540953831
 20
498.53418390438259
 30
0.0
 11
1292.9032540953831
 21
518.53418390438264
 31
0.0
  0
ARC
  5
AFEE
  8
0
 10
1376.9032240953829
 20
640.15420890438281
 30
0.0
 40
116.0
 50
173.44021999999549
 51
221.41017000000809
  0
LINE
  5
AFEF
  8
0
 10
1273.2712040953829
 20
697.91614390438281
 30
0.0
 11
1237.6885090953831
 21
586.35797390438302
 31
0.0
  0
LINE
  5
AFF0
  8
0
 10
1282.510954095382
 20
536.53418390438264
 30
0.0
 11
1202.9033090953831
 21
536.53418390438264
 31
0.0
  0
LINE
  5
AFF1
  8
0
 10
1232.0074090953819
 20
554.13891890438299
 30
0.0
 11
1237.6885090953831
 21
586.35797390438302
 31
0.0
  0
ARC
  5
AFF2
  8
0
 10
1246.7795590953831
 20
551.53418390438264
 30
0.0
 40
15.0
 50
169.99998999999849
 51
270.0
  0
ARC
  5
AFF3
  8
0
 10
1268.077159095383
 20
551.53418390438264
 30
0.0
 40
15.0
 50
270.0
 51
329.99999999999977
  0
ARC
  5
AFF4
  8
0
 10
1287.6539890953829
 20
561.44223390438265
 30
0.0
 40
3.0000000500000001
 50
329.99999999999977
 51
41.41017299996637
  0
ARC
  5
AFF5
  8
0
 10
1255.0808590953829
 20
607.97806390438279
 30
0.0
 40
10.0
 50
14.795276999998819
 51
162.3093600000029
  0
ARC
  5
AFFB
  8
0
 10
1277.0820290953829
 20
696.70065890438264
 30
0.0
 40
4.000000049999997
 50
122.3994100000012
 51
162.3093600000029
  0
LINE
  5
AFFC
  8
0
 10
1274.9387790953831
 20
700.07794890438288
 30
0.0
 11
1280.132504095383
 21
703.3739089043828
 31
0.0
  0
ARC
  5
AFFD
  8
0
 10
1478.903229095383
 20
640.15420890438281
 30
0.0
 40
126.0
 50
270.0
 51
293.20093000000662
  0
ARC
  5
AFFE
  8
0
 10
1478.903229095383
 20
640.15420890438281
 30
0.0
 40
116.0
 50
270.0
 51
304.30660000002518
  0
ARC
  5
AFFF
  8
0
 10
1537.903229095383
 20
538.53418390438264
 30
0.0
 40
17.000000499999999
 50
219.37899000001889
 51
308.39666000003001
  0
ARC
  5
B000
  8
0
 10
1544.9032440953829
 20
503.53418390438259
 30
0.0
 40
18.000000499999999
 50
0.0
 51
90.000002999984659
  0
ARC
  5
B001
  8
0
 10
1452.823119095382
 20
516.15417890438255
 30
0.0
 40
8.0
 50
90.000002999984659
 51
184.58857000000049
  0
ARC
  5
B002
  8
0
 10
1402.983364095383
 20
516.15417890438255
 30
0.0
 40
8.0
 50
355.41142999999943
 51
90.000002999984659
  0
ARC
  5
B003
  8
0
 10
1317.9032540953831
 20
538.53418390438264
 30
0.0
 40
17.000000499999999
 50
231.60333
 51
320.6210099999812
  0
ARC
  5
B004
  8
0
 10
1376.9032240953829
 20
640.15420890438281
 30
0.0
 40
116.0
 50
235.69339999997479
 51
270.0
  0
ARC
  5
B005
  8
0
 10
1376.9032240953829
 20
640.15420890438281
 30
0.0
 40
126.0
 50
246.79906999999341
 51
270.0
  0
LINE
  5
B006
  8
0
 10
1562.9032440953829
 20
518.53418390438264
 30
0.0
 11
1529.2109090953829
 21
576.89102390438302
 31
0.0
  0
LINE
  5
B007
  8
0
 10
1562.903229095383
 20
518.53418390438264
 30
0.0
 11
1573.2955340953829
 21
536.53418390438264
 31
0.0
  0
LINE
  5
B008
  8
0
 10
1567.903229095383
 20
527.19442890438256
 30
0.0
 11
1567.903229095383
 21
498.53418390438259
 31
0.0
  0
ARC
  5
B009
  8
0
 10
1451.5886840953831
 20
506.15419390438262
 30
0.0
 40
8.0
 50
90.000002999984659
 51
161.33707000001991
  0
LINE
  5
B00A
  8
0
 10
1317.9032540953831
 20
521.53418390438264
 30
0.0
 11
1310.903254095382
 21
521.53418390438264
 31
0.0
  0
ARC
  5
B00B
  8
0
 10
1404.2178040953829
 20
506.15419390438262
 30
0.0
 40
8.0
 50
18.662925000003611
 51
90.000002999984659
  0
ARC
  5
B00C
  8
0
 10
1427.9032590953821
 20
514.15417890438255
 30
0.0
 40
17.000000499999999
 50
175.4114299999994
 51
235.43968000000891
  0
LINE
  5
B00D
  8
0
 10
1376.9032240953829
 20
514.15417890438255
 30
0.0
 11
1404.2178040953829
 21
514.15417890438255
 31
0.0
  0
LINE
  5
B00E
  8
0
 10
1418.2595790953831
 20
500.15419390438268
 30
0.0
 11
1437.5468740953829
 21
500.15419390438268
 31
0.0
  0
ARC
  5
B00F
  8
0
 10
1427.9032590953821
 20
514.15417890438255
 30
0.0
 40
17.000000499999999
 50
304.56031999999038
 51
4.5885658999991881
  0
LINE
  5
B010
  8
0
 10
1478.903229095383
 20
514.15417890438255
 30
0.0
 11
1451.5886840953831
 21
514.15417890438255
 31
0.0
  0
LINE
  5
B011
  8
0
 10
1537.903229095383
 20
521.53418390438264
 30
0.0
 11
1544.9032440953829
 21
521.53418390438264
 31
0.0
  0
LINE
  5
B012
  8
0
 10
1562.903229095383
 20
498.53418390438259
 30
0.0
 11
1562.903229095383
 21
518.53418390438264
 31
0.0
  0
ARC
  5
B013
  8
0
 10
1451.7849390953829
 20
556.15417890438255
 30
0.0
 40
6.0
 50
90.000002999984659
 51
174.308819999999
  0
LINE
  5
B014
  8
0
 10
1376.9032240953829
 20
524.15417890438255
 30
0.0
 11
1478.903229095383
 21
524.15417890438255
 31
0.0
  0
LINE
  5
B015
  8
0
 10
1376.9032240953829
 20
575.15420890438281
 30
0.0
 11
1478.903229095383
 21
575.15420890438281
 31
0.0
  0
ARC
  5
B016
  8
0
 10
1376.9032240953829
 20
640.15420890438281
 30
0.0
 40
78.0
 50
188.41387000000449
 51
211.23272999998471
  0
ARC
  5
B017
  8
0
 10
1376.9032240953829
 20
640.15420890438281
 30
0.0
 40
65.0
 50
165.60622999999501
 51
202.07962000000751
  0
ARC
  5
B018
  8
0
 10
1376.9032240953829
 20
640.15420890438281
 30
0.0
 40
78.0
 50
233.1528099999681
 51
270.0
  0
ARC
  5
B019
  8
0
 10
1376.9032240953829
 20
640.15420890438281
 30
0.0
 40
65.0
 50
242.1948600000097
 51
270.0
  0
ARC
  5
B01A
  8
0
 10
1337.227414095383
 20
522.67300890438264
 30
0.0
 40
8.0
 50
71.339098999988437
 51
140.62100999998111
  0
ARC
  5
B01B
  8
0
 10
1309.8323040953831
 20
541.85620390438271
 30
0.0
 40
3.0000000500000001
 50
55.693403000036547
 51
150.0
  0
ARC
  5
B01C
  8
0
 10
1339.585964095382
 20
569.39105390438283
 30
0.0
 40
15.0
 50
62.194868999980351
 51
150.0
  0
ARC
  5
B01D
  8
0
 10
1376.9032240953829
 20
640.15420890438281
 30
0.0
 40
65.0
 50
207.4878199999967
 51
229.41856999996509
  0
ARC
  5
B01E
  8
0
 10
1304.623564095383
 20
610.83441390438281
 30
0.0
 40
12.999999000000001
 50
329.99999999999977
 51
22.079620999979628
  0
ARC
  5
B01F
  8
0
 10
1427.9032590953821
 20
558.53418390438264
 30
0.0
 40
18.000000499999999
 50
185.69118000000091
 51
354.30881000000272
  0
LINE
  5
B020
  8
0
 10
1376.9032240953829
 20
562.15417890438255
 30
0.0
 11
1404.021544095383
 21
562.15417890438255
 31
0.0
  0
ARC
  5
B021
  8
0
 10
1404.021544095383
 20
556.15417890438255
 30
0.0
 40
6.0
 50
5.6911850999964457
 51
90.000002999984659
  0
POLYLINE
  5
B022
  8
0
 66
     1
 10
0.0
 20
0.0
 30
0.0
  0
VERTEX
  5
B023
  8
0
 10
1422.9032590953821
 20
555.64743390438298
 30
0.0
  0
VERTEX
  5
B024
  8
0
 10
1427.9032590953821
 20
552.76068390438274
 30
0.0
  0
VERTEX
  5
B025
  8
0
 10
1432.9032590953821
 20
555.64743390438298
 30
0.0
  0
VERTEX
  5
B026
  8
0
 10
1432.9032590953821
 20
561.42093390438265
 30
0.0
  0
VERTEX
  5
B027
  8
0
 10
1427.9032590953821
 20
564.30768390438266
 30
0.0
  0
VERTEX
  5
B028
  8
0
 10
1422.9032590953821
 20
561.42093390438265
 30
0.0
  0
VERTEX
  5
B029
  8
0
 10
1422.9032590953821
 20
555.64743390438298
 30
0.0
  0
SEQEND
  5
B02A
  8
0
  0
CIRCLE
  5
B02B
  8
0
 10
1427.9032590953821
 20
558.53418390438264
 30
0.0
 40
9.6974994999999993
  0
CIRCLE
  5
B02C
  8
0
 10
1427.9032590953821
 20
558.53418390438264
 30
0.0
 40
10.4974995
  0
ARC
  5
B02D
  8
0
 10
1478.903229095383
 20
640.15420890438281
 30
0.0
 40
65.0
 50
337.92037999999241
 51
14.393764999998259
  0
ARC
  5
B02E
  8
0
 10
1478.903229095383
 20
640.15420890438281
 30
0.0
 40
78.0
 50
328.7672800000044
 51
351.58611999999738
  0
ARC
  5
B02F
  8
0
 10
1478.903229095383
 20
640.15420890438281
 30
0.0
 40
116.0
 50
318.58982999999188
 51
6.5597828000043963
  0
ARC
  5
B030
  8
0
 10
1516.2205190953821
 20
569.39105390438283
 30
0.0
 40
15.0
 50
30.00000099999373
 51
117.8051399999902
  0
ARC
  5
B031
  8
0
 10
1478.903229095383
 20
640.15420890438281
 30
0.0
 40
65.0
 50
310.58143000003503
 51
332.51218999998372
  0
ARC
  5
B032
  8
0
 10
1478.903229095383
 20
640.15420890438281
 30
0.0
 40
78.0
 50
270.0
 51
306.84719000003179
  0
LINE
  5
B033
  8
0
 10
1478.903229095383
 20
562.15417890438255
 30
0.0
 11
1451.7849390953829
 21
562.15417890438255
 31
0.0
  0
ARC
  5
B034
  8
0
 10
1518.579084095383
 20
522.67300890438264
 30
0.0
 40
8.0
 50
39.378995000018811
 51
108.66089999997681
  0
ARC
  5
B035
  8
0
 10
1478.903229095383
 20
640.15420890438281
 30
0.0
 40
65.0
 50
270.0
 51
297.80512999998768
  0
LINE
  5
B036
  8
0
 10
1574.738924095383
 20
544.03418390438264
 30
0.0
 11
1539.924574095382
 21
604.33438390438278
 31
0.0
  0
ARC
  5
B037
  8
0
 10
1553.4307840953829
 20
518.94095390438247
 30
0.0
 40
8.0
 50
30.00000099999373
 51
128.3966699999998
  0
ARC
  5
B038
  8
0
 10
1545.9741690953831
 20
541.85620390438271
 30
0.0
 40
3.0000000500000001
 50
30.00000099999373
 51
124.3066000000252
  0
ARC
  5
B039
  8
0
 10
1568.1524790953829
 20
561.44223390438265
 30
0.0
 40
3.0000000500000001
 50
138.58981999999239
 51
210.0000000000002
  0
ARC
  5
B03A
  8
0
 10
1587.7293090953831
 20
551.53418390438264
 30
0.0
 40
15.0
 50
210.0000000000002
 51
270.0
  0
ARC
  5
B03B
  8
0
 10
1551.1829090953829
 20
610.83441390438281
 30
0.0
 40
12.999999000000001
 50
157.92037999999269
 51
210.0000000000002
  0
ARC
  5
B03C
  8
0
 10
1578.724444095383
 20
696.70065890438264
 30
0.0
 40
4.000000049999997
 50
17.690641000004149
 51
57.600596999984532
  0
LINE
  5
B03D
  8
0
 10
1580.8677240953821
 20
700.07794890438288
 30
0.0
 11
1575.673994095383
 21
703.3739089043828
 31
0.0
  0
LINE
  5
B03E
  8
0
 10
1652.903239095383
 20
536.53418390438264
 30
0.0
 11
1652.903239095383
 21
498.53418390438259
 31
0.0
  0
LINE
  5
B03F
  8
0
 10
1623.7990440953829
 20
554.13891890438299
 30
0.0
 11
1618.117949095383
 21
586.35794390438275
 31
0.0
  0
ARC
  5
B040
  8
0
 10
1609.026934095383
 20
551.53418390438264
 30
0.0
 40
15.0
 50
270.0
 51
9.9999996999954863
  0
ARC
  5
B041
  8
0
 10
1427.9032590953821
 20
768.53419390438273
 30
0.0
 40
161.0
 50
123.30124000001329
 51
159.75120000001931
  0
ARC
  5
B042
  8
0
 10
1427.9032590953821
 20
768.53419390438273
 30
0.0
 40
152.0
 50
125.0894600000143
 51
157.99684000000201
  0
LINE
  5
B043
  8
0
 10
1276.3241540953829
 20
779.83804390438263
 30
0.0
 11
1273.7125490953831
 21
758.53418890438297
 31
0.0
  0
ARC
  5
B048
  8
0
 10
1427.9032590953821
 20
768.53419390438273
 30
0.0
 40
152.0
 50
160.54256000000149
 51
173.1894000000033
  0
ARC
  5
B049
  8
0
 10
1277.903254095382
 20
803.53414390438274
 30
0.0
 40
17.000000499999999
 50
86.206794999982506
 51
247.52514999997109
  0
ARC
  5
B04A
  8
0
 10
1268.346259095382
 20
780.4329439043828
 30
0.0
 40
8.0
 50
355.73511000000371
 51
67.525155999999939
  0
ARC
  5
B04B
  8
0
 10
1259.8133590953821
 20
786.27854390438267
 30
0.0
 40
8.0
 50
353.0110300000062
 51
43.647921000032468
  0
ARC
  5
B04C
  8
0
 10
1269.3476590953831
 20
827.02464390438286
 30
0.0
 40
8.0
 50
290.01232000003449
 51
339.75120000001948
  0
ARC
  5
B04D
  8
0
 10
1279.557124095383
 20
828.47939390438285
 30
0.0
 40
8.0
 50
266.20680000001948
 51
337.99684000000241
  0
ARC
  5
B04E
  8
0
 10
1427.9032590953821
 20
768.53419390438273
 30
0.0
 40
161.0
 50
70.837367000006196
 51
82.759510000020356
  0
ARC
  5
B04F
  8
0
 10
1495.9032590953821
 20
906.53424390438283
 30
0.0
 40
17.000000499999999
 50
343.55078000000242
 51
143.9853500000184
  0
ARC
  5
B050
  8
0
 10
1359.9032240953829
 20
906.53424390438283
 30
0.0
 40
17.000000499999999
 50
36.014659000008152
 51
196.4492199999973
  0
ARC
  5
B051
  8
0
 10
1427.9032590953821
 20
768.53419390438273
 30
0.0
 40
161.0
 50
97.240495000014306
 51
109.1626400000183
  0
LINE
  5
B052
  8
0
 10
1447.9032590953821
 20
929.53414390438274
 30
0.0
 11
1449.873564095383
 21
920.85744390438265
 31
0.0
  0
LINE
  5
B053
  8
0
 10
1407.903229095383
 20
929.53414390438274
 30
0.0
 11
1405.932949095383
 21
920.85744390438265
 31
0.0
  0
ARC
  5
B054
  8
0
 10
1452.799069095382
 20
921.52174390438256
 30
0.0
 40
3.0000000500000001
 50
192.7936600000059
 51
260.75722000000178
  0
ARC
  5
B055
  8
0
 10
1427.9032590953821
 20
768.53419390438273
 30
0.0
 40
152.0
 50
72.625585999989255
 51
107.3744100000164
  0
ARC
  5
B056
  8
0
 10
1427.9032590953821
 20
778.53414390438274
 30
0.0
 40
80.0
 50
14.393764999998259
 51
165.60622999999501
  0
ARC
  5
B057
  8
0
 10
1427.9032590953821
 20
778.53414390438274
 30
0.0
 40
35.000000499999992
 50
106.60155000001591
 51
73.398452000021052
  0
CIRCLE
  5
B058
  8
0
 10
1427.9032590953821
 20
778.53414390438274
 30
0.0
 40
5.0
  0
CIRCLE
  5
B059
  8
0
 10
1427.9032590953821
 20
778.53414390438274
 30
0.0
 40
6.0
  0
LINE
  5
B05A
  8
0
 10
1437.9032590953821
 20
818.03414390438274
 30
0.0
 11
1417.9032590953821
 21
818.03414390438274
 31
0.0
  0
LINE
  5
B05B
  8
0
 10
1417.9032590953821
 20
806.03414390438274
 30
0.0
 11
1437.9032590953821
 21
806.03414390438274
 31
0.0
  0
LINE
  5
B05C
  8
0
 10
1417.9032590953821
 20
818.03414390438274
 30
0.0
 11
1417.9032590953821
 21
806.03414390438274
 31
0.0
  0
LINE
  5
B05D
  8
0
 10
1437.9032590953821
 20
806.03414390438274
 30
0.0
 11
1437.9032590953821
 21
818.03414390438274
 31
0.0
  0
ARC
  5
B05E
  8
0
 10
1372.4288590953829
 20
928.17004390438274
 30
0.0
 40
8.0
 50
239.9321499999958
 51
289.16263000001652
  0
ARC
  5
B05F
  8
0
 10
1427.9032590953821
 20
768.53419390438273
 30
0.0
 40
152.0
 50
109.8967399999971
 51
122.56714000000029
  0
ARC
  5
B060
  8
0
 10
1380.124904095383
 20
921.23399390438271
 30
0.0
 40
8.0
 50
216.01464999998149
 51
287.37441000001638
  0
ARC
  5
B061
  8
0
 10
1335.9264790953821
 20
899.45504390438293
 30
0.0
 40
8.0
 50
305.08947000001513
 51
16.44921999999757
  0
ARC
  5
B062
  8
0
 10
1335.1153240953829
 20
909.78369390438274
 30
0.0
 40
8.0
 50
303.30124000001342
 51
352.5317299999997
  0
ARC
  5
B063
  8
0
 10
1403.0074440953831
 20
921.52174390438256
 30
0.0
 40
3.0000000500000001
 50
279.24277999999742
 51
347.20632999999771
  0
ARC
  5
B064
  8
0
 10
1427.9032590953821
 20
768.53419390438273
 30
0.0
 40
152.0
 50
22.00315900000367
 51
54.910531000024783
  0
ARC
  5
B065
  8
0
 10
1427.9032590953821
 20
768.53419390438273
 30
0.0
 40
161.0
 50
20.248803999994632
 51
56.698756000006519
  0
LINE
  5
B066
  8
0
 10
1579.482344095383
 20
779.83804390438263
 30
0.0
 11
1582.0939640953829
 21
758.53418890438297
 31
0.0
  0
ARC
  5
B067
  8
0
 10
1576.2493590953829
 20
828.47939390438285
 30
0.0
 40
8.0
 50
202.00315999999771
 51
273.7931999999804
  0
ARC
  5
B068
  8
0
 10
1577.903229095383
 20
803.53414390438274
 30
0.0
 40
17.000000499999999
 50
292.47483999995228
 51
93.793202999970148
  0
ARC
  5
B069
  8
0
 10
1427.9032590953821
 20
768.53419390438273
 30
0.0
 40
152.0
 50
6.810595899994504
 51
19.457447999993789
  0
ARC
  5
B06A
  8
0
 10
1595.9931040953829
 20
786.27854390438267
 30
0.0
 40
8.0
 50
136.35208000001259
 51
186.9889699999938
  0
ARC
  5
B06B
  8
0
 10
1587.4601740953819
 20
780.4329439043828
 30
0.0
 40
8.0
 50
112.47483999995239
 51
184.2648800000008
  0
ARC
  5
B06C
  8
0
 10
1586.458804095382
 20
827.02464390438286
 30
0.0
 40
8.0
 50
200.24879999998041
 51
249.98767999996471
  0
ARC
  5
B06D
  8
0
 10
1427.9032590953821
 20
768.53419390438273
 30
0.0
 40
152.0
 50
57.432861000019329
 51
70.103258000010115
  0
ARC
  5
B06E
  8
0
 10
1475.6815790953831
 20
921.23399390438271
 30
0.0
 40
8.0
 50
252.6255899999835
 51
323.98534000000598
  0
ARC
  5
B06F
  8
0
 10
1483.3776240953821
 20
928.17004390438274
 30
0.0
 40
8.0
 50
250.83735999998169
 51
300.06785000000423
  0
ARC
  5
B070
  8
0
 10
1519.880004095382
 20
899.45504390438293
 30
0.0
 40
8.0
 50
163.55078000000239
 51
234.9105299999849
  0
ARC
  5
B071
  8
0
 10
1520.6911640953831
 20
909.78369390438274
 30
0.0
 40
8.0
 50
187.46827000000039
 51
236.69875999998661
  0
ARC
  5
B072
  8
0
 10
1427.9032590953821
 20
983.28414390438274
 30
0.0
 40
6.25
 50
0.0
 51
180.000010000001
  0
LINE
  5
B073
  8
0
 10
1421.6532590953821
 20
983.28414390438274
 30
0.0
 11
1421.6532590953821
 21
935.53424390438227
 31
0.0
  0
LINE
  5
B074
  8
0
 10
1434.1532590953821
 20
983.28414390438274
 30
0.0
 11
1434.1532590953821
 21
935.53424390438227
 31
0.0
  0
LINE
  5
B075
  8
0
 10
1447.9032590953821
 20
929.53414390438274
 30
0.0
 11
1407.9032590953821
 21
929.53414390438274
 31
0.0
  0
ARC
  5
B076
  8
0
 10
1418.9273040953819
 20
936.05784390438293
 30
0.0
 40
4.949999899999999
 50
101.68763000002021
 51
165.76742999999399
  0
ARC
  5
B077
  8
0
 10
1416.6532590953821
 20
935.53424390438227
 30
0.0
 40
5.0
 50
302.97255999998839
 51
0.0
  0
LINE
  5
B078
  8
0
 10
1414.1292390953829
 20
937.27484390438258
 30
0.0
 11
1412.903229095383
 21
929.53424390438295
 31
0.0
  0
LINE
  5
B079
  8
0
 10
1421.6532590953821
 20
941.32704390438244
 30
0.0
 11
1417.9245590953831
 21
940.90519390438294
 31
0.0
  0
ARC
  5
B07A
  8
0
 10
1436.8792090953821
 20
936.05784390438293
 30
0.0
 40
4.949999899999999
 50
14.23256800000032
 51
78.312367000019805
  0
ARC
  5
B07B
  8
0
 10
1439.1532590953821
 20
935.53424390438227
 30
0.0
 40
5.0
 50
179.999989999999
 51
237.02745000002241
  0
LINE
  5
B07C
  8
0
 10
1442.9032590953821
 20
929.53414390438274
 30
0.0
 11
1441.6772440953821
 21
937.27484390438258
 31
0.0
  0
LINE
  5
B07D
  8
0
 10
1437.8819540953821
 20
940.90514390438261
 30
0.0
 11
1434.153229095383
 21
941.32699390438268
 31
0.0
  0
LINE
  5
B07E
  8
0
 10
960.24181758028874
 20
818.03414390438274
 30
0.0
 11
1045.2418175802879
 21
818.03414390438274
 31
0.0
  0
LINE
  5
B07F
  8
0
 10
1045.2418175802879
 20
743.53418890438286
 30
0.0
 11
935.24181758028874
 21
743.53418890438286
 31
0.0
  0
LINE
  5
B080
  8
0
 10
935.24181758028874
 20
813.53414390438274
 30
0.0
 11
1045.2418175802879
 21
813.53414390438274
 31
0.0
  0
ARC
  5
B081
  8
0
 10
3134.4864175802882
 20
800.60064390438276
 30
0.0
 40
2256.3525500000001
 50
180.56033999999499
 51
186.0056600000058
  0
LINE
  5
B082
  8
0
 10
770.24181758028874
 20
787.62844390438283
 30
0.0
 11
770.24181758028874
 21
718.66119890438256
 31
0.0
  0
LINE
  5
B083
  8
0
 10
773.24181758028874
 20
784.62844390438283
 30
0.0
 11
773.24181758028874
 21
722.53418390438264
 31
0.0
  0
LINE
  5
B084
  8
0
 10
848.33791758028883
 20
756.70056890438264
 30
0.0
 11
858.88306758028875
 21
555.48745890438283
 31
0.0
  0
LINE
  5
B085
  8
0
 10
928.24181758028794
 20
837.70579390438297
 30
0.0
 11
928.24181758028794
 21
719.36261390438278
 31
0.0
  0
LINE
  5
B086
  8
0
 10
924.24181758028817
 20
850.53414390438274
 30
0.0
 11
924.24181758028817
 21
575.15420890438281
 31
0.0
  0
LINE
  5
B087
  8
0
 10
903.24181758028794
 20
885.24009390438277
 30
0.0
 11
903.24181758028794
 21
601.97287390438237
 31
0.0
  0
LINE
  5
B089
  8
0
 10
681.74181758028863
 20
832.68834390438269
 30
0.0
 11
681.74181758028863
 21
601.74872390438225
 31
0.0
  0
LINE
  5
B08A
  8
0
 10
732.24186758028873
 20
925.53424390438238
 30
0.0
 11
732.24186758028873
 21
585.53418390438264
 31
0.0
  0
LINE
  5
B08B
  8
0
 10
636.74181758028863
 20
832.93419390438282
 30
0.0
 11
636.74181758028863
 21
715.93420890438267
 31
0.0
  0
LINE
  5
B08C
  8
0
 10
748.24181758028874
 20
929.53414390438274
 30
0.0
 11
748.24181758028874
 21
601.53418390438264
 31
0.0
  0
LINE
  5
B08D
  8
0
 10
752.38396758028864
 20
605.67633390438266
 30
0.0
 11
690.56416758028854
 21
543.85653890438266
 31
0.0
  0
LINE
  5
B08E
  8
0
 10
628.24181758028863
 20
498.53418390438259
 30
0.0
 11
928.24181758028794
 21
498.53418390438259
 31
0.0
  0
LINE
  5
B08F
  8
0
 10
705.78051758028869
 20
559.07290890438264
 30
0.0
 11
686.58686758028841
 21
570.61947890438273
 31
0.0
  0
LINE
  5
B090
  8
0
 10
628.24181758028863
 20
532.53418390438264
 30
0.0
 11
628.24181758028863
 21
498.53418390438259
 31
0.0
  0
LINE
  5
B091
  8
0
 10
636.74181758028863
 20
598.93417890438275
 30
0.0
 11
636.74181758028863
 21
715.93420890438267
 31
0.0
  0
ARC
  5
B092
  8
0
 10
691.74181758028874
 20
579.1883889043828
 30
0.0
 40
10.0
 50
179.999989999999
 51
238.9695499999869
  0
LINE
  5
B093
  8
0
 10
632.24186758028873
 20
536.53418390438264
 30
0.0
 11
672.88646758028824
 21
536.53418390438264
 31
0.0
  0
ARC
  5
B094
  8
0
 10
632.24186758028873
 20
532.53418390438264
 30
0.0
 40
4.000000049999997
 50
90.000002999984659
 51
180.000010000001
  0
ARC
  5
B095
  8
0
 10
672.88646758028824
 20
561.53418390438264
 30
0.0
 40
25.000000499999999
 50
270.0
 51
315.00000000000881
  0
LINE
  5
B096
  8
0
 10
637.2506175802888
 20
599.925298904383
 30
0.0
 11
677.81166758028814
 21
599.21728890438283
 31
0.0
  0
ARC
  5
B097
  8
0
 10
635.74181758028863
 20
598.93417890438275
 30
0.0
 40
1.0
 50
270.0
 51
0.0
  0
LINE
  5
B098
  8
0
 10
623.24181758028863
 20
597.93420890438244
 30
0.0
 11
635.74181758028863
 21
597.93420890438244
 31
0.0
  0
ARC
  5
B099
  8
0
 10
637.24186758028873
 20
599.42535890438273
 30
0.0
 40
0.5
 50
89.000001000015246
 51
180.000010000001
  0
ARC
  5
B09A
  8
0
 10
634.74186758028873
 20
618.20700390438287
 30
0.0
 40
2.0000000500000001
 50
270.0
 51
0.0
  0
LINE
  5
B09B
  8
0
 10
623.24181758028863
 20
616.20697390438283
 30
0.0
 11
634.74186758028873
 21
616.20697390438283
 31
0.0
  0
ARC
  5
B09C
  8
0
 10
677.74181758028851
 20
595.21789890438276
 30
0.0
 40
4.000000049999997
 50
0.0
 51
89.000001000015246
  0
LINE
  5
B09D
  8
0
 10
681.74181758028863
 20
595.21789890438276
 30
0.0
 11
681.74181758028863
 21
579.1883889043828
 31
0.0
  0
LINE
  5
B09E
  8
0
 10
636.74181758028863
 20
644.10177890438263
 30
0.0
 11
681.74181758028863
 21
644.10177890438263
 31
0.0
  0
LINE
  5
B09F
  8
0
 10
636.74181758028863
 20
624.85123390438275
 30
0.0
 11
681.74181758028863
 21
624.85123390438275
 31
0.0
  0
ARC
  5
B0A0
  8
0
 10
634.74186758028873
 20
633.76333890438264
 30
0.0
 40
2.0000000500000001
 50
270.0
 51
0.0
  0
LINE
  5
B0A1
  8
0
 10
624.72071758028881
 20
641.49725890438265
 30
0.0
 11
635.74961758028849
 21
641.49725890438265
 31
0.0
  0
LINE
  5
B0A2
  8
0
 10
623.24181758028863
 20
631.76330890438282
 30
0.0
 11
634.74186758028873
 21
631.76330890438282
 31
0.0
  0
LINE
  5
B0A3
  8
0
 10
928.24181758028794
 20
498.53418390438259
 30
0.0
 11
928.24181758028794
 21
532.53418390438264
 31
0.0
  0
LINE
  5
B0A4
  8
0
 10
758.24181758028874
 20
714.53421890438278
 30
0.0
 11
758.24181758028874
 21
619.8184839043829
 31
0.0
  0
ARC
  5
B0A5
  8
0
 10
738.24181758028874
 20
619.8184839043829
 30
0.0
 40
20.000000499999999
 50
315.00000000000881
 51
0.0
  0
LINE
  5
B0A6
  8
0
 10
732.24186758028873
 20
662.53418390438264
 30
0.0
 11
748.24181758028874
 21
662.53418390438264
 31
0.0
  0
LINE
  5
B0A7
  8
0
 10
732.24186758028873
 20
628.53418390438264
 30
0.0
 11
748.24181758028874
 21
628.53418390438264
 31
0.0
  0
LINE
  5
B0A8
  8
0
 10
748.24181758028874
 20
628.53418390438264
 30
0.0
 11
758.24181758028874
 21
628.53418390438264
 31
0.0
  0
LINE
  5
B0A9
  8
0
 10
748.24181758028874
 20
662.53418390438264
 30
0.0
 11
758.24181758028874
 21
662.53418390438264
 31
0.0
  0
ARC
  5
B0AA
  8
0
 10
769.24181758028874
 20
722.53418390438264
 30
0.0
 40
4.000000049999997
 50
270.0
 51
0.0
  0
ARC
  5
B0AB
  8
0
 10
762.24186758028873
 20
714.53421890438278
 30
0.0
 40
4.000000049999997
 50
90.000002999984659
 51
180.000010000001
  0
LINE
  5
B0AC
  8
0
 10
762.24186758028873
 20
718.53418390438264
 30
0.0
 11
769.24181758028874
 21
718.53418390438264
 31
0.0
  0
LINE
  5
B0AD
  8
0
 10
903.24181758028794
 20
595.12726390438274
 30
0.0
 11
903.24181758028794
 21
571.38345890438256
 31
0.0
  0
LINE
  5
B0AE
  8
0
 10
924.24181758028817
 20
536.53418390438264
 30
0.0
 11
921.65766758028826
 21
610.5359239043828
 31
0.0
  0
ARC
  5
B0AF
  8
0
 10
888.88096758028826
 20
570.03872890438276
 30
0.0
 40
8.0
 50
274.12897999995778
 51
292.79778000003779
  0
LINE
  5
B0B0
  8
0
 10
878.85566758028892
 20
536.53418390438264
 30
0.0
 11
924.24181758028817
 21
536.53418390438264
 31
0.0
  0
ARC
  5
B0B1
  8
0
 10
878.85566758028892
 20
556.53418390438264
 30
0.0
 40
20.000000499999999
 50
183.00001000000631
 51
270.0
  0
LINE
  5
B0B2
  8
0
 10
858.65516758028821
 20
559.83594390438282
 30
0.0
 11
889.45696758028885
 21
562.05948390438255
 31
0.0
  0
ARC
  5
B0B3
  8
0
 10
924.24181758028817
 20
532.53418390438264
 30
0.0
 40
4.000000049999997
 50
0.0
 51
90.000002999984659
  0
ARC
  5
B0B4
  8
0
 10
897.24186758028861
 20
571.38345890438256
 30
0.0
 40
6.0
 50
292.79778000003779
 51
0.0
  0
LINE
  5
B0B5
  8
0
 10
891.98081758028854
 20
562.66372890438265
 30
0.0
 11
899.5667175802887
 21
565.85220890438268
 31
0.0
  0
ARC
  5
B0B6
  8
0
 10
909.24181758028794
 20
595.12726390438274
 30
0.0
 40
6.0
 50
121.9807299999982
 51
180.000010000001
  0
LINE
  5
B0B7
  8
0
 10
924.24181758028817
 20
575.15420890438281
 30
0.0
 11
922.89321758028871
 21
575.15420890438281
 31
0.0
  0
LINE
  5
B0B8
  8
0
 10
906.06401758028858
 20
600.21667890438255
 30
0.0
 11
919.78931758028875
 21
608.78677890438246
 31
0.0
  0
LINE
  5
B0B9
  8
0
 10
921.65766758028826
 20
610.53589390438265
 30
0.0
 11
922.70521758028872
 21
612.71438890438276
 31
0.0
  0
ARC
  5
B0BA
  8
0
 10
926.24181758028794
 20
719.36261390438278
 30
0.0
 40
2.0000000500000001
 50
315.00000000000881
 51
0.0
  0
LINE
  5
B0BB
  8
0
 10
927.65601758028834
 20
717.94839890438288
 30
0.0
 11
924.24181758028817
 21
714.53418390438264
 31
0.0
  0
ARC
  5
B0BC
  8
0
 10
726.24181758028874
 20
959.53414390438274
 30
0.0
 40
30.000000499999999
 50
304.59870999998333
 51
235.4012900000167
  0
LINE
  5
B0BD
  8
0
 10
730.72546758028875
 20
902.33304390438298
 30
0.0
 11
685.53281758028822
 21
866.53689390438285
 31
0.0
  0
LINE
  5
B0BE
  8
0
 10
636.74181758028863
 20
807.01714390438292
 30
0.0
 11
681.74181758028863
 21
807.01714390438292
 31
0.0
  0
LINE
  5
B0BF
  8
0
 10
636.74181758028863
 20
787.76659390438283
 30
0.0
 11
681.74181758028863
 21
787.76659390438283
 31
0.0
  0
ARC
  5
B0C0
  8
0
 10
634.74186758028873
 20
798.10509390438278
 30
0.0
 40
2.0000000500000001
 50
0.0
 51
90.000002999984659
  0
LINE
  5
B0C1
  8
0
 10
623.24181758028863
 20
800.1049939043827
 30
0.0
 11
634.74186758028873
 21
800.1049939043827
 31
0.0
  0
LINE
  5
B0C2
  8
0
 10
624.72071758028881
 20
790.37114390438273
 30
0.0
 11
635.74961758028849
 21
790.37114390438273
 31
0.0
  0
ARC
  5
B0C3
  8
0
 10
634.74186758028873
 20
813.66139390438275
 30
0.0
 40
2.0000000500000001
 50
0.0
 51
90.000002999984659
  0
LINE
  5
B0C4
  8
0
 10
623.24181758028863
 20
815.66139390438275
 30
0.0
 11
634.74186758028873
 21
815.66139390438275
 31
0.0
  0
LINE
  5
B0C5
  8
0
 10
637.25056758028848
 20
831.94309390438275
 30
0.0
 11
676.82901758028811
 21
832.63389390438249
 31
0.0
  0
ARC
  5
B0C6
  8
0
 10
635.74181758028863
 20
832.93419390438282
 30
0.0
 40
1.0
 50
0.0
 51
90.000002999984659
  0
ARC
  5
B0C7
  8
0
 10
637.24186758028873
 20
832.44299390438289
 30
0.0
 40
0.5
 50
179.999989999999
 51
270.99999999997573
  0
LINE
  5
B0C8
  8
0
 10
623.24181758028863
 20
833.93419390438248
 30
0.0
 11
635.74181758028863
 21
833.93419390438248
 31
0.0
  0
LINE
  5
B0C9
  8
0
 10
681.74181758028863
 20
858.69804390438264
 30
0.0
 11
681.74181758028863
 21
837.63314390438291
 31
0.0
  0
ARC
  5
B0CA
  8
0
 10
676.74181758028863
 20
837.63314390438291
 30
0.0
 40
5.0
 50
270.99999999997573
 51
0.0
  0
ARC
  5
B0CB
  8
0
 10
691.74181758028874
 20
858.69804390438264
 30
0.0
 40
10.0
 50
128.3820099999657
 51
180.000010000001
  0
ARC
  5
B0CC
  8
0
 10
736.24181758028874
 20
925.53424390438238
 30
0.0
 40
4.000000049999997
 50
90.000002999984659
 51
180.000010000001
  0
LINE
  5
B0CD
  8
0
 10
770.24181758028874
 20
927.57954390438294
 30
0.0
 11
770.24181758028874
 21
923.53414390438274
 31
0.0
  0
LINE
  5
B0CE
  8
0
 10
798.63866758028826
 20
928.05124390438277
 30
0.0
 11
799.84746758028871
 21
923.53424390438238
 31
0.0
  0
LINE
  5
B0CF
  8
0
 10
770.92561758028864
 20
927.48284390438312
 30
0.0
 11
772.24181758028794
 21
923.53414390438274
 31
0.0
  0
LINE
  5
B0D0
  8
0
 10
706.24181758028874
 20
929.53414390438274
 30
0.0
 11
706.24181758028874
 21
884.87459390438278
 31
0.0
  0
LINE
  5
B0D1
  8
0
 10
807.43591758028856
 20
919.34014390438278
 30
0.0
 11
871.94311758028869
 21
917.08744390438278
 31
0.0
  0
LINE
  5
B0D2
  8
0
 10
770.24181758028874
 20
899.82009390438259
 30
0.0
 11
770.24181758028874
 21
820.22084390438249
 31
0.0
  0
LINE
  5
B0D3
  8
0
 10
773.24181758028874
 20
896.82009390438282
 30
0.0
 11
773.24181758028874
 21
823.22084390438249
 31
0.0
  0
LINE
  5
B0D4
  8
0
 10
773.24181758028874
 20
784.62844390438283
 30
0.0
 11
801.58496758028855
 21
784.62844390438283
 31
0.0
  0
LINE
  5
B0D5
  8
0
 10
773.24181758028874
 20
823.22084390438249
 30
0.0
 11
801.58496758028855
 21
823.22084390438249
 31
0.0
  0
LINE
  5
B0D6
  8
0
 10
748.24181758028874
 20
820.22084390438249
 30
0.0
 11
732.24186758028873
 21
820.22084390438249
 31
0.0
  0
LINE
  5
B0D7
  8
0
 10
748.24181758028874
 20
787.62844390438283
 30
0.0
 11
732.24186758028873
 21
787.62844390438283
 31
0.0
  0
LINE
  5
B0D8
  8
0
 10
770.24181758028874
 20
787.62844390438283
 30
0.0
 11
748.24181758028874
 21
787.62844390438283
 31
0.0
  0
LINE
  5
B0D9
  8
0
 10
773.24181758028874
 20
784.62844390438283
 30
0.0
 11
770.24181758028874
 21
787.62844390438283
 31
0.0
  0
LINE
  5
B0DA
  8
0
 10
770.24181758028874
 20
820.22084390438249
 30
0.0
 11
748.24181758028874
 21
820.22084390438249
 31
0.0
  0
LINE
  5
B0DB
  8
0
 10
773.24186758028873
 20
823.22084390438249
 30
0.0
 11
770.24186758028873
 21
820.22084390438249
 31
0.0
  0
LINE
  5
B0DC
  8
0
 10
777.27056758028846
 20
758.53418890438297
 30
0.0
 11
844.79756758028861
 21
758.53418890438297
 31
0.0
  0
ARC
  5
B0DD
  8
0
 10
852.33241758028851
 20
756.9098889043828
 30
0.0
 40
4.000000049999997
 50
133.68573999999231
 51
183.0000000000056
  0
LINE
  5
B0DE
  8
0
 10
849.5697175802884
 20
759.80239390438282
 30
0.0
 11
852.5488675802884
 21
762.64799390438293
 31
0.0
  0
LINE
  5
B0DF
  8
0
 10
804.41341758028875
 20
822.04929390438292
 30
0.0
 11
819.70961758028852
 21
806.75309390438292
 31
0.0
  0
LINE
  5
B0E0
  8
0
 10
804.41341758028875
 20
785.80004390438273
 30
0.0
 11
819.70961758028852
 21
801.09629390438295
 31
0.0
  0
LINE
  5
B0E1
  8
0
 10
803.24181758028863
 20
820.67944390438288
 30
0.0
 11
803.24181758028863
 21
787.56534390438264
 31
0.0
  0
ARC
  5
B0E2
  8
0
 10
801.58496758028855
 20
788.62844390438283
 30
0.0
 40
4.000000049999997
 50
270.0
 51
315.00000000000881
  0
ARC
  5
B0E3
  8
0
 10
801.58496758028855
 20
819.22094390438281
 30
0.0
 40
4.000000049999997
 50
45.000001000030679
 51
90.000002999984659
  0
ARC
  5
B0E4
  8
0
 10
816.88121758028853
 20
803.92464390438295
 30
0.0
 40
4.000000049999997
 50
315.00000000000881
 51
45.000001000030679
  0
LINE
  5
B0E5
  8
0
 10
773.24181758028874
 20
896.82009390438282
 30
0.0
 11
801.58496758028855
 21
896.82009390438282
 31
0.0
  0
LINE
  5
B0E6
  8
0
 10
748.24181758028874
 20
923.53414390438274
 30
0.0
 11
801.58496758028855
 21
923.53414390438274
 31
0.0
  0
LINE
  5
B0E7
  8
0
 10
748.24181758028874
 20
899.82009390438259
 30
0.0
 11
732.24186758028873
 21
899.82009390438259
 31
0.0
  0
LINE
  5
B0E8
  8
0
 10
732.24186758028873
 20
923.53414390438274
 30
0.0
 11
748.24181758028874
 21
923.53414390438274
 31
0.0
  0
ARC
  5
B0E9
  8
0
 10
702.24186758028873
 20
884.87459390438278
 30
0.0
 40
4.000000049999997
 50
308.38200999996559
 51
0.0
  0
ARC
  5
B0EA
  8
0
 10
728.24181758028874
 20
905.46859390438306
 30
0.0
 40
4.000000049999997
 50
308.38200999996559
 51
0.0
  0
LINE
  5
B0EB
  8
0
 10
770.24181758028874
 20
899.82009390438259
 30
0.0
 11
748.24181758028874
 21
899.82009390438259
 31
0.0
  0
LINE
  5
B0EC
  8
0
 10
773.24181758028874
 20
896.82009390438282
 30
0.0
 11
770.24181758028874
 21
899.82009390438259
 31
0.0
  0
LINE
  5
B0ED
  8
0
 10
804.41341758028875
 20
922.36264390438282
 30
0.0
 11
813.77046758028825
 21
913.00554390438265
 31
0.0
  0
LINE
  5
B0EE
  8
0
 10
804.41341758028875
 20
897.99159390438308
 30
0.0
 11
813.77046758028825
 21
907.3486939043828
 31
0.0
  0
LINE
  5
B0EF
  8
0
 10
803.24181758028863
 20
920.74209390438261
 30
0.0
 11
803.24181758028863
 21
900.20189390438281
 31
0.0
  0
ARC
  5
B0F0
  8
0
 10
801.58496758028855
 20
900.82009390438282
 30
0.0
 40
4.000000049999997
 50
270.0
 51
315.00000000000881
  0
ARC
  5
B0F1
  8
0
 10
801.58496758028855
 20
919.53414390438274
 30
0.0
 40
4.000000049999997
 50
45.000001000030679
 51
90.000002999984659
  0
ARC
  5
B0F2
  8
0
 10
810.94201758028828
 20
910.17714390438277
 30
0.0
 40
4.000000049999997
 50
315.00000000000881
 51
45.000001000030679
  0
LINE
  5
B0F3
  8
0
 10
878.24181758028806
 20
909.36929390438308
 30
0.0
 11
878.24181758028806
 21
778.53414390438274
 31
0.0
  0
LINE
  5
B0F4
  8
0
 10
935.24181758028874
 20
741.03418390438264
 30
0.0
 11
928.24181758028794
 21
741.03418390438264
 31
0.0
  0
LINE
  5
B0F5
  8
0
 10
928.24181758028794
 20
816.03414390438274
 30
0.0
 11
935.24181758028874
 21
816.03414390438274
 31
0.0
  0
LINE
  5
B0F6
  8
0
 10
935.24181758028874
 20
816.03414390438274
 30
0.0
 11
935.24181758028874
 21
741.03418390438264
 31
0.0
  0
LINE
  5
B0F7
  8
0
 10
960.24181758028874
 20
813.53414390438274
 30
0.0
 11
960.24181758028874
 21
818.03414390438274
 31
0.0
  0
ARC
  5
B0F8
  8
0
 10
916.24181758028817
 20
850.53414390438274
 30
0.0
 40
8.0
 50
0.0
 51
90.000002999984659
  0
ARC
  5
B0F9
  8
0
 10
926.24181758028794
 20
837.70579390438297
 30
0.0
 40
2.0000000500000001
 50
0.0
 51
45.000001000030679
  0
LINE
  5
B0FA
  8
0
 10
927.65606758028832
 20
839.11999390438257
 30
0.0
 11
924.24181758028817
 21
842.53414390438274
 31
0.0
  0
ARC
  5
B0FB
  8
0
 10
911.24181758028794
 20
866.53414390438263
 30
0.0
 40
8.0
 50
179.999989999999
 51
270.0
  0
LINE
  5
B0FC
  8
0
 10
911.24181758028794
 20
858.53414390438274
 30
0.0
 11
916.24181758028817
 21
858.53414390438274
 31
0.0
  0
LINE
  5
B0FD
  8
0
 10
882.69841758028883
 20
912.41084390438277
 30
0.0
 11
898.55556758028808
 21
896.55379390438281
 31
0.0
  0
ARC
  5
B0FE
  8
0
 10
871.38471758028857
 20
901.09719390438283
 30
0.0
 40
16.0
 50
45.000001000030679
 51
87.999999999996561
  0
ARC
  5
B0FF
  8
0
 10
887.24186758028873
 20
885.24009390438277
 30
0.0
 40
16.0
 50
0.0
 51
45.000001000030679
  0
LINE
  5
B100
  8
0
 10
796.70666758028824
 20
929.53414390438274
 30
0.0
 11
748.24181758028874
 21
929.53414390438274
 31
0.0
  0
CIRCLE
  5
B101
  8
0
 10
726.24181758028874
 20
959.53414390438274
 30
0.0
 40
17.500000499999999
  0
LINE
  5
B102
  8
0
 10
736.22051758028874
 20
940.90519390438294
 30
0.0
 11
726.24181758028874
 21
942.03414390438274
 31
0.0
  0
LINE
  5
B103
  8
0
 10
737.33081758028845
 20
940.53424390438238
 30
0.0
 11
715.15281758028823
 21
940.53424390438238
 31
0.0
  0
LINE
  5
B104
  8
0
 10
748.24181758028874
 20
929.53414390438274
 30
0.0
 11
706.24181758028874
 21
929.53414390438274
 31
0.0
  0
LINE
  5
B105
  8
0
 10
726.24181758028874
 20
942.03409390438264
 30
0.0
 11
716.26311758028851
 21
940.90514390438261
 31
0.0
  0
ARC
  5
B106
  8
0
 10
717.26586758028839
 20
936.05784390438293
 30
0.0
 40
4.949999899999999
 50
101.687630000021
 51
165.76742999999399
  0
ARC
  5
B107
  8
0
 10
706.36791758028846
 20
930.72399390438295
 30
0.0
 40
5.0
 50
350.99999999999483
 51
55.401290000016729
  0
LINE
  5
B108
  8
0
 10
712.46776758028875
 20
937.27484390438258
 30
0.0
 11
711.24181758028874
 21
929.53424390438295
 31
0.0
  0
ARC
  5
B109
  8
0
 10
735.21776758028875
 20
936.05784390438293
 30
0.0
 40
4.949999899999999
 50
14.23256800000032
 51
78.312367000019805
  0
ARC
  5
B10A
  8
0
 10
746.11566758028846
 20
930.72399390438295
 30
0.0
 40
5.0
 50
124.59872000003389
 51
189.0000000000052
  0
LINE
  5
B10B
  8
0
 10
741.24181758028874
 20
929.53424390438295
 30
0.0
 11
740.01581758028851
 21
937.27484390438258
 31
0.0
  0
ARC
  5
B10C
  8
0
 10
768.07956758028865
 20
926.53424390438295
 30
0.0
 40
3.0000000500000001
 50
18.434949000005091
 51
90.000002999984659
  0
ARC
  5
B10D
  8
0
 10
796.70666758028824
 20
927.53424390438295
 30
0.0
 40
2.0000000500000001
 50
14.981597999997319
 51
90.000002999984659
  0
LINE
  5
B10E
  8
0
 10
1045.2418175802879
 20
813.53414390438274
 30
0.0
 11
1045.2418175802879
 21
743.53418890438286
 31
0.0
  0
LINE
  5
B10F
  8
0
 10
1045.2418175802879
 20
818.03414390438274
 30
0.0
 11
1045.2418175802879
 21
813.53414390438274
 31
0.0
  0
LINE
  5
B119
  8
0
  6
AM_ISO08W050
 10
710.33851758028823
 20
778.28388573153995
 30
0.0
 11
1050.2418175802879
 21
778.28388573153995
 31
0.0
  0
LINE
  5
B11B
  8
0
  6
AM_ISO08W050
 10
192.3052403750707
 20
715.68386573154021
 30
0.0
 11
741.20945806625548
 21
715.68386573154021
 31
0.0
  0
LINE
  5
B11E
  8
0
  6
ACANSTGLM
 10
651.24183258028779
 20
536.28387073153999
 30
0.0
 11
651.24183258028779
 21
498.28388573154001
 31
0.0
  0
LINE
  5
B11F
  8
0
  6
AM_ISO08W050
 10
663.24181758028806
 20
546.28387073153976
 30
0.0
 11
663.24181758028806
 21
488.28388573154001
 31
0.0
  0
LINE
  5
B120
  8
0
  6
ACANSTGLM
 10
675.24181758028817
 20
536.28387073153999
 30
0.0
 11
675.24181758028817
 21
498.28388573154001
 31
0.0
  0
LINE
  5
B121
  8
0
  6
ACANSTGLM
 10
881.24183258028779
 20
536.28387073153999
 30
0.0
 11
881.24183258028779
 21
498.28388573154001
 31
0.0
  0
LINE
  5
B122
  8
0
  6
ACANSTGLM
 10
905.24181758028817
 20
536.28387073153999
 30
0.0
 11
905.24181758028817
 21
498.28388573154001
 31
0.0
  0
LINE
  5
B123
  8
0
  6
AM_ISO08W050
 10
893.24181758028794
 20
546.28387073153976
 30
0.0
 11
893.24181758028794
 21
488.28388573154001
 31
0.0
  0
LINE
  5
B12C
  8
0
  6
AM_ISO08W050
 10
1427.9032840953839
 20
994.53409390438264
 30
0.0
 11
1427.9032840953839
 21
492.41132390438258
 31
0.0
  0
LINE
  5
B12F
  8
0
  6
ACANSTGLM
 10
1235.903289095382
 20
536.53412890438267
 30
0.0
 11
1235.903289095382
 21
498.53414390438269
 31
0.0
  0
LINE
  5
B130
  8
0
  6
ACANSTGLM
 10
1259.903274095383
 20
536.53412890438267
 30
0.0
 11
1259.903274095383
 21
498.53414390438269
 31
0.0
  0
LINE
  5
B131
  8
0
  6
AM_ISO08W050
 10
1247.903274095383
 20
546.53412890438256
 30
0.0
 11
1247.903274095383
 21
488.53414390438257
 31
0.0
  0
LINE
  5
B134
  8
0
  6
ACANSTGLM
 10
1595.903274095383
 20
536.53412890438267
 30
0.0
 11
1595.903274095383
 21
498.53414390438269
 31
0.0
  0
LINE
  5
B135
  8
0
  6
AM_ISO08W050
 10
1607.903259095383
 20
546.53412890438256
 30
0.0
 11
1607.903259095383
 21
488.53414390438257
 31
0.0
  0
LINE
  5
B136
  8
0
  6
ACANSTGLM
 10
1619.903259095383
 20
536.53412890438267
 30
0.0
 11
1619.903259095383
 21
498.53414390438269
 31
0.0
  0
LINE
  5
B137
  8
0
  6
AM_ISO08W050
 10
1261.8864740953829
 20
778.53414390438274
 30
0.0
 11
1593.920044095383
 21
778.53414390438274
 31
0.0
  0
LINE
  5
C5E0
  8
0
 10
1262.0086319728689
 20
738.43900759807366
 30
0.0
 11
1227.947052095383
 21
654.1337527315402
 31
0.0
  0
LINE
  5
C5E1
  8
0
 10
1229.354766095383
 20
765.38839173153997
 30
0.0
 11
1229.354766095383
 21
658.00643373154026
 31
0.0
  0
ARC
  5
C5E6
  8
0
 10
1239.3547660953841
 20
765.38851373154023
 30
0.0
 40
10.0
 50
89.999961999998746
 51
180.0000459999994
  0
LINE
  5
C5E7
  8
0
 10
1266.5382384010441
 20
775.38851373154023
 30
0.0
 11
1239.3547660953841
 21
775.38851373154023
 31
0.0
  0
LINE
  5
C5E8
  8
0
 10
1240.4335031819869
 20
654.19844973154022
 30
0.0
 11
1237.9504700953839
 21
654.19844973154022
 31
0.0
  0
ARC
  5
C5E9
  8
0
 10
1232.583038095383
 20
652.26070573154016
 30
0.0
 40
5.0
 50
157.99999999999679
 51
248.00000000000529
  0
LINE
  5
C5EB
  8
0
 10
1234.4187310953839
 20
646.12630673154024
 30
0.0
 11
1230.7099910953841
 21
647.62471973154015
 31
0.0
  0
ARC
  5
C5EC
  8
0
 10
1227.354766095383
 20
658.00643373154026
 30
0.0
 40
2.0
 50
337.99999999999682
 51
359.99979600000029
  0
ARC
  5
C5ED
  8
0
 10
1237.9504700953839
 20
652.19844973154011
 30
0.0
 40
2.0
 50
89.999992000001797
 51
97.999847000002404
  0
LINE
  5
C5EE
  8
0
 10
1234.4228660953829
 20
646.12463573154014
 30
0.0
 11
1250.745269406154
 21
686.52770351644619
 31
0.0
  0
LINE
  5
C729
  8
0
 10
350.24181758028863
 20
712.40099861186627
 30
0.0
 11
350.24181758028863
 21
675.34619661186628
 31
0.0
  0
ARC
  5
C72A
  8
0
 10
362.24181758028863
 20
763.86474361186617
 30
0.0
 40
2.0
 50
103.914597
 51
180.00000899999949
  0
ARC
  5
C72B
  8
0
 10
379.11449858028863
 20
776.09078761186629
 30
0.0
 40
10.0
 50
90.00000299999769
 51
107.64566599999679
  0
ARC
  5
C72C
  8
0
 10
362.24181758028863
 20
779.11861961186662
 30
0.0
 40
2.0
 50
107.6456559999986
 51
180.00000899999949
  0
LINE
  5
C72D
  8
0
 10
362.24175058028868
 20
765.92518461186648
 30
0.0
 11
361.76088058028859
 21
765.80605161186645
 31
0.0
  0
LINE
  5
C72E
  8
0
 10
360.24181758028863
 20
759.79098261186618
 30
0.0
 11
360.24181758028863
 21
763.86474361186617
 31
0.0
  0
LINE
  5
C72F
  8
0
 10
376.08320758028867
 20
785.62026861186632
 30
0.0
 11
361.63553258028873
 21
781.02451861186626
 31
0.0
  0
LINE
  5
C730
  8
0
 10
360.24181758028863
 20
774.24410761186618
 30
0.0
 11
360.24181758028863
 21
779.11861961186662
 31
0.0
  0
LINE
  5
C731
  8
0
 10
358.24181758028863
 20
703.56216061186649
 30
0.0
 11
358.24181758028863
 21
675.34619661186628
 31
0.0
  0
LINE
  5
C732
  8
0
 10
358.24181758028863
 20
788.00112061186633
 30
0.0
 11
358.24181758028863
 21
726.97262461186631
 31
0.0
  0
LINE
  5
C733
  8
0
 10
350.24181758028863
 20
675.34619661186628
 30
0.0
 11
362.24175058028868
 21
675.34619661186628
 31
0.0
  0
LINE
  5
C734
  8
0
 10
386.24186758028861
 20
587.85093861186624
 30
0.0
 11
364.24186758028861
 21
587.85093861186624
 31
0.0
  0
LINE
  5
C735
  8
0
 10
386.24181758028863
 20
788.00112061186633
 30
0.0
 11
350.24181758028863
 21
788.00112061186633
 31
0.0
  0
LINE
  5
C736
  8
0
 10
380.34471158028862
 20
583.15081461186651
 30
0.0
 11
601.13890158028823
 21
583.15081461186651
 31
0.0
  0
LINE
  5
C737
  8
0
 10
385.2418055802886
 20
581.85111661186625
 30
0.0
 11
596.24180558028866
 21
581.85111661186625
 31
0.0
  0
ARC
  5
C738
  8
0
 10
385.2418055802886
 20
583.85111661186647
 30
0.0
 40
2.0
 50
200.49660000000111
 51
269.99999700000228
  0
ARC
  5
C739
  8
0
 10
380.34471158028862
 20
593.15081461186651
 30
0.0
 40
10.0
 50
238.9024929999994
 51
269.99999700000228
  0
LINE
  5
C73A
  8
0
 10
623.24181758028863
 20
830.4011346118665
 30
0.0
 11
621.24184558028855
 21
830.41513261186674
 31
0.0
  0
LINE
  5
C73B
  8
0
 10
621.24181758028863
 20
836.07478061186646
 30
0.0
 11
621.24181758028863
 21
819.95548861186649
 31
0.0
  0
LINE
  5
C73C
  8
0
 10
605.40049558028863
 20
785.62028861186661
 30
0.0
 11
619.8481415802886
 21
781.02454861186618
 31
0.0
  0
LINE
  5
C73D
  8
0
 10
605.10578158028864
 20
769.42736461186632
 30
0.0
 11
619.7227815802886
 21
765.80607261186663
 31
0.0
  0
LINE
  5
C73E
  8
0
 10
604.74342958028865
 20
752.07441661186647
 30
0.0
 11
619.57295558028864
 21
749.5846586118663
 31
0.0
  0
LINE
  5
C73F
  8
0
 10
604.34288358028857
 20
733.95192061186617
 30
0.0
 11
619.41072558028861
 21
732.67458861186662
 31
0.0
  0
LINE
  5
C740
  8
0
 10
549.24175058028868
 20
752.2124606118665
 30
0.0
 11
603.08764358028861
 21
752.2124606118665
 31
0.0
  0
LINE
  5
C741
  8
0
 10
621.24181758028863
 20
774.24410861186618
 30
0.0
 11
621.24181758028863
 21
779.11861861186651
 31
0.0
  0
LINE
  5
C742
  8
0
 10
621.24181758028863
 20
759.79098261186618
 30
0.0
 11
621.24181758028863
 21
763.86474461186617
 31
0.0
  0
LINE
  5
C743
  8
0
 10
621.24181758028863
 20
744.47384461186664
 30
0.0
 11
621.24181758028863
 21
747.61227261186662
 31
0.0
  0
LINE
  5
C744
  8
0
 10
549.24175058028868
 20
744.47384461186664
 30
0.0
 11
618.24181758028863
 21
744.47384461186664
 31
0.0
  0
LINE
  5
C745
  8
0
 10
549.24175058028868
 20
759.79098261186618
 30
0.0
 11
618.24181758028863
 21
759.79098261186618
 31
0.0
  0
LINE
  5
C746
  8
0
 10
548.64922858028865
 20
774.24410861186618
 30
0.0
 11
618.24181758028863
 21
774.24410861186618
 31
0.0
  0
LINE
  5
C747
  8
0
 10
551.93778758028861
 20
728.59081861186633
 30
0.0
 11
618.24181758028863
 21
728.59081861186633
 31
0.0
  0
LINE
  5
C748
  8
0
 10
603.92133158028844
 20
717.46789261186632
 30
0.0
 11
619.79661958028851
 21
716.90013461186629
 31
0.0
  0
LINE
  5
C749
  8
0
 10
603.92126158028861
 20
717.46793261186633
 30
0.0
 11
558.46475358028852
 21
718.13674461186633
 31
0.0
  0
LINE
  5
C74A
  8
0
 10
621.24181758028863
 20
728.59081861186633
 30
0.0
 11
621.24181758028863
 21
730.68176061186648
 31
0.0
  0
LINE
  5
C74B
  8
0
 10
549.58333958028834
 20
733.9876686118663
 30
0.0
 11
603.49816558028863
 21
733.9876686118663
 31
0.0
  0
LINE
  5
C74C
  8
0
 10
505.74181758028863
 20
802.24538861186647
 30
0.0
 11
505.74181758028863
 21
816.70635661186645
 31
0.0
  0
LINE
  5
C74D
  8
0
 10
358.24181758028863
 20
787.55190861186634
 30
0.0
 11
623.24181758028863
 21
787.55190861186634
 31
0.0
  0
LINE
  5
C74E
  8
0
 10
386.24181758028863
 20
801.24538861186647
 30
0.0
 11
602.03350558028865
 21
801.24538861186647
 31
0.0
  0
LINE
  5
C74F
  8
0
 10
613.12249558028861
 20
797.64291061186657
 30
0.0
 11
623.24181758028863
 21
797.64291061186657
 31
0.0
  0
LINE
  5
C750
  8
0
 10
613.12244558028863
 20
797.64291061186657
 30
0.0
 11
605.67925758028855
 21
800.55710861186651
 31
0.0
  0
LINE
  5
C751
  8
0
 10
386.24181758028863
 20
817.70635661186645
 30
0.0
 11
601.70312158028855
 21
817.70635661186645
 31
0.0
  0
LINE
  5
C752
  8
0
 10
613.12248358028864
 20
813.41310861186651
 30
0.0
 11
605.93152358028863
 21
816.76842661186618
 31
0.0
  0
LINE
  5
C753
  8
0
 10
506.74181758028863
 20
813.4130986118663
 30
0.0
 11
623.24181758028863
 21
813.4130986118663
 31
0.0
  0
LINE
  5
C754
  8
0
 10
386.24181758028863
 20
828.65792661186617
 30
0.0
 11
601.49114758028861
 21
828.65792661186617
 31
0.0
  0
LINE
  5
C755
  8
0
 10
620.15968358028863
 20
820.2699706118666
 30
0.0
 11
606.08050158028823
 21
827.54258861186634
 31
0.0
  0
LINE
  5
C756
  8
0
 10
621.24181758028863
 20
818.49305461186657
 30
0.0
 11
621.24181758028863
 21
813.4130986118663
 31
0.0
  0
LINE
  5
C757
  8
0
 10
386.24181758028863
 20
837.40513461186617
 30
0.0
 11
601.32647358028862
 21
837.40513461186617
 31
0.0
  0
LINE
  5
C758
  8
0
 10
606.18883958028857
 20
836.14335661186658
 30
0.0
 11
620.21427158028825
 21
828.33894061186675
 31
0.0
  0
LINE
  5
C759
  8
0
 10
386.24181758028863
 20
843.77763061186636
 30
0.0
 11
601.20916358028865
 21
843.77763061186636
 31
0.0
  0
LINE
  5
C75A
  8
0
 10
620.25232758028824
 20
834.21563061186635
 30
0.0
 11
606.26183358028879
 21
842.4072186118666
 31
0.0
  0
LINE
  5
C75B
  8
0
 10
386.24181758028863
 20
847.65142661186621
 30
0.0
 11
601.13891358028854
 21
847.65142661186621
 31
0.0
  0
LINE
  5
C75C
  8
0
 10
620.27480358028856
 20
837.7873886118665
 30
0.0
 11
606.30388758028846
 21
846.21435461186616
 31
0.0
  0
LINE
  5
C75D
  8
0
 10
386.24181758028863
 20
848.95112461186648
 30
0.0
 11
596.24181758028863
 21
848.95112461186648
 31
0.0
  0
LINE
  5
C75E
  8
0
 10
474.74181758028863
 20
813.4130986118663
 30
0.0
 11
386.24181758028863
 21
813.4130986118663
 31
0.0
  0
LINE
  5
C75F
  8
0
 10
475.74181758028863
 20
802.24538861186647
 30
0.0
 11
475.74181758028863
 21
816.70635661186645
 31
0.0
  0
LINE
  5
C760
  8
0
 10
479.24181758028863
 20
852.40112061186653
 30
0.0
 11
502.24181758028863
 21
852.40112061186653
 31
0.0
  0
LINE
  5
C761
  8
0
 10
479.24181758028863
 20
852.40112061186653
 30
0.0
 11
479.24181758028863
 21
848.95112461186648
 31
0.0
  0
LINE
  5
C762
  8
0
 10
502.24181758028863
 20
852.40112061186653
 30
0.0
 11
502.24181758028863
 21
848.95112461186648
 31
0.0
  0
ARC
  5
C763
  8
0
 10
619.24181758028863
 20
730.68176061186648
 30
0.0
 40
2.0
 50
0.0
 51
85.154495999998673
  0
ARC
  5
C764
  8
0
 10
619.24181758028863
 20
747.61227261186662
 30
0.0
 40
2.0
 50
0.0
 51
80.469389000002735
  0
ARC
  5
C765
  8
0
 10
619.24181758028863
 20
763.86474461186617
 30
0.0
 40
2.0
 50
0.0
 51
76.08541100000015
  0
ARC
  5
C766
  8
0
 10
619.24181758028863
 20
779.11861861186651
 30
0.0
 40
2.0
 50
0.0
 51
72.354331999996162
  0
ARC
  5
C767
  8
0
 10
602.36913758028857
 20
776.09078661186629
 30
0.0
 40
10.0
 50
72.354331999996162
 51
90.00000299999769
  0
ARC
  5
C768
  8
0
 10
602.70104758028845
 20
759.72079261186661
 30
0.0
 40
10.0
 50
76.08541100000015
 51
90.00000299999769
  0
ARC
  5
C769
  8
0
 10
603.08764358028861
 20
742.21246061186616
 30
0.0
 40
10.0
 50
80.469389000002735
 51
90.00000299999769
  0
ARC
  5
C76A
  8
0
 10
603.49816558028863
 20
723.98766861186618
 30
0.0
 40
10.0
 50
85.154495999998673
 51
90.00000299999769
  0
ARC
  5
C76B
  8
0
 10
619.74303958028861
 20
715.39993061186658
 30
0.0
 40
1.498794
 50
0.04549800000434
 51
90.00000299999769
  0
ARC
  5
C76C
  8
0
 10
602.03350558028865
 20
791.24538861186625
 30
0.0
 40
10.0
 50
68.618382000003351
 51
90.00000299999769
  0
ARC
  5
C76D
  8
0
 10
601.70312158028855
 20
807.70635661186634
 30
0.0
 40
10.0
 50
64.986142000000967
 51
90.00000299999769
  0
ARC
  5
C76E
  8
0
 10
601.49114758028861
 20
818.65792661186629
 30
0.0
 40
10.0
 50
62.681328999998293
 51
90.00000299999769
  0
ARC
  5
C76F
  8
0
 10
619.24181758028863
 20
818.49305461186657
 30
0.0
 40
2.0
 50
0.0
 51
62.681328999998293
  0
ARC
  5
C770
  8
0
 10
601.32647358028862
 20
827.40513461186663
 30
0.0
 40
10.0
 50
60.90636099999832
 51
90.00000299999769
  0
ARC
  5
C771
  8
0
 10
619.24181758028863
 20
826.59130661186646
 30
0.0
 40
2.0
 50
0.0
 51
60.90636099999832
  0
ARC
  5
C772
  8
0
 10
601.20916358028865
 20
833.77763061186658
 30
0.0
 40
10.0
 50
59.65056199999929
 51
90.00000299999769
  0
ARC
  5
C773
  8
0
 10
619.24181758028863
 20
832.48972861186655
 30
0.0
 40
2.0
 50
0.0
 51
59.65056199999929
  0
ARC
  5
C774
  8
0
 10
619.24181758028863
 20
836.07478061186646
 30
0.0
 40
2.0
 50
0.0
 51
58.902492999999467
  0
ARC
  5
C775
  8
0
 10
601.13891358028854
 20
837.65142661186655
 30
0.0
 40
10.0
 50
58.902492999999467
 51
90.00000299999769
  0
ARC
  5
C776
  8
0
 10
596.24181758028863
 20
846.95112461186648
 30
0.0
 40
2.0
 50
20.496598999999161
 51
90.00000299999769
  0
ARC
  5
C777
  8
0
 10
506.74181758028863
 20
802.24538861186647
 30
0.0
 40
1.0
 50
179.9999949999995
 51
269.99999700000228
  0
ARC
  5
C778
  8
0
 10
474.74181758028863
 20
802.24538861186647
 30
0.0
 40
1.0
 50
269.99999700000228
 51
0.0
  0
ARC
  5
C779
  8
0
 10
506.74181758028863
 20
812.41309861186653
 30
0.0
 40
1.0
 50
89.999998999998596
 51
180.00000899999949
  0
ARC
  5
C77A
  8
0
 10
474.74181758028863
 20
812.41309861186653
 30
0.0
 40
1.0
 50
0.0
 51
90.00000299999769
  0
ARC
  5
C77B
  8
0
 10
506.74181758028863
 20
816.70635661186645
 30
0.0
 40
1.0
 50
89.999998999998596
 51
180.00000899999949
  0
ARC
  5
C77C
  8
0
 10
474.74181758028863
 20
816.70635661186645
 30
0.0
 40
1.0
 50
0.0
 51
90.00000299999769
  0
LINE
  5
C77D
  8
0
 10
549.24175058028868
 20
769.7207926118665
 30
0.0
 11
602.70104758028845
 21
769.7207926118665
 31
0.0
  0
LINE
  5
C77E
  8
0
 10
379.09732358028862
 20
786.09077261186633
 30
0.0
 11
602.36913758028857
 21
786.09077261186633
 31
0.0
  0
LINE
  5
C77F
  8
0
 10
623.24181758028863
 20
600.40110661186623
 30
0.0
 11
621.24184558028855
 21
600.38710861186655
 31
0.0
  0
LINE
  5
C780
  8
0
 10
621.24181758028863
 20
594.72746061186615
 30
0.0
 11
621.24181758028863
 21
610.84675261186658
 31
0.0
  0
LINE
  5
C781
  8
0
 10
386.24186758028861
 20
644.71146861186651
 30
0.0
 11
602.36913758028857
 21
644.71146861186651
 31
0.0
  0
LINE
  5
C782
  8
0
 10
605.40049558028863
 20
645.18195261186611
 30
0.0
 11
619.8481415802886
 21
649.77769261186654
 31
0.0
  0
LINE
  5
C783
  8
0
 10
605.10578158028864
 20
661.37487661186663
 30
0.0
 11
619.7227815802886
 21
664.99616861186621
 31
0.0
  0
LINE
  5
C784
  8
0
 10
604.74342958028865
 20
678.72782461186659
 30
0.0
 11
619.57295558028864
 21
681.21758261186653
 31
0.0
  0
LINE
  5
C785
  8
0
 10
604.34288358028857
 20
696.85032061186632
 30
0.0
 11
619.41072558028861
 21
698.12765261186632
 31
0.0
  0
LINE
  5
C786
  8
0
 10
549.24175058028868
 20
678.58978061186644
 30
0.0
 11
603.08764358028861
 21
678.58978061186644
 31
0.0
  0
LINE
  5
C787
  8
0
 10
621.24181758028863
 20
656.55813261186654
 30
0.0
 11
621.24181758028863
 21
651.68362261186655
 31
0.0
  0
LINE
  5
C788
  8
0
 10
621.24181758028863
 20
671.01125861186654
 30
0.0
 11
621.24181758028863
 21
666.93749661186655
 31
0.0
  0
LINE
  5
C789
  8
0
 10
621.24181758028863
 20
686.32839661186654
 30
0.0
 11
621.24181758028863
 21
683.18996861186622
 31
0.0
  0
LINE
  5
C78A
  8
0
 10
549.24175058028868
 20
686.32839661186654
 30
0.0
 11
618.24181758028863
 21
686.32839661186654
 31
0.0
  0
LINE
  5
C78B
  8
0
 10
549.24175058028868
 20
671.01125861186654
 30
0.0
 11
618.24181758028863
 21
671.01125861186654
 31
0.0
  0
LINE
  5
C78C
  8
0
 10
552.30915158028824
 20
702.21142261186662
 30
0.0
 11
618.24181758028863
 21
702.21142261186662
 31
0.0
  0
LINE
  5
C78D
  8
0
 10
603.92133158028844
 20
713.33434861186663
 30
0.0
 11
619.79661958028851
 21
713.90210661186632
 31
0.0
  0
LINE
  5
C78E
  8
0
 10
603.92126158028861
 20
713.3343086118665
 30
0.0
 11
558.51449358028844
 21
712.66622761186647
 31
0.0
  0
LINE
  5
C78F
  8
0
 10
621.24181758028863
 20
702.21142261186662
 30
0.0
 11
621.24181758028863
 21
700.12048061186636
 31
0.0
  0
LINE
  5
C790
  8
0
 10
549.6439805802886
 20
696.81457261186631
 30
0.0
 11
603.49816558028863
 21
696.81457261186631
 31
0.0
  0
LINE
  5
C791
  8
0
 10
505.74181758028863
 20
628.55685261186625
 30
0.0
 11
505.74181758028863
 21
614.0958846118665
 31
0.0
  0
LINE
  5
C792
  8
0
 10
386.24186758028861
 20
643.2503326118665
 30
0.0
 11
623.24181758028863
 21
643.2503326118665
 31
0.0
  0
LINE
  5
C793
  8
0
 10
386.24186758028861
 20
629.55685261186625
 30
0.0
 11
602.03350558028865
 21
629.55685261186625
 31
0.0
  0
LINE
  5
C794
  8
0
 10
613.12249558028861
 20
633.15933061186649
 30
0.0
 11
623.24181758028863
 21
633.15933061186649
 31
0.0
  0
LINE
  5
C795
  8
0
 10
613.12244558028863
 20
633.15933061186649
 30
0.0
 11
605.67925758028855
 21
630.24513261186655
 31
0.0
  0
LINE
  5
C796
  8
0
 10
386.24186758028861
 20
613.0958846118665
 30
0.0
 11
601.70312158028855
 21
613.0958846118665
 31
0.0
  0
LINE
  5
C797
  8
0
 10
613.12248358028864
 20
617.38913261186622
 30
0.0
 11
605.93152358028863
 21
614.03381461186655
 31
0.0
  0
LINE
  5
C798
  8
0
 10
506.74181758028863
 20
617.38914261186653
 30
0.0
 11
623.24181758028863
 21
617.38914261186653
 31
0.0
  0
LINE
  5
C799
  8
0
 10
386.24186758028861
 20
602.14431461186655
 30
0.0
 11
601.49114758028861
 21
602.14431461186655
 31
0.0
  0
LINE
  5
C79A
  8
0
 10
620.15968358028863
 20
610.53227061186647
 30
0.0
 11
606.08050158028823
 21
603.25965261186661
 31
0.0
  0
LINE
  5
C79B
  8
0
 10
621.24181758028863
 20
612.30918661186661
 30
0.0
 11
621.24181758028863
 21
617.38914261186653
 31
0.0
  0
LINE
  5
C79C
  8
0
 10
386.24186758028861
 20
593.39710661186655
 30
0.0
 11
601.32647358028862
 21
593.39710661186655
 31
0.0
  0
LINE
  5
C79D
  8
0
 10
606.18883958028857
 20
594.6588846118666
 30
0.0
 11
620.21427158028825
 21
602.46330061186654
 31
0.0
  0
LINE
  5
C79E
  8
0
 10
380.27445958028858
 20
587.02461061186625
 30
0.0
 11
601.20916358028865
 21
587.02461061186625
 31
0.0
  0
LINE
  5
C79F
  8
0
 10
620.25232758028824
 20
596.58661061186649
 30
0.0
 11
606.26183358028879
 21
588.39502261186647
 31
0.0
  0
LINE
  5
C7A0
  8
0
 10
620.27480358028856
 20
593.01485261186622
 30
0.0
 11
606.30388758028846
 21
584.58788661186622
 31
0.0
  0
LINE
  5
C7A1
  8
0
 10
474.74181758028863
 20
617.38914261186653
 30
0.0
 11
386.24186758028861
 21
617.38914261186653
 31
0.0
  0
LINE
  5
C7A2
  8
0
 10
475.74181758028863
 20
628.55685261186625
 30
0.0
 11
475.74181758028863
 21
614.0958846118665
 31
0.0
  0
LINE
  5
C7A3
  8
0
 10
479.24181758028863
 20
578.40112061186653
 30
0.0
 11
502.24181758028863
 21
578.40112061186653
 31
0.0
  0
LINE
  5
C7A4
  8
0
 10
479.24181758028863
 20
578.40112061186653
 30
0.0
 11
479.24181758028863
 21
581.85111661186625
 31
0.0
  0
LINE
  5
C7A5
  8
0
 10
502.24181758028863
 20
578.40112061186653
 30
0.0
 11
502.24181758028863
 21
581.85111661186625
 31
0.0
  0
ARC
  5
C7A6
  8
0
 10
619.24181758028863
 20
700.12048061186636
 30
0.0
 40
2.0
 50
274.84550400000131
 51
0.0
  0
ARC
  5
C7A7
  8
0
 10
619.24181758028863
 20
683.18996861186622
 30
0.0
 40
2.0
 50
279.53061099999741
 51
0.0
  0
ARC
  5
C7A8
  8
0
 10
619.24181758028863
 20
666.93749661186655
 30
0.0
 40
2.0
 50
283.91458899999992
 51
0.0
  0
ARC
  5
C7A9
  8
0
 10
619.24181758028863
 20
651.68362261186655
 30
0.0
 40
2.0
 50
287.64566800000381
 51
0.0
  0
ARC
  5
C7AA
  8
0
 10
602.36913758028857
 20
654.71145461186654
 30
0.0
 40
10.0
 50
269.99999700000228
 51
287.64566800000381
  0
ARC
  5
C7AB
  8
0
 10
602.70104758028845
 20
671.08144861186622
 30
0.0
 40
10.0
 50
269.99999700000228
 51
283.91458899999992
  0
ARC
  5
C7AC
  8
0
 10
603.08764358028861
 20
688.58978061186633
 30
0.0
 40
10.0
 50
269.99999700000228
 51
279.53061099999741
  0
ARC
  5
C7AD
  8
0
 10
603.49816558028863
 20
706.81457261186631
 30
0.0
 40
10.0
 50
269.99999700000228
 51
274.84550400000131
  0
ARC
  5
C7AE
  8
0
 10
619.74303958028861
 20
715.40231061186626
 30
0.0
 40
1.498794
 50
272.04545800000011
 51
359.95450199999573
  0
ARC
  5
C7AF
  8
0
 10
602.03350558028865
 20
639.55685261186636
 30
0.0
 40
10.0
 50
269.99999700000228
 51
291.38161799999671
  0
ARC
  5
C7B0
  8
0
 10
601.70312158028855
 20
623.0958846118665
 30
0.0
 40
10.0
 50
269.99999700000228
 51
295.013857999999
  0
ARC
  5
C7B1
  8
0
 10
601.49114758028861
 20
612.14431461186655
 30
0.0
 40
10.0
 50
269.99999700000228
 51
297.3186710000017
  0
ARC
  5
C7B2
  8
0
 10
619.24181758028863
 20
612.30918661186661
 30
0.0
 40
2.0
 50
297.3186710000017
 51
0.0
  0
ARC
  5
C7B3
  8
0
 10
601.32647358028862
 20
603.39710661186655
 30
0.0
 40
10.0
 50
269.99999700000228
 51
299.09363900000159
  0
ARC
  5
C7B4
  8
0
 10
619.24181758028863
 20
604.21093461186661
 30
0.0
 40
2.0
 50
299.09363900000159
 51
0.0
  0
ARC
  5
C7B5
  8
0
 10
601.20916358028865
 20
597.02461061186659
 30
0.0
 40
10.0
 50
269.99999700000228
 51
300.34943800000059
  0
ARC
  5
C7B6
  8
0
 10
619.24181758028863
 20
598.31251261186651
 30
0.0
 40
2.0
 50
300.34943800000059
 51
0.0
  0
ARC
  5
C7B7
  8
0
 10
619.24181758028863
 20
594.72746061186615
 30
0.0
 40
2.0
 50
301.09750700000058
 51
0.0
  0
ARC
  5
C7B8
  8
0
 10
601.13891358028854
 20
593.15081461186651
 30
0.0
 40
10.0
 50
269.99999700000228
 51
301.09750700000058
  0
ARC
  5
C7B9
  8
0
 10
596.24181758028863
 20
583.85111661186647
 30
0.0
 40
2.0
 50
269.99999700000228
 51
339.50340100000091
  0
ARC
  5
C7BA
  8
0
 10
506.74181758028863
 20
628.55685261186625
 30
0.0
 40
1.0
 50
90.00000299999769
 51
180.0000050000005
  0
ARC
  5
C7BB
  8
0
 10
474.74181758028863
 20
628.55685261186625
 30
0.0
 40
1.0
 50
0.0
 51
90.00000299999769
  0
ARC
  5
C7BC
  8
0
 10
506.74181758028863
 20
618.38914261186653
 30
0.0
 40
1.0
 50
179.99999100000039
 51
270.00000100000142
  0
ARC
  5
C7BD
  8
0
 10
474.74181758028863
 20
618.38914261186653
 30
0.0
 40
1.0
 50
269.99999700000228
 51
0.0
  0
ARC
  5
C7BE
  8
0
 10
506.74181758028863
 20
614.0958846118665
 30
0.0
 40
1.0
 50
179.99999100000039
 51
270.00000100000142
  0
ARC
  5
C7BF
  8
0
 10
474.74181758028863
 20
614.0958846118665
 30
0.0
 40
1.0
 50
269.99999700000228
 51
0.0
  0
LINE
  5
C7C0
  8
0
 10
549.24175058028868
 20
661.08144861186622
 30
0.0
 11
602.70104758028845
 21
661.08144861186622
 31
0.0
  0
LINE
  5
C7C1
  8
0
 10
549.13213658028872
 20
656.55813261186654
 30
0.0
 11
618.24181758028863
 21
656.55813261186654
 31
0.0
  0
LINE
  5
C7C2
  8
0
  6
AM_ISO08W050
 10
490.74181158028858
 20
666.52853361186624
 30
0.0
 11
490.74181158028858
 21
639.36609861186651
 31
0.0
  0
LINE
  5
C7C3
  8
0
 10
623.24181758028863
 20
833.9341939043826
 30
0.0
 11
623.24181758028863
 21
597.93420890438244
 31
0.0
  0
LINE
  5
C7C4
  8
0
 10
283.24181758028863
 20
852.26730961186661
 30
0.0
 11
386.24181758028863
 21
852.26751461186655
 31
0.0
  0
LINE
  5
C7C5
  8
0
 10
212.2418175802886
 20
639.05250661186653
 30
0.0
 11
212.2418175802886
 21
814.02300761186643
 31
0.0
  0
LINE
  5
C7C6
  8
0
 10
206.2418175802886
 20
617.89537361186615
 30
0.0
 11
206.2418175802886
 21
815.89288061186619
 31
0.0
  0
LINE
  5
C7C7
  8
0
 10
224.47008858028869
 20
835.81402361186622
 30
0.0
 11
224.47008858028869
 21
686.01631461186651
 31
0.0
  0
LINE
  5
C7C8
  8
0
 10
283.24181758028863
 20
718.40113161186662
 30
0.0
 11
283.24181758028863
 21
852.26730961186661
 31
0.0
  0
ARC
  5
C7C9
  8
0
 10
280.64171958028862
 20
849.83685061186623
 30
0.0
 40
0.6
 50
273.00006100000229
 51
0.0
  0
ARC
  5
C7CA
  8
0
 10
282.84191558028863
 20
849.6674166118662
 30
0.0
 40
1.6000000000000001
 50
75.526099999997555
 51
180.0
  0
LINE
  5
C7CB
  8
0
 10
213.30358558028851
 20
821.8975196118663
 30
0.0
 11
218.07702258028871
 21
840.35503861186646
 31
0.0
  0
ARC
  5
C7CC
  8
0
 10
225.82213958028871
 20
838.35186561186629
 30
0.0
 40
8.0
 50
93.000053000002623
 51
165.4999080000008
  0
ARC
  5
C7CD
  8
0
 10
207.7418175802886
 20
815.89288061186619
 30
0.0
 40
1.5
 50
91.884964000000878
 51
180.0
  0
ARC
  5
C7CE
  8
0
 10
207.4947475802887
 20
823.3999606118665
 30
0.0
 40
6.0
 50
271.88500999999661
 51
345.50021400000162
  0
LINE
  5
C7CF
  8
0
 10
280.67321358028869
 20
849.2374856118663
 30
0.0
 11
225.40343858028871
 21
846.34100061186621
 31
0.0
  0
LINE
  5
C7D0
  8
0
 10
283.24181758028863
 20
585.26735161186662
 30
0.0
 11
364.24186758028861
 21
585.26743561186652
 31
0.0
  0
LINE
  5
C7D1
  8
0
 10
283.24181758028863
 20
585.26733161186621
 30
0.0
 11
283.24181758028863
 21
712.40110961186633
 31
0.0
  0
LINE
  5
C7D2
  8
0
 10
224.47008858028869
 20
663.02143361186643
 30
0.0
 11
224.47008858028869
 21
597.76098361186655
 31
0.0
  0
LINE
  5
C7D3
  8
0
 10
213.30358558028851
 20
608.63708261186662
 30
0.0
 11
216.2418175802886
 21
597.27587661186658
 31
0.0
  0
ARC
  5
C7D4
  8
0
 10
282.84191558028863
 20
587.86742961186656
 30
0.0
 40
1.6000000000000001
 50
180.0
 51
284.47390000000252
  0
ARC
  5
C7D5
  8
0
 10
280.64171958028862
 20
587.69799561186653
 30
0.0
 40
0.6
 50
0.0
 51
86.999924000002295
  0
ARC
  5
C7D6
  8
0
 10
223.98693458028851
 20
599.27892861186638
 30
0.0
 40
8.0
 50
194.50007599999711
 51
267.00003099999998
  0
LINE
  5
C7D7
  8
0
 10
280.67321358028869
 20
588.29711661186639
 30
0.0
 11
223.56823358028859
 21
591.28991461186649
 31
0.0
  0
LINE
  5
C7D8
  8
0
 10
386.24181758028863
 20
852.26751461186655
 30
0.0
 11
386.24181758028863
 21
788.00112061186633
 31
0.0
  0
LINE
  5
C7D9
  8
0
 10
386.24186758028861
 20
645.7098976118665
 30
0.0
 11
386.24186758028861
 21
587.85093861186624
 31
0.0
  0
LINE
  5
C7DA
  8
0
 10
350.24181758028863
 20
788.00112061186633
 30
0.0
 11
350.24181758028863
 21
718.40099861186661
 31
0.0
  0
LINE
  5
C7DB
  8
0
 10
205.44152458028859
 20
614.93348961186643
 30
0.0
 11
205.44152458028859
 21
633.76714861186622
 31
0.0
  0
LINE
  5
C7DC
  8
0
 10
205.44152458028859
 20
633.76714861186622
 30
0.0
 11
206.2415735802887
 21
633.76714861186622
 31
0.0
  0
LINE
  5
C7DD
  8
0
 10
362.24175058028868
 20
737.17059061186626
 30
0.0
 11
362.24175058028868
 21
770.44122061186636
 31
0.0
  0
LINE
  5
C7DE
  8
0
 10
374.74175058028868
 20
782.94122061186636
 30
0.0
 11
536.74175058028868
 21
782.94122061186636
 31
0.0
  0
LINE
  5
C7DF
  8
0
 10
533.74175058028857
 20
774.97210461186648
 30
0.0
 11
377.74175058028868
 21
774.97210461186648
 31
0.0
  0
LINE
  5
C7E0
  8
0
 10
369.24175058028868
 20
766.47210461186614
 30
0.0
 11
369.24175058028868
 21
665.3407566118666
 31
0.0
  0
ARC
  5
C7E1
  8
0
 10
377.74175058028868
 20
766.47210461186614
 30
0.0
 40
8.5
 50
90.0
 51
180.0
  0
ARC
  5
C7E2
  8
0
 10
374.74175058028868
 20
770.44122061186636
 30
0.0
 40
12.5
 50
90.0
 51
180.0
  0
ARC
  5
C7E3
  8
0
 10
350.24175058028868
 20
744.4177836118663
 30
0.0
 40
19.0
 50
300.97779499999803
 51
0.0
  0
LINE
  5
C7E4
  8
0
  6
AM_ISO08W050
 10
362.74175058028868
 20
703.21172861186631
 30
0.0
 11
362.74175058028868
 21
725.43499561186661
 31
0.0
  0
ARC
  5
C7E5
  8
0
 10
367.74175058028868
 20
715.26739261186617
 30
0.0
 40
15.0
 50
120.9777979999981
 51
239.0222020000019
  0
ARC
  5
C7E6
  8
0
 10
347.24175058028868
 20
737.17059061186626
 30
0.0
 40
15.0
 50
313.10466000000002
 51
0.0
  0
LINE
  5
C7E7
  8
0
 10
362.24175058028868
 20
693.36419461186631
 30
0.0
 11
362.24175058028868
 21
658.2098976118665
 31
0.0
  0
ARC
  5
C7E8
  8
0
 10
347.24175058028868
 20
693.36419461186631
 30
0.0
 40
15.0
 50
0.0
 51
46.895329000001787
  0
ARC
  5
C7E9
  8
0
 10
350.24175058028868
 20
686.11687961186624
 30
0.0
 40
19.0
 50
0.0
 51
59.022189999997721
  0
LINE
  5
C7EA
  8
0
 10
374.74175058028868
 20
645.7098976118665
 30
0.0
 11
536.74175058028868
 21
645.7098976118665
 31
0.0
  0
LINE
  5
C7EB
  8
0
 10
377.74175058028868
 20
656.8407566118666
 30
0.0
 11
533.74175058028857
 21
656.8407566118666
 31
0.0
  0
ARC
  5
C7EC
  8
0
 10
377.74175058028868
 20
665.3407566118666
 30
0.0
 40
8.5
 50
180.0
 51
270.0
  0
ARC
  5
C7ED
  8
0
 10
374.74175058028868
 20
658.2098976118665
 30
0.0
 40
12.5
 50
180.0
 51
270.0
  0
LINE
  5
C7EE
  8
0
 10
549.24175058028868
 20
737.17059061186626
 30
0.0
 11
549.24175058028868
 21
770.44122061186636
 31
0.0
  0
LINE
  5
C7EF
  8
0
 10
542.24175058028857
 20
766.47210461186614
 30
0.0
 11
542.24175058028857
 21
665.3407566118666
 31
0.0
  0
LINE
  5
C7F0
  8
0
 10
549.24175058028868
 20
693.36419461186631
 30
0.0
 11
549.24175058028868
 21
658.2098976118665
 31
0.0
  0
ARC
  5
C7F1
  8
0
 10
564.24175058028823
 20
737.17059061186626
 30
0.0
 40
15.0
 50
180.0
 51
226.89534
  0
ARC
  5
C7F2
  8
0
 10
561.24175058028868
 20
744.4177836118663
 30
0.0
 40
19.0
 50
180.0
 51
239.02224699999539
  0
ARC
  5
C7F3
  8
0
 10
564.24175058028823
 20
693.36419461186631
 30
0.0
 40
15.0
 50
133.1046750000001
 51
180.0
  0
ARC
  5
C7F4
  8
0
 10
561.24175058028868
 20
686.11687961186624
 30
0.0
 40
19.0
 50
120.9777450000004
 51
180.0
  0
LINE
  5
C7F5
  8
0
  6
AM_ISO08W050
 10
548.74175058028868
 20
706.96770961186633
 30
0.0
 11
548.74175058028868
 21
724.80889661186632
 31
0.0
  0
ARC
  5
C7F6
  8
0
 10
543.74175058028834
 20
715.26739261186617
 30
0.0
 40
15.0
 50
300.97784399999699
 51
59.022129000001307
  0
ARC
  5
C7F7
  8
0
 10
536.74175058028868
 20
770.44122061186636
 30
0.0
 40
12.5
 50
0.0
 51
90.0
  0
ARC
  5
C7F8
  8
0
 10
533.74175058028857
 20
766.47210461186614
 30
0.0
 40
8.5
 50
0.0
 51
90.0
  0
ARC
  5
C7F9
  8
0
 10
536.74175058028868
 20
658.2098976118665
 30
0.0
 40
12.5
 50
270.0
 51
0.0
  0
ARC
  5
C7FA
  8
0
 10
533.74175058028857
 20
665.3407566118666
 30
0.0
 40
8.5
 50
270.0
 51
0.0
  0
LINE
  5
C7FB
  8
0
 10
364.24186758028861
 20
587.85093861186624
 30
0.0
 11
364.24186758028861
 21
585.26743561186652
 31
0.0
  0
LINE
  5
C7FC
  8
0
 10
369.7696615802887
 20
587.85113061186621
 30
0.0
 11
375.17973558028859
 21
584.58788661186622
 31
0.0
  0
ARC
  5
C7FD
  8
0
 10
380.27445958028858
 20
597.02461061186659
 30
0.0
 40
10.0
 50
246.54140899999609
 51
270.00000299999761
  0
ARC
  5
C7FE
  8
0
 10
484.74181158028858
 20
855.70612861186646
 30
0.0
 40
3.999994999999998
 50
112.5229880000021
 51
179.999977999995
  0
ARC
  5
C7FF
  8
0
 10
496.74181158028858
 20
855.70612861186646
 30
0.0
 40
4.0
 50
0.0
 51
67.469796999999573
  0
ARC
  5
C800
  8
0
 10
490.74181158028858
 20
841.23713461186617
 30
0.0
 40
19.663599000000001
 50
67.47536399999602
 51
112.5249969999977
  0
ARC
  5
C801
  8
0
 10
490.74181158028858
 20
873.40113561186649
 30
0.0
 40
20.5
 50
303.58634299999812
 51
236.41396600000081
  0
ARC
  5
C802
  8
0
 10
477.7418265802886
 20
853.82412461186664
 30
0.0
 40
3.0
 50
0.0
 51
56.413954000002249
  0
ARC
  5
C803
  8
0
 10
503.74181158028858
 20
853.82412461186664
 30
0.0
 40
3.000011999999999
 50
123.586167000001
 51
179.999977999995
  0
CIRCLE
  5
C804
  8
0
 10
490.74181158028858
 20
873.40113561186649
 30
0.0
 40
12.5
  0
LINE
  5
C805
  8
0
 10
480.7418265802886
 20
855.70612861186646
 30
0.0
 11
480.7418265802886
 21
852.40112061186653
 31
0.0
  0
LINE
  5
C806
  8
0
 10
500.74181158028858
 20
855.70612861186646
 30
0.0
 11
500.74181158028858
 21
852.40112061186653
 31
0.0
  0
LINE
  5
C807
  8
0
 10
498.27483158028861
 20
859.4011206118663
 30
0.0
 11
483.20982958028861
 21
859.4011206118663
 31
0.0
  0
ARC
  5
C808
  8
0
 10
333.24181758028863
 20
715.40100961186624
 30
0.0
 40
6.5
 50
202.6198650000033
 51
337.3801349999967
  0
ARC
  5
C809
  8
0
 10
333.24181758028863
 20
715.40100961186624
 30
0.0
 40
11.0
 50
193.1365589999983
 51
346.86344099999542
  0
ARC
  5
C80A
  8
0
 10
333.24181758028863
 20
715.4009876118663
 30
0.0
 40
6.5
 50
22.619865000003291
 51
157.3801349999967
  0
ARC
  5
C80B
  8
0
 10
333.24181758028863
 20
715.4009876118663
 30
0.0
 40
11.0
 50
13.1365589999983
 51
166.86344100000159
  0
LINE
  5
C80C
  8
0
 10
317.74181758028863
 20
717.90098761186619
 30
0.0
 11
348.72336558028871
 21
717.90098761186619
 31
0.0
  0
LINE
  5
C80D
  8
0
 10
317.74181758028863
 20
712.90100961186647
 30
0.0
 11
348.72336558028871
 21
712.90100961186647
 31
0.0
  0
LINE
  5
C80E
  8
0
  6
AM_ISO08W050
 10
333.24181758028863
 20
701.14738261186619
 30
0.0
 11
333.24181758028863
 21
729.65461461186635
 31
0.0
  0
LINE
  5
C80F
  8
0
 10
236.6183685802886
 20
707.96662561186633
 30
0.0
 11
209.11946758028861
 21
606.22848361186641
 31
0.0
  0
ARC
  5
C810
  8
0
 10
242.4105185802886
 20
706.40105961186657
 30
0.0
 40
12.0
 50
90.0
 51
164.8748879999994
  0
ARC
  5
C811
  8
0
 10
242.4105185802886
 20
706.40105961186657
 30
0.0
 40
6.0
 50
90.0
 51
164.8748879999994
  0
LINE
  5
C812
  8
0
 10
317.24180658028871
 20
718.40099861186661
 30
0.0
 11
242.37224558028859
 21
718.40099861186661
 31
0.0
  0
LINE
  5
C813
  8
0
 10
317.74181758028863
 20
717.90098761186619
 30
0.0
 11
317.24180658028871
 21
718.40099861186661
 31
0.0
  0
LINE
  5
C814
  8
0
 10
317.24180658028871
 20
712.40099861186627
 30
0.0
 11
242.38345558028871
 21
712.40099861186627
 31
0.0
  0
LINE
  5
C815
  8
0
 10
317.74181758028863
 20
712.90100961186647
 30
0.0
 11
317.24180658028871
 21
712.40099861186627
 31
0.0
  0
LINE
  5
C816
  8
0
 10
230.82621758028861
 20
709.53219161186632
 30
0.0
 11
203.32731758028859
 21
607.79404961186651
 31
0.0
  0
LINE
  5
C817
  8
0
 10
201.3391335802886
 20
608.78721861186659
 30
0.0
 11
200.68190658028871
 21
608.3310896118661
 31
0.0
  0
LINE
  5
C818
  8
0
 10
200.68190658028871
 20
608.3310896118661
 30
0.0
 11
203.10156858028861
 21
604.84465361186653
 31
0.0
  0
LINE
  5
C819
  8
0
 10
201.3391335802886
 20
608.78721861186659
 30
0.0
 11
203.75879458028859
 21
605.30078261186645
 31
0.0
  0
ARC
  5
C81A
  8
0
 10
206.22339258028859
 20
607.01126661186652
 30
0.0
 40
3.799999999999998
 50
216.32635399999859
 51
22.738533999998019
  0
ARC
  5
C81B
  8
0
 10
206.22339258028859
 20
607.01126661186652
 30
0.0
 40
3.0
 50
164.8748879999994
 51
344.87488799999937
  0
ARC
  5
C81C
  8
0
 10
207.4947475802887
 20
607.26849161186658
 30
0.0
 40
6.0
 50
14.500403999999291
 51
56.120364000000599
  0
LINE
  5
C81D
  8
0
 10
351.22337658028857
 20
718.40099861186661
 30
0.0
 11
351.22337658028857
 21
712.40099861186627
 31
0.0
  0
LINE
  5
C81E
  8
0
 10
349.22337658028869
 20
718.40099861186661
 30
0.0
 11
351.22337658028857
 21
718.40099861186661
 31
0.0
  0
LINE
  5
C81F
  8
0
 10
349.22337658028869
 20
712.40099861186627
 30
0.0
 11
351.22337658028857
 21
712.40099861186627
 31
0.0
  0
LINE
  5
C820
  8
0
 10
348.72336558028871
 20
717.90098761186619
 30
0.0
 11
349.22337658028869
 21
718.40099861186661
 31
0.0
  0
LINE
  5
C821
  8
0
 10
348.72336558028871
 20
712.90100961186647
 30
0.0
 11
349.22337658028869
 21
712.40099861186627
 31
0.0
  0
LINE
  5
D6B3
  8
0
  6
CONTINUOUS
 10
728.2418075802882
 20
1455.195425059479
 30
0.0
 11
691.74180758028797
 21
1455.195425059479
 31
0.0
  0
LINE
  5
D6B4
  8
0
  6
CONTINUOUS
 10
691.74180758028797
 20
1185.1954250594799
 30
0.0
 11
728.2418075802882
 21
1185.1954250594799
 31
0.0
  0
LINE
  5
D6B5
  8
0
  6
CONTINUOUS
 10
681.7418075802882
 20
1445.195425059479
 30
0.0
 11
681.7418075802882
 21
1195.1954250594799
 31
0.0
  0
LINE
  5
D6B6
  8
0
  6
CONTINUOUS
 10
735.2418075802882
 20
1472.62622505948
 30
0.0
 11
768.42120758028796
 21
1472.62622505948
 31
0.0
  0
LINE
  5
D6B7
  8
0
  6
AM_ISO08W050
 10
1049.949097580288
 20
1320.195425059479
 30
0.0
 11
181.6695438250656
 21
1320.195425059479
 31
0.0
  0
LINE
  5
D6B8
  8
0
  6
CONTINUOUS
 10
885.4429275802878
 20
1180.34929505948
 30
0.0
 11
921.0258775802879
 21
1180.3438650594801
 31
0.0
  0
LINE
  5
D6B9
  8
0
  6
CONTINUOUS
 10
885.4429275802878
 20
1460.0416250594801
 30
0.0
 11
921.02581758028839
 21
1460.0471250594801
 31
0.0
  0
LINE
  5
D6BA
  8
0
  6
CONTINUOUS
 10
960.24181758028794
 20
1310.195425059479
 30
0.0
 11
1045.2418175802879
 21
1310.195425059479
 31
0.0
  0
LINE
  5
D6BB
  8
0
  6
CONTINUOUS
 10
960.24181758028794
 20
1330.195425059479
 30
0.0
 11
960.24181758028794
 21
1310.195425059479
 31
0.0
  0
LINE
  5
D6BC
  8
0
  6
CONTINUOUS
 10
1045.2418175802879
 20
1330.195425059479
 30
0.0
 11
960.24181758028794
 21
1330.195425059479
 31
0.0
  0
LINE
  5
D6BD
  8
0
  6
CENTER
 10
726.2418075802882
 20
1341.754425059481
 30
0.0
 11
726.2418075802882
 21
1298.9670250594791
 31
0.0
  0
LINE
  5
D6BE
  8
0
  6
CONTINUOUS
 10
702.49180758028911
 20
1313.9454250594799
 30
0.0
 11
749.99181758028794
 21
1313.9454250594799
 31
0.0
  0
LINE
  5
D6BF
  8
0
  6
CONTINUOUS
 10
702.49180758028911
 20
1326.4454250594799
 30
0.0
 11
749.99181758028794
 21
1326.4454250594799
 31
0.0
  0
LINE
  5
D6C0
  8
0
  6
CENTER
 10
778.24181758028794
 20
1306.553225059479
 30
0.0
 11
778.24181758028794
 21
1333.37982505948
 31
0.0
  0
LINE
  5
D6C1
  8
0
  6
CONTINUOUS
 10
781.12859758028765
 20
1325.1954250594781
 30
0.0
 11
775.35509758028843
 21
1325.1954250594781
 31
0.0
  0
LINE
  5
D6C2
  8
0
  6
CONTINUOUS
 10
784.01531758028818
 20
1320.1955250594799
 30
0.0
 11
781.12859758028765
 21
1325.1954250594781
 31
0.0
  0
LINE
  5
D6C3
  8
0
  6
CONTINUOUS
 10
781.12853758028825
 20
1315.1954250594781
 30
0.0
 11
784.01531758028818
 21
1320.195425059479
 31
0.0
  0
LINE
  5
D6C4
  8
0
  6
CONTINUOUS
 10
775.35509758028843
 20
1315.1954250594781
 30
0.0
 11
781.12859758028765
 21
1315.1954250594781
 31
0.0
  0
LINE
  5
D6C5
  8
0
  6
CONTINUOUS
 10
772.46838758028775
 20
1320.195425059479
 30
0.0
 11
775.35509758028843
 21
1315.195525059479
 31
0.0
  0
LINE
  5
D6C6
  8
0
  6
CONTINUOUS
 10
775.35509758028843
 20
1325.1954250594781
 30
0.0
 11
772.46831758028873
 21
1320.195425059479
 31
0.0
  0
LINE
  5
D6C7
  8
0
  6
CONTINUOUS
 10
748.24181758028794
 20
1300.195425059479
 30
0.0
 11
778.24181758028794
 21
1300.195425059479
 31
0.0
  0
LINE
  5
D6C8
  8
0
  6
CONTINUOUS
 10
748.24181758028794
 20
1340.195425059479
 30
0.0
 11
778.24181758028794
 21
1340.195425059479
 31
0.0
  0
LINE
  5
D6C9
  8
0
  6
CONTINUOUS
 10
935.24181758028794
 20
1357.6954250594799
 30
0.0
 11
935.24181758028794
 21
1282.6954250594799
 31
0.0
  0
LINE
  5
D6CA
  8
0
  6
CONTINUOUS
 10
1045.2418175802879
 20
1285.1954250594799
 30
0.0
 11
935.24181758028794
 21
1285.1954250594799
 31
0.0
  0
LINE
  5
D6CB
  8
0
  6
CONTINUOUS
 10
1045.2418175802879
 20
1355.1954250594781
 30
0.0
 11
1045.2418175802879
 21
1285.1954250594799
 31
0.0
  0
LINE
  5
D6CC
  8
0
  6
CONTINUOUS
 10
935.24181758028794
 20
1355.1954250594781
 30
0.0
 11
1045.2418175802879
 21
1355.1954250594781
 31
0.0
  0
LINE
  5
D6CD
  8
0
  6
CONTINUOUS
 10
928.24181758028794
 20
1357.6954250594799
 30
0.0
 11
935.24181758028794
 21
1357.6954250594799
 31
0.0
  0
LINE
  5
D6CE
  8
0
  6
CONTINUOUS
 10
928.24181758028794
 20
1282.6954250594799
 30
0.0
 11
935.24181758028794
 21
1282.6954250594799
 31
0.0
  0
LINE
  5
D6CF
  8
0
  6
CONTINUOUS
 10
928.24181758028794
 20
1380.1954250594799
 30
0.0
 11
924.24181758028794
 21
1384.1954250594799
 31
0.0
  0
LINE
  5
D6D0
  8
0
  6
CONTINUOUS
 10
928.24181758028794
 20
1320.195425059479
 30
0.0
 11
928.24181758028794
 21
1380.1954250594799
 31
0.0
  0
LINE
  5
D6D1
  8
0
  6
CONTINUOUS
 10
773.24181758028794
 20
1466.86182505948
 30
0.0
 11
773.24181758028794
 21
1405.195425059479
 31
0.0
  0
LINE
  5
D6D2
  8
0
  6
CONTINUOUS
 10
916.24181758028794
 20
1397.68432505948
 30
0.0
 11
905.19695758028797
 21
1397.68432505948
 31
0.0
  0
LINE
  5
D6D3
  8
0
  6
CONTINUOUS
 10
903.24181758028794
 20
1320.195425059479
 30
0.0
 11
903.24181758028794
 21
1435.8894250594799
 31
0.0
  0
LINE
  5
D6D4
  8
0
  6
CONTINUOUS
 10
924.24181758028794
 20
1320.195425059479
 30
0.0
 11
924.24181758028794
 21
1460.0416250594801
 31
0.0
  0
LINE
  5
D6D5
  8
0
  6
CONTINUOUS
 10
878.24181758028794
 20
1456.2618250594801
 30
0.0
 11
878.24181758028794
 21
1320.195425059479
 31
0.0
  0
LINE
  5
D6D6
  8
0
  6
CONTINUOUS
 10
748.24181758028794
 20
1487.1954250594799
 30
0.0
 11
748.24181758028794
 21
1326.4454250594799
 31
0.0
  0
LINE
  5
D6D7
  8
0
  6
CONTINUOUS
 10
732.2418075802882
 20
1405.195425059479
 30
0.0
 11
802.25017758028775
 21
1405.195425059479
 31
0.0
  0
LINE
  5
D6D8
  8
0
  6
CONTINUOUS
 10
804.03814758028807
 20
1404.60452505948
 30
0.0
 11
822.96709758028874
 21
1390.55562505948
 31
0.0
  0
LINE
  5
D6D9
  8
0
  6
CONTINUOUS
 10
823.01415758028838
 20
1385.773225059479
 30
0.0
 11
804.05230758028767
 21
1371.113025059479
 31
0.0
  0
LINE
  5
D6DA
  8
0
  6
CONTINUOUS
 10
802.21734758028845
 20
1370.4864250594801
 30
0.0
 11
773.24181758028794
 21
1370.4864250594801
 31
0.0
  0
LINE
  5
D6DB
  8
0
  6
CONTINUOUS
 10
773.24187758028825
 20
1370.4864250594801
 30
0.0
 11
770.24187758028825
 21
1376.883325059478
 31
0.0
  0
LINE
  5
D6DC
  8
0
  6
CONTINUOUS
 10
770.24181758028794
 20
1376.88342505948
 30
0.0
 11
732.2418075802882
 21
1376.88342505948
 31
0.0
  0
LINE
  5
D6DD
  8
0
  6
CONTINUOUS
 10
773.24181758028794
 20
1370.4864250594801
 30
0.0
 11
773.24181758028794
 21
1340.195425059479
 31
0.0
  0
LINE
  5
D6DE
  8
0
  6
CONTINUOUS
 10
803.24181758028794
 20
1487.1954250594799
 30
0.0
 11
819.44915758028776
 21
1470.9881250594799
 31
0.0
  0
LINE
  5
D6DF
  8
0
  6
CONTINUOUS
 10
735.2418075802882
 20
1487.1954250594799
 30
0.0
 11
803.24181758028794
 21
1487.1954250594799
 31
0.0
  0
LINE
  5
D6E0
  8
0
  6
CONTINUOUS
 10
822.08337758028779
 20
1469.821325059479
 30
0.0
 11
872.16973758028814
 21
1467.386625059479
 31
0.0
  0
LINE
  5
D6E1
  8
0
  6
CONTINUOUS
 10
882.58587758028807
 20
1462.838625059479
 30
0.0
 11
898.43481758028815
 21
1447.322525059478
 31
0.0
  0
LINE
  5
D6E2
  8
0
  6
CONTINUOUS
 10
909.75872758028777
 20
1436.1954250594799
 30
0.0
 11
916.24181758028794
 21
1436.1954250594799
 31
0.0
  0
LINE
  5
D6E3
  8
0
  6
CONTINUOUS
 10
774.9622175802881
 20
1466.7782250594801
 30
0.0
 11
818.38500758028874
 21
1464.667425059479
 31
0.0
  0
LINE
  5
D6E4
  8
0
  6
CONTINUOUS
 10
771.08233758028871
 20
1471.01112505948
 30
0.0
 11
772.44665758028827
 21
1468.38972505948
 31
0.0
  0
LINE
  5
D6E5
  8
0
  6
CONTINUOUS
 10
731.21340758028794
 20
1456.5178250594799
 30
0.0
 11
632.09900758028823
 21
1460.05762505948
 31
0.0
  0
LINE
  5
D6E6
  8
0
  6
CONTINUOUS
 10
628.24180758028899
 20
1464.0551250594781
 30
0.0
 11
628.24180758028899
 21
1541.1954250594799
 31
0.0
  0
LINE
  5
D6E7
  8
0
  6
CONTINUOUS
 10
632.2418075802882
 20
1545.1954250594799
 30
0.0
 11
924.24181758028794
 21
1545.1954250594799
 31
0.0
  0
LINE
  5
D6E8
  8
0
  6
CONTINUOUS
 10
928.24181758028794
 20
1541.1954250594799
 30
0.0
 11
928.24181758028794
 21
1464.0445250594801
 31
0.0
  0
LINE
  5
D6E9
  8
0
  6
CONTINUOUS
 10
924.39556758028834
 20
1460.0476250594791
 30
0.0
 11
924.24181758028794
 21
1460.0416250594801
 31
0.0
  0
LINE
  5
D6EA
  8
0
  6
CENTER
 10
646.24180758029001
 20
1500.195425059479
 30
0.0
 11
680.2418075802882
 21
1500.195425059479
 31
0.0
  0
LINE
  5
D6EB
  8
0
  6
CENTER
 10
663.24180758028911
 20
1517.1954250594799
 30
0.0
 11
663.24180758028911
 21
1483.195425059479
 31
0.0
  0
LINE
  5
D6EC
  8
0
  6
CENTER
 10
893.24181758028794
 20
1517.1954250594799
 30
0.0
 11
893.24181758028794
 21
1483.195425059479
 31
0.0
  0
LINE
  5
D6ED
  8
0
  6
CENTER
 10
876.24181758028794
 20
1500.195425059479
 30
0.0
 11
910.24181758028794
 21
1500.195425059479
 31
0.0
  0
LINE
  5
D6EE
  8
0
  6
CONTINUOUS
 10
732.2418075802882
 20
1292.266925059479
 30
0.0
 11
732.2418075802882
 21
1156.1954250594799
 31
0.0
  0
LINE
  5
D6EF
  8
0
  6
CONTINUOUS
 10
735.2418075802882
 20
1167.7646950594799
 30
0.0
 11
768.42120758028796
 21
1167.7646950594799
 31
0.0
  0
LINE
  5
D6F0
  8
0
  6
CENTER
 10
876.24181758028794
 20
1140.1954250594799
 30
0.0
 11
910.24181758028794
 21
1140.1954250594799
 31
0.0
  0
LINE
  5
D6F1
  8
0
  6
CENTER
 10
893.24181758028794
 20
1123.1954250594799
 30
0.0
 11
893.24181758028794
 21
1157.1954250594799
 31
0.0
  0
LINE
  5
D6F2
  8
0
  6
CENTER
 10
663.24180758028911
 20
1123.1954250594799
 30
0.0
 11
663.24180758028911
 21
1157.1954250594799
 31
0.0
  0
LINE
  5
D6F3
  8
0
  6
CENTER
 10
646.24180758029001
 20
1140.1954250594799
 30
0.0
 11
680.2418075802882
 21
1140.1954250594799
 31
0.0
  0
LINE
  5
D6F4
  8
0
  6
CONTINUOUS
 10
924.39556758028834
 20
1180.34337505948
 30
0.0
 11
924.24187758028825
 21
1180.34929505948
 31
0.0
  0
LINE
  5
D6F5
  8
0
  6
CONTINUOUS
 10
928.24181758028794
 20
1099.1954250594799
 30
0.0
 11
928.24181758028794
 21
1176.3463650594799
 31
0.0
  0
LINE
  5
D6F6
  8
0
  6
CONTINUOUS
 10
632.2418075802882
 20
1095.1954250594799
 30
0.0
 11
924.24181758028794
 21
1095.1954250594799
 31
0.0
  0
LINE
  5
D6F7
  8
0
  6
CONTINUOUS
 10
628.24180758028899
 20
1176.3357450594799
 30
0.0
 11
628.24180758028899
 21
1099.1954250594799
 31
0.0
  0
LINE
  5
D6F8
  8
0
  6
CONTINUOUS
 10
731.21340758028794
 20
1183.87297505948
 30
0.0
 11
632.09900758028823
 21
1180.33318505948
 31
0.0
  0
LINE
  5
D6F9
  8
0
  6
CONTINUOUS
 10
771.08233758028871
 20
1169.37975505948
 30
0.0
 11
772.44665758028827
 21
1172.00121505948
 31
0.0
  0
LINE
  5
D6FA
  8
0
  6
CONTINUOUS
 10
773.24181758028794
 20
1269.90442505948
 30
0.0
 11
773.24181758028794
 21
1300.195425059479
 31
0.0
  0
LINE
  5
D6FB
  8
0
  6
CONTINUOUS
 10
770.24181758028794
 20
1263.50755505948
 30
0.0
 11
732.2418075802882
 21
1263.50755505948
 31
0.0
  0
LINE
  5
D6FC
  8
0
  6
CONTINUOUS
 10
773.24181758028794
 20
1269.90442505948
 30
0.0
 11
770.24181758028794
 21
1263.50755505948
 31
0.0
  0
LINE
  5
D6FD
  8
0
  6
CONTINUOUS
 10
802.21734758028845
 20
1269.90442505948
 30
0.0
 11
773.24181758028794
 21
1269.90442505948
 31
0.0
  0
LINE
  5
D6FE
  8
0
  6
CONTINUOUS
 10
823.01415758028838
 20
1254.6177250594801
 30
0.0
 11
804.05230758028767
 21
1269.2779250594799
 31
0.0
  0
LINE
  5
D6FF
  8
0
  6
CONTINUOUS
 10
804.03814758028807
 20
1235.7864250594801
 30
0.0
 11
822.96715758028779
 21
1249.83525505948
 31
0.0
  0
LINE
  5
D700
  8
0
  6
CONTINUOUS
 10
732.2418075802882
 20
1235.1954250594799
 30
0.0
 11
802.25017758028775
 21
1235.1954250594799
 31
0.0
  0
LINE
  5
D701
  8
0
  6
CONTINUOUS
 10
748.24181758028794
 20
1153.1954250594799
 30
0.0
 11
748.24181758028794
 21
1313.9454250594799
 31
0.0
  0
LINE
  5
D702
  8
0
  6
CONTINUOUS
 10
878.24181758028794
 20
1184.1290750594801
 30
0.0
 11
878.24181758028794
 21
1320.195425059479
 31
0.0
  0
LINE
  5
D703
  8
0
  6
CONTINUOUS
 10
924.24181758028794
 20
1320.195425059479
 30
0.0
 11
924.24181758028794
 21
1180.34929505948
 31
0.0
  0
LINE
  5
D704
  8
0
  6
CONTINUOUS
 10
903.24181758028794
 20
1320.195425059479
 30
0.0
 11
903.24181758028794
 21
1204.5014550594799
 31
0.0
  0
LINE
  5
D705
  8
0
  6
CONTINUOUS
 10
916.24181758028794
 20
1242.70665505948
 30
0.0
 11
905.19695758028797
 21
1242.70665505948
 31
0.0
  0
LINE
  5
D706
  8
0
  6
CONTINUOUS
 10
774.9622175802881
 20
1173.6126650594799
 30
0.0
 11
818.38500758028874
 21
1175.7234350594799
 31
0.0
  0
LINE
  5
D707
  8
0
  6
CONTINUOUS
 10
773.24181758028794
 20
1173.52904505948
 30
0.0
 11
773.24181758028794
 21
1235.1954250594799
 31
0.0
  0
LINE
  5
D708
  8
0
  6
CONTINUOUS
 10
928.24181758028794
 20
1320.195425059479
 30
0.0
 11
928.24181758028794
 21
1260.1954250594799
 31
0.0
  0
LINE
  5
D709
  8
0
  6
CONTINUOUS
 10
928.24181758028794
 20
1260.19548505948
 30
0.0
 11
924.24181758028794
 21
1256.19548505948
 31
0.0
  0
LINE
  5
D70A
  8
0
  6
CONTINUOUS
 10
909.75872758028777
 20
1204.1954250594799
 30
0.0
 11
916.24181758028794
 21
1204.1954250594799
 31
0.0
  0
LINE
  5
D70B
  8
0
  6
CONTINUOUS
 10
882.5859375802886
 20
1177.5522350594799
 30
0.0
 11
898.43487758028823
 21
1193.0682850594801
 31
0.0
  0
LINE
  5
D70C
  8
0
  6
CONTINUOUS
 10
822.08337758028779
 20
1170.5695650594801
 30
0.0
 11
872.16973758028814
 21
1173.0042650594801
 31
0.0
  0
LINE
  5
D70D
  8
0
  6
CONTINUOUS
 10
735.2418075802882
 20
1153.1954250594799
 30
0.0
 11
803.24181758028794
 21
1153.1954250594799
 31
0.0
  0
LINE
  5
D70E
  8
0
  6
CONTINUOUS
 10
803.24181758028794
 20
1153.19548505948
 30
0.0
 11
819.44915758028776
 21
1169.4027650594801
 31
0.0
  0
LINE
  5
D70F
  8
0
  6
CONTINUOUS
 10
732.2418075802882
 20
1484.1954250594799
 30
0.0
 11
732.2418075802882
 21
1348.123925059479
 31
0.0
  0
LINE
  5
D710
  8
0
  6
CONTINUOUS
 10
636.74180758028888
 20
1229.1124750594799
 30
0.0
 11
681.7418075802882
 21
1229.1124750594799
 31
0.0
  0
LINE
  5
D711
  8
0
  6
CONTINUOUS
 10
636.74180758028888
 20
1248.3630250594811
 30
0.0
 11
681.7418075802882
 21
1248.3630250594811
 31
0.0
  0
LINE
  5
D712
  8
0
  6
CONTINUOUS
 10
623.74180758028979
 20
1220.46825505948
 30
0.0
 11
634.74180758028911
 21
1220.46825505948
 31
0.0
  0
LINE
  5
D713
  8
0
  6
CONTINUOUS
 10
623.74180758028979
 20
1236.0245850594799
 30
0.0
 11
634.74180758028911
 21
1236.0245850594799
 31
0.0
  0
LINE
  5
D714
  8
0
  6
CONTINUOUS
 10
624.72070758028815
 20
1245.758475059481
 30
0.0
 11
635.7496075802876
 21
1245.758475059481
 31
0.0
  0
LINE
  5
D715
  8
0
  6
CONTINUOUS
 10
636.74180758028888
 20
1392.0278250594779
 30
0.0
 11
681.7418075802882
 21
1392.0278250594779
 31
0.0
  0
LINE
  5
D716
  8
0
  6
CONTINUOUS
 10
636.74180758028888
 20
1411.27842505948
 30
0.0
 11
681.7418075802882
 21
1411.27842505948
 31
0.0
  0
LINE
  5
D717
  8
0
  6
CONTINUOUS
 10
624.72070758028815
 20
1394.6324250594801
 30
0.0
 11
635.7496075802876
 21
1394.6324250594801
 31
0.0
  0
LINE
  5
D718
  8
0
  6
CONTINUOUS
 10
623.74180758028979
 20
1404.36632505948
 30
0.0
 11
634.74180758028911
 21
1404.36632505948
 31
0.0
  0
LINE
  5
D719
  8
0
  6
CONTINUOUS
 10
623.74180758028979
 20
1419.9227250594799
 30
0.0
 11
634.74180758028911
 21
1419.9227250594799
 31
0.0
  0
LINE
  5
D71A
  8
0
  6
CONTINUOUS
 10
624.24187758028768
 20
1202.1954250594799
 30
0.0
 11
635.7418075802882
 21
1202.1954250594799
 31
0.0
  0
LINE
  5
D71B
  8
0
  6
CONTINUOUS
 10
636.74180758028888
 20
1203.1954250594799
 30
0.0
 11
636.74180758028888
 21
1320.195425059479
 31
0.0
  0
LINE
  5
D71C
  8
0
  6
CONTINUOUS
 10
637.25060758028781
 20
1204.18657505948
 30
0.0
 11
677.81160758028841
 21
1203.4785650594799
 31
0.0
  0
LINE
  5
D71D
  8
0
  6
CONTINUOUS
 10
637.25060758028781
 20
1436.2043250594791
 30
0.0
 11
676.82910758028822
 21
1436.8951250594801
 31
0.0
  0
LINE
  5
D71E
  8
0
  6
CONTINUOUS
 10
636.74180758028888
 20
1437.195425059479
 30
0.0
 11
636.74180758028888
 21
1320.195425059479
 31
0.0
  0
LINE
  5
D71F
  8
0
  6
CONTINUOUS
 10
624.2418175802876
 20
1438.1954250594799
 30
0.0
 11
635.7418075802882
 21
1438.1954250594799
 31
0.0
  0
LINE
  5
D720
  8
0
  6
CONTINUOUS
 10
623.24181758028863
 20
1203.19548505948
 30
0.0
 11
624.24187758028768
 21
1202.1954250594799
 31
0.0
  0
LINE
  5
D721
  8
0
  6
CONTINUOUS
 10
623.24181758028863
 20
1437.195425059479
 30
0.0
 11
624.2418175802876
 21
1438.1954250594799
 31
0.0
  0
LINE
  5
D722
  8
0
  6
CONTINUOUS
 10
694.97840758028838
 20
1112.49626505948
 30
0.0
 11
749.97832758028869
 21
1122.1942050594801
 31
0.0
  0
LINE
  5
D723
  8
0
  6
CONTINUOUS
 10
758.24187758028825
 20
1523.57992505948
 30
0.0
 11
758.24187758028825
 21
1487.1954250594799
 31
0.0
  0
LINE
  5
D724
  8
0
  6
CONTINUOUS
 10
849.07305758028804
 20
1166.36552505948
 30
0.0
 11
858.58630758028812
 21
1103.6946350594801
 31
0.0
  0
LINE
  5
D725
  8
0
  6
CONTINUOUS
 10
684.10360758028878
 20
1545.0435250594801
 30
0.0
 11
749.97832758028869
 21
1533.42812505948
 31
0.0
  0
LINE
  5
D726
  8
0
  6
CONTINUOUS
 10
849.07305758028804
 20
1474.025225059479
 30
0.0
 11
858.58623758028818
 21
1536.69612505948
 31
0.0
  0
LINE
  5
D727
  8
0
  6
CONTINUOUS
 10
684.10350758028824
 20
1095.3473450594799
 30
0.0
 11
749.97832758028869
 21
1106.9628150594799
 31
0.0
  0
LINE
  5
D728
  8
0
  6
CONTINUOUS
 10
694.97840758028838
 20
1527.894625059479
 30
0.0
 11
749.97832758028869
 21
1518.1966250594801
 31
0.0
  0
LINE
  5
D729
  8
0
  6
CONTINUOUS
 10
758.24187758028825
 20
1116.8109050594801
 30
0.0
 11
758.24187758028825
 21
1153.1954250594799
 31
0.0
  0
ARC
  5
D72A
  8
0
  6
CONTINUOUS
 10
728.2418075802882
 20
1181.1954250594799
 30
0.0
 40
4.0
 50
0.0
 51
90.000002999984659
  0
ARC
  5
D72B
  8
0
  6
CONTINUOUS
 10
728.2418075802882
 20
1459.195425059479
 30
0.0
 40
4.0
 50
270.0
 51
0.0
  0
ARC
  5
D72C
  8
0
  6
CONTINUOUS
 10
691.74180758028797
 20
1445.195425059479
 30
0.0
 40
10.0
 50
90.000002999984659
 51
180.000010000001
  0
ARC
  5
D72D
  8
0
  6
CONTINUOUS
 10
691.74180758028797
 20
1195.1954250594799
 30
0.0
 40
10.0
 50
179.999989999999
 51
270.0
  0
ARC
  5
D72E
  8
0
  6
CONTINUOUS
 10
735.2418075802882
 20
1469.62622505948
 30
0.0
 40
3.0
 50
90.000002999984659
 51
180.000010000001
  0
ARC
  5
D72F
  8
0
  6
CONTINUOUS
 10
960.24181758028794
 20
1320.195425059479
 30
0.0
 40
10.0
 50
90.000002999984659
 51
270.0
  0
ARC
  5
D730
  8
0
  6
CONTINUOUS
 10
726.2418075802882
 20
1320.195425059479
 30
0.0
 40
20.0
 50
18.209957000012679
 51
161.7900400000137
  0
ARC
  5
D731
  8
0
  6
CONTINUOUS
 10
726.2418075802882
 20
1320.195425059479
 30
0.0
 40
15.0
 50
24.62431799999154
 51
155.37568000000249
  0
ARC
  5
D732
  8
0
  6
CONTINUOUS
 10
749.99181758028794
 20
1320.195425059479
 30
0.0
 40
6.25
 50
270.0
 51
90.000002999984659
  0
ARC
  5
D733
  8
0
  6
CONTINUOUS
 10
702.49180758028911
 20
1320.195425059479
 30
0.0
 40
6.25
 50
90.000002999984659
 51
270.0
  0
ARC
  5
D734
  8
0
  6
CONTINUOUS
 10
726.2418075802882
 20
1320.195425059479
 30
0.0
 40
15.0
 50
204.6243199999974
 51
335.37568000000249
  0
CIRCLE
  5
D735
  8
0
  6
CONTINUOUS
 10
778.24181758028794
 20
1320.195425059479
 30
0.0
 40
10.0
  0
ARC
  5
D736
  8
0
  6
CONTINUOUS
 10
778.24181758028794
 20
1320.195425059479
 30
0.0
 40
20.0
 50
270.0
 51
90.000002999984659
  0
ARC
  5
D737
  8
0
  6
CONTINUOUS
 10
726.2418075802882
 20
1320.195425059479
 30
0.0
 40
20.0
 50
198.20995999998621
 51
341.79004000001368
  0
ARC
  5
D738
  8
0
  6
CONTINUOUS
 10
724.24180758028808
 20
1292.266925059479
 30
0.0
 40
8.0
 50
0.0
 51
85.903959000006125
  0
ARC
  5
D739
  8
0
  6
CONTINUOUS
 10
724.24180758028808
 20
1348.123925059479
 30
0.0
 40
8.0
 50
274.09603999999803
 51
0.0
  0
ARC
  5
D73A
  8
0
  6
CONTINUOUS
 10
916.24181758028794
 20
1389.68432505948
 30
0.0
 40
8.0
 50
46.018788999984423
 51
90.000002999984659
  0
ARC
  5
D73B
  8
0
  6
CONTINUOUS
 10
916.24181758028794
 20
1428.1954250594799
 30
0.0
 40
8.0
 50
0.0
 51
90.000002999984659
  0
ARC
  5
D73C
  8
0
  6
CONTINUOUS
 10
802.21734758028845
 20
1373.4864250594801
 30
0.0
 40
3.0
 50
270.0
 51
307.70904999998851
  0
ARC
  5
D73D
  8
0
  6
CONTINUOUS
 10
821.17919758028813
 20
1388.1466250594799
 30
0.0
 40
3.0
 50
307.70904999998851
 51
53.41768999996745
  0
ARC
  5
D73E
  8
0
  6
CONTINUOUS
 10
802.25017758028775
 20
1402.1954250594799
 30
0.0
 40
3.0
 50
53.41768999996745
 51
90.000002999984659
  0
ARC
  5
D73F
  8
0
  6
CONTINUOUS
 10
871.39287758028797
 20
1451.4055250594799
 30
0.0
 40
16.0
 50
45.60807300001796
 51
87.217069000028545
  0
ARC
  5
D740
  8
0
  6
CONTINUOUS
 10
887.24181758028794
 20
1435.8894250594799
 30
0.0
 40
16.0
 50
0.0
 51
45.60807300001796
  0
ARC
  5
D741
  8
0
  6
CONTINUOUS
 10
909.75872758028777
 20
1444.1954250594799
 30
0.0
 40
8.0
 50
200.2479800000184
 51
270.0
  0
ARC
  5
D742
  8
0
  6
CONTINUOUS
 10
768.42120758028796
 20
1469.62622505948
 30
0.0
 40
3.0
 50
27.49429000000799
 51
90.000002999984659
  0
ARC
  5
D743
  8
0
  6
CONTINUOUS
 10
775.10784758028808
 20
1469.7746250594801
 30
0.0
 40
3.0
 50
207.49429000000799
 51
267.21707000000441
  0
CIRCLE
  5
D744
  8
0
  6
CONTINUOUS
 10
663.24180758028911
 20
1500.195425059479
 30
0.0
 40
12.0
  0
CIRCLE
  5
D745
  8
0
  6
CONTINUOUS
 10
893.24181758028794
 20
1500.195425059479
 30
0.0
 40
12.0
  0
ARC
  5
D746
  8
0
  6
CONTINUOUS
 10
632.2418075802882
 20
1541.1954250594799
 30
0.0
 40
4.0
 50
90.000002999984659
 51
180.000010000001
  0
ARC
  5
D747
  8
0
  6
CONTINUOUS
 10
632.2418075802882
 20
1464.0551250594781
 30
0.0
 40
4.0
 50
179.999989999999
 51
267.95459999998599
  0
ARC
  5
D748
  8
0
  6
CONTINUOUS
 10
924.24181758028794
 20
1464.0445250594801
 30
0.0
 40
4.0
 50
272.2026000000082
 51
0.0
  0
ARC
  5
D749
  8
0
  6
CONTINUOUS
 10
924.24181758028794
 20
1541.1954250594799
 30
0.0
 40
4.0
 50
0.0
 51
90.000002999984659
  0
ARC
  5
D74A
  8
0
  6
CONTINUOUS
 10
822.27758758028835
 20
1473.81652505948
 30
0.0
 40
4.0
 50
224.99999999999079
 51
267.21707000000441
  0
ARC
  5
D74B
  8
0
  6
CONTINUOUS
 10
735.2418075802882
 20
1484.1954250594799
 30
0.0
 40
3.0
 50
90.000002999984659
 51
180.000010000001
  0
ARC
  5
D74C
  8
0
  6
CONTINUOUS
 10
735.2418075802882
 20
1170.7646950594799
 30
0.0
 40
3.0
 50
179.999989999999
 51
270.0
  0
ARC
  5
D74D
  8
0
  6
CONTINUOUS
 10
735.2418075802882
 20
1156.1954250594799
 30
0.0
 40
3.0
 50
179.999989999999
 51
270.0
  0
ARC
  5
D74E
  8
0
  6
CONTINUOUS
 10
822.27758758028835
 20
1166.5743350594801
 30
0.0
 40
4.0
 50
92.782928999967808
 51
135.00000000000921
  0
ARC
  5
D74F
  8
0
  6
CONTINUOUS
 10
924.24181758028794
 20
1099.1954250594799
 30
0.0
 40
4.0
 50
270.0
 51
0.0
  0
ARC
  5
D750
  8
0
  6
CONTINUOUS
 10
924.24181758028794
 20
1176.3463650594799
 30
0.0
 40
4.0
 50
0.0
 51
87.797403000004067
  0
ARC
  5
D751
  8
0
  6
CONTINUOUS
 10
632.2418075802882
 20
1099.1954250594799
 30
0.0
 40
4.0
 50
179.999989999999
 51
270.0
  0
CIRCLE
  5
D752
  8
0
  6
CONTINUOUS
 10
893.24181758028794
 20
1140.1954250594799
 30
0.0
 40
12.0
  0
CIRCLE
  5
D753
  8
0
  6
CONTINUOUS
 10
663.24180758028911
 20
1140.1954250594799
 30
0.0
 40
12.0
  0
ARC
  5
D754
  8
0
  6
CONTINUOUS
 10
775.10784758028808
 20
1170.6162050594801
 30
0.0
 40
3.0
 50
92.782928999967808
 51
152.50570999999201
  0
ARC
  5
D755
  8
0
  6
CONTINUOUS
 10
768.42120758028796
 20
1170.7646950594799
 30
0.0
 40
3.0
 50
270.0
 51
332.50570999999201
  0
ARC
  5
D756
  8
0
  6
CONTINUOUS
 10
802.25017758028775
 20
1238.1954250594799
 30
0.0
 40
3.0
 50
270.0
 51
306.58231000003258
  0
ARC
  5
D757
  8
0
  6
CONTINUOUS
 10
821.17919758028813
 20
1252.24431505948
 30
0.0
 40
3.0
 50
306.58231000003258
 51
52.290951999976151
  0
ARC
  5
D758
  8
0
  6
CONTINUOUS
 10
802.21734758028845
 20
1266.9044250594791
 30
0.0
 40
3.0
 50
52.290951999976151
 51
90.000002999984659
  0
ARC
  5
D759
  8
0
  6
CONTINUOUS
 10
909.75872758028777
 20
1196.1954250594799
 30
0.0
 40
8.0
 50
90.000002999984659
 51
159.75201999998151
  0
ARC
  5
D75A
  8
0
  6
CONTINUOUS
 10
916.24181758028794
 20
1212.1954250594799
 30
0.0
 40
8.0
 50
270.0
 51
0.0
  0
ARC
  5
D75B
  8
0
  6
CONTINUOUS
 10
916.24181758028794
 20
1250.70665505948
 30
0.0
 40
8.0
 50
270.0
 51
313.98120999998258
  0
ARC
  5
D75C
  8
0
  6
CONTINUOUS
 10
887.24181758028794
 20
1204.5014550594799
 30
0.0
 40
16.0
 50
314.39192999997817
 51
0.0
  0
ARC
  5
D75D
  8
0
  6
CONTINUOUS
 10
871.39287758028797
 20
1188.9854050594799
 30
0.0
 40
16.0
 50
272.7829299999957
 51
314.39192999997817
  0
ARC
  5
D75E
  8
0
  6
CONTINUOUS
 10
632.2418075802882
 20
1176.3357450594799
 30
0.0
 40
4.0
 50
92.045404999995156
 51
180.000010000001
  0
ARC
  5
D75F
  8
0
  6
CONTINUOUS
 10
634.74180758028911
 20
1222.46825505948
 30
0.0
 40
2.0
 50
270.0
 51
0.0
  0
ARC
  5
D760
  8
0
  6
CONTINUOUS
 10
634.74180758028911
 20
1238.0245850594799
 30
0.0
 40
2.0
 50
270.0
 51
0.0
  0
ARC
  5
D761
  8
0
  6
CONTINUOUS
 10
634.74180758028911
 20
1402.36632505948
 30
0.0
 40
2.0
 50
0.0
 51
90.000002999984659
  0
ARC
  5
D762
  8
0
  6
CONTINUOUS
 10
634.74180758028911
 20
1417.9227250594799
 30
0.0
 40
2.0
 50
0.0
 51
90.000002999984659
  0
ARC
  5
D763
  8
0
  6
CONTINUOUS
 10
635.7418075802882
 20
1203.1954250594799
 30
0.0
 40
1.0
 50
270.0
 51
0.0
  0
ARC
  5
D764
  8
0
  6
CONTINUOUS
 10
637.24180758028876
 20
1203.686635059481
 30
0.0
 40
0.5
 50
89.000001000015246
 51
180.000010000001
  0
ARC
  5
D765
  8
0
  6
CONTINUOUS
 10
637.24180758028876
 20
1436.70422505948
 30
0.0
 40
0.5
 50
179.999989999999
 51
270.99999999997573
  0
ARC
  5
D766
  8
0
  6
CONTINUOUS
 10
635.7418075802882
 20
1437.195425059479
 30
0.0
 40
1.0
 50
0.0
 51
90.000002999984659
  0
ARC
  5
D767
  8
0
  6
CONTINUOUS
 10
676.74180758028911
 20
1441.89442505948
 30
0.0
 40
5.0
 50
270.99999999997573
 51
0.0
  0
ARC
  5
D768
  8
0
  6
CONTINUOUS
 10
677.7418075802882
 20
1199.47917505948
 30
0.0
 40
4.0
 50
0.0
 51
89.000001000015246
  0
ARC
  5
D769
  8
0
  6
CONTINUOUS
 10
868.47301758028811
 20
1535.1954250594799
 30
0.0
 40
10.0
 50
90.000002999984659
 51
171.3686100000038
  0
ARC
  5
D76A
  8
0
  6
CONTINUOUS
 10
693.24190758028931
 20
1518.04652505948
 30
0.0
 40
10.0
 50
79.999998000001099
 51
180.000010000001
  0
ARC
  5
D76B
  8
0
  6
CONTINUOUS
 10
748.24187758028825
 20
1116.8109050594801
 30
0.0
 40
10.0
 50
280.00000000000608
 51
0.0
  0
ARC
  5
D76C
  8
0
  6
CONTINUOUS
 10
854.01641758028848
 20
1473.27492505948
 30
0.0
 40
5.0
 50
171.3686100000038
 51
267.21708000002212
  0
ARC
  5
D76D
  8
0
  6
CONTINUOUS
 10
682.3671075802888
 20
1535.1954250594799
 30
0.0
 40
10.0
 50
79.999998000001099
 51
90.000002999984659
  0
ARC
  5
D76E
  8
0
  6
CONTINUOUS
 10
854.01641758028848
 20
1167.11589505948
 30
0.0
 40
5.0
 50
92.782928999967808
 51
188.6313799999881
  0
ARC
  5
D76F
  8
0
  6
CONTINUOUS
 10
748.24187758028825
 20
1523.57992505948
 30
0.0
 40
10.0
 50
0.0
 51
79.999998000001099
  0
ARC
  5
D770
  8
0
  6
CONTINUOUS
 10
693.24190758028931
 20
1122.34435505948
 30
0.0
 40
10.0
 50
179.999989999999
 51
280.00000000000608
  0
ARC
  5
D771
  8
0
  6
CONTINUOUS
 10
748.24187758028825
 20
1508.3485250594799
 30
0.0
 40
10.0
 50
0.0
 51
79.999998000001099
  0
ARC
  5
D772
  8
0
  6
CONTINUOUS
 10
682.3671075802888
 20
1105.1954250594799
 30
0.0
 40
10.0
 50
270.0
 51
280.00000000000608
  0
ARC
  5
D773
  8
0
  6
CONTINUOUS
 10
868.47301758028811
 20
1105.1954250594799
 30
0.0
 40
10.0
 50
188.6313899999962
 51
270.0
  0
ARC
  5
D774
  8
0
  6
CONTINUOUS
 10
748.24187758028825
 20
1132.0423450594801
 30
0.0
 40
10.0
 50
280.00000000000608
 51
0.0
  0
LINE
  5
D775
  8
0
 10
623.24181758028863
 20
1435.1954380594791
 30
0.0
 11
623.24181758028863
 21
1205.195425059479
 31
0.0
  0
ARC
  5
D776
  8
0
  6
CONTINUOUS
 10
619.24181758028874
 20
1202.0313200594801
 30
0.0
 40
2.0
 50
299.99999800001649
 51
0.0
  0
LINE
  5
D777
  8
0
  6
CONTINUOUS
 10
620.24181858028908
 20
1200.2992940594791
 30
0.0
 11
614.90210458028844
 21
1197.2164080594789
 31
0.0
  0
ARC
  5
D778
  8
0
  6
CONTINUOUS
 10
609.90209558028903
 20
1205.8766570594789
 30
0.0
 40
10.0
 50
269.99999700001541
 51
299.99999800001649
  0
LINE
  5
D779
  8
0
  6
CONTINUOUS
 10
538.80003258028876
 20
1195.8766570594789
 30
0.0
 11
609.90209558028903
 21
1195.8766570594789
 31
0.0
  0
LINE
  5
D77A
  8
0
  6
CONTINUOUS
 10
623.24179658028891
 20
1435.1954380594791
 30
0.0
 11
621.24187858028858
 21
1435.209438059479
 31
0.0
  0
LINE
  5
D77B
  8
0
  6
CONTINUOUS
 10
621.24187858028858
 20
1443.265372059479
 30
0.0
 11
605.04711558028885
 21
1453.195425059479
 31
0.0
  0
LINE
  5
D77C
  8
0
  6
CONTINUOUS
 10
386.2418175802888
 20
1453.195425059479
 30
0.0
 11
605.04699358028859
 21
1453.195425059479
 31
0.0
  0
LINE
  5
D77D
  8
0
  6
CENTER
 10
490.7418175802888
 20
1178.583655059479
 30
0.0
 11
490.7418175802888
 21
1193.0286870594789
 31
0.0
  0
LINE
  5
D77E
  8
0
  6
CONTINUOUS
 10
623.24179658028891
 20
1205.1954120594789
 30
0.0
 11
616.29158358028883
 21
1205.146760059479
 31
0.0
  0
ARC
  5
D77F
  8
0
  6
CONTINUOUS
 10
609.90209558028903
 20
1202.195425059479
 30
0.0
 40
10.0
 50
269.99999700001541
 51
299.99999800001649
  0
ARC
  5
D780
  8
0
  6
CONTINUOUS
 10
622.74181758028863
 20
1203.6918850594791
 30
0.0
 40
1.5
 50
90.401064000021776
 51
180.0000050000005
  0
ARC
  5
D781
  8
0
  6
CONTINUOUS
 10
619.24181758028874
 20
1198.350088059479
 30
0.0
 40
2.0
 50
299.99999800001649
 51
0.0
  0
LINE
  5
D782
  8
0
  6
CONTINUOUS
 10
620.24181858028908
 20
1196.6180620594789
 30
0.0
 11
614.90210458028844
 21
1193.535176059479
 31
0.0
  0
LINE
  5
D783
  8
0
  6
CONTINUOUS
 10
621.24181758028874
 20
1198.350088059479
 30
0.0
 11
621.24181758028874
 21
1203.6918850594791
 31
0.0
  0
LINE
  5
D784
  8
0
  6
CONTINUOUS
 10
537.81359458028885
 20
1192.195425059479
 30
0.0
 11
609.90209558028903
 21
1192.195425059479
 31
0.0
  0
LINE
  5
D785
  8
0
  6
CONTINUOUS
 10
536.74185158028843
 20
1188.195423059479
 30
0.0
 11
539.51979658028915
 21
1198.562855059479
 31
0.0
  0
ARC
  5
D786
  8
0
  6
CONTINUOUS
 10
440.96612158028898
 20
1190.695425059479
 30
0.0
 40
3.0
 50
14.999999999994451
 51
90.000002999984659
  0
ARC
  5
D787
  8
0
  6
CONTINUOUS
 10
394.5001185802887
 20
1198.695425059479
 30
0.0
 40
5.0
 50
239.99999700002189
 51
269.99999700001541
  0
LINE
  5
D788
  8
0
  6
CONTINUOUS
 10
444.74180658028848
 20
1188.1954730594789
 30
0.0
 11
443.86388458028898
 21
1191.471921059479
 31
0.0
  0
LINE
  5
D789
  8
0
  6
CONTINUOUS
 10
394.5001185802887
 20
1193.695425059479
 30
0.0
 11
440.96612158028898
 21
1193.695425059479
 31
0.0
  0
LINE
  5
D78A
  8
0
  6
CONTINUOUS
 10
384.72978458028882
 20
1198.562855059479
 30
0.0
 11
392.00015958028922
 21
1194.3653020594791
 31
0.0
  0
LINE
  5
D78B
  8
0
  6
CONTINUOUS
 10
350.24181758028891
 20
1204.012836059479
 30
0.0
 11
350.24181758028891
 21
1183.195316059479
 31
0.0
  0
LINE
  5
D78C
  8
0
  6
CONTINUOUS
 10
350.24181758028891
 20
1204.012836059479
 30
0.0
 11
386.2418175802888
 21
1204.012836059479
 31
0.0
  0
LINE
  5
D78D
  8
0
  6
CONTINUOUS
 10
351.2418175802888
 20
1173.1953150594791
 30
0.0
 11
351.2418175802888
 21
1179.1955260594791
 31
0.0
  0
LINE
  5
D78E
  8
0
  6
CONTINUOUS
 10
511.2418175802888
 20
1320.195427059479
 30
0.0
 11
621.24187858028858
 21
1320.195427059479
 31
0.0
  0
LINE
  5
D78F
  8
0
  6
CONTINUOUS
 10
609.20330458028923
 20
1250.6065600594791
 30
0.0
 11
623.24181758028863
 21
1250.6065600594791
 31
0.0
  0
LINE
  5
D790
  8
0
  6
CONTINUOUS
 10
621.24187858028858
 20
1220.9932780594791
 30
0.0
 11
605.04711558028885
 21
1218.154899059479
 31
0.0
  0
LINE
  5
D791
  8
0
  6
CONTINUOUS
 10
605.04717658028846
 20
1234.713981059479
 30
0.0
 11
621.24187858028858
 21
1237.745231059479
 31
0.0
  0
LINE
  5
D792
  8
0
  6
CONTINUOUS
 10
621.24187858028858
 20
1254.4940110594789
 30
0.0
 11
605.04711558028885
 21
1249.264519059479
 31
0.0
  0
LINE
  5
D793
  8
0
  6
CONTINUOUS
 10
621.24187858028858
 20
1270.4290690594789
 30
0.0
 11
605.04711558028885
 21
1267.4230880594789
 31
0.0
  0
LINE
  5
D794
  8
0
  6
CONTINUOUS
 10
621.24187858028858
 20
1285.802360059479
 30
0.0
 11
605.04711558028885
 21
1284.0725020594789
 31
0.0
  0
LINE
  5
D795
  8
0
  6
CONTINUOUS
 10
621.24187858028858
 20
1303.0162280594791
 30
0.0
 11
605.04711558028885
 21
1301.7850260594789
 31
0.0
  0
LINE
  5
D796
  8
0
  6
CONTINUOUS
 10
609.20330458028923
 20
1389.7842940594801
 30
0.0
 11
623.24181758028863
 21
1389.7842940594801
 31
0.0
  0
LINE
  5
D797
  8
0
  6
CONTINUOUS
 10
621.24187858028858
 20
1337.3746260594789
 30
0.0
 11
605.04711558028885
 21
1338.605827059479
 31
0.0
  0
LINE
  5
D798
  8
0
  6
CONTINUOUS
 10
621.24187858028858
 20
1354.5884930594791
 30
0.0
 11
605.04711558028885
 21
1356.3183520594789
 31
0.0
  0
LINE
  5
D799
  8
0
  6
CONTINUOUS
 10
621.24187858028858
 20
1369.961784059479
 30
0.0
 11
605.04711558028885
 21
1372.9677660594789
 31
0.0
  0
LINE
  5
D79A
  8
0
  6
CONTINUOUS
 10
621.24187858028858
 20
1385.89684305948
 30
0.0
 11
605.04711558028885
 21
1391.1263350594791
 31
0.0
  0
LINE
  5
D79B
  8
0
  6
CONTINUOUS
 10
605.04717658028846
 20
1405.6768720594789
 30
0.0
 11
621.24187858028858
 21
1402.6456220594789
 31
0.0
  0
LINE
  5
D79C
  8
0
  6
CONTINUOUS
 10
621.24187858028858
 20
1419.3975750594791
 30
0.0
 11
605.04711558028885
 21
1422.2359540594789
 31
0.0
  0
LINE
  5
D79D
  8
0
  6
CONTINUOUS
 10
621.24187858028858
 20
1424.233513059479
 30
0.0
 11
605.04711558028885
 21
1433.085563059479
 31
0.0
  0
LINE
  5
D79E
  8
0
  6
CONTINUOUS
 10
621.24187858028858
 20
1432.345573059479
 30
0.0
 11
605.04711558028885
 21
1441.827995059479
 31
0.0
  0
LINE
  5
D79F
  8
0
  6
CONTINUOUS
 10
621.24187858028858
 20
1438.3997720594789
 30
0.0
 11
605.04711558028885
 21
1448.040764059479
 31
0.0
  0
LINE
  5
D7A0
  8
0
  6
CONTINUOUS
 10
621.24187858028858
 20
1441.971062059479
 30
0.0
 11
605.04711558028885
 21
1451.901115059479
 31
0.0
  0
LINE
  5
D7A1
  8
0
  6
CONTINUOUS
 10
386.2418175802888
 20
1451.901115059479
 30
0.0
 11
605.04699358028859
 21
1451.901115059479
 31
0.0
  0
LINE
  5
D7A2
  8
0
  6
CONTINUOUS
 10
386.2418175802888
 20
1448.040764059479
 30
0.0
 11
605.04711558028885
 21
1448.040764059479
 31
0.0
  0
LINE
  5
D7A3
  8
0
  6
CONTINUOUS
 10
386.2418175802888
 20
1441.827995059479
 30
0.0
 11
605.04717658028846
 21
1441.827995059479
 31
0.0
  0
LINE
  5
D7A4
  8
0
  6
CONTINUOUS
 10
386.24175658028918
 20
1433.085563059479
 30
0.0
 11
605.04717658028846
 21
1433.085563059479
 31
0.0
  0
LINE
  5
D7A5
  8
0
  6
CONTINUOUS
 10
386.2418175802888
 20
1422.2357040594791
 30
0.0
 11
605.04662758028826
 21
1422.2359540594789
 31
0.0
  0
LINE
  5
D7A6
  8
0
  6
CONTINUOUS
 10
386.2418175802888
 20
1405.6768720594789
 30
0.0
 11
605.04687158028923
 21
1405.6768720594789
 31
0.0
  0
LINE
  5
D7A7
  8
0
  6
CONTINUOUS
 10
386.2418175802888
 20
1391.1263350594791
 30
0.0
 11
605.04717658028846
 21
1391.1263350594791
 31
0.0
  0
LINE
  5
D7A8
  8
0
  6
CONTINUOUS
 10
386.2418175802888
 20
1372.967644059479
 30
0.0
 11
605.04729858028895
 21
1372.967644059479
 31
0.0
  0
LINE
  5
D7A9
  8
0
  6
CONTINUOUS
 10
386.2418175802888
 20
1356.319157059479
 30
0.0
 11
605.04705458028923
 21
1356.3183520594789
 31
0.0
  0
LINE
  5
D7AA
  8
0
  6
CONTINUOUS
 10
386.2418175802888
 20
1338.605827059479
 30
0.0
 11
605.04778658028863
 21
1338.605827059479
 31
0.0
  0
LINE
  5
D7AB
  8
0
  6
CONTINUOUS
 10
386.2418175802888
 20
1320.195427059479
 30
0.0
 11
470.2418175802888
 21
1320.195427059479
 31
0.0
  0
LINE
  5
D7AC
  8
0
  6
CONTINUOUS
 10
386.2418175802888
 20
1204.012836059479
 30
0.0
 11
386.2418175802888
 21
1457.1955490594789
 31
0.0
  0
LINE
  5
D7AD
  8
0
  6
CONTINUOUS
 10
206.2418175802888
 20
1222.823407059479
 30
0.0
 11
206.2418175802888
 21
1420.8209150594789
 31
0.0
  0
LINE
  5
D7AE
  8
0
  6
CONTINUOUS
 10
283.24181758028891
 20
1457.1953050594791
 30
0.0
 11
386.2418175802888
 21
1457.1955100594789
 31
0.0
  0
LINE
  5
D7AF
  8
0
  6
CONTINUOUS
 10
283.24181758028891
 20
1183.1952750594789
 30
0.0
 11
283.24181758028891
 21
1457.1953050594791
 31
0.0
  0
LINE
  5
D7B0
  8
0
  6
CONTINUOUS
 10
212.2418175802888
 20
1221.2070680594791
 30
0.0
 11
212.2418175802888
 21
1418.9510420594791
 31
0.0
  0
ARC
  5
D7B1
  8
0
  6
CONTINUOUS
 10
280.65247358028881
 20
1454.7789570594789
 30
0.0
 40
0.6
 50
273.00006100002201
 51
0.0
  0
ARC
  5
D7B2
  8
0
  6
CONTINUOUS
 10
282.84191558028868
 20
1454.595451059479
 30
0.0
 40
1.6000000000000001
 50
75.526100000002202
 51
180.0
  0
LINE
  5
D7B3
  8
0
  6
CONTINUOUS
 10
280.67321458028908
 20
1454.1655200594789
 30
0.0
 11
224.6712935802891
 21
1451.2306660594791
 31
0.0
  0
LINE
  5
D7B4
  8
0
  6
CONTINUOUS
 10
213.30358558028851
 20
1426.8255540594789
 30
0.0
 11
218.2606005802883
 21
1445.9929180594791
 31
0.0
  0
LINE
  5
D7B5
  8
0
  6
CONTINUOUS
 10
224.47008958028911
 20
1440.7420580594789
 30
0.0
 11
224.47008958028911
 21
1200.4333450594791
 31
0.0
  0
LINE
  5
D7B6
  8
0
  6
CONTINUOUS
 10
205.4415245802887
 20
1238.6951830594789
 30
0.0
 11
206.24157358028901
 21
1238.6951830594789
 31
0.0
  0
LINE
  5
D7B7
  8
0
  6
CONTINUOUS
 10
206.24157358028901
 20
1219.5696940594789
 30
0.0
 11
206.24157358028901
 21
1238.6951830594789
 31
0.0
  0
LINE
  5
D7B8
  8
0
  6
CONTINUOUS
 10
205.4415245802887
 20
1401.695427059479
 30
0.0
 11
205.4415245802887
 21
1238.6951830594789
 31
0.0
  0
ARC
  5
D7B9
  8
0
  6
CONTINUOUS
 10
207.49474758028941
 20
1428.327995059479
 30
0.0
 40
6.0
 50
271.88500999997711
 51
345.50021400000162
  0
ARC
  5
D7BA
  8
0
  6
CONTINUOUS
 10
207.7418175802888
 20
1420.8209150594789
 30
0.0
 40
1.5
 50
91.884964000020602
 51
180.0
  0
LINE
  5
D7BB
  8
0
  6
CONTINUOUS
 10
283.24181758028891
 20
1183.1952750594789
 30
0.0
 11
350.24181758028891
 21
1183.1953070594791
 31
0.0
  0
LINE
  5
D7BC
  8
0
  6
CONTINUOUS
 10
234.74207458028849
 20
1467.1953480594791
 30
0.0
 11
231.99641158028879
 21
1466.639722059479
 31
0.0
  0
LINE
  5
D7BD
  8
0
  6
CONTINUOUS
 10
231.99641158028879
 20
1466.639722059479
 30
0.0
 11
229.27189958028899
 21
1464.9772280594791
 31
0.0
  0
LINE
  5
D7BE
  8
0
  6
CONTINUOUS
 10
229.27189958028899
 20
1464.9772280594791
 30
0.0
 11
226.58901758028901
 21
1462.2204660594789
 31
0.0
  0
LINE
  5
D7BF
  8
0
  6
CONTINUOUS
 10
226.58901758028901
 20
1462.2204660594789
 30
0.0
 11
223.9681835802887
 21
1458.3904180594791
 31
0.0
  0
LINE
  5
D7C0
  8
0
  6
CONTINUOUS
 10
223.9681835802887
 20
1458.3904180594791
 30
0.0
 11
221.4293425802891
 21
1453.516233059479
 31
0.0
  0
LINE
  5
D7C1
  8
0
  6
CONTINUOUS
 10
221.4293425802891
 20
1453.516233059479
 30
0.0
 11
219.161417580289
 21
1448.0442140594789
 31
0.0
  0
LINE
  5
D7C2
  8
0
  6
CONTINUOUS
 10
205.4415245802887
 20
1373.4874270594789
 30
0.0
 11
205.14149958028901
 21
1370.1302460594791
 31
0.0
  0
LINE
  5
D7C3
  8
0
  6
CONTINUOUS
 10
205.14149958028901
 20
1370.1302460594791
 30
0.0
 11
204.31515458028861
 21
1357.982885059479
 31
0.0
  0
LINE
  5
D7C4
  8
0
  6
CONTINUOUS
 10
204.31515458028861
 20
1357.982885059479
 30
0.0
 11
203.72037358028879
 21
1345.5479390594789
 31
0.0
  0
LINE
  5
D7C5
  8
0
  6
CONTINUOUS
 10
203.72037358028879
 20
1345.5479390594789
 30
0.0
 11
203.36168458028919
 21
1332.920043059479
 31
0.0
  0
LINE
  5
D7C6
  8
0
  6
CONTINUOUS
 10
203.36168458028919
 20
1332.920043059479
 30
0.0
 11
203.2418175802888
 21
1320.1953050594791
 31
0.0
  0
LINE
  5
D7C7
  8
0
  6
CONTINUOUS
 10
203.2418175802888
 20
1320.1953050594791
 30
0.0
 11
203.36168458028919
 21
1307.4705660594791
 31
0.0
  0
LINE
  5
D7C8
  8
0
  6
CONTINUOUS
 10
203.36168458028919
 20
1307.4705660594791
 30
0.0
 11
203.72037358028879
 21
1294.842671059479
 31
0.0
  0
LINE
  5
D7C9
  8
0
  6
CONTINUOUS
 10
203.72037358028879
 20
1294.842671059479
 30
0.0
 11
204.31515458028861
 21
1282.4077240594791
 31
0.0
  0
LINE
  5
D7CA
  8
0
  6
CONTINUOUS
 10
204.31515458028861
 20
1282.4077240594791
 30
0.0
 11
205.14149958028901
 21
1270.2603640594789
 31
0.0
  0
LINE
  5
D7CB
  8
0
  6
CONTINUOUS
 10
205.14149958028901
 20
1270.2603640594789
 30
0.0
 11
205.4415245802887
 21
1266.9031820594789
 31
0.0
  0
ARC
  5
D7CC
  8
0
  6
CONTINUOUS
 10
282.84191558028868
 20
1185.795158059479
 30
0.0
 40
1.6000000000000001
 50
180.0
 51
284.4738999999978
  0
LINE
  5
D7CD
  8
0
  6
CONTINUOUS
 10
280.67321458028908
 20
1186.225090059479
 30
0.0
 11
224.6712935802891
 21
1189.159943059479
 31
0.0
  0
ARC
  5
D7CE
  8
0
  6
CONTINUOUS
 10
280.64171958028902
 20
1185.625725059479
 30
0.0
 40
0.6
 50
0.0
 51
86.999938999978056
  0
LINE
  5
D7CF
  8
0
  6
CONTINUOUS
 10
213.30358558028851
 20
1213.565056059479
 30
0.0
 11
218.2606005802883
 21
1194.397691059479
 31
0.0
  0
ARC
  5
D7D0
  8
0
  6
CONTINUOUS
 10
207.49474758028941
 20
1212.0626140594791
 30
0.0
 40
6.0
 50
14.49978599999838
 51
88.114990000022914
  0
ARC
  5
D7D1
  8
0
  6
CONTINUOUS
 10
207.7418175802888
 20
1219.5696940594789
 30
0.0
 40
1.5
 50
180.0
 51
268.1150359999794
  0
LINE
  5
D7D2
  8
0
  6
CONTINUOUS
 10
351.2418175802888
 20
1467.1953240594789
 30
0.0
 11
351.2418175802888
 21
1461.1953240594789
 31
0.0
  0
LINE
  5
D7D3
  8
0
  6
CONTINUOUS
 10
339.2418175802888
 20
1461.1953300594801
 30
0.0
 11
351.2418175802888
 21
1461.1953240594789
 31
0.0
  0
LINE
  5
D7D4
  8
0
  6
CONTINUOUS
 10
339.24181658028851
 20
1467.1953300594789
 30
0.0
 11
351.2418175802888
 21
1467.1953240594789
 31
0.0
  0
LINE
  5
D7D5
  8
0
  6
CONTINUOUS
 10
339.2418175802888
 20
1467.1953050594791
 30
0.0
 11
339.2418175802888
 21
1457.1954160594789
 31
0.0
  0
LINE
  5
D7D6
  8
0
  6
CONTINUOUS
 10
327.24181758028891
 20
1467.195335059479
 30
0.0
 11
339.2418175802888
 21
1467.1953300594789
 31
0.0
  0
LINE
  5
D7D7
  8
0
  6
CONTINUOUS
 10
327.24181758028891
 20
1467.1953050594791
 30
0.0
 11
327.24181758028891
 21
1457.195392059479
 31
0.0
  0
LINE
  5
D7D8
  8
0
  6
CONTINUOUS
 10
235.34307658028891
 20
1461.195347059479
 30
0.0
 11
327.24181758028891
 21
1461.1953050594791
 31
0.0
  0
LINE
  5
D7D9
  8
0
  6
CONTINUOUS
 10
234.74181858028919
 20
1467.1953480594791
 30
0.0
 11
327.24181758028891
 21
1467.1953050594791
 31
0.0
  0
LINE
  5
D7DA
  8
0
  6
CONTINUOUS
 10
235.34307658028891
 20
1461.195347059479
 30
0.0
 11
234.22084658028891
 21
1460.9682470594789
 31
0.0
  0
LINE
  5
D7DB
  8
0
  6
CONTINUOUS
 10
234.22084658028891
 20
1460.9682470594789
 30
0.0
 11
233.04361958028881
 21
1460.249905059479
 31
0.0
  0
LINE
  5
D7DC
  8
0
  6
CONTINUOUS
 10
233.04361958028881
 20
1460.249905059479
 30
0.0
 11
231.24905758028871
 21
1458.405926059479
 31
0.0
  0
LINE
  5
D7DD
  8
0
  6
CONTINUOUS
 10
231.24905758028871
 20
1458.405926059479
 30
0.0
 11
229.1232215802886
 21
1455.299261059479
 31
0.0
  0
LINE
  5
D7DE
  8
0
  6
CONTINUOUS
 10
229.1232215802886
 20
1455.299261059479
 30
0.0
 11
227.06945558028869
 21
1451.3563450594791
 31
0.0
  0
LINE
  5
D7DF
  8
0
  6
CONTINUOUS
 10
200.72423958028881
 20
1315.6953050594791
 30
0.0
 11
200.72423958028881
 21
1324.6953050594791
 31
0.0
  0
LINE
  5
D7E0
  8
0
  6
CONTINUOUS
 10
200.72423958028881
 20
1324.6953050594791
 30
0.0
 11
203.28420758028929
 21
1324.6953050594791
 31
0.0
  0
LINE
  5
D7E1
  8
0
  6
CONTINUOUS
 10
200.72423958028881
 20
1315.6953050594791
 30
0.0
 11
203.28420758028929
 21
1315.6953050594791
 31
0.0
  0
LINE
  5
D7E2
  8
0
  6
CONTINUOUS
 10
386.2418175802888
 20
1234.713981059479
 30
0.0
 11
605.04687158028923
 21
1234.713981059479
 31
0.0
  0
LINE
  5
D7E3
  8
0
  6
CONTINUOUS
 10
386.2418175802888
 20
1249.264519059479
 30
0.0
 11
605.04717658028846
 21
1249.264519059479
 31
0.0
  0
LINE
  5
D7E4
  8
0
  6
CONTINUOUS
 10
386.2418175802888
 20
1267.4232100594791
 30
0.0
 11
605.04729858028895
 21
1267.4232100594791
 31
0.0
  0
LINE
  5
D7E5
  8
0
  6
CONTINUOUS
 10
386.2418175802888
 20
1284.071697059479
 30
0.0
 11
605.04705458028923
 21
1284.0725020594789
 31
0.0
  0
LINE
  5
D7E6
  8
0
  6
CONTINUOUS
 10
386.2418175802888
 20
1301.7850260594789
 30
0.0
 11
605.04778658028863
 21
1301.7850260594789
 31
0.0
  0
ARC
  5
D7E7
  8
0
  6
CONTINUOUS
 10
490.7418175802888
 20
1320.195372059479
 30
0.0
 40
11.5
 50
20.35443300000269
 51
159.64561999997611
  0
LINE
  5
D7E8
  8
0
  6
CONTINUOUS
 10
474.24181558028909
 20
1324.1953640594791
 30
0.0
 11
507.24181558028909
 21
1324.195380059479
 31
0.0
  0
LINE
  5
D7E9
  8
0
  6
CONTINUOUS
 10
474.24181958028828
 20
1316.1953640594791
 30
0.0
 11
507.24181958028839
 21
1316.195380059479
 31
0.0
  0
ARC
  5
D7EA
  8
0
  6
CONTINUOUS
 10
474.2418175802888
 20
1320.1953640594791
 30
0.0
 40
4.0
 50
90.000027000018335
 51
270.0
  0
ARC
  5
D7EB
  8
0
  6
CONTINUOUS
 10
507.2418175802888
 20
1320.195380059479
 30
0.0
 40
4.0
 50
270.0
 51
90.0
  0
ARC
  5
D7EC
  8
0
  6
CONTINUOUS
 10
490.7418175802888
 20
1320.195372059479
 30
0.0
 40
11.5
 50
200.3544330000027
 51
339.64561999997608
  0
LINE
  5
D7ED
  8
0
  6
CONTINUOUS
 10
205.4415245802887
 20
1401.695427059479
 30
0.0
 11
206.24157358028901
 21
1401.695427059479
 31
0.0
  0
ARC
  5
D7EE
  8
0
  6
CONTINUOUS
 10
225.03763458028899
 20
1444.2402590594791
 30
0.0
 40
7.0
 50
92.999915000003085
 51
165.50000500001161
  0
ARC
  5
D7EF
  8
0
  6
CONTINUOUS
 10
280.65247358028881
 20
1185.6116530594791
 30
0.0
 40
0.6
 50
0.0
 51
86.999938999978056
  0
LINE
  5
D7F0
  8
0
  6
CONTINUOUS
 10
234.74207458028849
 20
1173.1952620594791
 30
0.0
 11
231.99641158028879
 21
1173.7508880594789
 31
0.0
  0
LINE
  5
D7F1
  8
0
  6
CONTINUOUS
 10
231.99641158028879
 20
1173.7508880594789
 30
0.0
 11
229.27189958028899
 21
1175.4133820594791
 31
0.0
  0
LINE
  5
D7F2
  8
0
  6
CONTINUOUS
 10
229.27189958028899
 20
1175.4133820594791
 30
0.0
 11
226.58901758028901
 21
1178.170143059479
 31
0.0
  0
LINE
  5
D7F3
  8
0
  6
CONTINUOUS
 10
226.58901758028901
 20
1178.170143059479
 30
0.0
 11
223.9681835802887
 21
1182.000191059479
 31
0.0
  0
LINE
  5
D7F4
  8
0
  6
CONTINUOUS
 10
223.9681835802887
 20
1182.000191059479
 30
0.0
 11
221.4293425802891
 21
1186.874377059479
 31
0.0
  0
LINE
  5
D7F5
  8
0
  6
CONTINUOUS
 10
339.2418175802888
 20
1179.195280059479
 30
0.0
 11
351.2418175802888
 21
1179.1952850594789
 31
0.0
  0
LINE
  5
D7F6
  8
0
  6
CONTINUOUS
 10
339.2418175802888
 20
1173.195310059479
 30
0.0
 11
339.2418175802888
 21
1183.1951930594789
 31
0.0
  0
LINE
  5
D7F7
  8
0
  6
CONTINUOUS
 10
327.24181758028891
 20
1173.1953050594791
 30
0.0
 11
327.24181758028891
 21
1183.1952170594791
 31
0.0
  0
LINE
  5
D7F8
  8
0
  6
CONTINUOUS
 10
235.34307658028891
 20
1179.1952620594791
 30
0.0
 11
327.24181758028891
 21
1179.1953050594791
 31
0.0
  0
LINE
  5
D7F9
  8
0
  6
CONTINUOUS
 10
234.74181858028919
 20
1173.1952620594791
 30
0.0
 11
351.2418175802888
 21
1173.1953150594791
 31
0.0
  0
LINE
  5
D7FA
  8
0
  6
CONTINUOUS
 10
235.34307658028891
 20
1179.1952620594791
 30
0.0
 11
234.22084658028891
 21
1179.4223620594789
 31
0.0
  0
LINE
  5
D7FB
  8
0
  6
CONTINUOUS
 10
234.22084658028891
 20
1179.4223620594789
 30
0.0
 11
233.04361958028881
 21
1180.140704059479
 31
0.0
  0
LINE
  5
D7FC
  8
0
  6
CONTINUOUS
 10
233.04361958028881
 20
1180.140704059479
 30
0.0
 11
231.24905758028871
 21
1181.984683059479
 31
0.0
  0
LINE
  5
D7FD
  8
0
  6
CONTINUOUS
 10
231.24905758028871
 20
1181.984683059479
 30
0.0
 11
229.1232215802886
 21
1185.0913490594789
 31
0.0
  0
LINE
  5
D7FE
  8
0
  6
CONTINUOUS
 10
229.1232215802886
 20
1185.0913490594789
 30
0.0
 11
227.06945558028869
 21
1189.034264059479
 31
0.0
  0
LINE
  5
D7FF
  8
0
  6
CONTINUOUS
 10
221.4293425802891
 20
1186.874377059479
 30
0.0
 11
219.161417580289
 21
1192.3463950594789
 31
0.0
  0
ARC
  5
D800
  8
0
  6
CONTINUOUS
 10
225.03763458028899
 20
1196.1503510594789
 30
0.0
 40
7.0
 50
194.49999499998839
 51
267.00008499999689
  0
LINE
  5
D801
  8
0
  6
CONTINUOUS
 10
376.24200058028902
 20
1186.695425059479
 30
0.0
 11
536.74181758028885
 21
1186.695425059479
 31
0.0
  0
LINE
  5
D802
  8
0
  6
CONTINUOUS
 10
374.74200058028902
 20
1181.403136059479
 30
0.0
 11
536.74200058028885
 21
1181.403136059479
 31
0.0
  0
LINE
  5
D803
  8
0
  6
CONTINUOUS
 10
374.74200058028902
 20
1174.9135270594791
 30
0.0
 11
536.74200058028885
 21
1174.9135270594791
 31
0.0
  0
LINE
  5
D804
  8
0
  6
CONTINUOUS
 10
375.24200058028902
 20
1168.8345500594789
 30
0.0
 11
536.24200058028885
 21
1168.8345500594789
 31
0.0
  0
LINE
  5
D805
  8
0
  6
CONTINUOUS
 10
375.24200058028902
 20
1121.6464220594789
 30
0.0
 11
535.24200058028896
 21
1121.6464220594789
 31
0.0
  0
LINE
  5
D806
  8
0
  6
CONTINUOUS
 10
374.74200058028902
 20
1119.898010059479
 30
0.0
 11
536.74200058028885
 21
1119.898010059479
 31
0.0
  0
LINE
  5
D807
  8
0
  6
CONTINUOUS
 10
549.24200058028885
 20
1132.398010059479
 30
0.0
 11
549.24200058028885
 21
1138.071568059479
 31
0.0
  0
LINE
  5
D808
  8
0
  6
CONTINUOUS
 10
552.24200058028896
 20
1149.1419340594789
 30
0.0
 11
557.75135458028865
 21
1149.1419340594789
 31
0.0
  0
LINE
  5
D809
  8
0
  6
CONTINUOUS
 10
552.22593658028836
 20
1141.071525059479
 30
0.0
 11
557.75135458028865
 21
1141.071525059479
 31
0.0
  0
ARC
  5
D80A
  8
0
  6
CONTINUOUS
 10
549.99667758028875
 20
1145.1067300594791
 30
0.0
 40
8.7417320000000007
 50
332.50944499999451
 51
27.490555000005479
  0
LINE
  5
D80B
  8
0
  6
CONTINUOUS
 10
542.24200058028885
 20
1128.6464220594789
 30
0.0
 11
542.24200058028885
 21
1162.8345500594789
 31
0.0
  0
ARC
  5
D80C
  8
0
  6
CONTINUOUS
 10
552.24200058028896
 20
1152.1419340594789
 30
0.0
 40
3.0
 50
180.0
 51
270.0
  0
ARC
  5
D80D
  8
0
  6
CONTINUOUS
 10
536.74200058028885
 20
1168.903136059479
 30
0.0
 40
12.5
 50
0.0
 51
90.0
  0
ARC
  5
D80E
  8
0
  6
CONTINUOUS
 10
536.74200058028885
 20
1162.4135270594791
 30
0.0
 40
12.5
 50
0.0
 51
90.0
  0
ARC
  5
D80F
  8
0
  6
CONTINUOUS
 10
536.24200058028885
 20
1162.8345500594789
 30
0.0
 40
6.0
 50
0.0
 51
90.0
  0
ARC
  5
D810
  8
0
  6
CONTINUOUS
 10
536.74200058028885
 20
1132.398010059479
 30
0.0
 40
12.5
 50
270.0
 51
0.0
  0
ARC
  5
D811
  8
0
  6
CONTINUOUS
 10
552.24200058028896
 20
1138.071568059479
 30
0.0
 40
3.0
 50
90.0
 51
180.0
  0
LINE
  5
D812
  8
0
  6
CONTINUOUS
 10
549.24200058028885
 20
1152.1419340594789
 30
0.0
 11
549.24200058028885
 21
1168.903136059479
 31
0.0
  0
LINE
  5
D813
  8
0
  6
CENTER
 10
548.74200058028885
 20
1142.576690059479
 30
0.0
 11
548.74200058028885
 21
1147.9734950594791
 31
0.0
  0
LINE
  5
D814
  8
0
  6
CENTER
 10
546.01786558028834
 20
1145.1067510594789
 30
0.0
 11
552.08927058028905
 21
1145.1067510594789
 31
0.0
  0
ARC
  5
D815
  8
0
  6
CONTINUOUS
 10
374.74200058028902
 20
1132.398010059479
 30
0.0
 40
12.5
 50
180.0
 51
270.0
  0
ARC
  5
D816
  8
0
  6
CONTINUOUS
 10
361.48732358028923
 20
1145.1067300594791
 30
0.0
 40
8.7417320000000007
 50
152.50944499999451
 51
207.49055500000549
  0
ARC
  5
D817
  8
0
  6
CONTINUOUS
 10
374.74200058028902
 20
1162.4135270594791
 30
0.0
 40
12.5
 50
90.0
 51
180.0
  0
ARC
  5
D818
  8
0
  6
CONTINUOUS
 10
374.74200058028902
 20
1168.903136059479
 30
0.0
 40
12.5
 50
90.0
 51
180.0
  0
ARC
  5
D819
  8
0
  6
CONTINUOUS
 10
375.24200058028902
 20
1162.8345500594789
 30
0.0
 40
6.0
 50
90.0
 51
180.0
  0
LINE
  5
D81A
  8
0
  6
CONTINUOUS
 10
362.24200058028902
 20
1152.1419340594789
 30
0.0
 11
362.24200058028902
 21
1168.903136059479
 31
0.0
  0
LINE
  5
D81B
  8
0
  6
CENTER
 10
362.74200058028902
 20
1142.576690059479
 30
0.0
 11
362.74200058028902
 21
1147.9734950594791
 31
0.0
  0
LINE
  5
D81C
  8
0
  6
CENTER
 10
365.46613558028838
 20
1145.1067510594789
 30
0.0
 11
359.39473058028869
 21
1145.1067510594789
 31
0.0
  0
ARC
  5
D81D
  8
0
  6
CONTINUOUS
 10
359.2420005802889
 20
1152.1419340594789
 30
0.0
 40
3.0
 50
270.0
 51
0.0
  0
LINE
  5
D81E
  8
0
  6
CONTINUOUS
 10
359.2420005802889
 20
1149.1419340594789
 30
0.0
 11
353.73264758028853
 21
1149.1419340594789
 31
0.0
  0
LINE
  5
D81F
  8
0
  6
CONTINUOUS
 10
359.2580655802887
 20
1141.071525059479
 30
0.0
 11
353.73264758028853
 21
1141.071525059479
 31
0.0
  0
ARC
  5
D820
  8
0
  6
CONTINUOUS
 10
359.2420005802889
 20
1138.071568059479
 30
0.0
 40
3.0
 50
0.0
 51
90.0
  0
LINE
  5
D821
  8
0
  6
CONTINUOUS
 10
362.24200058028902
 20
1132.398010059479
 30
0.0
 11
362.24200058028902
 21
1138.071568059479
 31
0.0
  0
LINE
  5
D822
  8
0
  6
CONTINUOUS
 10
369.2420005802889
 20
1127.6464220594789
 30
0.0
 11
369.2420005802889
 21
1162.8345500594789
 31
0.0
  0
ARC
  5
D823
  8
0
  6
CONTINUOUS
 10
552.24200058028896
 20
1158.6319560594791
 30
0.0
 40
3.0
 50
180.0
 51
270.0
  0
LINE
  5
D824
  8
0
  6
CONTINUOUS
 10
552.24200058028896
 20
1155.6319560594791
 30
0.0
 11
557.75135458028865
 21
1155.6319560594791
 31
0.0
  0
ARC
  5
D825
  8
0
  6
CONTINUOUS
 10
549.99667758028875
 20
1151.5967510594789
 30
0.0
 40
8.7417320000000007
 50
355.3020720000041
 51
27.490555000005479
  0
LINE
  5
D826
  8
0
  6
CONTINUOUS
 10
558.7090405802885
 20
1144.3907600594789
 30
0.0
 11
558.7090405802885
 21
1152.3127210594789
 31
0.0
  0
LINE
  5
D827
  8
0
  6
CONTINUOUS
 10
359.2420005802889
 20
1155.6319560594791
 30
0.0
 11
353.73264758028853
 21
1155.6319560594791
 31
0.0
  0
ARC
  5
D828
  8
0
  6
CONTINUOUS
 10
361.48732358028923
 20
1151.5967510594789
 30
0.0
 40
8.7417320000000007
 50
152.50944499999451
 51
184.69792799999581
  0
LINE
  5
D829
  8
0
  6
CONTINUOUS
 10
352.77496058028851
 20
1144.3907600594789
 30
0.0
 11
352.77496058028851
 21
1152.3127210594789
 31
0.0
  0
ARC
  5
D82A
  8
0
  6
CONTINUOUS
 10
359.2420005802889
 20
1158.6319560594791
 30
0.0
 40
3.0
 50
270.0
 51
0.0
  0
ARC
  5
D82B
  8
0
  6
CONTINUOUS
 10
535.24200058028896
 20
1179.695425059479
 30
0.0
 40
7.0
 50
3.5992130000033842
 51
90.0
  0
ARC
  5
D82C
  8
0
  6
CONTINUOUS
 10
535.24200058028896
 20
1128.6464220594789
 30
0.0
 40
7.0
 50
270.0
 51
0.0
  0
ARC
  5
D82D
  8
0
  6
CONTINUOUS
 10
376.24200058028902
 20
1179.695425059479
 30
0.0
 40
7.0
 50
90.0
 51
176.4007869999966
  0
ARC
  5
D82E
  8
0
  6
CONTINUOUS
 10
376.24200058028902
 20
1128.6464220594789
 30
0.0
 40
7.0
 50
180.0
 51
270.0
  0
LINE
  5
D82F
  8
0
  6
CONTINUOUS
 10
386.2418175802888
 20
1218.1551490594791
 30
0.0
 11
605.04711558028885
 21
1218.154899059479
 31
0.0
  0
LINE
  5
D830
  8
0
  6
CONTINUOUS
 10
536.74181758028885
 20
1188.1954400594791
 30
0.0
 11
536.74181758028885
 21
1186.695425059479
 31
0.0
  0
LINE
  5
D831
  8
0
  6
CONTINUOUS
 10
444.7418175802888
 20
1188.1954400594791
 30
0.0
 11
444.7418175802888
 21
1186.695425059479
 31
0.0
  0
LINE
  5
D832
  8
0
  6
CONTINUOUS
 10
621.24187858028858
 20
1419.3975750594791
 30
0.0
 11
621.24187858028858
 21
1443.265372059479
 31
0.0
  0
LINE
  5
D833
  8
0
  6
CONTINUOUS
 10
621.24200058028885
 20
1402.6453780594791
 30
0.0
 11
623.24181758028863
 21
1402.6453780594791
 31
0.0
  0
LINE
  5
D834
  8
0
  6
CONTINUOUS
 10
621.24187858028858
 20
1366.6483080594789
 30
0.0
 11
621.24193958028786
 21
1369.961784059479
 31
0.0
  0
LINE
  5
D835
  8
0
  6
CONTINUOUS
 10
621.24193958028786
 20
1381.3893960594801
 30
0.0
 11
621.24187858028858
 21
1385.89684305948
 31
0.0
  0
LINE
  5
D836
  8
0
  6
CONTINUOUS
 10
621.24187858028858
 20
1354.5884930594791
 30
0.0
 11
621.24187858028858
 21
1351.667351059479
 31
0.0
  0
LINE
  5
D837
  8
0
  6
CONTINUOUS
 10
621.24187858028858
 20
1337.3746260594789
 30
0.0
 11
621.24187858028858
 21
1336.372673059479
 31
0.0
  0
LINE
  5
D838
  8
0
  6
CONTINUOUS
 10
621.24200058028885
 20
1237.745476059479
 30
0.0
 11
623.24181758028863
 21
1237.745476059479
 31
0.0
  0
LINE
  5
D839
  8
0
  6
CONTINUOUS
 10
621.24193958028786
 20
1259.001457059479
 30
0.0
 11
621.24187858028858
 21
1254.4940110594789
 31
0.0
  0
LINE
  5
D83A
  8
0
  6
CONTINUOUS
 10
621.24187858028858
 20
1273.74254605948
 30
0.0
 11
621.24193958028786
 21
1270.4290690594789
 31
0.0
  0
LINE
  5
D83B
  8
0
  6
CONTINUOUS
 10
621.24187858028858
 20
1285.802360059479
 30
0.0
 11
621.24187858028858
 21
1288.7235030594791
 31
0.0
  0
LINE
  5
D83C
  8
0
  6
CONTINUOUS
 10
621.24187858028858
 20
1303.0162280594791
 30
0.0
 11
621.24187858028858
 21
1304.018181059479
 31
0.0
  0
LINE
  5
D83D
  8
0
  6
CONTINUOUS
 10
444.74184258028902
 20
1188.195425059479
 30
0.0
 11
536.74178158028849
 21
1188.195425059479
 31
0.0
  0
LINE
  5
D83E
  8
0
  6
CONTINUOUS
 10
621.24187858028858
 20
1216.157337059479
 30
0.0
 11
605.04711558028885
 21
1207.305287059479
 31
0.0
  0
LINE
  5
D83F
  8
0
  6
CONTINUOUS
 10
386.24175658028918
 20
1207.305287059479
 30
0.0
 11
605.04717658028846
 21
1207.305287059479
 31
0.0
  0
LINE
  5
D840
  8
0
  6
CONTINUOUS
 10
621.24187858028858
 20
1220.9932780594791
 30
0.0
 11
621.24187858028858
 21
1208.0452770594791
 31
0.0
  0
LINE
  5
D841
  8
0
  6
CONTINUOUS
 10
621.24187858028858
 20
1208.0452770594791
 30
0.0
 11
605.04711558028885
 21
1198.562855059479
 31
0.0
  0
LINE
  5
D842
  8
0
  6
CONTINUOUS
 10
376.43663058028898
 20
1198.562855059479
 30
0.0
 11
605.04717658028846
 21
1198.562855059479
 31
0.0
  0
LINE
  5
D843
  8
0
  6
CONTINUOUS
 10
367.12876058028837
 20
1204.012836059479
 30
0.0
 11
376.43663058028898
 21
1198.562855059479
 31
0.0
  0
LINE
  5
D844
  8
0
  6
CONTINUOUS
 10
623.24181758028863
 20
1437.195425059479
 30
0.0
 11
623.24181758028863
 21
1203.19548505948
 31
0.0
  0
TEXT
  5
DBA1
  8
0
  6
CONTINUOUS
 62
     0
 10
1254.8138525601671
 20
1286.3587137593811
 30
0.0
 40
20.0
  1
VX75-040EB~VX75-080EB
  0
ENDSEC
  0
EOF
