  0
SECTION
  2
HEADER
  9
$ACADVER
  1
AC1009
  9
$INSBASE
 10
0.0
 20
0.0
 30
0.0
  9
$EXTMIN
 10
4.4823772476709101
 20
4.7316413063842901
 30
-0.0015258207003583
  9
$EXTMAX
 10
590.7298603176713
 20
405.71250745527362
 30
0.0000000349246037
  9
$LIMMIN
 10
0.0
 20
0.0
  9
$LIMMAX
 10
408.0
 20
284.0
  9
$ORTHOMODE
 70
     0
  9
$REGENMODE
 70
     1
  9
$FILLMODE
 70
     1
  9
$QTEXTMODE
 70
     0
  9
$MIRRTEXT
 70
     1
  9
$DRAGMODE
 70
     2
  9
$LTSCALE
 40
1.0
  9
$OSMODE
 70
   551
  9
$ATTMODE
 70
     1
  9
$TEXTSIZE
 40
2.5
  9
$TRACEWID
 40
1.0
  9
$TEXTSTYLE
  7
ACJISTS
  9
$CLAYER
  8
AM_0
  9
$CELTYPE
  6
BYLAYER
  9
$CECOLOR
 62
   256
  9
$DIMSCALE
 40
1.0
  9
$DIMASZ
 40
2.5
  9
$DIMEXO
 40
1.0
  9
$DIMDLI
 40
7.0
  9
$DIMRND
 40
0.0
  9
$DIMDLE
 40
0.0
  9
$DIMEXE
 40
1.0
  9
$DIMTP
 40
0.1
  9
$DIMTM
 40
0.1000000001
  9
$DIMTXT
 40
2.5
  9
$DIMCEN
 40
0.0
  9
$DIMTSZ
 40
0.0
  9
$DIMTOL
 70
     0
  9
$DIMLIM
 70
     0
  9
$DIMTIH
 70
     0
  9
$DIMTOH
 70
     0
  9
$DIMSE1
 70
     0
  9
$DIMSE2
 70
     0
  9
$DIMTAD
 70
     3
  9
$DIMZIN
 70
     8
  9
$DIMBLK
  1

  9
$DIMASO
 70
     1
  9
$DIMSHO
 70
     1
  9
$DIMPOST
  1

  9
$DIMAPOST
  1
"
  9
$DIMALT
 70
     0
  9
$DIMALTD
 70
     2
  9
$DIMALTF
 40
0.0393701
  9
$DIMLFAC
 40
1.0
  9
$DIMTOFL
 70
     1
  9
$DIMTVP
 40
0.0
  9
$DIMTIX
 70
     0
  9
$DIMSOXD
 70
     0
  9
$DIMSAH
 70
     0
  9
$DIMBLK1
  1

  9
$DIMBLK2
  1

  9
$DIMSTYLE
  2
AM_JIS
  9
$DIMCLRD
 70
   256
  9
$DIMCLRE
 70
   256
  9
$DIMCLRT
 70
     4
  9
$DIMTFAC
 40
0.71
  9
$DIMGAP
 40
1.0
  9
$LUNITS
 70
     2
  9
$LUPREC
 70
     2
  9
$SKETCHINC
 40
1.0
  9
$FILLETRAD
 40
2.5
  9
$AUNITS
 70
     0
  9
$AUPREC
 70
     3
  9
$MENU
  1
.
  9
$ELEVATION
 40
0.0
  9
$PELEVATION
 40
0.0
  9
$THICKNESS
 40
0.0
  9
$LIMCHECK
 70
     0
  9
$BLIPMODE
 70
     0
  9
$CHAMFERA
 40
2.5
  9
$CHAMFERB
 40
2.5
  9
$SKPOLY
 70
     0
  9
$TDCREATE
 40
2453062.434148218
  9
$TDUPDATE
 40
2458541.355395243
  9
$TDINDWG
 40
0.0606145486
  9
$TDUSRTIMER
 40
0.0606143403
  9
$USRTIMER
 70
     1
  9
$ANGBASE
 50
0.0
  9
$ANGDIR
 70
     0
  9
$PDMODE
 70
     0
  9
$PDSIZE
 40
0.0
  9
$PLINEWID
 40
0.0
  9
$COORDS
 70
     1
  9
$SPLFRAME
 70
     0
  9
$SPLINETYPE
 70
     6
  9
$SPLINESEGS
 70
     8
  9
$ATTDIA
 70
     1
  9
$ATTREQ
 70
     1
  9
$HANDLING
 70
     1
  9
$HANDSEED
  5
A144
  9
$SURFTAB1
 70
     6
  9
$SURFTAB2
 70
     6
  9
$SURFTYPE
 70
     6
  9
$SURFU
 70
     6
  9
$SURFV
 70
     6
  9
$UCSNAME
  2

  9
$UCSORG
 10
0.0
 20
0.0
 30
0.0
  9
$UCSXDIR
 10
1.0
 20
0.0
 30
0.0
  9
$UCSYDIR
 10
0.0
 20
1.0
 30
0.0
  9
$PUCSNAME
  2

  9
$PUCSORG
 10
0.0
 20
0.0
 30
0.0
  9
$PUCSXDIR
 10
1.0
 20
0.0
 30
0.0
  9
$PUCSYDIR
 10
0.0
 20
1.0
 30
0.0
  9
$USERI1
 70
     0
  9
$USERI2
 70
     0
  9
$USERI3
 70
     0
  9
$USERI4
 70
     0
  9
$USERI5
 70
     0
  9
$USERR1
 40
0.0
  9
$USERR2
 40
0.0
  9
$USERR3
 40
0.0
  9
$USERR4
 40
0.0
  9
$USERR5
 40
0.0
  9
$WORLDVIEW
 70
     1
  9
$SHADEDGE
 70
     3
  9
$SHADEDIF
 70
    70
  9
$TILEMODE
 70
     1
  9
$MAXACTVP
 70
    48
  9
$PLIMCHECK
 70
     0
  9
$PEXTMIN
 10
1.0000000000000000E+020
 20
1.0000000000000000E+020
 30
1.0000000000000000E+020
  9
$PEXTMAX
 10
-1.0000000000000000E+020
 20
-1.0000000000000000E+020
 30
-1.0000000000000000E+020
  9
$PLIMMIN
 10
0.0
 20
0.0
  9
$PLIMMAX
 10
420.0
 20
297.0
  9
$UNITMODE
 70
     0
  9
$VISRETAIN
 70
     1
  9
$PLINEGEN
 70
     0
  9
$PSLTSCALE
 70
     1
  0
ENDSEC
  0
SECTION
  2
TABLES
  0
TABLE
  2
VPORT
 70
     1
  0
VPORT
  2
*ACTIVE
 70
     0
 10
0.0
 20
0.0
 11
1.0
 21
1.0
 12
297.60611878267122
 22
205.22207438082901
 13
0.0
 23
0.0
 14
1.0
 24
1.0
 15
10.0
 25
10.0
 16
0.0
 26
0.0
 36
1.0
 17
0.0
 27
0.0
 37
0.0
 40
403.73359520711972
 41
1.757159221076747
 42
50.0
 43
0.0
 44
0.0
 50
0.0
 51
0.0
 71
     0
 72
   100
 73
     1
 74
     1
 75
     0
 76
     0
 77
     0
 78
     0
  0
ENDTAB
  0
TABLE
  2
LTYPE
 70
    25
  0
LTYPE
  2
CONTINUOUS
 70
     0
  3
Solid line
 72
    65
 73
     0
 40
0.0
  0
LTYPE
  2
PHANTOM2
 70
     0
  3
Phantom (.5x) ___ _ _ ___ _ _ ___ _ _ ___ _ _
 72
    65
 73
     6
 40
31.75
 49
15.875
 49
-3.174999999999998
 49
3.174999999999998
 49
-3.174999999999998
 49
3.174999999999998
 49
-3.174999999999998
  0
LTYPE
  2
CENTER
 70
     0
  3
Center ____ _ ____ _ ____ _ ____ _ ____ _ ____
 72
    65
 73
     4
 40
50.799999999999997
 49
31.75
 49
-6.3499999999999979
 49
6.3499999999999979
 49
-6.3499999999999979
  0
LTYPE
  2
ACANSTGBM
 70
     0
  3
__ . . __ . .
 72
    65
 73
     6
 40
9.0
 49
4.0
 49
-1.0
 49
1.0
 49
-1.0
 49
1.0
 49
-1.0
  0
LTYPE
  2
ACANSTGLM
 70
     0
  3
_ _ _ _ _
 72
    65
 73
     2
 40
3.0
 49
2.0
 49
-1.0
  0
LTYPE
  2
GEN7
 70
     0
  3
____ . ____ . ____ . ____ . ____ . ____ . ____
 72
    65
 73
     4
 40
14.25
 49
9.75
 49
-1.5
 49
1.5
 49
-1.5
  0
LTYPE
  2
AM_ISO02W050
 70
     0
  3
__ __ __ __ __ __ __ __ __ __ __ __ __ __ __
 72
    65
 73
     2
 40
7.5
 49
6.0
 49
-1.5
  0
LTYPE
  2
AM_ISO08W050
 70
     0
  3
____ . ____ . ____ . ____ . ____ . ____ . ____
 72
    65
 73
     4
 40
18.0
 49
12.0
 49
-1.5
 49
3.0
 49
-1.5
  0
LTYPE
  2
AM_ISO09W050
 70
     0
  3
_____ . . _____ . . _____ . . ____ .. ____
 72
    65
 73
     6
 40
22.5
 49
12.0
 49
-1.5
 49
3.0
 49
-1.5
 49
3.0
 49
-1.5
  0
LTYPE
  2
AMCONSTR
 70
     0
  3
_______________________
 72
    65
 73
     2
 40
9999.0
 49
9999.0
 49
0.0
  0
LTYPE
  2
AM_ISO02W050X2
 70
     0
  3
 _ _ _ _ _ _ _ _ _ _ _ _
 72
    65
 73
     2
 40
3.75
 49
3.0
 49
-0.75
  0
LTYPE
  2
AM_ISO08W050X2
 70
     0
  3
__ . __ . __ . __ . __ . __
 72
    65
 73
     4
 40
9.0
 49
6.0
 49
-0.75
 49
1.5
 49
-0.75
  0
LTYPE
  2
AMZIGZAG
 70
     0
  3
/\/-/\/-/\/-/\/-/\/-/\/
 72
    65
 73
     2
 40
11.000099999999991
 49
0.0001
 49
-11.0
  0
LTYPE
  2
ACJISTGB
 70
     0
  3
__ . . __ . .
 72
    65
 73
     6
 40
9.0
 49
4.0
 49
-1.0
 49
1.0
 49
-1.0
 49
1.0
 49
-1.0
  0
LTYPE
  2
ACJISTGL
 70
     0
  3
_ _ _ _ _
 72
    65
 73
     2
 40
3.0
 49
2.0
 49
-1.0
  0
LTYPE
  2
ACISOWELD
 70
     0
  3
_ _ _ _ _
 72
    65
 73
     2
 40
2.0
 49
2.0
 49
-1.0
  0
LTYPE
  2
ACISOTGB
 70
     0
  3
__ . . __ . .
 72
    65
 73
     6
 40
9.0
 49
4.0
 49
-1.0
 49
1.0
 49
-1.0
 49
1.0
 49
-1.0
  0
LTYPE
  2
ACISOTGL
 70
     0
  3
_ _ _ _ _
 72
    65
 73
     2
 40
3.0
 49
2.0
 49
-1.0
  0
LTYPE
  2
HIDDEN
 70
     0
  3
Hidden __ __ __ __ __ __ __ __ __ __ __ __ __ _
 72
    65
 73
     2
 40
0.375
 49
0.25
 49
-0.125
  0
LTYPE
  2
CENTER2
 70
     0
  3
Center (.5x) ___ _ ___ _ ___ _ ___ _ ___ _ ___
 72
    65
 73
     4
 40
1.125
 49
0.75
 49
-0.125
 49
0.125
 49
-0.125
  0
LTYPE
  2
HIDDEN2
 70
     0
  3
Hidden (.5x) _ _ _ _ _ _ _ _ _ _ _ _ _ _ _ _ _
 72
    65
 73
     2
 40
0.1875
 49
0.125
 49
-0.0625
  0
LTYPE
  2
AMZIGZAG2
 70
     0
  3
/\/-/\/-/\/-/\/-/\/-/\/
 72
    65
 73
     2
 40
0.4401
 49
0.0001
 49
-0.4400000000000001
  0
LTYPE
  2
ACANSTGB
 70
     0
  3
__ . . __ . .
 72
    65
 73
     6
 40
0.35433070866
 49
0.15748031496
 49
-0.03937007874
 49
0.03937007874
 49
-0.03937007874
 49
0.03937007874
 49
-0.03937007874
  0
LTYPE
  2
ACANSTGL
 70
     0
  3
_ _ _ _ _
 72
    65
 73
     2
 40
0.11811023622
 49
0.07874015748
 49
-0.03937007874
  0
ENDTAB
  0
TABLE
  2
LAYER
 70
     6
  0
LAYER
  2
0
 70
     0
 62
     7
  6
CONTINUOUS
  0
LAYER
  2
AM_0
 70
     0
 62
     7
  6
CONTINUOUS
  0
LAYER
  2
DEFPOINTS
 70
     0
 62
     7
  6
CONTINUOUS
  0
LAYER
  2
ﾁｭｳｼﾝｾﾝ
 70
     0
 62
     1
  6
GEN7
  0
LAYER
  2
AM_0N
 70
     0
 62
     7
  6
CONTINUOUS
  0
LAYER
  2
AM_5
 70
     0
 62
     2
  6
CONTINUOUS
  0
ENDTAB
  0
TABLE
  2
STYLE
 70
    11
  0
STYLE
  2
ACJISTS
 70
     0
 40
15.0
 41
0.7400000000000003
 50
0.0
 71
     0
 42
2.5
  3
txt.shx
  4
bigfont.shx
  0
STYLE
  2
ANNOTATIVE
 70
     0
 40
0.0
 41
1.0
 50
0.0
 71
     0
 42
0.2
  3
txt
  4

  0
STYLE
  2
ACANSTS
 70
     0
 40
1.0
 41
1.0
 50
0.0
 71
     0
 42
2.5
  3
romans.shx
  4
bigfont.shx
  0
STYLE
  2
ACANSGDT
 70
     0
 40
0.0
 41
1.0
 50
0.0
 71
     0
 42
2.5
  3
amgdt.shx
  4

  0
STYLE
  2

 70
     1
 40
0.0
 41
1.0
 50
0.0
 71
     0
 42
2.5
  3
ltypeshp.shx
  4

  0
STYLE
  2
ACJISTS
 70
     0
 40
1.0
 41
0.8299999999999999
 50
0.0
 71
     0
 42
2.5
  3
txt.shx
  4
bigfont.shx
  0
STYLE
  2
ACJISGDT
 70
     0
 40
0.0
 41
1.0
 50
0.0
 71
     0
 42
2.5
  3
amgdt.shx
  4

  0
STYLE
  2
ACISOTS
 70
     0
 40
1.0
 41
1.0
 50
0.0
 71
     0
 42
2.5
  3
isocp.shx
  4
extfont.shx
  0
STYLE
  2
ACISOGDT
 70
     0
 40
0.0
 41
1.0
 50
0.0
 71
     0
 42
2.5
  3
amgdt.shx
  4

  0
STYLE
  2

 70
     1
 40
0.0
 41
1.0
 50
0.0
 71
     0
 42
2.5
  3
genltshp.shx
  4

  0
STYLE
  2
STANDARD
 70
     0
 40
0.0
 41
0.8299999999999999
 50
0.0
 71
     0
 42
2.5
  3
txt.shx
  4
bigfont.shx
  0
ENDTAB
  0
TABLE
  2
VIEW
 70
    12
  0
VIEW
  2
GEN1
 70
     0
 40
95.824742268041234
 10
71.5
 20
137.08762886597941
 41
143.0
 11
0.0
 21
0.0
 31
1.0
 12
0.0
 22
0.0
 32
0.0
 42
50.0
 43
0.0
 44
0.0
 50
0.0
 71
     0
  0
VIEW
  2
GEN2
 70
     0
 40
95.824742268041234
 10
214.5
 20
137.08762886597941
 41
143.0
 11
0.0
 21
0.0
 31
1.0
 12
0.0
 22
0.0
 32
0.0
 42
50.0
 43
0.0
 44
0.0
 50
0.0
 71
     0
  0
VIEW
  2
GEN3
 70
     0
 40
95.824742268041234
 10
71.5
 20
47.912371134020603
 41
143.0
 11
0.0
 21
0.0
 31
1.0
 12
0.0
 22
0.0
 32
0.0
 42
50.0
 43
0.0
 44
0.0
 50
0.0
 71
     0
  0
VIEW
  2
GEN4
 70
     0
 40
95.824742268041234
 10
214.5
 20
47.912371134020603
 41
143.0
 11
0.0
 21
0.0
 31
1.0
 12
0.0
 22
0.0
 32
0.0
 42
50.0
 43
0.0
 44
0.0
 50
0.0
 71
     0
  0
VIEW
  2
GEN5
 70
     0
 40
95.824742268041234
 10
143.0
 20
92.500000000000057
 41
143.0
 11
0.0
 21
0.0
 31
1.0
 12
0.0
 22
0.0
 32
0.0
 42
50.0
 43
0.0
 44
0.0
 50
0.0
 71
     0
  0
VIEW
  2
GEN6
 70
     0
 40
191.64756804123709
 10
143.0
 20
92.5
 41
285.99713999999989
 11
0.0
 21
0.0
 31
1.0
 12
0.0
 22
0.0
 32
0.0
 42
50.0
 43
0.0
 44
0.0
 50
0.0
 71
     0
  0
VIEW
  2
AM_VIEW1
 70
     0
 40
142.0
 10
119.7777777777777
 20
213.0
 41
239.55555555555549
 11
0.0
 21
0.0
 31
1.0
 12
0.0
 22
0.0
 32
0.0
 42
50.0
 43
0.0
 44
0.0
 50
0.0
 71
     0
  0
VIEW
  2
AM_VIEW2
 70
     0
 40
142.0
 10
288.22222222222211
 20
213.0
 41
239.55555555555549
 11
0.0
 21
0.0
 31
1.0
 12
0.0
 22
0.0
 32
0.0
 42
50.0
 43
0.0
 44
0.0
 50
0.0
 71
     0
  0
VIEW
  2
AM_VIEW3
 70
     0
 40
142.0
 10
119.7777777777777
 20
71.0
 41
239.55555555555549
 11
0.0
 21
0.0
 31
1.0
 12
0.0
 22
0.0
 32
0.0
 42
50.0
 43
0.0
 44
0.0
 50
0.0
 71
     0
  0
VIEW
  2
AM_VIEW4
 70
     0
 40
142.0
 10
288.22222222222211
 20
71.0
 41
239.55555555555549
 11
0.0
 21
0.0
 31
1.0
 12
0.0
 22
0.0
 32
0.0
 42
50.0
 43
0.0
 44
0.0
 50
0.0
 71
     0
  0
VIEW
  2
AM_VIEW5
 70
     0
 40
142.0
 10
204.0
 20
142.0
 41
239.55555555555549
 11
0.0
 21
0.0
 31
1.0
 12
0.0
 22
0.0
 32
0.0
 42
50.0
 43
0.0
 44
0.0
 50
0.0
 71
     0
  0
VIEW
  2
AM_VIEW6
 70
     0
 40
283.99716000000001
 10
204.0
 20
142.0
 41
479.10631999999993
 11
0.0
 21
0.0
 31
1.0
 12
0.0
 22
0.0
 32
0.0
 42
50.0
 43
0.0
 44
0.0
 50
0.0
 71
     0
  0
ENDTAB
  0
TABLE
  2
UCS
 70
     0
  0
ENDTAB
  0
TABLE
  2
APPID
 70
   105
  0
APPID
  2
ACAD
 70
     0
  0
APPID
  2
ACADANNOTATIVE
 70
     0
  0
APPID
  2
MCAD_NO_VIS
 70
     0
  0
APPID
  2
ACAD_TEMP_GRAPHIC
 70
     0
  0
APPID
  2
AD_DRAW
 70
     0
  0
APPID
  2
DESIGNERASSEMBLIES
 70
     0
  0
APPID
  2
ASURF_PCURVE_APPNAME
 70
     0
  0
APPID
  2
GENIUS_GE3SECT_13
 70
     0
  0
APPID
  2
GENIUS_GENCFG_13
 70
     0
  0
APPID
  2
GENIUS_GE3CFG0_13
 70
     0
  0
APPID
  2
GENIUS_GENCFG0_13
 70
     0
  0
APPID
  2
GENIUS_GENCFG1_13
 70
     0
  0
APPID
  2
GENIUS_GENCFG2_13
 70
     0
  0
APPID
  2
GENIUS_GENCFG3_13
 70
     0
  0
APPID
  2
GENIUS_GENCFG4_13
 70
     0
  0
APPID
  2
GENIUS_GEVCFG0_13
 70
     0
  0
APPID
  2
GENIUS_GENOENT_13
 70
     0
  0
APPID
  2
GENIUS_GENREC_14
 70
     0
  0
APPID
  2
GENIUS_GENODEF_13
 70
     0
  0
APPID
  2
GENIUS_GENOBJ-N-REC_13
 70
     0
  0
APPID
  2
GENIUS_GENHINW_13
 70
     0
  0
APPID
  2
GENIUS_FIRSTVISTXT_14
 70
     0
  0
APPID
  2
GENIUS_GENOBJ-N-LEADER_13
 70
     0
  0
APPID
  2
GENIUS_GENOREF_13
 70
     0
  0
APPID
  2
GENIUS_GENOLIS_13
 70
     0
  0
APPID
  2
GEV_VCCNULL_SWITCH_OFF
 70
     0
  0
APPID
  2
GENIUS_GENDTOL_13
 70
     0
  0
APPID
  2
GENIUS_GEFCFG0_13
 70
     0
  0
APPID
  2
GENIUS_GENOBJ-N-TIT_13
 70
     0
  0
APPID
  2
GENIUS_GENTITLE_13
 70
     0
  0
APPID
  2
GENIUS_GENZVEED_13
 70
     0
  0
APPID
  2
GENIUS_GENOBJ-N-SDF_13
 70
     0
  0
APPID
  2
GENIUS_GENSCREG_13
 70
     0
  0
APPID
  2
GENIUS_DUMCFG0_13
 70
     0
  0
APPID
  2
GEVID936201362
 70
     0
  0
APPID
  2
GEVDC
 70
     0
  0
APPID
  2
GEVCON
 70
     0
  0
APPID
  2
VCC
 70
     0
  0
APPID
  2
GEVPT
 70
     0
  0
APPID
  2
GEVIT
 70
     0
  0
APPID
  2
GENBH
 70
     0
  0
APPID
  2
GEVMK
 70
     0
  0
APPID
  2
GENIUS_GENBH_13
 70
     0
  0
APPID
  2
GENIUS_GENOBJ-NBEHI-BHF_13
 70
     0
  0
APPID
  2
GENIUS_GENOBJ-NBEHI-BHB_13
 70
     0
  0
APPID
  2
GENIUS_GENOBJ-F-DESC_13
 70
     0
  0
APPID
  2
GENIUS_GEFDESC_14
 70
     0
  0
APPID
  2
GENIUS_GENOBJ-F-PART_13
 70
     0
  0
APPID
  2
GENIUS_GEFSTDP_13
 70
     0
  0
APPID
  2
GENIUS_GEFPARTINS_13
 70
     0
  0
APPID
  2
GENIUS_GENTRA_14
 70
     0
  0
APPID
  2
GENIUS_GENINF13_13
 70
     0
  0
APPID
  2
GENIUS_GENOBJ-N-INFOPT_13
 70
     0
  0
APPID
  2
GENIUS_GENOBJ-N-RSSYM_13
 70
     0
  0
APPID
  2
GENIUS_GENSYMENT_13
 70
     0
  0
APPID
  2
GENIUS_GENSCSYM_13
 70
     0
  0
APPID
  2
GENIUS_GEFINFNAM_13
 70
     0
  0
APPID
  2
GENIUS_GENSCREG_15
 70
     0
  0
APPID
  2
GENIUS_GENOBJ-N-CEN_13
 70
     0
  0
APPID
  2
GENIUS_GENOBJ-N-CRS_13
 70
     0
  0
APPID
  2
GENIUS_GENOBJ-N-CRC_13
 70
     0
  0
APPID
  2
GENIUS_GENCRC_14
 70
     0
  0
APPID
  2
GEVID942827039
 70
     0
  0
APPID
  2
GEVID942827040
 70
     0
  0
APPID
  2
GEVID942827041
 70
     0
  0
APPID
  2
GENIUS_GENOBJ-F-SCPASSM_13
 70
     0
  0
APPID
  2
GENIUS_GENDIMSH_14
 70
     0
  0
APPID
  2
GENIUS_GENFIL_13
 70
     0
  0
APPID
  2
GENIUS_GENOBJ-N-CHA_13
 70
     0
  0
APPID
  2
GENIUS_GENOBJ-N-FIL_13
 70
     0
  0
APPID
  2
GEVID942827042
 70
     0
  0
APPID
  2
GEVID946020473
 70
     0
  0
APPID
  2
GEVID946020474
 70
     0
  0
APPID
  2
GEVID946020475
 70
     0
  0
APPID
  2
GENIUS_GENOBJ-N-HTC_13
 70
     0
  0
APPID
  2
GENIUS_GENHATCH_13
 70
     0
  0
APPID
  2
GEVID948854295
 70
     0
  0
APPID
  2
GEVID939402019
 70
     0
  0
APPID
  2
GEVID952919491
 70
     0
  0
APPID
  2
GEVID952919492
 70
     0
  0
APPID
  2
GENIUS_GEFWELD_13
 70
     0
  0
APPID
  2
GENIUS_GENOBJ-F-WELS_13
 70
     0
  0
APPID
  2
GEVID952919493
 70
     0
  0
APPID
  2
GENIUS_GENOBJ-N-RSBK_13
 70
     0
  0
APPID
  2
GENIUS_GENOBJ-N-LIB_13
 70
     0
  0
APPID
  2
GENIUS_GENSCALE_13
 70
     0
  0
APPID
  2
GEVID986376691
 70
     0
  0
APPID
  2
ACATTRIBSERVICES
 70
     0
  0
APPID
  2
ACADM_DIM_EDIT
 70
     0
  0
APPID
  2
AMDT_DM_ADJ
 70
     0
  0
APPID
  2
GEVID1057795304
 70
     0
  0
APPID
  2
GENIUS_GEFSH_13
 70
     0
  0
APPID
  2
GENIUS_GENOBJ-F-SHS_13
 70
     0
  0
APPID
  2
GENIUS_GENOBJ-N-ADDLEAD_13
 70
     0
  0
APPID
  2
GENIUS_GENMAINADDLEADER_14
 70
     0
  0
APPID
  2
GENIUS_GENADDLEADER_14
 70
     0
  0
APPID
  2
GENIUS_GENDREL_13
 70
     0
  0
APPID
  2
GEVID1121934822
 70
     0
  0
APPID
  2
GEVID1121934823
 70
     0
  0
APPID
  2
GEVID1121934824
 70
     0
  0
APPID
  2
ACAD_DSTYLE_DIMJAG
 70
     0
  0
APPID
  2
ACAD_DSTYLE_DIMBREAK
 70
     0
  0
APPID
  2
ACAD_NAV_VCDISPLAY
 70
     0
  0
APPID
  2
ACAD_EXEMPT_FROM_CAD_STANDARDS
 70
     0
  0
APPID
  2
ACAD_MLEADERVER
 70
     0
  0
ENDTAB
  0
TABLE
  2
DIMSTYLE
 70
    29
  0
DIMSTYLE
  2
STANDARD
 70
     0
  3

  4

  5

  6

  7

 40
1.0
 41
0.18
 42
0.0625
 43
0.38
 44
0.18
 45
0.0
 46
0.0
 47
0.0
 48
0.0
140
0.18
141
0.09
142
0.0
143
25.399999999999999
144
1.0
145
0.0
146
1.0
147
0.09
 71
     0
 72
     0
 73
     1
 74
     1
 75
     0
 76
     0
 77
     0
 78
     0
170
     0
171
     2
172
     0
173
     0
174
     0
175
     0
176
     0
177
     0
178
     0
  0
DIMSTYLE
  2
ANNOTATIVE
 70
     0
  3

  4

  5

  6

  7

 40
1.0
 41
0.18
 42
0.0625
 43
0.38
 44
0.18
 45
0.0
 46
0.0
 47
0.0
 48
0.0
140
0.18
141
0.09
142
0.0
143
25.399999999999999
144
1.0
145
0.0
146
1.0
147
0.09
 71
     0
 72
     0
 73
     1
 74
     1
 75
     0
 76
     0
 77
     0
 78
     0
170
     0
171
     2
172
     0
173
     0
174
     0
175
     0
176
     0
177
     0
178
     0
  0
DIMSTYLE
  2
AM_JIS
 70
     0
  3

  4
"
  5

  6

  7

 40
1.0
 41
2.0
 42
1.0
 43
8.0
 44
1.0
 45
0.0
 46
0.0
 47
0.1
 48
0.1
140
2.5
141
0.0
142
0.0
143
0.0393701
144
1.0
145
0.0
146
0.71
147
1.5
 71
     0
 72
     0
 73
     0
 74
     0
 75
     0
 76
     0
 77
     3
 78
     8
170
     0
171
     2
172
     1
173
     0
174
     0
175
     0
176
   256
177
   256
178
     4
  0
DIMSTYLE
  2
AM_JIS$3
 70
     0
  3

  4
"
  5

  6

  7

 40
1.0
 41
2.0
 42
1.0
 43
10.0
 44
1.0
 45
0.0
 46
0.0
 47
0.1
 48
0.1
140
2.5
141
0.0
142
0.0
143
0.0393701
144
1.0
145
0.0
146
0.71
147
1.5
 71
     0
 72
     0
 73
     0
 74
     1
 75
     0
 76
     0
 77
     3
 78
     8
170
     0
171
     2
172
     0
173
     0
174
     0
175
     0
176
   256
177
   256
178
     4
  0
DIMSTYLE
  2
AM_JIS$4
 70
     0
  3

  4
"
  5

  6

  7

 40
1.0
 41
2.0
 42
1.0
 43
10.0
 44
1.0
 45
0.0
 46
0.0
 47
0.1
 48
0.1
140
2.5
141
0.0
142
0.0
143
0.0393701
144
1.0
145
0.0
146
0.71
147
1.5
 71
     0
 72
     0
 73
     0
 74
     0
 75
     0
 76
     0
 77
     3
 78
     8
170
     0
171
     2
172
     0
173
     0
174
     0
175
     0
176
   256
177
   256
178
     4
  0
DIMSTYLE
  2
AM_JIS$6
 70
     0
  3

  4
"
  5

  6

  7

 40
1.0
 41
2.0
 42
1.0
 43
10.0
 44
1.0
 45
0.0
 46
0.0
 47
0.1
 48
0.1
140
2.5
141
0.0
142
0.0
143
0.0393701
144
1.0
145
0.0
146
0.71
147
1.5
 71
     0
 72
     0
 73
     0
 74
     0
 75
     0
 76
     0
 77
     0
 78
     8
170
     0
171
     2
172
     1
173
     0
174
     0
175
     0
176
   256
177
   256
178
     4
  0
DIMSTYLE
  2
AM_JIS$7
 70
     0
  3

  4
"
  5

  6

  7

 40
1.0
 41
2.0
 42
1.0
 43
10.0
 44
1.0
 45
0.0
 46
0.0
 47
0.1
 48
0.1
140
2.5
141
0.0
142
0.0
143
0.0393701
144
1.0
145
0.0
146
0.71
147
1.5
 71
     0
 72
     0
 73
     0
 74
     0
 75
     0
 76
     0
 77
     3
 78
     8
170
     0
171
     2
172
     1
173
     0
174
     0
175
     0
176
   256
177
   256
178
     4
  0
DIMSTYLE
  2
AM_JIS$SF
 70
     0
  3

  4
"
  5

  6

  7

 40
1.0
 41
2.0
 42
1.0
 43
10.0
 44
1.0
 45
0.0
 46
0.0
 47
0.1
 48
0.1
140
2.5
141
0.0
142
0.0
143
0.0393701
144
1.0
145
0.0
146
0.71
147
1.5
 71
     0
 72
     0
 73
     0
 74
     0
 75
     1
 76
     1
 77
     3
 78
     8
170
     0
171
     2
172
     1
173
     0
174
     0
175
     0
176
   256
177
   256
178
     4
  0
DIMSTYLE
  2
AM_JIS$SH
 70
     0
  3

  4
"
  5

  6

  7

 40
1.0
 41
2.0
 42
1.0
 43
10.0
 44
1.0
 45
0.0
 46
0.0
 47
0.1
 48
0.1
140
2.5
141
0.0
142
0.0
143
0.0393701
144
2.0
145
0.0
146
0.71
147
1.5
 71
     0
 72
     0
 73
     0
 74
     0
 75
     1
 76
     1
 77
     3
 78
     8
170
     0
171
     2
172
     1
173
     1
174
     0
175
     0
176
   256
177
   256
178
     4
  0
DIMSTYLE
  2
AM_ISO
 70
     0
  3

  4
"
  5

  6

  7

 40
1.0
 41
2.5
 42
1.0
 43
10.0
 44
1.0
 45
0.0
 46
0.0
 47
0.1
 48
0.1
140
3.5
141
0.0
142
0.0
143
0.0393701
144
1.0
145
0.0
146
0.71
147
1.5
 71
     0
 72
     0
 73
     0
 74
     0
 75
     0
 76
     0
 77
     1
 78
     8
170
     0
171
     2
172
     1
173
     0
174
     0
175
     0
176
   256
177
   256
178
     2
  0
DIMSTYLE
  2
AM_ISO$3
 70
     0
  3

  4
"
  5

  6

  7

 40
1.0
 41
2.5
 42
1.0
 43
10.0
 44
1.0
 45
0.0
 46
0.0
 47
0.1
 48
0.1
140
3.5
141
0.0
142
0.0
143
0.0393701
144
1.0
145
0.0
146
0.71
147
1.5
 71
     0
 72
     0
 73
     0
 74
     1
 75
     0
 76
     0
 77
     1
 78
     8
170
     0
171
     2
172
     0
173
     0
174
     0
175
     0
176
   256
177
   256
178
     2
  0
DIMSTYLE
  2
AM_ISO$4
 70
     0
  3

  4
"
  5

  6

  7

 40
1.0
 41
2.5
 42
1.0
 43
10.0
 44
1.0
 45
0.0
 46
0.0
 47
0.1
 48
0.1
140
3.5
141
0.0
142
0.0
143
0.0393701
144
1.0
145
0.0
146
0.71
147
1.5
 71
     0
 72
     0
 73
     0
 74
     1
 75
     0
 76
     0
 77
     1
 78
     8
170
     0
171
     2
172
     0
173
     0
174
     0
175
     0
176
   256
177
   256
178
     2
  0
DIMSTYLE
  2
AM_ISO$6
 70
     0
  3

  4
"
  5

  6

  7

 40
1.0
 41
2.5
 42
1.0
 43
10.0
 44
1.0
 45
0.0
 46
0.0
 47
0.1
 48
0.1
140
3.5
141
0.0
142
0.0
143
0.0393701
144
1.0
145
0.0
146
0.71
147
1.5
 71
     0
 72
     0
 73
     0
 74
     0
 75
     0
 76
     0
 77
     0
 78
     8
170
     0
171
     2
172
     1
173
     0
174
     0
175
     0
176
   256
177
   256
178
     2
  0
DIMSTYLE
  2
AM_ISO$7
 70
     0
  3

  4
"
  5

  6

  7

 40
1.0
 41
2.5
 42
1.0
 43
10.0
 44
1.0
 45
0.0
 46
0.0
 47
0.1
 48
0.1
140
5.0
141
0.0
142
0.0
143
0.0393701
144
1.0
145
0.0
146
0.71
147
1.5
 71
     0
 72
     0
 73
     0
 74
     0
 75
     0
 76
     0
 77
     1
 78
     8
170
     0
171
     2
172
     1
173
     0
174
     0
175
     0
176
   256
177
   256
178
     2
  0
DIMSTYLE
  2
AM_ISO$SF
 70
     0
  3

  4
"
  5

  6

  7

 40
1.0
 41
2.5
 42
1.0
 43
10.0
 44
1.0
 45
0.0
 46
0.0
 47
0.1
 48
0.1
140
3.5
141
0.0
142
0.0
143
0.0393701
144
1.0
145
0.0
146
0.71
147
1.5
 71
     0
 72
     0
 73
     0
 74
     0
 75
     1
 76
     1
 77
     1
 78
     8
170
     0
171
     2
172
     1
173
     0
174
     0
175
     0
176
   256
177
   256
178
     2
  0
DIMSTYLE
  2
AM_ISO$SH
 70
     0
  3

  4
"
  5

  6

  7

 40
1.0
 41
2.5
 42
1.0
 43
10.0
 44
1.0
 45
0.0
 46
0.0
 47
0.1
 48
0.1
140
3.5
141
0.0
142
0.0
143
0.0393701
144
2.0
145
0.0
146
0.71
147
1.5
 71
     0
 72
     0
 73
     0
 74
     0
 75
     1
 76
     1
 77
     1
 78
     8
170
     0
171
     2
172
     1
173
     1
174
     0
175
     0
176
   256
177
   256
178
     2
  0
DIMSTYLE
  2
GEN-ANSI
 70
     0
  3

  4
"
  5

  6

  7

 40
1.0
 41
2.0
 42
0.5
 43
10.0
 44
0.5
 45
0.0
 46
0.0
 47
0.1
 48
0.1
140
2.5
141
0.0
142
0.0
143
0.0393701
144
1.0
145
0.0
146
0.71
147
1.5
 71
     0
 72
     0
 73
     1
 74
     1
 75
     0
 76
     0
 77
     0
 78
     8
170
     0
171
     2
172
     0
173
     0
174
     0
175
     0
176
   256
177
   256
178
     4
  0
DIMSTYLE
  2
GEN-ANSI$3
 70
     0
  3

  4
"
  5

  6

  7

 40
1.0
 41
2.0
 42
0.5
 43
10.0
 44
0.5
 45
0.0
 46
0.0
 47
0.1
 48
0.1
140
2.5
141
0.0
142
0.0
143
0.0393701
144
1.0
145
0.0
146
0.71
147
1.5
 71
     0
 72
     0
 73
     1
 74
     1
 75
     0
 76
     0
 77
     0
 78
     8
170
     0
171
     2
172
     0
173
     0
174
     0
175
     0
176
   256
177
   256
178
     4
  0
DIMSTYLE
  2
GEN-ANSI$4
 70
     0
  3

  4
"
  5

  6

  7

 40
1.0
 41
2.0
 42
0.5
 43
10.0
 44
0.5
 45
0.0
 46
0.0
 47
0.1
 48
0.1
140
2.5
141
0.0
142
0.0
143
0.0393701
144
1.0
145
0.0
146
0.71
147
1.5
 71
     0
 72
     0
 73
     1
 74
     1
 75
     0
 76
     0
 77
     0
 78
     8
170
     0
171
     2
172
     0
173
     0
174
     0
175
     0
176
   256
177
   256
178
     4
  0
DIMSTYLE
  2
GEN-ANSI$6
 70
     0
  3

  4
"
  5

  6

  7

 40
1.0
 41
2.0
 42
0.5
 43
10.0
 44
0.5
 45
0.0
 46
0.0
 47
0.1
 48
0.1
140
2.5
141
0.0
142
0.0
143
0.0393701
144
1.0
145
0.0
146
0.71
147
1.5
 71
     0
 72
     0
 73
     1
 74
     1
 75
     0
 76
     0
 77
     0
 78
     8
170
     0
171
     2
172
     0
173
     0
174
     0
175
     0
176
   256
177
   256
178
     4
  0
DIMSTYLE
  2
GEN-ANSI-POS
 70
     0
  3

  4
"
  5

  6

  7

 40
1.0
 41
2.5
 42
0.5
 43
10.0
 44
0.5
 45
0.0
 46
0.0
 47
0.1
 48
0.1
140
5.0
141
0.0
142
0.0
143
0.0393701
144
1.0
145
0.0
146
0.71
147
1.5
 71
     0
 72
     0
 73
     0
 74
     0
 75
     0
 76
     0
 77
     0
 78
     8
170
     0
171
     2
172
     0
173
     0
174
     0
175
     0
176
   256
177
   256
178
     4
  0
DIMSTYLE
  2
GEN-ANSI-AXE-F
 70
     0
  3

  4
"
  5

  6

  7

 40
1.0
 41
2.0
 42
0.5
 43
10.0
 44
0.5
 45
0.0
 46
0.0
 47
0.1
 48
0.1
140
2.5
141
0.0
142
0.0
143
0.0393701
144
1.0
145
0.0
146
0.71
147
1.5
 71
     0
 72
     0
 73
     1
 74
     1
 75
     1
 76
     1
 77
     0
 78
     8
170
     0
171
     2
172
     0
173
     1
174
     0
175
     0
176
   256
177
   256
178
     4
  0
DIMSTYLE
  2
GEN-ANSI-AXE-H
 70
     0
  3

  4
"
  5

  6

  7

 40
1.0
 41
2.0
 42
0.5
 43
10.0
 44
0.5
 45
0.0
 46
0.0
 47
0.1
 48
0.1
140
2.5
141
0.0
142
0.0
143
0.0393701
144
2.0
145
0.0
146
0.71
147
1.5
 71
     0
 72
     0
 73
     0
 74
     0
 75
     1
 76
     1
 77
     0
 78
     8
170
     0
171
     2
172
     1
173
     1
174
     0
175
     0
176
   256
177
   256
178
     4
  0
DIMSTYLE
  2
AM_ANSI
 70
     0
  3

  4
mm
  5

  6

  7

 40
1.0
 41
0.12
 42
0.05
 43
0.5
 44
0.1
 45
0.0
 46
0.0
 47
0.1
 48
0.1
140
0.12
141
0.0
142
0.0
143
25.399999999999999
144
1.0
145
0.0
146
0.71
147
0.06
 71
     0
 72
     0
 73
     1
 74
     1
 75
     0
 76
     0
 77
     0
 78
     7
170
     0
171
     2
172
     0
173
     0
174
     0
175
     0
176
   256
177
   256
178
     2
  0
DIMSTYLE
  2
AM_ANSI$3
 70
     0
  3

  4
mm
  5

  6

  7

 40
1.0
 41
0.12
 42
0.05
 43
0.5
 44
0.1
 45
0.0
 46
0.0
 47
0.1
 48
0.1
140
0.12
141
0.0
142
0.0
143
25.399999999999999
144
1.0
145
0.0
146
0.71
147
0.06
 71
     0
 72
     0
 73
     1
 74
     1
 75
     0
 76
     0
 77
     0
 78
     7
170
     0
171
     2
172
     0
173
     0
174
     0
175
     0
176
   256
177
   256
178
     2
  0
DIMSTYLE
  2
AM_ANSI$4
 70
     0
  3

  4
mm
  5

  6

  7

 40
1.0
 41
0.12
 42
0.05
 43
0.5
 44
0.1
 45
0.0
 46
0.0
 47
0.1
 48
0.1
140
0.12
141
0.0
142
0.0
143
25.399999999999999
144
1.0
145
0.0
146
0.71
147
0.06
 71
     0
 72
     0
 73
     1
 74
     1
 75
     0
 76
     0
 77
     0
 78
     7
170
     0
171
     2
172
     0
173
     0
174
     0
175
     0
176
   256
177
   256
178
     2
  0
DIMSTYLE
  2
AM_ANSI$7
 70
     0
  3

  4
mm
  5

  6

  7

 40
1.0
 41
0.12
 42
0.05
 43
0.5
 44
0.1
 45
0.0
 46
0.0
 47
0.1
 48
0.1
140
0.12
141
0.0
142
0.0
143
25.399999999999999
144
1.0
145
0.0
146
0.71
147
0.06
 71
     0
 72
     0
 73
     1
 74
     1
 75
     0
 76
     0
 77
     0
 78
     7
170
     0
171
     2
172
     0
173
     0
174
     0
175
     0
176
   256
177
   256
178
     2
  0
DIMSTYLE
  2
AM_ANSI$SF
 70
     0
  3

  4
mm
  5

  6

  7

 40
1.0
 41
0.12
 42
0.05
 43
0.5
 44
0.1
 45
0.0
 46
0.0
 47
0.1
 48
0.1
140
0.12
141
0.0
142
0.0
143
25.399999999999999
144
1.0
145
0.0
146
0.71
147
0.06
 71
     0
 72
     0
 73
     1
 74
     1
 75
     1
 76
     1
 77
     0
 78
     7
170
     0
171
     2
172
     0
173
     0
174
     0
175
     0
176
   256
177
   256
178
     2
  0
DIMSTYLE
  2
AM_ANSI$SH
 70
     0
  3

  4
mm
  5

  6
GENAXEH
  7

 40
1.0
 41
0.12
 42
0.05
 43
0.5
 44
0.1
 45
0.0
 46
0.0
 47
0.1
 48
0.1
140
0.12
141
0.0
142
0.0
143
25.399999999999999
144
1.0
145
0.0
146
0.71
147
0.06
 71
     0
 72
     0
 73
     1
 74
     1
 75
     1
 76
     1
 77
     0
 78
     7
170
     0
171
     2
172
     0
173
     1
174
     0
175
     0
176
   256
177
   256
178
     2
  0
ENDTAB
  0
ENDSEC
  0
SECTION
  2
BLOCKS
  0
BLOCK
  8
0
  2
$MODEL_SPACE
 70
     0
 10
0.0
 20
0.0
 30
0.0
  3
$MODEL_SPACE
  1

  0
ENDBLK
  5
9FB3
  8
0
  0
BLOCK
 67
     1
  8
0
  2
$PAPER_SPACE
 70
     0
 10
0.0
 20
0.0
 30
0.0
  3
$PAPER_SPACE
  1

  0
ENDBLK
  5
9FAF
 67
     1
  8
0
  0
BLOCK
  8
0
  2
GENAXEH
 70
     0
 10
0.0
 20
0.0
 30
0.0
  3
GENAXEH
  1

  0
LINE
  5
9EFD
  8
0
 10
-1.0
 20
0.0
 30
0.0
 11
1.0
 21
0.0
 31
0.0
  0
ENDBLK
  5
9EFF
  8
0
  0
BLOCK
  8
0
  2
_ACMFILLEDHALF
 70
     0
 10
0.0
 20
0.0
 30
0.0
  3
_ACMFILLEDHALF
  1

  0
TRACE
  5
A0C0
  8
AM_0
 62
     0
 10
-0.8
 20
0.0
 30
0.0
 11
-1.0
 21
0.166666666
 31
0.0
 12
0.0
 22
0.0
 32
0.0
 13
0.0
 23
0.0
 33
0.0
  0
LINE
  5
A0C1
  8
AM_0
 62
     0
 10
-1.0
 20
0.0
 30
0.0
 11
-0.8
 21
0.0
 31
0.0
  0
ENDBLK
  5
A0BF
  8
0
  0
ENDSEC
  0
SECTION
  2
ENTITIES
  0
POINT
  5
1B94
  8
0
 10
0.0
 20
0.0
 30
0.0
1001
GENIUS_GENODEF_13
1002
{
1000
HIER
1070
     1
1002
}
1002
{
1000
MANEDIT
1070
     0
1002
}
1002
{
1000
NOSEL
1070
     0
1002
}
1002
{
1000
BEHIND
1070
     0
1002
}
1002
{
1000
REACTOR
1002
}
1001
GENIUS_GENOBJ-N-SDF_13
1002
{
1000
OWNER
1000
GEN
1002
}
1001
GENIUS_GENOENT_13
1002
{
1000
MYREF
1005
1B94
1002
}
1002
{
1000
GRP
1005
0
1002
}
1001
GENIUS_GENOLIS_13
1002
{
1000
ENT
1005
89
1002
}
  0
LINE
  5
8C40
  8
AM_0
 10
276.87549769392388
 20
100.9406640681848
 30
0.0
 11
304.87554769392398
 21
100.9406640681848
 31
0.0
  0
LINE
  5
8C41
  8
AM_0
 10
276.87549769392388
 20
81.940662068184793
 30
0.0
 11
304.87554769392398
 21
81.940662068184793
 31
0.0
  0
LINE
  5
8C42
  8
ﾁｭｳｼﾝｾﾝ
 10
203.52609769392379
 20
91.440648068184871
 30
0.0
 11
310.23934769392389
 21
91.440648068184871
 31
0.0
  0
LINE
  5
8C43
  8
AM_0
 10
282.87549769392388
 20
103.4406470681848
 30
0.0
 11
304.87554769392398
 21
103.4406470681848
 31
0.0
  0
LINE
  5
8C46
  8
AM_0
 10
246.8755576939237
 20
155.6718030681848
 30
0.0
 11
246.8755576939237
 21
49.705356068185182
 31
0.0
  0
LINE
  5
8C47
  8
AM_0
 10
273.87555769392372
 20
161.4406530681849
 30
0.0
 11
273.87555769392372
 21
91.440648068184871
 31
0.0
  0
LINE
  5
8C48
  8
AM_0
 10
269.8755376939236
 20
166.44066306818459
 30
0.0
 11
269.8755376939236
 21
21.53682006818519
 31
0.0
  0
LINE
  5
8C49
  8
AM_0
 10
264.87555769392372
 20
150.94065306818479
 30
0.0
 11
264.87555769392372
 21
36.82533606818469
 31
0.0
  0
LINE
  5
8C4A
  8
AM_0
 10
208.87554769392401
 20
132.8223000681848
 30
0.0
 11
208.87554769392401
 21
118.4406480681847
 31
0.0
  0
LINE
  5
8C4B
  8
AM_0
 10
190.87554769392409
 20
130.44067806818481
 30
0.0
 11
190.87554769392409
 21
18.44064606818489
 31
0.0
  0
LINE
  5
8C4C
  8
AM_0
 10
214.87554769392389
 20
134.44065006818479
 30
0.0
 11
214.87554769392389
 21
9.6267270681850032
 31
0.0
  0
LINE
  5
8C4D
  8
ﾁｭｳｼﾝｾﾝ
 10
11.050843752258739
 20
74.440662068184864
 30
0.0
 11
212.8390876939238
 21
74.440662068184864
 31
0.0
  0
LINE
  5
8C4E
  8
AM_0
 10
259.87554769392392
 20
23.817399068184891
 30
0.0
 11
259.87554769392392
 21
50.905659068184889
 31
0.0
  0
LINE
  5
8C4F
  8
AM_0
 10
273.87555769392372
 20
91.440648068184871
 30
0.0
 11
273.87555769392372
 21
25.940631068184871
 31
0.0
  0
LINE
  5
8C50
  8
AM_0
 10
208.87554769392401
 20
23.64876006818519
 30
0.0
 11
208.87554769392401
 21
74.440662068184864
 31
0.0
  0
LINE
  5
8C51
  8
AM_0
 10
214.87554769392389
 20
21.660006068184881
 30
0.0
 11
250.87554769392389
 21
21.660006068184881
 31
0.0
  0
LINE
  5
8C52
  8
AM_0
 10
214.87554769392389
 20
9.6267270681850032
 30
0.0
 11
250.87554769392389
 21
8.3695680681851172
 31
0.0
  0
LINE
  5
8C53
  8
AM_0
 10
190.87554769392409
 20
28.44063006818487
 30
0.0
 11
208.87554769392401
 21
28.44063006818487
 31
0.0
  0
LINE
  5
8C54
  8
AM_0
 10
190.87545769392409
 20
18.44064606818489
 30
0.0
 11
201.4147876939237
 21
18.16465806818519
 31
0.0
  0
LINE
  5
8C55
  8
AM_0
 10
182.87559769392391
 20
18.440631068184871
 30
0.0
 11
190.87554769392409
 21
18.440631068184871
 31
0.0
  0
LINE
  5
8C56
  8
AM_0
 10
182.87559769392391
 20
28.44063006818487
 30
0.0
 11
190.87554769392409
 21
28.44063006818487
 31
0.0
  0
ARC
  5
8C57
  8
AM_0
 10
201.37554769392381
 20
16.66516206818488
 30
0.0
 40
1.500000029999998
 50
0.0
 51
88.499997000000747
  0
LINE
  5
8C58
  8
AM_0
 10
202.87554769392401
 20
22.07022306818487
 30
0.0
 11
202.87554769392401
 21
11.402193068184999
 31
0.0
  0
LINE
  5
8C59
  8
AM_0
 10
204.33627769392371
 20
9.9027120681849947
 30
0.0
 11
214.87554769392389
 21
9.6267270681850032
 31
0.0
  0
ARC
  5
8C5A
  8
AM_0
 10
204.3755476939242
 20
11.402193068184999
 30
0.0
 40
1.500000029999998
 50
179.99998999999889
 51
268.50000999999872
  0
ARC
  5
8C5B
  8
AM_0
 10
206.8755376939238
 20
23.64876006818519
 30
0.0
 40
2.00000007
 50
270.0
 51
0.0
  0
LINE
  5
8C5C
  8
AM_0
 10
208.87554769392401
 20
21.64874406818501
 30
0.0
 11
214.87554769392389
 21
21.64874406818501
 31
0.0
  0
ARC
  5
8C5D
  8
AM_0
 10
200.8755376939238
 20
22.07022306818487
 30
0.0
 40
2.00000007
 50
0.0
 51
90.00000299999769
  0
LINE
  5
8C5E
  8
AM_0
 10
202.87554769392401
 20
24.070224068184871
 30
0.0
 11
208.87554769392401
 21
24.070224068184871
 31
0.0
  0
LINE
  5
8C5F
  8
AM_0
 10
251.84934769392379
 20
25.363863068184909
 30
0.0
 11
259.87557769392379
 21
25.57403706818479
 31
0.0
  0
ARC
  5
8C60
  8
AM_0
 10
245.36103769392389
 20
16.236222068184858
 30
0.0
 40
9.5144921999999994
 50
342.41196000000002
 51
17.588032999999289
  0
LINE
  5
8C61
  8
AM_0
 10
254.87553769392369
 20
20.548722068184869
 30
0.0
 11
254.87553769392369
 21
11.92370706818479
 31
0.0
  0
LINE
  5
8C62
  8
AM_0
 10
250.87554769392389
 20
24.6394230681849
 30
0.0
 11
250.87554769392389
 21
8.4406290681849896
 31
0.0
  0
ARC
  5
8C63
  8
AM_0
 10
252.3301276939238
 20
11.92370706818479
 30
0.0
 40
2.5454064299999981
 50
325.6155700000001
 51
34.384439000001372
  0
LINE
  5
8C64
  8
AM_0
 10
254.43075769392379
 20
13.361208068184791
 30
0.0
 11
250.87554769392389
 21
13.361208068184791
 31
0.0
  0
LINE
  5
8C65
  8
AM_0
 10
254.43075769392379
 20
10.486224068184979
 30
0.0
 11
250.87554769392389
 21
10.486224068184979
 31
0.0
  0
ARC
  5
8C66
  8
AM_0
 10
252.3301276939238
 20
20.548722068184869
 30
0.0
 40
2.5454064299999981
 50
325.6155700000001
 51
34.384439000001372
  0
ARC
  5
8C67
  8
AM_0
 10
251.87553769392369
 20
24.3642000681848
 30
0.0
 40
1.0000000199999941
 50
91.500001000001546
 51
180.0000099999977
  0
LINE
  5
8C68
  8
AM_0
 10
254.43075769392379
 20
19.11122406818486
 30
0.0
 11
250.87554769392389
 21
19.11122406818486
 31
0.0
  0
LINE
  5
8C69
  8
AM_0
 10
254.43075769392379
 20
21.9862230681847
 30
0.0
 11
250.87554769392389
 21
21.9862230681847
 31
0.0
  0
LINE
  5
8C6A
  8
AM_0
 10
261.80574769392371
 20
21.818622068184862
 30
0.0
 11
269.87550769392368
 21
21.53682006818519
 31
0.0
  0
ARC
  5
8C6B
  8
AM_0
 10
261.87555769392361
 20
23.817399068184891
 30
0.0
 40
2.00000007
 50
179.99998999999889
 51
268.00000999999861
  0
LINE
  5
8C6C
  8
AM_0
 10
269.8755376939236
 20
25.835895068184868
 30
0.0
 11
273.8755276939238
 21
25.940631068184871
 31
0.0
  0
ARC
  5
8C6D
  8
AM_0
 10
262.87554769392392
 20
36.82533606818469
 30
0.0
 40
2.00000007
 50
268.0000000000029
 51
0.0
  0
LINE
  5
8C6E
  8
AM_0
 10
214.87554769392389
 20
117.0475200681847
 30
0.0
 11
245.0715376939238
 21
117.0475200681847
 31
0.0
  0
LINE
  5
8C71
  8
AM_0
 10
208.87554769392401
 20
114.3142740681847
 30
0.0
 11
208.87554769392401
 21
74.440662068184864
 31
0.0
  0
LINE
  5
8C72
  8
AM_0
 10
190.87554769392409
 20
42.503223068185001
 30
0.0
 11
208.87554769392401
 21
42.503223068185001
 31
0.0
  0
LINE
  5
8C73
  8
AM_0
 10
182.87559769392391
 20
42.500658068184997
 30
0.0
 11
190.87554769392409
 21
42.500658068184997
 31
0.0
  0
LINE
  5
8C76
  8
AM_0
 10
190.87554769392409
 20
106.3780860681849
 30
0.0
 11
202.87554769392401
 21
106.3780860681849
 31
0.0
  0
LINE
  5
8C77
  8
AM_0
 10
190.87554769392409
 20
120.4406490681848
 30
0.0
 11
208.87554769392401
 21
120.4406490681848
 31
0.0
  0
LINE
  5
8C78
  8
AM_0
 10
182.87559769392391
 20
106.3806510681848
 30
0.0
 11
190.87554769392409
 21
106.3806510681848
 31
0.0
  0
LINE
  5
8C79
  8
AM_0
 10
182.87559769392391
 20
120.4406490681848
 30
0.0
 11
190.87554769392409
 21
120.4406490681848
 31
0.0
  0
LINE
  5
8C7B
  8
AM_0
 10
202.87554769392401
 20
118.4406480681847
 30
0.0
 11
202.87554769392401
 21
100.2233790681851
 31
0.0
  0
LINE
  5
8C7D
  8
AM_0
 10
202.87554769392401
 20
100.2233790681851
 30
0.0
 11
208.87554769392401
 21
100.2233790681851
 31
0.0
  0
LINE
  5
8C7E
  8
AM_0
 10
202.87554769392401
 20
117.0475200681847
 30
0.0
 11
214.87554769392389
 21
117.0475200681847
 31
0.0
  0
LINE
  5
8C7F
  8
AM_0
 10
202.87554769392401
 20
118.4406480681847
 30
0.0
 11
208.87554769392401
 21
118.4406480681847
 31
0.0
  0
LINE
  5
8C80
  8
AM_0
 10
274.87554769392392
 20
110.4664950681848
 30
0.0
 11
274.87554769392392
 21
72.196215068184813
 31
0.0
  0
LINE
  5
8C81
  8
AM_0
 10
276.87549769392388
 20
81.440661068184866
 30
0.0
 11
276.87549769392388
 21
91.440648068184871
 31
0.0
  0
LINE
  5
8C82
  8
AM_0
 10
251.87553769392369
 20
44.7053550681849
 30
0.0
 11
259.87554769392392
 21
44.7053550681849
 31
0.0
  0
ARC
  5
8C83
  8
AM_0
 10
251.87553769392369
 20
49.705356068185182
 30
0.0
 40
5.0000000999999967
 50
179.99998999999889
 51
270.0
  0
ARC
  5
8C84
  8
AM_0
 10
261.87555769392361
 20
50.905659068184889
 30
0.0
 40
2.00000007
 50
90.00000299999769
 51
180.0000099999977
  0
LINE
  5
8C85
  8
AM_0
 10
274.87554769392392
 20
81.440661068184866
 30
0.0
 11
276.87549769392388
 21
81.440661068184866
 31
0.0
  0
ARC
  5
8C86
  8
AM_0
 10
272.87553769392372
 20
72.196215068184813
 30
0.0
 40
2.00000007
 50
315.0
 51
0.0
  0
LINE
  5
8C87
  8
AM_0
 10
273.87555769392372
 20
70.367754068184894
 30
0.0
 11
274.28976769392358
 21
70.781970068184876
 31
0.0
  0
LINE
  5
8C88
  8
AM_0
 10
282.87549769392388
 20
100.9406640681848
 30
0.0
 11
282.87549769392382
 21
103.4406470681848
 31
0.0
  0
LINE
  5
8C89
  8
AM_0
 10
274.87554769392392
 20
101.4406470681848
 30
0.0
 11
276.87549769392388
 21
101.4406470681848
 31
0.0
  0
LINE
  5
8C8A
  8
AM_0
 10
276.87549769392388
 20
101.4406470681848
 30
0.0
 11
276.87549769392388
 21
91.440648068184871
 31
0.0
  0
ARC
  5
8C8B
  8
AM_0
 10
272.87553769392372
 20
110.5393410681848
 30
0.0
 40
2.00000007
 50
0.0
 51
45.00000100000149
  0
LINE
  5
8C8C
  8
AM_0
 10
273.8755276939238
 20
112.36777206818481
 30
0.0
 11
274.2897376939236
 21
111.9535560681848
 31
0.0
  0
LINE
  5
8C91
  8
AM_0
 10
214.87554769392389
 20
134.44065006818479
 30
0.0
 11
243.95406769392369
 21
135.20209206818481
 31
0.0
  0
LINE
  5
8C93
  8
AM_0
 10
190.87560769392411
 20
130.4406480681848
 30
0.0
 11
207.4147876939237
 21
130.87375506818481
 31
0.0
  0
LINE
  5
8C94
  8
AM_0
 10
182.87559769392391
 20
130.4406480681848
 30
0.0
 11
190.87554769392409
 21
130.4406480681848
 31
0.0
  0
ARC
  5
8C95
  8
AM_0
 10
207.37554769392401
 20
132.37323606818481
 30
0.0
 40
1.500000029999998
 50
271.50000000000267
 51
0.0
  0
ARC
  5
8C96
  8
AM_0
 10
210.37554769392401
 20
132.8223000681848
 30
0.0
 40
1.500000029999998
 50
91.500001000001546
 51
180.0000099999977
  0
LINE
  5
8C97
  8
AM_0
 10
210.33627769392379
 20
134.32181406818469
 30
0.0
 11
214.87554769392389
 21
134.4406800681848
 31
0.0
  0
ARC
  5
8C9A
  8
AM_0
 10
256.87554769392392
 20
163.85127306818481
 30
0.0
 40
3.0
 50
271.99999999999699
 51
0.0
  0
ARC
  5
8C9B
  8
AM_0
 10
243.8755576939237
 20
138.20105406818479
 30
0.0
 40
3.0
 50
271.50000000000267
 51
0.0
  0
ARC
  5
8C9C
  8
AM_0
 10
251.87553769392369
 20
155.6718030681848
 30
0.0
 40
5.0000000999999967
 50
91.999998000000502
 51
180.0000099999977
  0
LINE
  5
8C9D
  8
AM_0
 10
251.7010576939239
 20
160.66872306818479
 30
0.0
 11
256.98027769392382
 21
160.85310306818479
 31
0.0
  0
LINE
  5
8C9E
  8
AM_0
 10
259.87554769392392
 20
164.1600630681848
 30
0.0
 11
259.87554769392392
 21
131.8810170681848
 31
0.0
  0
ARC
  5
8C9F
  8
AM_0
 10
261.87555769392361
 20
131.8810170681848
 30
0.0
 40
2.00000007
 50
179.99998999999889
 51
271.51463999999902
  0
ARC
  5
8CA1
  8
AM_0
 10
261.87555769392361
 20
150.94065306818479
 30
0.0
 40
3.0
 50
0.0
 51
90.00000299999769
  0
LINE
  5
8CA2
  8
AM_0
 10
261.80574769392371
 20
166.15884306818469
 30
0.0
 11
269.87556769392381
 21
166.44066306818459
 31
0.0
  0
ARC
  5
8CA3
  8
AM_0
 10
261.87555769392361
 20
164.1600630681848
 30
0.0
 40
2.00000007
 50
91.999998000000502
 51
180.0000099999977
  0
LINE
  5
8CA4
  8
AM_0
 10
269.8755376939236
 20
161.4406530681849
 30
0.0
 11
273.87555769392372
 21
161.4406530681849
 31
0.0
  0
ARC
  5
8CAA
  8
AM_0
 10
486.80097537198282
 20
91.440648068184871
 30
0.0
 40
44.000000999999983
 50
95.508459459538713
 51
132.45267999999771
  0
ARC
  5
8CAB
  8
AM_0
 10
486.80097537198282
 20
91.440648068184871
 30
0.0
 40
44.000000999999983
 50
47.547317000001861
 51
84.505819000000741
  0
ARC
  5
8CAC
  8
AM_0
 10
486.80097537198282
 20
91.440648068184871
 30
0.0
 40
70.000001999999995
 50
290.65614999999718
 51
249.34384000000239
  0
ARC
  5
8CAD
  8
AM_0
 10
486.80097537198282
 20
91.440648068184871
 30
0.0
 40
66.000003000000007
 50
291.27996000000343
 51
248.7200300000012
  0
LINE
  5
8CAE
  8
AM_0
 10
411.8009723719826
 20
111.4406160681848
 30
0.0
 11
415.4944253719828
 21
153.65679306818461
 31
0.0
  0
LINE
  5
8CAF
  8
AM_0
 10
561.80097837198275
 20
111.4406490681848
 30
0.0
 11
558.10754037198285
 21
153.65679306818461
 31
0.0
  0
LINE
  5
8CB0
  8
AM_0
 10
508.45187037198298
 20
115.91998806818479
 30
0.0
 11
529.79395737198286
 21
137.26206006818481
 31
0.0
  0
LINE
  5
8CB1
  8
AM_0
 10
511.28031537198308
 20
113.0915580681848
 30
0.0
 11
532.62238737198265
 21
134.43363006818481
 31
0.0
  0
LINE
  5
8CB2
  8
AM_0
 10
462.32163537198261
 20
113.0915580681848
 30
0.0
 11
440.97956337198309
 21
134.43363006818481
 31
0.0
  0
LINE
  5
8CB3
  8
AM_0
 10
465.1500503719829
 20
115.91998806818479
 30
0.0
 11
443.80799337198312
 21
137.2620300681848
 31
0.0
  0
LINE
  5
8CB4
  8
ﾁｭｳｼﾝｾﾝ
 10
486.80097537198282
 20
4.768878068184903
 30
0.0
 11
486.80097537198282
 21
172.3547044265228
 31
0.0
  0
LINE
  5
8CB6
  8
ﾁｭｳｼﾝｾﾝ
 10
407.6286949215812
 20
91.440648068184871
 30
0.0
 11
565.97325582238432
 21
91.440648068184871
 31
0.0
1001
GENIUS_GENODEF_13
1002
{
1000
HIER
1070
     0
1002
}
1002
{
1000
MANEDIT
1070
     0
1002
}
1002
{
1000
NOSEL
1070
     0
1002
}
1002
{
1000
BEHIND
1070
     0
1002
}
1002
{
1000
OTHER
1070
     0
1002
}
1002
{
1000
REACTOR
1002
}
1001
GENIUS_GENOBJ-N-CEN_13
1002
{
1000
OWNER
1000
GEN
1002
}
  0
ARC
  5
8CB7
  8
AM_0
 10
486.80097537198282
 20
91.440648068184871
 30
0.0
 40
44.000000999999983
 50
19.999999000002109
 51
42.452681999998767
  0
ARC
  5
8CB8
  8
AM_0
 10
508.35097737198311
 20
56.560641068184879
 30
0.0
 40
20.000000700000001
 50
225.82603000000131
 51
17.592213999998648
  0
LINE
  5
8CB9
  8
AM_0
 10
525.29990937198272
 20
20.44061406818491
 30
0.0
 11
548.17574937198265
 21
20.44061406818491
 31
0.0
  0
LINE
  5
8CBA
  8
AM_0
 10
528.14745837198325
 20
106.4895060681848
 30
0.0
 11
532.36039437198315
 21
94.914570068184915
 31
0.0
  0
LINE
  5
8CBD
  8
AM_0
 10
304.87554769392398
 20
81.940662068184793
 30
0.0
 11
304.87554769392381
 21
103.4406470681848
 31
0.0
  0
ARC
  5
8CC5
  8
AM_0
 10
524.06341137198297
 20
40.641909068184809
 30
0.0
 40
3.0
 50
211.70912000000229
 51
306.26119999999793
  0
LINE
  5
8CC7
  8
AM_0
 10
411.8009723719826
 20
71.440632068184911
 30
0.0
 11
415.4642723719831
 21
29.5690800681848
 31
0.0
  0
LINE
  5
8CC8
  8
AM_0
 10
457.10248737198282
 20
58.913730068184691
 30
0.0
 11
480.95424837198271
 21
35.061969068184787
 31
0.0
  0
LINE
  5
8CC9
  8
AM_0
 10
517.10897337198276
 20
38.580141068184822
 30
0.0
 11
518.10831837198293
 21
36.962649068184867
 31
0.0
  0
ARC
  5
8CCA
  8
AM_0
 10
462.6919043719829
 20
16.236207068185191
 30
0.0
 40
7.0000007999999987
 50
161.74801999999841
 51
270.0
  0
CIRCLE
  5
8CCB
  8
AM_0
 10
462.6919043719829
 20
16.236237068184892
 30
0.0
 40
4.9999998000000003
  0
LINE
  5
8CCC
  8
AM_0
 10
451.47745737198289
 20
25.940631068184871
 30
0.0
 11
486.80097537198282
 21
25.940631068184871
 31
0.0
  0
LINE
  5
8CCD
  8
AM_0
 10
457.69191837198292
 20
13.34947506818491
 30
0.0
 11
462.69191937198281
 21
10.46272506818479
 31
0.0
  0
LINE
  5
8CCE
  8
AM_0
 10
462.6919043719829
 20
22.00973706818467
 30
0.0
 11
457.69191837198292
 21
19.122987068184781
 31
0.0
  0
CIRCLE
  5
8CCF
  8
AM_0
 10
426.69690837198277
 20
31.33655106818486
 30
0.0
 40
5.0000000999999967
  0
LINE
  5
8CD0
  8
AM_0
 10
448.30204137198319
 20
20.44061406818491
 30
0.0
 11
425.42618637198291
 21
20.44061406818491
 31
0.0
  0
ARC
  5
8CD1
  8
AM_0
 10
425.42618637198291
 20
30.440631068184871
 30
0.0
 40
10.000000199999979
 50
184.9999899999992
 51
270.0
  0
LINE
  5
8CD2
  8
AM_0
 10
457.69191837198292
 20
19.122987068184781
 30
0.0
 11
457.69191837198292
 21
13.34945706818479
 31
0.0
  0
ARC
  5
8CD3
  8
AM_0
 10
486.80097537198282
 20
74.440632068184911
 30
0.0
 40
60.000002999999992
 50
233.93341000000149
 51
236.89085000000341
  0
LINE
  5
8CD4
  8
AM_0
 10
448.30204137198319
 20
20.440629068184869
 30
0.0
 11
451.4774723719828
 21
25.940631068184871
 31
0.0
  0
ARC
  5
8CD5
  8
AM_0
 10
451.29564837198291
 20
19.994571068184879
 30
0.0
 40
5.0000000999999967
 50
341.74801999999852
 51
56.890858999997171
  0
LINE
  5
8CD6
  8
AM_0
 10
462.6919043719829
 20
9.2362080681849061
 30
0.0
 11
510.91003137198311
 21
9.2362080681849061
 31
0.0
  0
LINE
  5
8CD7
  8
AM_0
 10
522.12449337198314
 20
25.940631068184871
 30
0.0
 11
486.80097537198282
 21
25.940631068184871
 31
0.0
  0
LINE
  5
8CD8
  8
AM_0
 10
510.75405537198282
 20
29.94063006818488
 30
0.0
 11
462.8478953719831
 21
29.94063006818488
 31
0.0
  0
LINE
  5
8CD9
  8
AM_0
 10
467.6919053719829
 20
13.34945706818479
 30
0.0
 11
467.6919053719829
 21
19.122987068184781
 31
0.0
  0
LINE
  5
8CDA
  8
AM_0
 10
462.6919043719829
 20
10.462755068185171
 30
0.0
 11
467.6919053719829
 21
13.349505068184881
 31
0.0
  0
LINE
  5
8CDB
  8
AM_0
 10
467.6919203719828
 20
19.122972068184879
 30
0.0
 11
462.69191937198281
 21
22.009722068184711
 31
0.0
  0
ARC
  5
8CDC
  8
AM_0
 10
478.83292737198298
 20
32.940630068184809
 30
0.0
 40
3.0
 50
270.0
 51
45.00000100000149
  0
ARC
  5
8CDD
  8
AM_0
 10
510.91003137198311
 20
16.236207068185191
 30
0.0
 40
7.0000007999999987
 50
270.0
 51
18.251978000000928
  0
CIRCLE
  5
8CDE
  8
AM_0
 10
510.91003137198311
 20
16.236237068184892
 30
0.0
 40
4.9999998000000003
  0
LINE
  5
8CDF
  8
AM_0
 10
515.910029371983
 20
13.34945706818479
 30
0.0
 11
515.910029371983
 21
19.122987068184781
 31
0.0
  0
LINE
  5
8CE0
  8
AM_0
 10
505.91001537198281
 20
19.122987068184781
 30
0.0
 11
505.91001537198281
 21
13.34945706818479
 31
0.0
  0
LINE
  5
8CE1
  8
AM_0
 10
510.91003137198311
 20
10.462740068184811
 30
0.0
 11
515.910029371983
 21
13.349490068184821
 31
0.0
  0
LINE
  5
8CE2
  8
AM_0
 10
505.91004537198262
 20
13.34945706818479
 30
0.0
 11
510.91003137198311
 21
10.462710068185
 31
0.0
  0
LINE
  5
8CE3
  8
AM_0
 10
515.910029371983
 20
19.122972068184879
 30
0.0
 11
510.91004637198313
 21
22.009722068184711
 31
0.0
  0
LINE
  5
8CE4
  8
AM_0
 10
510.91003137198311
 20
22.009752068184859
 30
0.0
 11
505.91001537198281
 21
19.12300206818486
 31
0.0
  0
ARC
  5
8CE5
  8
AM_0
 10
486.80097537198282
 20
74.440632068184911
 30
0.0
 40
60.000002999999992
 50
303.10914000000201
 51
306.06658999999843
  0
ARC
  5
8CE6
  8
AM_0
 10
486.80097537198282
 20
74.440632068184911
 30
0.0
 40
60.000002999999992
 50
303.10914000000201
 51
304.41150999999837
  0
ARC
  5
8CE7
  8
AM_0
 10
522.30628737198265
 20
19.994571068184879
 30
0.0
 40
5.0000000999999967
 50
123.1091299999986
 51
198.2519800000014
  0
LINE
  5
8CE8
  8
AM_0
 10
525.29990937198272
 20
20.440629068184869
 30
0.0
 11
522.12447837198272
 21
25.940631068184871
 31
0.0
  0
ARC
  5
8CE9
  8
AM_0
 10
515.55613437198281
 20
35.385822068185
 30
0.0
 40
3.0
 50
297.1570500000023
 51
31.709121999997731
  0
ARC
  5
8CEA
  8
AM_0
 10
486.80097537198282
 20
91.440648068184871
 30
0.0
 40
30.0
 50
17.592213999998648
 51
225.82603000000131
  0
LINE
  5
8CEB
  8
AM_0
 10
464.9292083719829
 20
66.740451068184882
 30
0.0
 11
443.80797837198259
 21
45.619221068184991
 31
0.0
  0
LINE
  5
8CEC
  8
AM_0
 10
462.3216203719831
 20
69.789723068184884
 30
0.0
 11
440.97953337198322
 21
48.447651068184882
 31
0.0
  0
ARC
  5
8CED
  8
AM_0
 10
486.80097537198282
 20
91.440648068184871
 30
0.0
 40
44.000000999999983
 50
185.49418999999949
 51
222.4526800000024
  0
LINE
  5
8CEE
  8
AM_0
 10
411.8009723719826
 20
111.4406160681848
 30
0.0
 11
411.8009723719826
 21
71.440632068184911
 31
0.0
  0
ARC
  5
8CEF
  8
AM_0
 10
438.8582543719827
 20
50.568972068184863
 30
0.0
 40
3.0
 50
220.44792000000089
 51
315.0
  0
ARC
  5
8CF0
  8
AM_0
 10
445.9292843719831
 20
43.497897068184812
 30
0.0
 40
3.0
 50
135.0
 51
229.5520800000011
  0
LINE
  5
8CF1
  8
AM_0
 10
423.96189237198257
 20
92.940648068184814
 30
0.0
 11
440.01688437198283
 21
92.940648068184814
 31
0.0
  0
LINE
  5
8CF2
  8
AM_0
 10
423.96189237198257
 20
89.940648068184871
 30
0.0
 11
440.01688437198283
 21
89.940648068184871
 31
0.0
  0
ARC
  5
8CF3
  8
AM_0
 10
423.96189237198257
 20
95.940648068184785
 30
0.0
 40
3.0
 50
175.90394999999901
 51
270.0
  0
ARC
  5
8CF4
  8
AM_0
 10
423.96189237198257
 20
86.940648068184771
 30
0.0
 40
3.0
 50
90.00000299999769
 51
184.09603999999771
  0
ARC
  5
8CF5
  8
AM_0
 10
486.80097537198282
 20
91.440648068184871
 30
0.0
 40
44.000000999999983
 50
137.5473199999976
 51
174.50581000000039
  0
ARC
  5
8CF6
  8
AM_0
 10
440.01688437198283
 20
95.940648068184785
 30
0.0
 40
3.0
 50
270.0
 51
354.50582000000048
  0
ARC
  5
8CF7
  8
AM_0
 10
440.01688437198283
 20
86.940648068184771
 30
0.0
 40
3.0
 50
5.4941789999992974
 51
90.00000299999769
  0
CIRCLE
  5
8CF8
  8
AM_0
 10
436.81971237198297
 20
112.7926080681848
 30
0.0
 40
4.9999998000000003
  0
LINE
  5
8CF9
  8
AM_0
 10
441.81971037198281
 20
109.9058580681848
 30
0.0
 11
441.81971037198281
 21
115.6793580681846
 31
0.0
  0
LINE
  5
8CFA
  8
AM_0
 10
431.81971137198258
 20
115.6793580681846
 30
0.0
 11
431.81971137198258
 21
109.9058580681848
 31
0.0
  0
LINE
  5
8CFB
  8
AM_0
 10
431.81971137198258
 20
109.9058580681848
 30
0.0
 11
436.81971237198297
 21
107.01910806818481
 31
0.0
  0
LINE
  5
8CFC
  8
AM_0
 10
436.81971237198297
 20
107.01910806818481
 30
0.0
 11
441.81971037198281
 21
109.9058580681848
 31
0.0
  0
LINE
  5
8CFD
  8
AM_0
 10
436.81974237198301
 20
118.5661050681851
 30
0.0
 11
431.81971137198258
 21
115.6793580681846
 31
0.0
  0
LINE
  5
8CFE
  8
AM_0
 10
441.81971037198281
 20
115.6793580681846
 30
0.0
 11
436.81971237198297
 21
118.5661050681851
 31
0.0
  0
ARC
  5
8CFF
  8
AM_0
 10
486.80097537198282
 20
91.440648068184871
 30
0.0
 40
20.000000700000001
 50
90.00000299999769
 51
270.0
  0
ARC
  5
8D00
  8
AM_0
 10
486.80097537198282
 20
91.440648068184871
 30
0.0
 40
20.000000700000001
 50
270.0
 51
90.00000299999769
  0
ARC
  5
8D01
  8
AM_0
 10
486.80097537198282
 20
91.440648068184871
 30
0.0
 40
20.000000700000001
 50
90.00000299999769
 51
270.0
  0
ARC
  5
8D02
  8
AM_0
 10
486.80097537198282
 20
91.440648068184871
 30
0.0
 40
20.000000700000001
 50
270.0
 51
90.00000299999769
  0
LINE
  5
8D03
  8
AM_0
 10
527.41559937198315
 20
62.605458068185193
 30
0.0
 11
515.39791437198289
 21
100.5078480681848
 31
0.0
  0
LINE
  5
8D04
  8
ﾁｭｳｼﾝｾﾝ
 10
519.04571114052203
 20
74.440662068184864
 30
0.0
 11
454.5562396034436
 21
74.440662068184864
 31
0.0
  0
LINE
  5
8D05
  8
AM_0
 10
494.41419537198283
 20
42.216081068184877
 30
0.0
 11
465.8957933719829
 21
69.923817068184889
 31
0.0
  0
ARC
  5
8D06
  8
AM_0
 10
460.2002963719828
 20
71.911059068184869
 30
0.0
 40
3.0
 50
315.0
 51
36.285256999999532
  0
ARC
  5
8D07
  8
AM_0
 10
467.05053237198263
 20
64.619130068184873
 30
0.0
 40
3.0
 50
45.82603099999853
 51
135.0
  0
LINE
  5
8D09
  8
AM_0
 10
520.51188237198278
 20
40.682574068184813
 30
0.0
 11
521.51122737198307
 21
39.065082068184687
 31
0.0
  0
ARC
  5
8D0A
  8
AM_0
 10
486.80097537198282
 20
91.440648068184871
 30
0.0
 40
9.5000003999999993
 50
108.4084799999999
 51
71.591512000000776
  0
CIRCLE
  5
8D0B
  8
AM_5
 10
486.80097537198282
 20
91.440648068184871
 30
0.0
 40
3.0
  0
CIRCLE
  5
8D0C
  8
AM_0
 10
486.80097537198282
 20
91.440648068184871
 30
0.0
 40
2.4999998400000001
  0
LINE
  5
8D0D
  8
AM_0
 10
483.80097537198287
 20
97.440648068184871
 30
0.0
 11
489.8009753719827
 21
97.440648068184871
 31
0.0
  0
LINE
  5
8D0E
  8
AM_0
 10
489.8009753719827
 20
103.4406480681848
 30
0.0
 11
483.80097537198287
 21
103.4406480681848
 31
0.0
  0
LINE
  5
8D0F
  8
AM_0
 10
483.80097537198287
 20
103.4406480681848
 30
0.0
 11
483.80097537198287
 21
97.440648068184871
 31
0.0
  0
LINE
  5
8D10
  8
AM_0
 10
489.8009753719827
 20
97.440648068184871
 30
0.0
 11
489.8009753719827
 21
103.4406480681848
 31
0.0
  0
ARC
  5
8D11
  8
AM_0
 10
460.2002963719828
 20
110.9702190681848
 30
0.0
 40
3.0
 50
323.71473999999768
 51
45.00000100000149
  0
ARC
  5
8D12
  8
AM_0
 10
467.27137137198281
 20
118.0412940681848
 30
0.0
 40
3.0
 50
225.0
 51
306.28525999999772
  0
ARC
  5
8D13
  8
AM_0
 10
513.4016393719827
 20
110.9702190681848
 30
0.0
 40
3.0
 50
135.0
 51
216.28526000000221
  0
ARC
  5
8D14
  8
AM_0
 10
506.33056137198281
 20
118.0412940681848
 30
0.0
 40
3.0
 50
233.7147499999995
 51
315.0
  0
LINE
  5
8D17
  8
AM_0
 10
561.80097837198275
 20
71.440632068184911
 30
0.0
 11
558.13769337198278
 21
29.569062068185008
 31
0.0
  0
CIRCLE
  5
8D1D
  8
AM_0
 10
546.90504237198297
 20
31.33655106818486
 30
0.0
 40
5.0000000999999967
  0
ARC
  5
8D1F
  8
AM_0
 10
548.17574937198265
 20
30.440631068184871
 30
0.0
 40
10.000000199999979
 50
270.0
 51
355.00000000000023
  0
LINE
  5
8D21
  8
AM_0
 10
561.80097837198275
 20
91.440648068184871
 30
0.0
 11
561.80097837198275
 21
71.440632068184911
 31
0.0
  0
LINE
  5
8D22
  8
AM_0
 10
535.63612137198288
 20
85.914570068184815
 30
0.0
 11
544.66032237198306
 21
61.120761068184891
 31
0.0
  0
LINE
  5
8D24
  8
AM_0
 10
549.64004337198298
 20
89.940648068184871
 30
0.0
 11
538.45518237198303
 21
89.940648068184871
 31
0.0
  0
LINE
  5
8D25
  8
AM_0
 10
549.64004337198298
 20
92.940648068184814
 30
0.0
 11
535.17947037198269
 21
92.940648068184814
 31
0.0
  0
ARC
  5
8D26
  8
AM_0
 10
535.17947037198269
 20
95.940648068184785
 30
0.0
 40
3.0
 50
199.9999999999994
 51
270.0
  0
ARC
  5
8D27
  8
AM_0
 10
538.45518237198303
 20
86.940648068184771
 30
0.0
 40
3.0
 50
90.00000299999769
 51
199.9999999999994
  0
ARC
  5
8D28
  8
AM_0
 10
549.64004337198298
 20
95.940648068184785
 30
0.0
 40
3.0
 50
270.0
 51
4.0960440000003242
  0
ARC
  5
8D29
  8
AM_0
 10
549.64004337198298
 20
86.940648068184771
 30
0.0
 40
3.0
 50
355.90395999999907
 51
90.00000299999769
  0
CIRCLE
  5
8D2A
  8
AM_0
 10
536.78222337198315
 20
112.7926080681848
 30
0.0
 40
4.9999998000000003
  0
LINE
  5
8D2B
  8
AM_0
 10
531.78222237198258
 20
115.6793580681846
 30
0.0
 11
531.78222237198258
 21
109.9058580681848
 31
0.0
  0
LINE
  5
8D2C
  8
AM_0
 10
541.78223937198288
 20
109.9058580681848
 30
0.0
 11
541.78223937198288
 21
115.6793580681846
 31
0.0
  0
LINE
  5
8D2D
  8
AM_0
 10
531.78223737198311
 20
109.9058580681848
 30
0.0
 11
536.78223837198254
 21
107.01910806818481
 31
0.0
  0
LINE
  5
8D2E
  8
AM_0
 10
536.78223837198254
 20
107.01910806818481
 30
0.0
 11
541.78223937198288
 21
109.90588806818479
 31
0.0
  0
LINE
  5
8D2F
  8
AM_0
 10
536.78222337198315
 20
118.56613506818481
 30
0.0
 11
531.78222237198258
 21
115.67938806818481
 31
0.0
  0
LINE
  5
8D30
  8
AM_0
 10
541.78223937198288
 20
115.6793580681846
 30
0.0
 11
536.78223837198254
 21
118.5661050681851
 31
0.0
  0
LINE
  5
8D31
  8
AM_0
 10
561.80097837198275
 20
91.440648068184871
 30
0.0
 11
561.80097837198275
 21
111.4406490681848
 31
0.0
  0
LINE
  5
8D34
  8
AM_0
 10
506.8009763719831
 20
166.44066306818459
 30
0.0
 11
549.01714737198267
 21
162.74721306818481
 31
0.0
  0
LINE
  5
8D37
  8
AM_0
 10
466.80097437198282
 20
166.44063306818461
 30
0.0
 11
424.58481837198281
 21
162.74721306818481
 31
0.0
  0
CIRCLE
  5
8D38
  8
AM_0
 10
426.69690837198277
 20
151.5447030681849
 30
0.0
 40
5.0000000999999967
  0
ARC
  5
8D3B
  8
AM_0
 10
425.45636937198287
 20
152.7852630681848
 30
0.0
 40
10.000000199999979
 50
95.00000199999856
 51
175.00001000000071
  0
ARC
  5
8D3C
  8
AM_0
 10
438.8582543719827
 20
132.31229106818481
 30
0.0
 40
3.0
 50
45.00000100000149
 51
139.55207999999649
  0
ARC
  5
8D3D
  8
AM_0
 10
445.9292843719831
 20
139.3833660681847
 30
0.0
 40
3.0
 50
130.44793000000001
 51
225.0
  0
LINE
  5
8D3F
  8
AM_0
 10
486.80097537198282
 20
166.44066306818459
 30
0.0
 11
506.80096137198319
 21
166.44066306818459
 31
0.0
  0
LINE
  5
8D40
  8
AM_0
 10
488.30097537198287
 20
154.2797430681847
 30
0.0
 11
488.30097537198287
 21
138.2247060681847
 31
0.0
  0
LINE
  5
8D41
  8
AM_0
 10
485.30097537198282
 20
154.2797430681847
 30
0.0
 11
485.30097537198282
 21
138.2247060681847
 31
0.0
  0
ARC
  5
8D42
  8
AM_0
 10
491.30097537198282
 20
138.2247060681847
 30
0.0
 40
3.0
 50
179.99998999999889
 51
264.50581999999741
  0
ARC
  5
8D43
  8
AM_0
 10
482.30097537198282
 20
138.2247060681847
 30
0.0
 40
3.0
 50
275.49418000000259
 51
0.0
  0
LINE
  5
8D44
  8
AM_0
 10
486.80097537198282
 20
166.44066306818459
 30
0.0
 11
466.80097437198282
 21
166.44066306818459
 31
0.0
  0
ARC
  5
8D45
  8
AM_0
 10
491.30097537198282
 20
154.2797430681847
 30
0.0
 40
3.0
 50
85.903959000000114
 51
180.0000099999977
  0
ARC
  5
8D46
  8
AM_0
 10
482.30097537198282
 20
154.2797430681847
 30
0.0
 40
3.0
 50
0.0
 51
94.096045999998367
  0
ARC
  5
8D47
  8
ﾁｭｳｼﾝｾﾝ
 10
486.80097537198282
 20
91.440648068184871
 30
0.0
 40
85.000001999999981
 50
38.255420127830689
 51
51.7445684328531
  0
CIRCLE
  5
8D48
  8
AM_0
 10
546.90504237198297
 20
151.5447030681849
 30
0.0
 40
5.0000000999999967
  0
LINE
  5
8D49
  8
ﾁｭｳｼﾝｾﾝ
 10
539.83397633845686
 20
144.4736334779804
 30
0.0
 11
553.97611756369975
 21
158.61576350019141
 31
0.0
  0
ARC
  5
8D4A
  8
AM_0
 10
534.74371137198295
 20
132.31229106818481
 30
0.0
 40
3.0
 50
40.447928999999448
 51
135.0
  0
ARC
  5
8D4B
  8
AM_0
 10
527.67265137198319
 20
139.3833660681847
 30
0.0
 40
3.0
 50
315.0
 51
49.552073000000007
  0
ARC
  5
8D4C
  8
AM_0
 10
548.14558137198264
 20
152.7852630681848
 30
0.0
 40
10.000000199999979
 50
4.999999899997543
 51
84.999996999998572
  0
ARC
  5
8D53
  8
AM_0
 10
76.199347693923954
 20
89.450673068185026
 30
0.0
 40
1.335016049999999
 50
89.732355000002002
 51
270.26763000000221
  0
LINE
  5
8D54
  8
AM_0
 10
16.87554769392392
 20
42.77064606818481
 30
0.0
 11
16.87554769392392
 21
108.9706320681848
 31
0.0
  0
LINE
  5
8D55
  8
AM_0
 10
19.375537693923931
 20
50.460651068184788
 30
0.0
 11
19.375537693923931
 21
131.4406770681847
 31
0.0
  0
LINE
  5
8D56
  8
AM_0
 10
66.87555769392408
 20
131.4406770681847
 30
0.0
 11
66.87555769392408
 21
17.440659068185191
 31
0.0
  0
LINE
  5
8D57
  8
ﾁｭｳｼﾝｾﾝ
 10
131.8755376939238
 20
115.0656765681848
 30
0.0
 11
131.8755376939238
 21
33.815647568184879
 31
0.0
  0
LINE
  5
8D58
  8
AM_0
 10
172.64556769392391
 20
104.43565806818479
 30
0.0
 11
172.64556769392391
 21
44.435655068184893
 31
0.0
  0
LINE
  5
8D59
  8
AM_0
 10
74.875537693924031
 20
127.43564706818481
 30
0.0
 11
74.875537693924031
 21
24.99566706818479
 31
0.0
  0
LINE
  5
8D5A
  8
AM_0
 10
182.8755676939241
 20
130.44065706818481
 30
0.0
 11
182.8755676939241
 21
18.44064606818489
 31
0.0
  0
ARC
  5
8D5C
  8
AM_0
 10
10.5859276939239
 20
25.139604068184891
 30
0.0
 40
0.30119199
 50
5.9148297999986124
 51
88.175987000000191
  0
ARC
  5
8D5D
  8
AM_0
 10
10.58739769392394
 20
25.138308068184809
 30
0.0
 40
0.8023920299999998
 50
5.8908350000000436
 51
89.417558000000113
  0
LINE
  5
8D5E
  8
AM_0
 10
10.37553769392405
 20
25.94064606818489
 30
0.0
 11
10.37553769392405
 21
25.440660068184791
 31
0.0
  0
LINE
  5
8D5F
  8
AM_0
 10
10.37553769392405
 20
25.94064606818489
 30
0.0
 11
10.5955876939239
 21
25.94064606818489
 31
0.0
  0
LINE
  5
8D60
  8
AM_0
 10
176.11560224993639
 20
38.440662068184793
 30
0.0
 11
77.518041850846643
 21
38.440662068184793
 31
0.0
  0
LINE
  5
8D61
  8
AM_0
 10
131.875537693924
 20
37.715655068184788
 30
0.0
 11
179.69556769392409
 21
37.715655068184788
 31
0.0
  0
LINE
  5
8D62
  8
AM_0
 10
78.075547693923966
 20
18.15564006818488
 30
0.0
 11
174.99555769392421
 21
18.15564006818488
 31
0.0
  0
LINE
  5
8D63
  8
AM_0
 10
100.3755376939239
 20
36.215655068184788
 30
0.0
 11
182.8755676939241
 21
36.215655068184788
 31
0.0
  0
ARC
  5
8D64
  8
AM_0
 10
281.92673090117739
 20
76.128236008106597
 30
0.0
 40
204.69842337270771
 50
178.02572260412779
 51
178.71785518950381
  0
ARC
  5
8D65
  8
AM_0
 10
281.84947901301467
 20
72.748692142159371
 30
0.0
 40
204.6212004872653
 50
181.28349981584489
 51
181.9756167481539
  0
ARC
  5
8D66
  8
AM_0
 10
77.41779769392403
 20
39.435657068185009
 30
0.0
 40
1.0000319699999971
 50
89.552707000000453
 51
270.44730000000112
  0
ARC
  5
8D67
  8
AM_0
 10
77.41779769392403
 20
89.43565806818485
 30
0.0
 40
1.0000319699999971
 50
89.552707000000453
 51
270.44730000000112
  0
ARC
  5
8D68
  8
AM_0
 10
77.41779769392403
 20
79.435656068185011
 30
0.0
 40
1.0000319699999971
 50
89.552707000000453
 51
270.44730000000112
  0
ARC
  5
8D69
  8
AM_0
 10
77.41779769392403
 20
69.43565706818481
 30
0.0
 40
1.0000319699999971
 50
89.552707000000453
 51
270.44730000000112
  0
ARC
  5
8D6A
  8
AM_0
 10
77.41779769392403
 20
59.435655068184808
 30
0.0
 40
1.0000319699999971
 50
89.552707000000453
 51
270.44730000000112
  0
ARC
  5
8D6B
  8
AM_0
 10
77.41779769392403
 20
49.435641068184879
 30
0.0
 40
1.0000319699999971
 50
89.552707000000453
 51
270.44730000000112
  0
ARC
  5
8D6C
  8
AM_0
 10
76.137337693924025
 20
79.445637068184865
 30
0.0
 40
1.270028039999999
 50
89.627211000000699
 51
270.37279000000223
  0
ARC
  5
8D6D
  8
AM_0
 10
76.137337693924025
 20
69.43565706818481
 30
0.0
 40
1.270028039999999
 50
89.627211000000699
 51
270.37279000000223
  0
ARC
  5
8D6E
  8
AM_0
 10
76.199347693923954
 20
59.425647068185192
 30
0.0
 40
1.3300160699999981
 50
89.731343999997904
 51
270.2686499999993
  0
ARC
  5
8D6F
  8
AM_0
 10
76.329967693924033
 20
49.415667068184881
 30
0.0
 40
1.460012009999998
 50
89.778814000002811
 51
270.22118999999998
  0
ARC
  5
8D70
  8
AM_0
 10
78.167677693923963
 20
14.54613006818488
 30
0.0
 40
2.000475929999999
 50
187.77046000000081
 51
269.93969000000249
  0
ARC
  5
8D71
  8
AM_0
 10
78.080197693924163
 20
20.15464806818488
 30
0.0
 40
1.999007999999999
 50
190.63740999999999
 51
269.86655000000292
  0
ARC
  5
8D72
  8
AM_0
 10
78.131527693923971
 20
17.305833068184882
 30
0.0
 40
2.0001841200000001
 50
188.9209999999994
 51
269.8285299999992
  0
ARC
  5
8D73
  8
AM_0
 10
78.13908769392404
 20
15.46298406818488
 30
0.0
 40
1.997348129999998
 50
188.85146999999961
 51
270.18467999999751
  0
LINE
  5
8D74
  8
AM_0
 10
80.875537693924031
 20
90.435657068184824
 30
0.0
 11
77.235607693923953
 21
90.435657068184824
 31
0.0
  0
LINE
  5
8D75
  8
AM_0
 10
80.875537693924031
 20
88.435656068184812
 30
0.0
 11
77.235607693923953
 21
88.435656068184812
 31
0.0
  0
LINE
  5
8D76
  8
AM_0
 10
80.875537693924031
 20
80.435658068184907
 30
0.0
 11
77.235607693923953
 21
80.435658068184907
 31
0.0
  0
LINE
  5
8D77
  8
AM_0
 10
80.875537693924031
 20
78.435657068184781
 30
0.0
 11
77.235607693923953
 21
78.435657068184781
 31
0.0
  0
LINE
  5
8D78
  8
AM_0
 10
76.20555769392405
 20
88.11564906818478
 30
0.0
 11
80.875537693924031
 21
88.11564906818478
 31
0.0
  0
LINE
  5
8D79
  8
AM_0
 10
76.145557693923877
 20
80.715657068184782
 30
0.0
 11
80.875537693924031
 21
80.715657068184782
 31
0.0
  0
LINE
  5
8D7A
  8
AM_0
 10
76.145557693923877
 20
78.175647068185185
 30
0.0
 11
80.875537693924031
 21
78.175647068185185
 31
0.0
  0
LINE
  5
8D7B
  8
AM_0
 10
76.145557693923877
 20
70.705647068185186
 30
0.0
 11
80.875537693924031
 21
70.705647068185186
 31
0.0
  0
LINE
  5
8D7C
  8
AM_0
 10
80.875537693924031
 20
70.435656068184869
 30
0.0
 11
77.235607693923953
 21
70.435656068184869
 31
0.0
  0
LINE
  5
8D7D
  8
AM_0
 10
80.875537693924031
 20
68.435658068185006
 30
0.0
 11
77.235607693923953
 21
68.435658068185006
 31
0.0
  0
LINE
  5
8D7E
  8
AM_0
 10
76.145557693923877
 20
68.165667068184874
 30
0.0
 11
80.875537693924031
 21
68.165667068184874
 31
0.0
  0
LINE
  5
8D7F
  8
AM_0
 10
76.20555769392405
 20
60.755664068184998
 30
0.0
 11
80.875537693924031
 21
60.755664068184998
 31
0.0
  0
LINE
  5
8D80
  8
AM_0
 10
80.875537693924031
 20
60.435657068184902
 30
0.0
 11
77.235607693923953
 21
60.435657068184902
 31
0.0
  0
LINE
  5
8D81
  8
AM_0
 10
80.875537693924031
 20
58.435641068184879
 30
0.0
 11
77.235607693923953
 21
58.435641068184879
 31
0.0
  0
LINE
  5
8D82
  8
AM_0
 10
76.20555769392405
 20
58.095660068184891
 30
0.0
 11
80.875537693924031
 21
58.095660068184891
 31
0.0
  0
LINE
  5
8D83
  8
AM_0
 10
80.875537693924031
 20
50.435655068185007
 30
0.0
 11
77.235607693923953
 21
50.435655068185007
 31
0.0
  0
LINE
  5
8D84
  8
AM_0
 10
76.335577693923966
 20
50.875659068184788
 30
0.0
 11
80.875537693924031
 21
50.875659068184788
 31
0.0
  0
LINE
  5
8D85
  8
AM_0
 10
80.875537693924031
 20
48.435657068184881
 30
0.0
 11
77.235607693923953
 21
48.435657068184881
 31
0.0
  0
LINE
  5
8D86
  8
AM_0
 10
76.335577693923966
 20
47.955645068184879
 30
0.0
 11
80.875537693924031
 21
47.955645068184879
 31
0.0
  0
LINE
  5
8D87
  8
AM_0
 10
76.545547693924021
 20
37.715655068184788
 30
0.0
 11
131.875537693924
 21
37.715655068184788
 31
0.0
  0
LINE
  5
8D88
  8
AM_0
 10
76.545547693924021
 20
41.07567006818487
 30
0.0
 11
80.982441722337967
 21
41.07567006818487
 31
0.0
  0
LINE
  5
8D89
  8
AM_0
 10
81.212906855028734
 20
40.435641068184879
 30
0.0
 11
77.235607693923953
 21
40.435641068184879
 31
0.0
  0
LINE
  5
8D8A
  8
AM_0
 10
80.235547693924175
 20
37.785663068184867
 30
0.0
 11
74.875537693924031
 21
26.345658068184889
 31
0.0
  0
LINE
  5
8D8B
  8
AM_0
 10
25.955557693923879
 20
70.720659068184887
 30
0.0
 11
11.495557693923731
 21
26.210649068184861
 31
0.0
  0
LINE
  5
8D8C
  8
AM_0
 10
30.715507693923939
 20
69.180651068184886
 30
0.0
 11
16.255567693924021
 21
24.67065606818489
 31
0.0
  0
LINE
  5
8D8D
  8
AM_0
 10
19.375537693923931
 20
30.550647068184791
 30
0.0
 11
66.87555769392408
 21
30.550647068184791
 31
0.0
  0
LINE
  5
8D8E
  8
AM_0
 10
18.875557693924051
 20
17.440659068185191
 30
0.0
 11
66.87555769392408
 21
17.440659068185191
 31
0.0
  0
ARC
  5
8D8F
  8
AM_0
 10
13.87554769392392
 20
25.440660068184791
 30
0.0
 40
2.5014601500000002
 50
162.07207999999801
 51
342.07206999999869
  0
LINE
  5
8D90
  8
AM_0
 10
16.87554769392392
 20
26.590653068184789
 30
0.0
 11
16.87554769392392
 21
19.440660068184911
 31
0.0
  0
ARC
  5
8D91
  8
AM_0
 10
13.874497693923891
 20
25.439118068184879
 30
0.0
 40
3.001016099999998
 50
185.13260000000091
 51
0.0291460009999036
  0
ARC
  5
8D92
  8
AM_0
 10
18.87327769392402
 20
19.438341068184791
 30
0.0
 40
1.9976960999999991
 50
179.93382999999969
 51
270.06616999999687
  0
ARC
  5
8D93
  8
AM_0
 10
16.92426769392392
 20
36.940569068185312
 30
0.0
 40
4.0507442999999981
 50
99.071790999998314
 51
224.91234000000031
  0
LINE
  5
8D94
  8
AM_0
 10
19.375537693923931
 20
34.280643068184808
 30
0.0
 11
19.375537693923931
 21
17.440659068185191
 31
0.0
  0
LINE
  5
8D95
  8
AM_0
 10
74.875537693924031
 20
26.34564306818487
 30
0.0
 11
76.115527693924022
 21
19.785645068184849
 31
0.0
  0
LINE
  5
8D96
  8
AM_0
 10
74.875537693924031
 20
23.655672068184799
 30
0.0
 11
76.185547693923994
 21
14.275668068184871
 31
0.0
  0
LINE
  5
8D97
  8
AM_0
 10
66.87555769392408
 20
21.440646068184879
 30
0.0
 11
74.875537693924031
 21
21.440646068184879
 31
0.0
  0
LINE
  5
8D98
  8
AM_0
 10
66.87555769392408
 20
21.435654068184871
 30
0.0
 11
74.875537693924031
 21
21.435654068184871
 31
0.0
  0
LINE
  5
8D99
  8
AM_0
 10
74.875537693924031
 20
24.995652068184882
 30
0.0
 11
76.155517693924025
 21
16.995654068184859
 31
0.0
  0
LINE
  5
8D9A
  8
AM_0
 10
74.875537693924031
 20
23.655642068184871
 30
0.0
 11
76.165597693924013
 21
15.15565506818478
 31
0.0
  0
LINE
  5
8D9B
  8
AM_0
 10
67.56555769392395
 20
31.245654068184869
 30
0.0
 11
73.795597693924023
 21
31.245654068184869
 31
0.0
  0
ARC
  5
8D9C
  8
AM_0
 10
76.545547693924021
 20
39.395646068184817
 30
0.0
 40
1.679999999999999
 50
90.00000299999769
 51
270.0
  0
ARC
  5
8D9D
  8
AM_0
 10
49.875067693923938
 20
74.440449068184861
 30
0.0
 40
8.000195699999999
 50
89.996300999997729
 51
161.78902999999909
  0
ARC
  5
8D9E
  8
AM_0
 10
49.87311769392403
 20
74.438220068184862
 30
0.0
 40
7.9975721999999978
 50
198.1973499999952
 51
270.0173099999991
  0
LINE
  5
8D9F
  8
AM_0
 10
34.525507693923949
 20
76.940631068184871
 30
0.0
 11
44.375557693923952
 21
76.940631068184871
 31
0.0
  0
LINE
  5
8DA0
  8
AM_0
 10
34.525507693923949
 20
71.940663068184875
 30
0.0
 11
44.375557693923952
 21
71.940663068184875
 31
0.0
  0
ARC
  5
8DA1
  8
AM_0
 10
34.5233176939239
 20
67.943562068184789
 30
0.0
 40
8.9970875999999986
 50
89.985774999998554
 51
162.0211999999996
  0
ARC
  5
8DA2
  8
AM_0
 10
34.518787693923912
 20
67.940265068184885
 30
0.0
 40
4.0003919999999971
 50
89.903054999997906
 51
161.93679000000009
  0
LINE
  5
8DA3
  8
ﾁｭｳｼﾝｾﾝ
 10
49.875547693924027
 20
62.469367087515351
 30
0.0
 11
49.875547693924027
 21
86.411957048854376
 31
0.0
  0
LINE
  5
8DA4
  8
AM_0
 10
49.875547693924027
 20
66.440631068184899
 30
0.0
 11
66.87555769392408
 21
66.440631068184899
 31
0.0
  0
LINE
  5
8DA5
  8
AM_0
 10
49.875547693924027
 20
82.440663068184875
 30
0.0
 11
66.87555769392408
 21
82.440663068184875
 31
0.0
  0
ARC
  5
8DA6
  8
AM_0
 10
49.875547693924027
 20
74.438649068184915
 30
0.0
 40
4.998440399999998
 50
23.61099900000109
 51
156.3890000000024
  0
ARC
  5
8DA7
  8
AM_0
 10
49.875547693924027
 20
74.438649068184915
 30
0.0
 40
4.9968401999999967
 50
203.56897999999919
 51
336.43102000000079
  0
LINE
  5
8DA8
  8
AM_0
 10
44.375557693923952
 20
76.440663068184861
 30
0.0
 11
55.375537693923953
 21
76.440663068184861
 31
0.0
  0
LINE
  5
8DA9
  8
AM_0
 10
44.375557693923952
 20
72.440631068184814
 30
0.0
 11
55.375537693923953
 21
72.440631068184814
 31
0.0
  0
LINE
  5
8DAA
  8
AM_0
 10
44.375557693923952
 20
71.940663068184875
 30
0.0
 11
44.375557693923952
 21
76.940631068184871
 31
0.0
  0
LINE
  5
8DAB
  8
AM_0
 10
57.875557693923952
 20
71.940663068184875
 30
0.0
 11
57.875557693923952
 21
76.940631068184871
 31
0.0
  0
LINE
  5
8DAC
  8
AM_0
 10
55.375537693923953
 20
71.940663068184875
 30
0.0
 11
55.375537693923953
 21
76.940631068184871
 31
0.0
  0
LINE
  5
8DAD
  8
AM_0
 10
55.375537693923953
 20
76.940631068184871
 30
0.0
 11
57.875557693923952
 21
76.940631068184871
 31
0.0
  0
LINE
  5
8DAE
  8
AM_0
 10
55.375537693923953
 20
71.940663068184875
 30
0.0
 11
57.875557693923952
 21
71.940663068184875
 31
0.0
  0
ARC
  5
8DAF
  8
AM_0
 10
278.83926233530252
 20
76.148502633708091
 30
0.0
 40
201.61085738285439
 50
179.42527489174191
 51
180.13294661222409
  0
ARC
  5
8DB0
  8
AM_0
 10
281.86918161343601
 20
76.147885411824291
 30
0.0
 40
204.64076721509861
 50
180.13080539050139
 51
180.4794013531876
  0
ARC
  5
8DB1
  8
AM_0
 10
280.12251566428858
 20
72.722913331193183
 30
0.0
 40
202.89403267033549
 50
180.21919094446361
 51
180.57069649463509
  0
ARC
  5
8DB2
  8
AM_0
 10
281.15915522609441
 20
72.731156663714586
 30
0.0
 40
203.93069622692141
 50
179.87077327205679
 51
180.22039274125319
  0
ARC
  5
8DB3
  8
AM_0
 10
280.78116073552479
 20
72.733926281710382
 30
0.0
 40
203.55269646012371
 50
179.5209954422055
 51
179.87131288696011
  0
ARC
  5
8DB4
  8
AM_0
 10
282.19462949870712
 20
72.735454577249101
 30
0.0
 40
204.96200297080929
 50
186.94488316605711
 51
187.59240971813199
  0
LINE
  5
8DB5
  8
AM_0
 10
78.125557693923952
 20
15.30564906818489
 30
0.0
 11
111.8755576939238
 21
15.30564906818489
 31
0.0
  0
LINE
  5
8DB6
  8
AM_0
 10
78.145567693924164
 20
13.465653068184791
 30
0.0
 11
111.8755576939238
 21
13.465653068184791
 31
0.0
  0
LINE
  5
8DB7
  8
AM_0
 10
78.165577693923993
 20
12.54565506818517
 30
0.0
 11
111.8755576939238
 21
12.54565506818517
 31
0.0
  0
LINE
  5
8DB8
  8
AM_0
 10
100.3755376939239
 20
36.215655068184788
 30
0.0
 11
80.202757693923957
 21
37.715655068184788
 31
0.0
  0
ARC
  5
8DB9
  8
AM_0
 10
282.67686486145311
 20
72.80577103808821
 30
0.0
 40
205.44930125633391
 50
187.5940787099787
 51
188.88606759391769
  0
ARC
  5
8DBA
  8
AM_0
 10
111.872257693924
 20
15.468936068184799
 30
0.0
 40
2.003279969999999
 50
270.09378999999711
 51
359.9062099999997
  0
LINE
  5
8DBB
  8
AM_0
 10
113.875537693924
 20
14.545656068184879
 30
0.0
 11
113.875537693924
 21
18.15564006818488
 31
0.0
  0
ARC
  5
8DBC
  8
AM_0
 10
111.8675476939238
 20
14.553666068185169
 30
0.0
 40
2.0080361999999989
 50
270.22878999999938
 51
359.77121000000051
  0
ARC
  5
8DBD
  8
AM_0
 10
111.8683576939239
 20
17.31283806818481
 30
0.0
 40
2.007180029999998
 50
270.20461999999759
 51
359.795379999999
  0
ARC
  5
8DBF
  8
AM_0
 10
281.78189556624972
 20
72.744048599775795
 30
0.0
 40
204.55326957220879
 50
185.460313996346
 51
186.1370008544751
  0
ARC
  5
8DC0
  8
AM_0
 10
282.4352644600109
 20
72.803253648165821
 30
0.0
 40
205.2093074617344
 50
184.78473638767409
 51
185.4594105542368
  0
ARC
  5
8DC1
  8
AM_0
 10
281.86490072531922
 20
72.753330197553282
 30
0.0
 40
204.63676715666841
 50
184.1076457018452
 51
184.78412767205279
  0
ARC
  5
8DC2
  8
AM_0
 10
281.60625737743908
 20
72.741588575040723
 30
0.0
 40
204.37787853975311
 50
181.97597713470071
 51
183.3618692197046
  0
ARC
  5
8DC3
  8
AM_0
 10
281.93508060316412
 20
76.125585094375367
 30
0.0
 40
204.70684984457009
 50
176.6408431394315
 51
177.33301926919839
  0
ARC
  5
8DC4
  8
AM_0
 10
283.25194627614428
 20
76.07141008515319
 30
0.0
 40
206.0248100930055
 50
177.33501004864439
 51
178.02262526942761
  0
LINE
  5
8DC5
  8
AM_0
 10
179.69556769392409
 20
41.07567006818487
 30
0.0
 11
169.87553769392369
 21
41.07567006818487
 31
0.0
  0
LINE
  5
8DC6
  8
AM_0
 10
181.3755676939239
 20
36.215655068184788
 30
0.0
 11
176.92554769392419
 21
19.63565106818487
 31
0.0
  0
ARC
  5
8DC7
  8
AM_0
 10
174.99267769392381
 20
20.157792068184769
 30
0.0
 40
2.0021281800000001
 50
270.0815199999999
 51
344.88329999999883
  0
LINE
  5
8DC8
  8
AM_0
 10
176.21556769392421
 20
40.435641068184879
 30
0.0
 11
169.87553769392369
 21
40.435641068184879
 31
0.0
  0
LINE
  5
8DC9
  8
AM_0
 10
169.87553769392369
 20
44.357949983857857
 30
0.0
 11
172.64556769392391
 21
44.435640068184881
 31
0.0
  0
ARC
  5
8DCA
  8
AM_0
 10
176.21556769392421
 20
39.435657068185009
 30
0.0
 40
1.000004069999999
 50
270.0
 51
90.00000299999769
  0
LINE
  5
8DCB
  8
AM_0
 10
177.41553769392419
 20
21.435654068184871
 30
0.0
 11
182.8755676939241
 21
21.435654068184871
 31
0.0
  0
ARC
  5
8DCC
  8
AM_0
 10
179.69556769392409
 20
39.395646068184817
 30
0.0
 40
1.680008099999998
 50
270.0
 51
90.00000299999769
  0
ARC
  5
8DCD
  8
AM_0
 10
179.69556769392409
 20
39.395646068184817
 30
0.0
 40
1.675004159999999
 50
270.0
 51
90.00000299999769
  0
LINE
  5
8DCF
  8
AM_0
 10
77.425604599777046
 20
110.4356605648052
 30
0.0
 11
176.21556764156381
 21
110.43566313818479
 31
0.0
  0
LINE
  5
8DD0
  8
AM_0
 10
76.545547693924021
 20
111.1656270681848
 30
0.0
 11
179.69556769392409
 21
111.1656270681848
 31
0.0
  0
LINE
  5
8DD1
  8
AM_0
 10
78.075547693923966
 20
130.7256570681848
 30
0.0
 11
174.99555769392421
 21
130.7256570681848
 31
0.0
  0
LINE
  5
8DD2
  8
AM_0
 10
100.3755376939239
 20
112.6656270681848
 30
0.0
 11
182.8755676939241
 21
112.6656270681848
 31
0.0
  0
ARC
  5
8DD3
  8
AM_0
 10
77.41779769392403
 20
109.43565906818471
 30
0.0
 40
1.0000319699999971
 50
89.552707000000453
 51
270.44730000000112
  0
ARC
  5
8DD4
  8
AM_0
 10
77.41779769392403
 20
99.435657068184867
 30
0.0
 40
1.0000319699999971
 50
89.552707000000453
 51
270.44730000000112
  0
ARC
  5
8DD5
  8
AM_0
 10
76.329907693923957
 20
99.465657068184825
 30
0.0
 40
1.460012009999998
 50
89.777016999998949
 51
270.22298999999867
  0
ARC
  5
8DD6
  8
AM_0
 10
78.078427693924041
 20
128.7287370681847
 30
0.0
 40
1.996904069999998
 50
90.083473999999597
 51
169.41256000000121
  0
ARC
  5
8DD7
  8
AM_0
 10
78.12396769392403
 20
131.5725270681848
 30
0.0
 40
1.9931281199999991
 50
89.953373000000497
 51
170.96118000000021
  0
ARC
  5
8DD8
  8
AM_0
 10
78.138307693923963
 20
133.4210670681849
 30
0.0
 40
1.994588069999998
 50
89.790753000002425
 51
171.507090000001
  0
ARC
  5
8DD9
  8
AM_0
 10
78.160207693924022
 20
134.33216706818479
 30
0.0
 40
1.9934921999999999
 50
89.84609100000138
 51
172.1147399999993
  0
LINE
  5
8DDA
  8
AM_0
 10
81.211063814955736
 20
108.4356570681848
 30
0.0
 11
77.235607693923953
 21
108.4356570681848
 31
0.0
  0
LINE
  5
8DDB
  8
AM_0
 10
80.875537693924031
 20
100.4356590681848
 30
0.0
 11
77.235607693923953
 21
100.4356590681848
 31
0.0
  0
LINE
  5
8DDC
  8
AM_0
 10
80.875537693924031
 20
98.435658068184821
 30
0.0
 11
77.235607693923953
 21
98.435658068184821
 31
0.0
  0
LINE
  5
8DDD
  8
AM_0
 10
76.545547693924021
 20
107.80565406818479
 30
0.0
 11
80.98421029787562
 21
107.80565406818479
 31
0.0
  0
LINE
  5
8DDE
  8
AM_0
 10
76.335577693923966
 20
100.9256490681849
 30
0.0
 11
80.875537693924031
 21
100.9256490681849
 31
0.0
  0
LINE
  5
8DDF
  8
AM_0
 10
76.335577693923966
 20
98.005635068184873
 30
0.0
 11
80.875537693924031
 21
98.005635068184873
 31
0.0
  0
LINE
  5
8DE0
  8
AM_0
 10
76.20555769392405
 20
90.785664068185199
 30
0.0
 11
80.875537693924031
 21
90.785664068185199
 31
0.0
  0
LINE
  5
8DE1
  8
AM_0
 10
80.235547693924175
 20
111.0856470681848
 30
0.0
 11
74.875537693924031
 21
122.53562706818479
 31
0.0
  0
LINE
  5
8DE2
  8
AM_0
 10
74.875537693924031
 20
125.2256370681847
 30
0.0
 11
76.185547693923994
 21
134.60564706818471
 31
0.0
  0
LINE
  5
8DE3
  8
AM_0
 10
19.375537693923931
 20
118.3306470681851
 30
0.0
 11
66.87555769392408
 21
118.3306470681851
 31
0.0
  0
LINE
  5
8DE4
  8
AM_0
 10
19.375537693923931
 20
108.08064606818481
 30
0.0
 11
61.875547693923977
 21
108.08064606818481
 31
0.0
  0
LINE
  5
8DE5
  8
AM_0
 10
18.875557693924051
 20
131.4406770681847
 30
0.0
 11
66.87555769392408
 21
131.4406770681847
 31
0.0
  0
LINE
  5
8DE6
  8
AM_0
 10
18.075547693923909
 20
108.7306710681848
 30
0.0
 11
18.075547693923909
 21
117.9306570681849
 31
0.0
  0
LINE
  5
8DE7
  8
AM_0
 10
14.77557769392393
 20
111.8306370681851
 30
0.0
 11
14.77557769392393
 21
114.8306370681851
 31
0.0
  0
LINE
  5
8DE8
  8
AM_0
 10
18.075547693923909
 20
108.7306710681848
 30
0.0
 11
19.375537693923931
 21
108.7306710681848
 31
0.0
  0
ARC
  5
8DE9
  8
AM_0
 10
17.771227693924171
 20
111.8308170681848
 30
0.0
 40
2.9956880400000001
 50
180.0036400000007
 51
275.83037000000309
  0
LINE
  5
8DEA
  8
AM_0
 10
16.87554769392392
 20
117.70064706818479
 30
0.0
 11
16.87554769392392
 21
129.4406370681848
 31
0.0
  0
LINE
  5
8DEB
  8
AM_0
 10
18.075547693923909
 20
117.9306570681849
 30
0.0
 11
19.375537693923931
 21
117.9306570681849
 31
0.0
  0
ARC
  5
8DEC
  8
AM_0
 10
17.777227693924019
 20
114.8338470681848
 30
0.0
 40
3.0016479
 50
84.295613000003087
 51
180.061350000001
  0
ARC
  5
8DED
  8
AM_0
 10
18.875047693923921
 20
129.4411470681847
 30
0.0
 40
1.9994960399999999
 50
89.985542999997904
 51
180.0144599999999
  0
LINE
  5
8DEE
  8
AM_0
 10
61.875547693923977
 20
82.440663068184875
 30
0.0
 11
61.875547693923977
 21
131.44067706818481
 31
0.0
  0
ARC
  5
8DEF
  8
AM_0
 10
76.545547693924021
 20
109.48564506818479
 30
0.0
 40
1.679999999999999
 50
90.00000299999769
 51
270.0
  0
LINE
  5
8DF0
  8
AM_0
 10
74.875537693924031
 20
122.5356570681848
 30
0.0
 11
76.115527693924022
 21
129.09566706818481
 31
0.0
  0
LINE
  5
8DF1
  8
AM_0
 10
67.56555769392395
 20
117.6256470681848
 30
0.0
 11
73.795597693924023
 21
117.6256470681848
 31
0.0
  0
LINE
  5
8DF2
  8
AM_0
 10
66.87555769392408
 20
127.44065706818481
 30
0.0
 11
74.875537693924031
 21
127.44065706818481
 31
0.0
  0
LINE
  5
8DF3
  8
AM_0
 10
66.87555769392408
 20
127.43564706818481
 30
0.0
 11
74.875537693924031
 21
127.43564706818481
 31
0.0
  0
LINE
  5
8DF4
  8
AM_0
 10
74.875537693924031
 20
123.8756670681848
 30
0.0
 11
76.155517693924025
 21
131.88563706818471
 31
0.0
  0
LINE
  5
8DF5
  8
AM_0
 10
74.875537693924031
 20
125.2256670681848
 30
0.0
 11
76.165597693924013
 21
133.71566706818481
 31
0.0
  0
ARC
  5
8DF6
  8
AM_0
 10
111.87402769392391
 20
133.41410706818479
 30
0.0
 40
2.0015440500000001
 50
0.0442139990008822
 51
89.955783999999085
  0
LINE
  5
8DF7
  8
AM_0
 10
113.875537693924
 20
134.3256570681848
 30
0.0
 11
113.875537693924
 21
130.7256570681848
 31
0.0
  0
LINE
  5
8DF8
  8
AM_0
 10
78.125557693923952
 20
133.5656370681848
 30
0.0
 11
111.8755576939238
 21
133.5656370681848
 31
0.0
  0
LINE
  5
8DF9
  8
AM_0
 10
100.3755376939239
 20
112.6656270681848
 30
0.0
 11
80.198107693923731
 21
111.1656570681848
 31
0.0
  0
ARC
  5
8DFA
  8
AM_0
 10
281.65654720173887
 20
76.184731887987908
 30
0.0
 40
204.4231110527293
 50
172.39935376234251
 51
173.04804061343009
  0
ARC
  5
8DFB
  8
AM_0
 10
282.3128293395456
 20
76.086058894003983
 30
0.0
 40
205.086602105558
 50
173.86479656848161
 51
175.2153393800649
  0
ARC
  5
8DFC
  8
AM_0
 10
281.70706567943648
 20
76.143587480304987
 30
0.0
 40
204.47815098782999
 50
175.21724497659139
 51
175.89452073852021
  0
ARC
  5
8DFD
  8
AM_0
 10
281.98738408237739
 20
76.135442275617777
 30
0.0
 40
204.75756069728581
 50
171.10266677355679
 51
172.39792734853171
  0
ARC
  5
8DFE
  8
AM_0
 10
111.875137693924
 20
131.5652370681847
 30
0.0
 40
2.0004079799999981
 50
0.0116490000006953
 51
89.98834999999788
  0
LINE
  5
8DFF
  8
AM_0
 10
78.145567693924164
 20
135.4156470681848
 30
0.0
 11
111.8755576939238
 21
135.4156470681848
 31
0.0
  0
LINE
  5
8E00
  8
AM_0
 10
78.165577693923993
 20
136.3256670681848
 30
0.0
 11
111.8755576939238
 21
136.3256670681848
 31
0.0
  0
ARC
  5
8E01
  8
AM_0
 10
111.874267693924
 20
134.32436706818481
 30
0.0
 40
2.0012880000000002
 50
0.0368719989989404
 51
89.963125999997985
  0
LINE
  5
8E02
  8
AM_0
 10
179.69556769392409
 20
107.80565406818479
 30
0.0
 11
169.87553769392369
 21
107.80565406818479
 31
0.0
  0
LINE
  5
8E03
  8
AM_0
 10
181.075567693924
 20
113.7756570681848
 30
0.0
 11
176.92560769392409
 21
129.23564706818479
 31
0.0
  0
LINE
  5
8E04
  8
AM_0
 10
169.87553769392369
 20
104.5233591525117
 30
0.0
 11
172.64556769392391
 21
104.4456690681847
 31
0.0
  0
ARC
  5
8E05
  8
AM_0
 10
176.21556769392421
 20
109.43565906818471
 30
0.0
 40
1.000004069999999
 50
270.0
 51
90.00000299999769
  0
ARC
  5
8E06
  8
AM_0
 10
174.9927376939238
 20
128.72705706818479
 30
0.0
 40
1.99860411
 50
14.74271599999944
 51
89.919516000001124
  0
ARC
  5
8E07
  8
AM_0
 10
179.69556769392409
 20
109.48564506818479
 30
0.0
 40
1.680008099999998
 50
270.0
 51
90.00000299999769
  0
ARC
  5
8E08
  8
AM_0
 10
179.69556769392409
 20
109.48564506818479
 30
0.0
 40
1.675004159999999
 50
270.0
 51
90.00000299999769
  0
ARC
  5
8E09
  8
AM_0
 10
182.528737693924
 20
114.1634070681848
 30
0.0
 40
1.502776079999999
 50
194.75642999999971
 51
269.8775900000029
  0
LINE
  5
8E0A
  8
AM_0
 10
177.41553769392419
 20
127.43564706818481
 30
0.0
 11
182.8755676939241
 21
127.43564706818481
 31
0.0
  0
LINE
  5
8E0B
  8
AM_0
 10
165.37553769392409
 20
96.940662068184906
 30
0.0
 11
165.37553769392349
 21
51.940662068184871
 31
0.0
  0
LINE
  5
8E0C
  8
AM_0
 10
163.27553769392381
 20
97.490914599878863
 30
0.0
 11
163.2755376939235
 21
51.390409536490971
 31
0.0
  0
LINE
  5
8E0D
  8
AM_0
 10
80.375537693924031
 20
56.440662068184878
 30
0.0
 11
80.375537693924031
 21
46.440652068184882
 31
0.0
  0
LINE
  5
8E0E
  8
AM_0
 10
80.875537693924031
 20
41.940656068185199
 30
0.0
 11
80.875537693924031
 21
106.9406520681847
 31
0.0
  0
LINE
  5
8E0F
  8
AM_0
 10
152.4257822256186
 20
40.540654068184693
 30
0.0
 11
85.295517693923955
 21
40.540654068184693
 31
0.0
  0
LINE
  5
8E10
  8
AM_0
 10
85.295517693923955
 20
40.540654068184693
 30
0.0
 11
85.295517693923955
 21
38.440663068184662
 31
0.0
  0
ARC
  5
8E11
  8
AM_0
 10
84.368157693924033
 20
41.933309068184883
 30
0.0
 40
3.492651899999998
 50
179.8793300000022
 51
270.12067999999482
  0
ARC
  5
8E12
  8
AM_0
 10
80.868217693923953
 20
46.433312068184968
 30
0.0
 40
0.4927000100000001
 50
179.14455999999711
 51
270.85544000000272
  0
ARC
  5
8E13
  8
AM_0
 10
167.37553769392369
 20
51.940662068184871
 30
0.0
 40
2.0
 50
180.0
 51
270.0
  0
LINE
  5
8E14
  8
AM_0
 10
162.8654871875849
 20
50.400460042828897
 30
0.0
 11
153.41573171927951
 21
40.950704574523677
 31
0.0
  0
LINE
  5
8E15
  8
AM_0
 10
153.4157397192794
 20
40.950712574523322
 30
0.0
 11
162.8654871875853
 21
50.40046004282928
 31
0.0
  0
ARC
  5
8E16
  8
AM_0
 10
152.4257822256186
 20
41.940654068185012
 30
0.0
 40
1.399999999999999
 50
270.0
 51
315.00000000000921
1001
GENIUS_GENODEF_13
1002
{
1000
HIER
1070
     0
1002
}
1002
{
1000
MANEDIT
1070
     0
1002
}
1002
{
1000
NOSEL
1070
     0
1002
}
1002
{
1000
BEHIND
1070
     0
1002
}
1002
{
1000
OTHER
1070
     0
1002
}
1002
{
1000
REACTOR
1002
}
1001
GENIUS_GENOBJ-N-FIL_13
1002
{
1000
OWNER
1000
GEN
1002
}
  0
ARC
  5
8E17
  8
AM_0
 10
161.87553769392409
 20
51.390409536490971
 30
0.0
 40
1.4000000000006301
 50
314.99999999997232
 51
0.0
  0
ARC
  5
8E18
  8
AM_0
 10
167.87553769392369
 20
40.440662068184807
 30
0.0
 40
2.0
 50
270.0
 51
0.0
  0
ARC
  5
8E19
  8
AM_0
 10
167.87553769392369
 20
47.940662068184871
 30
0.0
 40
2.0
 50
0.0
 51
90.0
  0
LINE
  5
8E1A
  8
AM_0
 10
167.87553769392369
 20
49.940662068184871
 30
0.0
 11
167.37553769392369
 21
49.940662068184871
 31
0.0
  0
LINE
  5
8E1B
  8
AM_0
 10
169.87553769392369
 20
40.440662068184807
 30
0.0
 11
169.87553769392369
 21
47.940662068184871
 31
0.0
  0
LINE
  5
8E1C
  8
AM_0
 10
85.295517693923955
 20
108.34064206818459
 30
0.0
 11
152.43327351379961
 21
108.34064206818459
 31
0.0
  0
ARC
  5
8E1D
  8
AM_0
 10
80.876087693923964
 20
56.440112068184597
 30
0.0
 40
0.5005480100000002
 50
90.062622000000005
 51
179.93736999999041
  0
ARC
  5
8E1E
  8
AM_0
 10
80.876087693923964
 20
102.4401120681848
 30
0.0
 40
0.5005480100000002
 50
90.062622000000005
 51
179.93736999999041
  0
ARC
  5
8E1F
  8
AM_0
 10
80.868027693923963
 20
92.433152068184683
 30
0.0
 40
0.49254802
 50
179.1265600000018
 51
270.87345000000158
  0
LINE
  5
8E20
  8
AM_0
 10
80.375537693924031
 20
102.4406520681847
 30
0.0
 11
80.375537693924031
 21
92.440662068184821
 31
0.0
  0
LINE
  5
8E21
  8
AM_0
 10
85.295517693923955
 20
108.34064206818459
 30
0.0
 11
85.295517693923955
 21
110.4356420681848
 31
0.0
  0
ARC
  5
8E22
  8
AM_0
 10
84.376027693923959
 20
106.94016206818461
 30
0.0
 40
3.5005001999999981
 50
90.008164999996055
 51
179.99183999999781
  0
LINE
  5
8E23
  8
AM_0
 10
167.375537693924
 20
79.940662068184821
 30
0.0
 11
165.375537693924
 21
79.940662068184821
 31
0.0
  0
LINE
  5
8E24
  8
AM_0
 10
165.3755376939238
 20
68.940662068184878
 30
0.0
 11
167.37553769392409
 21
68.940662068184878
 31
0.0
  0
LINE
  5
8E25
  8
AM_0
 10
167.3755376939244
 20
68.940662068184878
 30
0.0
 11
167.375537693924
 21
79.940662068184821
 31
0.0
  0
ARC
  5
8E26
  8
AM_0
 10
167.37553769392369
 20
96.940662068184906
 30
0.0
 40
2.0
 50
90.0
 51
180.0
  0
CIRCLE
  5
8E27
  8
AM_0
 10
164.3755376939236
 20
105.44066206818459
 30
0.0
 40
3.4999999999999631
  0
LINE
  5
8E28
  8
AM_0
 10
153.41573971928011
 20
107.93061156184579
 30
0.0
 11
162.8654871875849
 21
98.480864093540987
 31
0.0
  0
LINE
  5
8E29
  8
AM_0
 10
161.2755376939237
 20
100.0708135872012
 30
0.0
 11
162.8654871875849
 21
98.480864093540816
 31
0.0
  0
ARC
  5
8E2A
  8
AM_0
 10
161.87553769392409
 20
97.490914599878863
 30
0.0
 40
1.400000000000118
 50
0.0
 51
45.000000000027619
  0
ARC
  5
8E2B
  8
AM_0
 10
152.4257902256179
 20
106.94066206818481
 30
0.0
 40
1.40000000000077
 50
44.999999999972353
 51
89.999999999954383
  0
LINE
  5
8E2C
  8
AM_0
 10
169.87553769392369
 20
100.94066206818481
 30
0.0
 11
169.87553769392369
 21
108.44066206818481
 31
0.0
  0
LINE
  5
8E2D
  8
AM_0
 10
169.87553769392369
 20
100.94066206818481
 30
0.0
 11
169.87553769392369
 21
108.44066206818481
 31
0.0
  0
ARC
  5
8E2E
  8
AM_0
 10
167.87553769392369
 20
100.94066206818481
 30
0.0
 40
2.0
 50
270.0
 51
0.0
  0
LINE
  5
8E2F
  8
AM_0
 10
167.37553769392369
 20
98.940662068184906
 30
0.0
 11
167.87553769392369
 21
98.940662068184906
 31
0.0
  0
ARC
  5
8E30
  8
AM_0
 10
167.87553769392369
 20
108.44066206818481
 30
0.0
 40
2.0
 50
0.0
 51
90.0
  0
LINE
  5
8E31
  8
AM_0
 10
161.73696601271681
 20
105.4406620681858
 30
0.0
 11
167.0141093751302
 21
105.4406620681858
 31
0.0
  0
LINE
  5
8E32
  8
AM_0
 10
164.3755376939236
 20
108.07923374939119
 30
0.0
 11
164.37553769392341
 21
102.8020903869778
 31
0.0
  0
CIRCLE
  5
8E33
  8
AM_0
 10
164.3755376939236
 20
43.4406620681847
 30
0.0
 40
3.4999999999999631
  0
LINE
  5
8E34
  8
AM_0
 10
161.73696601271681
 20
43.440662068185809
 30
0.0
 11
167.0141093751302
 21
43.440662068185809
 31
0.0
  0
LINE
  5
8E35
  8
AM_0
 10
164.3755376939236
 20
46.079233749391392
 30
0.0
 11
164.37553769392341
 21
40.802090386977987
 31
0.0
  0
LINE
  5
8E36
  8
AM_0
 10
176.21556769392421
 20
108.44568306818481
 30
0.0
 11
169.87553769392369
 21
108.44568306818481
 31
0.0
  0
LINE
  5
8E38
  8
AM_0
 10
410.08418893175508
 20
68.940662068184878
 30
0.0
 11
395.8009753719831
 21
68.940662068184878
 31
0.0
  0
LINE
  5
8E39
  8
AM_0
 10
395.8009753719831
 20
79.940662068184821
 30
0.0
 11
410.08418893175508
 21
79.940662068184821
 31
0.0
  0
LINE
  5
8E3A
  8
AM_0
 10
411.8009723719826
 20
110.4406620681831
 30
0.0
 11
383.30097537198282
 21
110.4406620681831
 31
0.0
  0
LINE
  5
8E3B
  8
AM_0
 10
383.30097537198282
 20
38.44066206818308
 30
0.0
 11
414.68810657949928
 21
38.44066206818308
 31
0.0
  0
LINE
  5
8E3C
  8
AM_0
 10
382.80097537198287
 20
105.840662068185
 30
0.0
 11
382.80097537198287
 21
43.040662068185377
 31
0.0
  0
LINE
  5
8E3D
  8
AM_0
 10
395.80097537198287
 20
38.44066206818308
 30
0.0
 11
395.80097537198287
 21
110.4406620681831
 31
0.0
  0
LINE
  5
8E3E
  8
AM_0
 10
395.80097537198287
 20
99.520662068184706
 30
0.0
 11
394.33597537198301
 21
108.340662068185
 31
0.0
  0
ARC
  5
8E3F
  8
AM_0
 10
385.30097537198287
 20
105.8406620681851
 30
0.0
 40
2.5
 50
90.0
 51
180.0
  0
LINE
  5
8E40
  8
AM_0
 10
382.80097537198287
 20
109.94066206818481
 30
0.0
 11
382.80097537198287
 21
105.840662068185
 31
0.0
  0
ARC
  5
8E41
  8
AM_0
 10
383.30097537198287
 20
109.94066206818481
 30
0.0
 40
0.5
 50
90.0
 51
180.0
  0
LINE
  5
8E42
  8
AM_0
 10
394.33597537198301
 20
108.340662068185
 30
0.0
 11
385.30097537198282
 21
108.340662068185
 31
0.0
  0
POLYLINE
  5
8E43
  8
AM_0
 66
     1
 10
0.0
 20
0.0
 30
0.0
 70
     8
  0
VERTEX
  5
8E44
  8
AM_0
 10
385.3009283069087
 20
98.071076871227945
 30
0.0
 70
    32
  0
VERTEX
  5
8E45
  8
AM_0
 10
385.2969283069088
 20
98.071076871227945
 30
0.0
 70
    32
  0
VERTEX
  5
8E46
  8
AM_0
 10
385.29292830690889
 20
98.071076871227945
 30
0.0
 70
    32
  0
VERTEX
  5
8E47
  8
AM_0
 10
385.28792830690878
 20
98.071076871227945
 30
0.0
 70
    32
  0
VERTEX
  5
8E48
  8
AM_0
 10
385.28392830690888
 20
98.071076871227945
 30
0.0
 70
    32
  0
VERTEX
  5
8E49
  8
AM_0
 10
385.27992830690903
 20
98.071076871227945
 30
0.0
 70
    32
  0
VERTEX
  5
8E4A
  8
AM_0
 10
385.27492830690892
 20
98.071076871227945
 30
0.0
 70
    32
  0
VERTEX
  5
8E4B
  8
AM_0
 10
385.2709283069089
 20
98.070076871227727
 30
0.0
 70
    32
  0
VERTEX
  5
8E4C
  8
AM_0
 10
385.26692830690882
 20
98.070076871227727
 30
0.0
 70
    32
  0
VERTEX
  5
8E4D
  8
AM_0
 10
385.2629283069088
 20
98.070076871227727
 30
0.0
 70
    32
  0
VERTEX
  5
8E4E
  8
AM_0
 10
385.25792830690881
 20
98.070076871227727
 30
0.0
 70
    32
  0
VERTEX
  5
8E4F
  8
AM_0
 10
385.25392830690868
 20
98.070076871227727
 30
0.0
 70
    32
  0
VERTEX
  5
8E50
  8
AM_0
 10
385.24992830690883
 20
98.070076871227727
 30
0.0
 70
    32
  0
VERTEX
  5
8E51
  8
AM_0
 10
385.24592830690892
 20
98.070076871227727
 30
0.0
 70
    32
  0
VERTEX
  5
8E52
  8
AM_0
 10
385.24092830690881
 20
98.070076871227727
 30
0.0
 70
    32
  0
VERTEX
  5
8E53
  8
AM_0
 10
385.23692830690891
 20
98.070076871227727
 30
0.0
 70
    32
  0
VERTEX
  5
8E54
  8
AM_0
 10
385.232928306909
 20
98.070076871227727
 30
0.0
 70
    32
  0
VERTEX
  5
8E55
  8
AM_0
 10
385.22792830690878
 20
98.070076871227727
 30
0.0
 70
    32
  0
VERTEX
  5
8E56
  8
AM_0
 10
385.22392830690887
 20
98.070076871227727
 30
0.0
 70
    32
  0
VERTEX
  5
8E57
  8
AM_0
 10
385.2199283069088
 20
98.070076871227727
 30
0.0
 70
    32
  0
VERTEX
  5
8E58
  8
AM_0
 10
385.21592830690889
 20
98.070076871227727
 30
0.0
 70
    32
  0
VERTEX
  5
8E59
  8
AM_0
 10
385.21092830690878
 20
98.070076871227727
 30
0.0
 70
    32
  0
VERTEX
  5
8E5A
  8
AM_0
 10
385.20692830690888
 20
98.070076871227727
 30
0.0
 70
    32
  0
VERTEX
  5
8E5B
  8
AM_0
 10
385.2029283069088
 20
98.070076871227727
 30
0.0
 70
    32
  0
VERTEX
  5
8E5C
  8
AM_0
 10
385.1989283069089
 20
98.070076871227727
 30
0.0
 70
    32
  0
VERTEX
  5
8E5D
  8
AM_0
 10
385.19392830690867
 20
98.069076871227907
 30
0.0
 70
    32
  0
VERTEX
  5
8E5E
  8
AM_0
 10
385.18992830690888
 20
98.069076871227907
 30
0.0
 70
    32
  0
VERTEX
  5
8E5F
  8
AM_0
 10
385.18592830690892
 20
98.069076871227907
 30
0.0
 70
    32
  0
VERTEX
  5
8E60
  8
AM_0
 10
385.18192830690879
 20
98.069076871227907
 30
0.0
 70
    32
  0
VERTEX
  5
8E61
  8
AM_0
 10
385.17692830690891
 20
98.069076871227907
 30
0.0
 70
    32
  0
VERTEX
  5
8E62
  8
AM_0
 10
385.17292830690877
 20
98.069076871227907
 30
0.0
 70
    32
  0
VERTEX
  5
8E63
  8
AM_0
 10
385.16892830690892
 20
98.069076871227907
 30
0.0
 70
    32
  0
VERTEX
  5
8E64
  8
AM_0
 10
385.16392830690882
 20
98.069076871227907
 30
0.0
 70
    32
  0
VERTEX
  5
8E65
  8
AM_0
 10
385.15992830690891
 20
98.069076871227907
 30
0.0
 70
    32
  0
VERTEX
  5
8E66
  8
AM_0
 10
385.15592830690872
 20
98.069076871227907
 30
0.0
 70
    32
  0
VERTEX
  5
8E67
  8
AM_0
 10
385.15192830690881
 20
98.068076871227774
 30
0.0
 70
    32
  0
VERTEX
  5
8E68
  8
AM_0
 10
385.14692830690871
 20
98.068076871227774
 30
0.0
 70
    32
  0
VERTEX
  5
8E69
  8
AM_0
 10
385.1429283069088
 20
98.068076871227774
 30
0.0
 70
    32
  0
VERTEX
  5
8E6A
  8
AM_0
 10
385.13892830690889
 20
98.068076871227774
 30
0.0
 70
    32
  0
VERTEX
  5
8E6B
  8
AM_0
 10
385.13492830690882
 20
98.068076871227774
 30
0.0
 70
    32
  0
VERTEX
  5
8E6C
  8
AM_0
 10
385.12992830690888
 20
98.068076871227774
 30
0.0
 70
    32
  0
VERTEX
  5
8E6D
  8
AM_0
 10
385.12592830690869
 20
98.068076871227774
 30
0.0
 70
    32
  0
VERTEX
  5
8E6E
  8
AM_0
 10
385.12192830690879
 20
98.067076871227783
 30
0.0
 70
    32
  0
VERTEX
  5
8E6F
  8
AM_0
 10
385.11792830690871
 20
98.067076871227783
 30
0.0
 70
    32
  0
VERTEX
  5
8E70
  8
AM_0
 10
385.11292830690883
 20
98.067076871227783
 30
0.0
 70
    32
  0
VERTEX
  5
8E71
  8
AM_0
 10
385.10892830690869
 20
98.067076871227783
 30
0.0
 70
    32
  0
VERTEX
  5
8E72
  8
AM_0
 10
385.1049283069089
 20
98.067076871227783
 30
0.0
 70
    32
  0
VERTEX
  5
8E73
  8
AM_0
 10
385.09992830690902
 20
98.067076871227783
 30
0.0
 70
    32
  0
VERTEX
  5
8E74
  8
AM_0
 10
385.09592830690877
 20
98.067076871227783
 30
0.0
 70
    32
  0
VERTEX
  5
8E75
  8
AM_0
 10
385.09192830690893
 20
98.066076871227793
 30
0.0
 70
    32
  0
VERTEX
  5
8E76
  8
AM_0
 10
385.08792830690902
 20
98.066076871227793
 30
0.0
 70
    32
  0
VERTEX
  5
8E77
  8
AM_0
 10
385.08292830690891
 20
98.066076871227793
 30
0.0
 70
    32
  0
VERTEX
  5
8E78
  8
AM_0
 10
385.07892830690901
 20
98.066076871227793
 30
0.0
 70
    32
  0
VERTEX
  5
8E79
  8
AM_0
 10
385.07492830690882
 20
98.066076871227793
 30
0.0
 70
    32
  0
VERTEX
  5
8E7A
  8
AM_0
 10
385.07092830690868
 20
98.065076871227944
 30
0.0
 70
    32
  0
VERTEX
  5
8E7B
  8
AM_0
 10
385.0659283069088
 20
98.065076871227944
 30
0.0
 70
    32
  0
VERTEX
  5
8E7C
  8
AM_0
 10
385.06192830690873
 20
98.065076871227944
 30
0.0
 70
    32
  0
VERTEX
  5
8E7D
  8
AM_0
 10
385.05792830690882
 20
98.065076871227944
 30
0.0
 70
    32
  0
VERTEX
  5
8E7E
  8
AM_0
 10
385.05392830690892
 20
98.065076871227944
 30
0.0
 70
    32
  0
VERTEX
  5
8E7F
  8
AM_0
 10
385.04892830690881
 20
98.065076871227944
 30
0.0
 70
    32
  0
VERTEX
  5
8E80
  8
AM_0
 10
385.0449283069089
 20
98.064076871228011
 30
0.0
 70
    32
  0
VERTEX
  5
8E81
  8
AM_0
 10
385.04092830690888
 20
98.064076871228011
 30
0.0
 70
    32
  0
VERTEX
  5
8E82
  8
AM_0
 10
385.03692830690881
 20
98.064076871228011
 30
0.0
 70
    32
  0
VERTEX
  5
8E83
  8
AM_0
 10
385.03192830690892
 20
98.064076871228011
 30
0.0
 70
    32
  0
VERTEX
  5
8E84
  8
AM_0
 10
385.02792830690879
 20
98.063076871228006
 30
0.0
 70
    32
  0
VERTEX
  5
8E85
  8
AM_0
 10
385.02392830690889
 20
98.063076871228006
 30
0.0
 70
    32
  0
VERTEX
  5
8E86
  8
AM_0
 10
385.01892830690878
 20
98.063076871228006
 30
0.0
 70
    32
  0
VERTEX
  5
8E87
  8
AM_0
 10
385.01492830690893
 20
98.063076871228006
 30
0.0
 70
    32
  0
VERTEX
  5
8E88
  8
AM_0
 10
385.01092830690868
 20
98.063076871228006
 30
0.0
 70
    32
  0
VERTEX
  5
8E89
  8
AM_0
 10
385.00692830690889
 20
98.062076871227774
 30
0.0
 70
    32
  0
VERTEX
  5
8E8A
  8
AM_0
 10
385.00192830690872
 20
98.062076871227774
 30
0.0
 70
    32
  0
VERTEX
  5
8E8B
  8
AM_0
 10
384.99792830690882
 20
98.062076871227774
 30
0.0
 70
    32
  0
VERTEX
  5
8E8C
  8
AM_0
 10
384.99392830690891
 20
98.062076871227774
 30
0.0
 70
    32
  0
VERTEX
  5
8E8D
  8
AM_0
 10
384.98992830690878
 20
98.061076871227783
 30
0.0
 70
    32
  0
VERTEX
  5
8E8E
  8
AM_0
 10
384.9849283069089
 20
98.061076871227783
 30
0.0
 70
    32
  0
VERTEX
  5
8E8F
  8
AM_0
 10
384.98092830690882
 20
98.061076871227783
 30
0.0
 70
    32
  0
VERTEX
  5
8E90
  8
AM_0
 10
384.97692830690892
 20
98.060076871227906
 30
0.0
 70
    32
  0
VERTEX
  5
8E91
  8
AM_0
 10
384.97292830690878
 20
98.060076871227906
 30
0.0
 70
    32
  0
VERTEX
  5
8E92
  8
AM_0
 10
384.9679283069089
 20
98.060076871227906
 30
0.0
 70
    32
  0
VERTEX
  5
8E93
  8
AM_0
 10
384.96392830690883
 20
98.060076871227906
 30
0.0
 70
    32
  0
VERTEX
  5
8E94
  8
AM_0
 10
384.95992830690892
 20
98.059076871227816
 30
0.0
 70
    32
  0
VERTEX
  5
8E95
  8
AM_0
 10
384.9559283069089
 20
98.059076871227816
 30
0.0
 70
    32
  0
VERTEX
  5
8E96
  8
AM_0
 10
384.95092830690879
 20
98.059076871227816
 30
0.0
 70
    32
  0
VERTEX
  5
8E97
  8
AM_0
 10
384.94692830690889
 20
98.059076871227816
 30
0.0
 70
    32
  0
VERTEX
  5
8E98
  8
AM_0
 10
384.94292830690881
 20
98.058076871227783
 30
0.0
 70
    32
  0
VERTEX
  5
8E99
  8
AM_0
 10
384.93892830690879
 20
98.058076871227783
 30
0.0
 70
    32
  0
VERTEX
  5
8E9A
  8
AM_0
 10
384.9339283069088
 20
98.058076871227783
 30
0.0
 70
    32
  0
VERTEX
  5
8E9B
  8
AM_0
 10
384.92992830690878
 20
98.057076871227792
 30
0.0
 70
    32
  0
VERTEX
  5
8E9C
  8
AM_0
 10
384.9259283069087
 20
98.057076871227792
 30
0.0
 70
    32
  0
VERTEX
  5
8E9D
  8
AM_0
 10
384.92092830690882
 20
98.057076871227792
 30
0.0
 70
    32
  0
VERTEX
  5
8E9E
  8
AM_0
 10
384.9169283069088
 20
98.056076871227987
 30
0.0
 70
    32
  0
VERTEX
  5
8E9F
  8
AM_0
 10
384.91292830690878
 20
98.056076871227987
 30
0.0
 70
    32
  0
VERTEX
  5
8EA0
  8
AM_0
 10
384.90892830690888
 20
98.056076871227987
 30
0.0
 70
    32
  0
VERTEX
  5
8EA1
  8
AM_0
 10
384.90392830690888
 20
98.055076871227996
 30
0.0
 70
    32
  0
VERTEX
  5
8EA2
  8
AM_0
 10
384.89992830690892
 20
98.055076871227996
 30
0.0
 70
    32
  0
VERTEX
  5
8EA3
  8
AM_0
 10
384.89592830690901
 20
98.055076871227996
 30
0.0
 70
    32
  0
VERTEX
  5
8EA4
  8
AM_0
 10
384.89192830690882
 20
98.054076871227934
 30
0.0
 70
    32
  0
VERTEX
  5
8EA5
  8
AM_0
 10
384.886928306909
 20
98.054076871227934
 30
0.0
 70
    32
  0
VERTEX
  5
8EA6
  8
AM_0
 10
384.88292830690892
 20
98.054076871227934
 30
0.0
 70
    32
  0
VERTEX
  5
8EA7
  8
AM_0
 10
384.87892830690868
 20
98.053076871227802
 30
0.0
 70
    32
  0
VERTEX
  5
8EA8
  8
AM_0
 10
384.87492830690883
 20
98.053076871227802
 30
0.0
 70
    32
  0
VERTEX
  5
8EA9
  8
AM_0
 10
384.86992830690889
 20
98.053076871227802
 30
0.0
 70
    32
  0
VERTEX
  5
8EAA
  8
AM_0
 10
384.86592830690881
 20
98.052076871227811
 30
0.0
 70
    32
  0
VERTEX
  5
8EAB
  8
AM_0
 10
384.86192830690879
 20
98.052076871227811
 30
0.0
 70
    32
  0
VERTEX
  5
8EAC
  8
AM_0
 10
384.85792830690889
 20
98.05107687122792
 30
0.0
 70
    32
  0
VERTEX
  5
8EAD
  8
AM_0
 10
384.85292830690889
 20
98.05107687122792
 30
0.0
 70
    32
  0
VERTEX
  5
8EAE
  8
AM_0
 10
384.84892830690887
 20
98.05107687122792
 30
0.0
 70
    32
  0
VERTEX
  5
8EAF
  8
AM_0
 10
384.8449283069088
 20
98.050076871227773
 30
0.0
 70
    32
  0
VERTEX
  5
8EB0
  8
AM_0
 10
384.84092830690889
 20
98.050076871227773
 30
0.0
 70
    32
  0
VERTEX
  5
8EB1
  8
AM_0
 10
384.83592830690878
 20
98.049076871227783
 30
0.0
 70
    32
  0
VERTEX
  5
8EB2
  8
AM_0
 10
384.83192830690888
 20
98.049076871227783
 30
0.0
 70
    32
  0
VERTEX
  5
8EB3
  8
AM_0
 10
384.82792830690869
 20
98.049076871227783
 30
0.0
 70
    32
  0
VERTEX
  5
8EB4
  8
AM_0
 10
384.8239283069089
 20
98.048076871227963
 30
0.0
 70
    32
  0
VERTEX
  5
8EB5
  8
AM_0
 10
384.81892830690879
 20
98.048076871227963
 30
0.0
 70
    32
  0
VERTEX
  5
8EB6
  8
AM_0
 10
384.81492830690883
 20
98.047076871228015
 30
0.0
 70
    32
  0
VERTEX
  5
8EB7
  8
AM_0
 10
384.81092830690892
 20
98.047076871228015
 30
0.0
 70
    32
  0
VERTEX
  5
8EB8
  8
AM_0
 10
384.80692830690879
 20
98.04607687122791
 30
0.0
 70
    32
  0
VERTEX
  5
8EB9
  8
AM_0
 10
384.80192830690879
 20
98.04607687122791
 30
0.0
 70
    32
  0
VERTEX
  5
8EBA
  8
AM_0
 10
384.79792830690877
 20
98.04607687122791
 30
0.0
 70
    32
  0
VERTEX
  5
8EBB
  8
AM_0
 10
384.79392830690892
 20
98.045076871227934
 30
0.0
 70
    32
  0
VERTEX
  5
8EBC
  8
AM_0
 10
384.78992830690879
 20
98.045076871227934
 30
0.0
 70
    32
  0
VERTEX
  5
8EBD
  8
AM_0
 10
384.78492830690891
 20
98.044076871227773
 30
0.0
 70
    32
  0
VERTEX
  5
8EBE
  8
AM_0
 10
384.78092830690878
 20
98.044076871227773
 30
0.0
 70
    32
  0
VERTEX
  5
8EBF
  8
AM_0
 10
384.77692830690893
 20
98.043076871227797
 30
0.0
 70
    32
  0
VERTEX
  5
8EC0
  8
AM_0
 10
384.77292830690902
 20
98.043076871227797
 30
0.0
 70
    32
  0
VERTEX
  5
8EC1
  8
AM_0
 10
384.76892830690878
 20
98.042076871227948
 30
0.0
 70
    32
  0
VERTEX
  5
8EC2
  8
AM_0
 10
384.76392830690889
 20
98.042076871227948
 30
0.0
 70
    32
  0
VERTEX
  5
8EC3
  8
AM_0
 10
384.75992830690882
 20
98.041076871228128
 30
0.0
 70
    32
  0
VERTEX
  5
8EC4
  8
AM_0
 10
384.7559283069088
 20
98.041076871228128
 30
0.0
 70
    32
  0
VERTEX
  5
8EC5
  8
AM_0
 10
384.75192830690872
 20
98.040076871227626
 30
0.0
 70
    32
  0
VERTEX
  5
8EC6
  8
AM_0
 10
384.74692830690879
 20
98.040076871227626
 30
0.0
 70
    32
  0
VERTEX
  5
8EC7
  8
AM_0
 10
384.74292830690882
 20
98.039076871227707
 30
0.0
 70
    32
  0
VERTEX
  5
8EC8
  8
AM_0
 10
384.7389283069088
 20
98.039076871227707
 30
0.0
 70
    32
  0
VERTEX
  5
8EC9
  8
AM_0
 10
384.7349283069089
 20
98.038076871227773
 30
0.0
 70
    32
  0
VERTEX
  5
8ECA
  8
AM_0
 10
384.72992830690879
 20
98.038076871227773
 30
0.0
 70
    32
  0
VERTEX
  5
8ECB
  8
AM_0
 10
384.72592830690888
 20
98.037076871227882
 30
0.0
 70
    32
  0
VERTEX
  5
8ECC
  8
AM_0
 10
384.72192830690881
 20
98.037076871227882
 30
0.0
 70
    32
  0
VERTEX
  5
8ECD
  8
AM_0
 10
384.7179283069089
 20
98.036076871227792
 30
0.0
 70
    32
  0
VERTEX
  5
8ECE
  8
AM_0
 10
384.71292830690902
 20
98.036076871227792
 30
0.0
 70
    32
  0
VERTEX
  5
8ECF
  8
AM_0
 10
384.70892830690877
 20
98.035076871227815
 30
0.0
 70
    32
  0
VERTEX
  5
8ED0
  8
AM_0
 10
384.7049283069087
 20
98.035076871227815
 30
0.0
 70
    32
  0
VERTEX
  5
8ED1
  8
AM_0
 10
384.70092830690879
 20
98.034076871227796
 30
0.0
 70
    32
  0
VERTEX
  5
8ED2
  8
AM_0
 10
384.69592830690868
 20
98.034076871227796
 30
0.0
 70
    32
  0
VERTEX
  5
8ED3
  8
AM_0
 10
384.69192830690878
 20
98.033076871228005
 30
0.0
 70
    32
  0
VERTEX
  5
8ED4
  8
AM_0
 10
384.68792830690887
 20
98.033076871228005
 30
0.0
 70
    32
  0
VERTEX
  5
8ED5
  8
AM_0
 10
384.6839283069088
 20
98.032076871227787
 30
0.0
 70
    32
  0
VERTEX
  5
8ED6
  8
AM_0
 10
384.67992830690878
 20
98.032076871227787
 30
0.0
 70
    32
  0
VERTEX
  5
8ED7
  8
AM_0
 10
384.6749283069089
 20
98.031076871227995
 30
0.0
 70
    32
  0
VERTEX
  5
8ED8
  8
AM_0
 10
384.67092830690882
 20
98.030076871227593
 30
0.0
 70
    32
  0
VERTEX
  5
8ED9
  8
AM_0
 10
384.6669283069088
 20
98.030076871227593
 30
0.0
 70
    32
  0
VERTEX
  5
8EDA
  8
AM_0
 10
384.66292830690878
 20
98.029076871227815
 30
0.0
 70
    32
  0
VERTEX
  5
8EDB
  8
AM_0
 10
384.6579283069089
 20
98.029076871227815
 30
0.0
 70
    32
  0
VERTEX
  5
8EDC
  8
AM_0
 10
384.65392830690882
 20
98.028076871227995
 30
0.0
 70
    32
  0
VERTEX
  5
8EDD
  8
AM_0
 10
384.64992830690892
 20
98.028076871227995
 30
0.0
 70
    32
  0
VERTEX
  5
8EDE
  8
AM_0
 10
384.64592830690901
 20
98.027076871227806
 30
0.0
 70
    32
  0
VERTEX
  5
8EDF
  8
AM_0
 10
384.6409283069089
 20
98.026076871227801
 30
0.0
 70
    32
  0
VERTEX
  5
8EE0
  8
AM_0
 10
384.636928306909
 20
98.026076871227801
 30
0.0
 70
    32
  0
VERTEX
  5
8EE1
  8
AM_0
 10
384.63292830690881
 20
98.025076871227782
 30
0.0
 70
    32
  0
VERTEX
  5
8EE2
  8
AM_0
 10
384.62892830690868
 20
98.025076871227782
 30
0.0
 70
    32
  0
VERTEX
  5
8EE3
  8
AM_0
 10
384.62492830690883
 20
98.024076871227933
 30
0.0
 70
    32
  0
VERTEX
  5
8EE4
  8
AM_0
 10
384.619928306909
 20
98.023076871228255
 30
0.0
 70
    32
  0
VERTEX
  5
8EE5
  8
AM_0
 10
384.61592830690881
 20
98.023076871228255
 30
0.0
 70
    32
  0
VERTEX
  5
8EE6
  8
AM_0
 10
384.61192830690879
 20
98.02207687122791
 30
0.0
 70
    32
  0
VERTEX
  5
8EE7
  8
AM_0
 10
384.60792830690889
 20
98.02207687122791
 30
0.0
 70
    32
  0
VERTEX
  5
8EE8
  8
AM_0
 10
384.60292830690889
 20
98.021076871227592
 30
0.0
 70
    32
  0
VERTEX
  5
8EE9
  8
AM_0
 10
384.59892830690887
 20
98.020076871227786
 30
0.0
 70
    32
  0
VERTEX
  5
8EEA
  8
AM_0
 10
384.5949283069088
 20
98.020076871227786
 30
0.0
 70
    32
  0
VERTEX
  5
8EEB
  8
AM_0
 10
384.59092830690889
 20
98.019076871228009
 30
0.0
 70
    32
  0
VERTEX
  5
8EEC
  8
AM_0
 10
384.58692830690882
 20
98.018076871227962
 30
0.0
 70
    32
  0
VERTEX
  5
8EED
  8
AM_0
 10
384.58192830690888
 20
98.018076871227962
 30
0.0
 70
    32
  0
VERTEX
  5
8EEE
  8
AM_0
 10
384.5779283069088
 20
98.017076871227985
 30
0.0
 70
    32
  0
VERTEX
  5
8EEF
  8
AM_0
 10
384.5739283069089
 20
98.017076871227985
 30
0.0
 70
    32
  0
VERTEX
  5
8EF0
  8
AM_0
 10
384.56992830690888
 20
98.016076871227796
 30
0.0
 70
    32
  0
VERTEX
  5
8EF1
  8
AM_0
 10
384.56492830690883
 20
98.015076871227933
 30
0.0
 70
    32
  0
VERTEX
  5
8EF2
  8
AM_0
 10
384.56092830690892
 20
98.015076871227933
 30
0.0
 70
    32
  0
VERTEX
  5
8EF3
  8
AM_0
 10
384.5569283069089
 20
98.014076871227985
 30
0.0
 70
    32
  0
VERTEX
  5
8EF4
  8
AM_0
 10
384.55292830690888
 20
98.013076871227995
 30
0.0
 70
    32
  0
VERTEX
  5
8EF5
  8
AM_0
 10
384.54892830690881
 20
98.013076871227995
 30
0.0
 70
    32
  0
VERTEX
  5
8EF6
  8
AM_0
 10
384.54392830690892
 20
98.01207687122762
 30
0.0
 70
    32
  0
VERTEX
  5
8EF7
  8
AM_0
 10
384.53992830690879
 20
98.0110768712278
 30
0.0
 70
    32
  0
VERTEX
  5
8EF8
  8
AM_0
 10
384.53592830690877
 20
98.0110768712278
 30
0.0
 70
    32
  0
VERTEX
  5
8EF9
  8
AM_0
 10
384.53192830690881
 20
98.010076871228009
 30
0.0
 70
    32
  0
VERTEX
  5
8EFA
  8
AM_0
 10
384.52692830690881
 20
98.009076871228004
 30
0.0
 70
    32
  0
VERTEX
  5
8EFB
  8
AM_0
 10
384.52292830690902
 20
98.009076871228004
 30
0.0
 70
    32
  0
VERTEX
  5
8EFC
  8
AM_0
 10
384.51892830690878
 20
98.008076871227786
 30
0.0
 70
    32
  0
VERTEX
  5
8EFD
  8
AM_0
 10
384.51492830690893
 20
98.007076871227994
 30
0.0
 70
    32
  0
VERTEX
  5
8EFE
  8
AM_0
 10
384.5109283069088
 20
98.006076871227947
 30
0.0
 70
    32
  0
VERTEX
  5
8EFF
  8
AM_0
 10
384.50592830690891
 20
98.006076871227947
 30
0.0
 70
    32
  0
VERTEX
  5
8F00
  8
AM_0
 10
384.50192830690872
 20
98.005076871228013
 30
0.0
 70
    32
  0
VERTEX
  5
8F01
  8
AM_0
 10
384.49792830690882
 20
98.004076871227923
 30
0.0
 70
    32
  0
VERTEX
  5
8F02
  8
AM_0
 10
384.49392830690891
 20
98.004076871227923
 30
0.0
 70
    32
  0
VERTEX
  5
8F03
  8
AM_0
 10
384.48992830690878
 20
98.003076871227606
 30
0.0
 70
    32
  0
VERTEX
  5
8F04
  8
AM_0
 10
384.4849283069089
 20
98.002076871227786
 30
0.0
 70
    32
  0
VERTEX
  5
8F05
  8
AM_0
 10
384.48092830690882
 20
98.001076871227994
 30
0.0
 70
    32
  0
VERTEX
  5
8F06
  8
AM_0
 10
384.47692830690892
 20
98.001076871227994
 30
0.0
 70
    32
  0
VERTEX
  5
8F07
  8
AM_0
 10
384.47292830690873
 20
98.000076871227947
 30
0.0
 70
    32
  0
VERTEX
  5
8F08
  8
AM_0
 10
384.46892830690882
 20
97.999076871227814
 30
0.0
 70
    32
  0
VERTEX
  5
8F09
  8
AM_0
 10
384.46392830690871
 20
97.998076871227795
 30
0.0
 70
    32
  0
VERTEX
  5
8F0A
  8
AM_0
 10
384.45992830690881
 20
97.998076871227795
 30
0.0
 70
    32
  0
VERTEX
  5
8F0B
  8
AM_0
 10
384.45592830690902
 20
97.997076871227804
 30
0.0
 70
    32
  0
VERTEX
  5
8F0C
  8
AM_0
 10
384.45192830690883
 20
97.996076871227984
 30
0.0
 70
    32
  0
VERTEX
  5
8F0D
  8
AM_0
 10
384.44792830690892
 20
97.995076871227965
 30
0.0
 70
    32
  0
VERTEX
  5
8F0E
  8
AM_0
 10
384.44292830690881
 20
97.995076871227965
 30
0.0
 70
    32
  0
VERTEX
  5
8F0F
  8
AM_0
 10
384.43892830690891
 20
97.994076871227946
 30
0.0
 70
    32
  0
VERTEX
  5
8F10
  8
AM_0
 10
384.43492830690877
 20
97.993076871228254
 30
0.0
 70
    32
  0
VERTEX
  5
8F11
  8
AM_0
 10
384.43092830690881
 20
97.992076871228022
 30
0.0
 70
    32
  0
VERTEX
  5
8F12
  8
AM_0
 10
384.42692830690891
 20
97.992076871228022
 30
0.0
 70
    32
  0
VERTEX
  5
8F13
  8
AM_0
 10
384.4219283069088
 20
97.991076871227804
 30
0.0
 70
    32
  0
VERTEX
  5
8F14
  8
AM_0
 10
384.417928306909
 20
97.990076871227785
 30
0.0
 70
    32
  0
VERTEX
  5
8F15
  8
AM_0
 10
384.41392830690882
 20
97.989076871227823
 30
0.0
 70
    32
  0
VERTEX
  5
8F16
  8
AM_0
 10
384.4099283069088
 20
97.988076871227804
 30
0.0
 70
    32
  0
VERTEX
  5
8F17
  8
AM_0
 10
384.40592830690878
 20
97.988076871227804
 30
0.0
 70
    32
  0
VERTEX
  5
8F18
  8
AM_0
 10
384.40092830690878
 20
97.987076871227984
 30
0.0
 70
    32
  0
VERTEX
  5
8F19
  8
AM_0
 10
384.39692830690871
 20
97.986076871228008
 30
0.0
 70
    32
  0
VERTEX
  5
8F1A
  8
AM_0
 10
384.3929283069088
 20
97.985076871227776
 30
0.0
 70
    32
  0
VERTEX
  5
8F1B
  8
AM_0
 10
384.38892830690889
 20
97.984076871227785
 30
0.0
 70
    32
  0
VERTEX
  5
8F1C
  8
AM_0
 10
384.38492830690882
 20
97.984076871227785
 30
0.0
 70
    32
  0
VERTEX
  5
8F1D
  8
AM_0
 10
384.37992830690888
 20
97.983076871227823
 30
0.0
 70
    32
  0
VERTEX
  5
8F1E
  8
AM_0
 10
384.3759283069088
 20
97.982076871227804
 30
0.0
 70
    32
  0
VERTEX
  5
8F1F
  8
AM_0
 10
384.3719283069089
 20
97.981076871227714
 30
0.0
 70
    32
  0
VERTEX
  5
8F20
  8
AM_0
 10
384.36792830690871
 20
97.980076871227723
 30
0.0
 70
    32
  0
VERTEX
  5
8F21
  8
AM_0
 10
384.3639283069088
 20
97.979076871227804
 30
0.0
 70
    32
  0
VERTEX
  5
8F22
  8
AM_0
 10
384.3599283069089
 20
97.979076871227804
 30
0.0
 70
    32
  0
VERTEX
  5
8F23
  8
AM_0
 10
384.35492830690879
 20
97.978076871227984
 30
0.0
 70
    32
  0
VERTEX
  5
8F24
  8
AM_0
 10
384.350928306909
 20
97.977076871227993
 30
0.0
 70
    32
  0
VERTEX
  5
8F25
  8
AM_0
 10
384.34692830690869
 20
97.976076871227946
 30
0.0
 70
    32
  0
VERTEX
  5
8F26
  8
AM_0
 10
384.34292830690879
 20
97.975076871227813
 30
0.0
 70
    32
  0
VERTEX
  5
8F27
  8
AM_0
 10
384.33892830690883
 20
97.974076871227794
 30
0.0
 70
    32
  0
VERTEX
  5
8F28
  8
AM_0
 10
384.33392830690877
 20
97.973076871227804
 30
0.0
 70
    32
  0
VERTEX
  5
8F29
  8
AM_0
 10
384.3299283069087
 20
97.973076871227804
 30
0.0
 70
    32
  0
VERTEX
  5
8F2A
  8
AM_0
 10
384.32592830690879
 20
97.972076871227785
 30
0.0
 70
    32
  0
VERTEX
  5
8F2B
  8
AM_0
 10
384.32192830690889
 20
97.971076871227993
 30
0.0
 70
    32
  0
VERTEX
  5
8F2C
  8
AM_0
 10
384.31792830690881
 20
97.970076871227946
 30
0.0
 70
    32
  0
VERTEX
  5
8F2D
  8
AM_0
 10
384.31392830690879
 20
97.969076871228282
 30
0.0
 70
    32
  0
VERTEX
  5
8F2E
  8
AM_0
 10
384.3089283069088
 20
97.968076871227908
 30
0.0
 70
    32
  0
VERTEX
  5
8F2F
  8
AM_0
 10
384.30492830690889
 20
97.967076871227803
 30
0.0
 70
    32
  0
VERTEX
  5
8F30
  8
AM_0
 10
384.3009283069087
 20
97.966076871227784
 30
0.0
 70
    32
  0
VERTEX
  5
8F31
  8
AM_0
 10
384.29692830690891
 20
97.965076871227964
 30
0.0
 70
    32
  0
VERTEX
  5
8F32
  8
AM_0
 10
384.292928306909
 20
97.965076871227964
 30
0.0
 70
    32
  0
VERTEX
  5
8F33
  8
AM_0
 10
384.28892830690882
 20
97.964076871228073
 30
0.0
 70
    32
  0
VERTEX
  5
8F34
  8
AM_0
 10
384.28392830690888
 20
97.963076871227798
 30
0.0
 70
    32
  0
VERTEX
  5
8F35
  8
AM_0
 10
384.27992830690903
 20
97.962076871228092
 30
0.0
 70
    32
  0
VERTEX
  5
8F36
  8
AM_0
 10
384.2759283069089
 20
97.961076871227803
 30
0.0
 70
    32
  0
VERTEX
  5
8F37
  8
AM_0
 10
384.27192830690871
 20
97.960076871227983
 30
0.0
 70
    32
  0
VERTEX
  5
8F38
  8
AM_0
 10
384.2679283069088
 20
97.959076871227794
 30
0.0
 70
    32
  0
VERTEX
  5
8F39
  8
AM_0
 10
384.26392830690889
 20
97.958076871227803
 30
0.0
 70
    32
  0
VERTEX
  5
8F3A
  8
AM_0
 10
384.25892830690879
 20
97.957076871227798
 30
0.0
 70
    32
  0
VERTEX
  5
8F3B
  8
AM_0
 10
384.25492830690888
 20
97.956076871227907
 30
0.0
 70
    32
  0
VERTEX
  5
8F3C
  8
AM_0
 10
384.2509283069088
 20
97.955076871228087
 30
0.0
 70
    32
  0
VERTEX
  5
8F3D
  8
AM_0
 10
384.2469283069089
 20
97.954076871227784
 30
0.0
 70
    32
  0
VERTEX
  5
8F3E
  8
AM_0
 10
384.24292830690871
 20
97.95307687122795
 30
0.0
 70
    32
  0
VERTEX
  5
8F3F
  8
AM_0
 10
384.2389283069088
 20
97.952076871227817
 30
0.0
 70
    32
  0
VERTEX
  5
8F40
  8
AM_0
 10
384.23392830690869
 20
97.951076871228011
 30
0.0
 70
    32
  0
VERTEX
  5
8F41
  8
AM_0
 10
384.22992830690879
 20
97.950076871227793
 30
0.0
 70
    32
  0
VERTEX
  5
8F42
  8
AM_0
 10
384.22592830690911
 20
97.949076871227803
 30
0.0
 70
    32
  0
VERTEX
  5
8F43
  8
AM_0
 10
384.22192830690881
 20
97.948076871227784
 30
0.0
 70
    32
  0
VERTEX
  5
8F44
  8
AM_0
 10
384.2179283069089
 20
97.947076871227935
 30
0.0
 70
    32
  0
VERTEX
  5
8F45
  8
AM_0
 10
384.21392830690871
 20
97.946076871228087
 30
0.0
 70
    32
  0
VERTEX
  5
8F46
  8
AM_0
 10
384.20992830690881
 20
97.945076871227585
 30
0.0
 70
    32
  0
VERTEX
  5
8F47
  8
AM_0
 10
384.2049283069087
 20
97.944076871227793
 30
0.0
 70
    32
  0
VERTEX
  5
8F48
  8
AM_0
 10
384.20092830690879
 20
97.943076871227774
 30
0.0
 70
    32
  0
VERTEX
  5
8F49
  8
AM_0
 10
384.196928306909
 20
97.942076871227869
 30
0.0
 70
    32
  0
VERTEX
  5
8F4A
  8
AM_0
 10
384.19292830690881
 20
97.941076871227821
 30
0.0
 70
    32
  0
VERTEX
  5
8F4B
  8
AM_0
 10
384.18892830690891
 20
97.940076871227802
 30
0.0
 70
    32
  0
VERTEX
  5
8F4C
  8
AM_0
 10
384.18492830690877
 20
97.939076871228025
 30
0.0
 70
    32
  0
VERTEX
  5
8F4D
  8
AM_0
 10
384.17992830690889
 20
97.938076871227906
 30
0.0
 70
    32
  0
VERTEX
  5
8F4E
  8
AM_0
 10
384.17592830690882
 20
97.937076871227987
 30
0.0
 70
    32
  0
VERTEX
  5
8F4F
  8
AM_0
 10
384.17192830690891
 20
97.936076871228011
 30
0.0
 70
    32
  0
VERTEX
  5
8F50
  8
AM_0
 10
384.167928306909
 20
97.935076871227793
 30
0.0
 70
    32
  0
VERTEX
  5
8F51
  8
AM_0
 10
384.16392830690882
 20
97.934076871227731
 30
0.0
 70
    32
  0
VERTEX
  5
8F52
  8
AM_0
 10
384.1599283069088
 20
97.933076871227911
 30
0.0
 70
    32
  0
VERTEX
  5
8F53
  8
AM_0
 10
384.15592830690878
 20
97.932076871227807
 30
0.0
 70
    32
  0
VERTEX
  5
8F54
  8
AM_0
 10
384.15192830690893
 20
97.931076871227773
 30
0.0
 70
    32
  0
VERTEX
  5
8F55
  8
AM_0
 10
384.14692830690871
 20
97.930076871227783
 30
0.0
 70
    32
  0
VERTEX
  5
8F56
  8
AM_0
 10
384.1429283069088
 20
97.929076871228006
 30
0.0
 70
    32
  0
VERTEX
  5
8F57
  8
AM_0
 10
384.13892830690889
 20
97.928076871227944
 30
0.0
 70
    32
  0
VERTEX
  5
8F58
  8
AM_0
 10
384.13492830690882
 20
97.926076871227806
 30
0.0
 70
    32
  0
VERTEX
  5
8F59
  8
AM_0
 10
384.1309283069088
 20
97.925076871227759
 30
0.0
 70
    32
  0
VERTEX
  5
8F5A
  8
AM_0
 10
384.12692830690872
 20
97.924076871227868
 30
0.0
 70
    32
  0
VERTEX
  5
8F5B
  8
AM_0
 10
384.12292830690882
 20
97.923076871227948
 30
0.0
 70
    32
  0
VERTEX
  5
8F5C
  8
AM_0
 10
384.11892830690891
 20
97.922076871227816
 30
0.0
 70
    32
  0
VERTEX
  5
8F5D
  8
AM_0
 10
384.1139283069088
 20
97.921076871227797
 30
0.0
 70
    32
  0
VERTEX
  5
8F5E
  8
AM_0
 10
384.1099283069089
 20
97.920076871228005
 30
0.0
 70
    32
  0
VERTEX
  5
8F5F
  8
AM_0
 10
384.10592830690882
 20
97.919076871227986
 30
0.0
 70
    32
  0
VERTEX
  5
8F60
  8
AM_0
 10
384.10192830690892
 20
97.91807687122791
 30
0.0
 70
    32
  0
VERTEX
  5
8F61
  8
AM_0
 10
384.09792830690878
 20
97.916076871227801
 30
0.0
 70
    32
  0
VERTEX
  5
8F62
  8
AM_0
 10
384.09392830690882
 20
97.915076871228294
 30
0.0
 70
    32
  0
VERTEX
  5
8F63
  8
AM_0
 10
384.08992830690892
 20
97.914076871227792
 30
0.0
 70
    32
  0
VERTEX
  5
8F64
  8
AM_0
 10
384.08592830690878
 20
97.913076871227773
 30
0.0
 70
    32
  0
VERTEX
  5
8F65
  8
AM_0
 10
384.08092830690902
 20
97.912076871227782
 30
0.0
 70
    32
  0
VERTEX
  5
8F66
  8
AM_0
 10
384.07692830690883
 20
97.911076871227962
 30
0.0
 70
    32
  0
VERTEX
  5
8F67
  8
AM_0
 10
384.07292830690892
 20
97.910076871228014
 30
0.0
 70
    32
  0
VERTEX
  5
8F68
  8
AM_0
 10
384.06892830690867
 20
97.908076871227792
 30
0.0
 70
    32
  0
VERTEX
  5
8F69
  8
AM_0
 10
384.06492830690888
 20
97.907076871227773
 30
0.0
 70
    32
  0
VERTEX
  5
8F6A
  8
AM_0
 10
384.06092830690892
 20
97.906076871227995
 30
0.0
 70
    32
  0
VERTEX
  5
8F6B
  8
AM_0
 10
384.05692830690879
 20
97.905076871227791
 30
0.0
 70
    32
  0
VERTEX
  5
8F6C
  8
AM_0
 10
384.052928306909
 20
97.904076871228014
 30
0.0
 70
    32
  0
VERTEX
  5
8F6D
  8
AM_0
 10
384.04892830690869
 20
97.903076871227725
 30
0.0
 70
    32
  0
VERTEX
  5
8F6E
  8
AM_0
 10
384.0449283069089
 20
97.901076871227986
 30
0.0
 70
    32
  0
VERTEX
  5
8F6F
  8
AM_0
 10
384.03992830690879
 20
97.900076871227995
 30
0.0
 70
    32
  0
VERTEX
  5
8F70
  8
AM_0
 10
384.03592830690889
 20
97.899076871228004
 30
0.0
 70
    32
  0
VERTEX
  5
8F71
  8
AM_0
 10
384.03192830690892
 20
97.898076871227815
 30
0.0
 70
    32
  0
VERTEX
  5
8F72
  8
AM_0
 10
384.02792830690879
 20
97.897076871228009
 30
0.0
 70
    32
  0
VERTEX
  5
8F73
  8
AM_0
 10
384.02392830690889
 20
97.895076871227786
 30
0.0
 70
    32
  0
VERTEX
  5
8F74
  8
AM_0
 10
384.01992830690881
 20
97.894076871227782
 30
0.0
 70
    32
  0
VERTEX
  5
8F75
  8
AM_0
 10
384.01592830690879
 20
97.893076871227805
 30
0.0
 70
    32
  0
VERTEX
  5
8F76
  8
AM_0
 10
384.01192830690889
 20
97.892076871228014
 30
0.0
 70
    32
  0
VERTEX
  5
8F77
  8
AM_0
 10
384.00792830690881
 20
97.890076871227805
 30
0.0
 70
    32
  0
VERTEX
  5
8F78
  8
AM_0
 10
384.00392830690868
 20
97.8890768712278
 30
0.0
 70
    32
  0
VERTEX
  5
8F79
  8
AM_0
 10
383.99992830690883
 20
97.888076871227995
 30
0.0
 70
    32
  0
VERTEX
  5
8F7A
  8
AM_0
 10
383.994928306909
 20
97.887076871227734
 30
0.0
 70
    32
  0
VERTEX
  5
8F7B
  8
AM_0
 10
383.99092830690881
 20
97.885076871227795
 30
0.0
 70
    32
  0
VERTEX
  5
8F7C
  8
AM_0
 10
383.98692830690879
 20
97.884076871227805
 30
0.0
 70
    32
  0
VERTEX
  5
8F7D
  8
AM_0
 10
383.98292830690889
 20
97.883076871227985
 30
0.0
 70
    32
  0
VERTEX
  5
8F7E
  8
AM_0
 10
383.97892830690881
 20
97.882076871228008
 30
0.0
 70
    32
  0
VERTEX
  5
8F7F
  8
AM_0
 10
383.97492830690902
 20
97.8800768712278
 30
0.0
 70
    32
  0
VERTEX
  5
8F80
  8
AM_0
 10
383.97092830690877
 20
97.879076871227909
 30
0.0
 70
    32
  0
VERTEX
  5
8F81
  8
AM_0
 10
383.96692830690893
 20
97.878076871227705
 30
0.0
 70
    32
  0
VERTEX
  5
8F82
  8
AM_0
 10
383.96292830690902
 20
97.877076871227786
 30
0.0
 70
    32
  0
VERTEX
  5
8F83
  8
AM_0
 10
383.95892830690877
 20
97.875076871227805
 30
0.0
 70
    32
  0
VERTEX
  5
8F84
  8
AM_0
 10
383.95492830690881
 20
97.874076871228013
 30
0.0
 70
    32
  0
VERTEX
  5
8F85
  8
AM_0
 10
383.95092830690879
 20
97.873076871228008
 30
0.0
 70
    32
  0
VERTEX
  5
8F86
  8
AM_0
 10
383.946928306909
 20
97.871076871227785
 30
0.0
 70
    32
  0
VERTEX
  5
8F87
  8
AM_0
 10
383.94192830690872
 20
97.870076871227994
 30
0.0
 70
    32
  0
VERTEX
  5
8F88
  8
AM_0
 10
383.93792830690887
 20
97.869076871227946
 30
0.0
 70
    32
  0
VERTEX
  5
8F89
  8
AM_0
 10
383.9339283069088
 20
97.867076871227795
 30
0.0
 70
    32
  0
VERTEX
  5
8F8A
  8
AM_0
 10
383.92992830690878
 20
97.866076871227804
 30
0.0
 70
    32
  0
VERTEX
  5
8F8B
  8
AM_0
 10
383.9259283069087
 20
97.86507687122787
 30
0.0
 70
    32
  0
VERTEX
  5
8F8C
  8
AM_0
 10
383.9219283069088
 20
97.863076871227804
 30
0.0
 70
    32
  0
VERTEX
  5
8F8D
  8
AM_0
 10
383.91792830690889
 20
97.862076871227814
 30
0.0
 70
    32
  0
VERTEX
  5
8F8E
  8
AM_0
 10
383.91392830690887
 20
97.861076871227993
 30
0.0
 70
    32
  0
VERTEX
  5
8F8F
  8
AM_0
 10
383.90992830690891
 20
97.859076871227984
 30
0.0
 70
    32
  0
VERTEX
  5
8F90
  8
AM_0
 10
383.90592830690872
 20
97.858076871227965
 30
0.0
 70
    32
  0
VERTEX
  5
8F91
  8
AM_0
 10
383.90192830690881
 20
97.857076871227946
 30
0.0
 70
    32
  0
VERTEX
  5
8F92
  8
AM_0
 10
383.89792830690902
 20
97.855076871227794
 30
0.0
 70
    32
  0
VERTEX
  5
8F93
  8
AM_0
 10
383.89392830690878
 20
97.854076871227804
 30
0.0
 70
    32
  0
VERTEX
  5
8F94
  8
AM_0
 10
383.88992830690893
 20
97.853076871227785
 30
0.0
 70
    32
  0
VERTEX
  5
8F95
  8
AM_0
 10
383.8859283069088
 20
97.851076871227946
 30
0.0
 70
    32
  0
VERTEX
  5
8F96
  8
AM_0
 10
383.88192830690889
 20
97.850076871227984
 30
0.0
 70
    32
  0
VERTEX
  5
8F97
  8
AM_0
 10
383.87792830690893
 20
97.848076871227775
 30
0.0
 70
    32
  0
VERTEX
  5
8F98
  8
AM_0
 10
383.87392830690879
 20
97.847076871227884
 30
0.0
 70
    32
  0
VERTEX
  5
8F99
  8
AM_0
 10
383.869928306909
 20
97.846076871227794
 30
0.0
 70
    32
  0
VERTEX
  5
8F9A
  8
AM_0
 10
383.8659283069087
 20
97.844076871227784
 30
0.0
 70
    32
  0
VERTEX
  5
8F9B
  8
AM_0
 10
383.86192830690891
 20
97.843076871228007
 30
0.0
 70
    32
  0
VERTEX
  5
8F9C
  8
AM_0
 10
383.857928306909
 20
97.841076871227912
 30
0.0
 70
    32
  0
VERTEX
  5
8F9D
  8
AM_0
 10
383.85392830690893
 20
97.84007687122795
 30
0.0
 70
    32
  0
VERTEX
  5
8F9E
  8
AM_0
 10
383.84992830690902
 20
97.839076871227803
 30
0.0
 70
    32
  0
VERTEX
  5
8F9F
  8
AM_0
 10
383.84592830690877
 20
97.837076871227794
 30
0.0
 70
    32
  0
VERTEX
  5
8FA0
  8
AM_0
 10
383.84192830690893
 20
97.836076871227803
 30
0.0
 70
    32
  0
VERTEX
  5
8FA1
  8
AM_0
 10
383.83692830690882
 20
97.834076871227964
 30
0.0
 70
    32
  0
VERTEX
  5
8FA2
  8
AM_0
 10
383.8329283069088
 20
97.833076871227945
 30
0.0
 70
    32
  0
VERTEX
  5
8FA3
  8
AM_0
 10
383.82892830690889
 20
97.831076871227793
 30
0.0
 70
    32
  0
VERTEX
  5
8FA4
  8
AM_0
 10
383.82492830690882
 20
97.830076871227817
 30
0.0
 70
    32
  0
VERTEX
  5
8FA5
  8
AM_0
 10
383.82092830690868
 20
97.828076871227793
 30
0.0
 70
    32
  0
VERTEX
  5
8FA6
  8
AM_0
 10
383.81692830690878
 20
97.827076871227945
 30
0.0
 70
    32
  0
VERTEX
  5
8FA7
  8
AM_0
 10
383.81292830690887
 20
97.825076871227793
 30
0.0
 70
    32
  0
VERTEX
  5
8FA8
  8
AM_0
 10
383.8089283069088
 20
97.824076871227945
 30
0.0
 70
    32
  0
VERTEX
  5
8FA9
  8
AM_0
 10
383.80492830690878
 20
97.822076871227793
 30
0.0
 70
    32
  0
VERTEX
  5
8FAA
  8
AM_0
 10
383.80092830690882
 20
97.821076871227945
 30
0.0
 70
    32
  0
VERTEX
  5
8FAB
  8
AM_0
 10
383.7969283069088
 20
97.819076871227793
 30
0.0
 70
    32
  0
VERTEX
  5
8FAC
  8
AM_0
 10
383.792928306909
 20
97.818076871227774
 30
0.0
 70
    32
  0
VERTEX
  5
8FAD
  8
AM_0
 10
383.78892830690882
 20
97.816076871227793
 30
0.0
 70
    32
  0
VERTEX
  5
8FAE
  8
AM_0
 10
383.7849283069088
 20
97.815076871227944
 30
0.0
 70
    32
  0
VERTEX
  5
8FAF
  8
AM_0
 10
383.78092830690878
 20
97.813076871227793
 30
0.0
 70
    32
  0
VERTEX
  5
8FB0
  8
AM_0
 10
383.77692830690893
 20
97.812076871227987
 30
0.0
 70
    32
  0
VERTEX
  5
8FB1
  8
AM_0
 10
383.77392830690889
 20
97.810076871228091
 30
0.0
 70
    32
  0
VERTEX
  5
8FB2
  8
AM_0
 10
383.76992830690881
 20
97.809076871227589
 30
0.0
 70
    32
  0
VERTEX
  5
8FB3
  8
AM_0
 10
383.76592830690879
 20
97.807076871227792
 30
0.0
 70
    32
  0
VERTEX
  5
8FB4
  8
AM_0
 10
383.761928306909
 20
97.806076871227916
 30
0.0
 70
    32
  0
VERTEX
  5
8FB5
  8
AM_0
 10
383.75792830690881
 20
97.804076871227963
 30
0.0
 70
    32
  0
VERTEX
  5
8FB6
  8
AM_0
 10
383.75392830690868
 20
97.803076871228001
 30
0.0
 70
    32
  0
VERTEX
  5
8FB7
  8
AM_0
 10
383.74992830690883
 20
97.801076871228091
 30
0.0
 70
    32
  0
VERTEX
  5
8FB8
  8
AM_0
 10
383.74592830690892
 20
97.799076871227797
 30
0.0
 70
    32
  0
VERTEX
  5
8FB9
  8
AM_0
 10
383.74192830690879
 20
97.798076871227948
 30
0.0
 70
    32
  0
VERTEX
  5
8FBA
  8
AM_0
 10
383.73792830690883
 20
97.79607687122801
 30
0.0
 70
    32
  0
VERTEX
  5
8FBB
  8
AM_0
 10
383.73392830690869
 20
97.795076871227707
 30
0.0
 70
    32
  0
VERTEX
  5
8FBC
  8
AM_0
 10
383.72992830690879
 20
97.793076871227882
 30
0.0
 70
    32
  0
VERTEX
  5
8FBD
  8
AM_0
 10
383.72592830690888
 20
97.791076871227602
 30
0.0
 70
    32
  0
VERTEX
  5
8FBE
  8
AM_0
 10
383.72192830690881
 20
97.79007687122764
 30
0.0
 70
    32
  0
VERTEX
  5
8FBF
  8
AM_0
 10
383.71792830690879
 20
97.788076871227915
 30
0.0
 70
    32
  0
VERTEX
  5
8FC0
  8
AM_0
 10
383.71392830690883
 20
97.787076871227782
 30
0.0
 70
    32
  0
VERTEX
  5
8FC1
  8
AM_0
 10
383.70992830690892
 20
97.785076871227815
 30
0.0
 70
    32
  0
VERTEX
  5
8FC2
  8
AM_0
 10
383.7059283069089
 20
97.783076871228005
 30
0.0
 70
    32
  0
VERTEX
  5
8FC3
  8
AM_0
 10
383.70192830690883
 20
97.782076871227801
 30
0.0
 70
    32
  0
VERTEX
  5
8FC4
  8
AM_0
 10
383.69792830690892
 20
97.780076871227934
 30
0.0
 70
    32
  0
VERTEX
  5
8FC5
  8
AM_0
 10
383.69392830690867
 20
97.77807687122781
 30
0.0
 70
    32
  0
VERTEX
  5
8FC6
  8
AM_0
 10
383.68992830690883
 20
97.777076871227806
 30
0.0
 70
    32
  0
VERTEX
  5
8FC7
  8
AM_0
 10
383.68592830690898
 20
97.775076871228009
 30
0.0
 70
    32
  0
VERTEX
  5
8FC8
  8
AM_0
 10
383.68292830690882
 20
97.773076871227985
 30
0.0
 70
    32
  0
VERTEX
  5
8FC9
  8
AM_0
 10
383.67892830690892
 20
97.772076871227796
 30
0.0
 70
    32
  0
VERTEX
  5
8FCA
  8
AM_0
 10
383.67492830690901
 20
97.770076871227914
 30
0.0
 70
    32
  0
VERTEX
  5
8FCB
  8
AM_0
 10
383.67092830690882
 20
97.768076871227805
 30
0.0
 70
    32
  0
VERTEX
  5
8FCC
  8
AM_0
 10
383.66692830690869
 20
97.7670768712278
 30
0.0
 70
    32
  0
VERTEX
  5
8FCD
  8
AM_0
 10
383.66292830690878
 20
97.765076871228004
 30
0.0
 70
    32
  0
VERTEX
  5
8FCE
  8
AM_0
 10
383.65892830690888
 20
97.763076871227995
 30
0.0
 70
    32
  0
VERTEX
  5
8FCF
  8
AM_0
 10
383.65492830690903
 20
97.762076871227805
 30
0.0
 70
    32
  0
VERTEX
  5
8FD0
  8
AM_0
 10
383.6509283069089
 20
97.760076871227795
 30
0.0
 70
    32
  0
VERTEX
  5
8FD1
  8
AM_0
 10
383.64692830690871
 20
97.758076871227786
 30
0.0
 70
    32
  0
VERTEX
  5
8FD2
  8
AM_0
 10
383.6429283069088
 20
97.756076871227947
 30
0.0
 70
    32
  0
VERTEX
  5
8FD3
  8
AM_0
 10
383.63892830690889
 20
97.755076871227914
 30
0.0
 70
    32
  0
VERTEX
  5
8FD4
  8
AM_0
 10
383.6359283069088
 20
97.753076871227705
 30
0.0
 70
    32
  0
VERTEX
  5
8FD5
  8
AM_0
 10
383.63192830690889
 20
97.751076871227966
 30
0.0
 70
    32
  0
VERTEX
  5
8FD6
  8
AM_0
 10
383.62792830690893
 20
97.749076871228127
 30
0.0
 70
    32
  0
VERTEX
  5
8FD7
  8
AM_0
 10
383.62392830690891
 20
97.748076871227795
 30
0.0
 70
    32
  0
VERTEX
  5
8FD8
  8
AM_0
 10
383.61992830690889
 20
97.746076871227885
 30
0.0
 70
    32
  0
VERTEX
  5
8FD9
  8
AM_0
 10
383.61592830690881
 20
97.744076871227804
 30
0.0
 70
    32
  0
VERTEX
  5
8FDA
  8
AM_0
 10
383.61192830690891
 20
97.742076871228008
 30
0.0
 70
    32
  0
VERTEX
  5
8FDB
  8
AM_0
 10
383.607928306909
 20
97.741076871227776
 30
0.0
 70
    32
  0
VERTEX
  5
8FDC
  8
AM_0
 10
383.60392830690881
 20
97.739076871227823
 30
0.0
 70
    32
  0
VERTEX
  5
8FDD
  8
AM_0
 10
383.600928306909
 20
97.737076871228012
 30
0.0
 70
    32
  0
VERTEX
  5
8FDE
  8
AM_0
 10
383.59692830690881
 20
97.735076871227804
 30
0.0
 70
    32
  0
VERTEX
  5
8FDF
  8
AM_0
 10
383.5929283069089
 20
97.733076871227993
 30
0.0
 70
    32
  0
VERTEX
  5
8FE0
  8
AM_0
 10
383.58892830690871
 20
97.732076871227591
 30
0.0
 70
    32
  0
VERTEX
  5
8FE1
  8
AM_0
 10
383.58492830690881
 20
97.730076871227794
 30
0.0
 70
    32
  0
VERTEX
  5
8FE2
  8
AM_0
 10
383.5809283069089
 20
97.72807687122787
 30
0.0
 70
    32
  0
VERTEX
  5
8FE3
  8
AM_0
 10
383.57692830690883
 20
97.726076871227946
 30
0.0
 70
    32
  0
VERTEX
  5
8FE4
  8
AM_0
 10
383.57392830690878
 20
97.724076871227794
 30
0.0
 70
    32
  0
VERTEX
  5
8FE5
  8
AM_0
 10
383.56992830690888
 20
97.723076871227804
 30
0.0
 70
    32
  0
VERTEX
  5
8FE6
  8
AM_0
 10
383.5659283069088
 20
97.721076871227964
 30
0.0
 70
    32
  0
VERTEX
  5
8FE7
  8
AM_0
 10
383.56192830690873
 20
97.719076871227827
 30
0.0
 70
    32
  0
VERTEX
  5
8FE8
  8
AM_0
 10
383.55792830690882
 20
97.717076871227803
 30
0.0
 70
    32
  0
VERTEX
  5
8FE9
  8
AM_0
 10
383.55392830690892
 20
97.715076871228007
 30
0.0
 70
    32
  0
VERTEX
  5
8FEA
  8
AM_0
 10
383.54992830690901
 20
97.713076871227642
 30
0.0
 70
    32
  0
VERTEX
  5
8FEB
  8
AM_0
 10
383.5469283069088
 20
97.711076871228002
 30
0.0
 70
    32
  0
VERTEX
  5
8FEC
  8
AM_0
 10
383.54292830690889
 20
97.70907687122795
 30
0.0
 70
    32
  0
VERTEX
  5
8FED
  8
AM_0
 10
383.53892830690882
 20
97.708076871227803
 30
0.0
 70
    32
  0
VERTEX
  5
8FEE
  8
AM_0
 10
383.5349283069088
 20
97.706076871228007
 30
0.0
 70
    32
  0
VERTEX
  5
8FEF
  8
AM_0
 10
383.53092830690878
 20
97.704076871227784
 30
0.0
 70
    32
  0
VERTEX
  5
8FF0
  8
AM_0
 10
383.52792830690879
 20
97.702076871227945
 30
0.0
 70
    32
  0
VERTEX
  5
8FF1
  8
AM_0
 10
383.52392830690889
 20
97.700076871227793
 30
0.0
 70
    32
  0
VERTEX
  5
8FF2
  8
AM_0
 10
383.5199283069087
 20
97.698076871227869
 30
0.0
 70
    32
  0
VERTEX
  5
8FF3
  8
AM_0
 10
383.5159283069089
 20
97.696076871227945
 30
0.0
 70
    32
  0
VERTEX
  5
8FF4
  8
AM_0
 10
383.511928306909
 20
97.694076871227793
 30
0.0
 70
    32
  0
VERTEX
  5
8FF5
  8
AM_0
 10
383.50892830690879
 20
97.692076871227783
 30
0.0
 70
    32
  0
VERTEX
  5
8FF6
  8
AM_0
 10
383.50492830690888
 20
97.690076871227731
 30
0.0
 70
    32
  0
VERTEX
  5
8FF7
  8
AM_0
 10
383.50092830690869
 20
97.68807687122802
 30
0.0
 70
    32
  0
VERTEX
  5
8FF8
  8
AM_0
 10
383.4969283069089
 20
97.686076871227783
 30
0.0
 70
    32
  0
VERTEX
  5
8FF9
  8
AM_0
 10
383.49292830690882
 20
97.684076871227944
 30
0.0
 70
    32
  0
VERTEX
  5
8FFA
  8
AM_0
 10
383.48992830690878
 20
97.682076871227707
 30
0.0
 70
    32
  0
VERTEX
  5
8FFB
  8
AM_0
 10
383.48592830690887
 20
97.680076871227868
 30
0.0
 70
    32
  0
VERTEX
  5
8FFC
  8
AM_0
 10
383.4819283069088
 20
97.678076871227972
 30
0.0
 70
    32
  0
VERTEX
  5
8FFD
  8
AM_0
 10
383.47792830690889
 20
97.676076871227792
 30
0.0
 70
    32
  0
VERTEX
  5
8FFE
  8
AM_0
 10
383.47392830690887
 20
97.674076871227783
 30
0.0
 70
    32
  0
VERTEX
  5
8FFF
  8
AM_0
 10
383.47092830690877
 20
97.672076871227802
 30
0.0
 70
    32
  0
VERTEX
  5
9000
  8
AM_0
 10
383.46692830690893
 20
97.670076871228005
 30
0.0
 70
    32
  0
VERTEX
  5
9001
  8
AM_0
 10
383.46292830690891
 20
97.668076871227782
 30
0.0
 70
    32
  0
VERTEX
  5
9002
  8
AM_0
 10
383.45892830690877
 20
97.666076871227801
 30
0.0
 70
    32
  0
VERTEX
  5
9003
  8
AM_0
 10
383.45592830690902
 20
97.664076871227792
 30
0.0
 70
    32
  0
VERTEX
  5
9004
  8
AM_0
 10
383.45192830690883
 20
97.662076871227796
 30
0.0
 70
    32
  0
VERTEX
  5
9005
  8
AM_0
 10
383.44792830690892
 20
97.660076871228014
 30
0.0
 70
    32
  0
VERTEX
  5
9006
  8
AM_0
 10
383.44392830690867
 20
97.658076871227806
 30
0.0
 70
    32
  0
VERTEX
  5
9007
  8
AM_0
 10
383.4409283069088
 20
97.656076871228095
 30
0.0
 70
    32
  0
VERTEX
  5
9008
  8
AM_0
 10
383.43692830690873
 20
97.654076871227815
 30
0.0
 70
    32
  0
VERTEX
  5
9009
  8
AM_0
 10
383.43292830690882
 20
97.652076871227919
 30
0.0
 70
    32
  0
VERTEX
  5
900A
  8
AM_0
 10
383.42992830690889
 20
97.650076871227782
 30
0.0
 70
    32
  0
VERTEX
  5
900B
  8
AM_0
 10
383.4259283069087
 20
97.647076871228293
 30
0.0
 70
    32
  0
VERTEX
  5
900C
  8
AM_0
 10
383.4219283069088
 20
97.645076871227801
 30
0.0
 70
    32
  0
VERTEX
  5
900D
  8
AM_0
 10
383.417928306909
 20
97.643076871227933
 30
0.0
 70
    32
  0
VERTEX
  5
900E
  8
AM_0
 10
383.41492830690879
 20
97.641076871227796
 30
0.0
 70
    32
  0
VERTEX
  5
900F
  8
AM_0
 10
383.41092830690877
 20
97.639076871227985
 30
0.0
 70
    32
  0
VERTEX
  5
9010
  8
AM_0
 10
383.40692830690892
 20
97.637076871227961
 30
0.0
 70
    32
  0
VERTEX
  5
9011
  8
AM_0
 10
383.40392830690882
 20
97.635076871227795
 30
0.0
 70
    32
  0
VERTEX
  5
9012
  8
AM_0
 10
383.39992830690881
 20
97.633076871227786
 30
0.0
 70
    32
  0
VERTEX
  5
9013
  8
AM_0
 10
383.39592830690901
 20
97.630076871228013
 30
0.0
 70
    32
  0
VERTEX
  5
9014
  8
AM_0
 10
383.3929283069088
 20
97.628076871227591
 30
0.0
 70
    32
  0
VERTEX
  5
9015
  8
AM_0
 10
383.38892830690889
 20
97.626076871227795
 30
0.0
 70
    32
  0
VERTEX
  5
9016
  8
AM_0
 10
383.38492830690882
 20
97.62407687122824
 30
0.0
 70
    32
  0
VERTEX
  5
9017
  8
AM_0
 10
383.38192830690889
 20
97.622076871227804
 30
0.0
 70
    32
  0
VERTEX
  5
9018
  8
AM_0
 10
383.37792830690893
 20
97.619076871227932
 30
0.0
 70
    32
  0
VERTEX
  5
9019
  8
AM_0
 10
383.37392830690891
 20
97.617076871227795
 30
0.0
 70
    32
  0
VERTEX
  5
901A
  8
AM_0
 10
383.37092830690892
 20
97.615076871227785
 30
0.0
 70
    32
  0
VERTEX
  5
901B
  8
AM_0
 10
383.36692830690879
 20
97.613076871227946
 30
0.0
 70
    32
  0
VERTEX
  5
901C
  8
AM_0
 10
383.36292830690883
 20
97.611076871228022
 30
0.0
 70
    32
  0
VERTEX
  5
901D
  8
AM_0
 10
383.3599283069089
 20
97.608076871228008
 30
0.0
 70
    32
  0
VERTEX
  5
901E
  8
AM_0
 10
383.35592830690882
 20
97.606076871227984
 30
0.0
 70
    32
  0
VERTEX
  5
901F
  8
AM_0
 10
383.3519283069088
 20
97.604076871227775
 30
0.0
 70
    32
  0
VERTEX
  5
9020
  8
AM_0
 10
383.34892830690887
 20
97.602076871227993
 30
0.0
 70
    32
  0
VERTEX
  5
9021
  8
AM_0
 10
383.3449283069088
 20
97.599076871228007
 30
0.0
 70
    32
  0
VERTEX
  5
9022
  8
AM_0
 10
383.34192830690893
 20
97.597076871227785
 30
0.0
 70
    32
  0
VERTEX
  5
9023
  8
AM_0
 10
383.33792830690902
 20
97.595076871227803
 30
0.0
 70
    32
  0
VERTEX
  5
9024
  8
AM_0
 10
383.33392830690889
 20
97.593076871228007
 30
0.0
 70
    32
  0
VERTEX
  5
9025
  8
AM_0
 10
383.3309283069089
 20
97.590076871227964
 30
0.0
 70
    32
  0
VERTEX
  5
9026
  8
AM_0
 10
383.32692830690883
 20
97.588076871227798
 30
0.0
 70
    32
  0
VERTEX
  5
9027
  8
AM_0
 10
383.32392830690878
 20
97.586076871227803
 30
0.0
 70
    32
  0
VERTEX
  5
9028
  8
AM_0
 10
383.31992830690899
 20
97.583076871227945
 30
0.0
 70
    32
  0
VERTEX
  5
9029
  8
AM_0
 10
383.3159283069088
 20
97.581076871227793
 30
0.0
 70
    32
  0
VERTEX
  5
902A
  8
AM_0
 10
383.31292830690887
 20
97.579076871227784
 30
0.0
 70
    32
  0
VERTEX
  5
902B
  8
AM_0
 10
383.3089283069088
 20
97.576076871228011
 30
0.0
 70
    32
  0
VERTEX
  5
902C
  8
AM_0
 10
383.30592830690881
 20
97.57407687122793
 30
0.0
 70
    32
  0
VERTEX
  5
902D
  8
AM_0
 10
383.30192830690902
 20
97.572076871227793
 30
0.0
 70
    32
  0
VERTEX
  5
902E
  8
AM_0
 10
383.29892830690881
 20
97.569076871227793
 30
0.0
 70
    32
  0
VERTEX
  5
902F
  8
AM_0
 10
383.2949283069089
 20
97.567076871227783
 30
0.0
 70
    32
  0
VERTEX
  5
9030
  8
AM_0
 10
383.2919283069088
 20
97.564076871227812
 30
0.0
 70
    32
  0
VERTEX
  5
9031
  8
AM_0
 10
383.28792830690878
 20
97.562076871227916
 30
0.0
 70
    32
  0
VERTEX
  5
9032
  8
AM_0
 10
383.28392830690888
 20
97.560076871227963
 30
0.0
 70
    32
  0
VERTEX
  5
9033
  8
AM_0
 10
383.28092830690872
 20
97.557076871227906
 30
0.0
 70
    32
  0
VERTEX
  5
9034
  8
AM_0
 10
383.27692830690881
 20
97.555076871227783
 30
0.0
 70
    32
  0
VERTEX
  5
9035
  8
AM_0
 10
383.273928306909
 20
97.55207687122801
 30
0.0
 70
    32
  0
VERTEX
  5
9036
  8
AM_0
 10
383.26992830690881
 20
97.550076871227773
 30
0.0
 70
    32
  0
VERTEX
  5
9037
  8
AM_0
 10
383.26692830690882
 20
97.547076871227816
 30
0.0
 70
    32
  0
VERTEX
  5
9038
  8
AM_0
 10
383.2629283069088
 20
97.545076871228005
 30
0.0
 70
    32
  0
VERTEX
  5
9039
  8
AM_0
 10
383.25992830690882
 20
97.543076871227996
 30
0.0
 70
    32
  0
VERTEX
  5
903A
  8
AM_0
 10
383.2559283069088
 20
97.540076871227726
 30
0.0
 70
    32
  0
VERTEX
  5
903B
  8
AM_0
 10
383.25292830690893
 20
97.538076871227801
 30
0.0
 70
    32
  0
VERTEX
  5
903C
  8
AM_0
 10
383.24892830690879
 20
97.53507687122827
 30
0.0
 70
    32
  0
VERTEX
  5
903D
  8
AM_0
 10
383.24592830690892
 20
97.533076871228005
 30
0.0
 70
    32
  0
VERTEX
  5
903E
  8
AM_0
 10
383.24292830690871
 20
97.530076871227962
 30
0.0
 70
    32
  0
VERTEX
  5
903F
  8
AM_0
 10
383.2389283069088
 20
97.528076871227796
 30
0.0
 70
    32
  0
VERTEX
  5
9040
  8
AM_0
 10
383.23592830690887
 20
97.525076871227995
 30
0.0
 70
    32
  0
VERTEX
  5
9041
  8
AM_0
 10
383.2319283069088
 20
97.523076871227801
 30
0.0
 70
    32
  0
VERTEX
  5
9042
  8
AM_0
 10
383.22892830690893
 20
97.520076871227786
 30
0.0
 70
    32
  0
VERTEX
  5
9043
  8
AM_0
 10
383.22492830690891
 20
97.518076871227805
 30
0.0
 70
    32
  0
VERTEX
  5
9044
  8
AM_0
 10
383.22192830690881
 20
97.515076871227919
 30
0.0
 70
    32
  0
VERTEX
  5
9045
  8
AM_0
 10
383.21892830690882
 20
97.512076871227947
 30
0.0
 70
    32
  0
VERTEX
  5
9046
  8
AM_0
 10
383.21492830690892
 20
97.510076871227795
 30
0.0
 70
    32
  0
VERTEX
  5
9047
  8
AM_0
 10
383.21192830690882
 20
97.507076871227994
 30
0.0
 70
    32
  0
VERTEX
  5
9048
  8
AM_0
 10
383.2079283069088
 20
97.505076871228212
 30
0.0
 70
    32
  0
VERTEX
  5
9049
  8
AM_0
 10
383.2049283069087
 20
97.502076871227786
 30
0.0
 70
    32
  0
VERTEX
  5
904A
  8
AM_0
 10
383.20192830690883
 20
97.4990768712278
 30
0.0
 70
    32
  0
VERTEX
  5
904B
  8
AM_0
 10
383.19792830690881
 20
97.497076871227932
 30
0.0
 70
    32
  0
VERTEX
  5
904C
  8
AM_0
 10
383.19492830690888
 20
97.494076871227946
 30
0.0
 70
    32
  0
VERTEX
  5
904D
  8
AM_0
 10
383.1909283069088
 20
97.492076871227582
 30
0.0
 70
    32
  0
VERTEX
  5
904E
  8
AM_0
 10
383.18792830690887
 20
97.489076871227994
 30
0.0
 70
    32
  0
VERTEX
  5
904F
  8
AM_0
 10
383.18492830690877
 20
97.486076871227795
 30
0.0
 70
    32
  0
VERTEX
  5
9050
  8
AM_0
 10
383.18092830690881
 20
97.484076871227984
 30
0.0
 70
    32
  0
VERTEX
  5
9051
  8
AM_0
 10
383.17792830690888
 20
97.481076871227813
 30
0.0
 70
    32
  0
VERTEX
  5
9052
  8
AM_0
 10
383.17492830690901
 20
97.478076871227785
 30
0.0
 70
    32
  0
VERTEX
  5
9053
  8
AM_0
 10
383.17092830690882
 20
97.476076871227946
 30
0.0
 70
    32
  0
VERTEX
  5
9054
  8
AM_0
 10
383.167928306909
 20
97.473076871227804
 30
0.0
 70
    32
  0
VERTEX
  5
9055
  8
AM_0
 10
383.16492830690879
 20
97.470076871227803
 30
0.0
 70
    32
  0
VERTEX
  5
9056
  8
AM_0
 10
383.16192830690881
 20
97.467076871228002
 30
0.0
 70
    32
  0
VERTEX
  5
9057
  8
AM_0
 10
383.1579283069089
 20
97.46507687122795
 30
0.0
 70
    32
  0
VERTEX
  5
9058
  8
AM_0
 10
383.15492830690903
 20
97.462076871228007
 30
0.0
 70
    32
  0
VERTEX
  5
9059
  8
AM_0
 10
383.15192830690893
 20
97.459076871227936
 30
0.0
 70
    32
  0
VERTEX
  5
905A
  8
AM_0
 10
383.14792830690902
 20
97.456076871228007
 30
0.0
 70
    32
  0
VERTEX
  5
905B
  8
AM_0
 10
383.14492830690881
 20
97.454076871227784
 30
0.0
 70
    32
  0
VERTEX
  5
905C
  8
AM_0
 10
383.14192830690882
 20
97.451076871228025
 30
0.0
 70
    32
  0
VERTEX
  5
905D
  8
AM_0
 10
383.13892830690889
 20
97.448076871228011
 30
0.0
 70
    32
  0
VERTEX
  5
905E
  8
AM_0
 10
383.13492830690871
 20
97.445076871227727
 30
0.0
 70
    32
  0
VERTEX
  5
905F
  8
AM_0
 10
383.13192830690878
 20
97.443076871227774
 30
0.0
 70
    32
  0
VERTEX
  5
9060
  8
AM_0
 10
383.12892830690868
 20
97.440076871227816
 30
0.0
 70
    32
  0
VERTEX
  5
9061
  8
AM_0
 10
383.12592830690869
 20
97.437076871227774
 30
0.0
 70
    32
  0
VERTEX
  5
9062
  8
AM_0
 10
383.12292830690882
 20
97.434076871227816
 30
0.0
 70
    32
  0
VERTEX
  5
9063
  8
AM_0
 10
383.11892830690891
 20
97.431076871227802
 30
0.0
 70
    32
  0
VERTEX
  5
9064
  8
AM_0
 10
383.11592830690881
 20
97.428076871227802
 30
0.0
 70
    32
  0
VERTEX
  5
9065
  8
AM_0
 10
383.11292830690883
 20
97.426076871228005
 30
0.0
 70
    32
  0
VERTEX
  5
9066
  8
AM_0
 10
383.1099283069089
 20
97.423076871227963
 30
0.0
 70
    32
  0
VERTEX
  5
9067
  8
AM_0
 10
383.10692830690869
 20
97.420076871228005
 30
0.0
 70
    32
  0
VERTEX
  5
9068
  8
AM_0
 10
383.10392830690881
 20
97.417076871227948
 30
0.0
 70
    32
  0
VERTEX
  5
9069
  8
AM_0
 10
383.10092830690888
 20
97.414076871227707
 30
0.0
 70
    32
  0
VERTEX
  5
906A
  8
AM_0
 10
383.09692830690881
 20
97.411076871228005
 30
0.0
 70
    32
  0
VERTEX
  5
906B
  8
AM_0
 10
383.09392830690882
 20
97.408076871227919
 30
0.0
 70
    32
  0
VERTEX
  5
906C
  8
AM_0
 10
383.09092830690889
 20
97.405076871227593
 30
0.0
 70
    32
  0
VERTEX
  5
906D
  8
AM_0
 10
383.08792830690902
 20
97.402076871227806
 30
0.0
 70
    32
  0
VERTEX
  5
906E
  8
AM_0
 10
383.08492830690892
 20
97.399076871227933
 30
0.0
 70
    32
  0
VERTEX
  5
906F
  8
AM_0
 10
383.08192830690888
 20
97.396076871227592
 30
0.0
 70
    32
  0
VERTEX
  5
9070
  8
AM_0
 10
383.07892830690901
 20
97.393076871227962
 30
0.0
 70
    32
  0
VERTEX
  5
9071
  8
AM_0
 10
383.07592830690879
 20
97.390076871227933
 30
0.0
 70
    32
  0
VERTEX
  5
9072
  8
AM_0
 10
383.07292830690892
 20
97.387076871227805
 30
0.0
 70
    32
  0
VERTEX
  5
9073
  8
AM_0
 10
383.06992830690899
 20
97.384076871227805
 30
0.0
 70
    32
  0
VERTEX
  5
9074
  8
AM_0
 10
383.06692830690878
 20
97.381076871227947
 30
0.0
 70
    32
  0
VERTEX
  5
9075
  8
AM_0
 10
383.06392830690891
 20
97.378076871227606
 30
0.0
 70
    32
  0
VERTEX
  5
9076
  8
AM_0
 10
383.06092830690881
 20
97.375076871227805
 30
0.0
 70
    32
  0
VERTEX
  5
9077
  8
AM_0
 10
383.05792830690882
 20
97.372076871228003
 30
0.0
 70
    32
  0
VERTEX
  5
9078
  8
AM_0
 10
383.05492830690889
 20
97.369076871227946
 30
0.0
 70
    32
  0
VERTEX
  5
9079
  8
AM_0
 10
383.05192830690902
 20
97.366076871227804
 30
0.0
 70
    32
  0
VERTEX
  5
907A
  8
AM_0
 10
383.04892830690881
 20
97.363076871227804
 30
0.0
 70
    32
  0
VERTEX
  5
907B
  8
AM_0
 10
383.04592830690882
 20
97.360076871227776
 30
0.0
 70
    32
  0
VERTEX
  5
907C
  8
AM_0
 10
383.042928306909
 20
97.357076871227946
 30
0.0
 70
    32
  0
VERTEX
  5
907D
  8
AM_0
 10
383.03992830690879
 20
97.354076871227804
 30
0.0
 70
    32
  0
VERTEX
  5
907E
  8
AM_0
 10
383.03692830690881
 20
97.351076871227804
 30
0.0
 70
    32
  0
VERTEX
  5
907F
  8
AM_0
 10
383.03392830690888
 20
97.348076871227804
 30
0.0
 70
    32
  0
VERTEX
  5
9080
  8
AM_0
 10
383.03092830690878
 20
97.345076871227803
 30
0.0
 70
    32
  0
VERTEX
  5
9081
  8
AM_0
 10
383.02792830690879
 20
97.341076871227784
 30
0.0
 70
    32
  0
VERTEX
  5
9082
  8
AM_0
 10
383.02492830690892
 20
97.338076871227585
 30
0.0
 70
    32
  0
VERTEX
  5
9083
  8
AM_0
 10
383.02192830690871
 20
97.335076871227884
 30
0.0
 70
    32
  0
VERTEX
  5
9084
  8
AM_0
 10
383.01992830690881
 20
97.332076871227983
 30
0.0
 70
    32
  0
VERTEX
  5
9085
  8
AM_0
 10
383.01692830690882
 20
97.329076871227784
 30
0.0
 70
    32
  0
VERTEX
  5
9086
  8
AM_0
 10
383.01392830690889
 20
97.326076871228011
 30
0.0
 70
    32
  0
VERTEX
  5
9087
  8
AM_0
 10
383.0109283069088
 20
97.322076871227935
 30
0.0
 70
    32
  0
VERTEX
  5
9088
  8
AM_0
 10
383.00792830690892
 20
97.319076871227594
 30
0.0
 70
    32
  0
VERTEX
  5
9089
  8
AM_0
 10
383.00492830690888
 20
97.316076871227963
 30
0.0
 70
    32
  0
VERTEX
  5
908A
  8
AM_0
 10
383.00292830690893
 20
97.313076871227906
 30
0.0
 70
    32
  0
VERTEX
  5
908B
  8
AM_0
 10
382.99992830690883
 20
97.309076871227944
 30
0.0
 70
    32
  0
VERTEX
  5
908C
  8
AM_0
 10
382.9969283069089
 20
97.306076871227773
 30
0.0
 70
    32
  0
VERTEX
  5
908D
  8
AM_0
 10
382.99392830690891
 20
97.303076871227944
 30
0.0
 70
    32
  0
VERTEX
  5
908E
  8
AM_0
 10
382.99192830690879
 20
97.300076871227759
 30
0.0
 70
    32
  0
VERTEX
  5
908F
  8
AM_0
 10
382.9889283069088
 20
97.296076871227726
 30
0.0
 70
    32
  0
VERTEX
  5
9090
  8
AM_0
 10
382.98592830690887
 20
97.293076871227996
 30
0.0
 70
    32
  0
VERTEX
  5
9091
  8
AM_0
 10
382.98392830690869
 20
97.29007687122791
 30
0.0
 70
    32
  0
VERTEX
  5
9092
  8
AM_0
 10
382.98092830690882
 20
97.286076871227962
 30
0.0
 70
    32
  0
VERTEX
  5
9093
  8
AM_0
 10
382.97792830690878
 20
97.283076871227792
 30
0.0
 70
    32
  0
VERTEX
  5
9094
  8
AM_0
 10
382.975928306909
 20
97.280076871227791
 30
0.0
 70
    32
  0
VERTEX
  5
9095
  8
AM_0
 10
382.97292830690878
 20
97.276076871227986
 30
0.0
 70
    32
  0
VERTEX
  5
9096
  8
AM_0
 10
382.9699283069088
 20
97.273076871227815
 30
0.0
 70
    32
  0
VERTEX
  5
9097
  8
AM_0
 10
382.9679283069089
 20
97.270076871227786
 30
0.0
 70
    32
  0
VERTEX
  5
9098
  8
AM_0
 10
382.9649283069088
 20
97.266076871227995
 30
0.0
 70
    32
  0
VERTEX
  5
9099
  8
AM_0
 10
382.96292830690902
 20
97.263076871227995
 30
0.0
 70
    32
  0
VERTEX
  5
909A
  8
AM_0
 10
382.95992830690881
 20
97.259076871227805
 30
0.0
 70
    32
  0
VERTEX
  5
909B
  8
AM_0
 10
382.95692830690888
 20
97.256076871227805
 30
0.0
 70
    32
  0
VERTEX
  5
909C
  8
AM_0
 10
382.9549283069087
 20
97.253076871228501
 30
0.0
 70
    32
  0
VERTEX
  5
909D
  8
AM_0
 10
382.95192830690888
 20
97.249076871228013
 30
0.0
 70
    32
  0
VERTEX
  5
909E
  8
AM_0
 10
382.94992830690882
 20
97.246076871227785
 30
0.0
 70
    32
  0
VERTEX
  5
909F
  8
AM_0
 10
382.94692830690889
 20
97.242076871227582
 30
0.0
 70
    32
  0
VERTEX
  5
90A0
  8
AM_0
 10
382.94492830690888
 20
97.239076871227994
 30
0.0
 70
    32
  0
VERTEX
  5
90A1
  8
AM_0
 10
382.94192830690878
 20
97.235076871228003
 30
0.0
 70
    32
  0
VERTEX
  5
90A2
  8
AM_0
 10
382.93992830690883
 20
97.232076871227804
 30
0.0
 70
    32
  0
VERTEX
  5
90A3
  8
AM_0
 10
382.93792830690887
 20
97.228076871227785
 30
0.0
 70
    32
  0
VERTEX
  5
90A4
  8
AM_0
 10
382.93492830690877
 20
97.225076871227927
 30
0.0
 70
    32
  0
VERTEX
  5
90A5
  8
AM_0
 10
382.93292830690882
 20
97.221076871227993
 30
0.0
 70
    32
  0
VERTEX
  5
90A6
  8
AM_0
 10
382.92992830690878
 20
97.218076871228007
 30
0.0
 70
    32
  0
VERTEX
  5
90A7
  8
AM_0
 10
382.92792830690888
 20
97.214076871227945
 30
0.0
 70
    32
  0
VERTEX
  5
90A8
  8
AM_0
 10
382.92592830690882
 20
97.210076871227784
 30
0.0
 70
    32
  0
VERTEX
  5
90A9
  8
AM_0
 10
382.92292830690877
 20
97.207076871228026
 30
0.0
 70
    32
  0
VERTEX
  5
90AA
  8
AM_0
 10
382.92092830690882
 20
97.203076871227793
 30
0.0
 70
    32
  0
VERTEX
  5
90AB
  8
AM_0
 10
382.91892830690892
 20
97.200076871227793
 30
0.0
 70
    32
  0
VERTEX
  5
90AC
  8
AM_0
 10
382.915928306909
 20
97.196076871227817
 30
0.0
 70
    32
  0
VERTEX
  5
90AD
  8
AM_0
 10
382.91392830690882
 20
97.192076871227783
 30
0.0
 70
    32
  0
VERTEX
  5
90AE
  8
AM_0
 10
382.91192830690881
 20
97.189076871228011
 30
0.0
 70
    32
  0
VERTEX
  5
90AF
  8
AM_0
 10
382.9099283069088
 20
97.185076871228091
 30
0.0
 70
    32
  0
VERTEX
  5
90B0
  8
AM_0
 10
382.90692830690892
 20
97.181076871227987
 30
0.0
 70
    32
  0
VERTEX
  5
90B1
  8
AM_0
 10
382.90492830690903
 20
97.178076871227802
 30
0.0
 70
    32
  0
VERTEX
  5
90B2
  8
AM_0
 10
382.90292830690879
 20
97.174076871227797
 30
0.0
 70
    32
  0
VERTEX
  5
90B3
  8
AM_0
 10
382.9009283069089
 20
97.170076871227707
 30
0.0
 70
    32
  0
VERTEX
  5
90B4
  8
AM_0
 10
382.89892830690889
 20
97.16707687122809
 30
0.0
 70
    32
  0
VERTEX
  5
90B5
  8
AM_0
 10
382.89692830690871
 20
97.163076871227915
 30
0.0
 70
    32
  0
VERTEX
  5
90B6
  8
AM_0
 10
382.89492830690881
 20
97.159076871228294
 30
0.0
 70
    32
  0
VERTEX
  5
90B7
  8
AM_0
 10
382.89192830690888
 20
97.156076871227995
 30
0.0
 70
    32
  0
VERTEX
  5
90B8
  8
AM_0
 10
382.88992830690893
 20
97.152076871227806
 30
0.0
 70
    32
  0
VERTEX
  5
90B9
  8
AM_0
 10
382.88792830690869
 20
97.148076871227985
 30
0.0
 70
    32
  0
VERTEX
  5
90BA
  8
AM_0
 10
382.8859283069088
 20
97.144076871227796
 30
0.0
 70
    32
  0
VERTEX
  5
90BB
  8
AM_0
 10
382.88392830690879
 20
97.141076871228009
 30
0.0
 70
    32
  0
VERTEX
  5
90BC
  8
AM_0
 10
382.88192830690878
 20
97.137076871227805
 30
0.0
 70
    32
  0
VERTEX
  5
90BD
  8
AM_0
 10
382.87992830690888
 20
97.133076871227786
 30
0.0
 70
    32
  0
VERTEX
  5
90BE
  8
AM_0
 10
382.87792830690893
 20
97.129076871227795
 30
0.0
 70
    32
  0
VERTEX
  5
90BF
  8
AM_0
 10
382.87592830690869
 20
97.125076871227947
 30
0.0
 70
    32
  0
VERTEX
  5
90C0
  8
AM_0
 10
382.87492830690883
 20
97.122076871227947
 30
0.0
 70
    32
  0
VERTEX
  5
90C1
  8
AM_0
 10
382.87292830690882
 20
97.118076871227984
 30
0.0
 70
    32
  0
VERTEX
  5
90C2
  8
AM_0
 10
382.87092830690881
 20
97.114076871227823
 30
0.0
 70
    32
  0
VERTEX
  5
90C3
  8
AM_0
 10
382.86892830690891
 20
97.110076871227804
 30
0.0
 70
    32
  0
VERTEX
  5
90C4
  8
AM_0
 10
382.86692830690879
 20
97.106076871227813
 30
0.0
 70
    32
  0
VERTEX
  5
90C5
  8
AM_0
 10
382.86492830690878
 20
97.102076871227993
 30
0.0
 70
    32
  0
VERTEX
  5
90C6
  8
AM_0
 10
382.8639283069088
 20
97.098076871227804
 30
0.0
 70
    32
  0
VERTEX
  5
90C7
  8
AM_0
 10
382.86192830690879
 20
97.095076871227946
 30
0.0
 70
    32
  0
VERTEX
  5
90C8
  8
AM_0
 10
382.8599283069089
 20
97.091076871227884
 30
0.0
 70
    32
  0
VERTEX
  5
90C9
  8
AM_0
 10
382.85792830690889
 20
97.087076871227794
 30
0.0
 70
    32
  0
VERTEX
  5
90CA
  8
AM_0
 10
382.8569283069088
 20
97.083076871227803
 30
0.0
 70
    32
  0
VERTEX
  5
90CB
  8
AM_0
 10
382.85492830690879
 20
97.079076871227784
 30
0.0
 70
    32
  0
VERTEX
  5
90CC
  8
AM_0
 10
382.85292830690889
 20
97.075076871227694
 30
0.0
 70
    32
  0
VERTEX
  5
90CD
  8
AM_0
 10
382.85192830690892
 20
97.071076871227945
 30
0.0
 70
    32
  0
VERTEX
  5
90CE
  8
AM_0
 10
382.84992830690879
 20
97.067076871227783
 30
0.0
 70
    32
  0
VERTEX
  5
90CF
  8
AM_0
 10
382.84792830690873
 20
97.06307687122802
 30
0.0
 70
    32
  0
VERTEX
  5
90D0
  8
AM_0
 10
382.84692830690881
 20
97.059076871227944
 30
0.0
 70
    32
  0
VERTEX
  5
90D1
  8
AM_0
 10
382.8449283069088
 20
97.055076871227868
 30
0.0
 70
    32
  0
VERTEX
  5
90D2
  8
AM_0
 10
382.84392830690888
 20
97.051076871227792
 30
0.0
 70
    32
  0
VERTEX
  5
90D3
  8
AM_0
 10
382.84192830690893
 20
97.047076871228114
 30
0.0
 70
    32
  0
VERTEX
  5
90D4
  8
AM_0
 10
382.84092830690889
 20
97.043076871227782
 30
0.0
 70
    32
  0
VERTEX
  5
90D5
  8
AM_0
 10
382.83892830690871
 20
97.039076871227792
 30
0.0
 70
    32
  0
VERTEX
  5
90D6
  8
AM_0
 10
382.83792830690902
 20
97.035076871228014
 30
0.0
 70
    32
  0
VERTEX
  5
90D7
  8
AM_0
 10
382.83692830690882
 20
97.031076871228095
 30
0.0
 70
    32
  0
VERTEX
  5
90D8
  8
AM_0
 10
382.83492830690881
 20
97.027076871227919
 30
0.0
 70
    32
  0
VERTEX
  5
90D9
  8
AM_0
 10
382.83392830690877
 20
97.023076871227914
 30
0.0
 70
    32
  0
VERTEX
  5
90DA
  8
AM_0
 10
382.83292830690891
 20
97.019076871227782
 30
0.0
 70
    32
  0
VERTEX
  5
90DB
  8
AM_0
 10
382.8309283069089
 20
97.015076871227805
 30
0.0
 70
    32
  0
VERTEX
  5
90DC
  8
AM_0
 10
382.8299283069087
 20
97.011076871227587
 30
0.0
 70
    32
  0
VERTEX
  5
90DD
  8
AM_0
 10
382.82892830690901
 20
97.007076871227795
 30
0.0
 70
    32
  0
VERTEX
  5
90DE
  8
AM_0
 10
382.8279283069088
 20
97.002076871227786
 30
0.0
 70
    32
  0
VERTEX
  5
90DF
  8
AM_0
 10
382.82692830690883
 20
96.998076871227795
 30
0.0
 70
    32
  0
VERTEX
  5
90E0
  8
AM_0
 10
382.82492830690882
 20
96.994076871227946
 30
0.0
 70
    32
  0
VERTEX
  5
90E1
  8
AM_0
 10
382.8239283069089
 20
96.990076871227785
 30
0.0
 70
    32
  0
VERTEX
  5
90E2
  8
AM_0
 10
382.82292830690881
 20
96.986076871228278
 30
0.0
 70
    32
  0
VERTEX
  5
90E3
  8
AM_0
 10
382.821928306909
 20
96.98207687122796
 30
0.0
 70
    32
  0
VERTEX
  5
90E4
  8
AM_0
 10
382.82092830690868
 20
96.978076871227884
 30
0.0
 70
    32
  0
VERTEX
  5
90E5
  8
AM_0
 10
382.81992830690888
 20
96.974076871227794
 30
0.0
 70
    32
  0
VERTEX
  5
90E6
  8
AM_0
 10
382.81892830690867
 20
96.969076871227813
 30
0.0
 70
    32
  0
VERTEX
  5
90E7
  8
AM_0
 10
382.81792830690881
 20
96.965076871227822
 30
0.0
 70
    32
  0
VERTEX
  5
90E8
  8
AM_0
 10
382.81692830690878
 20
96.961076871227803
 30
0.0
 70
    32
  0
VERTEX
  5
90E9
  8
AM_0
 10
382.8159283069088
 20
96.957076871227798
 30
0.0
 70
    32
  0
VERTEX
  5
90EA
  8
AM_0
 10
382.81492830690883
 20
96.953076871228006
 30
0.0
 70
    32
  0
VERTEX
  5
90EB
  8
AM_0
 10
382.81392830690879
 20
96.94907687122793
 30
0.0
 70
    32
  0
VERTEX
  5
90EC
  8
AM_0
 10
382.81392830690879
 20
96.944076871227594
 30
0.0
 70
    32
  0
VERTEX
  5
90ED
  8
AM_0
 10
382.81292830690887
 20
96.940076871227802
 30
0.0
 70
    32
  0
VERTEX
  5
90EE
  8
AM_0
 10
382.81192830690873
 20
96.936076871228011
 30
0.0
 70
    32
  0
VERTEX
  5
90EF
  8
AM_0
 10
382.81092830690892
 20
96.932076871228006
 30
0.0
 70
    32
  0
VERTEX
  5
90F0
  8
AM_0
 10
382.80992830690872
 20
96.928076871227958
 30
0.0
 70
    32
  0
VERTEX
  5
90F1
  8
AM_0
 10
382.80992830690872
 20
96.923076871228005
 30
0.0
 70
    32
  0
VERTEX
  5
90F2
  8
AM_0
 10
382.8089283069088
 20
96.919076871227915
 30
0.0
 70
    32
  0
VERTEX
  5
90F3
  8
AM_0
 10
382.80792830690882
 20
96.915076871227797
 30
0.0
 70
    32
  0
VERTEX
  5
90F4
  8
AM_0
 10
382.80792830690882
 20
96.911076871227735
 30
0.0
 70
    32
  0
VERTEX
  5
90F5
  8
AM_0
 10
382.80692830690879
 20
96.906076871228009
 30
0.0
 70
    32
  0
VERTEX
  5
90F6
  8
AM_0
 10
382.80592830690881
 20
96.90207687122772
 30
0.0
 70
    32
  0
VERTEX
  5
90F7
  8
AM_0
 10
382.80592830690881
 20
96.898076871227801
 30
0.0
 70
    32
  0
VERTEX
  5
90F8
  8
AM_0
 10
382.80492830690889
 20
96.894076871227796
 30
0.0
 70
    32
  0
VERTEX
  5
90F9
  8
AM_0
 10
382.80492830690889
 20
96.889076871227786
 30
0.0
 70
    32
  0
VERTEX
  5
90FA
  8
AM_0
 10
382.8039283069088
 20
96.885076871227795
 30
0.0
 70
    32
  0
VERTEX
  5
90FB
  8
AM_0
 10
382.8039283069088
 20
96.881076871227947
 30
0.0
 70
    32
  0
VERTEX
  5
90FC
  8
AM_0
 10
382.80292830690888
 20
96.877076871227786
 30
0.0
 70
    32
  0
VERTEX
  5
90FD
  8
AM_0
 10
382.80292830690888
 20
96.872076871227932
 30
0.0
 70
    32
  0
VERTEX
  5
90FE
  8
AM_0
 10
382.80292830690888
 20
96.868076871228268
 30
0.0
 70
    32
  0
VERTEX
  5
90FF
  8
AM_0
 10
382.80192830690902
 20
96.864076871227994
 30
0.0
 70
    32
  0
VERTEX
  5
9100
  8
AM_0
 10
382.80192830690902
 20
96.860076871228003
 30
0.0
 70
    32
  0
VERTEX
  5
9101
  8
AM_0
 10
382.80192830690902
 20
96.855076871227993
 30
0.0
 70
    32
  0
VERTEX
  5
9102
  8
AM_0
 10
382.80192830690902
 20
96.851076871227946
 30
0.0
 70
    32
  0
VERTEX
  5
9103
  8
AM_0
 10
382.8009283069087
 20
96.847076871227785
 30
0.0
 70
    32
  0
VERTEX
  5
9104
  8
AM_0
 10
382.8009283069087
 20
96.843076871227794
 30
0.0
 70
    32
  0
VERTEX
  5
9105
  8
AM_0
 10
382.8009283069087
 20
96.838076871227784
 30
0.0
 70
    32
  0
VERTEX
  5
9106
  8
AM_0
 10
382.8009283069087
 20
96.834076871227936
 30
0.0
 70
    32
  0
VERTEX
  5
9107
  8
AM_0
 10
382.8009283069087
 20
96.830076871227817
 30
0.0
 70
    32
  0
VERTEX
  5
9108
  8
AM_0
 10
382.8009283069087
 20
96.825076871227793
 30
0.0
 70
    32
  0
VERTEX
  5
9109
  8
AM_0
 10
382.8009283069087
 20
96.821076871227945
 30
0.0
 70
    32
  0
VERTEX
  5
910A
  8
AM_0
 10
382.8009283069087
 20
96.817076871227783
 30
0.0
 70
    32
  0
VERTEX
  5
910B
  8
AM_0
 10
382.8009283069087
 20
96.813076871228006
 30
0.0
 70
    32
  0
VERTEX
  5
910C
  8
AM_0
 10
382.8009283069087
 20
96.808076871227726
 30
0.0
 70
    32
  0
VERTEX
  5
910D
  8
AM_0
 10
382.80192830690902
 20
96.804076871227934
 30
0.0
 70
    32
  0
VERTEX
  5
910E
  8
AM_0
 10
382.80192830690902
 20
96.800076871227773
 30
0.0
 70
    32
  0
VERTEX
  5
910F
  8
AM_0
 10
382.80192830690902
 20
96.79607687122828
 30
0.0
 70
    32
  0
VERTEX
  5
9110
  8
AM_0
 10
382.80192830690902
 20
96.791076871228285
 30
0.0
 70
    32
  0
VERTEX
  5
9111
  8
AM_0
 10
382.80292830690888
 20
96.787076871227882
 30
0.0
 70
    32
  0
VERTEX
  5
9112
  8
AM_0
 10
382.80292830690888
 20
96.783076871227919
 30
0.0
 70
    32
  0
VERTEX
  5
9113
  8
AM_0
 10
382.80292830690888
 20
96.779076871227815
 30
0.0
 70
    32
  0
VERTEX
  5
9114
  8
AM_0
 10
382.8039283069088
 20
96.774076871227933
 30
0.0
 70
    32
  0
VERTEX
  5
9115
  8
AM_0
 10
382.8039283069088
 20
96.770076871227786
 30
0.0
 70
    32
  0
VERTEX
  5
9116
  8
AM_0
 10
382.8039283069088
 20
96.766076871228009
 30
0.0
 70
    32
  0
VERTEX
  5
9117
  8
AM_0
 10
382.80492830690889
 20
96.762076871227805
 30
0.0
 70
    32
  0
VERTEX
  5
9118
  8
AM_0
 10
382.80492830690889
 20
96.757076871227994
 30
0.0
 70
    32
  0
VERTEX
  5
9119
  8
AM_0
 10
382.80592830690881
 20
96.753076871227805
 30
0.0
 70
    32
  0
VERTEX
  5
911A
  8
AM_0
 10
382.80592830690881
 20
96.749076871227814
 30
0.0
 70
    32
  0
VERTEX
  5
911B
  8
AM_0
 10
382.80692830690879
 20
96.745076871227965
 30
0.0
 70
    32
  0
VERTEX
  5
911C
  8
AM_0
 10
382.80692830690879
 20
96.740076871227785
 30
0.0
 70
    32
  0
VERTEX
  5
911D
  8
AM_0
 10
382.80792830690882
 20
96.736076871227908
 30
0.0
 70
    32
  0
VERTEX
  5
911E
  8
AM_0
 10
382.80792830690882
 20
96.732076871227804
 30
0.0
 70
    32
  0
VERTEX
  5
911F
  8
AM_0
 10
382.8089283069088
 20
96.728076871227984
 30
0.0
 70
    32
  0
VERTEX
  5
9120
  8
AM_0
 10
382.8089283069088
 20
96.723076871227804
 30
0.0
 70
    32
  0
VERTEX
  5
9121
  8
AM_0
 10
382.80992830690872
 20
96.719076871228026
 30
0.0
 70
    32
  0
VERTEX
  5
9122
  8
AM_0
 10
382.80992830690872
 20
96.715076871227964
 30
0.0
 70
    32
  0
VERTEX
  5
9123
  8
AM_0
 10
382.81092830690892
 20
96.711076871227803
 30
0.0
 70
    32
  0
SEQEND
  5
9124
  8
AM_0
  0
LINE
  5
9125
  8
AM_0
 10
395.80097537198287
 20
98.070813587201883
 30
0.0
 11
385.30097537197878
 21
98.070813587201883
 31
0.0
  0
LINE
  5
9126
  8
AM_0
 10
395.80097537198287
 20
49.360662068184787
 30
0.0
 11
394.33597537198301
 21
40.540662068185298
 31
0.0
  0
POLYLINE
  5
9127
  8
AM_0
 66
     1
 10
0.0
 20
0.0
 30
0.0
 70
     8
  0
VERTEX
  5
9128
  8
AM_0
 10
382.81092830690892
 20
51.950476871227799
 30
0.0
 70
    32
  0
VERTEX
  5
9129
  8
AM_0
 10
382.81192830690873
 20
51.94627687122798
 30
0.0
 70
    32
  0
VERTEX
  5
912A
  8
AM_0
 10
382.81292830690887
 20
51.941976871227979
 30
0.0
 70
    32
  0
VERTEX
  5
912B
  8
AM_0
 10
382.81392830690879
 20
51.937776871227982
 30
0.0
 70
    32
  0
VERTEX
  5
912C
  8
AM_0
 10
382.81492830690883
 20
51.933476871227981
 30
0.0
 70
    32
  0
VERTEX
  5
912D
  8
AM_0
 10
382.8159283069088
 20
51.929276871227792
 30
0.0
 70
    32
  0
VERTEX
  5
912E
  8
AM_0
 10
382.81692830690878
 20
51.92497687122777
 30
0.0
 70
    32
  0
VERTEX
  5
912F
  8
AM_0
 10
382.81792830690881
 20
51.920776871227979
 30
0.0
 70
    32
  0
VERTEX
  5
9130
  8
AM_0
 10
382.81892830690867
 20
51.91657687122779
 30
0.0
 70
    32
  0
VERTEX
  5
9131
  8
AM_0
 10
382.81992830690888
 20
51.912276871227988
 30
0.0
 70
    32
  0
VERTEX
  5
9132
  8
AM_0
 10
382.82092830690868
 20
51.908076871227912
 30
0.0
 70
    32
  0
VERTEX
  5
9133
  8
AM_0
 10
382.821928306909
 20
51.90387687122778
 30
0.0
 70
    32
  0
VERTEX
  5
9134
  8
AM_0
 10
382.82292830690881
 20
51.899576871227772
 30
0.0
 70
    32
  0
VERTEX
  5
9135
  8
AM_0
 10
382.8239283069089
 20
51.895376871227597
 30
0.0
 70
    32
  0
VERTEX
  5
9136
  8
AM_0
 10
382.82492830690882
 20
51.891176871227799
 30
0.0
 70
    32
  0
VERTEX
  5
9137
  8
AM_0
 10
382.82592830690891
 20
51.8869768712281
 30
0.0
 70
    32
  0
VERTEX
  5
9138
  8
AM_0
 10
382.82692830690883
 20
51.882776871227982
 30
0.0
 70
    32
  0
VERTEX
  5
9139
  8
AM_0
 10
382.82892830690901
 20
51.878576871227921
 30
0.0
 70
    32
  0
VERTEX
  5
913A
  8
AM_0
 10
382.8299283069087
 20
51.874376871228087
 30
0.0
 70
    32
  0
VERTEX
  5
913B
  8
AM_0
 10
382.8309283069089
 20
51.870276871227887
 30
0.0
 70
    32
  0
VERTEX
  5
913C
  8
AM_0
 10
382.83192830690882
 20
51.86607687122779
 30
0.0
 70
    32
  0
VERTEX
  5
913D
  8
AM_0
 10
382.83292830690891
 20
51.861876871228098
 30
0.0
 70
    32
  0
VERTEX
  5
913E
  8
AM_0
 10
382.83492830690881
 20
51.857776871228111
 30
0.0
 70
    32
  0
VERTEX
  5
913F
  8
AM_0
 10
382.83592830690878
 20
51.853576871227702
 30
0.0
 70
    32
  0
VERTEX
  5
9140
  8
AM_0
 10
382.83692830690882
 20
51.849476871227722
 30
0.0
 70
    32
  0
VERTEX
  5
9141
  8
AM_0
 10
382.83892830690871
 20
51.845376871227771
 30
0.0
 70
    32
  0
VERTEX
  5
9142
  8
AM_0
 10
382.83992830690892
 20
51.841276871227791
 30
0.0
 70
    32
  0
VERTEX
  5
9143
  8
AM_0
 10
382.84092830690889
 20
51.83707687122812
 30
0.0
 70
    32
  0
VERTEX
  5
9144
  8
AM_0
 10
382.84292830690879
 20
51.833076871227902
 30
0.0
 70
    32
  0
VERTEX
  5
9145
  8
AM_0
 10
382.84392830690888
 20
51.828976871227979
 30
0.0
 70
    32
  0
VERTEX
  5
9146
  8
AM_0
 10
382.84592830690877
 20
51.824876871227971
 30
0.0
 70
    32
  0
VERTEX
  5
9147
  8
AM_0
 10
382.84692830690881
 20
51.820776871227778
 30
0.0
 70
    32
  0
VERTEX
  5
9148
  8
AM_0
 10
382.84892830690887
 20
51.816776871227972
 30
0.0
 70
    32
  0
VERTEX
  5
9149
  8
AM_0
 10
382.84992830690879
 20
51.812676871227801
 30
0.0
 70
    32
  0
VERTEX
  5
914A
  8
AM_0
 10
382.85192830690892
 20
51.808676871227981
 30
0.0
 70
    32
  0
VERTEX
  5
914B
  8
AM_0
 10
382.85392830690893
 20
51.804676871228111
 30
0.0
 70
    32
  0
VERTEX
  5
914C
  8
AM_0
 10
382.85492830690879
 20
51.800676871227971
 30
0.0
 70
    32
  0
VERTEX
  5
914D
  8
AM_0
 10
382.8569283069088
 20
51.796676871227781
 30
0.0
 70
    32
  0
VERTEX
  5
914E
  8
AM_0
 10
382.85892830690869
 20
51.792676871227798
 30
0.0
 70
    32
  0
VERTEX
  5
914F
  8
AM_0
 10
382.86092830690887
 20
51.788676871227977
 30
0.0
 70
    32
  0
VERTEX
  5
9150
  8
AM_0
 10
382.86192830690879
 20
51.784776871227791
 30
0.0
 70
    32
  0
VERTEX
  5
9151
  8
AM_0
 10
382.8639283069088
 20
51.780776871227999
 30
0.0
 70
    32
  0
VERTEX
  5
9152
  8
AM_0
 10
382.86592830690881
 20
51.77687687122777
 30
0.0
 70
    32
  0
VERTEX
  5
9153
  8
AM_0
 10
382.86792830690882
 20
51.772876871227702
 30
0.0
 70
    32
  0
VERTEX
  5
9154
  8
AM_0
 10
382.869928306909
 20
51.768976871227977
 30
0.0
 70
    32
  0
VERTEX
  5
9155
  8
AM_0
 10
382.8719283069089
 20
51.76507687122789
 30
0.0
 70
    32
  0
VERTEX
  5
9156
  8
AM_0
 10
382.87392830690879
 20
51.761176871227718
 30
0.0
 70
    32
  0
VERTEX
  5
9157
  8
AM_0
 10
382.87592830690869
 20
51.757276871227781
 30
0.0
 70
    32
  0
VERTEX
  5
9158
  8
AM_0
 10
382.87792830690893
 20
51.7533768712279
 30
0.0
 70
    32
  0
VERTEX
  5
9159
  8
AM_0
 10
382.87992830690888
 20
51.74947687122777
 30
0.0
 70
    32
  0
VERTEX
  5
915A
  8
AM_0
 10
382.88192830690878
 20
51.745676871228
 30
0.0
 70
    32
  0
VERTEX
  5
915B
  8
AM_0
 10
382.88392830690879
 20
51.741776871227778
 30
0.0
 70
    32
  0
VERTEX
  5
915C
  8
AM_0
 10
382.8859283069088
 20
51.737976871228113
 30
0.0
 70
    32
  0
VERTEX
  5
915D
  8
AM_0
 10
382.88792830690869
 20
51.734176871227781
 30
0.0
 70
    32
  0
VERTEX
  5
915E
  8
AM_0
 10
382.88992830690893
 20
51.730276871228106
 30
0.0
 70
    32
  0
VERTEX
  5
915F
  8
AM_0
 10
382.89192830690888
 20
51.726476871227781
 30
0.0
 70
    32
  0
VERTEX
  5
9160
  8
AM_0
 10
382.89392830690878
 20
51.722676871227968
 30
0.0
 70
    32
  0
VERTEX
  5
9161
  8
AM_0
 10
382.89592830690901
 20
51.718976871227902
 30
0.0
 70
    32
  0
VERTEX
  5
9162
  8
AM_0
 10
382.89792830690902
 20
51.715176871227783
 30
0.0
 70
    32
  0
VERTEX
  5
9163
  8
AM_0
 10
382.9009283069089
 20
51.711376871228218
 30
0.0
 70
    32
  0
VERTEX
  5
9164
  8
AM_0
 10
382.90292830690879
 20
51.707676871227598
 30
0.0
 70
    32
  0
VERTEX
  5
9165
  8
AM_0
 10
382.90492830690903
 20
51.703876871227969
 30
0.0
 70
    32
  0
VERTEX
  5
9166
  8
AM_0
 10
382.90692830690892
 20
51.700176871228102
 30
0.0
 70
    32
  0
VERTEX
  5
9167
  8
AM_0
 10
382.9099283069088
 20
51.696476871227901
 30
0.0
 70
    32
  0
VERTEX
  5
9168
  8
AM_0
 10
382.91192830690881
 20
51.692676871227917
 30
0.0
 70
    32
  0
VERTEX
  5
9169
  8
AM_0
 10
382.91392830690882
 20
51.688976871227979
 30
0.0
 70
    32
  0
VERTEX
  5
916A
  8
AM_0
 10
382.915928306909
 20
51.685376871227888
 30
0.0
 70
    32
  0
VERTEX
  5
916B
  8
AM_0
 10
382.91892830690892
 20
51.681676871227978
 30
0.0
 70
    32
  0
VERTEX
  5
916C
  8
AM_0
 10
382.92092830690882
 20
51.677976871227798
 30
0.0
 70
    32
  0
VERTEX
  5
916D
  8
AM_0
 10
382.92292830690877
 20
51.674376871227992
 30
0.0
 70
    32
  0
VERTEX
  5
916E
  8
AM_0
 10
382.92592830690882
 20
51.670676871227769
 30
0.0
 70
    32
  0
VERTEX
  5
916F
  8
AM_0
 10
382.92792830690888
 20
51.667076871227799
 30
0.0
 70
    32
  0
VERTEX
  5
9170
  8
AM_0
 10
382.93092830690892
 20
51.663376871227797
 30
0.0
 70
    32
  0
VERTEX
  5
9171
  8
AM_0
 10
382.93292830690882
 20
51.659776871227699
 30
0.0
 70
    32
  0
VERTEX
  5
9172
  8
AM_0
 10
382.93492830690877
 20
51.656176871227792
 30
0.0
 70
    32
  0
VERTEX
  5
9173
  8
AM_0
 10
382.93792830690887
 20
51.652576871227808
 30
0.0
 70
    32
  0
VERTEX
  5
9174
  8
AM_0
 10
382.93992830690883
 20
51.649076871227813
 30
0.0
 70
    32
  0
VERTEX
  5
9175
  8
AM_0
 10
382.94292830690881
 20
51.6454768712278
 30
0.0
 70
    32
  0
VERTEX
  5
9176
  8
AM_0
 10
382.94492830690888
 20
51.641876871227893
 30
0.0
 70
    32
  0
VERTEX
  5
9177
  8
AM_0
 10
382.94792830690892
 20
51.638376871227891
 30
0.0
 70
    32
  0
VERTEX
  5
9178
  8
AM_0
 10
382.94992830690882
 20
51.634876871227888
 30
0.0
 70
    32
  0
VERTEX
  5
9179
  8
AM_0
 10
382.9529283069088
 20
51.631376871227779
 30
0.0
 70
    32
  0
VERTEX
  5
917A
  8
AM_0
 10
382.9559283069089
 20
51.627776871227809
 30
0.0
 70
    32
  0
VERTEX
  5
917B
  8
AM_0
 10
382.9579283069088
 20
51.62437687122798
 30
0.0
 70
    32
  0
VERTEX
  5
917C
  8
AM_0
 10
382.96092830690878
 20
51.620876871227921
 30
0.0
 70
    32
  0
VERTEX
  5
917D
  8
AM_0
 10
382.96292830690902
 20
51.617376871227918
 30
0.0
 70
    32
  0
VERTEX
  5
917E
  8
AM_0
 10
382.96592830690889
 20
51.613876871227902
 30
0.0
 70
    32
  0
VERTEX
  5
917F
  8
AM_0
 10
382.96892830690882
 20
51.610476871227966
 30
0.0
 70
    32
  0
VERTEX
  5
9180
  8
AM_0
 10
382.97092830690877
 20
51.606976871227999
 30
0.0
 70
    32
  0
VERTEX
  5
9181
  8
AM_0
 10
382.97392830690887
 20
51.603576871227723
 30
0.0
 70
    32
  0
VERTEX
  5
9182
  8
AM_0
 10
382.97692830690892
 20
51.600176871227973
 30
0.0
 70
    32
  0
VERTEX
  5
9183
  8
AM_0
 10
382.97892830690881
 20
51.596776871227902
 30
0.0
 70
    32
  0
VERTEX
  5
9184
  8
AM_0
 10
382.9819283069088
 20
51.59337687122779
 30
0.0
 70
    32
  0
VERTEX
  5
9185
  8
AM_0
 10
382.98492830690901
 20
51.589976871227812
 30
0.0
 70
    32
  0
VERTEX
  5
9186
  8
AM_0
 10
382.98792830690888
 20
51.586676871227979
 30
0.0
 70
    32
  0
VERTEX
  5
9187
  8
AM_0
 10
382.98992830690878
 20
51.58327687122781
 30
0.0
 70
    32
  0
VERTEX
  5
9188
  8
AM_0
 10
382.99292830690871
 20
51.57997687122797
 30
0.0
 70
    32
  0
VERTEX
  5
9189
  8
AM_0
 10
382.99592830690892
 20
51.576576871227779
 30
0.0
 70
    32
  0
VERTEX
  5
918A
  8
AM_0
 10
382.99892830690891
 20
51.57327687122779
 30
0.0
 70
    32
  0
VERTEX
  5
918B
  8
AM_0
 10
383.0009283069088
 20
51.569976871228221
 30
0.0
 70
    32
  0
VERTEX
  5
918C
  8
AM_0
 10
383.00392830690868
 20
51.566676871227799
 30
0.0
 70
    32
  0
VERTEX
  5
918D
  8
AM_0
 10
383.00692830690889
 20
51.563376871227931
 30
0.0
 70
    32
  0
VERTEX
  5
918E
  8
AM_0
 10
383.00992830690882
 20
51.560076871228091
 30
0.0
 70
    32
  0
VERTEX
  5
918F
  8
AM_0
 10
383.01292830690869
 20
51.556776871227783
 30
0.0
 70
    32
  0
VERTEX
  5
9190
  8
AM_0
 10
383.0159283069089
 20
51.55357687122779
 30
0.0
 70
    32
  0
VERTEX
  5
9191
  8
AM_0
 10
383.01892830690878
 20
51.550276871227901
 30
0.0
 70
    32
  0
VERTEX
  5
9192
  8
AM_0
 10
383.02192830690871
 20
51.547076871228292
 30
0.0
 70
    32
  0
VERTEX
  5
9193
  8
AM_0
 10
383.02492830690892
 20
51.5438768712281
 30
0.0
 70
    32
  0
VERTEX
  5
9194
  8
AM_0
 10
383.02692830690893
 20
51.540676871227781
 30
0.0
 70
    32
  0
VERTEX
  5
9195
  8
AM_0
 10
383.02992830690903
 20
51.53747687122771
 30
0.0
 70
    32
  0
VERTEX
  5
9196
  8
AM_0
 10
383.0329283069089
 20
51.534276871227711
 30
0.0
 70
    32
  0
VERTEX
  5
9197
  8
AM_0
 10
383.03592830690889
 20
51.531076871227981
 30
0.0
 70
    32
  0
VERTEX
  5
9198
  8
AM_0
 10
383.03892830690882
 20
51.527876871227782
 30
0.0
 70
    32
  0
VERTEX
  5
9199
  8
AM_0
 10
383.04192830690869
 20
51.5247768712278
 30
0.0
 70
    32
  0
VERTEX
  5
919A
  8
AM_0
 10
383.0449283069089
 20
51.521576871227801
 30
0.0
 70
    32
  0
VERTEX
  5
919B
  8
AM_0
 10
383.04792830690877
 20
51.51847687122779
 30
0.0
 70
    32
  0
VERTEX
  5
919C
  8
AM_0
 10
383.0509283069087
 20
51.5153768712279
 30
0.0
 70
    32
  0
VERTEX
  5
919D
  8
AM_0
 10
383.0539283069088
 20
51.512176871227801
 30
0.0
 70
    32
  0
VERTEX
  5
919E
  8
AM_0
 10
383.05692830690879
 20
51.509076871227791
 30
0.0
 70
    32
  0
VERTEX
  5
919F
  8
AM_0
 10
383.05992830690872
 20
51.505976871228
 30
0.0
 70
    32
  0
VERTEX
  5
91A0
  8
AM_0
 10
383.06292830690887
 20
51.502976871227972
 30
0.0
 70
    32
  0
VERTEX
  5
91A1
  8
AM_0
 10
383.06692830690878
 20
51.499876871227983
 30
0.0
 70
    32
  0
VERTEX
  5
91A2
  8
AM_0
 10
383.06992830690899
 20
51.496776871227979
 30
0.0
 70
    32
  0
VERTEX
  5
91A3
  8
AM_0
 10
383.07292830690892
 20
51.493776871227901
 30
0.0
 70
    32
  0
VERTEX
  5
91A4
  8
AM_0
 10
383.07592830690879
 20
51.490676871227983
 30
0.0
 70
    32
  0
VERTEX
  5
91A5
  8
AM_0
 10
383.07892830690901
 20
51.487676871227897
 30
0.0
 70
    32
  0
VERTEX
  5
91A6
  8
AM_0
 10
383.08192830690888
 20
51.484676871227968
 30
0.0
 70
    32
  0
VERTEX
  5
91A7
  8
AM_0
 10
383.08492830690892
 20
51.481676871227791
 30
0.0
 70
    32
  0
VERTEX
  5
91A8
  8
AM_0
 10
383.08792830690902
 20
51.478676871227968
 30
0.0
 70
    32
  0
VERTEX
  5
91A9
  8
AM_0
 10
383.09192830690893
 20
51.475676871227911
 30
0.0
 70
    32
  0
VERTEX
  5
91AA
  8
AM_0
 10
383.0949283069088
 20
51.472676871227812
 30
0.0
 70
    32
  0
VERTEX
  5
91AB
  8
AM_0
 10
383.09792830690873
 20
51.46967687122789
 30
0.0
 70
    32
  0
VERTEX
  5
91AC
  8
AM_0
 10
383.10092830690888
 20
51.466776871227978
 30
0.0
 70
    32
  0
VERTEX
  5
91AD
  8
AM_0
 10
383.10392830690881
 20
51.463776871228113
 30
0.0
 70
    32
  0
VERTEX
  5
91AE
  8
AM_0
 10
383.10692830690869
 20
51.460876871227782
 30
0.0
 70
    32
  0
VERTEX
  5
91AF
  8
AM_0
 10
383.11092830690887
 20
51.457876871227903
 30
0.0
 70
    32
  0
VERTEX
  5
91B0
  8
AM_0
 10
383.1139283069088
 20
51.454976871227771
 30
0.0
 70
    32
  0
VERTEX
  5
91B1
  8
AM_0
 10
383.11692830690879
 20
51.452076871227973
 30
0.0
 70
    32
  0
VERTEX
  5
91B2
  8
AM_0
 10
383.119928306909
 20
51.449176871227699
 30
0.0
 70
    32
  0
VERTEX
  5
91B3
  8
AM_0
 10
383.12392830690891
 20
51.44627687122798
 30
0.0
 70
    32
  0
VERTEX
  5
91B4
  8
AM_0
 10
383.12692830690872
 20
51.44337687122799
 30
0.0
 70
    32
  0
VERTEX
  5
91B5
  8
AM_0
 10
383.12992830690888
 20
51.440576871227712
 30
0.0
 70
    32
  0
VERTEX
  5
91B6
  8
AM_0
 10
383.13292830690881
 20
51.437676871227978
 30
0.0
 70
    32
  0
VERTEX
  5
91B7
  8
AM_0
 10
383.136928306909
 20
51.4348768712278
 30
0.0
 70
    32
  0
VERTEX
  5
91B8
  8
AM_0
 10
383.13992830690893
 20
51.431976871227782
 30
0.0
 70
    32
  0
VERTEX
  5
91B9
  8
AM_0
 10
383.1429283069088
 20
51.429176871227781
 30
0.0
 70
    32
  0
VERTEX
  5
91BA
  8
AM_0
 10
383.14692830690871
 20
51.426376871227973
 30
0.0
 70
    32
  0
VERTEX
  5
91BB
  8
AM_0
 10
383.14992830690892
 20
51.423576871227901
 30
0.0
 70
    32
  0
VERTEX
  5
91BC
  8
AM_0
 10
383.15292830690879
 20
51.42077687122778
 30
0.0
 70
    32
  0
VERTEX
  5
91BD
  8
AM_0
 10
383.15692830690892
 20
51.417976871227978
 30
0.0
 70
    32
  0
VERTEX
  5
91BE
  8
AM_0
 10
383.15992830690891
 20
51.4151768712278
 30
0.0
 70
    32
  0
VERTEX
  5
91BF
  8
AM_0
 10
383.16292830690878
 20
51.412376871228219
 30
0.0
 70
    32
  0
VERTEX
  5
91C0
  8
AM_0
 10
383.16692830690869
 20
51.4096768712281
 30
0.0
 70
    32
  0
VERTEX
  5
91C1
  8
AM_0
 10
383.16992830690879
 20
51.406876871227979
 30
0.0
 70
    32
  0
VERTEX
  5
91C2
  8
AM_0
 10
383.17292830690877
 20
51.404176871227591
 30
0.0
 70
    32
  0
VERTEX
  5
91C3
  8
AM_0
 10
383.17692830690891
 20
51.401376871227903
 30
0.0
 70
    32
  0
VERTEX
  5
91C4
  8
AM_0
 10
383.17992830690878
 20
51.398676871227693
 30
0.0
 70
    32
  0
VERTEX
  5
91C5
  8
AM_0
 10
383.1839283069088
 20
51.395976871227781
 30
0.0
 70
    32
  0
VERTEX
  5
91C6
  8
AM_0
 10
383.18692830690873
 20
51.393276871227719
 30
0.0
 70
    32
  0
VERTEX
  5
91C7
  8
AM_0
 10
383.18992830690888
 20
51.390576871227921
 30
0.0
 70
    32
  0
VERTEX
  5
91C8
  8
AM_0
 10
383.19392830690879
 20
51.387876871227967
 30
0.0
 70
    32
  0
VERTEX
  5
91C9
  8
AM_0
 10
383.19692830690889
 20
51.385176871227898
 30
0.0
 70
    32
  0
VERTEX
  5
91CA
  8
AM_0
 10
383.20092830690879
 20
51.382576871227592
 30
0.0
 70
    32
  0
VERTEX
  5
91CB
  8
AM_0
 10
383.20392830690889
 20
51.379876871227701
 30
0.0
 70
    32
  0
VERTEX
  5
91CC
  8
AM_0
 10
383.2079283069088
 20
51.377176871227903
 30
0.0
 70
    32
  0
VERTEX
  5
91CD
  8
AM_0
 10
383.21092830690878
 20
51.374576871227987
 30
0.0
 70
    32
  0
VERTEX
  5
91CE
  8
AM_0
 10
383.21392830690871
 20
51.371976871227893
 30
0.0
 70
    32
  0
VERTEX
  5
91CF
  8
AM_0
 10
383.2179283069089
 20
51.369376871227772
 30
0.0
 70
    32
  0
VERTEX
  5
91D0
  8
AM_0
 10
383.22092830690877
 20
51.366676871227781
 30
0.0
 70
    32
  0
VERTEX
  5
91D1
  8
AM_0
 10
383.22492830690891
 20
51.364076871227809
 30
0.0
 70
    32
  0
VERTEX
  5
91D2
  8
AM_0
 10
383.22792830690878
 20
51.361476871227808
 30
0.0
 70
    32
  0
VERTEX
  5
91D3
  8
AM_0
 10
383.2319283069088
 20
51.358976871227782
 30
0.0
 70
    32
  0
VERTEX
  5
91D4
  8
AM_0
 10
383.2349283069089
 20
51.356376871227802
 30
0.0
 70
    32
  0
VERTEX
  5
91D5
  8
AM_0
 10
383.2389283069088
 20
51.353776871227971
 30
0.0
 70
    32
  0
VERTEX
  5
91D6
  8
AM_0
 10
383.24192830690868
 20
51.351276871227981
 30
0.0
 70
    32
  0
VERTEX
  5
91D7
  8
AM_0
 10
383.24592830690892
 20
51.34867687122798
 30
0.0
 70
    32
  0
VERTEX
  5
91D8
  8
AM_0
 10
383.24892830690879
 20
51.346176871227769
 30
0.0
 70
    32
  0
VERTEX
  5
91D9
  8
AM_0
 10
383.25292830690893
 20
51.343576871227981
 30
0.0
 70
    32
  0
VERTEX
  5
91DA
  8
AM_0
 10
383.2559283069088
 20
51.341076871227777
 30
0.0
 70
    32
  0
VERTEX
  5
91DB
  8
AM_0
 10
383.25992830690882
 20
51.338576871227978
 30
0.0
 70
    32
  0
VERTEX
  5
91DC
  8
AM_0
 10
383.26392830690889
 20
51.336076871227782
 30
0.0
 70
    32
  0
VERTEX
  5
91DD
  8
AM_0
 10
383.26692830690882
 20
51.333576871227791
 30
0.0
 70
    32
  0
VERTEX
  5
91DE
  8
AM_0
 10
383.2709283069089
 20
51.331076871227779
 30
0.0
 70
    32
  0
VERTEX
  5
91DF
  8
AM_0
 10
383.273928306909
 20
51.328576871227902
 30
0.0
 70
    32
  0
VERTEX
  5
91E0
  8
AM_0
 10
383.27792830690879
 20
51.326176871227702
 30
0.0
 70
    32
  0
VERTEX
  5
91E1
  8
AM_0
 10
383.28092830690872
 20
51.323676871227732
 30
0.0
 70
    32
  0
VERTEX
  5
91E2
  8
AM_0
 10
383.28492830690891
 20
51.32127687122798
 30
0.0
 70
    32
  0
VERTEX
  5
91E3
  8
AM_0
 10
383.28892830690882
 20
51.318776871227897
 30
0.0
 70
    32
  0
VERTEX
  5
91E4
  8
AM_0
 10
383.2919283069088
 20
51.316376871227988
 30
0.0
 70
    32
  0
VERTEX
  5
91E5
  8
AM_0
 10
383.29592830690882
 20
51.313976871227901
 30
0.0
 70
    32
  0
VERTEX
  5
91E6
  8
AM_0
 10
383.29892830690881
 20
51.311476871227988
 30
0.0
 70
    32
  0
VERTEX
  5
91E7
  8
AM_0
 10
383.30292830690888
 20
51.30907687122771
 30
0.0
 70
    32
  0
VERTEX
  5
91E8
  8
AM_0
 10
383.3069283069089
 20
51.306676871227921
 30
0.0
 70
    32
  0
VERTEX
  5
91E9
  8
AM_0
 10
383.30992830690877
 20
51.304276871227792
 30
0.0
 70
    32
  0
VERTEX
  5
91EA
  8
AM_0
 10
383.31392830690891
 20
51.301876871227591
 30
0.0
 70
    32
  0
VERTEX
  5
91EB
  8
AM_0
 10
383.3179283069087
 20
51.299576871227799
 30
0.0
 70
    32
  0
VERTEX
  5
91EC
  8
AM_0
 10
383.32092830690868
 20
51.297176871227983
 30
0.0
 70
    32
  0
VERTEX
  5
91ED
  8
AM_0
 10
383.32492830690882
 20
51.294776871227981
 30
0.0
 70
    32
  0
VERTEX
  5
91EE
  8
AM_0
 10
383.32892830690901
 20
51.292476871227699
 30
0.0
 70
    32
  0
VERTEX
  5
91EF
  8
AM_0
 10
383.33192830690888
 20
51.290076871227903
 30
0.0
 70
    32
  0
VERTEX
  5
91F0
  8
AM_0
 10
383.33592830690878
 20
51.28777687122799
 30
0.0
 70
    32
  0
VERTEX
  5
91F1
  8
AM_0
 10
383.33992830690892
 20
51.285476871227971
 30
0.0
 70
    32
  0
VERTEX
  5
91F2
  8
AM_0
 10
383.3429283069089
 20
51.28317687122798
 30
0.0
 70
    32
  0
VERTEX
  5
91F3
  8
AM_0
 10
383.34692830690881
 20
51.28087687122779
 30
0.0
 70
    32
  0
VERTEX
  5
91F4
  8
AM_0
 10
383.35092830690911
 20
51.27847687122761
 30
0.0
 70
    32
  0
VERTEX
  5
91F5
  8
AM_0
 10
383.35392830690881
 20
51.276276871227701
 30
0.0
 70
    32
  0
VERTEX
  5
91F6
  8
AM_0
 10
383.357928306909
 20
51.273976871227589
 30
0.0
 70
    32
  0
VERTEX
  5
91F7
  8
AM_0
 10
383.36192830690891
 20
51.271676871227783
 30
0.0
 70
    32
  0
VERTEX
  5
91F8
  8
AM_0
 10
383.36492830690878
 20
51.269376871227792
 30
0.0
 70
    32
  0
VERTEX
  5
91F9
  8
AM_0
 10
383.36892830690891
 20
51.2670768712278
 30
0.0
 70
    32
  0
VERTEX
  5
91FA
  8
AM_0
 10
383.37292830690882
 20
51.264876871227791
 30
0.0
 70
    32
  0
VERTEX
  5
91FB
  8
AM_0
 10
383.37692830690878
 20
51.262576871227779
 30
0.0
 70
    32
  0
VERTEX
  5
91FC
  8
AM_0
 10
383.37992830690888
 20
51.260376871227969
 30
0.0
 70
    32
  0
VERTEX
  5
91FD
  8
AM_0
 10
383.38392830690879
 20
51.258176871227782
 30
0.0
 70
    32
  0
VERTEX
  5
91FE
  8
AM_0
 10
383.3879283069088
 20
51.255876871227983
 30
0.0
 70
    32
  0
VERTEX
  5
91FF
  8
AM_0
 10
383.39092830690879
 20
51.253676871227782
 30
0.0
 70
    32
  0
VERTEX
  5
9200
  8
AM_0
 10
383.39492830690881
 20
51.251476871227801
 30
0.0
 70
    32
  0
VERTEX
  5
9201
  8
AM_0
 10
383.39892830690889
 20
51.2492768712276
 30
0.0
 70
    32
  0
VERTEX
  5
9202
  8
AM_0
 10
383.40292830690879
 20
51.247076871228103
 30
0.0
 70
    32
  0
VERTEX
  5
9203
  8
AM_0
 10
383.40592830690878
 20
51.244876871228072
 30
0.0
 70
    32
  0
VERTEX
  5
9204
  8
AM_0
 10
383.40992830690891
 20
51.242776871227889
 30
0.0
 70
    32
  0
VERTEX
  5
9205
  8
AM_0
 10
383.41392830690882
 20
51.240576871227923
 30
0.0
 70
    32
  0
VERTEX
  5
9206
  8
AM_0
 10
383.417928306909
 20
51.238376871227793
 30
0.0
 70
    32
  0
VERTEX
  5
9207
  8
AM_0
 10
383.4219283069088
 20
51.236276871227801
 30
0.0
 70
    32
  0
VERTEX
  5
9208
  8
AM_0
 10
383.42492830690901
 20
51.234076871228098
 30
0.0
 70
    32
  0
VERTEX
  5
9209
  8
AM_0
 10
383.42892830690892
 20
51.2319768712279
 30
0.0
 70
    32
  0
VERTEX
  5
920A
  8
AM_0
 10
383.43292830690882
 20
51.22977687122777
 30
0.0
 70
    32
  0
VERTEX
  5
920B
  8
AM_0
 10
383.43692830690873
 20
51.2276768712277
 30
0.0
 70
    32
  0
VERTEX
  5
920C
  8
AM_0
 10
383.43992830690888
 20
51.225576871227886
 30
0.0
 70
    32
  0
VERTEX
  5
920D
  8
AM_0
 10
383.44392830690867
 20
51.223476871227973
 30
0.0
 70
    32
  0
VERTEX
  5
920E
  8
AM_0
 10
383.44792830690892
 20
51.221376871227591
 30
0.0
 70
    32
  0
VERTEX
  5
920F
  8
AM_0
 10
383.45192830690883
 20
51.219276871227912
 30
0.0
 70
    32
  0
VERTEX
  5
9210
  8
AM_0
 10
383.45592830690902
 20
51.2171768712277
 30
0.0
 70
    32
  0
VERTEX
  5
9211
  8
AM_0
 10
383.45992830690881
 20
51.215076871227808
 30
0.0
 70
    32
  0
VERTEX
  5
9212
  8
AM_0
 10
383.46292830690891
 20
51.212976871227887
 30
0.0
 70
    32
  0
VERTEX
  5
9213
  8
AM_0
 10
383.46692830690893
 20
51.210976871227778
 30
0.0
 70
    32
  0
VERTEX
  5
9214
  8
AM_0
 10
383.47092830690877
 20
51.208876871228
 30
0.0
 70
    32
  0
VERTEX
  5
9215
  8
AM_0
 10
383.47492830690879
 20
51.206776871227781
 30
0.0
 70
    32
  0
VERTEX
  5
9216
  8
AM_0
 10
383.47892830690893
 20
51.204776871227971
 30
0.0
 70
    32
  0
VERTEX
  5
9217
  8
AM_0
 10
383.4819283069088
 20
51.202676871227887
 30
0.0
 70
    32
  0
VERTEX
  5
9218
  8
AM_0
 10
383.48592830690887
 20
51.200676871227977
 30
0.0
 70
    32
  0
VERTEX
  5
9219
  8
AM_0
 10
383.48992830690878
 20
51.198676871227903
 30
0.0
 70
    32
  0
VERTEX
  5
921A
  8
AM_0
 10
383.4939283069088
 20
51.196676871227773
 30
0.0
 70
    32
  0
VERTEX
  5
921B
  8
AM_0
 10
383.49792830690882
 20
51.194676871227777
 30
0.0
 70
    32
  0
VERTEX
  5
921C
  8
AM_0
 10
383.50192830690872
 20
51.19267687122796
 30
0.0
 70
    32
  0
VERTEX
  5
921D
  8
AM_0
 10
383.50592830690891
 20
51.1906768712279
 30
0.0
 70
    32
  0
VERTEX
  5
921E
  8
AM_0
 10
383.50892830690879
 20
51.188676871227983
 30
0.0
 70
    32
  0
VERTEX
  5
921F
  8
AM_0
 10
383.5129283069088
 20
51.186676871227803
 30
0.0
 70
    32
  0
VERTEX
  5
9220
  8
AM_0
 10
383.51692830690882
 20
51.1846768712279
 30
0.0
 70
    32
  0
VERTEX
  5
9221
  8
AM_0
 10
383.52092830690901
 20
51.182676871227891
 30
0.0
 70
    32
  0
VERTEX
  5
9222
  8
AM_0
 10
383.52492830690892
 20
51.180776871227813
 30
0.0
 70
    32
  0
VERTEX
  5
9223
  8
AM_0
 10
383.52892830690882
 20
51.178776871228102
 30
0.0
 70
    32
  0
VERTEX
  5
9224
  8
AM_0
 10
383.53292830690901
 20
51.176876871227712
 30
0.0
 70
    32
  0
VERTEX
  5
9225
  8
AM_0
 10
383.53692830690881
 20
51.17487687122798
 30
0.0
 70
    32
  0
VERTEX
  5
9226
  8
AM_0
 10
383.54092830690911
 20
51.172976871227966
 30
0.0
 70
    32
  0
VERTEX
  5
9227
  8
AM_0
 10
383.54392830690892
 20
51.171076871228003
 30
0.0
 70
    32
  0
VERTEX
  5
9228
  8
AM_0
 10
383.54792830690872
 20
51.169076871227901
 30
0.0
 70
    32
  0
VERTEX
  5
9229
  8
AM_0
 10
383.55192830690891
 20
51.16717687122798
 30
0.0
 70
    32
  0
VERTEX
  5
922A
  8
AM_0
 10
383.55592830690881
 20
51.165276871227917
 30
0.0
 70
    32
  0
VERTEX
  5
922B
  8
AM_0
 10
383.55992830690877
 20
51.163376871227896
 30
0.0
 70
    32
  0
VERTEX
  5
922C
  8
AM_0
 10
383.56392830690879
 20
51.16147687122799
 30
0.0
 70
    32
  0
VERTEX
  5
922D
  8
AM_0
 10
383.56792830690881
 20
51.159576871227777
 30
0.0
 70
    32
  0
VERTEX
  5
922E
  8
AM_0
 10
383.571928306909
 20
51.157776871227611
 30
0.0
 70
    32
  0
VERTEX
  5
922F
  8
AM_0
 10
383.57592830690879
 20
51.15587687122779
 30
0.0
 70
    32
  0
VERTEX
  5
9230
  8
AM_0
 10
383.5799283069087
 20
51.15397687122811
 30
0.0
 70
    32
  0
VERTEX
  5
9231
  8
AM_0
 10
383.58392830690889
 20
51.152176871227901
 30
0.0
 70
    32
  0
VERTEX
  5
9232
  8
AM_0
 10
383.58692830690882
 20
51.150276871227781
 30
0.0
 70
    32
  0
VERTEX
  5
9233
  8
AM_0
 10
383.59092830690889
 20
51.148476871227793
 30
0.0
 70
    32
  0
VERTEX
  5
9234
  8
AM_0
 10
383.5949283069088
 20
51.146576871227921
 30
0.0
 70
    32
  0
VERTEX
  5
9235
  8
AM_0
 10
383.59892830690887
 20
51.144776871227712
 30
0.0
 70
    32
  0
VERTEX
  5
9236
  8
AM_0
 10
383.60292830690878
 20
51.142976871227802
 30
0.0
 70
    32
  0
VERTEX
  5
9237
  8
AM_0
 10
383.60692830690869
 20
51.141076871227781
 30
0.0
 70
    32
  0
VERTEX
  5
9238
  8
AM_0
 10
383.61092830690882
 20
51.139276871227779
 30
0.0
 70
    32
  0
VERTEX
  5
9239
  8
AM_0
 10
383.61492830690878
 20
51.13747687122779
 30
0.0
 70
    32
  0
VERTEX
  5
923A
  8
AM_0
 10
383.61892830690891
 20
51.135676871227773
 30
0.0
 70
    32
  0
VERTEX
  5
923B
  8
AM_0
 10
383.62292830690888
 20
51.13387687122777
 30
0.0
 70
    32
  0
VERTEX
  5
923C
  8
AM_0
 10
383.62692830690872
 20
51.132076871227802
 30
0.0
 70
    32
  0
VERTEX
  5
923D
  8
AM_0
 10
383.63092830690891
 20
51.130376871227782
 30
0.0
 70
    32
  0
VERTEX
  5
923E
  8
AM_0
 10
383.63492830690882
 20
51.128576871227793
 30
0.0
 70
    32
  0
VERTEX
  5
923F
  8
AM_0
 10
383.63892830690889
 20
51.12677687122779
 30
0.0
 70
    32
  0
VERTEX
  5
9240
  8
AM_0
 10
383.6429283069088
 20
51.124976871227901
 30
0.0
 70
    32
  0
VERTEX
  5
9241
  8
AM_0
 10
383.64692830690871
 20
51.123276871227802
 30
0.0
 70
    32
  0
VERTEX
  5
9242
  8
AM_0
 10
383.6509283069089
 20
51.121476871227898
 30
0.0
 70
    32
  0
VERTEX
  5
9243
  8
AM_0
 10
383.65492830690903
 20
51.119776871227991
 30
0.0
 70
    32
  0
VERTEX
  5
9244
  8
AM_0
 10
383.65892830690888
 20
51.1180768712278
 30
0.0
 70
    32
  0
VERTEX
  5
9245
  8
AM_0
 10
383.66292830690878
 20
51.116276871227797
 30
0.0
 70
    32
  0
VERTEX
  5
9246
  8
AM_0
 10
383.66692830690869
 20
51.114576871227712
 30
0.0
 70
    32
  0
VERTEX
  5
9247
  8
AM_0
 10
383.67092830690882
 20
51.112876871227897
 30
0.0
 70
    32
  0
VERTEX
  5
9248
  8
AM_0
 10
383.67492830690901
 20
51.11117687122799
 30
0.0
 70
    32
  0
VERTEX
  5
9249
  8
AM_0
 10
383.67892830690892
 20
51.109476871227798
 30
0.0
 70
    32
  0
VERTEX
  5
924A
  8
AM_0
 10
383.68292830690882
 20
51.107776871227912
 30
0.0
 70
    32
  0
VERTEX
  5
924B
  8
AM_0
 10
383.68692830690873
 20
51.106076871227792
 30
0.0
 70
    32
  0
VERTEX
  5
924C
  8
AM_0
 10
383.6909283069088
 20
51.104376871228112
 30
0.0
 70
    32
  0
VERTEX
  5
924D
  8
AM_0
 10
383.69492830690888
 20
51.102676871227906
 30
0.0
 70
    32
  0
VERTEX
  5
924E
  8
AM_0
 10
383.6989283069089
 20
51.1009768712278
 30
0.0
 70
    32
  0
VERTEX
  5
924F
  8
AM_0
 10
383.70292830690869
 20
51.099276871228
 30
0.0
 70
    32
  0
VERTEX
  5
9250
  8
AM_0
 10
383.70692830690888
 20
51.097676871227968
 30
0.0
 70
    32
  0
VERTEX
  5
9251
  8
AM_0
 10
383.71092830690878
 20
51.095976871227791
 30
0.0
 70
    32
  0
VERTEX
  5
9252
  8
AM_0
 10
383.71492830690892
 20
51.094376871227809
 30
0.0
 70
    32
  0
VERTEX
  5
9253
  8
AM_0
 10
383.71892830690882
 20
51.092676871228093
 30
0.0
 70
    32
  0
VERTEX
  5
9254
  8
AM_0
 10
383.72292830690873
 20
51.091076871227777
 30
0.0
 70
    32
  0
VERTEX
  5
9255
  8
AM_0
 10
383.72692830690892
 20
51.089376871227792
 30
0.0
 70
    32
  0
VERTEX
  5
9256
  8
AM_0
 10
383.73092830690888
 20
51.087776871227888
 30
0.0
 70
    32
  0
VERTEX
  5
9257
  8
AM_0
 10
383.7349283069089
 20
51.086176871227913
 30
0.0
 70
    32
  0
VERTEX
  5
9258
  8
AM_0
 10
383.7389283069088
 20
51.084576871228293
 30
0.0
 70
    32
  0
VERTEX
  5
9259
  8
AM_0
 10
383.74292830690882
 20
51.082876871227782
 30
0.0
 70
    32
  0
VERTEX
  5
925A
  8
AM_0
 10
383.74692830690879
 20
51.081276871227701
 30
0.0
 70
    32
  0
VERTEX
  5
925B
  8
AM_0
 10
383.7509283069088
 20
51.079676871227981
 30
0.0
 70
    32
  0
VERTEX
  5
925C
  8
AM_0
 10
383.75492830690899
 20
51.078076871227971
 30
0.0
 70
    32
  0
VERTEX
  5
925D
  8
AM_0
 10
383.75892830690879
 20
51.076576871227893
 30
0.0
 70
    32
  0
VERTEX
  5
925E
  8
AM_0
 10
383.76292830690869
 20
51.07497687122779
 30
0.0
 70
    32
  0
VERTEX
  5
925F
  8
AM_0
 10
383.76692830690888
 20
51.0733768712279
 30
0.0
 70
    32
  0
VERTEX
  5
9260
  8
AM_0
 10
383.77092830690901
 20
51.071776871227989
 30
0.0
 70
    32
  0
VERTEX
  5
9261
  8
AM_0
 10
383.77492830690892
 20
51.070276871227911
 30
0.0
 70
    32
  0
VERTEX
  5
9262
  8
AM_0
 10
383.77892830690882
 20
51.068676871227979
 30
0.0
 70
    32
  0
VERTEX
  5
9263
  8
AM_0
 10
383.78392830690888
 20
51.06707687122789
 30
0.0
 70
    32
  0
VERTEX
  5
9264
  8
AM_0
 10
383.78792830690878
 20
51.065576871227599
 30
0.0
 70
    32
  0
VERTEX
  5
9265
  8
AM_0
 10
383.79192830690869
 20
51.064076871227712
 30
0.0
 70
    32
  0
VERTEX
  5
9266
  8
AM_0
 10
383.79592830690882
 20
51.062476871227801
 30
0.0
 70
    32
  0
VERTEX
  5
9267
  8
AM_0
 10
383.7999283069089
 20
51.060976871227808
 30
0.0
 70
    32
  0
VERTEX
  5
9268
  8
AM_0
 10
383.80392830690892
 20
51.059476871227893
 30
0.0
 70
    32
  0
VERTEX
  5
9269
  8
AM_0
 10
383.80792830690882
 20
51.057876871227897
 30
0.0
 70
    32
  0
VERTEX
  5
926A
  8
AM_0
 10
383.81192830690873
 20
51.056376871227791
 30
0.0
 70
    32
  0
VERTEX
  5
926B
  8
AM_0
 10
383.8159283069088
 20
51.054876871227961
 30
0.0
 70
    32
  0
VERTEX
  5
926C
  8
AM_0
 10
383.81992830690888
 20
51.053376871227769
 30
0.0
 70
    32
  0
VERTEX
  5
926D
  8
AM_0
 10
383.8239283069089
 20
51.05187687122779
 30
0.0
 70
    32
  0
VERTEX
  5
926E
  8
AM_0
 10
383.8279283069088
 20
51.050376871227982
 30
0.0
 70
    32
  0
VERTEX
  5
926F
  8
AM_0
 10
383.83192830690888
 20
51.048876871227719
 30
0.0
 70
    32
  0
VERTEX
  5
9270
  8
AM_0
 10
383.83592830690878
 20
51.047476871227772
 30
0.0
 70
    32
  0
VERTEX
  5
9271
  8
AM_0
 10
383.84092830690889
 20
51.04597687122812
 30
0.0
 70
    32
  0
VERTEX
  5
9272
  8
AM_0
 10
383.8449283069088
 20
51.044476871227801
 30
0.0
 70
    32
  0
VERTEX
  5
9273
  8
AM_0
 10
383.84892830690887
 20
51.042976871227921
 30
0.0
 70
    32
  0
VERTEX
  5
9274
  8
AM_0
 10
383.85292830690889
 20
51.041576871227782
 30
0.0
 70
    32
  0
VERTEX
  5
9275
  8
AM_0
 10
383.85692830690869
 20
51.040076871227981
 30
0.0
 70
    32
  0
VERTEX
  5
9276
  8
AM_0
 10
383.86092830690887
 20
51.03867687122797
 30
0.0
 70
    32
  0
VERTEX
  5
9277
  8
AM_0
 10
383.86492830690878
 20
51.037176871227771
 30
0.0
 70
    32
  0
VERTEX
  5
9278
  8
AM_0
 10
383.86892830690903
 20
51.035776871227782
 30
0.0
 70
    32
  0
VERTEX
  5
9279
  8
AM_0
 10
383.87292830690882
 20
51.034376871227913
 30
0.0
 70
    32
  0
VERTEX
  5
927A
  8
AM_0
 10
383.87692830690872
 20
51.032976871227781
 30
0.0
 70
    32
  0
VERTEX
  5
927B
  8
AM_0
 10
383.88192830690889
 20
51.031476871227987
 30
0.0
 70
    32
  0
VERTEX
  5
927C
  8
AM_0
 10
383.8859283069088
 20
51.030076871227791
 30
0.0
 70
    32
  0
VERTEX
  5
927D
  8
AM_0
 10
383.88992830690893
 20
51.028676871227887
 30
0.0
 70
    32
  0
VERTEX
  5
927E
  8
AM_0
 10
383.89392830690878
 20
51.027276871227713
 30
0.0
 70
    32
  0
VERTEX
  5
927F
  8
AM_0
 10
383.89792830690902
 20
51.025876871227979
 30
0.0
 70
    32
  0
VERTEX
  5
9280
  8
AM_0
 10
383.90192830690881
 20
51.02447687122779
 30
0.0
 70
    32
  0
VERTEX
  5
9281
  8
AM_0
 10
383.90592830690872
 20
51.023076871227701
 30
0.0
 70
    32
  0
VERTEX
  5
9282
  8
AM_0
 10
383.90992830690891
 20
51.021676871227783
 30
0.0
 70
    32
  0
VERTEX
  5
9283
  8
AM_0
 10
383.91392830690887
 20
51.020376871227903
 30
0.0
 70
    32
  0
VERTEX
  5
9284
  8
AM_0
 10
383.91892830690892
 20
51.018976871227807
 30
0.0
 70
    32
  0
VERTEX
  5
9285
  8
AM_0
 10
383.92292830690877
 20
51.017576871227888
 30
0.0
 70
    32
  0
VERTEX
  5
9286
  8
AM_0
 10
383.92692830690902
 20
51.01627687122793
 30
0.0
 70
    32
  0
VERTEX
  5
9287
  8
AM_0
 10
383.93092830690892
 20
51.014876871227891
 30
0.0
 70
    32
  0
VERTEX
  5
9288
  8
AM_0
 10
383.93492830690877
 20
51.013576871227798
 30
0.0
 70
    32
  0
VERTEX
  5
9289
  8
AM_0
 10
383.93892830690891
 20
51.012176871227922
 30
0.0
 70
    32
  0
VERTEX
  5
928A
  8
AM_0
 10
383.94292830690881
 20
51.0108768712279
 30
0.0
 70
    32
  0
VERTEX
  5
928B
  8
AM_0
 10
383.94792830690892
 20
51.009576871227971
 30
0.0
 70
    32
  0
VERTEX
  5
928C
  8
AM_0
 10
383.95192830690883
 20
51.008176871227782
 30
0.0
 70
    32
  0
VERTEX
  5
928D
  8
AM_0
 10
383.9559283069089
 20
51.006876871227789
 30
0.0
 70
    32
  0
VERTEX
  5
928E
  8
AM_0
 10
383.95992830690881
 20
51.005576871227618
 30
0.0
 70
    32
  0
VERTEX
  5
928F
  8
AM_0
 10
383.96392830690883
 20
51.004276871227972
 30
0.0
 70
    32
  0
VERTEX
  5
9290
  8
AM_0
 10
383.96792830690879
 20
51.002976871227979
 30
0.0
 70
    32
  0
VERTEX
  5
9291
  8
AM_0
 10
383.97192830690881
 20
51.0016768712279
 30
0.0
 70
    32
  0
VERTEX
  5
9292
  8
AM_0
 10
383.9769283069088
 20
51.000376871227779
 30
0.0
 70
    32
  0
VERTEX
  5
9293
  8
AM_0
 10
383.98092830690882
 20
50.999076871227899
 30
0.0
 70
    32
  0
VERTEX
  5
9294
  8
AM_0
 10
383.9849283069089
 20
50.997776871227892
 30
0.0
 70
    32
  0
VERTEX
  5
9295
  8
AM_0
 10
383.9889283069088
 20
50.996476871227799
 30
0.0
 70
    32
  0
VERTEX
  5
9296
  8
AM_0
 10
383.99292830690871
 20
50.99517687122777
 30
0.0
 70
    32
  0
VERTEX
  5
9297
  8
AM_0
 10
383.9969283069089
 20
50.993976871228
 30
0.0
 70
    32
  0
VERTEX
  5
9298
  8
AM_0
 10
384.0009283069088
 20
50.992676871227793
 30
0.0
 70
    32
  0
VERTEX
  5
9299
  8
AM_0
 10
384.00592830690891
 20
50.9913768712277
 30
0.0
 70
    32
  0
VERTEX
  5
929A
  8
AM_0
 10
384.00992830690882
 20
50.990176871227781
 30
0.0
 70
    32
  0
VERTEX
  5
929B
  8
AM_0
 10
384.01392830690889
 20
50.988876871227788
 30
0.0
 70
    32
  0
VERTEX
  5
929C
  8
AM_0
 10
384.0179283069088
 20
50.987676871227912
 30
0.0
 70
    32
  0
VERTEX
  5
929D
  8
AM_0
 10
384.02192830690871
 20
50.986376871227961
 30
0.0
 70
    32
  0
VERTEX
  5
929E
  8
AM_0
 10
384.0259283069089
 20
50.985176871227893
 30
0.0
 70
    32
  0
VERTEX
  5
929F
  8
AM_0
 10
384.03092830690878
 20
50.983976871227611
 30
0.0
 70
    32
  0
VERTEX
  5
92A0
  8
AM_0
 10
384.0349283069088
 20
50.98267687122771
 30
0.0
 70
    32
  0
VERTEX
  5
92A1
  8
AM_0
 10
384.03892830690882
 20
50.981476871227983
 30
0.0
 70
    32
  0
VERTEX
  5
92A2
  8
AM_0
 10
384.042928306909
 20
50.980276871228277
 30
0.0
 70
    32
  0
VERTEX
  5
92A3
  8
AM_0
 10
384.0469283069088
 20
50.979076871227889
 30
0.0
 70
    32
  0
VERTEX
  5
92A4
  8
AM_0
 10
384.0509283069087
 20
50.977876871227977
 30
0.0
 70
    32
  0
VERTEX
  5
92A5
  8
AM_0
 10
384.05592830690881
 20
50.976676871227987
 30
0.0
 70
    32
  0
VERTEX
  5
92A6
  8
AM_0
 10
384.05992830690872
 20
50.975476871227769
 30
0.0
 70
    32
  0
VERTEX
  5
92A7
  8
AM_0
 10
384.06392830690891
 20
50.974276871228
 30
0.0
 70
    32
  0
VERTEX
  5
92A8
  8
AM_0
 10
384.06792830690881
 20
50.973076871227889
 30
0.0
 70
    32
  0
VERTEX
  5
92A9
  8
AM_0
 10
384.07192830690889
 20
50.97187687122797
 30
0.0
 70
    32
  0
VERTEX
  5
92AA
  8
AM_0
 10
384.07692830690883
 20
50.9706768712281
 30
0.0
 70
    32
  0
VERTEX
  5
92AB
  8
AM_0
 10
384.08092830690902
 20
50.969576871227773
 30
0.0
 70
    32
  0
VERTEX
  5
92AC
  8
AM_0
 10
384.08492830690881
 20
50.96837687122796
 30
0.0
 70
    32
  0
VERTEX
  5
92AD
  8
AM_0
 10
384.08892830690871
 20
50.967176871228112
 30
0.0
 70
    32
  0
VERTEX
  5
92AE
  8
AM_0
 10
384.0929283069089
 20
50.966076871227891
 30
0.0
 70
    32
  0
VERTEX
  5
92AF
  8
AM_0
 10
384.09692830690869
 20
50.964876871228
 30
0.0
 70
    32
  0
VERTEX
  5
92B0
  8
AM_0
 10
384.10192830690892
 20
50.963776871227779
 30
0.0
 70
    32
  0
VERTEX
  5
92B1
  8
AM_0
 10
384.10592830690882
 20
50.962576871227981
 30
0.0
 70
    32
  0
VERTEX
  5
92B2
  8
AM_0
 10
384.1099283069089
 20
50.961476871227731
 30
0.0
 70
    32
  0
VERTEX
  5
92B3
  8
AM_0
 10
384.1139283069088
 20
50.960276871227791
 30
0.0
 70
    32
  0
VERTEX
  5
92B4
  8
AM_0
 10
384.11792830690882
 20
50.959176871227783
 30
0.0
 70
    32
  0
VERTEX
  5
92B5
  8
AM_0
 10
384.12292830690882
 20
50.958076871227973
 30
0.0
 70
    32
  0
VERTEX
  5
92B6
  8
AM_0
 10
384.12692830690872
 20
50.956976871227781
 30
0.0
 70
    32
  0
VERTEX
  5
92B7
  8
AM_0
 10
384.1309283069088
 20
50.955776871227769
 30
0.0
 70
    32
  0
VERTEX
  5
92B8
  8
AM_0
 10
384.13492830690882
 20
50.954676871227903
 30
0.0
 70
    32
  0
VERTEX
  5
92B9
  8
AM_0
 10
384.13892830690889
 20
50.953576871227988
 30
0.0
 70
    32
  0
VERTEX
  5
92BA
  8
AM_0
 10
384.14392830690878
 20
50.95247687122778
 30
0.0
 70
    32
  0
VERTEX
  5
92BB
  8
AM_0
 10
384.14792830690891
 20
50.951376871227808
 30
0.0
 70
    32
  0
VERTEX
  5
92BC
  8
AM_0
 10
384.15192830690893
 20
50.950276871227793
 30
0.0
 70
    32
  0
VERTEX
  5
92BD
  8
AM_0
 10
384.15592830690878
 20
50.949176871227792
 30
0.0
 70
    32
  0
VERTEX
  5
92BE
  8
AM_0
 10
384.16092830690889
 20
50.948176871227979
 30
0.0
 70
    32
  0
VERTEX
  5
92BF
  8
AM_0
 10
384.16492830690879
 20
50.947076871227978
 30
0.0
 70
    32
  0
VERTEX
  5
92C0
  8
AM_0
 10
384.16892830690892
 20
50.945976871227799
 30
0.0
 70
    32
  0
VERTEX
  5
92C1
  8
AM_0
 10
384.17292830690877
 20
50.944876871227599
 30
0.0
 70
    32
  0
VERTEX
  5
92C2
  8
AM_0
 10
384.17692830690879
 20
50.943876871227793
 30
0.0
 70
    32
  0
VERTEX
  5
92C3
  8
AM_0
 10
384.18192830690879
 20
50.94277687122797
 30
0.0
 70
    32
  0
VERTEX
  5
92C4
  8
AM_0
 10
384.18592830690892
 20
50.941776871227972
 30
0.0
 70
    32
  0
VERTEX
  5
92C5
  8
AM_0
 10
384.18992830690883
 20
50.9406768712279
 30
0.0
 70
    32
  0
VERTEX
  5
92C6
  8
AM_0
 10
384.19392830690879
 20
50.939676871227888
 30
0.0
 70
    32
  0
VERTEX
  5
92C7
  8
AM_0
 10
384.19792830690892
 20
50.93857687122798
 30
0.0
 70
    32
  0
VERTEX
  5
92C8
  8
AM_0
 10
384.2029283069088
 20
50.937576871227961
 30
0.0
 70
    32
  0
VERTEX
  5
92C9
  8
AM_0
 10
384.20692830690888
 20
50.936576871227992
 30
0.0
 70
    32
  0
VERTEX
  5
92CA
  8
AM_0
 10
384.21092830690878
 20
50.935476871227891
 30
0.0
 70
    32
  0
VERTEX
  5
92CB
  8
AM_0
 10
384.21492830690892
 20
50.93447687122778
 30
0.0
 70
    32
  0
VERTEX
  5
92CC
  8
AM_0
 10
384.2199283069088
 20
50.933476871227782
 30
0.0
 70
    32
  0
VERTEX
  5
92CD
  8
AM_0
 10
384.22392830690887
 20
50.932476871227969
 30
0.0
 70
    32
  0
VERTEX
  5
92CE
  8
AM_0
 10
384.22792830690889
 20
50.931476871228277
 30
0.0
 70
    32
  0
VERTEX
  5
92CF
  8
AM_0
 10
384.23192830690869
 20
50.93047687122759
 30
0.0
 70
    32
  0
VERTEX
  5
92D0
  8
AM_0
 10
384.23592830690887
 20
50.929476871227791
 30
0.0
 70
    32
  0
VERTEX
  5
92D1
  8
AM_0
 10
384.24092830690881
 20
50.92847687122778
 30
0.0
 70
    32
  0
VERTEX
  5
92D2
  8
AM_0
 10
384.24492830690889
 20
50.927476871227981
 30
0.0
 70
    32
  0
VERTEX
  5
92D3
  8
AM_0
 10
384.24892830690891
 20
50.92647687122799
 30
0.0
 70
    32
  0
VERTEX
  5
92D4
  8
AM_0
 10
384.25292830690893
 20
50.925576871227811
 30
0.0
 70
    32
  0
VERTEX
  5
92D5
  8
AM_0
 10
384.25792830690892
 20
50.9245768712277
 30
0.0
 70
    32
  0
VERTEX
  5
92D6
  8
AM_0
 10
384.26192830690889
 20
50.92357687122778
 30
0.0
 70
    32
  0
VERTEX
  5
92D7
  8
AM_0
 10
384.26592830690879
 20
50.922676871227779
 30
0.0
 70
    32
  0
VERTEX
  5
92D8
  8
AM_0
 10
384.26992830690881
 20
50.921676871227987
 30
0.0
 70
    32
  0
VERTEX
  5
92D9
  8
AM_0
 10
384.27492830690892
 20
50.920676871227982
 30
0.0
 70
    32
  0
VERTEX
  5
92DA
  8
AM_0
 10
384.27892830690882
 20
50.919776871227981
 30
0.0
 70
    32
  0
VERTEX
  5
92DB
  8
AM_0
 10
384.2829283069089
 20
50.9187768712276
 30
0.0
 70
    32
  0
VERTEX
  5
92DC
  8
AM_0
 10
384.28692830690881
 20
50.917876871227598
 30
0.0
 70
    32
  0
VERTEX
  5
92DD
  8
AM_0
 10
384.2919283069088
 20
50.91697687122771
 30
0.0
 70
    32
  0
VERTEX
  5
92DE
  8
AM_0
 10
384.29592830690882
 20
50.91597687122799
 30
0.0
 70
    32
  0
VERTEX
  5
92DF
  8
AM_0
 10
384.29992830690901
 20
50.915076871228102
 30
0.0
 70
    32
  0
VERTEX
  5
92E0
  8
AM_0
 10
384.30392830690892
 20
50.914176871227987
 30
0.0
 70
    32
  0
VERTEX
  5
92E1
  8
AM_0
 10
384.3089283069088
 20
50.913276871227772
 30
0.0
 70
    32
  0
VERTEX
  5
92E2
  8
AM_0
 10
384.31292830690887
 20
50.912376871227913
 30
0.0
 70
    32
  0
VERTEX
  5
92E3
  8
AM_0
 10
384.31692830690889
 20
50.911476871227983
 30
0.0
 70
    32
  0
VERTEX
  5
92E4
  8
AM_0
 10
384.3209283069088
 20
50.910576871227981
 30
0.0
 70
    32
  0
VERTEX
  5
92E5
  8
AM_0
 10
384.32592830690879
 20
50.90967687122798
 30
0.0
 70
    32
  0
VERTEX
  5
92E6
  8
AM_0
 10
384.3299283069087
 20
50.908776871227779
 30
0.0
 70
    32
  0
VERTEX
  5
92E7
  8
AM_0
 10
384.33392830690877
 20
50.907876871227771
 30
0.0
 70
    32
  0
VERTEX
  5
92E8
  8
AM_0
 10
384.33792830690902
 20
50.906976871227897
 30
0.0
 70
    32
  0
VERTEX
  5
92E9
  8
AM_0
 10
384.34292830690879
 20
50.906076871227981
 30
0.0
 70
    32
  0
VERTEX
  5
92EA
  8
AM_0
 10
384.34692830690869
 20
50.905176871227972
 30
0.0
 70
    32
  0
VERTEX
  5
92EB
  8
AM_0
 10
384.350928306909
 20
50.904376871227782
 30
0.0
 70
    32
  0
VERTEX
  5
92EC
  8
AM_0
 10
384.35492830690879
 20
50.90347687122798
 30
0.0
 70
    32
  0
VERTEX
  5
92ED
  8
AM_0
 10
384.3599283069089
 20
50.902576871227609
 30
0.0
 70
    32
  0
VERTEX
  5
92EE
  8
AM_0
 10
384.3639283069088
 20
50.90177687122798
 30
0.0
 70
    32
  0
VERTEX
  5
92EF
  8
AM_0
 10
384.36792830690871
 20
50.900876871227979
 30
0.0
 70
    32
  0
VERTEX
  5
92F0
  8
AM_0
 10
384.3719283069089
 20
50.900076871227981
 30
0.0
 70
    32
  0
VERTEX
  5
92F1
  8
AM_0
 10
384.37692830690872
 20
50.899176871227979
 30
0.0
 70
    32
  0
VERTEX
  5
92F2
  8
AM_0
 10
384.38092830690891
 20
50.898376871227782
 30
0.0
 70
    32
  0
VERTEX
  5
92F3
  8
AM_0
 10
384.38492830690882
 20
50.897476871227923
 30
0.0
 70
    32
  0
VERTEX
  5
92F4
  8
AM_0
 10
384.38892830690889
 20
50.896676871227783
 30
0.0
 70
    32
  0
VERTEX
  5
92F5
  8
AM_0
 10
384.39392830690878
 20
50.895876871227777
 30
0.0
 70
    32
  0
VERTEX
  5
92F6
  8
AM_0
 10
384.39792830690891
 20
50.8950768712279
 30
0.0
 70
    32
  0
VERTEX
  5
92F7
  8
AM_0
 10
384.40192830690893
 20
50.894176871227891
 30
0.0
 70
    32
  0
VERTEX
  5
92F8
  8
AM_0
 10
384.40692830690892
 20
50.89337687122778
 30
0.0
 70
    32
  0
VERTEX
  5
92F9
  8
AM_0
 10
384.41092830690889
 20
50.892576871227782
 30
0.0
 70
    32
  0
VERTEX
  5
92FA
  8
AM_0
 10
384.41492830690879
 20
50.891776871227897
 30
0.0
 70
    32
  0
VERTEX
  5
92FB
  8
AM_0
 10
384.41892830690892
 20
50.890976871227991
 30
0.0
 70
    32
  0
VERTEX
  5
92FC
  8
AM_0
 10
384.42392830690881
 20
50.890176871227887
 30
0.0
 70
    32
  0
VERTEX
  5
92FD
  8
AM_0
 10
384.42792830690888
 20
50.889376871227711
 30
0.0
 70
    32
  0
VERTEX
  5
92FE
  8
AM_0
 10
384.43192830690879
 20
50.888576871227897
 30
0.0
 70
    32
  0
VERTEX
  5
92FF
  8
AM_0
 10
384.43592830690892
 20
50.8877768712278
 30
0.0
 70
    32
  0
VERTEX
  5
9300
  8
AM_0
 10
384.4409283069088
 20
50.886976871227972
 30
0.0
 70
    32
  0
VERTEX
  5
9301
  8
AM_0
 10
384.44492830690888
 20
50.8862768712278
 30
0.0
 70
    32
  0
VERTEX
  5
9302
  8
AM_0
 10
384.44892830690878
 20
50.885476871227972
 30
0.0
 70
    32
  0
VERTEX
  5
9303
  8
AM_0
 10
384.45392830690901
 20
50.884676871227981
 30
0.0
 70
    32
  0
VERTEX
  5
9304
  8
AM_0
 10
384.45792830690891
 20
50.883876871227983
 30
0.0
 70
    32
  0
VERTEX
  5
9305
  8
AM_0
 10
384.46192830690882
 20
50.883176871227782
 30
0.0
 70
    32
  0
VERTEX
  5
9306
  8
AM_0
 10
384.46592830690889
 20
50.882376871227791
 30
0.0
 70
    32
  0
VERTEX
  5
9307
  8
AM_0
 10
384.47092830690877
 20
50.881676871227711
 30
0.0
 70
    32
  0
VERTEX
  5
9308
  8
AM_0
 10
384.47492830690902
 20
50.880876871227791
 30
0.0
 70
    32
  0
VERTEX
  5
9309
  8
AM_0
 10
384.47892830690881
 20
50.88017687122796
 30
0.0
 70
    32
  0
VERTEX
  5
930A
  8
AM_0
 10
384.48392830690869
 20
50.879376871227919
 30
0.0
 70
    32
  0
VERTEX
  5
930B
  8
AM_0
 10
384.48792830690883
 20
50.878676871227782
 30
0.0
 70
    32
  0
VERTEX
  5
930C
  8
AM_0
 10
384.49192830690879
 20
50.877976871227972
 30
0.0
 70
    32
  0
VERTEX
  5
930D
  8
AM_0
 10
384.49592830690892
 20
50.877176871227782
 30
0.0
 70
    32
  0
VERTEX
  5
930E
  8
AM_0
 10
384.5009283069088
 20
50.876476871227901
 30
0.0
 70
    32
  0
VERTEX
  5
930F
  8
AM_0
 10
384.50492830690888
 20
50.875776871227799
 30
0.0
 70
    32
  0
VERTEX
  5
9310
  8
AM_0
 10
384.50892830690879
 20
50.875076871227719
 30
0.0
 70
    32
  0
VERTEX
  5
9311
  8
AM_0
 10
384.51392830690889
 20
50.87427687122792
 30
0.0
 70
    32
  0
VERTEX
  5
9312
  8
AM_0
 10
384.5179283069088
 20
50.87357687122779
 30
0.0
 70
    32
  0
VERTEX
  5
9313
  8
AM_0
 10
384.52192830690871
 20
50.872876871227888
 30
0.0
 70
    32
  0
VERTEX
  5
9314
  8
AM_0
 10
384.52592830690878
 20
50.872176871227779
 30
0.0
 70
    32
  0
VERTEX
  5
9315
  8
AM_0
 10
384.53092830690878
 20
50.871476871227792
 30
0.0
 70
    32
  0
VERTEX
  5
9316
  8
AM_0
 10
384.53492830690891
 20
50.870776871227932
 30
0.0
 70
    32
  0
VERTEX
  5
9317
  8
AM_0
 10
384.53892830690887
 20
50.870076871227809
 30
0.0
 70
    32
  0
VERTEX
  5
9318
  8
AM_0
 10
384.54392830690892
 20
50.869476871227903
 30
0.0
 70
    32
  0
VERTEX
  5
9319
  8
AM_0
 10
384.54792830690877
 20
50.86877687122778
 30
0.0
 70
    32
  0
VERTEX
  5
931A
  8
AM_0
 10
384.55192830690902
 20
50.868076871228112
 30
0.0
 70
    32
  0
VERTEX
  5
931B
  8
AM_0
 10
384.55592830690892
 20
50.867376871227982
 30
0.0
 70
    32
  0
VERTEX
  5
931C
  8
AM_0
 10
384.56092830690892
 20
50.866676871227916
 30
0.0
 70
    32
  0
VERTEX
  5
931D
  8
AM_0
 10
384.56492830690883
 20
50.866076871227598
 30
0.0
 70
    32
  0
VERTEX
  5
931E
  8
AM_0
 10
384.56892830690867
 20
50.865376871227902
 30
0.0
 70
    32
  0
VERTEX
  5
931F
  8
AM_0
 10
384.5739283069089
 20
50.864776871227981
 30
0.0
 70
    32
  0
VERTEX
  5
9320
  8
AM_0
 10
384.5779283069088
 20
50.864076871227979
 30
0.0
 70
    32
  0
VERTEX
  5
9321
  8
AM_0
 10
384.58192830690888
 20
50.863376871227779
 30
0.0
 70
    32
  0
VERTEX
  5
9322
  8
AM_0
 10
384.58592830690878
 20
50.86277687122778
 30
0.0
 70
    32
  0
VERTEX
  5
9323
  8
AM_0
 10
384.59092830690889
 20
50.862176871227902
 30
0.0
 70
    32
  0
VERTEX
  5
9324
  8
AM_0
 10
384.5949283069088
 20
50.861476871227808
 30
0.0
 70
    32
  0
VERTEX
  5
9325
  8
AM_0
 10
384.59892830690887
 20
50.860876871227887
 30
0.0
 70
    32
  0
VERTEX
  5
9326
  8
AM_0
 10
384.60392830690881
 20
50.8601768712278
 30
0.0
 70
    32
  0
VERTEX
  5
9327
  8
AM_0
 10
384.60792830690889
 20
50.859576871227802
 30
0.0
 70
    32
  0
VERTEX
  5
9328
  8
AM_0
 10
384.61192830690879
 20
50.858976871227782
 30
0.0
 70
    32
  0
VERTEX
  5
9329
  8
AM_0
 10
384.61692830690868
 20
50.858376871227897
 30
0.0
 70
    32
  0
VERTEX
  5
932A
  8
AM_0
 10
384.62092830690892
 20
50.857776871227898
 30
0.0
 70
    32
  0
VERTEX
  5
932B
  8
AM_0
 10
384.62492830690883
 20
50.857076871227967
 30
0.0
 70
    32
  0
VERTEX
  5
932C
  8
AM_0
 10
384.62992830690888
 20
50.856476871227777
 30
0.0
 70
    32
  0
VERTEX
  5
932D
  8
AM_0
 10
384.63392830690879
 20
50.855876871227892
 30
0.0
 70
    32
  0
VERTEX
  5
932E
  8
AM_0
 10
384.63792830690869
 20
50.855276871228
 30
0.0
 70
    32
  0
VERTEX
  5
932F
  8
AM_0
 10
384.64192830690888
 20
50.85467687122798
 30
0.0
 70
    32
  0
VERTEX
  5
9330
  8
AM_0
 10
384.64692830690871
 20
50.854076871228102
 30
0.0
 70
    32
  0
VERTEX
  5
9331
  8
AM_0
 10
384.6509283069089
 20
50.853476871228111
 30
0.0
 70
    32
  0
VERTEX
  5
9332
  8
AM_0
 10
384.65492830690903
 20
50.852876871227807
 30
0.0
 70
    32
  0
VERTEX
  5
9333
  8
AM_0
 10
384.65992830690891
 20
50.85237687122779
 30
0.0
 70
    32
  0
VERTEX
  5
9334
  8
AM_0
 10
384.66392830690882
 20
50.851776871227791
 30
0.0
 70
    32
  0
VERTEX
  5
9335
  8
AM_0
 10
384.667928306909
 20
50.851176871227977
 30
0.0
 70
    32
  0
VERTEX
  5
9336
  8
AM_0
 10
384.67292830690877
 20
50.85057687122778
 30
0.0
 70
    32
  0
VERTEX
  5
9337
  8
AM_0
 10
384.67692830690902
 20
50.850076871227898
 30
0.0
 70
    32
  0
VERTEX
  5
9338
  8
AM_0
 10
384.68092830690881
 20
50.849476871227921
 30
0.0
 70
    32
  0
VERTEX
  5
9339
  8
AM_0
 10
384.68492830690872
 20
50.84887687122778
 30
0.0
 70
    32
  0
VERTEX
  5
933A
  8
AM_0
 10
384.68992830690888
 20
50.848376871227799
 30
0.0
 70
    32
  0
VERTEX
  5
933B
  8
AM_0
 10
384.69392830690879
 20
50.847776871227978
 30
0.0
 70
    32
  0
VERTEX
  5
933C
  8
AM_0
 10
384.69792830690892
 20
50.847276871227791
 30
0.0
 70
    32
  0
VERTEX
  5
933D
  8
AM_0
 10
384.7029283069088
 20
50.846676871227999
 30
0.0
 70
    32
  0
VERTEX
  5
933E
  8
AM_0
 10
384.70692830690888
 20
50.846176871227719
 30
0.0
 70
    32
  0
VERTEX
  5
933F
  8
AM_0
 10
384.71092830690878
 20
50.845676871227901
 30
0.0
 70
    32
  0
VERTEX
  5
9340
  8
AM_0
 10
384.71592830690889
 20
50.845076871227981
 30
0.0
 70
    32
  0
VERTEX
  5
9341
  8
AM_0
 10
384.7199283069088
 20
50.84457687122778
 30
0.0
 70
    32
  0
VERTEX
  5
9342
  8
AM_0
 10
384.72392830690899
 20
50.844076871227912
 30
0.0
 70
    32
  0
VERTEX
  5
9343
  8
AM_0
 10
384.72892830690893
 20
50.843476871227608
 30
0.0
 70
    32
  0
VERTEX
  5
9344
  8
AM_0
 10
384.732928306909
 20
50.842976871227791
 30
0.0
 70
    32
  0
VERTEX
  5
9345
  8
AM_0
 10
384.73692830690891
 20
50.842476871227902
 30
0.0
 70
    32
  0
VERTEX
  5
9346
  8
AM_0
 10
384.74192830690879
 20
50.841976871227992
 30
0.0
 70
    32
  0
VERTEX
  5
9347
  8
AM_0
 10
384.74592830690892
 20
50.841476871227897
 30
0.0
 70
    32
  0
VERTEX
  5
9348
  8
AM_0
 10
384.74992830690883
 20
50.84097687122798
 30
0.0
 70
    32
  0
VERTEX
  5
9349
  8
AM_0
 10
384.75492830690888
 20
50.840476871227793
 30
0.0
 70
    32
  0
VERTEX
  5
934A
  8
AM_0
 10
384.75892830690879
 20
50.839976871227918
 30
0.0
 70
    32
  0
VERTEX
  5
934B
  8
AM_0
 10
384.7629283069088
 20
50.839476871227781
 30
0.0
 70
    32
  0
VERTEX
  5
934C
  8
AM_0
 10
384.76692830690882
 20
50.838976871227601
 30
0.0
 70
    32
  0
VERTEX
  5
934D
  8
AM_0
 10
384.77192830690871
 20
50.838476871227769
 30
0.0
 70
    32
  0
VERTEX
  5
934E
  8
AM_0
 10
384.77592830690878
 20
50.838076871227599
 30
0.0
 70
    32
  0
VERTEX
  5
934F
  8
AM_0
 10
384.77992830690903
 20
50.837576871227782
 30
0.0
 70
    32
  0
VERTEX
  5
9350
  8
AM_0
 10
384.78492830690891
 20
50.8370768712279
 30
0.0
 70
    32
  0
VERTEX
  5
9351
  8
AM_0
 10
384.78892830690882
 20
50.836676871227809
 30
0.0
 70
    32
  0
VERTEX
  5
9352
  8
AM_0
 10
384.792928306909
 20
50.836176871227792
 30
0.0
 70
    32
  0
VERTEX
  5
9353
  8
AM_0
 10
384.79792830690877
 20
50.835676871227982
 30
0.0
 70
    32
  0
VERTEX
  5
9354
  8
AM_0
 10
384.80192830690879
 20
50.835276871227791
 30
0.0
 70
    32
  0
VERTEX
  5
9355
  8
AM_0
 10
384.80592830690892
 20
50.83487687122792
 30
0.0
 70
    32
  0
VERTEX
  5
9356
  8
AM_0
 10
384.81092830690892
 20
50.834376871227782
 30
0.0
 70
    32
  0
VERTEX
  5
9357
  8
AM_0
 10
384.81492830690883
 20
50.833976871227968
 30
0.0
 70
    32
  0
VERTEX
  5
9358
  8
AM_0
 10
384.81892830690879
 20
50.833476871227781
 30
0.0
 70
    32
  0
VERTEX
  5
9359
  8
AM_0
 10
384.8239283069089
 20
50.833076871227789
 30
0.0
 70
    32
  0
VERTEX
  5
935A
  8
AM_0
 10
384.82792830690869
 20
50.832676871227591
 30
0.0
 70
    32
  0
VERTEX
  5
935B
  8
AM_0
 10
384.83192830690888
 20
50.832276871227791
 30
0.0
 70
    32
  0
VERTEX
  5
935C
  8
AM_0
 10
384.83692830690882
 20
50.831776871227618
 30
0.0
 70
    32
  0
VERTEX
  5
935D
  8
AM_0
 10
384.84092830690889
 20
50.831376871227931
 30
0.0
 70
    32
  0
VERTEX
  5
935E
  8
AM_0
 10
384.8449283069088
 20
50.830976871227911
 30
0.0
 70
    32
  0
VERTEX
  5
935F
  8
AM_0
 10
384.84992830690902
 20
50.830576871227812
 30
0.0
 70
    32
  0
VERTEX
  5
9360
  8
AM_0
 10
384.85392830690881
 20
50.830176871227991
 30
0.0
 70
    32
  0
VERTEX
  5
9361
  8
AM_0
 10
384.85792830690889
 20
50.829776871227921
 30
0.0
 70
    32
  0
VERTEX
  5
9362
  8
AM_0
 10
384.86292830690883
 20
50.8293768712279
 30
0.0
 70
    32
  0
VERTEX
  5
9363
  8
AM_0
 10
384.86692830690868
 20
50.82907687122777
 30
0.0
 70
    32
  0
VERTEX
  5
9364
  8
AM_0
 10
384.87092830690892
 20
50.828676871227707
 30
0.0
 70
    32
  0
VERTEX
  5
9365
  8
AM_0
 10
384.87592830690869
 20
50.82827687122797
 30
0.0
 70
    32
  0
VERTEX
  5
9366
  8
AM_0
 10
384.87992830690888
 20
50.827876871227922
 30
0.0
 70
    32
  0
VERTEX
  5
9367
  8
AM_0
 10
384.88392830690879
 20
50.82757687122789
 30
0.0
 70
    32
  0
VERTEX
  5
9368
  8
AM_0
 10
384.88892830690889
 20
50.827176871227977
 30
0.0
 70
    32
  0
VERTEX
  5
9369
  8
AM_0
 10
384.8929283069088
 20
50.8267768712277
 30
0.0
 70
    32
  0
VERTEX
  5
936A
  8
AM_0
 10
384.89692830690871
 20
50.826476871227896
 30
0.0
 70
    32
  0
VERTEX
  5
936B
  8
AM_0
 10
384.90192830690881
 20
50.826076871227798
 30
0.0
 70
    32
  0
VERTEX
  5
936C
  8
AM_0
 10
384.90592830690878
 20
50.825776871228101
 30
0.0
 70
    32
  0
VERTEX
  5
936D
  8
AM_0
 10
384.9099283069088
 20
50.825476871227792
 30
0.0
 70
    32
  0
VERTEX
  5
936E
  8
AM_0
 10
384.91492830690879
 20
50.825076871227701
 30
0.0
 70
    32
  0
VERTEX
  5
936F
  8
AM_0
 10
384.91892830690892
 20
50.824776871227982
 30
0.0
 70
    32
  0
VERTEX
  5
9370
  8
AM_0
 10
384.92292830690877
 20
50.824476871227972
 30
0.0
 70
    32
  0
VERTEX
  5
9371
  8
AM_0
 10
384.927928306909
 20
50.824176871227699
 30
0.0
 70
    32
  0
VERTEX
  5
9372
  8
AM_0
 10
384.93192830690879
 20
50.823776871227921
 30
0.0
 70
    32
  0
VERTEX
  5
9373
  8
AM_0
 10
384.93592830690892
 20
50.823476871227989
 30
0.0
 70
    32
  0
VERTEX
  5
9374
  8
AM_0
 10
384.9409283069088
 20
50.823176871227773
 30
0.0
 70
    32
  0
VERTEX
  5
9375
  8
AM_0
 10
384.94492830690888
 20
50.822876871227962
 30
0.0
 70
    32
  0
VERTEX
  5
9376
  8
AM_0
 10
384.9489283069089
 20
50.82257687122798
 30
0.0
 70
    32
  0
VERTEX
  5
9377
  8
AM_0
 10
384.95392830690889
 20
50.822276871227771
 30
0.0
 70
    32
  0
VERTEX
  5
9378
  8
AM_0
 10
384.9579283069088
 20
50.82197687122796
 30
0.0
 70
    32
  0
VERTEX
  5
9379
  8
AM_0
 10
384.96192830690882
 20
50.821676871228107
 30
0.0
 70
    32
  0
VERTEX
  5
937A
  8
AM_0
 10
384.96692830690881
 20
50.82137687122777
 30
0.0
 70
    32
  0
VERTEX
  5
937B
  8
AM_0
 10
384.97092830690877
 20
50.821176871227969
 30
0.0
 70
    32
  0
VERTEX
  5
937C
  8
AM_0
 10
384.97492830690902
 20
50.820876871227902
 30
0.0
 70
    32
  0
VERTEX
  5
937D
  8
AM_0
 10
384.97992830690879
 20
50.820576871227779
 30
0.0
 70
    32
  0
VERTEX
  5
937E
  8
AM_0
 10
384.98392830690869
 20
50.820276871227961
 30
0.0
 70
    32
  0
VERTEX
  5
937F
  8
AM_0
 10
384.98792830690888
 20
50.820076871227712
 30
0.0
 70
    32
  0
VERTEX
  5
9380
  8
AM_0
 10
384.99292830690871
 20
50.819776871227781
 30
0.0
 70
    32
  0
VERTEX
  5
9381
  8
AM_0
 10
384.9969283069089
 20
50.819576871227802
 30
0.0
 70
    32
  0
VERTEX
  5
9382
  8
AM_0
 10
385.0009283069088
 20
50.819276871227899
 30
0.0
 70
    32
  0
VERTEX
  5
9383
  8
AM_0
 10
385.0059283069088
 20
50.819076871227992
 30
0.0
 70
    32
  0
VERTEX
  5
9384
  8
AM_0
 10
385.00992830690882
 20
50.818776871227769
 30
0.0
 70
    32
  0
VERTEX
  5
9385
  8
AM_0
 10
385.01392830690889
 20
50.818576871227982
 30
0.0
 70
    32
  0
VERTEX
  5
9386
  8
AM_0
 10
385.01892830690878
 20
50.818276871227603
 30
0.0
 70
    32
  0
VERTEX
  5
9387
  8
AM_0
 10
385.02292830690902
 20
50.818076871227987
 30
0.0
 70
    32
  0
VERTEX
  5
9388
  8
AM_0
 10
385.02692830690893
 20
50.817876871227782
 30
0.0
 70
    32
  0
VERTEX
  5
9389
  8
AM_0
 10
385.03192830690892
 20
50.817676871227903
 30
0.0
 70
    32
  0
VERTEX
  5
938A
  8
AM_0
 10
385.03592830690889
 20
50.817376871227601
 30
0.0
 70
    32
  0
VERTEX
  5
938B
  8
AM_0
 10
385.03992830690879
 20
50.817176871227979
 30
0.0
 70
    32
  0
VERTEX
  5
938C
  8
AM_0
 10
385.0449283069089
 20
50.816976871227808
 30
0.0
 70
    32
  0
VERTEX
  5
938D
  8
AM_0
 10
385.04892830690881
 20
50.816776871227901
 30
0.0
 70
    32
  0
VERTEX
  5
938E
  8
AM_0
 10
385.05292830690888
 20
50.816576871228101
 30
0.0
 70
    32
  0
VERTEX
  5
938F
  8
AM_0
 10
385.05792830690882
 20
50.816376871227781
 30
0.0
 70
    32
  0
VERTEX
  5
9390
  8
AM_0
 10
385.06192830690873
 20
50.816176871227782
 30
0.0
 70
    32
  0
VERTEX
  5
9391
  8
AM_0
 10
385.0659283069088
 20
50.815976871227733
 30
0.0
 70
    32
  0
VERTEX
  5
9392
  8
AM_0
 10
385.07092830690868
 20
50.815776871227982
 30
0.0
 70
    32
  0
VERTEX
  5
9393
  8
AM_0
 10
385.07492830690882
 20
50.815576871227599
 30
0.0
 70
    32
  0
VERTEX
  5
9394
  8
AM_0
 10
385.07892830690901
 20
50.81537687122789
 30
0.0
 70
    32
  0
VERTEX
  5
9395
  8
AM_0
 10
385.08392830690889
 20
50.815176871227919
 30
0.0
 70
    32
  0
VERTEX
  5
9396
  8
AM_0
 10
385.08792830690902
 20
50.814976871228112
 30
0.0
 70
    32
  0
VERTEX
  5
9397
  8
AM_0
 10
385.09192830690893
 20
50.81487687122798
 30
0.0
 70
    32
  0
VERTEX
  5
9398
  8
AM_0
 10
385.09692830690881
 20
50.814676871227782
 30
0.0
 70
    32
  0
VERTEX
  5
9399
  8
AM_0
 10
385.10092830690888
 20
50.814476871227889
 30
0.0
 70
    32
  0
VERTEX
  5
939A
  8
AM_0
 10
385.10592830690882
 20
50.814376871227807
 30
0.0
 70
    32
  0
VERTEX
  5
939B
  8
AM_0
 10
385.1099283069089
 20
50.814176871227801
 30
0.0
 70
    32
  0
VERTEX
  5
939C
  8
AM_0
 10
385.1139283069088
 20
50.813976871227979
 30
0.0
 70
    32
  0
VERTEX
  5
939D
  8
AM_0
 10
385.11892830690891
 20
50.81387687122789
 30
0.0
 70
    32
  0
VERTEX
  5
939E
  8
AM_0
 10
385.12292830690882
 20
50.813676871227983
 30
0.0
 70
    32
  0
VERTEX
  5
939F
  8
AM_0
 10
385.12692830690878
 20
50.81357687122798
 30
0.0
 70
    32
  0
VERTEX
  5
93A0
  8
AM_0
 10
385.13192830690878
 20
50.813376871227788
 30
0.0
 70
    32
  0
VERTEX
  5
93A1
  8
AM_0
 10
385.1359283069088
 20
50.813276871227899
 30
0.0
 70
    32
  0
VERTEX
  5
93A2
  8
AM_0
 10
385.13992830690893
 20
50.813176871227903
 30
0.0
 70
    32
  0
VERTEX
  5
93A3
  8
AM_0
 10
385.14492830690881
 20
50.812976871227889
 30
0.0
 70
    32
  0
VERTEX
  5
93A4
  8
AM_0
 10
385.14892830690889
 20
50.812876871227772
 30
0.0
 70
    32
  0
VERTEX
  5
93A5
  8
AM_0
 10
385.15292830690879
 20
50.812776871227889
 30
0.0
 70
    32
  0
VERTEX
  5
93A6
  8
AM_0
 10
385.1579283069089
 20
50.812676871227978
 30
0.0
 70
    32
  0
VERTEX
  5
93A7
  8
AM_0
 10
385.16192830690881
 20
50.81257687122779
 30
0.0
 70
    32
  0
VERTEX
  5
93A8
  8
AM_0
 10
385.16592830690911
 20
50.812476871227723
 30
0.0
 70
    32
  0
VERTEX
  5
93A9
  8
AM_0
 10
385.17092830690882
 20
50.812276871227887
 30
0.0
 70
    32
  0
VERTEX
  5
93AA
  8
AM_0
 10
385.17492830690901
 20
50.81217687122799
 30
0.0
 70
    32
  0
VERTEX
  5
93AB
  8
AM_0
 10
385.17892830690892
 20
50.81207687122798
 30
0.0
 70
    32
  0
VERTEX
  5
93AC
  8
AM_0
 10
385.1839283069088
 20
50.81197687122777
 30
0.0
 70
    32
  0
VERTEX
  5
93AD
  8
AM_0
 10
385.18792830690887
 20
50.81197687122777
 30
0.0
 70
    32
  0
VERTEX
  5
93AE
  8
AM_0
 10
385.19192830690878
 20
50.81187687122781
 30
0.0
 70
    32
  0
VERTEX
  5
93AF
  8
AM_0
 10
385.196928306909
 20
50.811776871227977
 30
0.0
 70
    32
  0
VERTEX
  5
93B0
  8
AM_0
 10
385.20092830690879
 20
50.811676871227931
 30
0.0
 70
    32
  0
VERTEX
  5
93B1
  8
AM_0
 10
385.20492830690881
 20
50.8115768712278
 30
0.0
 70
    32
  0
VERTEX
  5
93B2
  8
AM_0
 10
385.20992830690881
 20
50.8115768712278
 30
0.0
 70
    32
  0
VERTEX
  5
93B3
  8
AM_0
 10
385.21392830690883
 20
50.811476871227711
 30
0.0
 70
    32
  0
VERTEX
  5
93B4
  8
AM_0
 10
385.2179283069089
 20
50.811376871227893
 30
0.0
 70
    32
  0
VERTEX
  5
93B5
  8
AM_0
 10
385.22292830690878
 20
50.811376871227893
 30
0.0
 70
    32
  0
VERTEX
  5
93B6
  8
AM_0
 10
385.22692830690892
 20
50.811276871227989
 30
0.0
 70
    32
  0
VERTEX
  5
93B7
  8
AM_0
 10
385.2319283069088
 20
50.811176871227978
 30
0.0
 70
    32
  0
VERTEX
  5
93B8
  8
AM_0
 10
385.23592830690887
 20
50.811176871227978
 30
0.0
 70
    32
  0
VERTEX
  5
93B9
  8
AM_0
 10
385.23992830690878
 20
50.811076871227598
 30
0.0
 70
    32
  0
VERTEX
  5
93BA
  8
AM_0
 10
385.24492830690889
 20
50.811076871227598
 30
0.0
 70
    32
  0
VERTEX
  5
93BB
  8
AM_0
 10
385.24892830690879
 20
50.810976871227808
 30
0.0
 70
    32
  0
VERTEX
  5
93BC
  8
AM_0
 10
385.25292830690893
 20
50.810976871227808
 30
0.0
 70
    32
  0
VERTEX
  5
93BD
  8
AM_0
 10
385.25792830690881
 20
50.810876871227968
 30
0.0
 70
    32
  0
VERTEX
  5
93BE
  8
AM_0
 10
385.261928306909
 20
50.810876871227968
 30
0.0
 70
    32
  0
VERTEX
  5
93BF
  8
AM_0
 10
385.2659283069089
 20
50.810776871227972
 30
0.0
 70
    32
  0
VERTEX
  5
93C0
  8
AM_0
 10
385.2709283069089
 20
50.810776871227972
 30
0.0
 70
    32
  0
VERTEX
  5
93C1
  8
AM_0
 10
385.27492830690892
 20
50.810776871227972
 30
0.0
 70
    32
  0
VERTEX
  5
93C2
  8
AM_0
 10
385.27892830690882
 20
50.810676871227798
 30
0.0
 70
    32
  0
VERTEX
  5
93C3
  8
AM_0
 10
385.28392830690888
 20
50.810676871227798
 30
0.0
 70
    32
  0
VERTEX
  5
93C4
  8
AM_0
 10
385.28792830690878
 20
50.81057687122771
 30
0.0
 70
    32
  0
VERTEX
  5
93C5
  8
AM_0
 10
385.2919283069088
 20
50.81057687122771
 30
0.0
 70
    32
  0
VERTEX
  5
93C6
  8
AM_0
 10
385.2969283069088
 20
50.81057687122771
 30
0.0
 70
    32
  0
VERTEX
  5
93C7
  8
AM_0
 10
385.3009283069087
 20
50.810476871227991
 30
0.0
 70
    32
  0
SEQEND
  5
93C8
  8
AM_0
  0
LINE
  5
93C9
  8
AM_0
 10
395.80097537198287
 20
50.810510549168377
 30
0.0
 11
385.30097537198282
 21
50.810510549168377
 31
0.0
  0
ARC
  5
93CA
  8
AM_0
 10
385.30097537198282
 20
43.040662068185377
 30
0.0
 40
2.5
 50
180.0
 51
270.0
  0
LINE
  5
93CB
  8
AM_0
 10
382.80097537198287
 20
38.940662068184707
 30
0.0
 11
382.80097537198287
 21
43.040662068185377
 31
0.0
  0
ARC
  5
93CC
  8
AM_0
 10
383.30097537198282
 20
38.940662068184878
 30
0.0
 40
0.5
 50
180.0
 51
270.0
  0
LINE
  5
93CD
  8
AM_0
 10
385.30097537198282
 20
40.540662068185298
 30
0.0
 11
394.33597537198301
 21
40.540662068185298
 31
0.0
  0
LINE
  5
93CE
  8
AM_0
 10
399.80097537198287
 20
98.9406620681833
 30
0.0
 11
399.80097537198287
 21
110.4406620681831
 31
0.0
  0
LINE
  5
93CF
  8
AM_0
 10
399.80097537198287
 20
110.44066206818481
 30
0.0
 11
399.80097537198287
 21
79.940662068184821
 31
0.0
  0
LINE
  5
93D0
  8
AM_0
 10
399.80097537198287
 20
68.940662068184878
 30
0.0
 11
399.80097537198287
 21
38.440662068184899
 31
0.0
  0
LINE
  5
93D1
  8
AM_0
 10
411.8009723719826
 20
98.9406620681833
 30
0.0
 11
399.80097537198287
 21
98.9406620681833
 31
0.0
  0
LINE
  5
93D2
  8
AM_0
 10
410.08418893175508
 20
79.940662068184821
 30
0.0
 11
410.08418893175508
 21
68.940662068184878
 31
0.0
  0
LINE
  5
93D3
  8
AM_0
 10
399.80097537198287
 20
38.44066206818308
 30
0.0
 11
399.80097537198287
 21
49.940662068183272
 31
0.0
  0
LINE
  5
93D4
  8
AM_0
 10
413.6819831379799
 20
49.940662068183272
 30
0.0
 11
399.80097537198287
 21
49.940662068183272
 31
0.0
  0
LINE
  5
93D5
  8
AM_0
 10
61.875547693923977
 20
30.550647068184791
 30
0.0
 11
61.875547693923977
 21
17.440659068185191
 31
0.0
  0
LINE
  5
974C
  8
AM_0
 10
246.87557769392379
 20
394.91558328755002
 30
0.0
 11
246.87557769392379
 21
266.47084328754988
 31
0.0
  0
LINE
  5
974D
  8
AM_0
 10
273.87557769392379
 20
400.68447328754991
 30
0.0
 11
273.87557769392379
 21
260.68444328754998
 31
0.0
  0
LINE
  5
974E
  8
AM_0
 10
269.87554769392392
 20
405.68444328754993
 30
0.0
 11
269.87554769392392
 21
255.6844432875499
 31
0.0
  0
LINE
  5
974F
  8
AM_0
 10
264.8755776939239
 20
390.18447328755002
 30
0.0
 11
264.8755776939239
 21
271.18444328754998
 31
0.0
  0
LINE
  5
9750
  8
AM_0
 10
274.87554769392392
 20
349.71028328754988
 30
0.0
 11
274.87554769392392
 21
311.44002328754988
 31
0.0
  0
LINE
  5
9751
  8
AM_0
 10
214.8755776939241
 20
270.68447328755002
 30
0.0
 11
214.8755776939241
 21
390.68447328755002
 31
0.0
  0
LINE
  5
9752
  8
AM_0
 10
208.8755776939239
 20
272.78987328754988
 30
0.0
 11
208.8755776939239
 21
388.57903328754998
 31
0.0
  0
LINE
  5
9753
  8
AM_0
 10
190.8755776939239
 20
274.18447328755002
 30
0.0
 11
190.8755776939239
 21
387.18447328755002
 31
0.0
  0
LINE
  5
9756
  8
AM_0
 10
190.8755776939239
 20
274.18447328755002
 30
0.0
 11
190.8755776939239
 21
387.18447328755002
 31
0.0
  0
LINE
  5
9757
  8
AM_0
 10
246.87557769392379
 20
269.84648328754992
 30
0.0
 11
210.82323769392389
 21
270.79058328754991
 31
0.0
  0
LINE
  5
9758
  8
AM_0
 10
214.8755776939241
 20
275.15810328754998
 30
0.0
 11
246.87557769392379
 21
275.15810328754998
 31
0.0
  0
ARC
  5
97C7
  8
AM_0
 10
197.87557769392399
 20
282.50017328755001
 30
0.0
 40
2.0
 50
0.0
 51
88.499997000000747
  0
ARC
  5
97C8
  8
AM_0
 10
206.8755776939239
 20
282.26448328754992
 30
0.0
 40
2.0
 50
0.0
 51
88.499997000000747
  0
LINE
  5
97C9
  8
AM_0
 10
190.8755776939239
 20
284.68416328754972
 30
0.0
 11
206.92791769392389
 21
284.26381328754991
 31
0.0
  0
LINE
  5
97CA
  8
AM_0
 10
201.82320769392391
 20
273.65221328754973
 30
0.0
 11
207.504207693924
 21
273.50344328755
 31
0.0
  0
LINE
  5
97CB
  8
AM_0
 10
190.8755776939239
 20
274.18447328755002
 30
0.0
 11
200.86990769392381
 21
273.92275328754988
 31
0.0
  0
ARC
  5
97CD
  8
AM_0
 10
201.8755776939241
 20
275.65151328755002
 30
0.0
 40
2.0
 50
180.00001000000091
 51
268.5000000000004
  0
LINE
  5
97CE
  8
AM_0
 10
199.8755776939239
 20
282.50017328755001
 30
0.0
 11
199.8755776939239
 21
275.65151328755002
 31
0.0
  0
ARC
  5
97CF
  8
AM_0
 10
210.8755776939241
 20
272.78987328754988
 30
0.0
 40
2.0
 50
180.00001000000091
 51
268.5000000000004
  0
ARC
  5
97D0
  8
AM_0
 10
207.46493769392379
 20
272.00396328754988
 30
0.0
 40
1.5
 50
12.976653000001519
 51
88.499997000000747
  0
LINE
  5
97D1
  8
AM_0
 10
190.8755776939239
 20
298.74453328754993
 30
0.0
 11
206.8755776939239
 21
298.74453328754993
 31
0.0
  0
ARC
  5
97D5
  8
AM_0
 10
206.8755776939239
 20
296.74453328754993
 30
0.0
 40
2.0
 50
0.0
 51
90.000003000000945
  0
LINE
  5
97D6
  8
AM_0
 10
259.87554769392392
 20
257.96505328755001
 30
0.0
 11
259.87554769392392
 21
290.24407328755001
 31
0.0
  0
LINE
  5
97D7
  8
AM_0
 10
251.70107769392391
 20
261.45638328755001
 30
0.0
 11
256.98028769392391
 21
261.2720232875501
 31
0.0
  0
ARC
  5
97D8
  8
AM_0
 10
251.87554769392389
 20
266.45333328754992
 30
0.0
 40
5.0
 50
179.99998999999889
 51
268.00000999999861
  0
LINE
  5
97D9
  8
AM_0
 10
261.80575769392391
 20
255.96624328754999
 30
0.0
 11
269.87554769392392
 21
255.6844432875499
 31
0.0
  0
ARC
  5
97DA
  8
AM_0
 10
261.87557769392379
 20
257.96505328755001
 30
0.0
 40
2.0
 50
179.99998999999889
 51
268.00000999999861
  0
ARC
  5
97DB
  8
AM_0
 10
256.87554769392398
 20
258.27385328755003
 30
0.0
 40
3.0
 50
0.0
 51
87.999999999999659
  0
LINE
  5
97DC
  8
AM_0
 10
269.87554769392392
 20
260.68444328754998
 30
0.0
 11
273.87557769392379
 21
260.68444328754998
 31
0.0
  0
ARC
  5
97DE
  8
AM_0
 10
261.87557769392379
 20
271.18444328754998
 30
0.0
 40
3.0
 50
270.0
 51
0.0
  0
ARC
  5
97DF
  8
AM_0
 10
261.87557769392379
 20
290.24407328755001
 30
0.0
 40
2.0
 50
88.485353000000984
 51
180.00001000000091
  0
ARC
  5
97E0
  8
AM_0
 10
272.87554769392392
 20
311.58574328754997
 30
0.0
 40
2.0
 50
315.0
 51
0.0
  0
LINE
  5
97E1
  8
AM_0
 10
273.87554769392392
 20
309.75728328755002
 30
0.0
 11
274.28979769392407
 21
310.17153328755001
 31
0.0
  0
LINE
  5
97E2
  8
AM_0
 10
210.82320769392391
 20
390.57836328755002
 30
0.0
 11
246.87557769392379
 21
391.52242328755
 31
0.0
  0
LINE
  5
97E3
  8
AM_0
 10
214.8755776939241
 20
386.21080328754999
 30
0.0
 11
246.87557769392379
 21
386.21080328754999
 31
0.0
  0
LINE
  5
9803
  8
AM_0
 10
190.8755776939239
 20
362.62441328755
 30
0.0
 11
206.8755776939239
 21
362.62441328755
 31
0.0
  0
LINE
  5
9804
  8
AM_0
 10
190.87554769392389
 20
376.68477328754977
 30
0.0
 11
206.92791769392389
 21
377.10509328754978
 31
0.0
  0
LINE
  5
9805
  8
AM_0
 10
201.82320769392391
 20
387.71672328754983
 30
0.0
 11
207.5042376939239
 21
387.86550328754998
 31
0.0
  0
LINE
  5
980A
  8
AM_0
 10
190.8755776939239
 20
387.18444328754998
 30
0.0
 11
200.86990769392381
 21
387.44616328754978
 31
0.0
  0
LINE
  5
980E
  8
AM_0
 10
199.8755776939239
 20
378.8687332875499
 30
0.0
 11
199.8755776939239
 21
385.71740328754998
 31
0.0
  0
ARC
  5
980F
  8
AM_0
 10
197.87557769392399
 20
378.8687332875499
 30
0.0
 40
2.0
 50
271.49999999999937
 51
0.0
  0
ARC
  5
9810
  8
AM_0
 10
201.8755776939241
 20
385.71740328754998
 30
0.0
 40
2.0
 50
91.500001000001546
 51
180.00001000000091
  0
ARC
  5
9811
  8
AM_0
 10
206.8755776939239
 20
364.62441328754983
 30
0.0
 40
2.0
 50
270.0
 51
0.0
  0
ARC
  5
9812
  8
AM_0
 10
206.8755776939239
 20
379.10442328754999
 30
0.0
 40
2.0
 50
271.49999999999937
 51
0.0
  0
ARC
  5
9813
  8
AM_0
 10
210.8755776939241
 20
388.57903328754998
 30
0.0
 40
2.0
 50
91.500001000001546
 51
180.00001000000091
  0
ARC
  5
9814
  8
AM_0
 10
207.46493769392379
 20
389.36498328754982
 30
0.0
 40
1.5
 50
271.49999999999937
 51
347.02334999999908
  0
ARC
  5
9815
  8
AM_0
 10
261.87557769392379
 20
390.18447328755002
 30
0.0
 40
3.0
 50
0.0
 51
90.000003000000945
  0
LINE
  5
9816
  8
AM_0
 10
259.87554769392392
 20
403.40386328754971
 30
0.0
 11
259.87554769392392
 21
371.12484328754982
 31
0.0
  0
LINE
  5
9817
  8
AM_0
 10
276.875517693924
 20
340.18447328754991
 30
0.0
 11
304.87554769392398
 21
340.18447328754991
 31
0.0
  0
LINE
  5
9818
  8
AM_0
 10
276.875517693924
 20
321.18447328754991
 30
0.0
 11
304.87554769392398
 21
321.18447328754991
 31
0.0
  0
LINE
  5
9819
  8
AM_0
 10
276.875517693924
 20
320.68447328755002
 30
0.0
 11
276.875517693924
 21
340.68447328755002
 31
0.0
  0
LINE
  5
981A
  8
AM_0
 10
274.8755776939239
 20
320.68447328755002
 30
0.0
 11
276.875517693924
 21
320.68447328755002
 31
0.0
  0
LINE
  5
981B
  8
AM_0
 10
274.8755776939239
 20
340.68447328755002
 30
0.0
 11
276.875517693924
 21
340.68447328755002
 31
0.0
  0
ARC
  5
981C
  8
AM_0
 10
272.87554769392392
 20
349.78316328754988
 30
0.0
 40
2.0
 50
0.0
 51
45.000000999999187
  0
LINE
  5
981D
  8
AM_0
 10
273.87554769392392
 20
351.61159328755002
 30
0.0
 11
274.28979769392407
 21
351.19738328754988
 31
0.0
  0
ARC
  5
981E
  8
AM_0
 10
261.87557769392379
 20
371.12484328754982
 30
0.0
 40
2.0
 50
179.99998999999889
 51
271.51463999999902
  0
LINE
  5
9820
  8
AM_0
 10
282.87551769392388
 20
333.68447328754991
 30
0.0
 11
304.87554769392398
 21
333.68447328754991
 31
0.0
  0
LINE
  5
9821
  8
AM_0
 10
282.87551769392388
 20
327.68447328754991
 30
0.0
 11
304.87554769392398
 21
327.68447328754991
 31
0.0
  0
ARC
  5
9822
  8
AM_0
 10
282.87551769392388
 20
330.68447328755002
 30
0.0
 40
3.0
 50
89.986013999999244
 51
270.01398999999992
  0
LINE
  5
9823
  8
AM_0
 10
282.87551769392388
 20
327.68447328754991
 30
0.0
 11
282.87551769392388
 21
333.68447328754991
 31
0.0
  0
LINE
  5
9824
  8
AM_0
 10
304.87554769392398
 20
321.18447328754991
 30
0.0
 11
304.87554769392398
 21
340.18447328754991
 31
0.0
  0
LINE
  5
9825
  8
AM_0
 10
251.70107769392391
 20
399.9125632875498
 30
0.0
 11
256.98025769392399
 21
400.09691328754991
 31
0.0
  0
ARC
  5
9826
  8
AM_0
 10
251.87554769392389
 20
394.91558328755002
 30
0.0
 40
5.0
 50
91.999998000000545
 51
180.00001000000091
  0
LINE
  5
9827
  8
AM_0
 10
261.80575769392391
 20
405.40267328754982
 30
0.0
 11
269.87554769392392
 21
405.68447328754991
 31
0.0
  0
ARC
  5
9828
  8
AM_0
 10
256.87554769392398
 20
403.09505328754977
 30
0.0
 40
3.0
 50
272.0000000000004
 51
0.0
  0
ARC
  5
9829
  8
AM_0
 10
261.87557769392379
 20
403.40386328754971
 30
0.0
 40
2.0
 50
91.999998000000545
 51
180.00001000000091
  0
LINE
  5
982A
  8
AM_0
 10
269.87554769392392
 20
400.68447328754991
 30
0.0
 11
273.87557769392379
 21
400.68447328754991
 31
0.0
  0
LINE
  5
99F6
  8
ﾁｭｳｼﾝｾﾝ
 10
4.4852571204901892
 20
330.68447328755002
 30
0.0
 11
310.239347693924
 21
330.68447328755002
 31
0.0
  0
LINE
  5
99F7
  8
AM_0
 10
76.555567693923933
 20
364.05446328754982
 30
0.0
 11
143.8955976939238
 21
364.05446328754982
 31
0.0
  0
LINE
  5
99F8
  8
AM_0
 10
76.335597693923944
 20
357.17446328755011
 30
0.0
 11
143.87557769392379
 21
357.17446328755011
 31
0.0
  0
LINE
  5
99F9
  8
AM_0
 10
78.085597693923944
 20
386.96450328754997
 30
0.0
 11
175.00558769392379
 21
386.96450328754997
 31
0.0
  0
LINE
  5
99FA
  8
AM_0
 10
78.125577693923944
 20
389.81447328755007
 30
0.0
 11
175.00558769392379
 21
389.81447328755007
 31
0.0
  0
LINE
  5
99FB
  8
AM_0
 10
78.145597693923875
 20
391.66445328754997
 30
0.0
 11
175.00558769392379
 21
391.66445328754997
 31
0.0
  0
LINE
  5
99FC
  8
AM_0
 10
78.165557693923873
 20
392.57448328754998
 30
0.0
 11
175.00564769392381
 21
392.57448328754998
 31
0.0
  0
LINE
  5
99FD
  8
AM_0
 10
176.21560769392389
 20
366.68447328755002
 30
0.0
 11
77.235567693923983
 21
366.68447328755002
 31
0.0
  0
LINE
  5
99FE
  8
AM_0
 10
176.21560769392389
 20
364.68447328755002
 30
0.0
 11
77.235567693923983
 21
364.68447328755002
 31
0.0
  0
LINE
  5
99FF
  8
AM_0
 10
76.205597693923949
 20
314.34450328755003
 30
0.0
 11
112.54684769392379
 21
314.34450328755003
 31
0.0
  0
LINE
  5
9A00
  8
AM_0
 10
76.145597693923889
 20
326.95449328755001
 30
0.0
 11
112.5942676939239
 21
326.95449328755001
 31
0.0
  0
LINE
  5
9A01
  8
AM_0
 10
111.3142976939239
 20
326.68447328755008
 30
0.0
 11
77.235567693923983
 21
326.68447328755008
 31
0.0
  0
LINE
  5
9A02
  8
AM_0
 10
111.3142976939239
 20
324.68447328755008
 30
0.0
 11
77.235567693923983
 21
324.68447328755008
 31
0.0
  0
LINE
  5
9A03
  8
AM_0
 10
76.145597693923889
 20
324.41445328754997
 30
0.0
 11
112.5942676939239
 21
324.41445328754997
 31
0.0
  0
LINE
  5
9A04
  8
AM_0
 10
76.205597693923949
 20
317.00441328755011
 30
0.0
 11
112.53426769392379
 21
317.00441328755011
 31
0.0
  0
LINE
  5
9A05
  8
AM_0
 10
111.3142976939239
 20
316.68447328755002
 30
0.0
 11
77.235567693923983
 21
316.68447328755002
 31
0.0
  0
LINE
  5
9A06
  8
AM_0
 10
111.3142976939239
 20
314.68447328755002
 30
0.0
 11
77.235567693923983
 21
314.68447328755002
 31
0.0
  0
LINE
  5
9A07
  8
AM_0
 10
111.3142976939239
 20
336.68447328755002
 30
0.0
 11
77.235567693923983
 21
336.68447328755002
 31
0.0
  0
LINE
  5
9A08
  8
AM_0
 10
111.3142976939239
 20
334.68447328755002
 30
0.0
 11
77.235567693923983
 21
334.68447328755002
 31
0.0
  0
LINE
  5
9A09
  8
AM_0
 10
76.145597693923889
 20
336.95449328755001
 30
0.0
 11
112.5942676939239
 21
336.95449328755001
 31
0.0
  0
LINE
  5
9A0A
  8
AM_0
 10
76.145597693923889
 20
334.42446328755011
 30
0.0
 11
112.5942676939239
 21
334.42446328755011
 31
0.0
  0
LINE
  5
9A0B
  8
AM_0
 10
111.3142976939239
 20
346.68447328755002
 30
0.0
 11
77.235567693923983
 21
346.68447328755002
 31
0.0
  0
LINE
  5
9A0C
  8
AM_0
 10
76.205597693923949
 20
347.0244332875501
 30
0.0
 11
112.53426769392379
 21
347.0244332875501
 31
0.0
  0
LINE
  5
9A0D
  8
AM_0
 10
111.3142976939239
 20
344.68447328755002
 30
0.0
 11
77.235567693923983
 21
344.68447328755002
 31
0.0
  0
LINE
  5
9A0E
  8
AM_0
 10
76.205597693923949
 20
344.36452328755001
 30
0.0
 11
112.53426769392379
 21
344.36452328755001
 31
0.0
  0
LINE
  5
9A0F
  8
AM_0
 10
77.781827693923972
 20
271.55446328755011
 30
0.0
 11
100.2082278925907
 21
271.55446328755011
 31
0.0
  0
LINE
  5
9A10
  8
AM_0
 10
78.085597693923944
 20
274.40444328755001
 30
0.0
 11
175.00558769392379
 21
274.40444328755001
 31
0.0
  0
LINE
  5
9A11
  8
AM_0
 10
143.87557769392379
 20
304.68447328755002
 30
0.0
 11
77.235567693923983
 21
304.68447328755002
 31
0.0
  0
LINE
  5
9A12
  8
AM_0
 10
76.335597693923944
 20
304.19448328754999
 30
0.0
 11
143.87557769392379
 21
304.19448328754999
 31
0.0
  0
LINE
  5
9A13
  8
AM_0
 10
76.555567693923933
 20
293.96450328754992
 30
0.0
 11
131.8755776939239
 21
293.96450328754992
 31
0.0
  0
LINE
  5
9A14
  8
AM_0
 10
76.555567693923933
 20
297.31447328755002
 30
0.0
 11
143.8955976939238
 21
297.31447328755002
 31
0.0
  0
LINE
  5
9A15
  8
AM_0
 10
131.8755776939239
 20
296.68447328755002
 30
0.0
 11
77.235567693923983
 21
296.68447328755002
 31
0.0
  0
LINE
  5
9A16
  8
AM_0
 10
131.8755776939239
 20
294.68447328755002
 30
0.0
 11
77.235567693923983
 21
294.68447328755002
 31
0.0
  0
LINE
  5
9A17
  8
AM_0
 10
176.20840769392379
 20
306.68447328755002
 30
0.0
 11
77.235567693923983
 21
306.68447328755002
 31
0.0
  0
LINE
  5
9A18
  8
AM_0
 10
143.87557769392379
 20
356.68447328754991
 30
0.0
 11
77.235567693923983
 21
356.68447328754991
 31
0.0
  0
LINE
  5
9A19
  8
AM_0
 10
176.20840769392379
 20
354.68447328754991
 30
0.0
 11
77.235567693923983
 21
354.68447328754991
 31
0.0
  0
LINE
  5
9A1A
  8
AM_0
 10
88.177740125502865
 20
261.18447328755002
 30
0.0
 11
105.7777401255028
 21
261.18447328755002
 31
0.0
  0
LINE
  5
9A1B
  8
ﾁｭｳｼﾝｾﾝ
 10
85.477740125512284
 20
244.18447328754999
 30
0.0
 11
109.4777401254935
 21
244.18447328754999
 31
0.0
  0
ARC
  5
9A1C
  8
AM_0
 10
97.477740125502933
 20
244.18447328754999
 30
0.0
 40
9.3000000000000007
 50
180.0
 51
0.0
  0
LINE
  5
9A1D
  8
AM_0
 10
84.896316341291794
 20
232.18447328754999
 30
0.0
 11
116.8743860800238
 21
237.6328993242941
 31
0.0
  0
LINE
  5
9A1E
  8
AM_0
 10
84.977740125502919
 20
231.18447328754999
 30
0.0
 11
161.27774012550279
 21
244.18447328754999
 31
0.0
  0
LINE
  5
9A1F
  8
AM_0
 10
84.977740125502919
 20
231.18447328754999
 30
0.0
 11
161.27774012550279
 21
244.18447328754999
 31
0.0
  0
LINE
  5
9A20
  8
AM_0
 10
160.77774012550381
 20
227.18447328754999
 30
0.0
 11
85.303435262343896
 21
227.18447328754999
 31
0.0
  0
LINE
  5
9A21
  8
AM_0
 10
161.60343526234379
 20
240.18447328754999
 30
0.0
 11
85.303435262343896
 21
227.18447328754999
 31
0.0
  0
LINE
  5
9A22
  8
AM_0
 10
76.335597693923944
 20
307.12441328755
 30
0.0
 11
179.90981769392391
 21
307.12441328755
 31
0.0
  0
LINE
  5
9A23
  8
AM_0
 10
76.555567693923933
 20
367.40444328755012
 30
0.0
 11
179.69558769392381
 21
367.40444328755012
 31
0.0
  0
LINE
  5
9A24
  8
AM_0
 10
76.335597693923944
 20
354.2445332875501
 30
0.0
 11
179.90981769392391
 21
354.2445332875501
 31
0.0
  0
POLYLINE
  5
9A25
  8
AM_0
 66
     1
 10
0.0
 20
0.0
 30
0.0
  0
VERTEX
  5
9A26
  8
AM_0
 10
77.279627693923942
 20
324.41408328755
 30
0.0
 42
0.00076695235
  0
VERTEX
  5
9A27
  8
AM_0
 10
77.294427693923851
 20
323.79632328755002
 30
0.0
 42
0.00073263043
  0
VERTEX
  5
9A28
  8
AM_0
 10
77.311067693923903
 20
323.17872328754999
 30
0.0
 42
0.00076525988
  0
VERTEX
  5
9A29
  8
AM_0
 10
77.329557693923846
 20
322.56105328755001
 30
0.0
 42
0.00075144488
  0
VERTEX
  5
9A2A
  8
AM_0
 10
77.349927693923902
 20
321.94345328755003
 30
0.0
 42
0.00076035096
  0
VERTEX
  5
9A2B
  8
AM_0
 10
77.372167693923927
 20
321.32602328755007
 30
0.0
 42
0.00075543154
  0
VERTEX
  5
9A2C
  8
AM_0
 10
77.396267693923903
 20
320.70864328754988
 30
0.0
 42
0.0007577325
  0
VERTEX
  5
9A2D
  8
AM_0
 10
77.422247693923893
 20
320.09124328755013
 30
0.0
 42
0.00076034585
  0
VERTEX
  5
9A2E
  8
AM_0
 10
77.450097693923965
 20
319.47385328755001
 30
0.0
 42
0.00074823143
  0
VERTEX
  5
9A2F
  8
AM_0
 10
77.479827693923923
 20
318.85646328755013
 30
0.0
 42
0.00074896605
  0
VERTEX
  5
9A30
  8
AM_0
 10
77.511387693923822
 20
318.23933328754998
 30
0.0
 42
0.00076039763
  0
VERTEX
  5
9A31
  8
AM_0
 10
77.544807693923943
 20
317.62230328755021
 30
0.0
 42
0.00075616127
  0
VERTEX
  5
9A32
  8
AM_0
 10
77.580107693923935
 20
317.00527328754998
 30
0.0
  0
SEQEND
  5
9A33
  8
AM_0
  0
LINE
  5
9A34
  8
AM_0
 10
66.875577693923944
 20
389.43447328755002
 30
0.0
 11
66.875577693923944
 21
271.93447328755002
 31
0.0
  0
LINE
  5
9A35
  8
AM_0
 10
74.875577693923944
 20
383.68447328754991
 30
0.0
 11
74.875577693923944
 21
277.68447328755002
 31
0.0
  0
LINE
  5
9A36
  8
AM_0
 10
61.875577693923951
 20
293.49941328755
 30
0.0
 11
61.875577693923951
 21
367.87050328754998
 31
0.0
  0
LINE
  5
9A37
  8
AM_0
 10
11.374147593923899
 20
386.68447328755002
 30
0.0
 11
11.374147593923899
 21
274.68447328755008
 31
0.0
  0
LINE
  5
9A38
  8
AM_0
 10
16.875577693923951
 20
296.15541328755
 30
0.0
 11
16.875577693923951
 21
365.21352328755012
 31
0.0
  0
LINE
  5
9A39
  8
AM_0
 10
16.374147593923901
 20
365.4229343832572
 30
0.0
 11
16.374147593923901
 21
295.94601219184261
 31
0.0
  0
LINE
  5
9A3A
  8
AM_0
 10
19.375577693923951
 20
277.90248328755013
 30
0.0
 11
19.375577693923951
 21
383.43447328755002
 31
0.0
  0
LINE
  5
9A3B
  8
AM_0
 10
82.37774012550291
 20
260.18447328755002
 30
0.0
 11
82.37774012550291
 21
237.18447328755011
 31
0.0
  0
LINE
  5
9A3C
  8
AM_0
 10
88.177740125502865
 20
261.18447328755002
 30
0.0
 11
88.177740125502865
 21
244.18447328754999
 31
0.0
  0
LINE
  5
9A3D
  8
AM_0
 10
82.077740125502814
 20
232.18447328754999
 30
0.0
 11
82.077740125502814
 21
233.18011596826599
 31
0.0
  0
LINE
  5
9A3E
  8
AM_0
 10
82.37774012550291
 20
237.18447328755011
 30
0.0
 11
82.377740125501873
 21
232.18447328754999
 31
0.0
  0
LINE
  5
9A3F
  8
AM_0
 10
81.877740125502896
 20
232.18447328754999
 30
0.0
 11
81.877740125502896
 21
235.884473287551
 31
0.0
  0
LINE
  5
9A40
  8
AM_0
 10
80.377740125503905
 20
235.884473287551
 30
0.0
 11
80.377740125503905
 21
228.68447328755011
 31
0.0
  0
LINE
  5
9A41
  8
AM_0
 10
82.37774012550291
 20
227.18447328754999
 30
0.0
 11
85.303435262343896
 21
227.18447328754999
 31
0.0
  0
LINE
  5
9A42
  8
AM_0
 10
80.87774012550291
 20
231.18447328754999
 30
0.0
 11
84.977740125502919
 21
231.18447328754999
 31
0.0
  0
LINE
  5
9A43
  8
AM_0
 10
81.177740125502851
 20
231.18447328754999
 30
0.0
 11
84.977740125502919
 21
231.18447328754999
 31
0.0
  0
LINE
  5
9A44
  8
AM_0
 10
81.877740125503905
 20
227.18447328754999
 30
0.0
 11
82.176226021660909
 21
227.18447328755121
 31
0.0
  0
LINE
  5
9A45
  8
AM_0
 10
80.87774012550291
 20
231.884473287551
 30
0.0
 11
80.87774012550291
 21
231.18447328754999
 31
0.0
  0
ARC
  5
9A46
  8
AM_0
 10
81.177740125502851
 20
230.88447328755109
 30
0.0
 40
0.3
 50
90.0
 51
180.0
  0
ARC
  5
9A47
  8
AM_0
 10
81.177740125502851
 20
231.884473287551
 30
0.0
 40
0.3
 50
90.0
 51
180.0
  0
LINE
  5
9A48
  8
AM_0
 10
80.87774012550291
 20
230.88447328755109
 30
0.0
 11
80.87774012550291
 21
228.68447328755011
 31
0.0
  0
LINE
  5
9A49
  8
AM_0
 10
84.896316341291794
 20
232.18447328754999
 30
0.0
 11
81.177740125502851
 21
232.18447328754999
 31
0.0
  0
ARC
  5
9A4A
  8
AM_0
 10
81.877740125503905
 20
228.68447328755121
 30
0.0
 40
1.5
 50
180.00000000000659
 51
269.99999999999341
  0
ARC
  5
9A4B
  8
AM_0
 10
82.37774012550291
 20
228.68447328755011
 30
0.0
 40
1.5
 50
180.0
 51
270.0
  0
ARC
  5
9A4C
  8
AM_0
 10
81.577740125502814
 20
235.884473287551
 30
0.0
 40
0.3
 50
0.0
 51
90.0
  0
LINE
  5
9A4D
  8
AM_0
 10
82.277740125502859
 20
237.18447328755011
 30
0.0
 11
82.37774012550291
 21
237.18447328755011
 31
0.0
  0
LINE
  5
9A4E
  8
AM_0
 10
82.077740125502814
 20
236.984473287551
 30
0.0
 11
82.277740125502859
 21
237.18447328755011
 31
0.0
  0
LINE
  5
9A4F
  8
AM_0
 10
82.077740125502814
 20
233.18011596826599
 30
0.0
 11
82.077740125502814
 21
234.38011596826601
 31
0.0
  0
LINE
  5
9A50
  8
AM_0
 10
82.077740125502814
 20
233.18011596826599
 30
0.0
 11
81.877740125502896
 21
233.18011596826599
 31
0.0
  0
LINE
  5
9A51
  8
AM_0
 10
81.877740125502896
 20
234.38011596826601
 30
0.0
 11
82.077740125502814
 21
234.38011596826601
 31
0.0
  0
LINE
  5
9A52
  8
AM_0
 10
82.077740125502814
 20
234.38011596826601
 30
0.0
 11
82.077740125502814
 21
236.984473287551
 31
0.0
  0
ARC
  5
9A53
  8
AM_0
 10
80.677740125503874
 20
235.884473287551
 30
0.0
 40
0.3
 50
90.0
 51
180.0
  0
LINE
  5
9A54
  8
AM_0
 10
81.177740125502851
 20
236.18447328754999
 30
0.0
 11
80.677740125503874
 21
236.18447328754999
 31
0.0
  0
LINE
  5
9A55
  8
AM_0
 10
81.577740125502814
 20
236.18447328754999
 30
0.0
 11
81.177740125502851
 21
236.18447328754999
 31
0.0
  0
LINE
  5
9A56
  8
AM_0
 10
18.875577693923951
 20
277.93447328755002
 30
0.0
 11
66.875577693923944
 21
277.93447328755002
 31
0.0
  0
LINE
  5
9A57
  8
AM_0
 10
19.375577693923951
 20
297.04348328754992
 30
0.0
 11
61.875577693923951
 21
297.04348328754992
 31
0.0
  0
LINE
  5
9A58
  8
AM_0
 10
19.375577693923951
 20
286.79348328754992
 30
0.0
 11
61.875577693923951
 21
286.79348328754992
 31
0.0
  0
LINE
  5
9A59
  8
AM_0
 10
41.875577693923951
 20
271.93447328755002
 30
0.0
 11
66.875577693923944
 21
271.93447328755002
 31
0.0
  0
LINE
  5
9A5A
  8
AM_0
 10
20.374147593923901
 20
265.68447328755002
 30
0.0
 11
57.875577693923958
 21
265.68447328755002
 31
0.0
  0
LINE
  5
9A5B
  8
AM_0
 10
16.875577693923951
 20
287.43154328755003
 30
0.0
 11
16.875577693923951
 21
279.93447328755002
 31
0.0
  0
LINE
  5
9A5C
  8
AM_0
 10
16.374147593923901
 20
287.64095438325722
 30
0.0
 11
16.374147593923901
 21
275.68447328755002
 31
0.0
  0
LINE
  5
9A5D
  8
AM_0
 10
21.374147593923901
 20
270.68447328755002
 30
0.0
 11
44.875577693923937
 21
270.68447328755002
 31
0.0
  0
ARC
  5
9A5E
  8
AM_0
 10
20.374147593923901
 20
274.68447328755008
 30
0.0
 40
9.0
 50
179.99997999999781
 51
269.99995000000138
  0
ARC
  5
9A5F
  8
AM_0
 10
21.374147593923901
 20
275.68447328755002
 30
0.0
 40
5.0
 50
179.99997999999781
 51
269.99995000000138
  0
ARC
  5
9A60
  8
AM_0
 10
18.875577693923951
 20
279.93447328755002
 30
0.0
 40
2.0
 50
179.99997999999781
 51
269.99995000000138
  0
LINE
  5
9A61
  8
AM_0
 10
44.875577693923937
 20
271.93447328755002
 30
0.0
 11
44.875577693923937
 21
265.68447328755002
 31
0.0
  0
LINE
  5
9A62
  8
AM_0
 10
41.875577693923951
 20
271.93447328755002
 30
0.0
 11
41.875577693923951
 21
277.93447328755002
 31
0.0
  0
LINE
  5
9A63
  8
AM_0
 10
18.075587693923861
 20
296.39345328755002
 30
0.0
 11
18.075587693923861
 21
287.19350328755002
 31
0.0
  0
LINE
  5
9A64
  8
AM_0
 10
14.775607693923851
 20
293.29348328754992
 30
0.0
 11
14.775607693923851
 21
290.29348328754992
 31
0.0
  0
ARC
  5
9A65
  8
AM_0
 10
17.77560769392386
 20
290.29348328754992
 30
0.0
 40
3.0
 50
179.99997999999781
 51
269.99995000000138
  0
LINE
  5
9A66
  8
AM_0
 10
18.075587693923861
 20
287.19350328755002
 30
0.0
 11
19.375577693923951
 21
287.19350328755002
 31
0.0
  0
LINE
  5
9A67
  8
AM_0
 10
17.77560769392386
 20
287.29348328754992
 30
0.0
 11
18.075587693923861
 21
287.29348328754992
 31
0.0
  0
ARC
  5
9A68
  8
AM_0
 10
17.77560769392386
 20
293.29348328754992
 30
0.0
 40
3.0
 50
89.999988999997569
 51
179.99997999999781
  0
LINE
  5
9A69
  8
AM_0
 10
18.075587693923861
 20
296.39345328755002
 30
0.0
 11
19.375577693923951
 21
296.39345328755002
 31
0.0
  0
LINE
  5
9A6A
  8
AM_0
 10
17.77560769392386
 20
296.29348328754992
 30
0.0
 11
18.075587693923861
 21
296.29348328754992
 31
0.0
  0
LINE
  5
9A6B
  8
AM_0
 10
61.875577693923951
 20
286.79348328754992
 30
0.0
 11
61.875577693923951
 21
277.93447328755002
 31
0.0
  0
LINE
  5
9A6C
  8
AM_0
 10
80.235567693923969
 20
294.0344732875501
 30
0.0
 11
74.875577693923944
 21
282.5944732875501
 31
0.0
  0
LINE
  5
9A6D
  8
AM_0
 10
66.875577693923944
 20
277.68447328755002
 30
0.0
 11
74.875577693923944
 21
277.68447328755002
 31
0.0
  0
LINE
  5
9A6E
  8
AM_0
 10
54.875577693923951
 20
271.93447328755002
 30
0.0
 11
54.875577693923951
 21
265.68447328755002
 31
0.0
  0
LINE
  5
9A6F
  8
AM_0
 10
57.875577693923958
 20
270.68447328755002
 30
0.0
 11
57.875577693923958
 21
265.68447328755002
 31
0.0
  0
LINE
  5
9A70
  8
AM_0
 10
54.875577693923951
 20
270.68447328755002
 30
0.0
 11
57.875577693923958
 21
270.68447328755002
 31
0.0
  0
LINE
  5
9A71
  8
AM_0
 10
83.37774012550291
 20
261.18447328755002
 30
0.0
 11
88.177740125502865
 21
261.18447328755002
 31
0.0
  0
ARC
  5
9A72
  8
AM_0
 10
83.37774012550291
 20
260.18447328755002
 30
0.0
 40
1.0
 50
90.0
 51
180.0
  0
ARC
  5
9A73
  8
AM_0
 10
78.080417693923934
 20
276.40371328754998
 30
0.0
 40
1.9992490000000001
 50
190.643100000001
 51
270.14743000000129
  0
LINE
  5
9A74
  8
AM_0
 10
74.875577693923944
 20
281.24440328755003
 30
0.0
 11
76.155547693923893
 21
273.24446328754999
 31
0.0
  0
LINE
  5
9A75
  8
AM_0
 10
74.875577693923944
 20
279.90441328755003
 30
0.0
 11
75.884797693923986
 21
273.25438328755001
 31
0.0
  0
LINE
  5
9A76
  8
AM_0
 10
74.875577693923944
 20
279.9044732875501
 30
0.0
 11
75.801057693923951
 21
273.2778532875501
 31
0.0
  0
ARC
  5
9A77
  8
AM_0
 10
78.131747693923955
 20
273.55483328755008
 30
0.0
 40
2.000420099999999
 50
188.9268200000015
 51
269.82270999999599
  0
ARC
  5
9A78
  8
AM_0
 10
77.862207693923949
 20
273.55446328755011
 30
0.0
 40
2.0
 50
188.62962000000411
 51
269.999989999999
  0
ARC
  5
9A79
  8
AM_0
 10
77.781827693923972
 20
273.55446328755011
 30
0.0
 40
2.0
 50
187.9504400000034
 51
269.999989999999
  0
LINE
  5
9A7A
  8
AM_0
 10
74.875577693923944
 20
282.59441328755003
 30
0.0
 11
76.115567693923992
 21
276.03441328755008
 31
0.0
  0
LINE
  5
9A7B
  8
AM_0
 10
67.57558769392385
 20
287.4945332875501
 30
0.0
 11
73.805567693923948
 21
287.4945332875501
 31
0.0
  0
POLYLINE
  5
9A7C
  8
AM_0
 66
     1
 10
0.0
 20
0.0
 30
0.0
  0
VERTEX
  5
9A7D
  8
AM_0
 10
78.736477693923973
 20
304.20143328755
 30
0.0
 42
0.00068900015
  0
VERTEX
  5
9A7E
  8
AM_0
 10
78.807357693923819
 20
303.62668328755001
 30
0.0
 42
0.00070644648
  0
VERTEX
  5
9A7F
  8
AM_0
 10
78.879857693923952
 20
303.05200328755001
 30
0.0
 42
0.00069245587
  0
VERTEX
  5
9A80
  8
AM_0
 10
78.953947693923908
 20
302.47768328755012
 30
0.0
 42
0.00069587802
  0
VERTEX
  5
9A81
  8
AM_0
 10
79.029627693923942
 20
301.90354328755001
 30
0.0
 42
0.00068980012
  0
VERTEX
  5
9A82
  8
AM_0
 10
79.106927693923851
 20
301.32954328755011
 30
0.0
 42
0.00072079193
  0
VERTEX
  5
9A83
  8
AM_0
 10
79.185817693923994
 20
300.75576328755011
 30
0.0
 42
0.00071003147
  0
VERTEX
  5
9A84
  8
AM_0
 10
79.266357693923894
 20
300.18228328754998
 30
0.0
 42
0.00072658712
  0
VERTEX
  5
9A85
  8
AM_0
 10
79.348517693923952
 20
299.60919328755
 30
0.0
 42
0.00069571059
  0
VERTEX
  5
9A86
  8
AM_0
 10
79.432337693923898
 20
299.03615328755001
 30
0.0
 42
0.0007126617
  0
VERTEX
  5
9A87
  8
AM_0
 10
79.517767693923986
 20
298.46339328754999
 30
0.0
 42
0.00071614574
  0
VERTEX
  5
9A88
  8
AM_0
 10
79.604797693923899
 20
297.89104328755008
 30
0.0
 42
0.00072290803
  0
VERTEX
  5
9A89
  8
AM_0
 10
79.693507693923891
 20
297.31874328755009
 30
0.0
  0
SEQEND
  5
9A8A
  8
AM_0
  0
ARC
  5
9A8B
  8
AM_0
 10
76.548737693923897
 20
295.63942328755007
 30
0.0
 40
1.675014
 50
89.766498999996756
 51
270.2335099999994
  0
ARC
  5
9A8C
  8
AM_0
 10
77.420197693923953
 20
295.68447328755002
 30
0.0
 40
1.000013899999999
 50
89.691659999999231
 51
270.30834000000078
  0
POLYLINE
  5
9A8D
  8
AM_0
 66
     1
 10
0.0
 20
0.0
 30
0.0
  0
VERTEX
  5
9A8E
  8
AM_0
 10
77.753817693923963
 20
314.34389328755009
 30
0.0
 42
0.00073721992
  0
VERTEX
  5
9A8F
  8
AM_0
 10
77.797967693923894
 20
313.74148328755001
 30
0.0
 42
0.00074398496
  0
VERTEX
  5
9A90
  8
AM_0
 10
77.843897693923907
 20
313.13921328754998
 30
0.0
 42
0.00073322625
  0
VERTEX
  5
9A91
  8
AM_0
 10
77.891627693923894
 20
312.53688328754998
 30
0.0
 42
0.00073594289
  0
VERTEX
  5
9A92
  8
AM_0
 10
77.941107693923925
 20
311.93489328754998
 30
0.0
 42
0.00074742568
  0
VERTEX
  5
9A93
  8
AM_0
 10
77.99237769392397
 20
311.33303328754999
 30
0.0
 42
0.00073216749
  0
VERTEX
  5
9A94
  8
AM_0
 10
78.045437693923944
 20
310.73122328754999
 30
0.0
 42
0.00074184065
  0
VERTEX
  5
9A95
  8
AM_0
 10
78.100257693923893
 20
310.12969328755003
 30
0.0
 42
0.00072077528
  0
VERTEX
  5
9A96
  8
AM_0
 10
78.156837693923947
 20
309.52846328755021
 30
0.0
 42
0.00074978179
  0
VERTEX
  5
9A97
  8
AM_0
 10
78.215177693923849
 20
308.92726328754998
 30
0.0
 42
0.00074288888
  0
VERTEX
  5
9A98
  8
AM_0
 10
78.27532769392387
 20
308.32624328755003
 30
0.0
 42
0.00072503679
  0
VERTEX
  5
9A99
  8
AM_0
 10
78.337237693923896
 20
307.72550328755
 30
0.0
 42
0.00074640584
  0
VERTEX
  5
9A9A
  8
AM_0
 10
78.40090769392387
 20
307.12490328755001
 30
0.0
  0
SEQEND
  5
9A9B
  8
AM_0
  0
ARC
  5
9A9C
  8
AM_0
 10
77.420197693923953
 20
305.68447328755002
 30
0.0
 40
1.000013899999999
 50
89.691659999999231
 51
270.30834000000078
  0
ARC
  5
9A9D
  8
AM_0
 10
76.335597693923944
 20
305.65944328755
 30
0.0
 40
1.465004
 50
90.00000299999769
 51
270.0
  0
ARC
  5
9A9E
  8
AM_0
 10
76.205597693923949
 20
315.67446328755011
 30
0.0
 40
1.3300049999999981
 50
90.00000299999769
 51
270.0
  0
ARC
  5
9A9F
  8
AM_0
 10
77.420197693923953
 20
315.68447328755002
 30
0.0
 40
1.000013899999999
 50
89.691659999999231
 51
270.30834000000078
  0
LINE
  5
9AA0
  8
AM_0
 10
74.875577693923944
 20
381.47448328755002
 30
0.0
 11
76.165557693923873
 21
389.96444328755013
 31
0.0
  0
LINE
  5
9AA1
  8
AM_0
 10
74.875577693923944
 20
380.12450328755
 30
0.0
 11
76.155547693923893
 21
388.13445328755
 31
0.0
  0
LINE
  5
9AA2
  8
AM_0
 10
74.875577693923944
 20
381.47448328755002
 30
0.0
 11
76.185577693923904
 21
390.85451328754999
 31
0.0
  0
LINE
  5
9AA3
  8
AM_0
 10
41.875577693923951
 20
389.43447328755002
 30
0.0
 11
41.875577693923951
 21
383.43447328755002
 31
0.0
  0
ARC
  5
9AA4
  8
AM_0
 10
21.374147593923901
 20
385.68447328754991
 30
0.0
 40
5.0
 50
89.999988999997569
 51
180.0
  0
ARC
  5
9AA5
  8
AM_0
 10
20.374147593923901
 20
386.68447328755002
 30
0.0
 40
9.0
 50
89.999988999997569
 51
179.99997999999781
  0
LINE
  5
9AA6
  8
AM_0
 10
19.375577693923951
 20
374.57546328754989
 30
0.0
 11
61.875577693923951
 21
374.57546328754989
 31
0.0
  0
LINE
  5
9AA7
  8
AM_0
 10
19.375577693923951
 20
364.32546328755001
 30
0.0
 11
61.875577693923951
 21
364.32546328755001
 31
0.0
  0
LINE
  5
9AA8
  8
AM_0
 10
18.875577693923951
 20
383.43447328755002
 30
0.0
 11
66.875577693923944
 21
383.43447328755002
 31
0.0
  0
LINE
  5
9AA9
  8
AM_0
 10
11.374147593923899
 20
335.68447328755002
 30
0.0
 11
10.375607693923939
 21
335.68447328755002
 31
0.0
  0
LINE
  5
9AAA
  8
AM_0
 10
11.374147593923899
 20
325.68447328755002
 30
0.0
 11
10.375607693923939
 21
325.68447328755002
 31
0.0
  0
LINE
  5
9AAB
  8
AM_0
 10
10.375607693923939
 20
325.68447328755002
 30
0.0
 11
10.375607693923939
 21
335.68447328755002
 31
0.0
  0
LINE
  5
9AAC
  8
AM_0
 10
16.875577693923951
 20
325.68447328755002
 30
0.0
 11
16.374147593923901
 21
325.68447328755002
 31
0.0
  0
LINE
  5
9AAD
  8
AM_0
 10
16.875577693923951
 20
335.68447328755002
 30
0.0
 11
16.374147593923901
 21
335.68447328755002
 31
0.0
  0
LINE
  5
9AAE
  8
AM_0
 10
18.075587693923861
 20
364.97549328755002
 30
0.0
 11
18.075587693923861
 21
374.17544328755002
 31
0.0
  0
LINE
  5
9AAF
  8
AM_0
 10
14.775607693923851
 20
368.07546328754989
 30
0.0
 11
14.775607693923851
 21
371.07546328755001
 31
0.0
  0
ARC
  5
9AB0
  8
AM_0
 10
17.77560769392386
 20
368.07546328754989
 30
0.0
 40
3.0
 50
180.00002000000191
 51
270.00001100000242
  0
LINE
  5
9AB1
  8
AM_0
 10
18.075587693923861
 20
364.97549328755002
 30
0.0
 11
19.375577693923951
 21
364.97549328755002
 31
0.0
  0
LINE
  5
9AB2
  8
AM_0
 10
17.77560769392386
 20
365.07546328755001
 30
0.0
 11
18.075587693923861
 21
365.07546328755001
 31
0.0
  0
LINE
  5
9AB3
  8
AM_0
 10
16.875577693923951
 20
373.9374032875499
 30
0.0
 11
16.875577693923951
 21
381.43447328755002
 31
0.0
  0
LINE
  5
9AB4
  8
AM_0
 10
16.374147593923901
 20
373.72799219184259
 30
0.0
 11
16.374147593923901
 21
385.68447328754991
 31
0.0
  0
ARC
  5
9AB5
  8
AM_0
 10
17.77560769392386
 20
371.07546328755001
 30
0.0
 40
3.0
 50
90.000049999998538
 51
180.00002000000191
  0
LINE
  5
9AB6
  8
AM_0
 10
18.075587693923861
 20
374.17544328755002
 30
0.0
 11
19.375577693923951
 21
374.17544328755002
 31
0.0
  0
LINE
  5
9AB7
  8
AM_0
 10
17.77560769392386
 20
374.07546328754989
 30
0.0
 11
18.075587693923861
 21
374.07546328754989
 31
0.0
  0
ARC
  5
9AB8
  8
AM_0
 10
18.875577693923951
 20
381.43447328755002
 30
0.0
 40
2.0
 50
90.000049999998538
 51
180.00002000000191
  0
POLYLINE
  5
9AB9
  8
AM_0
 66
     1
 10
0.0
 20
0.0
 30
0.0
  0
VERTEX
  5
9ABA
  8
AM_0
 10
77.753817693923963
 20
347.02504328754998
 30
0.0
 42
-0.0007337051
  0
VERTEX
  5
9ABB
  8
AM_0
 10
77.797957693923934
 20
347.62746328754997
 30
0.0
 42
-0.00075211323
  0
VERTEX
  5
9ABC
  8
AM_0
 10
77.843897693923907
 20
348.2298532875501
 30
0.0
 42
-0.0007297491
  0
VERTEX
  5
9ABD
  8
AM_0
 10
77.891627693923894
 20
348.83205328755002
 30
0.0
 42
-0.00073593041
  0
VERTEX
  5
9ABE
  8
AM_0
 10
77.941107693923925
 20
349.43404328755003
 30
0.0
 42
-0.00074742739
  0
VERTEX
  5
9ABF
  8
AM_0
 10
77.99237769392397
 20
350.03591328754987
 30
0.0
 42
-0.00073217363
  0
VERTEX
  5
9AC0
  8
AM_0
 10
78.045437693923944
 20
350.63771328755001
 30
0.0
 42
-0.00073754168
  0
VERTEX
  5
9AC1
  8
AM_0
 10
78.100257693923893
 20
351.2392532875499
 30
0.0
 42
-0.00073075073
  0
VERTEX
  5
9AC2
  8
AM_0
 10
78.156837693923947
 20
351.84061328755001
 30
0.0
 42
-0.00074550816
  0
VERTEX
  5
9AC3
  8
AM_0
 10
78.215177693923849
 20
352.44167328754997
 30
0.0
 42
-0.00074288416
  0
VERTEX
  5
9AC4
  8
AM_0
 10
78.27532769392387
 20
353.04269328754998
 30
0.0
 42
-0.00072504001
  0
VERTEX
  5
9AC5
  8
AM_0
 10
78.337237693923896
 20
353.6434432875501
 30
0.0
 42
-0.00074640667
  0
VERTEX
  5
9AC6
  8
AM_0
 10
78.40090769392387
 20
354.24404328755003
 30
0.0
  0
SEQEND
  5
9AC7
  8
AM_0
  0
ARC
  5
9AC8
  8
AM_0
 10
77.420197693923953
 20
335.68447328755002
 30
0.0
 40
1.000013899999999
 50
89.691659999999231
 51
270.30834000000078
  0
ARC
  5
9AC9
  8
AM_0
 10
76.139737693923905
 20
335.68947328755002
 30
0.0
 40
1.2650129999999991
 50
89.735579000001735
 51
270.26441000000239
  0
POLYLINE
  5
9ACA
  8
AM_0
 66
     1
 10
0.0
 20
0.0
 30
0.0
  0
VERTEX
  5
9ACB
  8
AM_0
 10
77.235567693923983
 20
330.68447328755002
 30
0.0
 42
0.00039106589
  0
VERTEX
  5
9ACC
  8
AM_0
 10
77.233207693923944
 20
330.37333328755
 30
0.0
 42
0.00035488584
  0
VERTEX
  5
9ACD
  8
AM_0
 10
77.231317693923927
 20
330.06222328755001
 30
0.0
 42
0.00039705232
  0
VERTEX
  5
9ACE
  8
AM_0
 10
77.229887693923899
 20
329.75112328755
 30
0.0
 42
0.0003876649
  0
VERTEX
  5
9ACF
  8
AM_0
 10
77.22895769392386
 20
329.43998328754998
 30
0.0
 42
0.00040613779
  0
VERTEX
  5
9AD0
  8
AM_0
 10
77.228507693923873
 20
329.12887328754999
 30
0.0
 42
0.00035571855
  0
VERTEX
  5
9AD1
  8
AM_0
 10
77.228547693923986
 20
328.81777328754998
 30
0.0
 42
0.00038547358
  0
VERTEX
  5
9AD2
  8
AM_0
 10
77.229037693923871
 20
328.50663328755002
 30
0.0
 42
0.000355015
  0
VERTEX
  5
9AD3
  8
AM_0
 10
77.229997693923963
 20
328.19553328755012
 30
0.0
 42
0.00040118616
  0
VERTEX
  5
9AD4
  8
AM_0
 10
77.231417693923902
 20
327.88430328755021
 30
0.0
 42
0.00038319867
  0
VERTEX
  5
9AD5
  8
AM_0
 10
77.233327693923954
 20
327.57316328755002
 30
0.0
 42
0.00035656356
  0
VERTEX
  5
9AD6
  8
AM_0
 10
77.235707693923871
 20
327.26193328754999
 30
0.0
 42
0.00040140992
  0
VERTEX
  5
9AD7
  8
AM_0
 10
77.238557693923951
 20
326.95082328755001
 30
0.0
  0
SEQEND
  5
9AD8
  8
AM_0
  0
ARC
  5
9AD9
  8
AM_0
 10
76.139737693923905
 20
325.68447328755002
 30
0.0
 40
1.2700129999999981
 50
89.736617000001587
 51
270.2633699999991
  0
ARC
  5
9ADA
  8
AM_0
 10
77.420197693923953
 20
325.68447328755002
 30
0.0
 40
1.000013899999999
 50
89.691659999999231
 51
270.30834000000078
  0
POLYLINE
  5
9ADB
  8
AM_0
 66
     1
 10
0.0
 20
0.0
 30
0.0
  0
VERTEX
  5
9ADC
  8
AM_0
 10
77.235567693923983
 20
330.68447328755002
 30
0.0
 42
-0.00039106649
  0
VERTEX
  5
9ADD
  8
AM_0
 10
77.233207693923944
 20
330.99560328755013
 30
0.0
 42
-0.00035488198
  0
VERTEX
  5
9ADE
  8
AM_0
 10
77.231317693923927
 20
331.30671328755
 30
0.0
 42
-0.00039706113
  0
VERTEX
  5
9ADF
  8
AM_0
 10
77.229887693923899
 20
331.61782328754998
 30
0.0
 42
-0.00038765718
  0
VERTEX
  5
9AE0
  8
AM_0
 10
77.22895769392386
 20
331.92896328755012
 30
0.0
 42
-0.00040613432
  0
VERTEX
  5
9AE1
  8
AM_0
 10
77.228507693923873
 20
332.24006328755002
 30
0.0
 42
-0.00035573434
  0
VERTEX
  5
9AE2
  8
AM_0
 10
77.228547693923986
 20
332.55117328755011
 30
0.0
 42
-0.00038545884
  0
VERTEX
  5
9AE3
  8
AM_0
 10
77.229037693923871
 20
332.86230328754999
 30
0.0
 42
-0.00035501205
  0
VERTEX
  5
9AE4
  8
AM_0
 10
77.229997693923963
 20
333.17341328754998
 30
0.0
 42
-0.00040120779
  0
VERTEX
  5
9AE5
  8
AM_0
 10
77.231417693923902
 20
333.48464328755
 30
0.0
 42
-0.00038317817
  0
VERTEX
  5
9AE6
  8
AM_0
 10
77.233327693923954
 20
333.79577328755011
 30
0.0
 42
-0.00035656084
  0
VERTEX
  5
9AE7
  8
AM_0
 10
77.235707693923871
 20
334.1070132875501
 30
0.0
 42
-0.00040143615
  0
VERTEX
  5
9AE8
  8
AM_0
 10
77.238557693923951
 20
334.41811328755
 30
0.0
  0
SEQEND
  5
9AE9
  8
AM_0
  0
ARC
  5
9AEA
  8
AM_0
 10
76.205597693923949
 20
345.69448328754999
 30
0.0
 40
1.3300049999999981
 50
90.00000299999769
 51
270.0
  0
POLYLINE
  5
9AEB
  8
AM_0
 66
     1
 10
0.0
 20
0.0
 30
0.0
  0
VERTEX
  5
9AEC
  8
AM_0
 10
77.279627693923942
 20
336.95485328755001
 30
0.0
 42
-0.00076691992
  0
VERTEX
  5
9AED
  8
AM_0
 10
77.294427693923851
 20
337.57262328755002
 30
0.0
 42
-0.00073262792
  0
VERTEX
  5
9AEE
  8
AM_0
 10
77.311067693923903
 20
338.19021328755002
 30
0.0
 42
-0.00076529537
  0
VERTEX
  5
9AEF
  8
AM_0
 10
77.329557693923846
 20
338.80788328755
 30
0.0
 42
-0.00075141097
  0
VERTEX
  5
9AF0
  8
AM_0
 10
77.349927693923902
 20
339.42548328754998
 30
0.0
 42
-0.00075841687
  0
VERTEX
  5
9AF1
  8
AM_0
 10
77.372157693923953
 20
340.04291328754999
 30
0.0
 42
-0.00075711788
  0
VERTEX
  5
9AF2
  8
AM_0
 10
77.396267693923903
 20
340.66042328754997
 30
0.0
 42
-0.00075976003
  0
VERTEX
  5
9AF3
  8
AM_0
 10
77.422257693923868
 20
341.27781328754998
 30
0.0
 42
-0.00075797311
  0
VERTEX
  5
9AF4
  8
AM_0
 10
77.450097693923965
 20
341.89509328755003
 30
0.0
 42
-0.0007482613
  0
VERTEX
  5
9AF5
  8
AM_0
 10
77.479827693923923
 20
342.51247328754999
 30
0.0
 42
-0.00074893561
  0
VERTEX
  5
9AF6
  8
AM_0
 10
77.511387693923822
 20
343.12960328755003
 30
0.0
 42
-0.00076039839
  0
VERTEX
  5
9AF7
  8
AM_0
 10
77.544807693923943
 20
343.74663328755003
 30
0.0
 42
-0.00075618786
  0
VERTEX
  5
9AF8
  8
AM_0
 10
77.580107693923935
 20
344.36367328755
 30
0.0
  0
SEQEND
  5
9AF9
  8
AM_0
  0
ARC
  5
9AFA
  8
AM_0
 10
77.420197693923953
 20
345.68447328755002
 30
0.0
 40
1.000013899999999
 50
89.691659999999231
 51
270.30834000000078
  0
LINE
  5
9AFB
  8
AM_0
 10
66.875577693923944
 20
383.68447328754991
 30
0.0
 11
74.875577693923944
 21
383.68447328754991
 31
0.0
  0
LINE
  5
9AFC
  8
AM_0
 10
67.57558769392385
 20
373.87441328755
 30
0.0
 11
73.805567693923948
 21
373.87441328755
 31
0.0
  0
LINE
  5
9AFD
  8
AM_0
 10
61.875577693923951
 20
374.57546328754989
 30
0.0
 11
61.875577693923951
 21
383.43447328755002
 31
0.0
  0
LINE
  5
9AFE
  8
AM_0
 10
80.235567693923969
 20
367.33446328755002
 30
0.0
 11
74.875577693923944
 21
378.78444328755
 31
0.0
  0
POLYLINE
  5
9AFF
  8
AM_0
 66
     1
 10
0.0
 20
0.0
 30
0.0
  0
VERTEX
  5
9B00
  8
AM_0
 10
78.736477693923973
 20
357.16750328755001
 30
0.0
 42
-0.00068898288
  0
VERTEX
  5
9B01
  8
AM_0
 10
78.807357693923819
 20
357.74225328755
 30
0.0
 42
-0.00070644354
  0
VERTEX
  5
9B02
  8
AM_0
 10
78.879857693923952
 20
358.31694328755009
 30
0.0
 42
-0.00069248071
  0
VERTEX
  5
9B03
  8
AM_0
 10
78.953947693923908
 20
358.89125328755
 30
0.0
 42
-0.00069585665
  0
VERTEX
  5
9B04
  8
AM_0
 10
79.029627693923942
 20
359.46539328755
 30
0.0
 42
-0.00068980191
  0
VERTEX
  5
9B05
  8
AM_0
 10
79.106927693923851
 20
360.0393932875499
 30
0.0
 42
-0.00072080104
  0
VERTEX
  5
9B06
  8
AM_0
 10
79.185817693923994
 20
360.61318328754999
 30
0.0
 42
-0.00071002307
  0
VERTEX
  5
9B07
  8
AM_0
 10
79.266357693923894
 20
361.18665328754997
 30
0.0
 42
-0.00072659056
  0
VERTEX
  5
9B08
  8
AM_0
 10
79.348517693923952
 20
361.7597532875501
 30
0.0
 42
-0.00069570481
  0
VERTEX
  5
9B09
  8
AM_0
 10
79.432337693923898
 20
362.33278328755011
 30
0.0
 42
-0.00071266935
  0
VERTEX
  5
9B0A
  8
AM_0
 10
79.517767693923986
 20
362.90555328755011
 30
0.0
 42
-0.00071614426
  0
VERTEX
  5
9B0B
  8
AM_0
 10
79.604797693923899
 20
363.47789328754999
 30
0.0
 42
-0.00072288975
  0
VERTEX
  5
9B0C
  8
AM_0
 10
79.693507693923891
 20
364.05019328754997
 30
0.0
  0
SEQEND
  5
9B0D
  8
AM_0
  0
ARC
  5
9B0E
  8
AM_0
 10
77.420197693923953
 20
355.68447328755002
 30
0.0
 40
1.000013899999999
 50
89.691659999999231
 51
270.30834000000078
  0
ARC
  5
9B0F
  8
AM_0
 10
76.335597693923944
 20
355.70949328755012
 30
0.0
 40
1.465004
 50
90.00000299999769
 51
270.0
  0
ARC
  5
9B10
  8
AM_0
 10
76.548187693923921
 20
365.72951328754999
 30
0.0
 40
1.6750160000000001
 50
89.746145000004447
 51
270.25387000000092
  0
ARC
  5
9B11
  8
AM_0
 10
77.420197693923953
 20
365.68447328755002
 30
0.0
 40
1.000013899999999
 50
89.691659999999231
 51
270.30834000000078
  0
LINE
  5
9B12
  8
AM_0
 10
74.875577693923944
 20
378.78450328755002
 30
0.0
 11
76.115567693923992
 21
385.3444732875501
 31
0.0
  0
ARC
  5
9B13
  8
AM_0
 10
78.074307693923885
 20
384.9703632875499
 30
0.0
 40
1.994108999999999
 50
89.675548000002749
 51
169.18776999999869
  0
LINE
  5
9B14
  8
AM_0
 10
20.374147593923901
 20
395.68447328755002
 30
0.0
 11
57.875577693923958
 21
395.68447328755002
 31
0.0
  0
LINE
  5
9B15
  8
AM_0
 10
41.875577693923951
 20
389.43447328755002
 30
0.0
 11
66.875577693923944
 21
389.43447328755002
 31
0.0
  0
LINE
  5
9B16
  8
AM_0
 10
21.374147593923901
 20
390.68447328755002
 30
0.0
 11
44.875577693923937
 21
390.68447328755002
 31
0.0
  0
LINE
  5
9B17
  8
AM_0
 10
44.875577693923937
 20
389.43447328755002
 30
0.0
 11
44.875577693923937
 21
395.68447328755002
 31
0.0
  0
LINE
  5
9B18
  8
AM_0
 10
54.875577693923951
 20
390.68447328755002
 30
0.0
 11
57.875577693923958
 21
390.68447328755002
 31
0.0
  0
LINE
  5
9B19
  8
AM_0
 10
54.875577693923951
 20
389.43447328755002
 30
0.0
 11
54.875577693923951
 21
395.68447328755002
 31
0.0
  0
LINE
  5
9B1A
  8
AM_0
 10
57.875577693923958
 20
390.68447328755002
 30
0.0
 11
57.875577693923958
 21
395.68447328755002
 31
0.0
  0
ARC
  5
9B1B
  8
AM_0
 10
78.162077693923891
 20
390.5788832875499
 30
0.0
 40
1.995633
 50
89.899708000002292
 51
172.06112999999959
  0
ARC
  5
9B1C
  8
AM_0
 10
78.125827693923895
 20
387.81923328754982
 30
0.0
 40
1.995282999999999
 50
90.006203999996856
 51
170.90835000000069
  0
ARC
  5
9B1D
  8
AM_0
 10
78.140167693923956
 20
389.66774328755002
 30
0.0
 40
1.9967330000000001
 50
89.843966999998912
 51
171.45387999999721
  0
LINE
  5
9B1E
  8
AM_0
 10
182.8755776939239
 20
386.68447328755002
 30
0.0
 11
182.8755776939239
 21
274.68447328755008
 31
0.0
  0
ARC
  5
9B1F
  8
AM_0
 10
182.5287776939239
 20
290.96169328755002
 30
0.0
 40
1.502775999999999
 50
90.122413000001615
 51
165.2435700000006
  0
LINE
  5
9B20
  8
AM_0
 10
177.41762769392381
 20
277.68447328755002
 30
0.0
 11
182.8755776939239
 21
277.68447328755002
 31
0.0
  0
LINE
  5
9B21
  8
AM_0
 10
181.8755776939239
 20
277.68444328754998
 30
0.0
 11
176.14977769392391
 21
268.86748328754999
 31
0.0
  0
LINE
  5
9B22
  8
AM_0
 10
154.65286639134979
 20
244.06959977052199
 30
0.0
 11
154.65286639134979
 21
261.18447328755002
 31
0.0
  0
LINE
  5
9B23
  8
AM_0
 10
169.6528663913499
 20
244.18447328754999
 30
0.0
 11
169.6528663913499
 21
260.18447328755002
 31
0.0
  0
LINE
  5
9B24
  8
AM_0
 10
143.2911563074108
 20
256.18447328755002
 30
0.0
 11
143.2911563074108
 21
242.13379071297001
 31
0.0
  0
LINE
  5
9B25
  8
AM_0
 10
132.18109417097881
 20
256.18447328755002
 30
0.0
 11
132.18109417097881
 21
240.2408574525042
 31
0.0
  0
LINE
  5
9B26
  8
AM_0
 10
133.6810941709787
 20
240.4964275704591
 30
0.0
 11
133.6810941709787
 21
256.18447328755002
 31
0.0
  0
LINE
  5
9B27
  8
AM_0
 10
135.8844482164568
 20
256.18447328755002
 30
0.0
 11
135.8844482164568
 21
240.87183520599299
 31
0.0
  0
LINE
  5
9B28
  8
AM_0
 10
137.3844482164568
 20
241.12740532394801
 30
0.0
 11
137.3844482164568
 21
256.18447328755002
 31
0.0
  0
LINE
  5
9B29
  8
AM_0
 10
139.58780226193389
 20
256.18447328755002
 30
0.0
 11
139.58780226193389
 21
241.50281295948091
 31
0.0
  0
LINE
  5
9B2A
  8
AM_0
 10
141.08780226193389
 20
241.75838307743709
 30
0.0
 11
141.08780226193389
 21
256.18447328755002
 31
0.0
  0
LINE
  5
9B2B
  8
AM_0
 10
126.2743860800238
 20
239.23447206348109
 30
0.0
 11
126.2743860800238
 21
256.18447328755002
 31
0.0
  0
LINE
  5
9B2C
  8
AM_0
 10
128.4777401255019
 20
256.18447328755002
 30
0.0
 11
128.4777401255019
 21
239.6098796990151
 31
0.0
  0
LINE
  5
9B2D
  8
AM_0
 10
118.8743860800238
 20
237.97365948156809
 30
0.0
 11
118.8743860800238
 21
256.18447328755121
 31
0.0
  0
LINE
  5
9B2E
  8
AM_0
 10
121.0743860800238
 20
256.18447328755002
 30
0.0
 11
121.07438608002479
 21
238.34849565456901
 31
0.0
  0
LINE
  5
9B2F
  8
AM_0
 10
122.5743860800238
 20
238.6040657725251
 30
0.0
 11
122.5743860800238
 21
256.18447328755002
 31
0.0
  0
LINE
  5
9B30
  8
AM_0
 10
124.7743860800238
 20
256.18447328755002
 30
0.0
 11
124.7743860800238
 21
238.97890194552599
 31
0.0
  0
LINE
  5
9B31
  8
AM_0
 10
144.79115630741069
 20
242.38936083092591
 30
0.0
 11
144.79115630741069
 21
256.18447328755002
 31
0.0
  0
LINE
  5
9B32
  8
AM_0
 10
116.8743860800238
 20
253.47309710835211
 30
0.0
 11
116.8743860800238
 21
237.6328993242941
 31
0.0
  0
LINE
  5
9B33
  8
AM_0
 10
130.47774012550479
 20
239.950639856289
 30
0.0
 11
130.47774012550479
 21
253.47309710835211
 31
0.0
  0
LINE
  5
9B34
  8
ﾁｭｳｼﾝｾﾝ
 10
97.477740125502933
 20
256.18448828754998
 30
0.0
 11
97.477740125502933
 21
232.1844882875501
 31
0.0
  0
LINE
  5
9B35
  8
AM_0
 10
106.7777401255028
 20
261.18447328755002
 30
0.0
 11
106.7777401255028
 21
244.18447328754999
 31
0.0
  0
CIRCLE
  5
9B36
  8
AM_0
 10
97.477740125502933
 20
244.18447328754999
 30
0.0
 40
6.299999999999998
  0
CIRCLE
  5
9B37
  8
AM_0
 10
111.9777401255029
 20
244.18447328754999
 30
0.0
 40
0.75
  0
LINE
  5
9B38
  8
AM_0
 10
122.5743860800238
 20
238.6040657725251
 30
0.0
 11
124.7743860800238
 21
238.97890194552599
 31
0.0
  0
LINE
  5
9B39
  8
AM_0
 10
118.8743860800238
 20
237.97365948156809
 30
0.0
 11
121.07438608002479
 21
238.34849565456901
 31
0.0
  0
LINE
  5
9B3A
  8
AM_0
 10
126.2743860800238
 20
239.23447206348109
 30
0.0
 11
128.4777401255019
 21
239.6098796990151
 31
0.0
  0
LINE
  5
9B3B
  8
AM_0
 10
133.6810941709787
 20
240.4964275704591
 30
0.0
 11
135.8844482164568
 21
240.87183520599299
 31
0.0
  0
LINE
  5
9B3C
  8
AM_0
 10
130.47774012550479
 20
239.950639856289
 30
0.0
 11
132.18109417097881
 21
240.2408574525042
 31
0.0
  0
LINE
  5
9B3D
  8
AM_0
 10
153.0078916445209
 20
227.18447328754999
 30
0.0
 11
153.0078916445209
 21
238.71996389001811
 31
0.0
  0
LINE
  5
9B3E
  8
AM_0
 10
144.79115630741069
 20
242.38936083092591
 30
0.0
 11
154.65286639134979
 21
244.06959977052199
 31
0.0
  0
LINE
  5
9B3F
  8
AM_0
 10
137.3844482164568
 20
241.12740532394801
 30
0.0
 11
139.58780226193389
 21
241.50281295948091
 31
0.0
  0
LINE
  5
9B40
  8
AM_0
 10
141.08780226193389
 20
241.75838307743709
 30
0.0
 11
143.2911563074108
 21
242.13379071297001
 31
0.0
  0
CIRCLE
  5
9B41
  8
AM_0
 10
146.47774012550281
 20
244.18447328754999
 30
0.0
 40
0.75
  0
LINE
  5
9B42
  8
AM_0
 10
153.87774012550389
 20
238.8702680602531
 30
0.0
 11
153.87774012550389
 21
242.92366070563691
 31
0.0
  0
LINE
  5
9B43
  8
AM_0
 10
163.27774012550381
 20
239.68447328754999
 30
0.0
 11
163.27774012550381
 21
229.68447328754999
 31
0.0
  0
ARC
  5
9B44
  8
AM_0
 10
160.77774012550381
 20
229.68447328754999
 30
0.0
 40
2.5
 50
270.0
 51
0.0
  0
LINE
  5
9B45
  8
AM_0
 10
169.6528663913499
 20
244.18447328754999
 30
0.0
 11
169.6528663913499
 21
240.68447328754999
 31
0.0
  0
LINE
  5
9B46
  8
AM_0
 10
163.77774012550381
 20
240.18447328754999
 30
0.0
 11
169.1528663913499
 21
240.18447328754999
 31
0.0
  0
ARC
  5
9B47
  8
AM_0
 10
163.77774012550381
 20
239.68447328754999
 30
0.0
 40
0.5
 50
90.0
 51
180.0
  0
LINE
  5
9B48
  8
AM_0
 10
163.77774012550381
 20
240.18447328754999
 30
0.0
 11
161.60343526234379
 21
240.18447328754999
 31
0.0
  0
ARC
  5
9B49
  8
AM_0
 10
169.1528663913499
 20
240.68447328754999
 30
0.0
 40
0.5
 50
270.0
 51
0.0
  0
LINE
  5
9B4A
  8
AM_0
 10
169.6528663913499
 20
244.18447328754999
 30
0.0
 11
161.27774012550279
 21
244.18447328754999
 31
0.0
  0
LINE
  5
9B4B
  8
AM_0
 10
176.21560769392389
 20
296.68447328755002
 30
0.0
 11
131.8755776939239
 21
296.68447328755002
 31
0.0
  0
LINE
  5
9B4C
  8
AM_0
 10
176.21560769392389
 20
294.68447328755002
 30
0.0
 11
131.8755776939239
 21
294.68447328755002
 31
0.0
  0
LINE
  5
9B4D
  8
AM_0
 10
137.3844482164568
 20
252.18447328754999
 30
0.0
 11
135.8844482164568
 21
252.18447328754999
 31
0.0
  0
LINE
  5
9B4E
  8
AM_0
 10
137.3844482164568
 20
256.18447328755002
 30
0.0
 11
135.8844482164568
 21
256.18447328755002
 31
0.0
  0
LINE
  5
9B4F
  8
AM_0
 10
165.3755776939239
 20
263.68447328755002
 30
0.0
 11
98.375577693923944
 21
263.68447328755002
 31
0.0
  0
LINE
  5
9B50
  8
AM_0
 10
150.77774012550279
 20
261.18447328755002
 30
0.0
 11
112.9777401255029
 21
261.18447328755002
 31
0.0
  0
LINE
  5
9B51
  8
AM_0
 10
131.8755776939239
 20
293.96450328754992
 30
0.0
 11
179.69558769392381
 21
293.96450328754992
 31
0.0
  0
LINE
  5
9B52
  8
AM_0
 10
101.875517693924
 20
263.68444328754998
 30
0.0
 11
101.5948535065849
 21
274.4044432875499
 31
0.0
  0
LINE
  5
9B53
  8
AM_0
 10
98.375577693923944
 20
261.18447328755002
 30
0.0
 11
98.375577693923944
 21
263.68447328755002
 31
0.0
  0
LINE
  5
9B54
  8
AM_0
 10
112.9777401255029
 20
261.18447328755002
 30
0.0
 11
106.7777401255028
 21
261.18447328755002
 31
0.0
  0
LINE
  5
9B55
  8
AM_0
 10
105.7777401255028
 20
261.18447328755002
 30
0.0
 11
106.7777401255028
 21
261.18447328755002
 31
0.0
  0
ARC
  5
9B56
  8
AM_0
 10
100.2082278925907
 20
270.05446328755011
 30
0.0
 40
1.5
 50
1.499738863867264
 51
90.0
1001
GENIUS_GENODEF_13
1002
{
1000
HIER
1070
     0
1002
}
1002
{
1000
MANEDIT
1070
     0
1002
}
1002
{
1000
NOSEL
1070
     0
1002
}
1002
{
1000
BEHIND
1070
     0
1002
}
1002
{
1000
REACTOR
1002
}
1001
GENIUS_GENOBJ-N-FIL_13
1002
{
1000
OWNER
1000
GEN
1002
}
  0
LINE
  5
9B57
  8
AM_0
 10
117.5743860800238
 20
256.18447328755002
 30
0.0
 11
117.5743860800238
 21
254.1404491649561
 31
0.0
  0
LINE
  5
9B58
  8
AM_0
 10
118.8743860800238
 20
256.18447328755121
 30
0.0
 11
117.5743860800238
 21
256.18447328755002
 31
0.0
  0
LINE
  5
9B59
  8
AM_0
 10
118.8743860800238
 20
252.18447328754999
 30
0.0
 11
116.8743860800238
 21
252.18447328754999
 31
0.0
  0
LINE
  5
9B5A
  8
AM_0
 10
117.5743860800238
 20
254.1404491649561
 30
0.0
 11
116.8743860800238
 21
253.47309710835211
 31
0.0
  0
LINE
  5
9B5B
  8
AM_0
 10
122.5743860800238
 20
252.18447328754999
 30
0.0
 11
121.0743860800238
 21
252.18447328754999
 31
0.0
  0
LINE
  5
9B5C
  8
AM_0
 10
122.5743860800238
 20
256.18447328755002
 30
0.0
 11
121.0743860800238
 21
256.18447328755002
 31
0.0
  0
LINE
  5
9B5D
  8
AM_0
 10
130.47774012550479
 20
253.47309710835211
 30
0.0
 11
129.77774012550179
 21
254.1404491649561
 31
0.0
  0
LINE
  5
9B5E
  8
AM_0
 10
130.47774012550479
 20
252.18447328754999
 30
0.0
 11
128.4777401255019
 21
252.18447328754999
 31
0.0
  0
LINE
  5
9B5F
  8
AM_0
 10
129.77774012550179
 20
254.1404491649561
 30
0.0
 11
129.77774012550179
 21
256.18447328755002
 31
0.0
  0
LINE
  5
9B60
  8
AM_0
 10
126.2743860800238
 20
252.18447328754999
 30
0.0
 11
124.7743860800238
 21
252.18447328754999
 31
0.0
  0
LINE
  5
9B61
  8
AM_0
 10
126.2743860800238
 20
256.18447328755002
 30
0.0
 11
124.7743860800238
 21
256.18447328755002
 31
0.0
  0
LINE
  5
9B62
  8
AM_0
 10
129.77774012550179
 20
256.18447328755002
 30
0.0
 11
128.4777401255019
 21
256.18447328755002
 31
0.0
  0
LINE
  5
9B63
  8
AM_0
 10
133.6810941709787
 20
252.18447328754999
 30
0.0
 11
132.18109417097881
 21
252.18447328754999
 31
0.0
  0
LINE
  5
9B64
  8
AM_0
 10
133.6810941709787
 20
256.18447328755002
 30
0.0
 11
132.18109417097881
 21
256.18447328755002
 31
0.0
  0
ARC
  5
9B65
  8
AM_0
 10
112.5405576939238
 20
315.67446328755011
 30
0.0
 40
1.3300148000000001
 50
269.72941999999853
 51
90.270567000000995
  0
ARC
  5
9B66
  8
AM_0
 10
111.3142976939239
 20
315.68447328755002
 30
0.0
 40
1.0000056999999991
 50
269.999989999999
 51
90.00000299999769
  0
LINE
  5
9B67
  8
AM_0
 10
181.08126769392391
 20
291.36553328755002
 30
0.0
 11
176.93551769392391
 21
275.88442328755002
 31
0.0
  0
LINE
  5
9B68
  8
AM_0
 10
168.6528663913499
 20
261.18447328755002
 30
0.0
 11
157.97774012550289
 21
261.18447328755002
 31
0.0
  0
LINE
  5
9B69
  8
AM_0
 10
141.08780226193389
 20
252.18447328754999
 30
0.0
 11
139.58780226193389
 21
252.18447328754999
 31
0.0
  0
LINE
  5
9B6A
  8
AM_0
 10
141.08780226193389
 20
256.18447328755002
 30
0.0
 11
139.58780226193389
 21
256.18447328755002
 31
0.0
  0
LINE
  5
9B6B
  8
AM_0
 10
144.79115630741069
 20
252.18447328754999
 30
0.0
 11
143.2911563074108
 21
252.18447328754999
 31
0.0
  0
LINE
  5
9B6C
  8
AM_0
 10
144.79115630741069
 20
256.18447328755002
 30
0.0
 11
143.2911563074108
 21
256.18447328755002
 31
0.0
  0
LINE
  5
9B6D
  8
AM_0
 10
157.97774012550289
 20
261.18447328755002
 30
0.0
 11
150.77774012550279
 21
261.18447328755002
 31
0.0
  0
LINE
  5
9B6E
  8
AM_0
 10
161.8755776939239
 20
263.68441328754989
 30
0.0
 11
162.1563168169871
 21
274.40444328755001
 31
0.0
  0
ARC
  5
9B6F
  8
AM_0
 10
163.45465837970889
 20
266.68447328755002
 30
0.0
 40
1.5
 50
90.0
 51
178.4998650936468
1001
GENIUS_GENODEF_13
1002
{
1000
HIER
1070
     0
1002
}
1002
{
1000
MANEDIT
1070
     0
1002
}
1002
{
1000
NOSEL
1070
     0
1002
}
1002
{
1000
BEHIND
1070
     0
1002
}
1002
{
1000
REACTOR
1002
}
1001
GENIUS_GENOBJ-N-FIL_13
1002
{
1000
OWNER
1000
GEN
1002
}
  0
LINE
  5
9B70
  8
AM_0
 10
165.3755776939239
 20
261.18447328755002
 30
0.0
 11
165.3755776939239
 21
263.68447328755002
 31
0.0
  0
ARC
  5
9B71
  8
AM_0
 10
168.6528663913499
 20
260.18447328755002
 30
0.0
 40
1.0
 50
0.0
 51
90.0
  0
LINE
  5
9B72
  8
AM_0
 10
163.45465837970889
 20
268.18447328755002
 30
0.0
 11
174.89175769392381
 21
268.18447328755002
 31
0.0
  0
ARC
  5
9B73
  8
AM_0
 10
175.0007576939239
 20
276.4092032875501
 30
0.0
 40
2.0047290000000002
 50
270.13832000000423
 51
344.82650000000177
  0
ARC
  5
9B74
  8
AM_0
 10
174.89175769392381
 20
269.68447328755002
 30
0.0
 40
1.5
 50
269.999989999999
 51
326.99999999999801
  0
LINE
  5
9B75
  8
AM_0
 10
145.3755776939239
 20
303.18447328755002
 30
0.0
 11
145.3755776939239
 21
298.18447328755002
 31
0.0
  0
CIRCLE
  5
9B76
  8
AM_0
 10
150.3755776939239
 20
302.18447328755002
 30
0.0
 40
1.149999999999999
  0
CIRCLE
  5
9B77
  8
AM_0
 10
150.3755776939239
 20
302.18447328755002
 30
0.0
 40
1.1000000000000001
  0
CIRCLE
  5
9B78
  8
AM_0
 10
155.37557769392379
 20
302.18447328755002
 30
0.0
 40
1.0
  0
LINE
  5
9B79
  8
AM_0
 10
144.8955976939238
 20
303.18447328755002
 30
0.0
 11
144.8955976939238
 21
298.32448328755009
 31
0.0
  0
ARC
  5
9B7A
  8
AM_0
 10
143.8955976939238
 20
298.32448328755009
 30
0.0
 40
1.0
 50
269.999989999999
 51
0.0000006832495047
  0
ARC
  5
9B7B
  8
AM_0
 10
143.87557769392379
 20
298.18447328755002
 30
0.0
 40
1.5
 50
269.999989999999
 51
0.0000006832495047
  0
ARC
  5
9B7C
  8
AM_0
 10
143.87557769392379
 20
303.18447328755002
 30
0.0
 40
1.02
 50
0.0
 51
90.00000299999769
  0
ARC
  5
9B7D
  8
AM_0
 10
143.87557769392379
 20
303.18447328755002
 30
0.0
 40
1.5
 50
0.0
 51
90.00000299999769
  0
LINE
  5
9B7E
  8
AM_0
 10
160.85555769392391
 20
303.18447328755002
 30
0.0
 11
160.85555769392391
 21
298.32448328755009
 31
0.0
  0
LINE
  5
9B7F
  8
AM_0
 10
160.37557769392379
 20
303.18447328755002
 30
0.0
 11
160.37557769392379
 21
298.18447328755002
 31
0.0
  0
LINE
  5
9B80
  8
AM_0
 10
179.69558769392381
 20
297.31447328755002
 30
0.0
 11
161.85555769392391
 21
297.31447328755002
 31
0.0
  0
ARC
  5
9B81
  8
AM_0
 10
161.85555769392391
 20
298.32448328755009
 30
0.0
 40
1.0
 50
179.99998999999889
 51
270.0
  0
ARC
  5
9B82
  8
AM_0
 10
161.8755776939239
 20
298.18447328755002
 30
0.0
 40
1.5
 50
179.99998999999889
 51
270.0
  0
ARC
  5
9B83
  8
AM_0
 10
176.21560769392389
 20
295.68447328755002
 30
0.0
 40
1.0
 50
269.999989999999
 51
90.00000299999769
  0
ARC
  5
9B84
  8
AM_0
 10
179.69558769392381
 20
295.63942328755007
 30
0.0
 40
1.6750020000000001
 50
269.999989999999
 51
90.00000299999769
  0
LINE
  5
9B85
  8
AM_0
 10
176.20840769392379
 20
304.68447328755002
 30
0.0
 11
161.8755776939239
 21
304.68447328755002
 31
0.0
  0
LINE
  5
9B86
  8
AM_0
 10
161.8755776939239
 20
304.20449328755001
 30
0.0
 11
179.90981769392391
 21
304.20449328755001
 31
0.0
  0
ARC
  5
9B87
  8
AM_0
 10
161.8755776939239
 20
303.18447328755002
 30
0.0
 40
1.5
 50
90.00000299999769
 51
180.00001000000091
  0
ARC
  5
9B88
  8
AM_0
 10
161.8755776939239
 20
303.18447328755002
 30
0.0
 40
1.02
 50
90.00000299999769
 51
180.00001000000091
  0
ARC
  5
9B89
  8
AM_0
 10
176.2155476939239
 20
305.68447328755002
 30
0.0
 40
1.0000255999999981
 50
269.58947000000319
 51
90.410530999997775
  0
ARC
  5
9B8A
  8
AM_0
 10
179.91555769392389
 20
305.65444328755001
 30
0.0
 40
1.460011199999999
 50
269.77524999999662
 51
90.224749999996845
  0
LINE
  5
9B8B
  8
AM_0
 10
182.8755776939239
 20
274.68447328755008
 30
0.0
 11
190.8755776939239
 21
274.68447328755008
 31
0.0
  0
LINE
  5
9B8C
  8
AM_0
 10
182.8755776939239
 20
284.68447328755002
 30
0.0
 11
190.8755776939239
 21
284.68447328755002
 31
0.0
  0
LINE
  5
9B8D
  8
AM_0
 10
182.8755776939239
 20
298.74453328754998
 30
0.0
 11
190.8755776939239
 21
298.74453328754998
 31
0.0
  0
LINE
  5
9B8E
  8
AM_0
 10
177.41555769392389
 20
383.68447328754991
 30
0.0
 11
182.8755776939239
 21
383.68447328754991
 31
0.0
  0
ARC
  5
9B8F
  8
AM_0
 10
182.5287776939239
 20
376.01723328755003
 30
0.0
 40
1.502775999999999
 50
194.7564299999992
 51
269.8775799999986
  0
ARC
  5
9B90
  8
AM_0
 10
182.5287776939239
 20
373.25722328755012
 30
0.0
 40
1.502775999999999
 50
194.7564299999992
 51
269.8775799999986
  0
ARC
  5
9B91
  8
AM_0
 10
182.5287776939239
 20
370.40725328755008
 30
0.0
 40
1.502775999999999
 50
194.7564299999992
 51
269.8775799999986
  0
ARC
  5
9B92
  8
AM_0
 10
182.5287776939239
 20
375.10720328755002
 30
0.0
 40
1.502775999999999
 50
194.7564299999992
 51
269.8775799999986
  0
LINE
  5
9B93
  8
AM_0
 10
181.08129769392389
 20
372.8533232875501
 30
0.0
 11
176.9355776939239
 21
388.33446328755002
 31
0.0
  0
LINE
  5
9B94
  8
AM_0
 10
181.0813276939239
 20
375.61330328755002
 30
0.0
 11
176.9356076939238
 21
391.09441328755003
 31
0.0
  0
LINE
  5
9B95
  8
AM_0
 10
181.08129769392389
 20
374.70330328755
 30
0.0
 11
176.9355776939239
 21
390.18441328754977
 31
0.0
  0
ARC
  5
9B96
  8
AM_0
 10
112.6025076939238
 20
335.69448328754999
 30
0.0
 40
1.2700266
 50
269.62931999999989
 51
90.370670000004694
  0
ARC
  5
9B97
  8
AM_0
 10
112.6025076939238
 20
325.68447328755002
 30
0.0
 40
1.2700266
 50
269.62931999999989
 51
90.370670000004694
  0
ARC
  5
9B98
  8
AM_0
 10
112.5405576939238
 20
345.69948328754998
 30
0.0
 40
1.3350147999999991
 50
269.73042999999973
 51
90.269556000001344
  0
ARC
  5
9B99
  8
AM_0
 10
111.3142976939239
 20
335.68447328755002
 30
0.0
 40
1.0000056999999991
 50
269.999989999999
 51
90.00000299999769
  0
ARC
  5
9B9A
  8
AM_0
 10
111.3142976939239
 20
325.68447328755002
 30
0.0
 40
1.0000056999999991
 50
269.999989999999
 51
90.00000299999769
  0
ARC
  5
9B9B
  8
AM_0
 10
111.3142976939239
 20
345.68447328755002
 30
0.0
 40
1.0000056999999991
 50
269.999989999999
 51
90.00000299999769
  0
LINE
  5
9B9C
  8
AM_0
 10
145.3755776939239
 20
358.18447328755002
 30
0.0
 11
145.3755776939239
 21
363.18447328755002
 31
0.0
  0
LINE
  5
9B9D
  8
AM_0
 10
144.8955976939238
 20
358.18447328755002
 30
0.0
 11
144.8955976939238
 21
363.04445328755003
 31
0.0
  0
ARC
  5
9B9E
  8
AM_0
 10
143.87557769392379
 20
358.18447328755002
 30
0.0
 40
1.5
 50
269.999989999999
 51
0.0000006832495047
  0
ARC
  5
9B9F
  8
AM_0
 10
143.87557769392379
 20
358.18447328755002
 30
0.0
 40
1.02
 50
269.999989999999
 51
0.0000006832429909
  0
ARC
  5
9BA0
  8
AM_0
 10
143.8955976939238
 20
363.04445328755003
 30
0.0
 40
1.0
 50
0.0
 51
90.00000299999769
  0
ARC
  5
9BA1
  8
AM_0
 10
143.87557769392379
 20
363.18447328755002
 30
0.0
 40
1.5
 50
0.0
 51
90.00000299999769
  0
CIRCLE
  5
9BA2
  8
AM_0
 10
150.3755776939239
 20
359.18447328755002
 30
0.0
 40
1.1000000000000001
  0
CIRCLE
  5
9BA3
  8
AM_0
 10
150.3755776939239
 20
359.18447328755002
 30
0.0
 40
1.149999999999999
  0
CIRCLE
  5
9BA4
  8
AM_0
 10
155.37557769392379
 20
359.18447328755002
 30
0.0
 40
1.0
  0
LINE
  5
9BA5
  8
AM_0
 10
181.07558769392381
 20
370.02440328754989
 30
0.0
 11
176.9355776939239
 21
385.4844232875501
 31
0.0
  0
LINE
  5
9BA6
  8
AM_0
 10
176.22274769392391
 20
356.68447328754991
 30
0.0
 11
161.8755776939239
 21
356.68447328754991
 31
0.0
  0
LINE
  5
9BA7
  8
AM_0
 10
161.85555769392391
 20
364.04445328755003
 30
0.0
 11
179.69558769392381
 21
364.04445328755003
 31
0.0
  0
LINE
  5
9BA8
  8
AM_0
 10
161.8755776939239
 20
357.17446328755011
 30
0.0
 11
179.92123769392381
 21
357.17446328755011
 31
0.0
  0
LINE
  5
9BA9
  8
AM_0
 10
160.85555769392391
 20
358.18447328755002
 30
0.0
 11
160.85555769392391
 21
363.04445328755003
 31
0.0
  0
LINE
  5
9BAA
  8
AM_0
 10
160.37557769392379
 20
358.18447328755002
 30
0.0
 11
160.37557769392379
 21
363.18447328755002
 31
0.0
  0
ARC
  5
9BAB
  8
AM_0
 10
161.8755776939239
 20
358.18447328755002
 30
0.0
 40
1.5
 50
179.99998999999889
 51
270.0
  0
ARC
  5
9BAC
  8
AM_0
 10
161.8755776939239
 20
358.18447328755002
 30
0.0
 40
1.02
 50
179.99998999999889
 51
270.0
  0
ARC
  5
9BAD
  8
AM_0
 10
161.8755776939239
 20
363.18447328755002
 30
0.0
 40
1.5
 50
90.00000299999769
 51
180.00001000000091
  0
ARC
  5
9BAE
  8
AM_0
 10
161.85555769392391
 20
363.04445328755003
 30
0.0
 40
1.0
 50
90.00000299999769
 51
180.00001000000091
  0
ARC
  5
9BAF
  8
AM_0
 10
176.2155476939239
 20
355.68447328755002
 30
0.0
 40
1.0000255999999981
 50
269.58947000000319
 51
90.410530999997775
  0
ARC
  5
9BB0
  8
AM_0
 10
179.91555769392389
 20
355.71450328754997
 30
0.0
 40
1.460011199999999
 50
269.77524999999662
 51
90.224749999996845
  0
ARC
  5
9BB1
  8
AM_0
 10
176.21560769392389
 20
365.68447328755002
 30
0.0
 40
1.0
 50
269.999989999999
 51
90.00000299999769
  0
ARC
  5
9BB2
  8
AM_0
 10
179.69558769392381
 20
365.72951328754999
 30
0.0
 40
1.6750020000000001
 50
269.999989999999
 51
90.00000299999769
  0
ARC
  5
9BB3
  8
AM_0
 10
175.00564769392381
 20
384.96621328754998
 30
0.0
 40
1.9982919999999991
 50
15.032547999996
 51
90.002632000001341
  0
ARC
  5
9BB4
  8
AM_0
 10
175.0007576939239
 20
390.56972328755012
 30
0.0
 40
2.0047290000000002
 50
15.173495999996319
 51
89.861678000000197
  0
ARC
  5
9BB5
  8
AM_0
 10
175.0007576939239
 20
387.80971328754998
 30
0.0
 40
2.0047290000000002
 50
15.173495999996319
 51
89.861678000000197
  0
ARC
  5
9BB6
  8
AM_0
 10
175.0007576939239
 20
389.65969328755011
 30
0.0
 40
2.0047290000000002
 50
15.173495999996319
 51
89.861678000000197
  0
LINE
  5
9BB7
  8
AM_0
 10
182.8755776939239
 20
362.62441328755
 30
0.0
 11
190.8755776939239
 21
362.62441328755
 31
0.0
  0
LINE
  5
9BB8
  8
AM_0
 10
182.8755776939239
 20
376.68447328755008
 30
0.0
 11
190.8755776939239
 21
376.68447328755008
 31
0.0
  0
LINE
  5
9BB9
  8
AM_0
 10
182.8755776939239
 20
386.68447328755002
 30
0.0
 11
190.8755776939239
 21
386.68447328755002
 31
0.0
  0
ARC
  5
9BBD
  8
ﾁｭｳｼﾝｾﾝ
 10
486.80097537198282
 20
91.440648068184927
 30
0.0
 40
85.000001999999981
 50
128.2554201278306
 51
141.74456843285299
  0
LINE
  5
9BBE
  8
ﾁｭｳｼﾝｾﾝ
 10
433.7679899621873
 20
144.4736490346591
 30
0.0
 11
419.62585993997618
 21
158.61579025990179
 31
0.0
  0
ARC
  5
9BBF
  8
ﾁｭｳｼﾝｾﾝ
 10
486.80097537198282
 20
91.440648068184871
 30
0.0
 40
85.000001999999981
 50
218.2554201278306
 51
231.74456843285299
  0
LINE
  5
9BC0
  8
ﾁｭｳｼﾝｾﾝ
 10
433.76797440550843
 20
38.407662658389363
 30
0.0
 11
419.6258331802656
 21
24.265532636178332
 31
0.0
  0
ARC
  5
9BC1
  8
ﾁｭｳｼﾝｾﾝ
 10
486.80097537198282
 20
91.440648068184871
 30
0.0
 40
85.000001999999981
 50
308.25542012783052
 51
321.74456843285287
  0
LINE
  5
9BC2
  8
ﾁｭｳｼﾝｾﾝ
 10
539.83396078177827
 20
38.407647101710609
 30
0.0
 11
553.97609080398922
 21
24.265505876467842
 31
0.0
  0
TEXT
  5
A0E6
  8
0
  6
CONTINUOUS
 62
     0
 10
394.00684741595842
 20
309.52474962111762
 30
0.0
 40
10.0
  1
VX01-003BF~VX01-050BF
  7
STANDARD
  0
VIEWPORT
  5
89
 67
     1
  8
0
 10
210.0
 20
148.5
 30
0.0
 40
420.0
 41
297.0
 68
    -1
 69
     1
1001
ACAD
1000
MVIEW
1002
{
1070
    16
1010
0.0
1020
0.0
1030
0.0
1010
0.0
1020
0.0
1030
1.0
1040
0.0
1040
297.0
1040
221.70154043645701
1040
148.5
1040
50.0
1040
0.0
1040
0.0
1070
     0
1070
   100
1070
     1
1070
     1
1070
     0
1070
     0
1070
     0
1070
     0
1040
0.0
1040
0.0
1040
0.0
1040
10.0
1040
10.0
1040
10.0
1040
10.0
1070
     0
1002
{
1002
}
1002
}
1001
GENIUS_GENOREF_13
1005
1B94
1001
GENIUS_GENSCREG_15
1000
PF
1040
1.0
1000
DF
1040
1.0
1000
MIN
1011
0.0
1021
0.0
1031
0.0
1021
0.0
1031
0.0
1000
MAX
1011
420.0
1021
0.0
1031
0.0
1021
297.0
1031
0.0
1000
FLAGS
1070
     4
  0
ENDSEC
  0
EOF
