  0
SECTION
  2
HEADER
  9
$ACADVER
  1
AC1009
  9
$INSBASE
 10
0.0
 20
0.0
 30
0.0
  9
$EXTMIN
 10
4.5517638595929384
 20
-0.4508810431645998
 30
-0.0015258207003583
  9
$EXTMAX
 10
611.54584389426373
 20
420.62145717613311
 30
0.0000000349246037
  9
$LIMMIN
 10
0.0
 20
0.0
  9
$LIMMAX
 10
408.0
 20
284.0
  9
$ORTHOMODE
 70
     0
  9
$REGENMODE
 70
     1
  9
$FILLMODE
 70
     1
  9
$QTEXTMODE
 70
     0
  9
$MIRRTEXT
 70
     1
  9
$DRAGMODE
 70
     2
  9
$LTSCALE
 40
1.0
  9
$OSMODE
 70
   551
  9
$ATTMODE
 70
     1
  9
$TEXTSIZE
 40
2.5
  9
$TRACEWID
 40
1.0
  9
$TEXTSTYLE
  7
STANDARD
  9
$CLAYER
  8
AM_0
  9
$CELTYPE
  6
BYLAYER
  9
$CECOLOR
 62
   256
  9
$DIMSCALE
 40
1.0
  9
$DIMASZ
 40
2.5
  9
$DIMEXO
 40
1.0
  9
$DIMDLI
 40
7.0
  9
$DIMRND
 40
0.0
  9
$DIMDLE
 40
0.0
  9
$DIMEXE
 40
1.0
  9
$DIMTP
 40
0.1
  9
$DIMTM
 40
0.1000000001
  9
$DIMTXT
 40
2.5
  9
$DIMCEN
 40
0.0
  9
$DIMTSZ
 40
0.0
  9
$DIMTOL
 70
     0
  9
$DIMLIM
 70
     0
  9
$DIMTIH
 70
     0
  9
$DIMTOH
 70
     0
  9
$DIMSE1
 70
     0
  9
$DIMSE2
 70
     0
  9
$DIMTAD
 70
     3
  9
$DIMZIN
 70
     8
  9
$DIMBLK
  1

  9
$DIMASO
 70
     1
  9
$DIMSHO
 70
     1
  9
$DIMPOST
  1

  9
$DIMAPOST
  1
"
  9
$DIMALT
 70
     0
  9
$DIMALTD
 70
     2
  9
$DIMALTF
 40
0.0393701
  9
$DIMLFAC
 40
1.0
  9
$DIMTOFL
 70
     1
  9
$DIMTVP
 40
0.0
  9
$DIMTIX
 70
     0
  9
$DIMSOXD
 70
     0
  9
$DIMSAH
 70
     0
  9
$DIMBLK1
  1

  9
$DIMBLK2
  1

  9
$DIMSTYLE
  2
AM_JIS
  9
$DIMCLRD
 70
   256
  9
$DIMCLRE
 70
   256
  9
$DIMCLRT
 70
     4
  9
$DIMTFAC
 40
0.71
  9
$DIMGAP
 40
1.0
  9
$LUNITS
 70
     2
  9
$LUPREC
 70
     2
  9
$SKETCHINC
 40
1.0
  9
$FILLETRAD
 40
2.5
  9
$AUNITS
 70
     0
  9
$AUPREC
 70
     3
  9
$MENU
  1
.
  9
$ELEVATION
 40
0.0
  9
$PELEVATION
 40
0.0
  9
$THICKNESS
 40
0.0
  9
$LIMCHECK
 70
     0
  9
$BLIPMODE
 70
     0
  9
$CHAMFERA
 40
2.5
  9
$CHAMFERB
 40
2.5
  9
$SKPOLY
 70
     0
  9
$TDCREATE
 40
2453062.4422650812
  9
$TDUPDATE
 40
2458541.3558143871
  9
$TDINDWG
 40
0.0515470023
  9
$TDUSRTIMER
 40
0.0515469907
  9
$USRTIMER
 70
     1
  9
$ANGBASE
 50
0.0
  9
$ANGDIR
 70
     0
  9
$PDMODE
 70
     0
  9
$PDSIZE
 40
0.0
  9
$PLINEWID
 40
0.0
  9
$COORDS
 70
     1
  9
$SPLFRAME
 70
     0
  9
$SPLINETYPE
 70
     6
  9
$SPLINESEGS
 70
     8
  9
$ATTDIA
 70
     1
  9
$ATTREQ
 70
     1
  9
$HANDLING
 70
     1
  9
$HANDSEED
  5
A183
  9
$SURFTAB1
 70
     6
  9
$SURFTAB2
 70
     6
  9
$SURFTYPE
 70
     6
  9
$SURFU
 70
     6
  9
$SURFV
 70
     6
  9
$UCSNAME
  2

  9
$UCSORG
 10
0.0
 20
0.0
 30
0.0
  9
$UCSXDIR
 10
1.0
 20
0.0
 30
0.0
  9
$UCSYDIR
 10
0.0
 20
1.0
 30
0.0
  9
$PUCSNAME
  2

  9
$PUCSORG
 10
0.0
 20
0.0
 30
0.0
  9
$PUCSXDIR
 10
1.0
 20
0.0
 30
0.0
  9
$PUCSYDIR
 10
0.0
 20
1.0
 30
0.0
  9
$USERI1
 70
     0
  9
$USERI2
 70
     0
  9
$USERI3
 70
     0
  9
$USERI4
 70
     0
  9
$USERI5
 70
     0
  9
$USERR1
 40
0.0
  9
$USERR2
 40
0.0
  9
$USERR3
 40
0.0
  9
$USERR4
 40
0.0
  9
$USERR5
 40
0.0
  9
$WORLDVIEW
 70
     1
  9
$SHADEDGE
 70
     3
  9
$SHADEDIF
 70
    70
  9
$TILEMODE
 70
     1
  9
$MAXACTVP
 70
    48
  9
$PLIMCHECK
 70
     0
  9
$PEXTMIN
 10
1.0000000000000000E+020
 20
1.0000000000000000E+020
 30
1.0000000000000000E+020
  9
$PEXTMAX
 10
-1.0000000000000000E+020
 20
-1.0000000000000000E+020
 30
-1.0000000000000000E+020
  9
$PLIMMIN
 10
0.0
 20
0.0
  9
$PLIMMAX
 10
420.0
 20
297.0
  9
$UNITMODE
 70
     0
  9
$VISRETAIN
 70
     1
  9
$PLINEGEN
 70
     0
  9
$PSLTSCALE
 70
     1
  0
ENDSEC
  0
SECTION
  2
TABLES
  0
TABLE
  2
VPORT
 70
     1
  0
VPORT
  2
*ACTIVE
 70
     0
 10
0.0
 20
0.0
 11
1.0
 21
1.0
 12
308.04880387692828
 22
210.08528806648431
 13
0.0
 23
0.0
 14
1.0
 24
1.0
 15
10.0
 25
10.0
 16
0.0
 26
0.0
 36
1.0
 17
0.0
 27
0.0
 37
0.0
 40
423.96299500341189
 41
1.7571592210767459
 42
50.0
 43
0.0
 44
0.0
 50
0.0
 51
0.0
 71
     0
 72
   100
 73
     1
 74
     1
 75
     0
 76
     0
 77
     0
 78
     0
  0
ENDTAB
  0
TABLE
  2
LTYPE
 70
    25
  0
LTYPE
  2
CONTINUOUS
 70
     0
  3
Solid line
 72
    65
 73
     0
 40
0.0
  0
LTYPE
  2
PHANTOM2
 70
     0
  3
Phantom (.5x) ___ _ _ ___ _ _ ___ _ _ ___ _ _
 72
    65
 73
     6
 40
31.75
 49
15.875
 49
-3.174999999999998
 49
3.174999999999998
 49
-3.174999999999998
 49
3.174999999999998
 49
-3.174999999999998
  0
LTYPE
  2
CENTER
 70
     0
  3
Center ____ _ ____ _ ____ _ ____ _ ____ _ ____
 72
    65
 73
     4
 40
50.799999999999997
 49
31.75
 49
-6.3499999999999979
 49
6.3499999999999979
 49
-6.3499999999999979
  0
LTYPE
  2
ACANSTGBM
 70
     0
  3
__ . . __ . .
 72
    65
 73
     6
 40
9.0
 49
4.0
 49
-1.0
 49
1.0
 49
-1.0
 49
1.0
 49
-1.0
  0
LTYPE
  2
ACANSTGLM
 70
     0
  3
_ _ _ _ _
 72
    65
 73
     2
 40
3.0
 49
2.0
 49
-1.0
  0
LTYPE
  2
GEN7
 70
     0
  3
____ . ____ . ____ . ____ . ____ . ____ . ____
 72
    65
 73
     4
 40
14.25
 49
9.75
 49
-1.5
 49
1.5
 49
-1.5
  0
LTYPE
  2
AM_ISO02W050
 70
     0
  3
__ __ __ __ __ __ __ __ __ __ __ __ __ __ __
 72
    65
 73
     2
 40
7.5
 49
6.0
 49
-1.5
  0
LTYPE
  2
AM_ISO08W050
 70
     0
  3
____ . ____ . ____ . ____ . ____ . ____ . ____
 72
    65
 73
     4
 40
18.0
 49
12.0
 49
-1.5
 49
3.0
 49
-1.5
  0
LTYPE
  2
AM_ISO09W050
 70
     0
  3
_____ . . _____ . . _____ . . ____ .. ____
 72
    65
 73
     6
 40
22.5
 49
12.0
 49
-1.5
 49
3.0
 49
-1.5
 49
3.0
 49
-1.5
  0
LTYPE
  2
AMCONSTR
 70
     0
  3
_______________________
 72
    65
 73
     2
 40
9999.0
 49
9999.0
 49
0.0
  0
LTYPE
  2
AM_ISO02W050X2
 70
     0
  3
 _ _ _ _ _ _ _ _ _ _ _ _
 72
    65
 73
     2
 40
3.75
 49
3.0
 49
-0.75
  0
LTYPE
  2
AM_ISO08W050X2
 70
     0
  3
__ . __ . __ . __ . __ . __
 72
    65
 73
     4
 40
9.0
 49
6.0
 49
-0.75
 49
1.5
 49
-0.75
  0
LTYPE
  2
AMZIGZAG
 70
     0
  3
/\/-/\/-/\/-/\/-/\/-/\/
 72
    65
 73
     2
 40
11.000099999999991
 49
0.0001
 49
-11.0
  0
LTYPE
  2
ACJISTGB
 70
     0
  3
__ . . __ . .
 72
    65
 73
     6
 40
9.0
 49
4.0
 49
-1.0
 49
1.0
 49
-1.0
 49
1.0
 49
-1.0
  0
LTYPE
  2
ACJISTGL
 70
     0
  3
_ _ _ _ _
 72
    65
 73
     2
 40
3.0
 49
2.0
 49
-1.0
  0
LTYPE
  2
ACISOWELD
 70
     0
  3
_ _ _ _ _
 72
    65
 73
     2
 40
2.0
 49
2.0
 49
-1.0
  0
LTYPE
  2
ACISOTGB
 70
     0
  3
__ . . __ . .
 72
    65
 73
     6
 40
9.0
 49
4.0
 49
-1.0
 49
1.0
 49
-1.0
 49
1.0
 49
-1.0
  0
LTYPE
  2
ACISOTGL
 70
     0
  3
_ _ _ _ _
 72
    65
 73
     2
 40
3.0
 49
2.0
 49
-1.0
  0
LTYPE
  2
HIDDEN
 70
     0
  3
Hidden __ __ __ __ __ __ __ __ __ __ __ __ __ _
 72
    65
 73
     2
 40
0.375
 49
0.25
 49
-0.125
  0
LTYPE
  2
CENTER2
 70
     0
  3
Center (.5x) ___ _ ___ _ ___ _ ___ _ ___ _ ___
 72
    65
 73
     4
 40
1.125
 49
0.75
 49
-0.125
 49
0.125
 49
-0.125
  0
LTYPE
  2
HIDDEN2
 70
     0
  3
Hidden (.5x) _ _ _ _ _ _ _ _ _ _ _ _ _ _ _ _ _
 72
    65
 73
     2
 40
0.1875
 49
0.125
 49
-0.0625
  0
LTYPE
  2
AMZIGZAG2
 70
     0
  3
/\/-/\/-/\/-/\/-/\/-/\/
 72
    65
 73
     2
 40
0.4401
 49
0.0001
 49
-0.4400000000000001
  0
LTYPE
  2
ACANSTGB
 70
     0
  3
__ . . __ . .
 72
    65
 73
     6
 40
0.35433070866
 49
0.15748031496
 49
-0.03937007874
 49
0.03937007874
 49
-0.03937007874
 49
0.03937007874
 49
-0.03937007874
  0
LTYPE
  2
ACANSTGL
 70
     0
  3
_ _ _ _ _
 72
    65
 73
     2
 40
0.11811023622
 49
0.07874015748
 49
-0.03937007874
  0
ENDTAB
  0
TABLE
  2
LAYER
 70
     6
  0
LAYER
  2
0
 70
     0
 62
     7
  6
CONTINUOUS
  0
LAYER
  2
AM_0
 70
     0
 62
     7
  6
CONTINUOUS
  0
LAYER
  2
DEFPOINTS
 70
     0
 62
     7
  6
CONTINUOUS
  0
LAYER
  2
ﾁｭｳｼﾝｾﾝ
 70
     0
 62
     1
  6
GEN7
  0
LAYER
  2
AM_0N
 70
     0
 62
     7
  6
CONTINUOUS
  0
LAYER
  2
AM_5
 70
     0
 62
     2
  6
CONTINUOUS
  0
ENDTAB
  0
TABLE
  2
STYLE
 70
    10
  0
STYLE
  2
STANDARD
 70
     0
 40
0.0
 41
0.8299999999999999
 50
0.0
 71
     0
 42
2.5
  3
txt.shx
  4
bigfont.shx
  0
STYLE
  2
ANNOTATIVE
 70
     0
 40
0.0
 41
1.0
 50
0.0
 71
     0
 42
0.2
  3
txt
  4

  0
STYLE
  2
ACANSTS
 70
     0
 40
1.0
 41
1.0
 50
0.0
 71
     0
 42
2.5
  3
romans.shx
  4
bigfont.shx
  0
STYLE
  2
ACANSGDT
 70
     0
 40
0.0
 41
1.0
 50
0.0
 71
     0
 42
2.5
  3
amgdt.shx
  4

  0
STYLE
  2

 70
     1
 40
0.0
 41
1.0
 50
0.0
 71
     0
 42
2.5
  3
ltypeshp.shx
  4

  0
STYLE
  2
ACJISTS
 70
     0
 40
1.0
 41
0.8299999999999999
 50
0.0
 71
     0
 42
2.5
  3
txt.shx
  4
bigfont.shx
  0
STYLE
  2
ACJISGDT
 70
     0
 40
0.0
 41
1.0
 50
0.0
 71
     0
 42
2.5
  3
amgdt.shx
  4

  0
STYLE
  2
ACISOTS
 70
     0
 40
1.0
 41
1.0
 50
0.0
 71
     0
 42
2.5
  3
isocp.shx
  4
extfont.shx
  0
STYLE
  2
ACISOGDT
 70
     0
 40
0.0
 41
1.0
 50
0.0
 71
     0
 42
2.5
  3
amgdt.shx
  4

  0
STYLE
  2

 70
     1
 40
0.0
 41
1.0
 50
0.0
 71
     0
 42
2.5
  3
genltshp.shx
  4

  0
ENDTAB
  0
TABLE
  2
VIEW
 70
    12
  0
VIEW
  2
GEN1
 70
     0
 40
95.824742268041234
 10
71.5
 20
137.08762886597941
 41
143.0
 11
0.0
 21
0.0
 31
1.0
 12
0.0
 22
0.0
 32
0.0
 42
50.0
 43
0.0
 44
0.0
 50
0.0
 71
     0
  0
VIEW
  2
GEN2
 70
     0
 40
95.824742268041234
 10
214.5
 20
137.08762886597941
 41
143.0
 11
0.0
 21
0.0
 31
1.0
 12
0.0
 22
0.0
 32
0.0
 42
50.0
 43
0.0
 44
0.0
 50
0.0
 71
     0
  0
VIEW
  2
GEN3
 70
     0
 40
95.824742268041234
 10
71.5
 20
47.912371134020603
 41
143.0
 11
0.0
 21
0.0
 31
1.0
 12
0.0
 22
0.0
 32
0.0
 42
50.0
 43
0.0
 44
0.0
 50
0.0
 71
     0
  0
VIEW
  2
GEN4
 70
     0
 40
95.824742268041234
 10
214.5
 20
47.912371134020603
 41
143.0
 11
0.0
 21
0.0
 31
1.0
 12
0.0
 22
0.0
 32
0.0
 42
50.0
 43
0.0
 44
0.0
 50
0.0
 71
     0
  0
VIEW
  2
GEN5
 70
     0
 40
95.824742268041234
 10
143.0
 20
92.500000000000057
 41
143.0
 11
0.0
 21
0.0
 31
1.0
 12
0.0
 22
0.0
 32
0.0
 42
50.0
 43
0.0
 44
0.0
 50
0.0
 71
     0
  0
VIEW
  2
GEN6
 70
     0
 40
191.64756804123709
 10
143.0
 20
92.5
 41
285.99713999999989
 11
0.0
 21
0.0
 31
1.0
 12
0.0
 22
0.0
 32
0.0
 42
50.0
 43
0.0
 44
0.0
 50
0.0
 71
     0
  0
VIEW
  2
AM_VIEW1
 70
     0
 40
142.0
 10
119.7777777777777
 20
213.0
 41
239.55555555555549
 11
0.0
 21
0.0
 31
1.0
 12
0.0
 22
0.0
 32
0.0
 42
50.0
 43
0.0
 44
0.0
 50
0.0
 71
     0
  0
VIEW
  2
AM_VIEW2
 70
     0
 40
142.0
 10
288.22222222222211
 20
213.0
 41
239.55555555555549
 11
0.0
 21
0.0
 31
1.0
 12
0.0
 22
0.0
 32
0.0
 42
50.0
 43
0.0
 44
0.0
 50
0.0
 71
     0
  0
VIEW
  2
AM_VIEW3
 70
     0
 40
142.0
 10
119.7777777777777
 20
71.0
 41
239.55555555555549
 11
0.0
 21
0.0
 31
1.0
 12
0.0
 22
0.0
 32
0.0
 42
50.0
 43
0.0
 44
0.0
 50
0.0
 71
     0
  0
VIEW
  2
AM_VIEW4
 70
     0
 40
142.0
 10
288.22222222222211
 20
71.0
 41
239.55555555555549
 11
0.0
 21
0.0
 31
1.0
 12
0.0
 22
0.0
 32
0.0
 42
50.0
 43
0.0
 44
0.0
 50
0.0
 71
     0
  0
VIEW
  2
AM_VIEW5
 70
     0
 40
142.0
 10
204.0
 20
142.0
 41
239.55555555555549
 11
0.0
 21
0.0
 31
1.0
 12
0.0
 22
0.0
 32
0.0
 42
50.0
 43
0.0
 44
0.0
 50
0.0
 71
     0
  0
VIEW
  2
AM_VIEW6
 70
     0
 40
283.99716000000001
 10
204.0
 20
142.0
 41
479.10631999999993
 11
0.0
 21
0.0
 31
1.0
 12
0.0
 22
0.0
 32
0.0
 42
50.0
 43
0.0
 44
0.0
 50
0.0
 71
     0
  0
ENDTAB
  0
TABLE
  2
UCS
 70
     0
  0
ENDTAB
  0
TABLE
  2
APPID
 70
   106
  0
APPID
  2
ACAD
 70
     0
  0
APPID
  2
ACADANNOTATIVE
 70
     0
  0
APPID
  2
MCAD_NO_VIS
 70
     0
  0
APPID
  2
ACAD_TEMP_GRAPHIC
 70
     0
  0
APPID
  2
AD_DRAW
 70
     0
  0
APPID
  2
DESIGNERASSEMBLIES
 70
     0
  0
APPID
  2
ASURF_PCURVE_APPNAME
 70
     0
  0
APPID
  2
GENIUS_GE3SECT_13
 70
     0
  0
APPID
  2
GENIUS_GENCFG_13
 70
     0
  0
APPID
  2
GENIUS_GE3CFG0_13
 70
     0
  0
APPID
  2
GENIUS_GENCFG0_13
 70
     0
  0
APPID
  2
GENIUS_GENCFG1_13
 70
     0
  0
APPID
  2
GENIUS_GENCFG2_13
 70
     0
  0
APPID
  2
GENIUS_GENCFG3_13
 70
     0
  0
APPID
  2
GENIUS_GENCFG4_13
 70
     0
  0
APPID
  2
GENIUS_GEVCFG0_13
 70
     0
  0
APPID
  2
GENIUS_GENOENT_13
 70
     0
  0
APPID
  2
GENIUS_GENREC_14
 70
     0
  0
APPID
  2
GENIUS_GENODEF_13
 70
     0
  0
APPID
  2
GENIUS_GENOBJ-N-REC_13
 70
     0
  0
APPID
  2
GENIUS_GENHINW_13
 70
     0
  0
APPID
  2
GENIUS_FIRSTVISTXT_14
 70
     0
  0
APPID
  2
GENIUS_GENOBJ-N-LEADER_13
 70
     0
  0
APPID
  2
GENIUS_GENOREF_13
 70
     0
  0
APPID
  2
GENIUS_GENOLIS_13
 70
     0
  0
APPID
  2
GEV_VCCNULL_SWITCH_OFF
 70
     0
  0
APPID
  2
GENIUS_GENDTOL_13
 70
     0
  0
APPID
  2
GENIUS_GEFCFG0_13
 70
     0
  0
APPID
  2
GENIUS_GENOBJ-N-TIT_13
 70
     0
  0
APPID
  2
GENIUS_GENTITLE_13
 70
     0
  0
APPID
  2
GENIUS_GENZVEED_13
 70
     0
  0
APPID
  2
GENIUS_GENOBJ-N-SDF_13
 70
     0
  0
APPID
  2
GENIUS_GENSCREG_13
 70
     0
  0
APPID
  2
GENIUS_DUMCFG0_13
 70
     0
  0
APPID
  2
GEVID936201362
 70
     0
  0
APPID
  2
GEVDC
 70
     0
  0
APPID
  2
GEVCON
 70
     0
  0
APPID
  2
VCC
 70
     0
  0
APPID
  2
GEVPT
 70
     0
  0
APPID
  2
GEVIT
 70
     0
  0
APPID
  2
GENBH
 70
     0
  0
APPID
  2
GEVMK
 70
     0
  0
APPID
  2
GENIUS_GENBH_13
 70
     0
  0
APPID
  2
GENIUS_GENOBJ-NBEHI-BHF_13
 70
     0
  0
APPID
  2
GENIUS_GENOBJ-NBEHI-BHB_13
 70
     0
  0
APPID
  2
GENIUS_GENOBJ-F-DESC_13
 70
     0
  0
APPID
  2
GENIUS_GEFDESC_14
 70
     0
  0
APPID
  2
GENIUS_GENOBJ-F-PART_13
 70
     0
  0
APPID
  2
GENIUS_GEFSTDP_13
 70
     0
  0
APPID
  2
GENIUS_GEFPARTINS_13
 70
     0
  0
APPID
  2
GENIUS_GENTRA_14
 70
     0
  0
APPID
  2
GENIUS_GENINF13_13
 70
     0
  0
APPID
  2
GENIUS_GENOBJ-N-INFOPT_13
 70
     0
  0
APPID
  2
GENIUS_GENOBJ-N-RSSYM_13
 70
     0
  0
APPID
  2
GENIUS_GENSYMENT_13
 70
     0
  0
APPID
  2
GENIUS_GENSCSYM_13
 70
     0
  0
APPID
  2
GENIUS_GEFINFNAM_13
 70
     0
  0
APPID
  2
GENIUS_GENSCREG_15
 70
     0
  0
APPID
  2
GENIUS_GENOBJ-N-CEN_13
 70
     0
  0
APPID
  2
GENIUS_GENOBJ-N-CRS_13
 70
     0
  0
APPID
  2
GENIUS_GENOBJ-N-CRC_13
 70
     0
  0
APPID
  2
GENIUS_GENCRC_14
 70
     0
  0
APPID
  2
GEVID942827039
 70
     0
  0
APPID
  2
GEVID942827040
 70
     0
  0
APPID
  2
GEVID942827041
 70
     0
  0
APPID
  2
GENIUS_GENOBJ-F-SCPASSM_13
 70
     0
  0
APPID
  2
GENIUS_GENDIMSH_14
 70
     0
  0
APPID
  2
GENIUS_GENFIL_13
 70
     0
  0
APPID
  2
GENIUS_GENOBJ-N-CHA_13
 70
     0
  0
APPID
  2
GENIUS_GENOBJ-N-FIL_13
 70
     0
  0
APPID
  2
GEVID942827042
 70
     0
  0
APPID
  2
GEVID946020473
 70
     0
  0
APPID
  2
GEVID946020474
 70
     0
  0
APPID
  2
GEVID946020475
 70
     0
  0
APPID
  2
GENIUS_GENOBJ-N-HTC_13
 70
     0
  0
APPID
  2
GENIUS_GENHATCH_13
 70
     0
  0
APPID
  2
GEVID948854295
 70
     0
  0
APPID
  2
GEVID939402019
 70
     0
  0
APPID
  2
GEVID952919491
 70
     0
  0
APPID
  2
GEVID952919492
 70
     0
  0
APPID
  2
GENIUS_GEFWELD_13
 70
     0
  0
APPID
  2
GENIUS_GENOBJ-F-WELS_13
 70
     0
  0
APPID
  2
GEVID952919493
 70
     0
  0
APPID
  2
GENIUS_GENOBJ-N-RSBK_13
 70
     0
  0
APPID
  2
GENIUS_GENOBJ-N-LIB_13
 70
     0
  0
APPID
  2
GENIUS_GENSCALE_13
 70
     0
  0
APPID
  2
GEVID986376691
 70
     0
  0
APPID
  2
ACATTRIBSERVICES
 70
     0
  0
APPID
  2
ACADM_DIM_EDIT
 70
     0
  0
APPID
  2
AMDT_DM_ADJ
 70
     0
  0
APPID
  2
GEVID1057795304
 70
     0
  0
APPID
  2
GENIUS_GEFSH_13
 70
     0
  0
APPID
  2
GENIUS_GENOBJ-F-SHS_13
 70
     0
  0
APPID
  2
GENIUS_GENOBJ-N-ADDLEAD_13
 70
     0
  0
APPID
  2
GENIUS_GENMAINADDLEADER_14
 70
     0
  0
APPID
  2
GENIUS_GENADDLEADER_14
 70
     0
  0
APPID
  2
GENIUS_GENDREL_13
 70
     0
  0
APPID
  2
GEVID1121934822
 70
     0
  0
APPID
  2
GEVID1121934823
 70
     0
  0
APPID
  2
GEVID1121934824
 70
     0
  0
APPID
  2
ACAD_DSTYLE_DIMJAG
 70
     0
  0
APPID
  2
ACAD_DSTYLE_DIMBREAK
 70
     0
  0
APPID
  2
ACAD_NAV_VCDISPLAY
 70
     0
  0
APPID
  2
ACADANNOPO
 70
     0
  0
APPID
  2
ACAD_EXEMPT_FROM_CAD_STANDARDS
 70
     0
  0
APPID
  2
ACAD_MLEADERVER
 70
     0
  0
ENDTAB
  0
TABLE
  2
DIMSTYLE
 70
    29
  0
DIMSTYLE
  2
STANDARD
 70
     0
  3

  4

  5

  6

  7

 40
1.0
 41
0.18
 42
0.0625
 43
0.38
 44
0.18
 45
0.0
 46
0.0
 47
0.0
 48
0.0
140
0.18
141
0.09
142
0.0
143
25.399999999999999
144
1.0
145
0.0
146
1.0
147
0.09
 71
     0
 72
     0
 73
     1
 74
     1
 75
     0
 76
     0
 77
     0
 78
     0
170
     0
171
     2
172
     0
173
     0
174
     0
175
     0
176
     0
177
     0
178
     0
  0
DIMSTYLE
  2
ANNOTATIVE
 70
     0
  3

  4

  5

  6

  7

 40
1.0
 41
0.18
 42
0.0625
 43
0.38
 44
0.18
 45
0.0
 46
0.0
 47
0.0
 48
0.0
140
0.18
141
0.09
142
0.0
143
25.399999999999999
144
1.0
145
0.0
146
1.0
147
0.09
 71
     0
 72
     0
 73
     1
 74
     1
 75
     0
 76
     0
 77
     0
 78
     0
170
     0
171
     2
172
     0
173
     0
174
     0
175
     0
176
     0
177
     0
178
     0
  0
DIMSTYLE
  2
AM_JIS
 70
     0
  3

  4
"
  5

  6

  7

 40
1.0
 41
2.0
 42
1.0
 43
8.0
 44
1.0
 45
0.0
 46
0.0
 47
0.1
 48
0.1
140
2.5
141
0.0
142
0.0
143
0.0393701
144
1.0
145
0.0
146
0.71
147
1.5
 71
     0
 72
     0
 73
     0
 74
     0
 75
     0
 76
     0
 77
     3
 78
     8
170
     0
171
     2
172
     1
173
     0
174
     0
175
     0
176
   256
177
   256
178
     4
  0
DIMSTYLE
  2
AM_JIS$3
 70
     0
  3

  4
"
  5

  6

  7

 40
1.0
 41
2.0
 42
1.0
 43
10.0
 44
1.0
 45
0.0
 46
0.0
 47
0.1
 48
0.1
140
2.5
141
0.0
142
0.0
143
0.0393701
144
1.0
145
0.0
146
0.71
147
1.5
 71
     0
 72
     0
 73
     0
 74
     1
 75
     0
 76
     0
 77
     3
 78
     8
170
     0
171
     2
172
     0
173
     0
174
     0
175
     0
176
   256
177
   256
178
     4
  0
DIMSTYLE
  2
AM_JIS$4
 70
     0
  3

  4
"
  5

  6

  7

 40
1.0
 41
2.0
 42
1.0
 43
10.0
 44
1.0
 45
0.0
 46
0.0
 47
0.1
 48
0.1
140
2.5
141
0.0
142
0.0
143
0.0393701
144
1.0
145
0.0
146
0.71
147
1.5
 71
     0
 72
     0
 73
     0
 74
     0
 75
     0
 76
     0
 77
     3
 78
     8
170
     0
171
     2
172
     0
173
     0
174
     0
175
     0
176
   256
177
   256
178
     4
  0
DIMSTYLE
  2
AM_JIS$6
 70
     0
  3

  4
"
  5

  6

  7

 40
1.0
 41
2.0
 42
1.0
 43
10.0
 44
1.0
 45
0.0
 46
0.0
 47
0.1
 48
0.1
140
2.5
141
0.0
142
0.0
143
0.0393701
144
1.0
145
0.0
146
0.71
147
1.5
 71
     0
 72
     0
 73
     0
 74
     0
 75
     0
 76
     0
 77
     0
 78
     8
170
     0
171
     2
172
     1
173
     0
174
     0
175
     0
176
   256
177
   256
178
     4
  0
DIMSTYLE
  2
AM_JIS$7
 70
     0
  3

  4
"
  5

  6

  7

 40
1.0
 41
2.0
 42
1.0
 43
10.0
 44
1.0
 45
0.0
 46
0.0
 47
0.1
 48
0.1
140
2.5
141
0.0
142
0.0
143
0.0393701
144
1.0
145
0.0
146
0.71
147
1.5
 71
     0
 72
     0
 73
     0
 74
     0
 75
     0
 76
     0
 77
     3
 78
     8
170
     0
171
     2
172
     1
173
     0
174
     0
175
     0
176
   256
177
   256
178
     4
  0
DIMSTYLE
  2
AM_JIS$SF
 70
     0
  3

  4
"
  5

  6

  7

 40
1.0
 41
2.0
 42
1.0
 43
10.0
 44
1.0
 45
0.0
 46
0.0
 47
0.1
 48
0.1
140
2.5
141
0.0
142
0.0
143
0.0393701
144
1.0
145
0.0
146
0.71
147
1.5
 71
     0
 72
     0
 73
     0
 74
     0
 75
     1
 76
     1
 77
     3
 78
     8
170
     0
171
     2
172
     1
173
     0
174
     0
175
     0
176
   256
177
   256
178
     4
  0
DIMSTYLE
  2
AM_JIS$SH
 70
     0
  3

  4
"
  5

  6

  7

 40
1.0
 41
2.0
 42
1.0
 43
10.0
 44
1.0
 45
0.0
 46
0.0
 47
0.1
 48
0.1
140
2.5
141
0.0
142
0.0
143
0.0393701
144
2.0
145
0.0
146
0.71
147
1.5
 71
     0
 72
     0
 73
     0
 74
     0
 75
     1
 76
     1
 77
     3
 78
     8
170
     0
171
     2
172
     1
173
     1
174
     0
175
     0
176
   256
177
   256
178
     4
  0
DIMSTYLE
  2
AM_ISO
 70
     0
  3

  4
"
  5

  6

  7

 40
1.0
 41
2.5
 42
1.0
 43
10.0
 44
1.0
 45
0.0
 46
0.0
 47
0.1
 48
0.1
140
3.5
141
0.0
142
0.0
143
0.0393701
144
1.0
145
0.0
146
0.71
147
1.5
 71
     0
 72
     0
 73
     0
 74
     0
 75
     0
 76
     0
 77
     1
 78
     8
170
     0
171
     2
172
     1
173
     0
174
     0
175
     0
176
   256
177
   256
178
     2
  0
DIMSTYLE
  2
AM_ISO$3
 70
     0
  3

  4
"
  5

  6

  7

 40
1.0
 41
2.5
 42
1.0
 43
10.0
 44
1.0
 45
0.0
 46
0.0
 47
0.1
 48
0.1
140
3.5
141
0.0
142
0.0
143
0.0393701
144
1.0
145
0.0
146
0.71
147
1.5
 71
     0
 72
     0
 73
     0
 74
     1
 75
     0
 76
     0
 77
     1
 78
     8
170
     0
171
     2
172
     0
173
     0
174
     0
175
     0
176
   256
177
   256
178
     2
  0
DIMSTYLE
  2
AM_ISO$4
 70
     0
  3

  4
"
  5

  6

  7

 40
1.0
 41
2.5
 42
1.0
 43
10.0
 44
1.0
 45
0.0
 46
0.0
 47
0.1
 48
0.1
140
3.5
141
0.0
142
0.0
143
0.0393701
144
1.0
145
0.0
146
0.71
147
1.5
 71
     0
 72
     0
 73
     0
 74
     1
 75
     0
 76
     0
 77
     1
 78
     8
170
     0
171
     2
172
     0
173
     0
174
     0
175
     0
176
   256
177
   256
178
     2
  0
DIMSTYLE
  2
AM_ISO$6
 70
     0
  3

  4
"
  5

  6

  7

 40
1.0
 41
2.5
 42
1.0
 43
10.0
 44
1.0
 45
0.0
 46
0.0
 47
0.1
 48
0.1
140
3.5
141
0.0
142
0.0
143
0.0393701
144
1.0
145
0.0
146
0.71
147
1.5
 71
     0
 72
     0
 73
     0
 74
     0
 75
     0
 76
     0
 77
     0
 78
     8
170
     0
171
     2
172
     1
173
     0
174
     0
175
     0
176
   256
177
   256
178
     2
  0
DIMSTYLE
  2
AM_ISO$7
 70
     0
  3

  4
"
  5

  6

  7

 40
1.0
 41
2.5
 42
1.0
 43
10.0
 44
1.0
 45
0.0
 46
0.0
 47
0.1
 48
0.1
140
5.0
141
0.0
142
0.0
143
0.0393701
144
1.0
145
0.0
146
0.71
147
1.5
 71
     0
 72
     0
 73
     0
 74
     0
 75
     0
 76
     0
 77
     1
 78
     8
170
     0
171
     2
172
     1
173
     0
174
     0
175
     0
176
   256
177
   256
178
     2
  0
DIMSTYLE
  2
AM_ISO$SF
 70
     0
  3

  4
"
  5

  6

  7

 40
1.0
 41
2.5
 42
1.0
 43
10.0
 44
1.0
 45
0.0
 46
0.0
 47
0.1
 48
0.1
140
3.5
141
0.0
142
0.0
143
0.0393701
144
1.0
145
0.0
146
0.71
147
1.5
 71
     0
 72
     0
 73
     0
 74
     0
 75
     1
 76
     1
 77
     1
 78
     8
170
     0
171
     2
172
     1
173
     0
174
     0
175
     0
176
   256
177
   256
178
     2
  0
DIMSTYLE
  2
AM_ISO$SH
 70
     0
  3

  4
"
  5

  6

  7

 40
1.0
 41
2.5
 42
1.0
 43
10.0
 44
1.0
 45
0.0
 46
0.0
 47
0.1
 48
0.1
140
3.5
141
0.0
142
0.0
143
0.0393701
144
2.0
145
0.0
146
0.71
147
1.5
 71
     0
 72
     0
 73
     0
 74
     0
 75
     1
 76
     1
 77
     1
 78
     8
170
     0
171
     2
172
     1
173
     1
174
     0
175
     0
176
   256
177
   256
178
     2
  0
DIMSTYLE
  2
GEN-ANSI
 70
     0
  3

  4
"
  5

  6

  7

 40
1.0
 41
2.0
 42
0.5
 43
10.0
 44
0.5
 45
0.0
 46
0.0
 47
0.1
 48
0.1
140
2.5
141
0.0
142
0.0
143
0.0393701
144
1.0
145
0.0
146
0.71
147
1.5
 71
     0
 72
     0
 73
     1
 74
     1
 75
     0
 76
     0
 77
     0
 78
     8
170
     0
171
     2
172
     0
173
     0
174
     0
175
     0
176
   256
177
   256
178
     4
  0
DIMSTYLE
  2
GEN-ANSI$3
 70
     0
  3

  4
"
  5

  6

  7

 40
1.0
 41
2.0
 42
0.5
 43
10.0
 44
0.5
 45
0.0
 46
0.0
 47
0.1
 48
0.1
140
2.5
141
0.0
142
0.0
143
0.0393701
144
1.0
145
0.0
146
0.71
147
1.5
 71
     0
 72
     0
 73
     1
 74
     1
 75
     0
 76
     0
 77
     0
 78
     8
170
     0
171
     2
172
     0
173
     0
174
     0
175
     0
176
   256
177
   256
178
     4
  0
DIMSTYLE
  2
GEN-ANSI$4
 70
     0
  3

  4
"
  5

  6

  7

 40
1.0
 41
2.0
 42
0.5
 43
10.0
 44
0.5
 45
0.0
 46
0.0
 47
0.1
 48
0.1
140
2.5
141
0.0
142
0.0
143
0.0393701
144
1.0
145
0.0
146
0.71
147
1.5
 71
     0
 72
     0
 73
     1
 74
     1
 75
     0
 76
     0
 77
     0
 78
     8
170
     0
171
     2
172
     0
173
     0
174
     0
175
     0
176
   256
177
   256
178
     4
  0
DIMSTYLE
  2
GEN-ANSI$6
 70
     0
  3

  4
"
  5

  6

  7

 40
1.0
 41
2.0
 42
0.5
 43
10.0
 44
0.5
 45
0.0
 46
0.0
 47
0.1
 48
0.1
140
2.5
141
0.0
142
0.0
143
0.0393701
144
1.0
145
0.0
146
0.71
147
1.5
 71
     0
 72
     0
 73
     1
 74
     1
 75
     0
 76
     0
 77
     0
 78
     8
170
     0
171
     2
172
     0
173
     0
174
     0
175
     0
176
   256
177
   256
178
     4
  0
DIMSTYLE
  2
GEN-ANSI-POS
 70
     0
  3

  4
"
  5

  6

  7

 40
1.0
 41
2.5
 42
0.5
 43
10.0
 44
0.5
 45
0.0
 46
0.0
 47
0.1
 48
0.1
140
5.0
141
0.0
142
0.0
143
0.0393701
144
1.0
145
0.0
146
0.71
147
1.5
 71
     0
 72
     0
 73
     0
 74
     0
 75
     0
 76
     0
 77
     0
 78
     8
170
     0
171
     2
172
     0
173
     0
174
     0
175
     0
176
   256
177
   256
178
     4
  0
DIMSTYLE
  2
GEN-ANSI-AXE-F
 70
     0
  3

  4
"
  5

  6

  7

 40
1.0
 41
2.0
 42
0.5
 43
10.0
 44
0.5
 45
0.0
 46
0.0
 47
0.1
 48
0.1
140
2.5
141
0.0
142
0.0
143
0.0393701
144
1.0
145
0.0
146
0.71
147
1.5
 71
     0
 72
     0
 73
     1
 74
     1
 75
     1
 76
     1
 77
     0
 78
     8
170
     0
171
     2
172
     0
173
     1
174
     0
175
     0
176
   256
177
   256
178
     4
  0
DIMSTYLE
  2
GEN-ANSI-AXE-H
 70
     0
  3

  4
"
  5

  6

  7

 40
1.0
 41
2.0
 42
0.5
 43
10.0
 44
0.5
 45
0.0
 46
0.0
 47
0.1
 48
0.1
140
2.5
141
0.0
142
0.0
143
0.0393701
144
2.0
145
0.0
146
0.71
147
1.5
 71
     0
 72
     0
 73
     0
 74
     0
 75
     1
 76
     1
 77
     0
 78
     8
170
     0
171
     2
172
     1
173
     1
174
     0
175
     0
176
   256
177
   256
178
     4
  0
DIMSTYLE
  2
AM_ANSI
 70
     0
  3

  4
mm
  5

  6

  7

 40
1.0
 41
0.12
 42
0.05
 43
0.5
 44
0.1
 45
0.0
 46
0.0
 47
0.1
 48
0.1
140
0.12
141
0.0
142
0.0
143
25.399999999999999
144
1.0
145
0.0
146
0.71
147
0.06
 71
     0
 72
     0
 73
     1
 74
     1
 75
     0
 76
     0
 77
     0
 78
     7
170
     0
171
     2
172
     0
173
     0
174
     0
175
     0
176
   256
177
   256
178
     2
  0
DIMSTYLE
  2
AM_ANSI$3
 70
     0
  3

  4
mm
  5

  6

  7

 40
1.0
 41
0.12
 42
0.05
 43
0.5
 44
0.1
 45
0.0
 46
0.0
 47
0.1
 48
0.1
140
0.12
141
0.0
142
0.0
143
25.399999999999999
144
1.0
145
0.0
146
0.71
147
0.06
 71
     0
 72
     0
 73
     1
 74
     1
 75
     0
 76
     0
 77
     0
 78
     7
170
     0
171
     2
172
     0
173
     0
174
     0
175
     0
176
   256
177
   256
178
     2
  0
DIMSTYLE
  2
AM_ANSI$4
 70
     0
  3

  4
mm
  5

  6

  7

 40
1.0
 41
0.12
 42
0.05
 43
0.5
 44
0.1
 45
0.0
 46
0.0
 47
0.1
 48
0.1
140
0.12
141
0.0
142
0.0
143
25.399999999999999
144
1.0
145
0.0
146
0.71
147
0.06
 71
     0
 72
     0
 73
     1
 74
     1
 75
     0
 76
     0
 77
     0
 78
     7
170
     0
171
     2
172
     0
173
     0
174
     0
175
     0
176
   256
177
   256
178
     2
  0
DIMSTYLE
  2
AM_ANSI$7
 70
     0
  3

  4
mm
  5

  6

  7

 40
1.0
 41
0.12
 42
0.05
 43
0.5
 44
0.1
 45
0.0
 46
0.0
 47
0.1
 48
0.1
140
0.12
141
0.0
142
0.0
143
25.399999999999999
144
1.0
145
0.0
146
0.71
147
0.06
 71
     0
 72
     0
 73
     1
 74
     1
 75
     0
 76
     0
 77
     0
 78
     7
170
     0
171
     2
172
     0
173
     0
174
     0
175
     0
176
   256
177
   256
178
     2
  0
DIMSTYLE
  2
AM_ANSI$SF
 70
     0
  3

  4
mm
  5

  6

  7

 40
1.0
 41
0.12
 42
0.05
 43
0.5
 44
0.1
 45
0.0
 46
0.0
 47
0.1
 48
0.1
140
0.12
141
0.0
142
0.0
143
25.399999999999999
144
1.0
145
0.0
146
0.71
147
0.06
 71
     0
 72
     0
 73
     1
 74
     1
 75
     1
 76
     1
 77
     0
 78
     7
170
     0
171
     2
172
     0
173
     0
174
     0
175
     0
176
   256
177
   256
178
     2
  0
DIMSTYLE
  2
AM_ANSI$SH
 70
     0
  3

  4
mm
  5

  6
GENAXEH
  7

 40
1.0
 41
0.12
 42
0.05
 43
0.5
 44
0.1
 45
0.0
 46
0.0
 47
0.1
 48
0.1
140
0.12
141
0.0
142
0.0
143
25.399999999999999
144
1.0
145
0.0
146
0.71
147
0.06
 71
     0
 72
     0
 73
     1
 74
     1
 75
     1
 76
     1
 77
     0
 78
     7
170
     0
171
     2
172
     0
173
     1
174
     0
175
     0
176
   256
177
   256
178
     2
  0
ENDTAB
  0
ENDSEC
  0
SECTION
  2
BLOCKS
  0
BLOCK
  8
0
  2
$MODEL_SPACE
 70
     0
 10
0.0
 20
0.0
 30
0.0
  3
$MODEL_SPACE
  1

  0
ENDBLK
  5
9FF2
  8
0
  0
BLOCK
 67
     1
  8
0
  2
$PAPER_SPACE
 70
     0
 10
0.0
 20
0.0
 30
0.0
  3
$PAPER_SPACE
  1

  0
ENDBLK
  5
9FEE
 67
     1
  8
0
  0
BLOCK
  8
0
  2
GENAXEH
 70
     0
 10
0.0
 20
0.0
 30
0.0
  3
GENAXEH
  1

  0
LINE
  5
9F3B
  8
0
 10
-1.0
 20
0.0
 30
0.0
 11
1.0
 21
0.0
 31
0.0
  0
ENDBLK
  5
9F3D
  8
0
  0
BLOCK
  8
0
  2
_ACMFILLEDHALF
 70
     0
 10
0.0
 20
0.0
 30
0.0
  3
_ACMFILLEDHALF
  1

  0
TRACE
  5
A0FF
  8
AM_0
 62
     0
 10
-0.8
 20
0.0
 30
0.0
 11
-1.0
 21
0.166666666
 31
0.0
 12
0.0
 22
0.0
 32
0.0
 13
0.0
 23
0.0
 33
0.0
  0
LINE
  5
A100
  8
AM_0
 62
     0
 10
-1.0
 20
0.0
 30
0.0
 11
-0.8
 21
0.0
 31
0.0
  0
ENDBLK
  5
A0FE
  8
0
  0
ENDSEC
  0
SECTION
  2
ENTITIES
  0
POINT
  5
1B94
  8
0
 10
0.0
 20
0.0
 30
0.0
1001
GENIUS_GENODEF_13
1002
{
1000
HIER
1070
     1
1002
}
1002
{
1000
MANEDIT
1070
     0
1002
}
1002
{
1000
NOSEL
1070
     0
1002
}
1002
{
1000
BEHIND
1070
     0
1002
}
1002
{
1000
REACTOR
1002
}
1001
GENIUS_GENOBJ-N-SDF_13
1002
{
1000
OWNER
1000
GEN
1002
}
1001
GENIUS_GENOENT_13
1002
{
1000
MYREF
1005
1B94
1002
}
1002
{
1000
GRP
1005
0
1002
}
1001
GENIUS_GENOLIS_13
1002
{
1000
ENT
1005
89
1002
}
  0
LINE
  5
8C5E
  8
AM_0
 10
301.3084268767592
 20
116.44858937676661
 30
0.0
 11
333.30840687675919
 21
116.44858937676661
 31
0.0
  0
LINE
  5
8C5F
  8
ﾁｭｳｼﾝｾﾝ
 10
339.17845141224308
 20
101.44858937676661
 30
0.0
 11
200.98810644448861
 21
101.44858937676661
 31
0.0
  0
LINE
  5
8C60
  8
AM_0
 10
293.30838687675919
 20
89.448589376766662
 30
0.0
 11
333.30840687675919
 21
89.448589376766662
 31
0.0
  0
LINE
  5
8C61
  8
AM_0
 10
293.30838687675919
 20
113.44858937676661
 30
0.0
 11
333.30840687675919
 21
113.44858937676661
 31
0.0
  0
ARC
  5
8C65
  8
AM_0
 10
288.30840687675931
 20
127.4773363767669
 30
0.0
 40
3.0
 50
0.0
 51
39.999999000002383
  0
LINE
  5
8C66
  8
AM_0
 10
280.3084268767592
 20
37.167262376766757
 30
0.0
 11
280.3084268767592
 21
168.22993637676669
 31
0.0
  0
LINE
  5
8C67
  8
AM_0
 10
226.30845687675921
 20
152.4485893767669
 30
0.0
 11
226.30845687675921
 21
7.9486003767666471
 31
0.0
  0
LINE
  5
8C68
  8
AM_0
 10
258.30840687675931
 20
165.5225563767666
 30
0.0
 11
258.30840687675931
 21
120.2934373767667
 31
0.0
  0
LINE
  5
8C69
  8
AM_0
 10
286.3084268767592
 20
18.948586376766681
 30
0.0
 11
286.3084268767592
 21
186.4486063767668
 31
0.0
  0
LINE
  5
8C6A
  8
AM_0
 10
188.3084468767594
 20
25.448602376766761
 30
0.0
 11
188.3084468767594
 21
137.44858937676659
 31
0.0
  0
LINE
  5
8C6B
  8
AM_0
 10
214.30845687675921
 20
131.1157333767666
 30
0.0
 11
214.30845687675921
 21
111.4766353767665
 31
0.0
  0
LINE
  5
8C6C
  8
ﾁｭｳｼﾝｾﾝ
 10
8.0284868767593025
 20
81.448603376767096
 30
0.0
 11
207.36766233669221
 21
81.448603376767096
 31
0.0
  0
LINE
  5
8C6D
  8
AM_0
 10
290.30844687675932
 20
101.44858937676661
 30
0.0
 11
290.30844687675932
 21
31.448602376766761
 31
0.0
  0
LINE
  5
8C6E
  8
AM_0
 10
276.30840687675931
 20
21.229165376766669
 30
0.0
 11
276.30840687675931
 21
54.294259376766718
 31
0.0
  0
LINE
  5
8C6F
  8
AM_0
 10
219.3084368767594
 20
122.94291437676659
 30
0.0
 11
219.3084368767594
 21
12.44860037676686
 31
0.0
  0
LINE
  5
8C70
  8
AM_0
 10
226.30845687675921
 20
18.578515376766848
 30
0.0
 11
262.3084268767592
 21
18.578515376766848
 31
0.0
  0
LINE
  5
8C71
  8
AM_0
 10
226.30845687675921
 20
7.9486003767666471
 30
0.0
 11
262.30839687675922
 21
6.4486003767666471
 31
0.0
  0
LINE
  5
8C72
  8
AM_0
 10
188.3084468767594
 20
35.448586376766677
 30
0.0
 11
219.3084368767594
 21
35.448586376766677
 31
0.0
  0
LINE
  5
8C73
  8
AM_0
 10
188.3084468767594
 20
25.448602376766761
 30
0.0
 11
211.38693687675919
 21
24.84426137676666
 31
0.0
  0
LINE
  5
8C74
  8
AM_0
 10
180.30849687675919
 20
25.448587376766682
 30
0.0
 11
188.3084468767594
 21
25.448587376766682
 31
0.0
  0
LINE
  5
8C75
  8
AM_0
 10
180.30849687675919
 20
35.448586376766677
 30
0.0
 11
188.3084468767594
 21
35.448586376766677
 31
0.0
  0
LINE
  5
8C76
  8
AM_0
 10
214.30845687675921
 20
30.232858376766671
 30
0.0
 11
214.30845687675921
 21
18.448603376766751
 31
0.0
  0
LINE
  5
8C77
  8
AM_0
 10
214.30845687675921
 20
18.578515376766848
 30
0.0
 11
219.3084368767594
 21
18.578515376766848
 31
0.0
  0
ARC
  5
8C78
  8
AM_0
 10
216.3084368767596
 20
16.57852937676671
 30
0.0
 40
2.00000007
 50
90.00000299999769
 51
110.7662300000014
  0
ARC
  5
8C79
  8
AM_0
 10
221.30844687675929
 20
12.44860037676686
 30
0.0
 40
2.00000007
 50
179.99998999999889
 51
270.0
  0
LINE
  5
8C7A
  8
AM_0
 10
221.30844687675929
 20
10.44858737676668
 30
0.0
 11
226.30845687675921
 21
10.44858737676668
 31
0.0
  0
ARC
  5
8C7B
  8
AM_0
 10
212.3084468767596
 20
30.232858376766671
 30
0.0
 40
2.00000007
 50
0.0
 51
90.00000299999769
  0
ARC
  5
8C7C
  8
AM_0
 10
211.30845687675921
 20
21.845299376766661
 30
0.0
 40
3.0
 50
0.0
 51
88.499997000000647
  0
LINE
  5
8C7D
  8
AM_0
 10
214.30845687675921
 20
32.2328443767667
 30
0.0
 11
219.3084368767594
 21
32.2328443767667
 31
0.0
  0
ARC
  5
8C7E
  8
AM_0
 10
278.30844687675932
 20
21.229165376766669
 30
0.0
 40
2.00000007
 50
179.99998999999889
 51
268.00000999999861
  0
LINE
  5
8C7F
  8
AM_0
 10
262.3084268767592
 20
21.859063376766692
 30
0.0
 11
262.3084268767592
 21
6.4486003767666471
 31
0.0
  0
LINE
  5
8C80
  8
AM_0
 10
263.28222687675918
 20
22.858711376766681
 30
0.0
 11
276.30840687675931
 21
23.199823376766741
 31
0.0
  0
ARC
  5
8C81
  8
AM_0
 10
263.30844687675932
 20
21.859063376766692
 30
0.0
 40
1.0000000199999941
 50
91.500001000001546
 51
180.00001000000091
  0
LINE
  5
8C82
  8
AM_0
 10
278.23863687675919
 20
19.230385376766652
 30
0.0
 11
286.30845687675912
 21
18.948571376766719
 31
0.0
  0
ARC
  5
8C83
  8
AM_0
 10
277.3084268767592
 20
37.167262376766757
 30
0.0
 40
3.0
 50
270.0
 51
0.0
  0
LINE
  5
8C84
  8
AM_0
 10
290.23866687675911
 20
35.451043376766727
 30
0.0
 11
290.30844687675932
 21
35.44860137676676
 31
0.0
  0
LINE
  5
8C85
  8
AM_0
 10
286.3084268767592
 20
31.448602376766761
 30
0.0
 11
290.30844687675932
 21
31.448602376766761
 31
0.0
  0
LINE
  5
8C87
  8
AM_0
 10
188.3084468767594
 20
49.511590376766648
 30
0.0
 11
219.3084368767594
 21
49.511590376766648
 31
0.0
  0
LINE
  5
8C88
  8
AM_0
 10
180.30849687675919
 20
49.508599376766611
 30
0.0
 11
188.3084468767594
 21
49.508599376766611
 31
0.0
  0
LINE
  5
8C89
  8
AM_0
 10
188.3084468767594
 20
113.3856013767666
 30
0.0
 11
214.30845687675921
 21
113.3856013767666
 31
0.0
  0
LINE
  5
8C8A
  8
AM_0
 10
188.3084468767594
 20
127.4485903767666
 30
0.0
 11
214.30845687675921
 21
127.4485903767666
 31
0.0
  0
LINE
  5
8C8E
  8
AM_0
 10
180.30849687675919
 20
113.3886073767666
 30
0.0
 11
188.3084468767594
 21
113.3886073767666
 31
0.0
  0
LINE
  5
8C8F
  8
AM_0
 10
180.30849687675919
 20
127.4485903767666
 30
0.0
 11
188.3084468767594
 21
127.4485903767666
 31
0.0
  0
LINE
  5
8C90
  8
AM_0
 10
214.30845687675921
 20
109.4766493767666
 30
0.0
 11
219.3084368767594
 21
109.4766493767666
 31
0.0
  0
ARC
  5
8C91
  8
AM_0
 10
212.3084468767596
 20
111.4766353767665
 30
0.0
 40
2.00000007
 50
270.0
 51
0.0
  0
ARC
  5
8C92
  8
AM_0
 10
217.3084568767591
 20
122.94291437676659
 30
0.0
 40
2.00000007
 50
0.0
 51
90.00000299999769
  0
ARC
  5
8C93
  8
AM_0
 10
216.3084368767596
 20
126.94294337676671
 30
0.0
 40
2.00000007
 50
179.99998999999889
 51
270.0
  0
LINE
  5
8C94
  8
AM_0
 10
216.3084368767596
 20
124.9429453767667
 30
0.0
 11
217.3084568767591
 21
124.9429453767667
 31
0.0
  0
LINE
  5
8C95
  8
AM_0
 10
291.30840687675919
 20
75.499279376766694
 30
0.0
 11
291.30840687675919
 21
127.4773363767669
 31
0.0
  0
ARC
  5
8C96
  8
AM_0
 10
279.30840687675931
 20
54.294259376766718
 30
0.0
 40
3.0
 50
90.00000299999769
 51
180.00001000000091
  0
ARC
  5
8C97
  8
AM_0
 10
288.30840687675931
 20
75.499279376766694
 30
0.0
 40
3.0
 50
311.81030999999888
 51
0.0
  0
LINE
  5
8C98
  8
AM_0
 10
263.30844687675932
 20
115.2934543767667
 30
0.0
 11
277.53915687675919
 21
115.2934543767667
 31
0.0
  0
ARC
  5
8C99
  8
AM_0
 10
263.30844687675932
 20
120.2934373767667
 30
0.0
 40
5.0000000999999967
 50
179.99998999999889
 51
270.0
  0
LINE
  5
8C9A
  8
AM_0
 10
290.30844687675932
 20
101.44858937676661
 30
0.0
 11
290.30844687675932
 21
113.2515523767666
 31
0.0
  0
LINE
  5
8C9B
  8
AM_0
 10
293.30838687675919
 20
113.9485903767666
 30
0.0
 11
293.30838687675919
 21
88.948603376766755
 31
0.0
  0
LINE
  5
8C9C
  8
AM_0
 10
291.30840687675919
 20
88.948603376766755
 30
0.0
 11
293.30838687675919
 21
88.948603376766755
 31
0.0
  0
LINE
  5
8C9D
  8
AM_0
 10
291.30840687675919
 20
113.9485903767666
 30
0.0
 11
293.30838687675919
 21
113.9485903767666
 31
0.0
  0
LINE
  5
8C9E
  8
AM_0
 10
286.3084268767592
 20
113.2515523767666
 30
0.0
 11
290.30844687675932
 21
113.2515523767666
 31
0.0
  0
LINE
  5
8C9F
  8
AM_0
 10
301.3084268767592
 20
116.44858937676661
 30
0.0
 11
301.3084268767592
 21
113.44858937676661
 31
0.0
  0
LINE
  5
8CAA
  8
AM_0
 10
226.30845687675921
 20
130.2456163767668
 30
0.0
 11
256.62669687675918
 21
130.2456163767668
 31
0.0
  0
LINE
  5
8CAB
  8
AM_0
 10
226.30845687675921
 20
152.4485893767669
 30
0.0
 11
255.38697687675909
 21
153.2100343767666
 31
0.0
  0
LINE
  5
8CAC
  8
AM_0
 10
188.3084468767594
 20
137.44858937676659
 30
0.0
 11
214.43931687675931
 21
138.13285637676671
 31
0.0
  0
LINE
  5
8CAD
  8
AM_0
 10
180.30849687675919
 20
137.44858937676659
 30
0.0
 11
188.3084468767594
 21
137.44858937676659
 31
0.0
  0
LINE
  5
8CAE
  8
AM_0
 10
219.3084368767594
 20
150.44859137676659
 30
0.0
 11
219.3084368767594
 21
135.1157653767668
 31
0.0
  0
ARC
  5
8CAF
  8
AM_0
 10
214.30845687675921
 20
143.13114737676671
 30
0.0
 40
5.0000000999999967
 50
271.50000000000261
 51
0.0
  0
ARC
  5
8CB0
  8
AM_0
 10
217.3084568767591
 20
135.1157653767668
 30
0.0
 40
2.00000007
 50
270.0
 51
0.0
  0
ARC
  5
8CB1
  8
AM_0
 10
216.3084368767596
 20
131.1157333767666
 30
0.0
 40
2.00000007
 50
90.00000299999769
 51
180.00001000000091
  0
LINE
  5
8CB2
  8
AM_0
 10
216.3084368767596
 20
133.1157343767666
 30
0.0
 11
217.3084568767591
 21
133.1157343767666
 31
0.0
  0
ARC
  5
8CB3
  8
AM_0
 10
221.30844687675929
 20
150.44859137676659
 30
0.0
 40
2.00000007
 50
90.00000299999769
 51
180.00001000000091
  0
LINE
  5
8CB4
  8
AM_0
 10
221.30844687675929
 20
152.4485893767669
 30
0.0
 11
226.30845687675921
 21
152.4485893767669
 31
0.0
  0
ARC
  5
8CB5
  8
AM_0
 10
273.30840687675931
 20
173.8591963767665
 30
0.0
 40
3.0
 50
271.99999999999721
 51
0.0
  0
ARC
  5
8CB6
  8
AM_0
 10
277.3084268767592
 20
168.22993637676669
 30
0.0
 40
3.0
 50
0.0
 51
90.00000299999769
  0
ARC
  5
8CB7
  8
AM_0
 10
263.30844687675932
 20
165.5225563767666
 30
0.0
 40
5.0000000999999967
 50
91.999998000000502
 51
180.00001000000091
  0
LINE
  5
8CB8
  8
AM_0
 10
290.30844687675932
 20
140.07322337676649
 30
0.0
 11
290.30844687675932
 21
171.44857637676679
 31
0.0
  0
LINE
  5
8CB9
  8
AM_0
 10
276.30840687675931
 20
143.40025037676659
 30
0.0
 11
276.30840687675931
 21
184.1679763767666
 31
0.0
  0
ARC
  5
8CBA
  8
AM_0
 10
273.30840687675931
 20
158.44157237676669
 30
0.0
 40
3.0
 50
296.29843000000301
 51
0.0
  0
ARC
  5
8CBB
  8
AM_0
 10
273.76449687675921
 20
141.1057573767666
 30
0.0
 40
3.0
 50
22.483536000001401
 51
90.00000299999769
  0
ARC
  5
8CBC
  8
AM_0
 10
279.30840687675931
 20
143.40025037676659
 30
0.0
 40
3.0
 50
179.99998999999889
 51
270.0
  0
LINE
  5
8CBD
  8
AM_0
 10
259.7565968767592
 20
141.1772593767667
 30
0.0
 11
276.79389687675928
 21
141.1772593767667
 31
0.0
  0
LINE
  5
8CBE
  8
AM_0
 10
258.30837687675921
 20
147.68226437676671
 30
0.0
 11
274.63752687675913
 21
155.7520873767665
 31
0.0
  0
ARC
  5
8CBF
  8
AM_0
 10
260.30844687675932
 20
146.10575537676669
 30
0.0
 40
2.00000007
 50
179.99998999999889
 51
270.0
  0
LINE
  5
8CC0
  8
AM_0
 10
260.30844687675932
 20
144.1057573767666
 30
0.0
 11
273.76449687675921
 21
144.1057573767666
 31
0.0
  0
ARC
  5
8CC1
  8
AM_0
 10
255.30840687675931
 20
156.20902637676679
 30
0.0
 40
3.0
 50
271.50000000000261
 51
0.0
  0
LINE
  5
8CC2
  8
AM_0
 10
263.63394687675913
 20
170.5195063767664
 30
0.0
 11
273.41313687675921
 21
170.86099637676651
 31
0.0
  0
ARC
  5
8CC3
  8
AM_0
 10
284.72253687675919
 20
131.7508663767666
 30
0.0
 40
3.0
 50
39.999999000002383
 51
58.086796999996537
  0
LINE
  5
8CC4
  8
AM_0
 10
290.30838687675919
 20
129.76099937676659
 30
0.0
 11
290.60652687675918
 21
129.4057123767665
 31
0.0
  0
LINE
  5
8CC5
  8
AM_0
 10
287.02059687675921
 20
133.67924237676681
 30
0.0
 11
290.30838687675919
 21
129.76099937676659
 31
0.0
  0
LINE
  5
8CC6
  8
AM_0
 10
286.3084268767592
 20
140.07322337676649
 30
0.0
 11
290.30844687675932
 21
140.07322337676649
 31
0.0
  0
ARC
  5
8CC9
  8
AM_0
 10
278.30844687675932
 20
184.1679763767666
 30
0.0
 40
2.00000007
 50
91.999998000000502
 51
180.00001000000091
  0
LINE
  5
8CCC
  8
AM_0
 10
286.3084268767592
 20
171.44857637676679
 30
0.0
 11
290.30844687675932
 21
171.44857637676679
 31
0.0
  0
LINE
  5
8CCD
  8
AM_0
 10
278.23863687675919
 20
186.16675637676661
 30
0.0
 11
286.3084268767592
 21
186.4486063767668
 31
0.0
  0
LINE
  5
8CD5
  8
AM_0
 10
333.30840687675919
 20
116.44858937676661
 30
0.0
 11
333.30840687675919
 21
89.448589376766662
 31
0.0
  0
CIRCLE
  5
8CE1
  8
AM_0
 10
572.95344383840029
 20
126.1925173767666
 30
0.0
 40
4.9796462999999971
  0
CIRCLE
  5
8CE2
  8
AM_0
 10
456.33047183840011
 20
126.19257737676671
 30
0.0
 40
4.9796462999999971
  0
ARC
  5
8CE3
  8
AM_0
 10
514.64191883840033
 20
101.4486193767667
 30
0.0
 40
26.500002599999998
 50
90.00000299999769
 51
270.0
  0
ARC
  5
8CE4
  8
AM_0
 10
514.64191883840033
 20
101.4486193767667
 30
0.0
 40
26.500002599999998
 50
270.0
 51
90.00000299999769
  0
ARC
  5
8CE5
  8
AM_0
 10
535.90986383840027
 20
130.49470337676661
 30
0.0
 40
3.0
 50
233.78793999999689
 51
315.0
  0
ARC
  5
8CE6
  8
AM_0
 10
493.37402183840032
 20
130.49470337676661
 30
0.0
 40
3.0
 50
225.0
 51
306.21206000000308
  0
ARC
  5
8CE7
  8
AM_0
 10
514.64191883840033
 20
101.44858937676661
 30
0.0
 40
33.0
 50
0.0
 51
180.00001000000091
  0
ARC
  5
8CE8
  8
AM_0
 10
514.64191883840033
 20
101.44858937676661
 30
0.0
 40
70.000001999999995
 50
164.54750999999871
 51
0.0000100179138904
  0
ARC
  5
8CE9
  8
AM_0
 10
514.64191883840033
 20
101.44858937676661
 30
0.0
 40
66.000003000000007
 50
168.12283999999849
 51
0.0000100179138904
  0
ARC
  5
8CEA
  8
AM_0
 10
514.64191883840033
 20
101.44858937676661
 30
0.0
 40
52.000007999999987
 50
5.2159076999981933
 51
42.244334000000627
  0
ARC
  5
8CEB
  8
AM_0
 10
514.64191883840033
 20
101.44858937676661
 30
0.0
 40
52.000007999999987
 50
137.75567000000419
 51
174.78408999999971
  0
ARC
  5
8CEC
  8
AM_0
 10
456.33047183840011
 20
126.19257737676671
 30
0.0
 40
11.000000399999999
 50
85.156818000000413
 51
228.85605999999709
  0
ARC
  5
8CED
  8
AM_0
 10
572.95339883840029
 20
126.19257737676671
 30
0.0
 40
11.000000399999999
 50
311.14394000000038
 51
94.843180000001425
  0
LINE
  5
8CEE
  8
AM_0
 10
578.70344483839995
 20
126.1925473767667
 30
0.0
 11
575.82844583840006
 21
131.17216037676661
 31
0.0
  0
LINE
  5
8CEF
  8
AM_0
 10
567.20344583840006
 20
126.1925173767666
 30
0.0
 11
570.07844483839995
 21
131.17216037676661
 31
0.0
  0
LINE
  5
8CF0
  8
AM_0
 10
462.08050283840032
 20
126.1926073767666
 30
0.0
 11
459.20550083840033
 21
131.17222337676671
 31
0.0
  0
LINE
  5
8CF1
  8
AM_0
 10
450.58050083840033
 20
126.19257737676671
 30
0.0
 11
453.45549983840021
 21
131.17222337676671
 31
0.0
  0
LINE
  5
8CF2
  8
AM_0
 10
599.64194483840026
 20
131.44858937676659
 30
0.0
 11
599.64194483840026
 21
101.44858937676661
 31
0.0
  0
LINE
  5
8CF3
  8
AM_0
 10
468.49653383840013
 20
144.05845337676641
 30
0.0
 11
487.71715883840022
 21
124.83784037676671
 31
0.0
  0
LINE
  5
8CF4
  8
AM_0
 10
560.78735183840035
 20
144.05848337676659
 30
0.0
 11
541.56670883840036
 21
124.83784037676671
 31
0.0
  0
LINE
  5
8CF5
  8
AM_0
 10
429.6419318384003
 20
131.44858937676659
 30
0.0
 11
429.6419318384003
 21
101.44858937676661
 31
0.0
  0
LINE
  5
8CF6
  8
ﾁｭｳｼﾝｾﾝ
 10
514.64191883840033
 20
191.32794069368919
 30
0.0
 11
514.64191883840033
 21
-0.4146946232333412
 31
0.0
  0
CIRCLE
  5
8CFA
  8
AM_0
 10
542.76922583839996
 20
13.54348037676675
 30
0.0
 40
4.9796462999999971
  0
ARC
  5
8CFB
  8
AM_0
 10
542.76922583839996
 20
13.54348037676675
 30
0.0
 40
7.0000007999999987
 50
270.00002000000188
 51
15.080558999996111
  0
ARC
  5
8CFC
  8
AM_0
 10
552.64195283840024
 20
81.448603376767096
 30
0.0
 40
5.0000000999999967
 50
179.99998999999889
 51
270.0
  0
LINE
  5
8CFD
  8
AM_0
 10
548.51922383840019
 20
13.54348037676675
 30
0.0
 11
545.64423983840027
 21
18.523111376766678
 31
0.0
  0
LINE
  5
8CFE
  8
AM_0
 10
548.51922383840019
 20
13.543465376766679
 30
0.0
 11
545.64422483840031
 21
8.5638193767666788
 31
0.0
  0
LINE
  5
8CFF
  8
AM_0
 10
473.69073083840033
 20
23.448616376766719
 30
0.0
 11
555.59315483840032
 21
23.448616376766719
 31
0.0
  0
LINE
  5
8D00
  8
ﾁｭｳｼﾝｾﾝ
 10
424.66608233840032
 20
101.44858937676661
 30
0.0
 11
604.61775533840034
 21
101.44858937676661
 31
0.0
  0
LINE
  5
8D01
  8
AM_0
 10
429.6419318384003
 20
71.448589376766691
 30
0.0
 11
431.89669283840033
 21
28.425241376766738
 31
0.0
  0
ARC
  5
8D02
  8
AM_0
 10
486.51465983840018
 20
13.54348037676675
 30
0.0
 40
7.0000007999999987
 50
164.919440000001
 51
270.0
  0
ARC
  5
8D03
  8
AM_0
 10
474.92442083840029
 20
16.652611376766679
 30
0.0
 40
5.0000000999999967
 50
344.9836399999993
 51
56.872543000004462
  0
CIRCLE
  5
8D04
  8
AM_0
 10
443.93127083840028
 20
30.73792337676673
 30
0.0
 40
6.0000002999999991
  0
LINE
  5
8D06
  8
AM_0
 10
441.88299083840019
 20
18.948586376766681
 30
0.0
 11
471.0926468384003
 21
18.948586376766681
 31
0.0
  0
ARC
  5
8D08
  8
AM_0
 10
441.88299083840019
 20
28.948603376766751
 30
0.0
 40
10.000000199999979
 50
183.00000999999969
 51
270.0
  0
LINE
  5
8D09
  8
AM_0
 10
471.09266183840032
 20
18.948586376766681
 30
0.0
 11
473.69074583840029
 21
23.448601376767101
 31
0.0
  0
ARC
  5
8D0A
  8
AM_0
 10
514.64191883840033
 20
81.448603376767096
 30
0.0
 40
71.000000999999983
 50
234.7757899999998
 51
238.49326999999681
  0
LINE
  5
8D0B
  8
AM_0
 10
486.51465983840018
 20
6.5434813767666391
 30
0.0
 11
542.76922583839996
 21
6.5434813767666391
 31
0.0
  0
CIRCLE
  5
8D0C
  8
AM_0
 10
486.51465983840018
 20
13.54348037676675
 30
0.0
 40
4.9796462999999971
  0
LINE
  5
8D0D
  8
AM_0
 10
492.26466083840018
 20
13.54348037676675
 30
0.0
 11
489.38966183840029
 21
8.5638193767666788
 31
0.0
  0
LINE
  5
8D0E
  8
AM_0
 10
483.63964583840021
 20
8.5638193767666788
 30
0.0
 11
480.76466183840012
 21
13.543465376766679
 31
0.0
  0
LINE
  5
8D0F
  8
AM_0
 10
489.38964683840032
 20
8.5638373767666298
 30
0.0
 11
483.63964583840021
 21
8.5638373767666298
 31
0.0
  0
LINE
  5
8D10
  8
AM_0
 10
489.38964683840032
 20
18.523126376766871
 30
0.0
 11
483.63964583840021
 21
18.523126376766871
 31
0.0
  0
LINE
  5
8D11
  8
AM_0
 10
480.76466183840012
 20
13.543465376766679
 30
0.0
 11
483.63966083840029
 21
18.523126376766871
 31
0.0
  0
LINE
  5
8D12
  8
AM_0
 10
492.26466083840018
 20
13.54348037676675
 30
0.0
 11
489.38966183840029
 21
18.523111376766678
 31
0.0
  0
LINE
  5
8D13
  8
AM_0
 10
539.89422383840031
 20
8.5638193767666788
 30
0.0
 11
537.01922483840031
 21
13.543465376766679
 31
0.0
  0
LINE
  5
8D14
  8
AM_0
 10
545.64423983840027
 20
8.5638373767666298
 30
0.0
 11
539.89423883840027
 21
8.5638373767666298
 31
0.0
  0
LINE
  5
8D15
  8
AM_0
 10
537.01922483840031
 20
13.543465376766679
 30
0.0
 11
539.89422383840031
 21
18.523111376766678
 31
0.0
  0
LINE
  5
8D16
  8
AM_0
 10
545.64423983840027
 20
18.523126376766871
 30
0.0
 11
539.89423883840027
 21
18.523126376766871
 31
0.0
  0
ARC
  5
8D17
  8
AM_0
 10
476.64193283840012
 20
81.448603376767096
 30
0.0
 40
5.0000000999999967
 50
270.0
 51
0.0
  0
LINE
  5
8D18
  8
AM_0
 10
462.64193483840012
 20
96.448603376766755
 30
0.0
 11
462.64193483840012
 21
79.448602376766743
 31
0.0
  0
LINE
  5
8D19
  8
AM_0
 10
429.6419318384003
 20
71.448589376766691
 30
0.0
 11
429.6419318384003
 21
101.44858937676661
 31
0.0
  0
LINE
  5
8D1A
  8
AM_0
 10
476.64193283840012
 20
76.448602376766743
 30
0.0
 11
455.60802683840018
 21
76.448602376766743
 31
0.0
  0
ARC
  5
8D1B
  8
AM_0
 10
455.60802683840018
 20
79.448602376766743
 30
0.0
 40
3.0
 50
200.43878000000021
 51
270.0
  0
ARC
  5
8D1C
  8
AM_0
 10
459.6419318384003
 20
79.448602376766743
 30
0.0
 40
3.0
 50
270.0
 51
0.0
  0
ARC
  5
8D1D
  8
AM_0
 10
447.35668583840021
 20
111.2819473767665
 30
0.0
 40
2.00000007
 50
79.999998000001099
 51
171.68541000000101
  0
ARC
  5
8D1E
  8
AM_0
 10
451.84066283840042
 20
106.44860537676691
 30
0.0
 40
3.0
 50
175.44793000000081
 51
270.0
  0
LINE
  5
8D1F
  8
AM_0
 10
451.84066283840042
 20
99.448603376766755
 30
0.0
 11
459.6419318384003
 21
99.448603376766755
 31
0.0
  0
LINE
  5
8D20
  8
AM_0
 10
451.84066283840042
 20
103.44860537676669
 30
0.0
 11
459.8696858384003
 21
103.44860537676669
 31
0.0
  0
ARC
  5
8D21
  8
AM_0
 10
451.84066283840042
 20
96.448603376766755
 30
0.0
 40
3.0
 50
90.00000299999769
 51
184.55206999999911
  0
ARC
  5
8D22
  8
AM_0
 10
459.6419318384003
 20
96.448603376766755
 30
0.0
 40
3.0
 50
0.0
 51
90.00000299999769
  0
ARC
  5
8D23
  8
AM_0
 10
459.8696858384003
 20
106.44860537676691
 30
0.0
 40
3.0
 50
270.0
 51
354.78408999999971
  0
ARC
  5
8D24
  8
AM_0
 10
447.1191668384003
 20
115.6497763767666
 30
0.0
 40
3.0
 50
348.12283999999858
 51
48.856062999997391
  0
ARC
  5
8D25
  8
AM_0
 10
447.35668583840021
 20
111.2819473767665
 30
0.0
 40
2.00000007
 50
351.68541000000101
 51
79.999998000001099
  0
LINE
  5
8D26
  8
AM_0
 10
447.70397483840043
 20
113.2515523767666
 30
0.0
 11
447.70397483840043
 21
113.2515523767666
 31
0.0
  0
LINE
  5
8D27
  8
AM_0
 10
459.20550083840033
 20
121.2129343767667
 30
0.0
 11
453.45549983840021
 21
121.2129343767667
 31
0.0
  0
LINE
  5
8D28
  8
AM_0
 10
453.45549983840021
 20
121.21296437676671
 30
0.0
 11
450.58050083840033
 21
126.19257737676671
 31
0.0
  0
LINE
  5
8D29
  8
AM_0
 10
462.08050283840032
 20
126.19257737676671
 30
0.0
 11
459.20550083840033
 21
121.2129343767667
 31
0.0
  0
LINE
  5
8D2A
  8
AM_0
 10
481.64191883840022
 20
101.44858937676661
 30
0.0
 11
481.64191883840022
 21
81.448603376767096
 31
0.0
  0
LINE
  5
8D2B
  8
ﾁｭｳｼﾝｾﾝ
 10
554.07452898916301
 20
81.44860337676711
 30
0.0
 11
475.20930868763759
 21
81.44860337676711
 31
0.0
  0
CIRCLE
  5
8D2C
  8
AM_0
 10
514.64191883840033
 20
101.44858937676661
 30
0.0
 40
3.0
  0
CIRCLE
  5
8D2D
  8
AM_5
 10
514.64191883840033
 20
101.44858937676661
 30
0.0
 40
4.000000199999997
  0
ARC
  5
8D2E
  8
AM_0
 10
514.64191883840033
 20
101.44858937676661
 30
0.0
 40
12.000000299999989
 50
109.47121999999951
 51
70.528788999999307
  0
LINE
  5
8D2F
  8
AM_0
 10
510.64191983840033
 20
109.4485903767666
 30
0.0
 11
518.64190583840025
 21
109.4485903767666
 31
0.0
  0
LINE
  5
8D30
  8
AM_0
 10
510.64191983840033
 20
116.44858937676661
 30
0.0
 11
518.64190583840025
 21
116.44858937676661
 31
0.0
  0
ARC
  5
8D31
  8
AM_0
 10
485.59583783840009
 20
122.71650437676649
 30
0.0
 40
3.0
 50
323.78793999999692
 51
45.000001000003799
  0
LINE
  5
8D32
  8
AM_0
 10
510.64191983840033
 20
116.44858937676661
 30
0.0
 11
510.64191983840033
 21
109.4485903767666
 31
0.0
  0
LINE
  5
8D33
  8
AM_0
 10
518.64190583840025
 20
116.44858937676661
 30
0.0
 11
518.64190583840025
 21
109.4485903767666
 31
0.0
  0
ARC
  5
8D34
  8
AM_0
 10
543.68804783840028
 20
122.71650437676649
 30
0.0
 40
3.0
 50
135.0
 51
216.21206000000311
  0
LINE
  5
8D35
  8
AM_0
 10
599.64195383840013
 20
71.448589376766691
 30
0.0
 11
597.38719883840031
 21
28.425241376766738
 31
0.0
  0
CIRCLE
  5
8D36
  8
AM_0
 10
585.35262983840005
 20
30.73792337676673
 30
0.0
 40
6.0000002999999991
  0
LINE
  5
8D39
  8
AM_0
 10
558.19122083839989
 20
18.948586376766681
 30
0.0
 11
587.40089483840029
 21
18.948586376766681
 31
0.0
  0
ARC
  5
8D3A
  8
AM_0
 10
554.35944983840034
 20
16.652611376766679
 30
0.0
 40
5.0000000999999967
 50
121.5067300000031
 51
195.0163500000038
  0
LINE
  5
8D3B
  8
AM_0
 10
558.1912388384003
 20
18.948571376766719
 30
0.0
 11
555.59315483840032
 21
23.448586376766681
 31
0.0
  0
ARC
  5
8D3C
  8
AM_0
 10
514.64191883840033
 20
81.448603376767096
 30
0.0
 40
71.000000999999983
 50
301.50671999999992
 51
305.22421000000008
  0
ARC
  5
8D3E
  8
AM_0
 10
587.40089483840029
 20
28.948603376766751
 30
0.0
 40
10.000000199999979
 50
270.0
 51
357.00000000000091
  0
LINE
  5
8D40
  8
AM_0
 10
547.6419368384004
 20
101.44858937676661
 30
0.0
 11
547.6419368384004
 21
81.448603376767096
 31
0.0
  0
LINE
  5
8D41
  8
AM_0
 10
599.64194483840026
 20
71.448589376766691
 30
0.0
 11
599.64194483840026
 21
101.44858937676661
 31
0.0
  0
LINE
  5
8D42
  8
AM_0
 10
566.64195083840025
 20
96.448603376766755
 30
0.0
 11
566.64195083840025
 21
79.448602376766743
 31
0.0
  0
LINE
  5
8D43
  8
AM_0
 10
552.64195283840024
 20
76.448602376766743
 30
0.0
 11
573.67584083840029
 21
76.448602376766743
 31
0.0
  0
ARC
  5
8D44
  8
AM_0
 10
569.64195083840025
 20
79.448602376766743
 30
0.0
 40
3.0
 50
179.99998999999889
 51
270.0
  0
ARC
  5
8D45
  8
AM_0
 10
573.67584083840029
 20
79.448602376766743
 30
0.0
 40
3.0
 50
270.0
 51
339.56121999999971
  0
ARC
  5
8D46
  8
AM_0
 10
577.44322283840029
 20
106.44860537676691
 30
0.0
 40
3.0
 50
270.0
 51
4.5520713999981091
  0
ARC
  5
8D47
  8
AM_0
 10
577.44322283840029
 20
96.448603376766755
 30
0.0
 40
3.0
 50
355.44793000000089
 51
90.00000299999769
  0
ARC
  5
8D48
  8
AM_0
 10
514.64191883840033
 20
101.44858937676661
 30
0.0
 40
66.000003000000007
 50
0.0
 51
11.877162000000441
  0
ARC
  5
8D49
  8
AM_0
 10
581.92719983840016
 20
111.2819473767665
 30
0.0
 40
2.00000007
 50
99.999999999998593
 51
188.3145899999989
  0
LINE
  5
8D4A
  8
AM_0
 10
577.44322283840029
 20
99.448603376766755
 30
0.0
 11
569.64195083840025
 21
99.448603376766755
 31
0.0
  0
LINE
  5
8D4B
  8
AM_0
 10
577.44322283840029
 20
103.44860537676669
 30
0.0
 11
569.41421483840031
 21
103.44860537676669
 31
0.0
  0
ARC
  5
8D4C
  8
AM_0
 10
569.41421483840031
 20
106.44860537676691
 30
0.0
 40
3.0
 50
185.21591000000021
 51
270.0
  0
ARC
  5
8D4D
  8
AM_0
 10
569.64195083840025
 20
96.448603376766755
 30
0.0
 40
3.0
 50
90.00000299999769
 51
180.00001000000091
  0
ARC
  5
8D4E
  8
AM_0
 10
582.16473383840025
 20
115.6497763767666
 30
0.0
 40
3.0
 50
131.1439400000003
 51
191.87716000000131
  0
LINE
  5
8D4F
  8
AM_0
 10
575.82844583840006
 20
121.2128713767666
 30
0.0
 11
570.07844483839995
 21
121.2128713767666
 31
0.0
  0
LINE
  5
8D50
  8
AM_0
 10
570.07842983840033
 20
121.2128713767666
 30
0.0
 11
567.20344583840006
 21
126.1925173767666
 31
0.0
  0
LINE
  5
8D51
  8
AM_0
 10
578.70344483839995
 20
126.1925173767666
 30
0.0
 11
575.82844583840006
 21
121.2128713767666
 31
0.0
  0
ARC
  5
8D52
  8
AM_0
 10
514.64191883840033
 20
101.44858937676661
 30
0.0
 40
70.000001999999995
 50
0.0
 51
15.45248699999985
  0
ARC
  5
8D53
  8
AM_0
 10
581.92719983840016
 20
111.2819473767665
 30
0.0
 40
2.00000007
 50
8.3145874000023383
 51
99.999999999998593
  0
LINE
  5
8D54
  8
AM_0
 10
581.57991083840011
 20
113.2515673767668
 30
0.0
 11
581.57991083840011
 21
113.2515673767668
 31
0.0
  0
ARC
  5
8D55
  8
AM_0
 10
514.64191883840033
 20
101.44858937676661
 30
0.0
 40
52.000007999999987
 50
47.755664999997713
 51
84.784093999997353
  0
ARC
  5
8D56
  8
AM_0
 10
514.64191883840033
 20
101.44858937676661
 30
0.0
 40
70.000001999999995
 50
30.534626999999471
 51
149.46536999999779
  0
ARC
  5
8D57
  8
AM_0
 10
514.64191883840033
 20
101.44858937676661
 30
0.0
 40
66.000003000000007
 50
34.10995400000072
 51
145.89004000000139
  0
LINE
  5
8D58
  8
AM_0
 10
544.64195183840025
 20
186.4486063767668
 30
0.0
 11
587.91136283840035
 21
184.18096637676661
 31
0.0
  0
LINE
  5
8D59
  8
AM_0
 10
557.25181583840038
 20
147.5940073767666
 30
0.0
 11
538.03118783840034
 21
128.37336437676669
 31
0.0
  0
ARC
  5
8D5C
  8
AM_0
 10
514.64190373813597
 20
101.4485893767655
 30
0.0
 40
52.000008000001337
 50
95.215872166830678
 51
132.2443299999957
  0
LINE
  5
8D5D
  8
AM_0
 10
472.03206983840028
 20
147.5940073767666
 30
0.0
 11
491.25269783840008
 21
128.37336437676669
 31
0.0
  0
LINE
  5
8D5E
  8
AM_0
 10
484.64194883840008
 20
186.4486063767668
 30
0.0
 11
441.3725228384003
 21
184.18093637676691
 31
0.0
  0
CIRCLE
  5
8D5F
  8
AM_0
 10
443.93127083840028
 20
172.15927637676691
 30
0.0
 40
6.0000002999999991
  0
LINE
  5
8D61
  8
AM_0
 10
429.64196183840011
 20
131.44858937676659
 30
0.0
 11
431.90960183840008
 21
174.7180063767666
 31
0.0
  0
ARC
  5
8D63
  8
AM_0
 10
474.1533638384002
 20
149.7153133767666
 30
0.0
 40
3.0
 50
129.9916100000014
 51
225.0
  0
LINE
  5
8D64
  8
AM_0
 10
459.20550083840033
 20
131.17222337676671
 30
0.0
 11
453.45549983840021
 21
131.17222337676671
 31
0.0
  0
ARC
  5
8D65
  8
AM_0
 10
457.51250783840032
 20
140.14262237676681
 30
0.0
 40
3.0
 50
265.1568199999985
 51
325.89004999999969
  0
ARC
  5
8D66
  8
AM_0
 10
460.1108678384
 20
142.0732243767668
 30
0.0
 40
2.00000007
 50
143.31458000000069
 51
235.00000999999901
  0
ARC
  5
8D67
  8
AM_0
 10
460.1108678384
 20
142.0732243767668
 30
0.0
 40
2.00000007
 50
235.00000000000259
 51
323.31459000000211
  0
LINE
  5
8D68
  8
AM_0
 10
458.96370983840018
 20
140.43491837676649
 30
0.0
 11
458.96370983840018
 21
140.43491837676649
 31
0.0
  0
ARC
  5
8D69
  8
AM_0
 10
466.37520983840022
 20
141.93714737676649
 30
0.0
 40
3.0
 50
45.000001000003799
 51
140.00839000000059
  0
ARC
  5
8D6A
  8
AM_0
 10
441.89589983840023
 20
174.1946563767666
 30
0.0
 40
10.000000199999979
 50
92.999999000001665
 51
176.9999900000002
  0
LINE
  5
8D6C
  8
AM_0
 10
512.64193583839995
 20
164.24986637676651
 30
0.0
 11
512.64193583839995
 21
156.22086737676679
 31
0.0
  0
ARC
  5
8D6D
  8
AM_0
 10
509.64193583840029
 20
156.22086737676679
 30
0.0
 40
3.0
 50
275.21591000000001
 51
0.0
  0
ARC
  5
8D6E
  8
AM_0
 10
509.64193583840029
 20
164.24986637676651
 30
0.0
 40
3.0
 50
0.0
 51
94.552071000002385
  0
LINE
  5
8D6F
  8
AM_0
 10
516.64193483840006
 20
164.24986637676651
 30
0.0
 11
516.64193483840006
 21
156.22086737676679
 31
0.0
  0
ARC
  5
8D70
  8
AM_0
 10
519.64193483840018
 20
156.22086737676679
 30
0.0
 40
3.0
 50
179.99998999999889
 51
264.78408999999988
  0
ARC
  5
8D71
  8
AM_0
 10
519.64193483840018
 20
164.24986637676651
 30
0.0
 40
3.0
 50
85.44792699999806
 51
180.00001000000091
  0
LINE
  5
8D72
  8
AM_0
 10
484.64191883840022
 20
186.4486063767668
 30
0.0
 11
514.64191883840033
 21
186.4486063767668
 31
0.0
  0
LINE
  5
8D73
  8
AM_0
 10
544.64193683840017
 20
186.4486063767668
 30
0.0
 11
514.64191883840033
 21
186.4486063767668
 31
0.0
  0
CIRCLE
  5
8D7B
  8
AM_0
 10
585.35262983840005
 20
172.15927637676691
 30
0.0
 40
6.0000002999999991
  0
ARC
  5
8D7C
  8
ﾁｭｳｼﾝｾﾝ
 10
514.64191883840033
 20
101.44858937676661
 30
0.0
 40
100.0000109999999
 50
38.694273947669302
 51
51.305706605504433
  0
LINE
  5
8D7D
  8
AM_0
 10
599.64194483840026
 20
131.44858937676659
 30
0.0
 11
597.3742898384005
 21
174.7180063767666
 31
0.0
  0
LINE
  5
8D7E
  8
ﾁｭｳｼﾝｾﾝ
 10
593.13079993145095
 20
179.93745546981731
 30
0.0
 11
577.57445074534917
 21
164.38110628371601
 31
0.0
  0
ARC
  5
8D7F
  8
AM_0
 10
555.13050683840015
 20
149.7153133767666
 30
0.0
 40
3.0
 50
315.0
 51
50.008388000004949
  0
ARC
  5
8D80
  8
AM_0
 10
562.90867583840031
 20
141.93714737676649
 30
0.0
 40
3.0
 50
39.991610999998258
 51
135.0
  0
LINE
  5
8D81
  8
AM_0
 10
575.82844583840006
 20
131.1721933767667
 30
0.0
 11
570.07844483839995
 21
131.1721933767667
 31
0.0
  0
ARC
  5
8D82
  8
AM_0
 10
571.77139283840029
 20
140.14262237676681
 30
0.0
 40
3.0
 50
214.10995999999849
 51
274.8431800000015
  0
ARC
  5
8D83
  8
AM_0
 10
569.17303283840033
 20
142.0732243767668
 30
0.0
 40
2.00000007
 50
216.6854199999992
 51
304.99999999999739
  0
ARC
  5
8D84
  8
AM_0
 10
569.17303283840033
 20
142.0732243767668
 30
0.0
 40
2.00000007
 50
304.99999999999739
 51
36.685413999995561
  0
LINE
  5
8D85
  8
AM_0
 10
570.32019083839998
 20
140.43491837676649
 30
0.0
 11
570.32019083839998
 21
140.43491837676649
 31
0.0
  0
ARC
  5
8D86
  8
AM_0
 10
587.38800083839988
 20
174.1946563767666
 30
0.0
 40
10.000000199999979
 50
3.0000000999988461
 51
86.99999899999699
  0
ARC
  5
8D8D
  8
AM_0
 10
73.632246876759481
 20
96.45861437676659
 30
0.0
 40
1.335016049999999
 50
89.732355000002002
 51
270.26763000000221
  0
LINE
  5
8D8E
  8
ﾁｭｳｼﾝｾﾝ
 10
129.3084368767596
 20
122.0736178767671
 30
0.0
 11
129.3084368767596
 21
40.823588876767019
 31
0.0
  0
LINE
  5
8D8F
  8
AM_0
 10
170.07846687675919
 20
111.4435993767665
 30
0.0
 11
170.07846687675919
 21
51.443596376766649
 31
0.0
  0
LINE
  5
8D90
  8
AM_0
 10
72.308436876759572
 20
134.44358837676651
 30
0.0
 11
72.308436876759572
 21
32.003608376766572
 31
0.0
  0
LINE
  5
8D91
  8
AM_0
 10
180.30846687675921
 20
137.4485983767668
 30
0.0
 11
180.30846687675921
 21
25.448587376766682
 31
0.0
  0
LINE
  5
8D93
  8
AM_0
 10
173.54850143277221
 20
45.448603376766741
 30
0.0
 11
74.950941033682
 21
45.448603376766741
 31
0.0
  0
LINE
  5
8D94
  8
AM_0
 10
129.3084368767596
 20
44.723596376766743
 30
0.0
 11
177.1284668767596
 21
44.723596376766743
 31
0.0
  0
LINE
  5
8D95
  8
AM_0
 10
75.508446876759578
 20
25.163581376766729
 30
0.0
 11
172.42845687675921
 21
25.163581376766729
 31
0.0
  0
LINE
  5
8D96
  8
AM_0
 10
97.808436876759586
 20
43.22359637676675
 30
0.0
 11
180.30846687675921
 21
43.22359637676675
 31
0.0
  0
ARC
  5
8D97
  8
AM_0
 10
279.35963008401279
 20
83.136177316688389
 30
0.0
 40
204.69842337270771
 50
178.02572260412779
 51
178.71785518950381
  0
ARC
  5
8D98
  8
AM_0
 10
279.28237819585001
 20
79.756633450741234
 30
0.0
 40
204.6212004872653
 50
181.28349981584489
 51
181.9756167481539
  0
ARC
  5
8D99
  8
AM_0
 10
74.850696876759287
 20
46.443598376766651
 30
0.0
 40
1.0000319699999971
 50
89.552707000000495
 51
270.44730000000112
  0
ARC
  5
8D9A
  8
AM_0
 10
74.850696876759287
 20
96.443599376766642
 30
0.0
 40
1.0000319699999971
 50
89.552707000000495
 51
270.44730000000112
  0
ARC
  5
8D9B
  8
AM_0
 10
74.850696876759287
 20
86.443597376766661
 30
0.0
 40
1.0000319699999971
 50
89.552707000000495
 51
270.44730000000112
  0
ARC
  5
8D9C
  8
AM_0
 10
74.850696876759287
 20
76.443598376766658
 30
0.0
 40
1.0000319699999971
 50
89.552707000000495
 51
270.44730000000112
  0
ARC
  5
8D9D
  8
AM_0
 10
74.850696876759287
 20
66.443596376766635
 30
0.0
 40
1.0000319699999971
 50
89.552707000000495
 51
270.44730000000112
  0
ARC
  5
8D9E
  8
AM_0
 10
74.850696876759287
 20
56.443582376766692
 30
0.0
 40
1.0000319699999971
 50
89.552707000000495
 51
270.44730000000112
  0
ARC
  5
8D9F
  8
AM_0
 10
73.570236876759282
 20
86.453578376766586
 30
0.0
 40
1.270028039999999
 50
89.627211000000742
 51
270.37279000000223
  0
ARC
  5
8DA0
  8
AM_0
 10
73.570236876759282
 20
76.443598376766658
 30
0.0
 40
1.270028039999999
 50
89.627211000000742
 51
270.37279000000223
  0
ARC
  5
8DA1
  8
AM_0
 10
73.632246876759481
 20
66.433588376766693
 30
0.0
 40
1.3300160699999981
 50
89.73134399999789
 51
270.2686499999993
  0
ARC
  5
8DA2
  8
AM_0
 10
73.762866876759574
 20
56.423608376766651
 30
0.0
 40
1.460012009999998
 50
89.778814000002811
 51
270.22118999999998
  0
ARC
  5
8DA3
  8
AM_0
 10
75.60057687675959
 20
21.554071376766728
 30
0.0
 40
2.000475929999999
 50
187.77046000000081
 51
269.93969000000249
  0
ARC
  5
8DA4
  8
AM_0
 10
75.513096876759263
 20
27.162589376766729
 30
0.0
 40
1.999007999999999
 50
190.63740999999681
 51
269.86655000000292
  0
ARC
  5
8DA5
  8
AM_0
 10
75.564426876759569
 20
24.313774376766681
 30
0.0
 40
2.0001841200000001
 50
188.92099999999621
 51
269.8285299999992
  0
ARC
  5
8DA6
  8
AM_0
 10
75.571986876759297
 20
22.470925376766669
 30
0.0
 40
1.997348129999998
 50
188.85146999999961
 51
270.18467999999763
  0
LINE
  5
8DA7
  8
AM_0
 10
78.308436876759572
 20
97.443598376766658
 30
0.0
 11
74.668506876759295
 21
97.443598376766658
 31
0.0
  0
LINE
  5
8DA8
  8
AM_0
 10
78.308436876759572
 20
95.443597376766661
 30
0.0
 11
74.668506876759295
 21
95.443597376766661
 31
0.0
  0
LINE
  5
8DA9
  8
AM_0
 10
78.308436876759572
 20
87.443599376766656
 30
0.0
 11
74.668506876759295
 21
87.443599376766656
 31
0.0
  0
LINE
  5
8DAA
  8
AM_0
 10
78.308436876759572
 20
85.443598376766644
 30
0.0
 11
74.668506876759295
 21
85.443598376766644
 31
0.0
  0
LINE
  5
8DAB
  8
AM_0
 10
73.638456876759264
 20
95.123590376766742
 30
0.0
 11
78.308436876759572
 21
95.123590376766742
 31
0.0
  0
LINE
  5
8DAC
  8
AM_0
 10
73.578456876759233
 20
87.723598376766745
 30
0.0
 11
78.308436876759572
 21
87.723598376766745
 31
0.0
  0
LINE
  5
8DAD
  8
AM_0
 10
73.578456876759233
 20
85.183588376766707
 30
0.0
 11
78.308436876759572
 21
85.183588376766707
 31
0.0
  0
LINE
  5
8DAE
  8
AM_0
 10
73.578456876759233
 20
77.713588376766651
 30
0.0
 11
78.308436876759572
 21
77.713588376766651
 31
0.0
  0
LINE
  5
8DAF
  8
AM_0
 10
78.308436876759572
 20
77.443597376766647
 30
0.0
 11
74.668506876759295
 21
77.443597376766647
 31
0.0
  0
LINE
  5
8DB0
  8
AM_0
 10
78.308436876759572
 20
75.443599376766656
 30
0.0
 11
74.668506876759295
 21
75.443599376766656
 31
0.0
  0
LINE
  5
8DB1
  8
AM_0
 10
73.578456876759233
 20
75.173608376766651
 30
0.0
 11
78.308436876759572
 21
75.173608376766651
 31
0.0
  0
LINE
  5
8DB2
  8
AM_0
 10
73.638456876759264
 20
67.763605376766691
 30
0.0
 11
78.308436876759572
 21
67.763605376766691
 31
0.0
  0
LINE
  5
8DB3
  8
AM_0
 10
78.308436876759572
 20
67.443598376766658
 30
0.0
 11
74.668506876759295
 21
67.443598376766658
 31
0.0
  0
LINE
  5
8DB4
  8
AM_0
 10
78.308436876759572
 20
65.443582376766699
 30
0.0
 11
74.668506876759295
 21
65.443582376766699
 31
0.0
  0
LINE
  5
8DB5
  8
AM_0
 10
73.638456876759264
 20
65.103601376766733
 30
0.0
 11
78.308436876759572
 21
65.103601376766733
 31
0.0
  0
LINE
  5
8DB6
  8
AM_0
 10
78.308436876759572
 20
57.443596376766664
 30
0.0
 11
74.668506876759295
 21
57.443596376766664
 31
0.0
  0
LINE
  5
8DB7
  8
AM_0
 10
73.76847687675928
 20
57.883600376766708
 30
0.0
 11
78.308436876759572
 21
57.883600376766708
 31
0.0
  0
LINE
  5
8DB8
  8
AM_0
 10
78.308436876759572
 20
55.443598376766651
 30
0.0
 11
74.668506876759295
 21
55.443598376766651
 31
0.0
  0
LINE
  5
8DB9
  8
AM_0
 10
73.76847687675928
 20
54.963586376766671
 30
0.0
 11
78.308436876759572
 21
54.963586376766671
 31
0.0
  0
LINE
  5
8DBA
  8
AM_0
 10
73.978446876759264
 20
44.723596376766743
 30
0.0
 11
129.3084368767596
 21
44.723596376766743
 31
0.0
  0
LINE
  5
8DBB
  8
AM_0
 10
73.978446876759264
 20
48.083611376766733
 30
0.0
 11
78.415340905173579
 21
48.083611376766733
 31
0.0
  0
LINE
  5
8DBC
  8
AM_0
 10
78.64580603786402
 20
47.443582376766699
 30
0.0
 11
74.668506876759295
 21
47.443582376766699
 31
0.0
  0
LINE
  5
8DBD
  8
AM_0
 10
77.668446876759504
 20
44.793604376766538
 30
0.0
 11
72.308436876759572
 21
33.353599376766731
 31
0.0
  0
LINE
  5
8DBE
  8
AM_0
 10
72.308436876759572
 20
33.353584376766662
 30
0.0
 11
73.548426876759464
 21
26.793586376766601
 31
0.0
  0
LINE
  5
8DBF
  8
AM_0
 10
72.308436876759572
 20
30.663613376766989
 30
0.0
 11
73.618446876759464
 21
21.283609376766648
 31
0.0
  0
LINE
  5
8DC0
  8
AM_0
 10
64.308456876759465
 20
28.448587376766682
 30
0.0
 11
72.308436876759572
 21
28.448587376766682
 31
0.0
  0
LINE
  5
8DC1
  8
AM_0
 10
64.308456876759465
 20
28.443595376766659
 30
0.0
 11
72.308436876759572
 21
28.443595376766659
 31
0.0
  0
LINE
  5
8DC2
  8
AM_0
 10
72.308436876759572
 20
32.00359337676673
 30
0.0
 11
73.588416876759311
 21
24.003595376766722
 31
0.0
  0
LINE
  5
8DC3
  8
AM_0
 10
72.308436876759572
 20
30.66358337676672
 30
0.0
 11
73.598496876759484
 21
22.16359637676668
 31
0.0
  0
LINE
  5
8DC4
  8
AM_0
 10
64.998456876759292
 20
38.253595376766718
 30
0.0
 11
71.228496876759479
 21
38.253595376766718
 31
0.0
  0
ARC
  5
8DC5
  8
AM_0
 10
73.978446876759264
 20
46.403587376766723
 30
0.0
 40
1.679999999999999
 50
90.00000299999769
 51
270.0
  0
ARC
  5
8DC6
  8
AM_0
 10
276.27216151813792
 20
83.156443942289911
 30
0.0
 40
201.61085738285439
 50
179.42527489174191
 51
180.13294661222409
  0
ARC
  5
8DC7
  8
AM_0
 10
279.30208079627141
 20
83.155826720406012
 30
0.0
 40
204.64076721509861
 50
180.13080539050139
 51
180.4794013531876
  0
ARC
  5
8DC8
  8
AM_0
 10
277.55541484712398
 20
79.730854639774861
 30
0.0
 40
202.89403267033549
 50
180.21919094446361
 51
180.57069649463509
  0
ARC
  5
8DC9
  8
AM_0
 10
278.59205440892981
 20
79.739097972296577
 30
0.0
 40
203.93069622692141
 50
179.8707732720535
 51
180.22039274125001
  0
ARC
  5
8DCA
  8
AM_0
 10
278.21405991836031
 20
79.741867590292145
 30
0.0
 40
203.55269646012371
 50
179.52099544220221
 51
179.87131288696011
  0
ARC
  5
8DCB
  8
AM_0
 10
279.62752868154251
 20
79.743395885830978
 30
0.0
 40
204.96200297080929
 50
186.9448831660539
 51
187.59240971812881
  0
LINE
  5
8DCC
  8
AM_0
 10
75.558456876759294
 20
22.31359037676668
 30
0.0
 11
109.30845687675919
 21
22.31359037676668
 31
0.0
  0
LINE
  5
8DCD
  8
AM_0
 10
75.578466876759421
 20
20.473594376766751
 30
0.0
 11
109.30845687675919
 21
20.473594376766751
 31
0.0
  0
LINE
  5
8DCE
  8
AM_0
 10
75.598476876759264
 20
19.55359637676667
 30
0.0
 11
109.30845687675919
 21
19.55359637676667
 31
0.0
  0
LINE
  5
8DCF
  8
AM_0
 10
97.808436876759586
 20
43.22359637676675
 30
0.0
 11
77.635656876759313
 21
44.723596376766743
 31
0.0
  0
ARC
  5
8DD0
  8
AM_0
 10
280.10976404428851
 20
79.813712346669945
 30
0.0
 40
205.44930125633391
 50
187.59407870997541
 51
188.8860675939145
  0
ARC
  5
8DD1
  8
AM_0
 10
109.3051568767595
 20
22.476877376766652
 30
0.0
 40
2.003279969999999
 50
270.09378999999711
 51
359.90621000000289
  0
LINE
  5
8DD2
  8
AM_0
 10
111.3084368767594
 20
21.553597376766671
 30
0.0
 11
111.3084368767594
 21
25.163581376766729
 31
0.0
  0
ARC
  5
8DD3
  8
AM_0
 10
109.3004468767592
 20
21.56160737676668
 30
0.0
 40
2.0080361999999989
 50
270.22878999999938
 51
359.77121000000051
  0
ARC
  5
8DD4
  8
AM_0
 10
109.3012568767592
 20
24.320779376766719
 30
0.0
 40
2.007180029999998
 50
270.20461999999759
 51
359.79537999999582
  0
ARC
  5
8DD6
  8
AM_0
 10
279.21479474908517
 20
79.7519899083577
 30
0.0
 40
204.55326957220879
 50
185.46031399634279
 51
186.1370008544784
  0
ARC
  5
8DD7
  8
AM_0
 10
279.86816364284613
 20
79.811194956747698
 30
0.0
 40
205.2093074617344
 50
184.78473638767409
 51
185.45941055423361
  0
ARC
  5
8DD8
  8
AM_0
 10
279.29779990815462
 20
79.761271506135017
 30
0.0
 40
204.63676715666841
 50
184.10764570184199
 51
184.78412767205279
  0
ARC
  5
8DD9
  8
AM_0
 10
279.03915656027442
 20
79.749529883622372
 30
0.0
 40
204.37787853975311
 50
181.97597713469739
 51
183.3618692197046
  0
ARC
  5
8DDA
  8
AM_0
 10
279.36797978599952
 20
83.133526402957159
 30
0.0
 40
204.70684984457009
 50
176.6408431394282
 51
177.33301926919839
  0
ARC
  5
8DDB
  8
AM_0
 10
280.68484545897968
 20
83.079351393735337
 30
0.0
 40
206.0248100930055
 50
177.3350100486411
 51
178.0226252694244
  0
LINE
  5
8DDC
  8
AM_0
 10
177.1284668767596
 20
48.083611376766733
 30
0.0
 11
167.308436876759
 21
48.083611376766733
 31
0.0
  0
LINE
  5
8DDD
  8
AM_0
 10
178.8084668767593
 20
43.22359637676675
 30
0.0
 11
174.35844687675919
 21
26.643592376766719
 31
0.0
  0
ARC
  5
8DDE
  8
AM_0
 10
172.42557687675929
 20
27.165733376766749
 30
0.0
 40
2.0021281800000001
 50
270.0815199999999
 51
344.88329999999883
  0
LINE
  5
8DDF
  8
AM_0
 10
173.6484668767595
 20
47.443582376766699
 30
0.0
 11
167.308436876759
 21
47.443582376766699
 31
0.0
  0
LINE
  5
8DE0
  8
AM_0
 10
167.308436876759
 20
51.365891292439642
 30
0.0
 11
170.07846687675919
 21
51.443581376766701
 31
0.0
  0
ARC
  5
8DE1
  8
AM_0
 10
173.6484668767595
 20
46.443598376766651
 30
0.0
 40
1.000004069999999
 50
270.0
 51
90.00000299999769
  0
LINE
  5
8DE2
  8
AM_0
 10
174.84843687675919
 20
28.443595376766659
 30
0.0
 11
180.30846687675921
 21
28.443595376766659
 31
0.0
  0
ARC
  5
8DE3
  8
AM_0
 10
177.1284668767596
 20
46.403587376766723
 30
0.0
 40
1.680008099999998
 50
270.0
 51
90.00000299999769
  0
ARC
  5
8DE4
  8
AM_0
 10
177.1284668767596
 20
46.403587376766723
 30
0.0
 40
1.675004159999999
 50
270.0
 51
90.00000299999769
  0
LINE
  5
8DE6
  8
AM_0
 10
74.858503782612374
 20
117.4436018733871
 30
0.0
 11
173.64846682439921
 21
117.4436044467666
 31
0.0
  0
LINE
  5
8DE7
  8
AM_0
 10
73.978446876759264
 20
118.1735683767668
 30
0.0
 11
177.1284668767596
 21
118.1735683767668
 31
0.0
  0
LINE
  5
8DE8
  8
AM_0
 10
75.508446876759578
 20
137.73359837676659
 30
0.0
 11
172.42845687675921
 21
137.73359837676659
 31
0.0
  0
LINE
  5
8DE9
  8
AM_0
 10
97.808436876759586
 20
119.6735683767667
 30
0.0
 11
180.30846687675921
 21
119.6735683767667
 31
0.0
  0
ARC
  5
8DEA
  8
AM_0
 10
74.850696876759287
 20
116.4436003767665
 30
0.0
 40
1.0000319699999971
 50
89.552707000000495
 51
270.44730000000112
  0
ARC
  5
8DEB
  8
AM_0
 10
74.850696876759287
 20
106.4435983767666
 30
0.0
 40
1.0000319699999971
 50
89.552707000000495
 51
270.44730000000112
  0
ARC
  5
8DEC
  8
AM_0
 10
73.762806876759257
 20
106.4735983767667
 30
0.0
 40
1.460012009999998
 50
89.777016999998949
 51
270.22298999999867
  0
ARC
  5
8DED
  8
AM_0
 10
75.511326876759583
 20
135.73667837676649
 30
0.0
 40
1.996904069999998
 50
90.083473999999597
 51
169.41256000000121
  0
ARC
  5
8DEE
  8
AM_0
 10
75.556866876759258
 20
138.5804683767665
 30
0.0
 40
1.9931281199999991
 50
89.953373000000497
 51
170.96118000000021
  0
ARC
  5
8DEF
  8
AM_0
 10
75.57120687675922
 20
140.42900837676669
 30
0.0
 40
1.994588069999998
 50
89.790753000002425
 51
171.507090000001
  0
ARC
  5
8DF0
  8
AM_0
 10
75.593106876759293
 20
141.34010837676641
 30
0.0
 40
1.9934921999999999
 50
89.846091000001394
 51
172.11473999999609
  0
LINE
  5
8DF1
  8
AM_0
 10
78.643962997790979
 20
115.4435983767666
 30
0.0
 11
74.668506876759295
 21
115.4435983767666
 31
0.0
  0
LINE
  5
8DF2
  8
AM_0
 10
78.308436876759572
 20
107.4436003767666
 30
0.0
 11
74.668506876759295
 21
107.4436003767666
 31
0.0
  0
LINE
  5
8DF3
  8
AM_0
 10
78.308436876759572
 20
105.4435993767666
 30
0.0
 11
74.668506876759295
 21
105.4435993767666
 31
0.0
  0
LINE
  5
8DF4
  8
AM_0
 10
73.978446876759264
 20
114.8135953767666
 30
0.0
 11
78.41710948071119
 21
114.8135953767666
 31
0.0
  0
LINE
  5
8DF5
  8
AM_0
 10
73.76847687675928
 20
107.9335903767666
 30
0.0
 11
78.308436876759572
 21
107.9335903767666
 31
0.0
  0
LINE
  5
8DF6
  8
AM_0
 10
73.76847687675928
 20
105.01357637676659
 30
0.0
 11
78.308436876759572
 21
105.01357637676659
 31
0.0
  0
LINE
  5
8DF7
  8
AM_0
 10
73.638456876759264
 20
97.793605376766664
 30
0.0
 11
78.308436876759572
 21
97.793605376766664
 31
0.0
  0
LINE
  5
8DF8
  8
AM_0
 10
77.668446876759504
 20
118.0935883767666
 30
0.0
 11
72.308436876759572
 21
129.5435683767667
 31
0.0
  0
LINE
  5
8DF9
  8
AM_0
 10
72.308436876759572
 20
132.23357837676659
 30
0.0
 11
73.618446876759464
 21
141.6135883767665
 31
0.0
  0
ARC
  5
8DFA
  8
AM_0
 10
73.978446876759264
 20
116.4935863767667
 30
0.0
 40
1.679999999999999
 50
90.00000299999769
 51
270.0
  0
LINE
  5
8DFB
  8
AM_0
 10
72.308436876759572
 20
129.54359837676651
 30
0.0
 11
73.548426876759464
 21
136.1036083767668
 31
0.0
  0
LINE
  5
8DFC
  8
AM_0
 10
64.998456876759292
 20
124.63358837676689
 30
0.0
 11
71.228496876759479
 21
124.63358837676689
 31
0.0
  0
LINE
  5
8DFD
  8
AM_0
 10
64.308456876759465
 20
134.4485983767666
 30
0.0
 11
72.308436876759572
 21
134.4485983767666
 31
0.0
  0
LINE
  5
8DFE
  8
AM_0
 10
64.308456876759465
 20
134.44358837676651
 30
0.0
 11
72.308436876759572
 21
134.44358837676651
 31
0.0
  0
LINE
  5
8DFF
  8
AM_0
 10
72.308436876759572
 20
130.8836083767666
 30
0.0
 11
73.588416876759311
 21
138.89357837676661
 31
0.0
  0
LINE
  5
8E00
  8
AM_0
 10
72.308436876759572
 20
132.23360837676671
 30
0.0
 11
73.598496876759484
 21
140.72360837676661
 31
0.0
  0
ARC
  5
8E01
  8
AM_0
 10
109.30692687675921
 20
140.4220483767669
 30
0.0
 40
2.0015440500000001
 50
0.0442139990008822
 51
89.955783999999085
  0
LINE
  5
8E02
  8
AM_0
 10
111.3084368767594
 20
141.33359837676659
 30
0.0
 11
111.3084368767594
 21
137.73359837676659
 31
0.0
  0
LINE
  5
8E03
  8
AM_0
 10
75.558456876759294
 20
140.57357837676651
 30
0.0
 11
109.30845687675919
 21
140.57357837676651
 31
0.0
  0
LINE
  5
8E04
  8
AM_0
 10
97.808436876759586
 20
119.6735683767667
 30
0.0
 11
77.631006876759258
 21
118.17359837676661
 31
0.0
  0
ARC
  5
8E05
  8
AM_0
 10
279.08944638457439
 20
83.192673196569913
 30
0.0
 40
204.4231110527293
 50
172.39935376234251
 51
173.04804061342691
  0
ARC
  5
8E06
  8
AM_0
 10
279.745728522381
 20
83.094000202585661
 30
0.0
 40
205.086602105558
 50
173.8647965684784
 51
175.21533938006169
  0
ARC
  5
8E07
  8
AM_0
 10
279.13996486227182
 20
83.151528788886736
 30
0.0
 40
204.47815098782999
 50
175.21724497659139
 51
175.89452073852021
  0
ARC
  5
8E08
  8
AM_0
 10
279.42028326521279
 20
83.143383584199682
 30
0.0
 40
204.75756069728581
 50
171.10266677355361
 51
172.3979273485285
  0
ARC
  5
8E09
  8
AM_0
 10
109.3080368767592
 20
138.5731783767668
 30
0.0
 40
2.0004079799999981
 50
0.0116490000006953
 51
89.98834999999788
  0
LINE
  5
8E0A
  8
AM_0
 10
75.578466876759421
 20
142.42358837676679
 30
0.0
 11
109.30845687675919
 21
142.42358837676679
 31
0.0
  0
LINE
  5
8E0B
  8
AM_0
 10
75.598476876759264
 20
143.33360837676659
 30
0.0
 11
109.30845687675919
 21
143.33360837676659
 31
0.0
  0
ARC
  5
8E0C
  8
AM_0
 10
109.3071668767592
 20
141.33230837676641
 30
0.0
 40
2.0012880000000002
 50
0.0368719990021973
 51
89.963125999997985
  0
LINE
  5
8E0D
  8
AM_0
 10
177.1284668767596
 20
114.8135953767666
 30
0.0
 11
167.308436876759
 21
114.8135953767666
 31
0.0
  0
LINE
  5
8E0E
  8
AM_0
 10
178.5084668767592
 20
120.78359837676651
 30
0.0
 11
174.35850687675961
 21
136.24358837676661
 31
0.0
  0
LINE
  5
8E0F
  8
AM_0
 10
167.308436876759
 20
111.53130046109359
 30
0.0
 11
170.07846687675919
 21
111.4536103767667
 31
0.0
  0
ARC
  5
8E10
  8
AM_0
 10
173.6484668767595
 20
116.4436003767665
 30
0.0
 40
1.000004069999999
 50
270.0
 51
90.00000299999769
  0
ARC
  5
8E11
  8
AM_0
 10
172.4256368767592
 20
135.73499837676681
 30
0.0
 40
1.99860411
 50
14.74271599999944
 51
89.919516000001124
  0
ARC
  5
8E12
  8
AM_0
 10
177.1284668767596
 20
116.4935863767667
 30
0.0
 40
1.680008099999998
 50
270.0
 51
90.00000299999769
  0
ARC
  5
8E13
  8
AM_0
 10
177.1284668767596
 20
116.4935863767667
 30
0.0
 40
1.675004159999999
 50
270.0
 51
90.00000299999769
  0
ARC
  5
8E14
  8
AM_0
 10
179.96163687675909
 20
121.1713483767666
 30
0.0
 40
1.502776079999999
 50
194.75642999999971
 51
269.8775900000029
  0
LINE
  5
8E15
  8
AM_0
 10
174.84843687675919
 20
134.44358837676651
 30
0.0
 11
180.30846687675921
 21
134.44358837676651
 31
0.0
  0
LINE
  5
8E16
  8
AM_0
 10
162.8084368767596
 20
103.9486033767667
 30
0.0
 11
162.808436876759
 21
58.948603376766741
 31
0.0
  0
LINE
  5
8E17
  8
AM_0
 10
160.70843687675909
 20
104.4988559084607
 30
0.0
 11
160.70843687675909
 21
58.398350845072848
 31
0.0
  0
LINE
  5
8E18
  8
AM_0
 10
77.808436876759501
 20
63.448603376766741
 30
0.0
 11
77.808436876759501
 21
53.448593376766652
 31
0.0
  0
LINE
  5
8E19
  8
AM_0
 10
78.308436876759572
 20
48.948597376766877
 30
0.0
 11
78.308436876759572
 21
113.9485933767664
 31
0.0
  0
LINE
  5
8E1A
  8
AM_0
 10
149.85868140845389
 20
47.548595376766571
 30
0.0
 11
82.728416876759297
 21
47.548595376766571
 31
0.0
  0
LINE
  5
8E1B
  8
AM_0
 10
82.728416876759297
 20
47.548595376766571
 30
0.0
 11
82.728416876759297
 21
45.448604376766532
 31
0.0
  0
ARC
  5
8E1C
  8
AM_0
 10
81.801056876759503
 20
48.941250376766661
 30
0.0
 40
3.492651899999998
 50
179.8793300000022
 51
270.12067999999482
  0
ARC
  5
8E1D
  8
AM_0
 10
78.301116876759295
 20
53.441253376766653
 30
0.0
 40
0.4927000100000001
 50
179.14455999999711
 51
270.85544000000272
  0
ARC
  5
8E1E
  8
AM_0
 10
164.80843687675909
 20
58.948603376766741
 30
0.0
 40
2.0
 50
180.0
 51
270.0
  0
LINE
  5
8E1F
  8
AM_0
 10
160.29838637042019
 20
57.408401351410703
 30
0.0
 11
150.84863090211499
 21
47.958645883105419
 31
0.0
  0
LINE
  5
8E20
  8
AM_0
 10
150.84863890211469
 20
47.958653883105171
 30
0.0
 11
160.2983863704207
 21
57.40840135141115
 31
0.0
  0
ARC
  5
8E21
  8
AM_0
 10
149.85868140845389
 20
48.948595376766662
 30
0.0
 40
1.399999999999999
 50
270.0
 51
315.00000000000921
1001
GENIUS_GENODEF_13
1002
{
1000
HIER
1070
     0
1002
}
1002
{
1000
MANEDIT
1070
     0
1002
}
1002
{
1000
NOSEL
1070
     0
1002
}
1002
{
1000
BEHIND
1070
     0
1002
}
1002
{
1000
OTHER
1070
     0
1002
}
1002
{
1000
REACTOR
1002
}
1001
GENIUS_GENOBJ-N-FIL_13
1002
{
1000
OWNER
1000
GEN
1002
}
  0
ARC
  5
8E22
  8
AM_0
 10
159.30843687675909
 20
58.398350845072848
 30
0.0
 40
1.4000000000006301
 50
314.99999999997232
 51
0.0
  0
ARC
  5
8E23
  8
AM_0
 10
165.308436876759
 20
47.448603376766762
 30
0.0
 40
2.0
 50
270.0
 51
0.0
  0
ARC
  5
8E24
  8
AM_0
 10
165.308436876759
 20
54.948603376766762
 30
0.0
 40
2.0
 50
0.0
 51
90.0
  0
LINE
  5
8E25
  8
AM_0
 10
165.308436876759
 20
56.948603376766968
 30
0.0
 11
164.80843687675909
 21
56.948603376766968
 31
0.0
  0
LINE
  5
8E26
  8
AM_0
 10
167.308436876759
 20
47.448603376766762
 30
0.0
 11
167.308436876759
 21
54.948603376766762
 31
0.0
  0
LINE
  5
8E27
  8
AM_0
 10
82.728416876759297
 20
115.3485833767665
 30
0.0
 11
149.86617269663461
 21
115.3485833767665
 31
0.0
  0
ARC
  5
8E28
  8
AM_0
 10
78.308986876759263
 20
63.448053376766431
 30
0.0
 40
0.5005480100000002
 50
90.062622000000005
 51
179.93736999999041
  0
ARC
  5
8E29
  8
AM_0
 10
78.308986876759263
 20
109.4480533767664
 30
0.0
 40
0.5005480100000002
 50
90.062622000000005
 51
179.93736999999041
  0
ARC
  5
8E2A
  8
AM_0
 10
78.300926876759263
 20
99.441093376766503
 30
0.0
 40
0.49254802
 50
179.1265600000018
 51
270.87345000000158
  0
LINE
  5
8E2B
  8
AM_0
 10
77.808436876759501
 20
109.4485933767664
 30
0.0
 11
77.808436876759501
 21
99.448603376766755
 31
0.0
  0
LINE
  5
8E2C
  8
AM_0
 10
82.728416876759297
 20
115.3485833767665
 30
0.0
 11
82.728416876759297
 21
117.4435833767667
 31
0.0
  0
ARC
  5
8E2D
  8
AM_0
 10
81.808926876759571
 20
113.9481033767665
 30
0.0
 40
3.5005001999999981
 50
90.008164999996055
 51
179.99183999999781
  0
LINE
  5
8E2E
  8
AM_0
 10
164.8084368767594
 20
86.948603376766755
 30
0.0
 11
162.8084368767592
 21
86.948603376766755
 31
0.0
  0
LINE
  5
8E2F
  8
AM_0
 10
162.8084368767592
 20
75.948603376766755
 30
0.0
 11
164.8084368767596
 21
75.948603376766755
 31
0.0
  0
LINE
  5
8E30
  8
AM_0
 10
164.80843687675971
 20
75.948603376766755
 30
0.0
 11
164.8084368767594
 21
86.948603376766755
 31
0.0
  0
ARC
  5
8E31
  8
AM_0
 10
164.80843687675909
 20
103.9486033767667
 30
0.0
 40
2.0
 50
90.0
 51
180.0
  0
CIRCLE
  5
8E32
  8
AM_0
 10
161.80843687675909
 20
112.4486033767665
 30
0.0
 40
3.4999999999999631
  0
LINE
  5
8E33
  8
AM_0
 10
150.8486389021154
 20
114.9385528704276
 30
0.0
 11
160.29838637042019
 21
105.48880540212269
 31
0.0
  0
LINE
  5
8E34
  8
AM_0
 10
158.70843687675901
 20
107.07875489578279
 30
0.0
 11
160.2983863704205
 21
105.48880540212249
 31
0.0
  0
ARC
  5
8E35
  8
AM_0
 10
159.30843687675909
 20
104.4988559084607
 30
0.0
 40
1.400000000000118
 50
0.0
 51
45.000000000027619
  0
ARC
  5
8E36
  8
AM_0
 10
149.85868940845319
 20
113.9486033767667
 30
0.0
 40
1.40000000000077
 50
44.999999999972353
 51
89.999999999954383
  0
LINE
  5
8E37
  8
AM_0
 10
167.308436876759
 20
107.9486033767667
 30
0.0
 11
167.308436876759
 21
115.4486033767669
 31
0.0
  0
LINE
  5
8E38
  8
AM_0
 10
167.308436876759
 20
107.9486033767667
 30
0.0
 11
167.308436876759
 21
115.4486033767669
 31
0.0
  0
ARC
  5
8E39
  8
AM_0
 10
165.308436876759
 20
107.9486033767667
 30
0.0
 40
2.0
 50
270.0
 51
0.0
  0
LINE
  5
8E3A
  8
AM_0
 10
164.80843687675909
 20
105.9486033767667
 30
0.0
 11
165.308436876759
 21
105.9486033767667
 31
0.0
  0
ARC
  5
8E3B
  8
AM_0
 10
165.308436876759
 20
115.4486033767669
 30
0.0
 40
2.0
 50
0.0
 51
90.0
  0
LINE
  5
8E3C
  8
AM_0
 10
159.16986519555221
 20
112.44860337676739
 30
0.0
 11
164.44700855796569
 21
112.44860337676739
 31
0.0
  0
LINE
  5
8E3D
  8
AM_0
 10
161.80843687675889
 20
115.0871750579732
 30
0.0
 11
161.80843687675889
 21
109.8100316955596
 31
0.0
  0
CIRCLE
  5
8E3E
  8
AM_0
 10
161.80843687675909
 20
50.448603376766521
 30
0.0
 40
3.4999999999999631
  0
LINE
  5
8E3F
  8
AM_0
 10
159.16986519555221
 20
50.448603376767657
 30
0.0
 11
164.44700855796569
 21
50.448603376767551
 31
0.0
  0
LINE
  5
8E40
  8
AM_0
 10
161.80843687675889
 20
53.087175057973241
 30
0.0
 11
161.80843687675889
 21
47.810031695559807
 31
0.0
  0
LINE
  5
8E41
  8
AM_0
 10
173.6484668767595
 20
115.4536243767665
 30
0.0
 11
167.308436876759
 21
115.4536243767665
 31
0.0
  0
LINE
  5
8E43
  8
AM_0
 10
429.6419318384003
 20
75.948603376766755
 30
0.0
 11
423.64191883840039
 21
75.948603376766528
 31
0.0
  0
LINE
  5
8E44
  8
AM_0
 10
423.64191883840039
 20
86.948603376766755
 30
0.0
 11
429.6419318384003
 21
86.948603376766755
 31
0.0
  0
LINE
  5
8E45
  8
AM_0
 10
429.6419318384003
 20
117.44860337676501
 30
0.0
 11
411.14191883840027
 21
117.44860337676501
 31
0.0
  0
LINE
  5
8E46
  8
AM_0
 10
411.14191883840027
 20
45.448603376764929
 30
0.0
 11
431.00453510287309
 21
45.448603376764929
 31
0.0
  0
LINE
  5
8E47
  8
AM_0
 10
410.64191883840022
 20
112.848603376767
 30
0.0
 11
410.64191883840022
 21
50.04860337676724
 31
0.0
  0
LINE
  5
8E48
  8
AM_0
 10
423.64191883840027
 20
45.448603376764929
 30
0.0
 11
423.64191883840027
 21
117.44860337676501
 31
0.0
  0
LINE
  5
8E49
  8
AM_0
 10
423.64191883840027
 20
106.5286033767664
 30
0.0
 11
422.1769188384003
 21
115.3486033767668
 31
0.0
  0
ARC
  5
8E4A
  8
AM_0
 10
413.14191883840027
 20
112.848603376767
 30
0.0
 40
2.5
 50
90.0
 51
180.0
  0
LINE
  5
8E4B
  8
AM_0
 10
410.64191883840022
 20
116.9486033767667
 30
0.0
 11
410.64191883840022
 21
112.848603376767
 31
0.0
  0
ARC
  5
8E4C
  8
AM_0
 10
411.14191883840027
 20
116.9486033767667
 30
0.0
 40
0.5
 50
90.0
 51
180.0
  0
LINE
  5
8E4D
  8
AM_0
 10
422.1769188384003
 20
115.3486033767668
 30
0.0
 11
413.14191883840022
 21
115.3486033767668
 31
0.0
  0
POLYLINE
  5
8E4E
  8
AM_0
 66
     1
 10
0.0
 20
0.0
 30
0.0
 70
     8
  0
VERTEX
  5
8E4F
  8
AM_0
 10
413.14187177332627
 20
105.07901817980969
 30
0.0
 70
    32
  0
VERTEX
  5
8E50
  8
AM_0
 10
413.13787177332608
 20
105.07901817980969
 30
0.0
 70
    32
  0
VERTEX
  5
8E51
  8
AM_0
 10
413.13387177332629
 20
105.07901817980969
 30
0.0
 70
    32
  0
VERTEX
  5
8E52
  8
AM_0
 10
413.12887177332613
 20
105.07901817980969
 30
0.0
 70
    32
  0
VERTEX
  5
8E53
  8
AM_0
 10
413.12487177332628
 20
105.07901817980969
 30
0.0
 70
    32
  0
VERTEX
  5
8E54
  8
AM_0
 10
413.12087177332631
 20
105.07901817980969
 30
0.0
 70
    32
  0
VERTEX
  5
8E55
  8
AM_0
 10
413.11587177332632
 20
105.07901817980969
 30
0.0
 70
    32
  0
VERTEX
  5
8E56
  8
AM_0
 10
413.1118717733263
 20
105.0780181798096
 30
0.0
 70
    32
  0
VERTEX
  5
8E57
  8
AM_0
 10
413.10787177332628
 20
105.0780181798096
 30
0.0
 70
    32
  0
VERTEX
  5
8E58
  8
AM_0
 10
413.1038717733262
 20
105.0780181798096
 30
0.0
 70
    32
  0
VERTEX
  5
8E59
  8
AM_0
 10
413.09887177332632
 20
105.0780181798096
 30
0.0
 70
    32
  0
VERTEX
  5
8E5A
  8
AM_0
 10
413.09487177332619
 20
105.0780181798096
 30
0.0
 70
    32
  0
VERTEX
  5
8E5B
  8
AM_0
 10
413.09087177332623
 20
105.0780181798096
 30
0.0
 70
    32
  0
VERTEX
  5
8E5C
  8
AM_0
 10
413.08687177332632
 20
105.0780181798096
 30
0.0
 70
    32
  0
VERTEX
  5
8E5D
  8
AM_0
 10
413.08187177332621
 20
105.0780181798096
 30
0.0
 70
    32
  0
VERTEX
  5
8E5E
  8
AM_0
 10
413.07787177332631
 20
105.0780181798096
 30
0.0
 70
    32
  0
VERTEX
  5
8E5F
  8
AM_0
 10
413.07387177332629
 20
105.0780181798096
 30
0.0
 70
    32
  0
VERTEX
  5
8E60
  8
AM_0
 10
413.06887177332629
 20
105.0780181798096
 30
0.0
 70
    32
  0
VERTEX
  5
8E61
  8
AM_0
 10
413.06487177332627
 20
105.0780181798096
 30
0.0
 70
    32
  0
VERTEX
  5
8E62
  8
AM_0
 10
413.06087177332631
 20
105.0780181798096
 30
0.0
 70
    32
  0
VERTEX
  5
8E63
  8
AM_0
 10
413.05687177332629
 20
105.0780181798096
 30
0.0
 70
    32
  0
VERTEX
  5
8E64
  8
AM_0
 10
413.0518717733263
 20
105.0780181798096
 30
0.0
 70
    32
  0
VERTEX
  5
8E65
  8
AM_0
 10
413.04787177332628
 20
105.0780181798096
 30
0.0
 70
    32
  0
VERTEX
  5
8E66
  8
AM_0
 10
413.04387177332609
 20
105.0780181798096
 30
0.0
 70
    32
  0
VERTEX
  5
8E67
  8
AM_0
 10
413.0398717733263
 20
105.0780181798096
 30
0.0
 70
    32
  0
VERTEX
  5
8E68
  8
AM_0
 10
413.03487177332607
 20
105.0770181798096
 30
0.0
 70
    32
  0
VERTEX
  5
8E69
  8
AM_0
 10
413.03087177332628
 20
105.0770181798096
 30
0.0
 70
    32
  0
VERTEX
  5
8E6A
  8
AM_0
 10
413.02687177332632
 20
105.0770181798096
 30
0.0
 70
    32
  0
VERTEX
  5
8E6B
  8
AM_0
 10
413.0228717733263
 20
105.0770181798096
 30
0.0
 70
    32
  0
VERTEX
  5
8E6C
  8
AM_0
 10
413.01787177332631
 20
105.0770181798096
 30
0.0
 70
    32
  0
VERTEX
  5
8E6D
  8
AM_0
 10
413.01387177332612
 20
105.0770181798096
 30
0.0
 70
    32
  0
VERTEX
  5
8E6E
  8
AM_0
 10
413.00987177332632
 20
105.0770181798096
 30
0.0
 70
    32
  0
VERTEX
  5
8E6F
  8
AM_0
 10
413.00487177332627
 20
105.0770181798096
 30
0.0
 70
    32
  0
VERTEX
  5
8E70
  8
AM_0
 10
413.00087177332642
 20
105.0770181798096
 30
0.0
 70
    32
  0
VERTEX
  5
8E71
  8
AM_0
 10
412.99687177332618
 20
105.0770181798096
 30
0.0
 70
    32
  0
VERTEX
  5
8E72
  8
AM_0
 10
412.99287177332633
 20
105.07601817980959
 30
0.0
 70
    32
  0
VERTEX
  5
8E73
  8
AM_0
 10
412.98787177332599
 20
105.07601817980959
 30
0.0
 70
    32
  0
VERTEX
  5
8E74
  8
AM_0
 10
412.98387177332631
 20
105.07601817980959
 30
0.0
 70
    32
  0
VERTEX
  5
8E75
  8
AM_0
 10
412.97987177332641
 20
105.07601817980959
 30
0.0
 70
    32
  0
VERTEX
  5
8E76
  8
AM_0
 10
412.97587177332622
 20
105.07601817980959
 30
0.0
 70
    32
  0
VERTEX
  5
8E77
  8
AM_0
 10
412.97087177332628
 20
105.07601817980959
 30
0.0
 70
    32
  0
VERTEX
  5
8E78
  8
AM_0
 10
412.96687177332609
 20
105.07601817980959
 30
0.0
 70
    32
  0
VERTEX
  5
8E79
  8
AM_0
 10
412.9628717733263
 20
105.0750181798097
 30
0.0
 70
    32
  0
VERTEX
  5
8E7A
  8
AM_0
 10
412.95887177332628
 20
105.0750181798097
 30
0.0
 70
    32
  0
VERTEX
  5
8E7B
  8
AM_0
 10
412.95387177332628
 20
105.0750181798097
 30
0.0
 70
    32
  0
VERTEX
  5
8E7C
  8
AM_0
 10
412.94987177332621
 20
105.0750181798097
 30
0.0
 70
    32
  0
VERTEX
  5
8E7D
  8
AM_0
 10
412.9458717733263
 20
105.0750181798097
 30
0.0
 70
    32
  0
VERTEX
  5
8E7E
  8
AM_0
 10
412.94087177332631
 20
105.0750181798097
 30
0.0
 70
    32
  0
VERTEX
  5
8E7F
  8
AM_0
 10
412.93687177332612
 20
105.0750181798097
 30
0.0
 70
    32
  0
VERTEX
  5
8E80
  8
AM_0
 10
412.93287177332633
 20
105.0740181798097
 30
0.0
 70
    32
  0
VERTEX
  5
8E81
  8
AM_0
 10
412.92887177332631
 20
105.0740181798097
 30
0.0
 70
    32
  0
VERTEX
  5
8E82
  8
AM_0
 10
412.92387177332631
 20
105.0740181798097
 30
0.0
 70
    32
  0
VERTEX
  5
8E83
  8
AM_0
 10
412.91987177332629
 20
105.0740181798097
 30
0.0
 70
    32
  0
VERTEX
  5
8E84
  8
AM_0
 10
412.91587177332627
 20
105.0740181798097
 30
0.0
 70
    32
  0
VERTEX
  5
8E85
  8
AM_0
 10
412.9118717733262
 20
105.07301817980959
 30
0.0
 70
    32
  0
VERTEX
  5
8E86
  8
AM_0
 10
412.90687177332632
 20
105.07301817980959
 30
0.0
 70
    32
  0
VERTEX
  5
8E87
  8
AM_0
 10
412.90287177332618
 20
105.07301817980959
 30
0.0
 70
    32
  0
VERTEX
  5
8E88
  8
AM_0
 10
412.89887177332622
 20
105.07301817980959
 30
0.0
 70
    32
  0
VERTEX
  5
8E89
  8
AM_0
 10
412.89487177332632
 20
105.07301817980959
 30
0.0
 70
    32
  0
VERTEX
  5
8E8A
  8
AM_0
 10
412.88987177332621
 20
105.07301817980959
 30
0.0
 70
    32
  0
VERTEX
  5
8E8B
  8
AM_0
 10
412.88587177332641
 20
105.0720181798098
 30
0.0
 70
    32
  0
VERTEX
  5
8E8C
  8
AM_0
 10
412.88187177332628
 20
105.0720181798098
 30
0.0
 70
    32
  0
VERTEX
  5
8E8D
  8
AM_0
 10
412.87787177332632
 20
105.0720181798098
 30
0.0
 70
    32
  0
VERTEX
  5
8E8E
  8
AM_0
 10
412.87287177332632
 20
105.0720181798098
 30
0.0
 70
    32
  0
VERTEX
  5
8E8F
  8
AM_0
 10
412.8688717733263
 20
105.0710181798097
 30
0.0
 70
    32
  0
VERTEX
  5
8E90
  8
AM_0
 10
412.86487177332629
 20
105.0710181798097
 30
0.0
 70
    32
  0
VERTEX
  5
8E91
  8
AM_0
 10
412.85987177332629
 20
105.0710181798097
 30
0.0
 70
    32
  0
VERTEX
  5
8E92
  8
AM_0
 10
412.85587177332621
 20
105.0710181798097
 30
0.0
 70
    32
  0
VERTEX
  5
8E93
  8
AM_0
 10
412.85187177332608
 20
105.0710181798097
 30
0.0
 70
    32
  0
VERTEX
  5
8E94
  8
AM_0
 10
412.84787177332629
 20
105.07001817980959
 30
0.0
 70
    32
  0
VERTEX
  5
8E95
  8
AM_0
 10
412.84287177332612
 20
105.07001817980959
 30
0.0
 70
    32
  0
VERTEX
  5
8E96
  8
AM_0
 10
412.83887177332628
 20
105.07001817980959
 30
0.0
 70
    32
  0
VERTEX
  5
8E97
  8
AM_0
 10
412.8348717733262
 20
105.07001817980959
 30
0.0
 70
    32
  0
VERTEX
  5
8E98
  8
AM_0
 10
412.83087177332612
 20
105.0690181798097
 30
0.0
 70
    32
  0
VERTEX
  5
8E99
  8
AM_0
 10
412.8258717733263
 20
105.0690181798097
 30
0.0
 70
    32
  0
VERTEX
  5
8E9A
  8
AM_0
 10
412.82187177332622
 20
105.0690181798097
 30
0.0
 70
    32
  0
VERTEX
  5
8E9B
  8
AM_0
 10
412.81787177332632
 20
105.0680181798098
 30
0.0
 70
    32
  0
VERTEX
  5
8E9C
  8
AM_0
 10
412.81387177332618
 20
105.0680181798098
 30
0.0
 70
    32
  0
VERTEX
  5
8E9D
  8
AM_0
 10
412.8088717733263
 20
105.0680181798098
 30
0.0
 70
    32
  0
VERTEX
  5
8E9E
  8
AM_0
 10
412.80487177332623
 20
105.0680181798098
 30
0.0
 70
    32
  0
VERTEX
  5
8E9F
  8
AM_0
 10
412.80087177332632
 20
105.06701817980949
 30
0.0
 70
    32
  0
VERTEX
  5
8EA0
  8
AM_0
 10
412.79687177332642
 20
105.06701817980949
 30
0.0
 70
    32
  0
VERTEX
  5
8EA1
  8
AM_0
 10
412.79187177332642
 20
105.06701817980949
 30
0.0
 70
    32
  0
VERTEX
  5
8EA2
  8
AM_0
 10
412.78787177332629
 20
105.06701817980949
 30
0.0
 70
    32
  0
VERTEX
  5
8EA3
  8
AM_0
 10
412.78387177332621
 20
105.0660181798096
 30
0.0
 70
    32
  0
VERTEX
  5
8EA4
  8
AM_0
 10
412.77987177332631
 20
105.0660181798096
 30
0.0
 70
    32
  0
VERTEX
  5
8EA5
  8
AM_0
 10
412.77487177332608
 20
105.0660181798096
 30
0.0
 70
    32
  0
VERTEX
  5
8EA6
  8
AM_0
 10
412.77087177332629
 20
105.0650181798095
 30
0.0
 70
    32
  0
VERTEX
  5
8EA7
  8
AM_0
 10
412.76687177332622
 20
105.0650181798095
 30
0.0
 70
    32
  0
VERTEX
  5
8EA8
  8
AM_0
 10
412.76187177332628
 20
105.0650181798095
 30
0.0
 70
    32
  0
VERTEX
  5
8EA9
  8
AM_0
 10
412.75787177332597
 20
105.06401817980959
 30
0.0
 70
    32
  0
VERTEX
  5
8EAA
  8
AM_0
 10
412.7538717733263
 20
105.06401817980959
 30
0.0
 70
    32
  0
VERTEX
  5
8EAB
  8
AM_0
 10
412.74987177332628
 20
105.06401817980959
 30
0.0
 70
    32
  0
VERTEX
  5
8EAC
  8
AM_0
 10
412.74487177332628
 20
105.0630181798098
 30
0.0
 70
    32
  0
VERTEX
  5
8EAD
  8
AM_0
 10
412.74087177332632
 20
105.0630181798098
 30
0.0
 70
    32
  0
VERTEX
  5
8EAE
  8
AM_0
 10
412.7368717733263
 20
105.0630181798098
 30
0.0
 70
    32
  0
VERTEX
  5
8EAF
  8
AM_0
 10
412.73287177332628
 20
105.0620181798096
 30
0.0
 70
    32
  0
VERTEX
  5
8EB0
  8
AM_0
 10
412.72787177332629
 20
105.0620181798096
 30
0.0
 70
    32
  0
VERTEX
  5
8EB1
  8
AM_0
 10
412.72387177332632
 20
105.0620181798096
 30
0.0
 70
    32
  0
VERTEX
  5
8EB2
  8
AM_0
 10
412.71987177332619
 20
105.06101817980969
 30
0.0
 70
    32
  0
VERTEX
  5
8EB3
  8
AM_0
 10
412.71587177332623
 20
105.06101817980969
 30
0.0
 70
    32
  0
VERTEX
  5
8EB4
  8
AM_0
 10
412.71087177332629
 20
105.06101817980969
 30
0.0
 70
    32
  0
VERTEX
  5
8EB5
  8
AM_0
 10
412.70687177332621
 20
105.0600181798097
 30
0.0
 70
    32
  0
VERTEX
  5
8EB6
  8
AM_0
 10
412.70287177332642
 20
105.0600181798097
 30
0.0
 70
    32
  0
VERTEX
  5
8EB7
  8
AM_0
 10
412.69887177332629
 20
105.0590181798098
 30
0.0
 70
    32
  0
VERTEX
  5
8EB8
  8
AM_0
 10
412.69387177332629
 20
105.0590181798098
 30
0.0
 70
    32
  0
VERTEX
  5
8EB9
  8
AM_0
 10
412.68987177332627
 20
105.0590181798098
 30
0.0
 70
    32
  0
VERTEX
  5
8EBA
  8
AM_0
 10
412.68587177332631
 20
105.05801817980959
 30
0.0
 70
    32
  0
VERTEX
  5
8EBB
  8
AM_0
 10
412.68187177332629
 20
105.05801817980959
 30
0.0
 70
    32
  0
VERTEX
  5
8EBC
  8
AM_0
 10
412.6768717733263
 20
105.0570181798096
 30
0.0
 70
    32
  0
VERTEX
  5
8EBD
  8
AM_0
 10
412.67287177332622
 20
105.0570181798096
 30
0.0
 70
    32
  0
VERTEX
  5
8EBE
  8
AM_0
 10
412.66887177332609
 20
105.0570181798096
 30
0.0
 70
    32
  0
VERTEX
  5
8EBF
  8
AM_0
 10
412.6648717733263
 20
105.0560181798094
 30
0.0
 70
    32
  0
VERTEX
  5
8EC0
  8
AM_0
 10
412.6598717733263
 20
105.0560181798094
 30
0.0
 70
    32
  0
VERTEX
  5
8EC1
  8
AM_0
 10
412.65587177332628
 20
105.05501817980969
 30
0.0
 70
    32
  0
VERTEX
  5
8EC2
  8
AM_0
 10
412.65187177332621
 20
105.05501817980969
 30
0.0
 70
    32
  0
VERTEX
  5
8EC3
  8
AM_0
 10
412.64787177332607
 20
105.0540181798098
 30
0.0
 70
    32
  0
VERTEX
  5
8EC4
  8
AM_0
 10
412.64287177332631
 20
105.0540181798098
 30
0.0
 70
    32
  0
VERTEX
  5
8EC5
  8
AM_0
 10
412.63887177332612
 20
105.0540181798098
 30
0.0
 70
    32
  0
VERTEX
  5
8EC6
  8
AM_0
 10
412.63487177332632
 20
105.0530181798096
 30
0.0
 70
    32
  0
VERTEX
  5
8EC7
  8
AM_0
 10
412.63087177332619
 20
105.0530181798096
 30
0.0
 70
    32
  0
VERTEX
  5
8EC8
  8
AM_0
 10
412.62587177332631
 20
105.05201817980959
 30
0.0
 70
    32
  0
VERTEX
  5
8EC9
  8
AM_0
 10
412.62187177332612
 20
105.05201817980959
 30
0.0
 70
    32
  0
VERTEX
  5
8ECA
  8
AM_0
 10
412.61787177332633
 20
105.0510181798097
 30
0.0
 70
    32
  0
VERTEX
  5
8ECB
  8
AM_0
 10
412.61387177332642
 20
105.0510181798097
 30
0.0
 70
    32
  0
VERTEX
  5
8ECC
  8
AM_0
 10
412.60987177332612
 20
105.0500181798097
 30
0.0
 70
    32
  0
VERTEX
  5
8ECD
  8
AM_0
 10
412.60487177332629
 20
105.0500181798097
 30
0.0
 70
    32
  0
VERTEX
  5
8ECE
  8
AM_0
 10
412.60087177332622
 20
105.04901817980959
 30
0.0
 70
    32
  0
VERTEX
  5
8ECF
  8
AM_0
 10
412.59687177332631
 20
105.04901817980959
 30
0.0
 70
    32
  0
VERTEX
  5
8ED0
  8
AM_0
 10
412.59287177332618
 20
105.0480181798095
 30
0.0
 70
    32
  0
VERTEX
  5
8ED1
  8
AM_0
 10
412.5878717733263
 20
105.0480181798095
 30
0.0
 70
    32
  0
VERTEX
  5
8ED2
  8
AM_0
 10
412.58387177332622
 20
105.0470181798094
 30
0.0
 70
    32
  0
VERTEX
  5
8ED3
  8
AM_0
 10
412.57987177332632
 20
105.0470181798094
 30
0.0
 70
    32
  0
VERTEX
  5
8ED4
  8
AM_0
 10
412.5758717733263
 20
105.04601817980971
 30
0.0
 70
    32
  0
VERTEX
  5
8ED5
  8
AM_0
 10
412.5708717733263
 20
105.04601817980971
 30
0.0
 70
    32
  0
VERTEX
  5
8ED6
  8
AM_0
 10
412.56687177332628
 20
105.0450181798098
 30
0.0
 70
    32
  0
VERTEX
  5
8ED7
  8
AM_0
 10
412.56287177332621
 20
105.0450181798098
 30
0.0
 70
    32
  0
VERTEX
  5
8ED8
  8
AM_0
 10
412.5588717733263
 20
105.0440181798096
 30
0.0
 70
    32
  0
VERTEX
  5
8ED9
  8
AM_0
 10
412.55387177332642
 20
105.0440181798096
 30
0.0
 70
    32
  0
VERTEX
  5
8EDA
  8
AM_0
 10
412.54987177332629
 20
105.04301817980959
 30
0.0
 70
    32
  0
VERTEX
  5
8EDB
  8
AM_0
 10
412.54587177332633
 20
105.04301817980959
 30
0.0
 70
    32
  0
VERTEX
  5
8EDC
  8
AM_0
 10
412.54187177332631
 20
105.0420181798096
 30
0.0
 70
    32
  0
VERTEX
  5
8EDD
  8
AM_0
 10
412.5368717733262
 20
105.0420181798096
 30
0.0
 70
    32
  0
VERTEX
  5
8EDE
  8
AM_0
 10
412.53287177332612
 20
105.0410181798097
 30
0.0
 70
    32
  0
VERTEX
  5
8EDF
  8
AM_0
 10
412.52887177332627
 20
105.0410181798097
 30
0.0
 70
    32
  0
VERTEX
  5
8EE0
  8
AM_0
 10
412.52487177332631
 20
105.04001817980961
 30
0.0
 70
    32
  0
VERTEX
  5
8EE1
  8
AM_0
 10
412.52087177332629
 20
105.04001817980961
 30
0.0
 70
    32
  0
VERTEX
  5
8EE2
  8
AM_0
 10
412.5158717733263
 20
105.0390181798096
 30
0.0
 70
    32
  0
VERTEX
  5
8EE3
  8
AM_0
 10
412.51187177332628
 20
105.0380181798094
 30
0.0
 70
    32
  0
VERTEX
  5
8EE4
  8
AM_0
 10
412.5078717733262
 20
105.0380181798094
 30
0.0
 70
    32
  0
VERTEX
  5
8EE5
  8
AM_0
 10
412.5038717733263
 20
105.03701817980971
 30
0.0
 70
    32
  0
VERTEX
  5
8EE6
  8
AM_0
 10
412.49887177332641
 20
105.03701817980971
 30
0.0
 70
    32
  0
VERTEX
  5
8EE7
  8
AM_0
 10
412.49487177332622
 20
105.0360181798097
 30
0.0
 70
    32
  0
VERTEX
  5
8EE8
  8
AM_0
 10
412.49087177332632
 20
105.0360181798097
 30
0.0
 70
    32
  0
VERTEX
  5
8EE9
  8
AM_0
 10
412.48687177332653
 20
105.0350181798096
 30
0.0
 70
    32
  0
VERTEX
  5
8EEA
  8
AM_0
 10
412.4818717733263
 20
105.03401817980961
 30
0.0
 70
    32
  0
VERTEX
  5
8EEB
  8
AM_0
 10
412.47787177332629
 20
105.03401817980961
 30
0.0
 70
    32
  0
VERTEX
  5
8EEC
  8
AM_0
 10
412.47387177332632
 20
105.0330181798096
 30
0.0
 70
    32
  0
VERTEX
  5
8EED
  8
AM_0
 10
412.46987177332591
 20
105.0330181798096
 30
0.0
 70
    32
  0
VERTEX
  5
8EEE
  8
AM_0
 10
412.46587177332628
 20
105.0320181798097
 30
0.0
 70
    32
  0
VERTEX
  5
8EEF
  8
AM_0
 10
412.46087177332652
 20
105.03101817980981
 30
0.0
 70
    32
  0
VERTEX
  5
8EF0
  8
AM_0
 10
412.45687177332633
 20
105.03101817980981
 30
0.0
 70
    32
  0
VERTEX
  5
8EF1
  8
AM_0
 10
412.45287177332631
 20
105.0300181798096
 30
0.0
 70
    32
  0
VERTEX
  5
8EF2
  8
AM_0
 10
412.44887177332629
 20
105.0300181798096
 30
0.0
 70
    32
  0
VERTEX
  5
8EF3
  8
AM_0
 10
412.44387177332629
 20
105.0290181798094
 30
0.0
 70
    32
  0
VERTEX
  5
8EF4
  8
AM_0
 10
412.43987177332627
 20
105.02801817980961
 30
0.0
 70
    32
  0
VERTEX
  5
8EF5
  8
AM_0
 10
412.43587177332631
 20
105.02801817980961
 30
0.0
 70
    32
  0
VERTEX
  5
8EF6
  8
AM_0
 10
412.43187177332629
 20
105.0270181798097
 30
0.0
 70
    32
  0
VERTEX
  5
8EF7
  8
AM_0
 10
412.42787177332622
 20
105.0260181798098
 30
0.0
 70
    32
  0
VERTEX
  5
8EF8
  8
AM_0
 10
412.42287177332628
 20
105.0260181798098
 30
0.0
 70
    32
  0
VERTEX
  5
8EF9
  8
AM_0
 10
412.4188717733262
 20
105.02501817980961
 30
0.0
 70
    32
  0
VERTEX
  5
8EFA
  8
AM_0
 10
412.4148717733263
 20
105.02501817980961
 30
0.0
 70
    32
  0
VERTEX
  5
8EFB
  8
AM_0
 10
412.41087177332628
 20
105.0240181798096
 30
0.0
 70
    32
  0
VERTEX
  5
8EFC
  8
AM_0
 10
412.40587177332628
 20
105.0230181798097
 30
0.0
 70
    32
  0
VERTEX
  5
8EFD
  8
AM_0
 10
412.40187177332632
 20
105.0230181798097
 30
0.0
 70
    32
  0
VERTEX
  5
8EFE
  8
AM_0
 10
412.39787177332641
 20
105.02201817980981
 30
0.0
 70
    32
  0
VERTEX
  5
8EFF
  8
AM_0
 10
412.39387177332628
 20
105.0210181798097
 30
0.0
 70
    32
  0
VERTEX
  5
8F00
  8
AM_0
 10
412.38987177332621
 20
105.0210181798097
 30
0.0
 70
    32
  0
VERTEX
  5
8F01
  8
AM_0
 10
412.38487177332632
 20
105.0200181798094
 30
0.0
 70
    32
  0
VERTEX
  5
8F02
  8
AM_0
 10
412.38087177332608
 20
105.01901817980961
 30
0.0
 70
    32
  0
VERTEX
  5
8F03
  8
AM_0
 10
412.37687177332629
 20
105.01901817980961
 30
0.0
 70
    32
  0
VERTEX
  5
8F04
  8
AM_0
 10
412.37287177332621
 20
105.0180181798097
 30
0.0
 70
    32
  0
VERTEX
  5
8F05
  8
AM_0
 10
412.36787177332621
 20
105.0170181798097
 30
0.0
 70
    32
  0
VERTEX
  5
8F06
  8
AM_0
 10
412.36387177332631
 20
105.0170181798097
 30
0.0
 70
    32
  0
VERTEX
  5
8F07
  8
AM_0
 10
412.35987177332629
 20
105.01601817980971
 30
0.0
 70
    32
  0
VERTEX
  5
8F08
  8
AM_0
 10
412.35587177332633
 20
105.0150181798096
 30
0.0
 70
    32
  0
VERTEX
  5
8F09
  8
AM_0
 10
412.35187177332608
 20
105.0140181798095
 30
0.0
 70
    32
  0
VERTEX
  5
8F0A
  8
AM_0
 10
412.3468717733262
 20
105.0140181798095
 30
0.0
 70
    32
  0
VERTEX
  5
8F0B
  8
AM_0
 10
412.34287177332612
 20
105.01301817980981
 30
0.0
 70
    32
  0
VERTEX
  5
8F0C
  8
AM_0
 10
412.33887177332628
 20
105.0120181798097
 30
0.0
 70
    32
  0
VERTEX
  5
8F0D
  8
AM_0
 10
412.33487177332631
 20
105.0120181798097
 30
0.0
 70
    32
  0
VERTEX
  5
8F0E
  8
AM_0
 10
412.33087177332612
 20
105.0110181798094
 30
0.0
 70
    32
  0
VERTEX
  5
8F0F
  8
AM_0
 10
412.3258717733263
 20
105.01001817980961
 30
0.0
 70
    32
  0
VERTEX
  5
8F10
  8
AM_0
 10
412.32187177332622
 20
105.0090181798096
 30
0.0
 70
    32
  0
VERTEX
  5
8F11
  8
AM_0
 10
412.31787177332632
 20
105.0090181798096
 30
0.0
 70
    32
  0
VERTEX
  5
8F12
  8
AM_0
 10
412.31387177332618
 20
105.0080181798097
 30
0.0
 70
    32
  0
VERTEX
  5
8F13
  8
AM_0
 10
412.30987177332628
 20
105.00701817980971
 30
0.0
 70
    32
  0
VERTEX
  5
8F14
  8
AM_0
 10
412.304871773326
 20
105.0060181798096
 30
0.0
 70
    32
  0
VERTEX
  5
8F15
  8
AM_0
 10
412.30087177332632
 20
105.0060181798096
 30
0.0
 70
    32
  0
VERTEX
  5
8F16
  8
AM_0
 10
412.29687177332647
 20
105.0050181798096
 30
0.0
 70
    32
  0
VERTEX
  5
8F17
  8
AM_0
 10
412.29287177332623
 20
105.00401817980971
 30
0.0
 70
    32
  0
VERTEX
  5
8F18
  8
AM_0
 10
412.28887177332632
 20
105.0030181798097
 30
0.0
 70
    32
  0
VERTEX
  5
8F19
  8
AM_0
 10
412.28387177332621
 20
105.0030181798097
 30
0.0
 70
    32
  0
VERTEX
  5
8F1A
  8
AM_0
 10
412.27987177332631
 20
105.0020181798097
 30
0.0
 70
    32
  0
VERTEX
  5
8F1B
  8
AM_0
 10
412.27587177332629
 20
105.00101817980961
 30
0.0
 70
    32
  0
VERTEX
  5
8F1C
  8
AM_0
 10
412.27187177332621
 20
105.0000181798096
 30
0.0
 70
    32
  0
VERTEX
  5
8F1D
  8
AM_0
 10
412.26787177332631
 20
105.0000181798096
 30
0.0
 70
    32
  0
VERTEX
  5
8F1E
  8
AM_0
 10
412.26287177332608
 20
104.9990181798095
 30
0.0
 70
    32
  0
VERTEX
  5
8F1F
  8
AM_0
 10
412.25887177332629
 20
104.9980181798097
 30
0.0
 70
    32
  0
VERTEX
  5
8F20
  8
AM_0
 10
412.25487177332627
 20
104.9970181798097
 30
0.0
 70
    32
  0
VERTEX
  5
8F21
  8
AM_0
 10
412.25087177332631
 20
104.9960181798096
 30
0.0
 70
    32
  0
VERTEX
  5
8F22
  8
AM_0
 10
412.24687177332612
 20
104.9960181798096
 30
0.0
 70
    32
  0
VERTEX
  5
8F23
  8
AM_0
 10
412.2418717733263
 20
104.9950181798097
 30
0.0
 70
    32
  0
VERTEX
  5
8F24
  8
AM_0
 10
412.23787177332622
 20
104.9940181798097
 30
0.0
 70
    32
  0
VERTEX
  5
8F25
  8
AM_0
 10
412.23387177332631
 20
104.9930181798097
 30
0.0
 70
    32
  0
VERTEX
  5
8F26
  8
AM_0
 10
412.22987177332629
 20
104.9920181798097
 30
0.0
 70
    32
  0
VERTEX
  5
8F27
  8
AM_0
 10
412.22587177332622
 20
104.9920181798097
 30
0.0
 70
    32
  0
VERTEX
  5
8F28
  8
AM_0
 10
412.22087177332628
 20
104.9910181798096
 30
0.0
 70
    32
  0
VERTEX
  5
8F29
  8
AM_0
 10
412.2168717733262
 20
104.9900181798095
 30
0.0
 70
    32
  0
VERTEX
  5
8F2A
  8
AM_0
 10
412.2128717733263
 20
104.9890181798097
 30
0.0
 70
    32
  0
VERTEX
  5
8F2B
  8
AM_0
 10
412.20887177332611
 20
104.9880181798097
 30
0.0
 70
    32
  0
VERTEX
  5
8F2C
  8
AM_0
 10
412.20487177332632
 20
104.9870181798096
 30
0.0
 70
    32
  0
VERTEX
  5
8F2D
  8
AM_0
 10
412.20087177332641
 20
104.9870181798096
 30
0.0
 70
    32
  0
VERTEX
  5
8F2E
  8
AM_0
 10
412.1958717733263
 20
104.9860181798098
 30
0.0
 70
    32
  0
VERTEX
  5
8F2F
  8
AM_0
 10
412.19187177332628
 20
104.9850181798096
 30
0.0
 70
    32
  0
VERTEX
  5
8F30
  8
AM_0
 10
412.18787177332621
 20
104.98401817980969
 30
0.0
 70
    32
  0
VERTEX
  5
8F31
  8
AM_0
 10
412.1838717733263
 20
104.9830181798097
 30
0.0
 70
    32
  0
VERTEX
  5
8F32
  8
AM_0
 10
412.17987177332628
 20
104.9820181798096
 30
0.0
 70
    32
  0
VERTEX
  5
8F33
  8
AM_0
 10
412.17487177332629
 20
104.9810181798096
 30
0.0
 70
    32
  0
VERTEX
  5
8F34
  8
AM_0
 10
412.17087177332621
 20
104.9810181798096
 30
0.0
 70
    32
  0
VERTEX
  5
8F35
  8
AM_0
 10
412.16687177332631
 20
104.98001817980951
 30
0.0
 70
    32
  0
VERTEX
  5
8F36
  8
AM_0
 10
412.16287177332629
 20
104.9790181798097
 30
0.0
 70
    32
  0
VERTEX
  5
8F37
  8
AM_0
 10
412.15887177332633
 20
104.9780181798096
 30
0.0
 70
    32
  0
VERTEX
  5
8F38
  8
AM_0
 10
412.15487177332631
 20
104.9770181798098
 30
0.0
 70
    32
  0
VERTEX
  5
8F39
  8
AM_0
 10
412.1498717733262
 20
104.9760181798096
 30
0.0
 70
    32
  0
VERTEX
  5
8F3A
  8
AM_0
 10
412.14587177332629
 20
104.9750181798096
 30
0.0
 70
    32
  0
VERTEX
  5
8F3B
  8
AM_0
 10
412.14187177332622
 20
104.9740181798097
 30
0.0
 70
    32
  0
VERTEX
  5
8F3C
  8
AM_0
 10
412.13787177332631
 20
104.9730181798097
 30
0.0
 70
    32
  0
VERTEX
  5
8F3D
  8
AM_0
 10
412.13387177332629
 20
104.9730181798097
 30
0.0
 70
    32
  0
VERTEX
  5
8F3E
  8
AM_0
 10
412.12987177332622
 20
104.97201817980979
 30
0.0
 70
    32
  0
VERTEX
  5
8F3F
  8
AM_0
 10
412.12487177332628
 20
104.97101817980941
 30
0.0
 70
    32
  0
VERTEX
  5
8F40
  8
AM_0
 10
412.12087177332648
 20
104.9700181798097
 30
0.0
 70
    32
  0
VERTEX
  5
8F41
  8
AM_0
 10
412.1168717733263
 20
104.96901817980969
 30
0.0
 70
    32
  0
VERTEX
  5
8F42
  8
AM_0
 10
412.11287177332599
 20
104.9680181798097
 30
0.0
 70
    32
  0
VERTEX
  5
8F43
  8
AM_0
 10
412.10887177332631
 20
104.9670181798096
 30
0.0
 70
    32
  0
VERTEX
  5
8F44
  8
AM_0
 10
412.10487177332629
 20
104.9660181798095
 30
0.0
 70
    32
  0
VERTEX
  5
8F45
  8
AM_0
 10
412.0998717733263
 20
104.9650181798096
 30
0.0
 70
    32
  0
VERTEX
  5
8F46
  8
AM_0
 10
412.09587177332628
 20
104.9640181798097
 30
0.0
 70
    32
  0
VERTEX
  5
8F47
  8
AM_0
 10
412.09187177332609
 20
104.96301817980979
 30
0.0
 70
    32
  0
VERTEX
  5
8F48
  8
AM_0
 10
412.0878717733263
 20
104.96201817980941
 30
0.0
 70
    32
  0
VERTEX
  5
8F49
  8
AM_0
 10
412.08387177332628
 20
104.9610181798096
 30
0.0
 70
    32
  0
VERTEX
  5
8F4A
  8
AM_0
 10
412.07987177332632
 20
104.96001817980969
 30
0.0
 70
    32
  0
VERTEX
  5
8F4B
  8
AM_0
 10
412.07487177332621
 20
104.9590181798097
 30
0.0
 70
    32
  0
VERTEX
  5
8F4C
  8
AM_0
 10
412.0708717733263
 20
104.9580181798096
 30
0.0
 70
    32
  0
VERTEX
  5
8F4D
  8
AM_0
 10
412.06687177332651
 20
104.95701817980959
 30
0.0
 70
    32
  0
VERTEX
  5
8F4E
  8
AM_0
 10
412.06287177332632
 20
104.9560181798096
 30
0.0
 70
    32
  0
VERTEX
  5
8F4F
  8
AM_0
 10
412.0588717733263
 20
104.9550181798097
 30
0.0
 70
    32
  0
VERTEX
  5
8F50
  8
AM_0
 10
412.05487177332623
 20
104.95401817980979
 30
0.0
 70
    32
  0
VERTEX
  5
8F51
  8
AM_0
 10
412.05087177332632
 20
104.9530181798094
 30
0.0
 70
    32
  0
VERTEX
  5
8F52
  8
AM_0
 10
412.04587177332621
 20
104.9520181798096
 30
0.0
 70
    32
  0
VERTEX
  5
8F53
  8
AM_0
 10
412.04187177332619
 20
104.95101817980959
 30
0.0
 70
    32
  0
VERTEX
  5
8F54
  8
AM_0
 10
412.03787177332629
 20
104.9500181798097
 30
0.0
 70
    32
  0
VERTEX
  5
8F55
  8
AM_0
 10
412.03387177332621
 20
104.9490181798097
 30
0.0
 70
    32
  0
VERTEX
  5
8F56
  8
AM_0
 10
412.02987177332631
 20
104.94801817980959
 30
0.0
 70
    32
  0
VERTEX
  5
8F57
  8
AM_0
 10
412.02587177332612
 20
104.9470181798096
 30
0.0
 70
    32
  0
VERTEX
  5
8F58
  8
AM_0
 10
412.02087177332629
 20
104.9460181798097
 30
0.0
 70
    32
  0
VERTEX
  5
8F59
  8
AM_0
 10
412.01687177332622
 20
104.94501817980979
 30
0.0
 70
    32
  0
VERTEX
  5
8F5A
  8
AM_0
 10
412.01287177332642
 20
104.9440181798098
 30
0.0
 70
    32
  0
VERTEX
  5
8F5B
  8
AM_0
 10
412.00887177332629
 20
104.9430181798095
 30
0.0
 70
    32
  0
VERTEX
  5
8F5C
  8
AM_0
 10
412.00487177332622
 20
104.94201817980959
 30
0.0
 70
    32
  0
VERTEX
  5
8F5D
  8
AM_0
 10
412.00087177332631
 20
104.9410181798096
 30
0.0
 70
    32
  0
VERTEX
  5
8F5E
  8
AM_0
 10
411.99687177332629
 20
104.9400181798097
 30
0.0
 70
    32
  0
VERTEX
  5
8F5F
  8
AM_0
 10
411.99287177332633
 20
104.93901817980959
 30
0.0
 70
    32
  0
VERTEX
  5
8F60
  8
AM_0
 10
411.98787177332622
 20
104.9380181798096
 30
0.0
 70
    32
  0
VERTEX
  5
8F61
  8
AM_0
 10
411.98387177332631
 20
104.9370181798096
 30
0.0
 70
    32
  0
VERTEX
  5
8F62
  8
AM_0
 10
411.97987177332629
 20
104.93601817980981
 30
0.0
 70
    32
  0
VERTEX
  5
8F63
  8
AM_0
 10
411.97587177332628
 20
104.9340181798096
 30
0.0
 70
    32
  0
VERTEX
  5
8F64
  8
AM_0
 10
411.9718717733262
 20
104.93301817980959
 30
0.0
 70
    32
  0
VERTEX
  5
8F65
  8
AM_0
 10
411.96787177332612
 20
104.9320181798096
 30
0.0
 70
    32
  0
VERTEX
  5
8F66
  8
AM_0
 10
411.96387177332628
 20
104.9310181798096
 30
0.0
 70
    32
  0
VERTEX
  5
8F67
  8
AM_0
 10
411.9598717733262
 20
104.93001817980981
 30
0.0
 70
    32
  0
VERTEX
  5
8F68
  8
AM_0
 10
411.95487177332632
 20
104.9290181798096
 30
0.0
 70
    32
  0
VERTEX
  5
8F69
  8
AM_0
 10
411.9508717733263
 20
104.9280181798096
 30
0.0
 70
    32
  0
VERTEX
  5
8F6A
  8
AM_0
 10
411.94687177332622
 20
104.92701817980981
 30
0.0
 70
    32
  0
VERTEX
  5
8F6B
  8
AM_0
 10
411.94287177332632
 20
104.9260181798097
 30
0.0
 70
    32
  0
VERTEX
  5
8F6C
  8
AM_0
 10
411.93887177332613
 20
104.92401817980959
 30
0.0
 70
    32
  0
VERTEX
  5
8F6D
  8
AM_0
 10
411.93487177332628
 20
104.9230181798096
 30
0.0
 70
    32
  0
VERTEX
  5
8F6E
  8
AM_0
 10
411.93087177332632
 20
104.9220181798095
 30
0.0
 70
    32
  0
VERTEX
  5
8F6F
  8
AM_0
 10
411.92687177332618
 20
104.92101817980971
 30
0.0
 70
    32
  0
VERTEX
  5
8F70
  8
AM_0
 10
411.9218717733263
 20
104.9200181798097
 30
0.0
 70
    32
  0
VERTEX
  5
8F71
  8
AM_0
 10
411.91787177332623
 20
104.9190181798095
 30
0.0
 70
    32
  0
VERTEX
  5
8F72
  8
AM_0
 10
411.91387177332632
 20
104.91801817980971
 30
0.0
 70
    32
  0
VERTEX
  5
8F73
  8
AM_0
 10
411.90987177332619
 20
104.9160181798098
 30
0.0
 70
    32
  0
VERTEX
  5
8F74
  8
AM_0
 10
411.90587177332628
 20
104.91501817980961
 30
0.0
 70
    32
  0
VERTEX
  5
8F75
  8
AM_0
 10
411.90187177332632
 20
104.9140181798096
 30
0.0
 70
    32
  0
VERTEX
  5
8F76
  8
AM_0
 10
411.8978717733263
 20
104.9130181798095
 30
0.0
 70
    32
  0
VERTEX
  5
8F77
  8
AM_0
 10
411.89387177332628
 20
104.91201817980949
 30
0.0
 70
    32
  0
VERTEX
  5
8F78
  8
AM_0
 10
411.88987177332621
 20
104.9110181798097
 30
0.0
 70
    32
  0
VERTEX
  5
8F79
  8
AM_0
 10
411.8858717733263
 20
104.90901817980961
 30
0.0
 70
    32
  0
VERTEX
  5
8F7A
  8
AM_0
 10
411.88087177332631
 20
104.9080181798096
 30
0.0
 70
    32
  0
VERTEX
  5
8F7B
  8
AM_0
 10
411.87687177332629
 20
104.9070181798097
 30
0.0
 70
    32
  0
VERTEX
  5
8F7C
  8
AM_0
 10
411.87287177332621
 20
104.90601817980971
 30
0.0
 70
    32
  0
VERTEX
  5
8F7D
  8
AM_0
 10
411.86887177332608
 20
104.9050181798096
 30
0.0
 70
    32
  0
VERTEX
  5
8F7E
  8
AM_0
 10
411.86487177332629
 20
104.90301817980939
 30
0.0
 70
    32
  0
VERTEX
  5
8F7F
  8
AM_0
 10
411.86087177332632
 20
104.9020181798097
 30
0.0
 70
    32
  0
VERTEX
  5
8F80
  8
AM_0
 10
411.8568717733263
 20
104.9010181798097
 30
0.0
 70
    32
  0
VERTEX
  5
8F81
  8
AM_0
 10
411.85287177332629
 20
104.90001817980961
 30
0.0
 70
    32
  0
VERTEX
  5
8F82
  8
AM_0
 10
411.84887177332632
 20
104.8980181798095
 30
0.0
 70
    32
  0
VERTEX
  5
8F83
  8
AM_0
 10
411.84487177332619
 20
104.89701817980971
 30
0.0
 70
    32
  0
VERTEX
  5
8F84
  8
AM_0
 10
411.84087177332623
 20
104.8960181798097
 30
0.0
 70
    32
  0
VERTEX
  5
8F85
  8
AM_0
 10
411.83587177332629
 20
104.8950181798095
 30
0.0
 70
    32
  0
VERTEX
  5
8F86
  8
AM_0
 10
411.83187177332621
 20
104.8930181798096
 30
0.0
 70
    32
  0
VERTEX
  5
8F87
  8
AM_0
 10
411.82787177332642
 20
104.8920181798097
 30
0.0
 70
    32
  0
VERTEX
  5
8F88
  8
AM_0
 10
411.82387177332629
 20
104.89101817980971
 30
0.0
 70
    32
  0
VERTEX
  5
8F89
  8
AM_0
 10
411.81987177332633
 20
104.8900181798096
 30
0.0
 70
    32
  0
VERTEX
  5
8F8A
  8
AM_0
 10
411.81587177332648
 20
104.88801817980971
 30
0.0
 70
    32
  0
VERTEX
  5
8F8B
  8
AM_0
 10
411.81187177332617
 20
104.8870181798097
 30
0.0
 70
    32
  0
VERTEX
  5
8F8C
  8
AM_0
 10
411.80787177332633
 20
104.8860181798096
 30
0.0
 70
    32
  0
VERTEX
  5
8F8D
  8
AM_0
 10
411.80387177332648
 20
104.88501817980941
 30
0.0
 70
    32
  0
VERTEX
  5
8F8E
  8
AM_0
 10
411.79987177332629
 20
104.8830181798097
 30
0.0
 70
    32
  0
VERTEX
  5
8F8F
  8
AM_0
 10
411.79587177332621
 20
104.88201817980971
 30
0.0
 70
    32
  0
VERTEX
  5
8F90
  8
AM_0
 10
411.79187177332631
 20
104.8810181798096
 30
0.0
 70
    32
  0
VERTEX
  5
8F91
  8
AM_0
 10
411.78787177332629
 20
104.87901817980961
 30
0.0
 70
    32
  0
VERTEX
  5
8F92
  8
AM_0
 10
411.78287177332629
 20
104.8780181798097
 30
0.0
 70
    32
  0
VERTEX
  5
8F93
  8
AM_0
 10
411.77887177332627
 20
104.8770181798098
 30
0.0
 70
    32
  0
VERTEX
  5
8F94
  8
AM_0
 10
411.77487177332608
 20
104.8750181798094
 30
0.0
 70
    32
  0
VERTEX
  5
8F95
  8
AM_0
 10
411.77087177332629
 20
104.8740181798097
 30
0.0
 70
    32
  0
VERTEX
  5
8F96
  8
AM_0
 10
411.76687177332627
 20
104.8730181798097
 30
0.0
 70
    32
  0
VERTEX
  5
8F97
  8
AM_0
 10
411.76287177332631
 20
104.8710181798096
 30
0.0
 70
    32
  0
VERTEX
  5
8F98
  8
AM_0
 10
411.75887177332629
 20
104.87001817980951
 30
0.0
 70
    32
  0
VERTEX
  5
8F99
  8
AM_0
 10
411.75487177332627
 20
104.8690181798096
 30
0.0
 70
    32
  0
VERTEX
  5
8F9A
  8
AM_0
 10
411.75087177332631
 20
104.8670181798097
 30
0.0
 70
    32
  0
VERTEX
  5
8F9B
  8
AM_0
 10
411.74687177332612
 20
104.8660181798094
 30
0.0
 70
    32
  0
VERTEX
  5
8F9C
  8
AM_0
 10
411.74287177332633
 20
104.8650181798095
 30
0.0
 70
    32
  0
VERTEX
  5
8F9D
  8
AM_0
 10
411.73887177332631
 20
104.8630181798097
 30
0.0
 70
    32
  0
VERTEX
  5
8F9E
  8
AM_0
 10
411.73487177332612
 20
104.8620181798096
 30
0.0
 70
    32
  0
VERTEX
  5
8F9F
  8
AM_0
 10
411.73087177332633
 20
104.86101817980961
 30
0.0
 70
    32
  0
VERTEX
  5
8FA0
  8
AM_0
 10
411.72687177332642
 20
104.85901817980979
 30
0.0
 70
    32
  0
VERTEX
  5
8FA1
  8
AM_0
 10
411.72287177332629
 20
104.8580181798097
 30
0.0
 70
    32
  0
VERTEX
  5
8FA2
  8
AM_0
 10
411.71887177332633
 20
104.8560181798096
 30
0.0
 70
    32
  0
VERTEX
  5
8FA3
  8
AM_0
 10
411.71487177332631
 20
104.8550181798096
 30
0.0
 70
    32
  0
VERTEX
  5
8FA4
  8
AM_0
 10
411.71087177332629
 20
104.8540181798097
 30
0.0
 70
    32
  0
VERTEX
  5
8FA5
  8
AM_0
 10
411.70687177332621
 20
104.8520181798096
 30
0.0
 70
    32
  0
VERTEX
  5
8FA6
  8
AM_0
 10
411.70287177332631
 20
104.8510181798096
 30
0.0
 70
    32
  0
VERTEX
  5
8FA7
  8
AM_0
 10
411.69887177332629
 20
104.8490181798097
 30
0.0
 70
    32
  0
VERTEX
  5
8FA8
  8
AM_0
 10
411.69487177332633
 20
104.8480181798097
 30
0.0
 70
    32
  0
VERTEX
  5
8FA9
  8
AM_0
 10
411.69087177332648
 20
104.8470181798096
 30
0.0
 70
    32
  0
VERTEX
  5
8FAA
  8
AM_0
 10
411.68687177332629
 20
104.8450181798096
 30
0.0
 70
    32
  0
VERTEX
  5
8FAB
  8
AM_0
 10
411.68287177332621
 20
104.84401817980969
 30
0.0
 70
    32
  0
VERTEX
  5
8FAC
  8
AM_0
 10
411.67787177332627
 20
104.8420181798096
 30
0.0
 70
    32
  0
VERTEX
  5
8FAD
  8
AM_0
 10
411.6738717733262
 20
104.84101817980959
 30
0.0
 70
    32
  0
VERTEX
  5
8FAE
  8
AM_0
 10
411.66987177332629
 20
104.8390181798097
 30
0.0
 70
    32
  0
VERTEX
  5
8FAF
  8
AM_0
 10
411.66587177332627
 20
104.83801817980959
 30
0.0
 70
    32
  0
VERTEX
  5
8FB0
  8
AM_0
 10
411.6618717733262
 20
104.8360181798096
 30
0.0
 70
    32
  0
VERTEX
  5
8FB1
  8
AM_0
 10
411.65787177332612
 20
104.8350181798094
 30
0.0
 70
    32
  0
VERTEX
  5
8FB2
  8
AM_0
 10
411.65387177332627
 20
104.8330181798096
 30
0.0
 70
    32
  0
VERTEX
  5
8FB3
  8
AM_0
 10
411.64987177332631
 20
104.83201817980959
 30
0.0
 70
    32
  0
VERTEX
  5
8FB4
  8
AM_0
 10
411.64587177332629
 20
104.8300181798095
 30
0.0
 70
    32
  0
VERTEX
  5
8FB5
  8
AM_0
 10
411.64187177332622
 20
104.82901817980979
 30
0.0
 70
    32
  0
VERTEX
  5
8FB6
  8
AM_0
 10
411.63787177332642
 20
104.8270181798096
 30
0.0
 70
    32
  0
VERTEX
  5
8FB7
  8
AM_0
 10
411.63387177332629
 20
104.8260181798094
 30
0.0
 70
    32
  0
VERTEX
  5
8FB8
  8
AM_0
 10
411.62987177332622
 20
104.8240181798097
 30
0.0
 70
    32
  0
VERTEX
  5
8FB9
  8
AM_0
 10
411.62587177332642
 20
104.82301817980959
 30
0.0
 70
    32
  0
VERTEX
  5
8FBA
  8
AM_0
 10
411.62187177332618
 20
104.8210181798095
 30
0.0
 70
    32
  0
VERTEX
  5
8FBB
  8
AM_0
 10
411.61787177332633
 20
104.82001817980969
 30
0.0
 70
    32
  0
VERTEX
  5
8FBC
  8
AM_0
 10
411.61487177332629
 20
104.8180181798098
 30
0.0
 70
    32
  0
VERTEX
  5
8FBD
  8
AM_0
 10
411.61087177332621
 20
104.81701817980939
 30
0.0
 70
    32
  0
VERTEX
  5
8FBE
  8
AM_0
 10
411.6068717733263
 20
104.8150181798097
 30
0.0
 70
    32
  0
VERTEX
  5
8FBF
  8
AM_0
 10
411.60287177332629
 20
104.81401817980959
 30
0.0
 70
    32
  0
VERTEX
  5
8FC0
  8
AM_0
 10
411.59887177332632
 20
104.8120181798095
 30
0.0
 70
    32
  0
VERTEX
  5
8FC1
  8
AM_0
 10
411.59487177332591
 20
104.81101817980969
 30
0.0
 70
    32
  0
VERTEX
  5
8FC2
  8
AM_0
 10
411.59087177332628
 20
104.8090181798098
 30
0.0
 70
    32
  0
VERTEX
  5
8FC3
  8
AM_0
 10
411.58687177332621
 20
104.8070181798094
 30
0.0
 70
    32
  0
VERTEX
  5
8FC4
  8
AM_0
 10
411.5828717733263
 20
104.8060181798097
 30
0.0
 70
    32
  0
VERTEX
  5
8FC5
  8
AM_0
 10
411.57887177332628
 20
104.8040181798096
 30
0.0
 70
    32
  0
VERTEX
  5
8FC6
  8
AM_0
 10
411.57487177332632
 20
104.8030181798096
 30
0.0
 70
    32
  0
VERTEX
  5
8FC7
  8
AM_0
 10
411.57087177332608
 20
104.8010181798097
 30
0.0
 70
    32
  0
VERTEX
  5
8FC8
  8
AM_0
 10
411.56687177332628
 20
104.79901817980939
 30
0.0
 70
    32
  0
VERTEX
  5
8FC9
  8
AM_0
 10
411.56287177332632
 20
104.7980181798094
 30
0.0
 70
    32
  0
VERTEX
  5
8FCA
  8
AM_0
 10
411.5588717733263
 20
104.79601817980971
 30
0.0
 70
    32
  0
VERTEX
  5
8FCB
  8
AM_0
 10
411.55487177332623
 20
104.7950181798097
 30
0.0
 70
    32
  0
VERTEX
  5
8FCC
  8
AM_0
 10
411.55087177332632
 20
104.79301817980949
 30
0.0
 70
    32
  0
VERTEX
  5
8FCD
  8
AM_0
 10
411.5468717733263
 20
104.79101817981
 30
0.0
 70
    32
  0
VERTEX
  5
8FCE
  8
AM_0
 10
411.54287177332623
 20
104.79001817980939
 30
0.0
 70
    32
  0
VERTEX
  5
8FCF
  8
AM_0
 10
411.53887177332632
 20
104.7880181798095
 30
0.0
 70
    32
  0
VERTEX
  5
8FD0
  8
AM_0
 10
411.53487177332619
 20
104.7860181798097
 30
0.0
 70
    32
  0
VERTEX
  5
8FD1
  8
AM_0
 10
411.53087177332628
 20
104.7850181798096
 30
0.0
 70
    32
  0
VERTEX
  5
8FD2
  8
AM_0
 10
411.52687177332632
 20
104.7830181798096
 30
0.0
 70
    32
  0
VERTEX
  5
8FD3
  8
AM_0
 10
411.52387177332622
 20
104.78101817980971
 30
0.0
 70
    32
  0
VERTEX
  5
8FD4
  8
AM_0
 10
411.51987177332632
 20
104.7800181798096
 30
0.0
 70
    32
  0
VERTEX
  5
8FD5
  8
AM_0
 10
411.51587177332641
 20
104.77801817980961
 30
0.0
 70
    32
  0
VERTEX
  5
8FD6
  8
AM_0
 10
411.51187177332628
 20
104.7760181798097
 30
0.0
 70
    32
  0
VERTEX
  5
8FD7
  8
AM_0
 10
411.50787177332592
 20
104.77501817980961
 30
0.0
 70
    32
  0
VERTEX
  5
8FD8
  8
AM_0
 10
411.5038717733263
 20
104.7730181798098
 30
0.0
 70
    32
  0
VERTEX
  5
8FD9
  8
AM_0
 10
411.49987177332622
 20
104.7710181798097
 30
0.0
 70
    32
  0
VERTEX
  5
8FDA
  8
AM_0
 10
411.49587177332631
 20
104.7700181798095
 30
0.0
 70
    32
  0
VERTEX
  5
8FDB
  8
AM_0
 10
411.4918717733263
 20
104.7680181798096
 30
0.0
 70
    32
  0
VERTEX
  5
8FDC
  8
AM_0
 10
411.48787177332628
 20
104.76601817980971
 30
0.0
 70
    32
  0
VERTEX
  5
8FDD
  8
AM_0
 10
411.48387177332609
 20
104.7640181798098
 30
0.0
 70
    32
  0
VERTEX
  5
8FDE
  8
AM_0
 10
411.47987177332629
 20
104.76301817980971
 30
0.0
 70
    32
  0
VERTEX
  5
8FDF
  8
AM_0
 10
411.47687177332608
 20
104.7610181798096
 30
0.0
 70
    32
  0
VERTEX
  5
8FE0
  8
AM_0
 10
411.47287177332629
 20
104.7590181798096
 30
0.0
 70
    32
  0
VERTEX
  5
8FE1
  8
AM_0
 10
411.46887177332633
 20
104.75701817980971
 30
0.0
 70
    32
  0
VERTEX
  5
8FE2
  8
AM_0
 10
411.46487177332631
 20
104.7560181798096
 30
0.0
 70
    32
  0
VERTEX
  5
8FE3
  8
AM_0
 10
411.46087177332629
 20
104.75401817980961
 30
0.0
 70
    32
  0
VERTEX
  5
8FE4
  8
AM_0
 10
411.45687177332621
 20
104.7520181798097
 30
0.0
 70
    32
  0
VERTEX
  5
8FE5
  8
AM_0
 10
411.45287177332631
 20
104.7500181798096
 30
0.0
 70
    32
  0
VERTEX
  5
8FE6
  8
AM_0
 10
411.44887177332629
 20
104.7490181798094
 30
0.0
 70
    32
  0
VERTEX
  5
8FE7
  8
AM_0
 10
411.44487177332633
 20
104.7470181798098
 30
0.0
 70
    32
  0
VERTEX
  5
8FE8
  8
AM_0
 10
411.44187177332628
 20
104.74501817980961
 30
0.0
 70
    32
  0
VERTEX
  5
8FE9
  8
AM_0
 10
411.43787177332621
 20
104.7430181798096
 30
0.0
 70
    32
  0
VERTEX
  5
8FEA
  8
AM_0
 10
411.4338717733263
 20
104.7410181798096
 30
0.0
 70
    32
  0
VERTEX
  5
8FEB
  8
AM_0
 10
411.42987177332611
 20
104.7400181798094
 30
0.0
 70
    32
  0
VERTEX
  5
8FEC
  8
AM_0
 10
411.42587177332632
 20
104.7380181798097
 30
0.0
 70
    32
  0
VERTEX
  5
8FED
  8
AM_0
 10
411.42187177332642
 20
104.73601817980961
 30
0.0
 70
    32
  0
VERTEX
  5
8FEE
  8
AM_0
 10
411.41787177332623
 20
104.7340181798096
 30
0.0
 70
    32
  0
VERTEX
  5
8FEF
  8
AM_0
 10
411.4148717733263
 20
104.7320181798096
 30
0.0
 70
    32
  0
VERTEX
  5
8FF0
  8
AM_0
 10
411.41087177332628
 20
104.7310181798094
 30
0.0
 70
    32
  0
VERTEX
  5
8FF1
  8
AM_0
 10
411.40687177332632
 20
104.7290181798095
 30
0.0
 70
    32
  0
VERTEX
  5
8FF2
  8
AM_0
 10
411.40287177332601
 20
104.7270181798096
 30
0.0
 70
    32
  0
VERTEX
  5
8FF3
  8
AM_0
 10
411.39887177332628
 20
104.7250181798095
 30
0.0
 70
    32
  0
VERTEX
  5
8FF4
  8
AM_0
 10
411.39487177332632
 20
104.72301817981
 30
0.0
 70
    32
  0
VERTEX
  5
8FF5
  8
AM_0
 10
411.39087177332652
 20
104.72101817980941
 30
0.0
 70
    32
  0
VERTEX
  5
8FF6
  8
AM_0
 10
411.38787177332631
 20
104.71901817980969
 30
0.0
 70
    32
  0
VERTEX
  5
8FF7
  8
AM_0
 10
411.38387177332629
 20
104.7170181798096
 30
0.0
 70
    32
  0
VERTEX
  5
8FF8
  8
AM_0
 10
411.37987177332627
 20
104.7160181798095
 30
0.0
 70
    32
  0
VERTEX
  5
8FF9
  8
AM_0
 10
411.37587177332631
 20
104.7140181798098
 30
0.0
 70
    32
  0
VERTEX
  5
8FFA
  8
AM_0
 10
411.37187177332612
 20
104.71201817980941
 30
0.0
 70
    32
  0
VERTEX
  5
8FFB
  8
AM_0
 10
411.3688717733263
 20
104.71001817980959
 30
0.0
 70
    32
  0
VERTEX
  5
8FFC
  8
AM_0
 10
411.36487177332629
 20
104.7080181798096
 30
0.0
 70
    32
  0
VERTEX
  5
8FFD
  8
AM_0
 10
411.36087177332621
 20
104.7060181798096
 30
0.0
 70
    32
  0
VERTEX
  5
8FFE
  8
AM_0
 10
411.3568717733263
 20
104.70401817980959
 30
0.0
 70
    32
  0
VERTEX
  5
8FFF
  8
AM_0
 10
411.35287177332629
 20
104.7020181798096
 30
0.0
 70
    32
  0
VERTEX
  5
9000
  8
AM_0
 10
411.34987177332619
 20
104.7000181798097
 30
0.0
 70
    32
  0
VERTEX
  5
9001
  8
AM_0
 10
411.34587177332628
 20
104.69801817980959
 30
0.0
 70
    32
  0
VERTEX
  5
9002
  8
AM_0
 10
411.3418717733262
 20
104.6960181798098
 30
0.0
 70
    32
  0
VERTEX
  5
9003
  8
AM_0
 10
411.3378717733263
 20
104.6940181798097
 30
0.0
 70
    32
  0
VERTEX
  5
9004
  8
AM_0
 10
411.33387177332622
 20
104.69201817980959
 30
0.0
 70
    32
  0
VERTEX
  5
9005
  8
AM_0
 10
411.33087177332629
 20
104.6900181798097
 30
0.0
 70
    32
  0
VERTEX
  5
9006
  8
AM_0
 10
411.32687177332627
 20
104.6880181798096
 30
0.0
 70
    32
  0
VERTEX
  5
9007
  8
AM_0
 10
411.3228717733262
 20
104.68601817980959
 30
0.0
 70
    32
  0
VERTEX
  5
9008
  8
AM_0
 10
411.31887177332629
 20
104.6840181798096
 30
0.0
 70
    32
  0
VERTEX
  5
9009
  8
AM_0
 10
411.31487177332627
 20
104.6820181798095
 30
0.0
 70
    32
  0
VERTEX
  5
900A
  8
AM_0
 10
411.31187177332629
 20
104.68001817980939
 30
0.0
 70
    32
  0
VERTEX
  5
900B
  8
AM_0
 10
411.30787177332633
 20
104.6780181798099
 30
0.0
 70
    32
  0
VERTEX
  5
900C
  8
AM_0
 10
411.30387177332648
 20
104.6760181798097
 30
0.0
 70
    32
  0
VERTEX
  5
900D
  8
AM_0
 10
411.29987177332629
 20
104.67401817980959
 30
0.0
 70
    32
  0
VERTEX
  5
900E
  8
AM_0
 10
411.29687177332647
 20
104.6720181798096
 30
0.0
 70
    32
  0
VERTEX
  5
900F
  8
AM_0
 10
411.29287177332628
 20
104.6700181798097
 30
0.0
 70
    32
  0
VERTEX
  5
9010
  8
AM_0
 10
411.28887177332621
 20
104.66801817980959
 30
0.0
 70
    32
  0
VERTEX
  5
9011
  8
AM_0
 10
411.28487177332607
 20
104.6660181798097
 30
0.0
 70
    32
  0
VERTEX
  5
9012
  8
AM_0
 10
411.2818717733262
 20
104.6640181798098
 30
0.0
 70
    32
  0
VERTEX
  5
9013
  8
AM_0
 10
411.2778717733259
 20
104.66201817980939
 30
0.0
 70
    32
  0
VERTEX
  5
9014
  8
AM_0
 10
411.27387177332628
 20
104.6600181798098
 30
0.0
 70
    32
  0
VERTEX
  5
9015
  8
AM_0
 10
411.27087177332629
 20
104.6580181798096
 30
0.0
 70
    32
  0
VERTEX
  5
9016
  8
AM_0
 10
411.26687177332622
 20
104.6550181798098
 30
0.0
 70
    32
  0
VERTEX
  5
9017
  8
AM_0
 10
411.2628717733262
 20
104.65301817980939
 30
0.0
 70
    32
  0
VERTEX
  5
9018
  8
AM_0
 10
411.25887177332629
 20
104.6510181798097
 30
0.0
 70
    32
  0
VERTEX
  5
9019
  8
AM_0
 10
411.25587177332619
 20
104.6490181798096
 30
0.0
 70
    32
  0
VERTEX
  5
901A
  8
AM_0
 10
411.25187177332629
 20
104.64701817980971
 30
0.0
 70
    32
  0
VERTEX
  5
901B
  8
AM_0
 10
411.24787177332632
 20
104.6450181798094
 30
0.0
 70
    32
  0
VERTEX
  5
901C
  8
AM_0
 10
411.24487177332622
 20
104.6430181798096
 30
0.0
 70
    32
  0
VERTEX
  5
901D
  8
AM_0
 10
411.24087177332632
 20
104.6410181798099
 30
0.0
 70
    32
  0
VERTEX
  5
901E
  8
AM_0
 10
411.2368717733263
 20
104.63801817980971
 30
0.0
 70
    32
  0
VERTEX
  5
901F
  8
AM_0
 10
411.23387177332631
 20
104.6360181798094
 30
0.0
 70
    32
  0
VERTEX
  5
9020
  8
AM_0
 10
411.22987177332629
 20
104.6340181798096
 30
0.0
 70
    32
  0
VERTEX
  5
9021
  8
AM_0
 10
411.22587177332622
 20
104.6320181798098
 30
0.0
 70
    32
  0
VERTEX
  5
9022
  8
AM_0
 10
411.22287177332629
 20
104.6300181798096
 30
0.0
 70
    32
  0
VERTEX
  5
9023
  8
AM_0
 10
411.21887177332633
 20
104.6270181798097
 30
0.0
 70
    32
  0
VERTEX
  5
9024
  8
AM_0
 10
411.21487177332631
 20
104.6250181798096
 30
0.0
 70
    32
  0
VERTEX
  5
9025
  8
AM_0
 10
411.21187177332632
 20
104.6230181798097
 30
0.0
 70
    32
  0
VERTEX
  5
9026
  8
AM_0
 10
411.20787177332608
 20
104.6210181798096
 30
0.0
 70
    32
  0
VERTEX
  5
9027
  8
AM_0
 10
411.20387177332628
 20
104.6190181798098
 30
0.0
 70
    32
  0
VERTEX
  5
9028
  8
AM_0
 10
411.2008717733263
 20
104.6160181798096
 30
0.0
 70
    32
  0
VERTEX
  5
9029
  8
AM_0
 10
411.19687177332628
 20
104.61401817980951
 30
0.0
 70
    32
  0
VERTEX
  5
902A
  8
AM_0
 10
411.1928717733262
 20
104.6120181798096
 30
0.0
 70
    32
  0
VERTEX
  5
902B
  8
AM_0
 10
411.18987177332627
 20
104.6100181798097
 30
0.0
 70
    32
  0
VERTEX
  5
902C
  8
AM_0
 10
411.18587177332608
 20
104.6070181798096
 30
0.0
 70
    32
  0
VERTEX
  5
902D
  8
AM_0
 10
411.18287177332633
 20
104.60501817980951
 30
0.0
 70
    32
  0
VERTEX
  5
902E
  8
AM_0
 10
411.17887177332642
 20
104.60301817980969
 30
0.0
 70
    32
  0
VERTEX
  5
902F
  8
AM_0
 10
411.17487177332629
 20
104.6010181798098
 30
0.0
 70
    32
  0
VERTEX
  5
9030
  8
AM_0
 10
411.1718717733263
 20
104.5980181798097
 30
0.0
 70
    32
  0
VERTEX
  5
9031
  8
AM_0
 10
411.16787177332623
 20
104.5960181798095
 30
0.0
 70
    32
  0
VERTEX
  5
9032
  8
AM_0
 10
411.1648717733263
 20
104.59401817980969
 30
0.0
 70
    32
  0
VERTEX
  5
9033
  8
AM_0
 10
411.16087177332628
 20
104.59101817980959
 30
0.0
 70
    32
  0
VERTEX
  5
9034
  8
AM_0
 10
411.15687177332632
 20
104.5890181798097
 30
0.0
 70
    32
  0
VERTEX
  5
9035
  8
AM_0
 10
411.15387177332627
 20
104.5870181798096
 30
0.0
 70
    32
  0
VERTEX
  5
9036
  8
AM_0
 10
411.14987177332642
 20
104.5840181798097
 30
0.0
 70
    32
  0
VERTEX
  5
9037
  8
AM_0
 10
411.14687177332632
 20
104.58201817980959
 30
0.0
 70
    32
  0
VERTEX
  5
9038
  8
AM_0
 10
411.14287177332642
 20
104.5800181798097
 30
0.0
 70
    32
  0
VERTEX
  5
9039
  8
AM_0
 10
411.13987177332621
 20
104.5770181798094
 30
0.0
 70
    32
  0
VERTEX
  5
903A
  8
AM_0
 10
411.13587177332641
 20
104.5750181798097
 30
0.0
 70
    32
  0
VERTEX
  5
903B
  8
AM_0
 10
411.1328717733262
 20
104.5720181798095
 30
0.0
 70
    32
  0
VERTEX
  5
903C
  8
AM_0
 10
411.1288717733263
 20
104.57001817980969
 30
0.0
 70
    32
  0
VERTEX
  5
903D
  8
AM_0
 10
411.12487177332628
 20
104.5680181798098
 30
0.0
 70
    32
  0
VERTEX
  5
903E
  8
AM_0
 10
411.12187177332618
 20
104.5650181798097
 30
0.0
 70
    32
  0
VERTEX
  5
903F
  8
AM_0
 10
411.11787177332633
 20
104.5630181798096
 30
0.0
 70
    32
  0
VERTEX
  5
9040
  8
AM_0
 10
411.11487177332629
 20
104.5600181798098
 30
0.0
 70
    32
  0
VERTEX
  5
9041
  8
AM_0
 10
411.11087177332621
 20
104.55801817980939
 30
0.0
 70
    32
  0
VERTEX
  5
9042
  8
AM_0
 10
411.10787177332628
 20
104.55501817980969
 30
0.0
 70
    32
  0
VERTEX
  5
9043
  8
AM_0
 10
411.10387177332598
 20
104.5530181798095
 30
0.0
 70
    32
  0
VERTEX
  5
9044
  8
AM_0
 10
411.10087177332628
 20
104.5510181798098
 30
0.0
 70
    32
  0
VERTEX
  5
9045
  8
AM_0
 10
411.0968717733262
 20
104.5480181798096
 30
0.0
 70
    32
  0
VERTEX
  5
9046
  8
AM_0
 10
411.09387177332633
 20
104.54601817980959
 30
0.0
 70
    32
  0
VERTEX
  5
9047
  8
AM_0
 10
411.08987177332608
 20
104.54301817980959
 30
0.0
 70
    32
  0
VERTEX
  5
9048
  8
AM_0
 10
411.08687177332632
 20
104.5410181798097
 30
0.0
 70
    32
  0
VERTEX
  5
9049
  8
AM_0
 10
411.08387177332628
 20
104.5380181798096
 30
0.0
 70
    32
  0
VERTEX
  5
904A
  8
AM_0
 10
411.0798717733262
 20
104.5360181798097
 30
0.0
 70
    32
  0
VERTEX
  5
904B
  8
AM_0
 10
411.07687177332627
 20
104.5330181798098
 30
0.0
 70
    32
  0
VERTEX
  5
904C
  8
AM_0
 10
411.0728717733262
 20
104.53101817980981
 30
0.0
 70
    32
  0
VERTEX
  5
904D
  8
AM_0
 10
411.06987177332633
 20
104.52801817980949
 30
0.0
 70
    32
  0
VERTEX
  5
904E
  8
AM_0
 10
411.06587177332631
 20
104.5260181798097
 30
0.0
 70
    32
  0
VERTEX
  5
904F
  8
AM_0
 10
411.06287177332621
 20
104.5230181798096
 30
0.0
 70
    32
  0
VERTEX
  5
9050
  8
AM_0
 10
411.05987177332628
 20
104.5200181798096
 30
0.0
 70
    32
  0
VERTEX
  5
9051
  8
AM_0
 10
411.05587177332632
 20
104.5180181798095
 30
0.0
 70
    32
  0
VERTEX
  5
9052
  8
AM_0
 10
411.05287177332622
 20
104.5150181798096
 30
0.0
 70
    32
  0
VERTEX
  5
9053
  8
AM_0
 10
411.04887177332631
 20
104.51301817980971
 30
0.0
 70
    32
  0
VERTEX
  5
9054
  8
AM_0
 10
411.04587177332621
 20
104.51001817980961
 30
0.0
 70
    32
  0
VERTEX
  5
9055
  8
AM_0
 10
411.04287177332623
 20
104.50701817980971
 30
0.0
 70
    32
  0
VERTEX
  5
9056
  8
AM_0
 10
411.03887177332632
 20
104.5050181798096
 30
0.0
 70
    32
  0
VERTEX
  5
9057
  8
AM_0
 10
411.03587177332628
 20
104.5020181798097
 30
0.0
 70
    32
  0
VERTEX
  5
9058
  8
AM_0
 10
411.03187177332632
 20
104.5000181798094
 30
0.0
 70
    32
  0
VERTEX
  5
9059
  8
AM_0
 10
411.02887177332627
 20
104.4970181798097
 30
0.0
 70
    32
  0
VERTEX
  5
905A
  8
AM_0
 10
411.02587177332629
 20
104.4940181798097
 30
0.0
 70
    32
  0
VERTEX
  5
905B
  8
AM_0
 10
411.02187177332632
 20
104.4920181798098
 30
0.0
 70
    32
  0
VERTEX
  5
905C
  8
AM_0
 10
411.01887177332628
 20
104.4890181798097
 30
0.0
 70
    32
  0
VERTEX
  5
905D
  8
AM_0
 10
411.01587177332652
 20
104.48601817980961
 30
0.0
 70
    32
  0
VERTEX
  5
905E
  8
AM_0
 10
411.01187177332622
 20
104.48401817980969
 30
0.0
 70
    32
  0
VERTEX
  5
905F
  8
AM_0
 10
411.00887177332652
 20
104.4810181798094
 30
0.0
 70
    32
  0
VERTEX
  5
9060
  8
AM_0
 10
411.00587177332631
 20
104.47801817980969
 30
0.0
 70
    32
  0
VERTEX
  5
9061
  8
AM_0
 10
411.00287177332621
 20
104.4750181798096
 30
0.0
 70
    32
  0
VERTEX
  5
9062
  8
AM_0
 10
410.9988717733263
 20
104.4730181798097
 30
0.0
 70
    32
  0
VERTEX
  5
9063
  8
AM_0
 10
410.9958717733262
 20
104.4700181798096
 30
0.0
 70
    32
  0
VERTEX
  5
9064
  8
AM_0
 10
410.99287177332633
 20
104.4670181798096
 30
0.0
 70
    32
  0
VERTEX
  5
9065
  8
AM_0
 10
410.98887177332631
 20
104.4640181798097
 30
0.0
 70
    32
  0
VERTEX
  5
9066
  8
AM_0
 10
410.98587177332632
 20
104.4620181798096
 30
0.0
 70
    32
  0
VERTEX
  5
9067
  8
AM_0
 10
410.98287177332628
 20
104.4590181798097
 30
0.0
 70
    32
  0
VERTEX
  5
9068
  8
AM_0
 10
410.97987177332629
 20
104.4560181798098
 30
0.0
 70
    32
  0
VERTEX
  5
9069
  8
AM_0
 10
410.97587177332622
 20
104.4530181798096
 30
0.0
 70
    32
  0
VERTEX
  5
906A
  8
AM_0
 10
410.97287177332629
 20
104.45101817980959
 30
0.0
 70
    32
  0
VERTEX
  5
906B
  8
AM_0
 10
410.96987177332619
 20
104.44801817980959
 30
0.0
 70
    32
  0
VERTEX
  5
906C
  8
AM_0
 10
410.9668717733262
 20
104.44501817980969
 30
0.0
 70
    32
  0
VERTEX
  5
906D
  8
AM_0
 10
410.96387177332628
 20
104.44201817980959
 30
0.0
 70
    32
  0
VERTEX
  5
906E
  8
AM_0
 10
410.95987177332631
 20
104.43901817980959
 30
0.0
 70
    32
  0
VERTEX
  5
906F
  8
AM_0
 10
410.95687177332621
 20
104.43601817980939
 30
0.0
 70
    32
  0
VERTEX
  5
9070
  8
AM_0
 10
410.95387177332628
 20
104.4340181798096
 30
0.0
 70
    32
  0
VERTEX
  5
9071
  8
AM_0
 10
410.9508717733263
 20
104.4310181798095
 30
0.0
 70
    32
  0
VERTEX
  5
9072
  8
AM_0
 10
410.9478717733262
 20
104.4280181798096
 30
0.0
 70
    32
  0
VERTEX
  5
9073
  8
AM_0
 10
410.94487177332633
 20
104.4250181798097
 30
0.0
 70
    32
  0
VERTEX
  5
9074
  8
AM_0
 10
410.94187177332628
 20
104.4220181798094
 30
0.0
 70
    32
  0
VERTEX
  5
9075
  8
AM_0
 10
410.93787177332621
 20
104.4190181798096
 30
0.0
 70
    32
  0
VERTEX
  5
9076
  8
AM_0
 10
410.93487177332628
 20
104.4160181798097
 30
0.0
 70
    32
  0
VERTEX
  5
9077
  8
AM_0
 10
410.93187177332629
 20
104.4130181798094
 30
0.0
 70
    32
  0
VERTEX
  5
9078
  8
AM_0
 10
410.92887177332648
 20
104.4100181798096
 30
0.0
 70
    32
  0
VERTEX
  5
9079
  8
AM_0
 10
410.92587177332632
 20
104.4070181798097
 30
0.0
 70
    32
  0
VERTEX
  5
907A
  8
AM_0
 10
410.92287177332628
 20
104.4040181798094
 30
0.0
 70
    32
  0
VERTEX
  5
907B
  8
AM_0
 10
410.91987177332629
 20
104.4010181798097
 30
0.0
 70
    32
  0
VERTEX
  5
907C
  8
AM_0
 10
410.91687177332631
 20
104.3980181798096
 30
0.0
 70
    32
  0
VERTEX
  5
907D
  8
AM_0
 10
410.91387177332632
 20
104.3950181798094
 30
0.0
 70
    32
  0
VERTEX
  5
907E
  8
AM_0
 10
410.91087177332628
 20
104.3920181798097
 30
0.0
 70
    32
  0
VERTEX
  5
907F
  8
AM_0
 10
410.90787177332629
 20
104.3890181798096
 30
0.0
 70
    32
  0
VERTEX
  5
9080
  8
AM_0
 10
410.90487177332631
 20
104.3860181798094
 30
0.0
 70
    32
  0
VERTEX
  5
9081
  8
AM_0
 10
410.90187177332621
 20
104.3830181798097
 30
0.0
 70
    32
  0
VERTEX
  5
9082
  8
AM_0
 10
410.89887177332628
 20
104.3800181798096
 30
0.0
 70
    32
  0
VERTEX
  5
9083
  8
AM_0
 10
410.89587177332629
 20
104.3770181798097
 30
0.0
 70
    32
  0
VERTEX
  5
9084
  8
AM_0
 10
410.89287177332631
 20
104.3740181798096
 30
0.0
 70
    32
  0
VERTEX
  5
9085
  8
AM_0
 10
410.88987177332621
 20
104.3710181798096
 30
0.0
 70
    32
  0
VERTEX
  5
9086
  8
AM_0
 10
410.88687177332628
 20
104.3680181798097
 30
0.0
 70
    32
  0
VERTEX
  5
9087
  8
AM_0
 10
410.88387177332629
 20
104.3650181798096
 30
0.0
 70
    32
  0
VERTEX
  5
9088
  8
AM_0
 10
410.88087177332608
 20
104.3620181798096
 30
0.0
 70
    32
  0
VERTEX
  5
9089
  8
AM_0
 10
410.87787177332632
 20
104.35901817980969
 30
0.0
 70
    32
  0
VERTEX
  5
908A
  8
AM_0
 10
410.87487177332628
 20
104.3560181798096
 30
0.0
 70
    32
  0
VERTEX
  5
908B
  8
AM_0
 10
410.87187177332612
 20
104.35301817980969
 30
0.0
 70
    32
  0
VERTEX
  5
908C
  8
AM_0
 10
410.86887177332619
 20
104.3490181798096
 30
0.0
 70
    32
  0
VERTEX
  5
908D
  8
AM_0
 10
410.86587177332632
 20
104.34601817980941
 30
0.0
 70
    32
  0
VERTEX
  5
908E
  8
AM_0
 10
410.86287177332622
 20
104.3430181798099
 30
0.0
 70
    32
  0
VERTEX
  5
908F
  8
AM_0
 10
410.86087177332621
 20
104.3400181798096
 30
0.0
 70
    32
  0
VERTEX
  5
9090
  8
AM_0
 10
410.85787177332628
 20
104.33701817980941
 30
0.0
 70
    32
  0
VERTEX
  5
9091
  8
AM_0
 10
410.85487177332629
 20
104.3340181798098
 30
0.0
 70
    32
  0
VERTEX
  5
9092
  8
AM_0
 10
410.85187177332642
 20
104.3300181798097
 30
0.0
 70
    32
  0
VERTEX
  5
9093
  8
AM_0
 10
410.84887177332632
 20
104.3270181798094
 30
0.0
 70
    32
  0
VERTEX
  5
9094
  8
AM_0
 10
410.84587177332628
 20
104.3240181798097
 30
0.0
 70
    32
  0
VERTEX
  5
9095
  8
AM_0
 10
410.8438717733265
 20
104.3210181798096
 30
0.0
 70
    32
  0
VERTEX
  5
9096
  8
AM_0
 10
410.84087177332623
 20
104.31701817980939
 30
0.0
 70
    32
  0
VERTEX
  5
9097
  8
AM_0
 10
410.83787177332641
 20
104.31401817980959
 30
0.0
 70
    32
  0
VERTEX
  5
9098
  8
AM_0
 10
410.83487177332631
 20
104.31101817980981
 30
0.0
 70
    32
  0
VERTEX
  5
9099
  8
AM_0
 10
410.83287177332619
 20
104.30801817980959
 30
0.0
 70
    32
  0
VERTEX
  5
909A
  8
AM_0
 10
410.82987177332632
 20
104.3040181798096
 30
0.0
 70
    32
  0
VERTEX
  5
909B
  8
AM_0
 10
410.82687177332627
 20
104.3010181798097
 30
0.0
 70
    32
  0
VERTEX
  5
909C
  8
AM_0
 10
410.82487177332598
 20
104.2980181798096
 30
0.0
 70
    32
  0
VERTEX
  5
909D
  8
AM_0
 10
410.82187177332622
 20
104.2940181798096
 30
0.0
 70
    32
  0
VERTEX
  5
909E
  8
AM_0
 10
410.81887177332629
 20
104.2910181798097
 30
0.0
 70
    32
  0
VERTEX
  5
909F
  8
AM_0
 10
410.81687177332628
 20
104.2880181798095
 30
0.0
 70
    32
  0
VERTEX
  5
90A0
  8
AM_0
 10
410.81387177332613
 20
104.28401817980991
 30
0.0
 70
    32
  0
VERTEX
  5
90A1
  8
AM_0
 10
410.81087177332631
 20
104.28101817980971
 30
0.0
 70
    32
  0
VERTEX
  5
90A2
  8
AM_0
 10
410.8088717733263
 20
104.27801817980961
 30
0.0
 70
    32
  0
VERTEX
  5
90A3
  8
AM_0
 10
410.8058717733262
 20
104.2740181798096
 30
0.0
 70
    32
  0
VERTEX
  5
90A4
  8
AM_0
 10
410.80387177332631
 20
104.2710181798097
 30
0.0
 70
    32
  0
VERTEX
  5
90A5
  8
AM_0
 10
410.80087177332621
 20
104.2670181798097
 30
0.0
 70
    32
  0
VERTEX
  5
90A6
  8
AM_0
 10
410.79787177332628
 20
104.2640181798096
 30
0.0
 70
    32
  0
VERTEX
  5
90A7
  8
AM_0
 10
410.79587177332633
 20
104.2610181798098
 30
0.0
 70
    32
  0
VERTEX
  5
90A8
  8
AM_0
 10
410.79287177332628
 20
104.25701817980971
 30
0.0
 70
    32
  0
VERTEX
  5
90A9
  8
AM_0
 10
410.79087177332627
 20
104.25401817980961
 30
0.0
 70
    32
  0
VERTEX
  5
90AA
  8
AM_0
 10
410.78787177332629
 20
104.2500181798094
 30
0.0
 70
    32
  0
VERTEX
  5
90AB
  8
AM_0
 10
410.78587177332628
 20
104.2470181798099
 30
0.0
 70
    32
  0
VERTEX
  5
90AC
  8
AM_0
 10
410.78287177332612
 20
104.24301817980979
 30
0.0
 70
    32
  0
VERTEX
  5
90AD
  8
AM_0
 10
410.78087177332628
 20
104.2400181798096
 30
0.0
 70
    32
  0
VERTEX
  5
90AE
  8
AM_0
 10
410.77887177332627
 20
104.23601817980961
 30
0.0
 70
    32
  0
VERTEX
  5
90AF
  8
AM_0
 10
410.77587177332612
 20
104.2330181798097
 30
0.0
 70
    32
  0
VERTEX
  5
90B0
  8
AM_0
 10
410.77387177332622
 20
104.2290181798097
 30
0.0
 70
    32
  0
VERTEX
  5
90B1
  8
AM_0
 10
410.77087177332629
 20
104.2260181798096
 30
0.0
 70
    32
  0
VERTEX
  5
90B2
  8
AM_0
 10
410.76887177332628
 20
104.2220181798096
 30
0.0
 70
    32
  0
VERTEX
  5
90B3
  8
AM_0
 10
410.76687177332622
 20
104.2180181798097
 30
0.0
 70
    32
  0
VERTEX
  5
90B4
  8
AM_0
 10
410.76387177332612
 20
104.2150181798097
 30
0.0
 70
    32
  0
VERTEX
  5
90B5
  8
AM_0
 10
410.76187177332628
 20
104.2110181798095
 30
0.0
 70
    32
  0
VERTEX
  5
90B6
  8
AM_0
 10
410.75987177332632
 20
104.2080181798096
 30
0.0
 70
    32
  0
VERTEX
  5
90B7
  8
AM_0
 10
410.75687177332628
 20
104.20401817980969
 30
0.0
 70
    32
  0
VERTEX
  5
90B8
  8
AM_0
 10
410.75487177332622
 20
104.2000181798097
 30
0.0
 70
    32
  0
VERTEX
  5
90B9
  8
AM_0
 10
410.75287177332632
 20
104.1970181798096
 30
0.0
 70
    32
  0
VERTEX
  5
90BA
  8
AM_0
 10
410.75087177332642
 20
104.1930181798098
 30
0.0
 70
    32
  0
VERTEX
  5
90BB
  8
AM_0
 10
410.74787177332632
 20
104.18901817980959
 30
0.0
 70
    32
  0
VERTEX
  5
90BC
  8
AM_0
 10
410.74587177332648
 20
104.18601817980969
 30
0.0
 70
    32
  0
VERTEX
  5
90BD
  8
AM_0
 10
410.74387177332642
 20
104.1820181798096
 30
0.0
 70
    32
  0
VERTEX
  5
90BE
  8
AM_0
 10
410.7418717733263
 20
104.1780181798096
 30
0.0
 70
    32
  0
VERTEX
  5
90BF
  8
AM_0
 10
410.73987177332629
 20
104.1750181798098
 30
0.0
 70
    32
  0
VERTEX
  5
90C0
  8
AM_0
 10
410.73787177332599
 20
104.17101817980971
 30
0.0
 70
    32
  0
VERTEX
  5
90C1
  8
AM_0
 10
410.73587177332621
 20
104.1670181798097
 30
0.0
 70
    32
  0
VERTEX
  5
90C2
  8
AM_0
 10
410.73287177332628
 20
104.1640181798096
 30
0.0
 70
    32
  0
VERTEX
  5
90C3
  8
AM_0
 10
410.73087177332633
 20
104.1600181798095
 30
0.0
 70
    32
  0
VERTEX
  5
90C4
  8
AM_0
 10
410.72887177332592
 20
104.15601817980971
 30
0.0
 70
    32
  0
VERTEX
  5
90C5
  8
AM_0
 10
410.72687177332631
 20
104.1520181798096
 30
0.0
 70
    32
  0
VERTEX
  5
90C6
  8
AM_0
 10
410.7248717733263
 20
104.1490181798096
 30
0.0
 70
    32
  0
VERTEX
  5
90C7
  8
AM_0
 10
410.72287177332629
 20
104.1450181798096
 30
0.0
 70
    32
  0
VERTEX
  5
90C8
  8
AM_0
 10
410.72087177332628
 20
104.14101817980971
 30
0.0
 70
    32
  0
VERTEX
  5
90C9
  8
AM_0
 10
410.71887177332633
 20
104.1370181798098
 30
0.0
 70
    32
  0
VERTEX
  5
90CA
  8
AM_0
 10
410.71687177332609
 20
104.1330181798097
 30
0.0
 70
    32
  0
VERTEX
  5
90CB
  8
AM_0
 10
410.71587177332628
 20
104.1300181798098
 30
0.0
 70
    32
  0
VERTEX
  5
90CC
  8
AM_0
 10
410.71387177332628
 20
104.12601817980961
 30
0.0
 70
    32
  0
VERTEX
  5
90CD
  8
AM_0
 10
410.71187177332621
 20
104.1220181798097
 30
0.0
 70
    32
  0
VERTEX
  5
90CE
  8
AM_0
 10
410.70987177332631
 20
104.1180181798097
 30
0.0
 70
    32
  0
VERTEX
  5
90CF
  8
AM_0
 10
410.7078717733263
 20
104.11401817980961
 30
0.0
 70
    32
  0
VERTEX
  5
90D0
  8
AM_0
 10
410.70587177332629
 20
104.1100181798095
 30
0.0
 70
    32
  0
VERTEX
  5
90D1
  8
AM_0
 10
410.70487177332609
 20
104.1060181798094
 30
0.0
 70
    32
  0
VERTEX
  5
90D2
  8
AM_0
 10
410.70287177332631
 20
104.10301817980969
 30
0.0
 70
    32
  0
VERTEX
  5
90D3
  8
AM_0
 10
410.7008717733263
 20
104.0990181798097
 30
0.0
 70
    32
  0
VERTEX
  5
90D4
  8
AM_0
 10
410.69887177332629
 20
104.0950181798097
 30
0.0
 70
    32
  0
VERTEX
  5
90D5
  8
AM_0
 10
410.69787177332609
 20
104.0910181798095
 30
0.0
 70
    32
  0
VERTEX
  5
90D6
  8
AM_0
 10
410.69587177332608
 20
104.08701817980941
 30
0.0
 70
    32
  0
VERTEX
  5
90D7
  8
AM_0
 10
410.69387177332629
 20
104.0830181798096
 30
0.0
 70
    32
  0
VERTEX
  5
90D8
  8
AM_0
 10
410.6928717733262
 20
104.07901817980969
 30
0.0
 70
    32
  0
VERTEX
  5
90D9
  8
AM_0
 10
410.69087177332631
 20
104.0750181798097
 30
0.0
 70
    32
  0
VERTEX
  5
90DA
  8
AM_0
 10
410.68887177332613
 20
104.0710181798098
 30
0.0
 70
    32
  0
VERTEX
  5
90DB
  8
AM_0
 10
410.68787177332632
 20
104.06701817980959
 30
0.0
 70
    32
  0
VERTEX
  5
90DC
  8
AM_0
 10
410.6858717733262
 20
104.0630181798096
 30
0.0
 70
    32
  0
VERTEX
  5
90DD
  8
AM_0
 10
410.68487177332628
 20
104.0590181798096
 30
0.0
 70
    32
  0
VERTEX
  5
90DE
  8
AM_0
 10
410.68287177332633
 20
104.05501817980969
 30
0.0
 70
    32
  0
VERTEX
  5
90DF
  8
AM_0
 10
410.68187177332629
 20
104.0510181798095
 30
0.0
 70
    32
  0
VERTEX
  5
90E0
  8
AM_0
 10
410.67987177332623
 20
104.0470181798094
 30
0.0
 70
    32
  0
VERTEX
  5
90E1
  8
AM_0
 10
410.67887177332642
 20
104.04301817980959
 30
0.0
 70
    32
  0
VERTEX
  5
90E2
  8
AM_0
 10
410.67787177332622
 20
104.0390181798098
 30
0.0
 70
    32
  0
VERTEX
  5
90E3
  8
AM_0
 10
410.67587177332632
 20
104.0350181798096
 30
0.0
 70
    32
  0
VERTEX
  5
90E4
  8
AM_0
 10
410.67487177332629
 20
104.03101817980971
 30
0.0
 70
    32
  0
VERTEX
  5
90E5
  8
AM_0
 10
410.67387177332631
 20
104.0270181798097
 30
0.0
 70
    32
  0
VERTEX
  5
90E6
  8
AM_0
 10
410.6718717733263
 20
104.0230181798095
 30
0.0
 70
    32
  0
VERTEX
  5
90E7
  8
AM_0
 10
410.67087177332621
 20
104.01901817980939
 30
0.0
 70
    32
  0
VERTEX
  5
90E8
  8
AM_0
 10
410.66987177332629
 20
104.0150181798096
 30
0.0
 70
    32
  0
VERTEX
  5
90E9
  8
AM_0
 10
410.6688717733262
 20
104.01001817980941
 30
0.0
 70
    32
  0
VERTEX
  5
90EA
  8
AM_0
 10
410.66787177332623
 20
104.0060181798096
 30
0.0
 70
    32
  0
VERTEX
  5
90EB
  8
AM_0
 10
410.66587177332627
 20
104.0020181798097
 30
0.0
 70
    32
  0
VERTEX
  5
90EC
  8
AM_0
 10
410.6648717733263
 20
103.9980181798097
 30
0.0
 70
    32
  0
VERTEX
  5
90ED
  8
AM_0
 10
410.66387177332632
 20
103.9940181798098
 30
0.0
 70
    32
  0
VERTEX
  5
90EE
  8
AM_0
 10
410.66287177332629
 20
103.9900181798096
 30
0.0
 70
    32
  0
VERTEX
  5
90EF
  8
AM_0
 10
410.6618717733262
 20
103.98601817980961
 30
0.0
 70
    32
  0
VERTEX
  5
90F0
  8
AM_0
 10
410.66087177332628
 20
103.9820181798096
 30
0.0
 70
    32
  0
VERTEX
  5
90F1
  8
AM_0
 10
410.65987177332619
 20
103.9770181798096
 30
0.0
 70
    32
  0
VERTEX
  5
90F2
  8
AM_0
 10
410.65887177332621
 20
103.9730181798097
 30
0.0
 70
    32
  0
VERTEX
  5
90F3
  8
AM_0
 10
410.65787177332612
 20
103.96901817980969
 30
0.0
 70
    32
  0
VERTEX
  5
90F4
  8
AM_0
 10
410.65687177332632
 20
103.9650181798096
 30
0.0
 70
    32
  0
VERTEX
  5
90F5
  8
AM_0
 10
410.65587177332628
 20
103.9610181798094
 30
0.0
 70
    32
  0
VERTEX
  5
90F6
  8
AM_0
 10
410.65487177332642
 20
103.95701817980959
 30
0.0
 70
    32
  0
VERTEX
  5
90F7
  8
AM_0
 10
410.65487177332642
 20
103.9520181798094
 30
0.0
 70
    32
  0
VERTEX
  5
90F8
  8
AM_0
 10
410.65387177332627
 20
103.94801817980959
 30
0.0
 70
    32
  0
VERTEX
  5
90F9
  8
AM_0
 10
410.65287177332618
 20
103.94401817981
 30
0.0
 70
    32
  0
VERTEX
  5
90FA
  8
AM_0
 10
410.65187177332632
 20
103.9400181798098
 30
0.0
 70
    32
  0
VERTEX
  5
90FB
  8
AM_0
 10
410.65087177332612
 20
103.93601817980969
 30
0.0
 70
    32
  0
VERTEX
  5
90FC
  8
AM_0
 10
410.65087177332612
 20
103.9310181798097
 30
0.0
 70
    32
  0
VERTEX
  5
90FD
  8
AM_0
 10
410.64987177332642
 20
103.92701817980959
 30
0.0
 70
    32
  0
VERTEX
  5
90FE
  8
AM_0
 10
410.64887177332622
 20
103.9230181798095
 30
0.0
 70
    32
  0
VERTEX
  5
90FF
  8
AM_0
 10
410.64887177332622
 20
103.9190181798095
 30
0.0
 70
    32
  0
VERTEX
  5
9100
  8
AM_0
 10
410.64787177332641
 20
103.9140181798096
 30
0.0
 70
    32
  0
VERTEX
  5
9101
  8
AM_0
 10
410.64687177332632
 20
103.9100181798096
 30
0.0
 70
    32
  0
VERTEX
  5
9102
  8
AM_0
 10
410.64687177332632
 20
103.90601817980971
 30
0.0
 70
    32
  0
VERTEX
  5
9103
  8
AM_0
 10
410.64587177332629
 20
103.9020181798097
 30
0.0
 70
    32
  0
VERTEX
  5
9104
  8
AM_0
 10
410.64587177332629
 20
103.89701817980971
 30
0.0
 70
    32
  0
VERTEX
  5
9105
  8
AM_0
 10
410.64487177332632
 20
103.8930181798096
 30
0.0
 70
    32
  0
VERTEX
  5
9106
  8
AM_0
 10
410.64487177332632
 20
103.8890181798096
 30
0.0
 70
    32
  0
VERTEX
  5
9107
  8
AM_0
 10
410.64387177332628
 20
103.88501817980961
 30
0.0
 70
    32
  0
VERTEX
  5
9108
  8
AM_0
 10
410.64387177332628
 20
103.8800181798096
 30
0.0
 70
    32
  0
VERTEX
  5
9109
  8
AM_0
 10
410.64387177332628
 20
103.8760181798098
 30
0.0
 70
    32
  0
VERTEX
  5
910A
  8
AM_0
 10
410.64287177332648
 20
103.8720181798098
 30
0.0
 70
    32
  0
VERTEX
  5
910B
  8
AM_0
 10
410.64287177332648
 20
103.8680181798097
 30
0.0
 70
    32
  0
VERTEX
  5
910C
  8
AM_0
 10
410.64287177332648
 20
103.8630181798097
 30
0.0
 70
    32
  0
VERTEX
  5
910D
  8
AM_0
 10
410.64287177332648
 20
103.85901817980969
 30
0.0
 70
    32
  0
VERTEX
  5
910E
  8
AM_0
 10
410.64187177332599
 20
103.8550181798096
 30
0.0
 70
    32
  0
VERTEX
  5
910F
  8
AM_0
 10
410.64187177332599
 20
103.8510181798096
 30
0.0
 70
    32
  0
VERTEX
  5
9110
  8
AM_0
 10
410.64187177332599
 20
103.8460181798096
 30
0.0
 70
    32
  0
VERTEX
  5
9111
  8
AM_0
 10
410.64187177332599
 20
103.8420181798096
 30
0.0
 70
    32
  0
VERTEX
  5
9112
  8
AM_0
 10
410.64187177332599
 20
103.83801817980959
 30
0.0
 70
    32
  0
VERTEX
  5
9113
  8
AM_0
 10
410.64187177332599
 20
103.8330181798096
 30
0.0
 70
    32
  0
VERTEX
  5
9114
  8
AM_0
 10
410.64187177332599
 20
103.82901817980959
 30
0.0
 70
    32
  0
VERTEX
  5
9115
  8
AM_0
 10
410.64187177332599
 20
103.8250181798097
 30
0.0
 70
    32
  0
VERTEX
  5
9116
  8
AM_0
 10
410.64187177332599
 20
103.8210181798097
 30
0.0
 70
    32
  0
VERTEX
  5
9117
  8
AM_0
 10
410.64187177332599
 20
103.8160181798096
 30
0.0
 70
    32
  0
VERTEX
  5
9118
  8
AM_0
 10
410.64287177332648
 20
103.8120181798096
 30
0.0
 70
    32
  0
VERTEX
  5
9119
  8
AM_0
 10
410.64287177332648
 20
103.80801817980959
 30
0.0
 70
    32
  0
VERTEX
  5
911A
  8
AM_0
 10
410.64287177332648
 20
103.8040181798096
 30
0.0
 70
    32
  0
VERTEX
  5
911B
  8
AM_0
 10
410.64287177332648
 20
103.79901817980981
 30
0.0
 70
    32
  0
VERTEX
  5
911C
  8
AM_0
 10
410.64387177332628
 20
103.7950181798097
 30
0.0
 70
    32
  0
VERTEX
  5
911D
  8
AM_0
 10
410.64387177332628
 20
103.7910181798097
 30
0.0
 70
    32
  0
VERTEX
  5
911E
  8
AM_0
 10
410.64387177332628
 20
103.78701817980971
 30
0.0
 70
    32
  0
VERTEX
  5
911F
  8
AM_0
 10
410.64487177332632
 20
103.7820181798097
 30
0.0
 70
    32
  0
VERTEX
  5
9120
  8
AM_0
 10
410.64487177332632
 20
103.77801817980961
 30
0.0
 70
    32
  0
VERTEX
  5
9121
  8
AM_0
 10
410.64487177332632
 20
103.7740181798096
 30
0.0
 70
    32
  0
VERTEX
  5
9122
  8
AM_0
 10
410.64587177332629
 20
103.7700181798094
 30
0.0
 70
    32
  0
VERTEX
  5
9123
  8
AM_0
 10
410.64587177332629
 20
103.7650181798096
 30
0.0
 70
    32
  0
VERTEX
  5
9124
  8
AM_0
 10
410.64687177332632
 20
103.7610181798096
 30
0.0
 70
    32
  0
VERTEX
  5
9125
  8
AM_0
 10
410.64687177332632
 20
103.7570181798098
 30
0.0
 70
    32
  0
VERTEX
  5
9126
  8
AM_0
 10
410.64787177332641
 20
103.7530181798097
 30
0.0
 70
    32
  0
VERTEX
  5
9127
  8
AM_0
 10
410.64787177332641
 20
103.7480181798097
 30
0.0
 70
    32
  0
VERTEX
  5
9128
  8
AM_0
 10
410.64887177332622
 20
103.7440181798096
 30
0.0
 70
    32
  0
VERTEX
  5
9129
  8
AM_0
 10
410.64887177332622
 20
103.7400181798095
 30
0.0
 70
    32
  0
VERTEX
  5
912A
  8
AM_0
 10
410.64987177332642
 20
103.73601817980961
 30
0.0
 70
    32
  0
VERTEX
  5
912B
  8
AM_0
 10
410.64987177332642
 20
103.7310181798096
 30
0.0
 70
    32
  0
VERTEX
  5
912C
  8
AM_0
 10
410.65087177332612
 20
103.7270181798096
 30
0.0
 70
    32
  0
VERTEX
  5
912D
  8
AM_0
 10
410.65087177332612
 20
103.7230181798097
 30
0.0
 70
    32
  0
VERTEX
  5
912E
  8
AM_0
 10
410.65187177332632
 20
103.71901817980969
 30
0.0
 70
    32
  0
SEQEND
  5
912F
  8
AM_0
  0
LINE
  5
9130
  8
AM_0
 10
423.64191883840027
 20
105.0787548957837
 30
0.0
 11
413.14191883839618
 21
105.0787548957837
 31
0.0
  0
LINE
  5
9131
  8
AM_0
 10
423.64191883840027
 20
56.368603376766721
 30
0.0
 11
422.1769188384003
 21
47.548603376767218
 31
0.0
  0
POLYLINE
  5
9132
  8
AM_0
 66
     1
 10
0.0
 20
0.0
 30
0.0
 70
     8
  0
VERTEX
  5
9133
  8
AM_0
 10
410.65187177332632
 20
58.958418179809648
 30
0.0
 70
    32
  0
VERTEX
  5
9134
  8
AM_0
 10
410.65287177332618
 20
58.954218179809679
 30
0.0
 70
    32
  0
VERTEX
  5
9135
  8
AM_0
 10
410.65387177332627
 20
58.94991817980975
 30
0.0
 70
    32
  0
VERTEX
  5
9136
  8
AM_0
 10
410.65487177332642
 20
58.945718179809667
 30
0.0
 70
    32
  0
VERTEX
  5
9137
  8
AM_0
 10
410.65587177332628
 20
58.94141817980973
 30
0.0
 70
    32
  0
VERTEX
  5
9138
  8
AM_0
 10
410.65687177332632
 20
58.937218179809747
 30
0.0
 70
    32
  0
VERTEX
  5
9139
  8
AM_0
 10
410.65787177332612
 20
58.93291817980959
 30
0.0
 70
    32
  0
VERTEX
  5
913A
  8
AM_0
 10
410.65887177332621
 20
58.928718179809849
 30
0.0
 70
    32
  0
VERTEX
  5
913B
  8
AM_0
 10
410.65987177332619
 20
58.924518179809652
 30
0.0
 70
    32
  0
VERTEX
  5
913C
  8
AM_0
 10
410.66087177332628
 20
58.920218179809702
 30
0.0
 70
    32
  0
VERTEX
  5
913D
  8
AM_0
 10
410.6618717733262
 20
58.916018179809733
 30
0.0
 70
    32
  0
VERTEX
  5
913E
  8
AM_0
 10
410.66287177332629
 20
58.91181817980965
 30
0.0
 70
    32
  0
VERTEX
  5
913F
  8
AM_0
 10
410.66387177332632
 20
58.907518179809593
 30
0.0
 70
    32
  0
VERTEX
  5
9140
  8
AM_0
 10
410.6648717733263
 20
58.903318179809752
 30
0.0
 70
    32
  0
VERTEX
  5
9141
  8
AM_0
 10
410.66587177332627
 20
58.899118179809662
 30
0.0
 70
    32
  0
VERTEX
  5
9142
  8
AM_0
 10
410.66687177332631
 20
58.894918179809899
 30
0.0
 70
    32
  0
VERTEX
  5
9143
  8
AM_0
 10
410.66787177332623
 20
58.890718179809731
 30
0.0
 70
    32
  0
VERTEX
  5
9144
  8
AM_0
 10
410.66987177332629
 20
58.886518179809741
 30
0.0
 70
    32
  0
VERTEX
  5
9145
  8
AM_0
 10
410.67087177332621
 20
58.882318179809893
 30
0.0
 70
    32
  0
VERTEX
  5
9146
  8
AM_0
 10
410.6718717733263
 20
58.878218179809679
 30
0.0
 70
    32
  0
VERTEX
  5
9147
  8
AM_0
 10
410.67287177332628
 20
58.874018179809703
 30
0.0
 70
    32
  0
VERTEX
  5
9148
  8
AM_0
 10
410.67387177332631
 20
58.869818179809741
 30
0.0
 70
    32
  0
VERTEX
  5
9149
  8
AM_0
 10
410.67587177332632
 20
58.86571817980974
 30
0.0
 70
    32
  0
VERTEX
  5
914A
  8
AM_0
 10
410.67687177332613
 20
58.86151817980943
 30
0.0
 70
    32
  0
VERTEX
  5
914B
  8
AM_0
 10
410.67787177332622
 20
58.857418179809649
 30
0.0
 70
    32
  0
VERTEX
  5
914C
  8
AM_0
 10
410.67987177332623
 20
58.853318179809683
 30
0.0
 70
    32
  0
VERTEX
  5
914D
  8
AM_0
 10
410.68087177332632
 20
58.849218179809668
 30
0.0
 70
    32
  0
VERTEX
  5
914E
  8
AM_0
 10
410.68187177332629
 20
58.84501817980972
 30
0.0
 70
    32
  0
VERTEX
  5
914F
  8
AM_0
 10
410.6838717733263
 20
58.841018179809687
 30
0.0
 70
    32
  0
VERTEX
  5
9150
  8
AM_0
 10
410.68487177332628
 20
58.836918179809807
 30
0.0
 70
    32
  0
VERTEX
  5
9151
  8
AM_0
 10
410.68687177332612
 20
58.832818179809799
 30
0.0
 70
    32
  0
VERTEX
  5
9152
  8
AM_0
 10
410.68787177332632
 20
58.828718179809592
 30
0.0
 70
    32
  0
VERTEX
  5
9153
  8
AM_0
 10
410.68987177332627
 20
58.8247181798098
 30
0.0
 70
    32
  0
VERTEX
  5
9154
  8
AM_0
 10
410.69087177332631
 20
58.820618179809678
 30
0.0
 70
    32
  0
VERTEX
  5
9155
  8
AM_0
 10
410.6928717733262
 20
58.816618179809673
 30
0.0
 70
    32
  0
VERTEX
  5
9156
  8
AM_0
 10
410.69487177332633
 20
58.812618179809888
 30
0.0
 70
    32
  0
VERTEX
  5
9157
  8
AM_0
 10
410.69587177332608
 20
58.808618179809848
 30
0.0
 70
    32
  0
VERTEX
  5
9158
  8
AM_0
 10
410.69787177332609
 20
58.804618179809609
 30
0.0
 70
    32
  0
VERTEX
  5
9159
  8
AM_0
 10
410.69987177332621
 20
58.800618179809483
 30
0.0
 70
    32
  0
VERTEX
  5
915A
  8
AM_0
 10
410.70187177332627
 20
58.796618179809677
 30
0.0
 70
    32
  0
VERTEX
  5
915B
  8
AM_0
 10
410.70287177332631
 20
58.792718179809633
 30
0.0
 70
    32
  0
VERTEX
  5
915C
  8
AM_0
 10
410.70487177332609
 20
58.788718179809742
 30
0.0
 70
    32
  0
VERTEX
  5
915D
  8
AM_0
 10
410.70687177332621
 20
58.784818179809577
 30
0.0
 70
    32
  0
VERTEX
  5
915E
  8
AM_0
 10
410.70887177332628
 20
58.780818179809451
 30
0.0
 70
    32
  0
VERTEX
  5
915F
  8
AM_0
 10
410.71087177332652
 20
58.776918179809982
 30
0.0
 70
    32
  0
VERTEX
  5
9160
  8
AM_0
 10
410.7128717733263
 20
58.773018179809711
 30
0.0
 70
    32
  0
VERTEX
  5
9161
  8
AM_0
 10
410.71487177332631
 20
58.769118179809432
 30
0.0
 70
    32
  0
VERTEX
  5
9162
  8
AM_0
 10
410.71687177332609
 20
58.765218179809608
 30
0.0
 70
    32
  0
VERTEX
  5
9163
  8
AM_0
 10
410.71887177332633
 20
58.761318179809692
 30
0.0
 70
    32
  0
VERTEX
  5
9164
  8
AM_0
 10
410.72087177332628
 20
58.757418179809292
 30
0.0
 70
    32
  0
VERTEX
  5
9165
  8
AM_0
 10
410.72287177332629
 20
58.753618179809692
 30
0.0
 70
    32
  0
VERTEX
  5
9166
  8
AM_0
 10
410.7248717733263
 20
58.749718179809747
 30
0.0
 70
    32
  0
VERTEX
  5
9167
  8
AM_0
 10
410.72687177332631
 20
58.745918179809799
 30
0.0
 70
    32
  0
VERTEX
  5
9168
  8
AM_0
 10
410.72887177332592
 20
58.742118179809722
 30
0.0
 70
    32
  0
VERTEX
  5
9169
  8
AM_0
 10
410.73087177332633
 20
58.738218179809898
 30
0.0
 70
    32
  0
VERTEX
  5
916A
  8
AM_0
 10
410.73287177332628
 20
58.734418179809722
 30
0.0
 70
    32
  0
VERTEX
  5
916B
  8
AM_0
 10
410.73487177332629
 20
58.730618179809888
 30
0.0
 70
    32
  0
VERTEX
  5
916C
  8
AM_0
 10
410.73687177332641
 20
58.726918179809672
 30
0.0
 70
    32
  0
VERTEX
  5
916D
  8
AM_0
 10
410.73887177332648
 20
58.723118179809717
 30
0.0
 70
    32
  0
VERTEX
  5
916E
  8
AM_0
 10
410.7418717733263
 20
58.719318179809882
 30
0.0
 70
    32
  0
VERTEX
  5
916F
  8
AM_0
 10
410.74387177332642
 20
58.715618179809681
 30
0.0
 70
    32
  0
VERTEX
  5
9170
  8
AM_0
 10
410.74587177332648
 20
58.711818179809612
 30
0.0
 70
    32
  0
VERTEX
  5
9171
  8
AM_0
 10
410.74787177332632
 20
58.708118179809752
 30
0.0
 70
    32
  0
VERTEX
  5
9172
  8
AM_0
 10
410.75087177332642
 20
58.704418179809643
 30
0.0
 70
    32
  0
VERTEX
  5
9173
  8
AM_0
 10
410.75287177332632
 20
58.70061817980968
 30
0.0
 70
    32
  0
VERTEX
  5
9174
  8
AM_0
 10
410.75487177332622
 20
58.696918179809707
 30
0.0
 70
    32
  0
VERTEX
  5
9175
  8
AM_0
 10
410.75687177332628
 20
58.693318179809701
 30
0.0
 70
    32
  0
VERTEX
  5
9176
  8
AM_0
 10
410.75987177332632
 20
58.689618179809827
 30
0.0
 70
    32
  0
VERTEX
  5
9177
  8
AM_0
 10
410.76187177332628
 20
58.685918179809732
 30
0.0
 70
    32
  0
VERTEX
  5
9178
  8
AM_0
 10
410.76387177332612
 20
58.68231817980972
 30
0.0
 70
    32
  0
VERTEX
  5
9179
  8
AM_0
 10
410.76687177332622
 20
58.678618179809753
 30
0.0
 70
    32
  0
VERTEX
  5
917A
  8
AM_0
 10
410.76887177332628
 20
58.675018179809761
 30
0.0
 70
    32
  0
VERTEX
  5
917B
  8
AM_0
 10
410.77187177332632
 20
58.671318179809653
 30
0.0
 70
    32
  0
VERTEX
  5
917C
  8
AM_0
 10
410.77387177332622
 20
58.66771817980964
 30
0.0
 70
    32
  0
VERTEX
  5
917D
  8
AM_0
 10
410.77587177332612
 20
58.664118179809748
 30
0.0
 70
    32
  0
VERTEX
  5
917E
  8
AM_0
 10
410.77887177332627
 20
58.660518179809749
 30
0.0
 70
    32
  0
VERTEX
  5
917F
  8
AM_0
 10
410.78087177332628
 20
58.657018179809732
 30
0.0
 70
    32
  0
VERTEX
  5
9180
  8
AM_0
 10
410.78387177332633
 20
58.653418179809712
 30
0.0
 70
    32
  0
VERTEX
  5
9181
  8
AM_0
 10
410.78587177332628
 20
58.649818179809706
 30
0.0
 70
    32
  0
VERTEX
  5
9182
  8
AM_0
 10
410.78887177332632
 20
58.646318179809668
 30
0.0
 70
    32
  0
VERTEX
  5
9183
  8
AM_0
 10
410.79087177332627
 20
58.642818179809872
 30
0.0
 70
    32
  0
VERTEX
  5
9184
  8
AM_0
 10
410.7938717733262
 20
58.63931817980972
 30
0.0
 70
    32
  0
VERTEX
  5
9185
  8
AM_0
 10
410.7968717733263
 20
58.635718179809722
 30
0.0
 70
    32
  0
VERTEX
  5
9186
  8
AM_0
 10
410.7988717733262
 20
58.632318179809673
 30
0.0
 70
    32
  0
VERTEX
  5
9187
  8
AM_0
 10
410.8018717733263
 20
58.628818179809848
 30
0.0
 70
    32
  0
VERTEX
  5
9188
  8
AM_0
 10
410.80387177332631
 20
58.625318179809717
 30
0.0
 70
    32
  0
VERTEX
  5
9189
  8
AM_0
 10
410.80687177332629
 20
58.621818179809672
 30
0.0
 70
    32
  0
VERTEX
  5
918A
  8
AM_0
 10
410.80987177332628
 20
58.618418179809737
 30
0.0
 70
    32
  0
VERTEX
  5
918B
  8
AM_0
 10
410.81187177332629
 20
58.614918179809713
 30
0.0
 70
    32
  0
VERTEX
  5
918C
  8
AM_0
 10
410.81487177332622
 20
58.611518179809423
 30
0.0
 70
    32
  0
VERTEX
  5
918D
  8
AM_0
 10
410.81787177332632
 20
58.608118179809829
 30
0.0
 70
    32
  0
VERTEX
  5
918E
  8
AM_0
 10
410.81987177332633
 20
58.604718179809659
 30
0.0
 70
    32
  0
VERTEX
  5
918F
  8
AM_0
 10
410.82287177332609
 20
58.601318179809702
 30
0.0
 70
    32
  0
VERTEX
  5
9190
  8
AM_0
 10
410.82587177332653
 20
58.59791817980966
 30
0.0
 70
    32
  0
VERTEX
  5
9191
  8
AM_0
 10
410.82887177332628
 20
58.594618179809807
 30
0.0
 70
    32
  0
VERTEX
  5
9192
  8
AM_0
 10
410.83087177332641
 20
58.591218179809751
 30
0.0
 70
    32
  0
VERTEX
  5
9193
  8
AM_0
 10
410.833871773326
 20
58.587918179809677
 30
0.0
 70
    32
  0
VERTEX
  5
9194
  8
AM_0
 10
410.83687177332632
 20
58.58451817980972
 30
0.0
 70
    32
  0
VERTEX
  5
9195
  8
AM_0
 10
410.83987177332642
 20
58.581218179809653
 30
0.0
 70
    32
  0
VERTEX
  5
9196
  8
AM_0
 10
410.8418717733262
 20
58.577918179809913
 30
0.0
 70
    32
  0
VERTEX
  5
9197
  8
AM_0
 10
410.84487177332619
 20
58.574618179809711
 30
0.0
 70
    32
  0
VERTEX
  5
9198
  8
AM_0
 10
410.84787177332629
 20
58.571318179809737
 30
0.0
 70
    32
  0
VERTEX
  5
9199
  8
AM_0
 10
410.85087177332622
 20
58.568018179809897
 30
0.0
 70
    32
  0
VERTEX
  5
919A
  8
AM_0
 10
410.8538717733262
 20
58.564718179809702
 30
0.0
 70
    32
  0
VERTEX
  5
919B
  8
AM_0
 10
410.8568717733263
 20
58.561518179809468
 30
0.0
 70
    32
  0
VERTEX
  5
919C
  8
AM_0
 10
410.85987177332612
 20
58.558218179809742
 30
0.0
 70
    32
  0
VERTEX
  5
919D
  8
AM_0
 10
410.86287177332622
 20
58.555018179809743
 30
0.0
 70
    32
  0
VERTEX
  5
919E
  8
AM_0
 10
410.86587177332632
 20
58.551818179809857
 30
0.0
 70
    32
  0
VERTEX
  5
919F
  8
AM_0
 10
410.86787177332633
 20
58.548618179809637
 30
0.0
 70
    32
  0
VERTEX
  5
91A0
  8
AM_0
 10
410.87087177332631
 20
58.54541817980941
 30
0.0
 70
    32
  0
VERTEX
  5
91A1
  8
AM_0
 10
410.8738717733263
 20
58.542218179809659
 30
0.0
 70
    32
  0
VERTEX
  5
91A2
  8
AM_0
 10
410.87687177332629
 20
58.539018179809659
 30
0.0
 70
    32
  0
VERTEX
  5
91A3
  8
AM_0
 10
410.87987177332627
 20
58.535818179809667
 30
0.0
 70
    32
  0
VERTEX
  5
91A4
  8
AM_0
 10
410.8828717733262
 20
58.532718179809649
 30
0.0
 70
    32
  0
VERTEX
  5
91A5
  8
AM_0
 10
410.8858717733263
 20
58.529518179809649
 30
0.0
 70
    32
  0
VERTEX
  5
91A6
  8
AM_0
 10
410.88887177332629
 20
58.526418179809639
 30
0.0
 70
    32
  0
VERTEX
  5
91A7
  8
AM_0
 10
410.89187177332627
 20
58.523318179809849
 30
0.0
 70
    32
  0
VERTEX
  5
91A8
  8
AM_0
 10
410.8948717733262
 20
58.520118179809749
 30
0.0
 70
    32
  0
VERTEX
  5
91A9
  8
AM_0
 10
410.8978717733263
 20
58.517018179809718
 30
0.0
 70
    32
  0
VERTEX
  5
91AA
  8
AM_0
 10
410.90087177332612
 20
58.513918179809707
 30
0.0
 70
    32
  0
VERTEX
  5
91AB
  8
AM_0
 10
410.90387177332627
 20
58.510918179809892
 30
0.0
 70
    32
  0
VERTEX
  5
91AC
  8
AM_0
 10
410.90787177332629
 20
58.507818179809661
 30
0.0
 70
    32
  0
VERTEX
  5
91AD
  8
AM_0
 10
410.91087177332628
 20
58.50471817980975
 30
0.0
 70
    32
  0
VERTEX
  5
91AE
  8
AM_0
 10
410.91387177332632
 20
58.501718179809707
 30
0.0
 70
    32
  0
VERTEX
  5
91AF
  8
AM_0
 10
410.91687177332631
 20
58.498618179809682
 30
0.0
 70
    32
  0
VERTEX
  5
91B0
  8
AM_0
 10
410.91987177332629
 20
58.495618179809647
 30
0.0
 70
    32
  0
VERTEX
  5
91B1
  8
AM_0
 10
410.92287177332628
 20
58.49261817980959
 30
0.0
 70
    32
  0
VERTEX
  5
91B2
  8
AM_0
 10
410.92587177332632
 20
58.489618179809668
 30
0.0
 70
    32
  0
VERTEX
  5
91B3
  8
AM_0
 10
410.92887177332648
 20
58.486618179809753
 30
0.0
 70
    32
  0
VERTEX
  5
91B4
  8
AM_0
 10
410.93287177332633
 20
58.483618179809469
 30
0.0
 70
    32
  0
VERTEX
  5
91B5
  8
AM_0
 10
410.93587177332631
 20
58.48061817980966
 30
0.0
 70
    32
  0
VERTEX
  5
91B6
  8
AM_0
 10
410.93887177332618
 20
58.477618179809717
 30
0.0
 70
    32
  0
VERTEX
  5
91B7
  8
AM_0
 10
410.94187177332628
 20
58.47471817980967
 30
0.0
 70
    32
  0
VERTEX
  5
91B8
  8
AM_0
 10
410.94487177332633
 20
58.47171817980972
 30
0.0
 70
    32
  0
VERTEX
  5
91B9
  8
AM_0
 10
410.9478717733262
 20
58.468818179809681
 30
0.0
 70
    32
  0
VERTEX
  5
91BA
  8
AM_0
 10
410.95187177332627
 20
58.46581817980951
 30
0.0
 70
    32
  0
VERTEX
  5
91BB
  8
AM_0
 10
410.95487177332632
 20
58.462918179809442
 30
0.0
 70
    32
  0
VERTEX
  5
91BC
  8
AM_0
 10
410.95787177332619
 20
58.460018179809722
 30
0.0
 70
    32
  0
VERTEX
  5
91BD
  8
AM_0
 10
410.96087177332629
 20
58.457118179809648
 30
0.0
 70
    32
  0
VERTEX
  5
91BE
  8
AM_0
 10
410.96487177332631
 20
58.4542181798097
 30
0.0
 70
    32
  0
VERTEX
  5
91BF
  8
AM_0
 10
410.96787177332612
 20
58.451318179809732
 30
0.0
 70
    32
  0
VERTEX
  5
91C0
  8
AM_0
 10
410.97087177332628
 20
58.448518179809412
 30
0.0
 70
    32
  0
VERTEX
  5
91C1
  8
AM_0
 10
410.97387177332632
 20
58.445618179809678
 30
0.0
 70
    32
  0
VERTEX
  5
91C2
  8
AM_0
 10
410.97787177332629
 20
58.442818179809713
 30
0.0
 70
    32
  0
VERTEX
  5
91C3
  8
AM_0
 10
410.98087177332633
 20
58.439918179809631
 30
0.0
 70
    32
  0
VERTEX
  5
91C4
  8
AM_0
 10
410.9838717733262
 20
58.437118179809673
 30
0.0
 70
    32
  0
VERTEX
  5
91C5
  8
AM_0
 10
410.98787177332628
 20
58.434318179809686
 30
0.0
 70
    32
  0
VERTEX
  5
91C6
  8
AM_0
 10
410.99087177332621
 20
58.4315181798097
 30
0.0
 70
    32
  0
VERTEX
  5
91C7
  8
AM_0
 10
410.9938717733263
 20
58.428718179809721
 30
0.0
 70
    32
  0
VERTEX
  5
91C8
  8
AM_0
 10
410.99787177332621
 20
58.425918179809749
 30
0.0
 70
    32
  0
VERTEX
  5
91C9
  8
AM_0
 10
411.00087177332631
 20
58.423118179809663
 30
0.0
 70
    32
  0
VERTEX
  5
91CA
  8
AM_0
 10
411.0038717733263
 20
58.420318179809897
 30
0.0
 70
    32
  0
VERTEX
  5
91CB
  8
AM_0
 10
411.00787177332597
 20
58.417618179809892
 30
0.0
 70
    32
  0
VERTEX
  5
91CC
  8
AM_0
 10
411.0108717733263
 20
58.414818179809458
 30
0.0
 70
    32
  0
VERTEX
  5
91CD
  8
AM_0
 10
411.01387177332629
 20
58.412118179809468
 30
0.0
 70
    32
  0
VERTEX
  5
91CE
  8
AM_0
 10
411.01787177332631
 20
58.409318179809482
 30
0.0
 70
    32
  0
VERTEX
  5
91CF
  8
AM_0
 10
411.02087177332629
 20
58.406618179809463
 30
0.0
 70
    32
  0
VERTEX
  5
91D0
  8
AM_0
 10
411.02487177332631
 20
58.403918179809473
 30
0.0
 70
    32
  0
VERTEX
  5
91D1
  8
AM_0
 10
411.02787177332618
 20
58.401218179809682
 30
0.0
 70
    32
  0
VERTEX
  5
91D2
  8
AM_0
 10
411.03087177332628
 20
58.398518179809678
 30
0.0
 70
    32
  0
VERTEX
  5
91D3
  8
AM_0
 10
411.03487177332642
 20
58.395818179809687
 30
0.0
 70
    32
  0
VERTEX
  5
91D4
  8
AM_0
 10
411.03787177332629
 20
58.393118179809669
 30
0.0
 70
    32
  0
VERTEX
  5
91D5
  8
AM_0
 10
411.04187177332642
 20
58.390518179809419
 30
0.0
 70
    32
  0
VERTEX
  5
91D6
  8
AM_0
 10
411.04487177332629
 20
58.387818179809408
 30
0.0
 70
    32
  0
VERTEX
  5
91D7
  8
AM_0
 10
411.04887177332631
 20
58.385118179809417
 30
0.0
 70
    32
  0
VERTEX
  5
91D8
  8
AM_0
 10
411.05187177332618
 20
58.38251817980985
 30
0.0
 70
    32
  0
VERTEX
  5
91D9
  8
AM_0
 10
411.05487177332623
 20
58.3799181798097
 30
0.0
 70
    32
  0
VERTEX
  5
91DA
  8
AM_0
 10
411.0588717733263
 20
58.377318179809677
 30
0.0
 70
    32
  0
VERTEX
  5
91DB
  8
AM_0
 10
411.06187177332612
 20
58.374618179809652
 30
0.0
 70
    32
  0
VERTEX
  5
91DC
  8
AM_0
 10
411.06587177332631
 20
58.37201817980975
 30
0.0
 70
    32
  0
VERTEX
  5
91DD
  8
AM_0
 10
411.06887177332629
 20
58.36941817980972
 30
0.0
 70
    32
  0
VERTEX
  5
91DE
  8
AM_0
 10
411.0728717733262
 20
58.366918179809659
 30
0.0
 70
    32
  0
VERTEX
  5
91DF
  8
AM_0
 10
411.0758717733263
 20
58.36431817980975
 30
0.0
 70
    32
  0
VERTEX
  5
91E0
  8
AM_0
 10
411.0798717733262
 20
58.361718179809721
 30
0.0
 70
    32
  0
VERTEX
  5
91E1
  8
AM_0
 10
411.08287177332608
 20
58.359218179809673
 30
0.0
 70
    32
  0
VERTEX
  5
91E2
  8
AM_0
 10
411.08687177332632
 20
58.35661817980975
 30
0.0
 70
    32
  0
VERTEX
  5
91E3
  8
AM_0
 10
411.08987177332608
 20
58.354118179809682
 30
0.0
 70
    32
  0
VERTEX
  5
91E4
  8
AM_0
 10
411.09387177332633
 20
58.35151817980968
 30
0.0
 70
    32
  0
VERTEX
  5
91E5
  8
AM_0
 10
411.0968717733262
 20
58.349018179809612
 30
0.0
 70
    32
  0
VERTEX
  5
91E6
  8
AM_0
 10
411.10087177332628
 20
58.346518179809678
 30
0.0
 70
    32
  0
VERTEX
  5
91E7
  8
AM_0
 10
411.10487177332629
 20
58.344018179809723
 30
0.0
 70
    32
  0
VERTEX
  5
91E8
  8
AM_0
 10
411.10787177332628
 20
58.341518179809668
 30
0.0
 70
    32
  0
VERTEX
  5
91E9
  8
AM_0
 10
411.11187177332653
 20
58.33901817980972
 30
0.0
 70
    32
  0
VERTEX
  5
91EA
  8
AM_0
 10
411.11487177332629
 20
58.336518179809673
 30
0.0
 70
    32
  0
VERTEX
  5
91EB
  8
AM_0
 10
411.1188717733263
 20
58.334118179809472
 30
0.0
 70
    32
  0
VERTEX
  5
91EC
  8
AM_0
 10
411.12187177332618
 20
58.331618179809659
 30
0.0
 70
    32
  0
VERTEX
  5
91ED
  8
AM_0
 10
411.12587177332631
 20
58.32921817980958
 30
0.0
 70
    32
  0
VERTEX
  5
91EE
  8
AM_0
 10
411.12987177332627
 20
58.326718179809752
 30
0.0
 70
    32
  0
VERTEX
  5
91EF
  8
AM_0
 10
411.1328717733262
 20
58.324318179809673
 30
0.0
 70
    32
  0
VERTEX
  5
91F0
  8
AM_0
 10
411.13687177332628
 20
58.3219181798097
 30
0.0
 70
    32
  0
VERTEX
  5
91F1
  8
AM_0
 10
411.13987177332621
 20
58.319418179809652
 30
0.0
 70
    32
  0
VERTEX
  5
91F2
  8
AM_0
 10
411.14387177332628
 20
58.317018179809452
 30
0.0
 70
    32
  0
VERTEX
  5
91F3
  8
AM_0
 10
411.1478717733263
 20
58.31461817980972
 30
0.0
 70
    32
  0
VERTEX
  5
91F4
  8
AM_0
 10
411.15087177332612
 20
58.312218179809747
 30
0.0
 70
    32
  0
VERTEX
  5
91F5
  8
AM_0
 10
411.15487177332631
 20
58.30981817980944
 30
0.0
 70
    32
  0
VERTEX
  5
91F6
  8
AM_0
 10
411.15887177332621
 20
58.307518179809563
 30
0.0
 70
    32
  0
VERTEX
  5
91F7
  8
AM_0
 10
411.1618717733262
 20
58.305118179809732
 30
0.0
 70
    32
  0
VERTEX
  5
91F8
  8
AM_0
 10
411.16587177332627
 20
58.302718179809752
 30
0.0
 70
    32
  0
VERTEX
  5
91F9
  8
AM_0
 10
411.16987177332652
 20
58.300418179809647
 30
0.0
 70
    32
  0
VERTEX
  5
91FA
  8
AM_0
 10
411.17287177332628
 20
58.298018179809681
 30
0.0
 70
    32
  0
VERTEX
  5
91FB
  8
AM_0
 10
411.17687177332613
 20
58.295718179809683
 30
0.0
 70
    32
  0
VERTEX
  5
91FC
  8
AM_0
 10
411.1808717733262
 20
58.293418179809713
 30
0.0
 70
    32
  0
VERTEX
  5
91FD
  8
AM_0
 10
411.1838717733263
 20
58.291118179809821
 30
0.0
 70
    32
  0
VERTEX
  5
91FE
  8
AM_0
 10
411.18787177332621
 20
58.288818179809702
 30
0.0
 70
    32
  0
VERTEX
  5
91FF
  8
AM_0
 10
411.19187177332651
 20
58.28641817980975
 30
0.0
 70
    32
  0
VERTEX
  5
9200
  8
AM_0
 10
411.19487177332621
 20
58.284218179809621
 30
0.0
 70
    32
  0
VERTEX
  5
9201
  8
AM_0
 10
411.19887177332652
 20
58.281918179809743
 30
0.0
 70
    32
  0
VERTEX
  5
9202
  8
AM_0
 10
411.20287177332631
 20
58.279618179809752
 30
0.0
 70
    32
  0
VERTEX
  5
9203
  8
AM_0
 10
411.20587177332629
 20
58.27731817980964
 30
0.0
 70
    32
  0
VERTEX
  5
9204
  8
AM_0
 10
411.20987177332631
 20
58.275018179809663
 30
0.0
 70
    32
  0
VERTEX
  5
9205
  8
AM_0
 10
411.21387177332628
 20
58.272818179809747
 30
0.0
 70
    32
  0
VERTEX
  5
9206
  8
AM_0
 10
411.21787177332618
 20
58.270518179809649
 30
0.0
 70
    32
  0
VERTEX
  5
9207
  8
AM_0
 10
411.22087177332628
 20
58.268318179809732
 30
0.0
 70
    32
  0
VERTEX
  5
9208
  8
AM_0
 10
411.22487177332641
 20
58.266118179809723
 30
0.0
 70
    32
  0
VERTEX
  5
9209
  8
AM_0
 10
411.2288717733262
 20
58.263818179809739
 30
0.0
 70
    32
  0
VERTEX
  5
920A
  8
AM_0
 10
411.23187177332642
 20
58.261618179809723
 30
0.0
 70
    32
  0
VERTEX
  5
920B
  8
AM_0
 10
411.23587177332621
 20
58.259418179809579
 30
0.0
 70
    32
  0
VERTEX
  5
920C
  8
AM_0
 10
411.23987177332629
 20
58.257218179809463
 30
0.0
 70
    32
  0
VERTEX
  5
920D
  8
AM_0
 10
411.2438717733263
 20
58.255018179809667
 30
0.0
 70
    32
  0
VERTEX
  5
920E
  8
AM_0
 10
411.24687177332612
 20
58.252818179809893
 30
0.0
 70
    32
  0
VERTEX
  5
920F
  8
AM_0
 10
411.25087177332631
 20
58.250718179809731
 30
0.0
 70
    32
  0
VERTEX
  5
9210
  8
AM_0
 10
411.25487177332622
 20
58.248518179809601
 30
0.0
 70
    32
  0
VERTEX
  5
9211
  8
AM_0
 10
411.25887177332629
 20
58.246318179809471
 30
0.0
 70
    32
  0
VERTEX
  5
9212
  8
AM_0
 10
411.2628717733262
 20
58.24421817980965
 30
0.0
 70
    32
  0
VERTEX
  5
9213
  8
AM_0
 10
411.2658717733263
 20
58.242018179810088
 30
0.0
 70
    32
  0
VERTEX
  5
9214
  8
AM_0
 10
411.26987177332632
 20
58.239918179809713
 30
0.0
 70
    32
  0
VERTEX
  5
9215
  8
AM_0
 10
411.27387177332628
 20
58.237718179809583
 30
0.0
 70
    32
  0
VERTEX
  5
9216
  8
AM_0
 10
411.2778717733259
 20
58.235618179809428
 30
0.0
 70
    32
  0
VERTEX
  5
9217
  8
AM_0
 10
411.28087177332628
 20
58.233518179809721
 30
0.0
 70
    32
  0
VERTEX
  5
9218
  8
AM_0
 10
411.28487177332607
 20
58.231418179809573
 30
0.0
 70
    32
  0
VERTEX
  5
9219
  8
AM_0
 10
411.28887177332621
 20
58.229318179809418
 30
0.0
 70
    32
  0
VERTEX
  5
921A
  8
AM_0
 10
411.29287177332628
 20
58.227218179809732
 30
0.0
 70
    32
  0
VERTEX
  5
921B
  8
AM_0
 10
411.29687177332647
 20
58.22511817980967
 30
0.0
 70
    32
  0
VERTEX
  5
921C
  8
AM_0
 10
411.30087177332632
 20
58.223018179809287
 30
0.0
 70
    32
  0
VERTEX
  5
921D
  8
AM_0
 10
411.30387177332648
 20
58.220918179809701
 30
0.0
 70
    32
  0
VERTEX
  5
921E
  8
AM_0
 10
411.30787177332633
 20
58.218918179809762
 30
0.0
 70
    32
  0
VERTEX
  5
921F
  8
AM_0
 10
411.31187177332629
 20
58.216818179809827
 30
0.0
 70
    32
  0
VERTEX
  5
9220
  8
AM_0
 10
411.31587177332631
 20
58.214718179809672
 30
0.0
 70
    32
  0
VERTEX
  5
9221
  8
AM_0
 10
411.31987177332633
 20
58.21271817980972
 30
0.0
 70
    32
  0
VERTEX
  5
9222
  8
AM_0
 10
411.3228717733262
 20
58.210618179809678
 30
0.0
 70
    32
  0
VERTEX
  5
9223
  8
AM_0
 10
411.32687177332627
 20
58.208618179809719
 30
0.0
 70
    32
  0
VERTEX
  5
9224
  8
AM_0
 10
411.33087177332629
 20
58.206618179809652
 30
0.0
 70
    32
  0
VERTEX
  5
9225
  8
AM_0
 10
411.33487177332631
 20
58.204618179809593
 30
0.0
 70
    32
  0
VERTEX
  5
9226
  8
AM_0
 10
411.33887177332628
 20
58.202618179809747
 30
0.0
 70
    32
  0
VERTEX
  5
9227
  8
AM_0
 10
411.34287177332618
 20
58.200618179809801
 30
0.0
 70
    32
  0
VERTEX
  5
9228
  8
AM_0
 10
411.34687177332631
 20
58.198618179809742
 30
0.0
 70
    32
  0
VERTEX
  5
9229
  8
AM_0
 10
411.34987177332619
 20
58.196618179809683
 30
0.0
 70
    32
  0
VERTEX
  5
922A
  8
AM_0
 10
411.3538717733262
 20
58.194618179809602
 30
0.0
 70
    32
  0
VERTEX
  5
922B
  8
AM_0
 10
411.35787177332628
 20
58.192618179809649
 30
0.0
 70
    32
  0
VERTEX
  5
922C
  8
AM_0
 10
411.3618717733263
 20
58.190618179809682
 30
0.0
 70
    32
  0
VERTEX
  5
922D
  8
AM_0
 10
411.36587177332632
 20
58.188718179809733
 30
0.0
 70
    32
  0
VERTEX
  5
922E
  8
AM_0
 10
411.36987177332622
 20
58.186718179809873
 30
0.0
 70
    32
  0
VERTEX
  5
922F
  8
AM_0
 10
411.3738717733263
 20
58.184818179809668
 30
0.0
 70
    32
  0
VERTEX
  5
9230
  8
AM_0
 10
411.37787177332621
 20
58.182818179809722
 30
0.0
 70
    32
  0
VERTEX
  5
9231
  8
AM_0
 10
411.38187177332651
 20
58.180918179809737
 30
0.0
 70
    32
  0
VERTEX
  5
9232
  8
AM_0
 10
411.38487177332621
 20
58.17901817980988
 30
0.0
 70
    32
  0
VERTEX
  5
9233
  8
AM_0
 10
411.38887177332629
 20
58.177018179809707
 30
0.0
 70
    32
  0
VERTEX
  5
9234
  8
AM_0
 10
411.39287177332631
 20
58.175118179809722
 30
0.0
 70
    32
  0
VERTEX
  5
9235
  8
AM_0
 10
411.39687177332621
 20
58.173218179809837
 30
0.0
 70
    32
  0
VERTEX
  5
9236
  8
AM_0
 10
411.40087177332629
 20
58.171318179809639
 30
0.0
 70
    32
  0
VERTEX
  5
9237
  8
AM_0
 10
411.40487177332631
 20
58.169418179809888
 30
0.0
 70
    32
  0
VERTEX
  5
9238
  8
AM_0
 10
411.40887177332621
 20
58.167518179809463
 30
0.0
 70
    32
  0
VERTEX
  5
9239
  8
AM_0
 10
411.41287177332629
 20
58.16571817980946
 30
0.0
 70
    32
  0
VERTEX
  5
923A
  8
AM_0
 10
411.41687177332631
 20
58.163818179809702
 30
0.0
 70
    32
  0
VERTEX
  5
923B
  8
AM_0
 10
411.42087177332598
 20
58.161918179809739
 30
0.0
 70
    32
  0
VERTEX
  5
923C
  8
AM_0
 10
411.42487177332629
 20
58.160118179809743
 30
0.0
 70
    32
  0
VERTEX
  5
923D
  8
AM_0
 10
411.42787177332622
 20
58.158218179809637
 30
0.0
 70
    32
  0
VERTEX
  5
923E
  8
AM_0
 10
411.43187177332629
 20
58.156418179809748
 30
0.0
 70
    32
  0
VERTEX
  5
923F
  8
AM_0
 10
411.43587177332631
 20
58.154518179809649
 30
0.0
 70
    32
  0
VERTEX
  5
9240
  8
AM_0
 10
411.43987177332627
 20
58.152718179809654
 30
0.0
 70
    32
  0
VERTEX
  5
9241
  8
AM_0
 10
411.44387177332629
 20
58.150918179809658
 30
0.0
 70
    32
  0
VERTEX
  5
9242
  8
AM_0
 10
411.4478717733262
 20
58.149018179809673
 30
0.0
 70
    32
  0
VERTEX
  5
9243
  8
AM_0
 10
411.45187177332627
 20
58.14721817980967
 30
0.0
 70
    32
  0
VERTEX
  5
9244
  8
AM_0
 10
411.45587177332612
 20
58.145418179809667
 30
0.0
 70
    32
  0
VERTEX
  5
9245
  8
AM_0
 10
411.45987177332631
 20
58.143618179809678
 30
0.0
 70
    32
  0
VERTEX
  5
9246
  8
AM_0
 10
411.46387177332628
 20
58.141818179809668
 30
0.0
 70
    32
  0
VERTEX
  5
9247
  8
AM_0
 10
411.46787177332612
 20
58.140018179809651
 30
0.0
 70
    32
  0
VERTEX
  5
9248
  8
AM_0
 10
411.4718717733262
 20
58.138318179809978
 30
0.0
 70
    32
  0
VERTEX
  5
9249
  8
AM_0
 10
411.47587177332628
 20
58.136518179809748
 30
0.0
 70
    32
  0
VERTEX
  5
924A
  8
AM_0
 10
411.47987177332629
 20
58.134718179809752
 30
0.0
 70
    32
  0
VERTEX
  5
924B
  8
AM_0
 10
411.48387177332609
 20
58.132918179809742
 30
0.0
 70
    32
  0
VERTEX
  5
924C
  8
AM_0
 10
411.48787177332628
 20
58.1312181798097
 30
0.0
 70
    32
  0
VERTEX
  5
924D
  8
AM_0
 10
411.4918717733263
 20
58.129418179809711
 30
0.0
 70
    32
  0
VERTEX
  5
924E
  8
AM_0
 10
411.49587177332631
 20
58.127718179809669
 30
0.0
 70
    32
  0
VERTEX
  5
924F
  8
AM_0
 10
411.49987177332622
 20
58.126018179809648
 30
0.0
 70
    32
  0
VERTEX
  5
9250
  8
AM_0
 10
411.5038717733263
 20
58.124218179809652
 30
0.0
 70
    32
  0
VERTEX
  5
9251
  8
AM_0
 10
411.50787177332592
 20
58.12251817980929
 30
0.0
 70
    32
  0
VERTEX
  5
9252
  8
AM_0
 10
411.51187177332628
 20
58.12081817980971
 30
0.0
 70
    32
  0
VERTEX
  5
9253
  8
AM_0
 10
411.51587177332641
 20
58.119118179809668
 30
0.0
 70
    32
  0
VERTEX
  5
9254
  8
AM_0
 10
411.51987177332632
 20
58.117418179809661
 30
0.0
 70
    32
  0
VERTEX
  5
9255
  8
AM_0
 10
411.52387177332622
 20
58.115718179809512
 30
0.0
 70
    32
  0
VERTEX
  5
9256
  8
AM_0
 10
411.52787177332618
 20
58.114018179809712
 30
0.0
 70
    32
  0
VERTEX
  5
9257
  8
AM_0
 10
411.53187177332632
 20
58.112318179809897
 30
0.0
 70
    32
  0
VERTEX
  5
9258
  8
AM_0
 10
411.53587177332628
 20
58.110618179809663
 30
0.0
 70
    32
  0
VERTEX
  5
9259
  8
AM_0
 10
411.5398717733263
 20
58.108918179809741
 30
0.0
 70
    32
  0
VERTEX
  5
925A
  8
AM_0
 10
411.5438717733262
 20
58.107218179809713
 30
0.0
 70
    32
  0
VERTEX
  5
925B
  8
AM_0
 10
411.54787177332628
 20
58.105618179809653
 30
0.0
 70
    32
  0
VERTEX
  5
925C
  8
AM_0
 10
411.55187177332613
 20
58.103918179809739
 30
0.0
 70
    32
  0
VERTEX
  5
925D
  8
AM_0
 10
411.55587177332632
 20
58.102318179809458
 30
0.0
 70
    32
  0
VERTEX
  5
925E
  8
AM_0
 10
411.55987177332628
 20
58.100618179809892
 30
0.0
 70
    32
  0
VERTEX
  5
925F
  8
AM_0
 10
411.56387177332613
 20
58.099018179809718
 30
0.0
 70
    32
  0
VERTEX
  5
9260
  8
AM_0
 10
411.5678717733262
 20
58.097318179809569
 30
0.0
 70
    32
  0
VERTEX
  5
9261
  8
AM_0
 10
411.57187177332628
 20
58.095718179809857
 30
0.0
 70
    32
  0
VERTEX
  5
9262
  8
AM_0
 10
411.5758717733263
 20
58.094118179809463
 30
0.0
 70
    32
  0
VERTEX
  5
9263
  8
AM_0
 10
411.5798717733262
 20
58.092518179809893
 30
0.0
 70
    32
  0
VERTEX
  5
9264
  8
AM_0
 10
411.58387177332628
 20
58.090818179809737
 30
0.0
 70
    32
  0
VERTEX
  5
9265
  8
AM_0
 10
411.5878717733263
 20
58.089218179809677
 30
0.0
 70
    32
  0
VERTEX
  5
9266
  8
AM_0
 10
411.59187177332609
 20
58.087618179809752
 30
0.0
 70
    32
  0
VERTEX
  5
9267
  8
AM_0
 10
411.59587177332628
 20
58.086018179809678
 30
0.0
 70
    32
  0
VERTEX
  5
9268
  8
AM_0
 10
411.5998717733263
 20
58.08451817980972
 30
0.0
 70
    32
  0
VERTEX
  5
9269
  8
AM_0
 10
411.60387177332598
 20
58.082918179809667
 30
0.0
 70
    32
  0
VERTEX
  5
926A
  8
AM_0
 10
411.60787177332628
 20
58.08131817980972
 30
0.0
 70
    32
  0
VERTEX
  5
926B
  8
AM_0
 10
411.6118717733263
 20
58.079718179809667
 30
0.0
 70
    32
  0
VERTEX
  5
926C
  8
AM_0
 10
411.61587177332632
 20
58.078218179809717
 30
0.0
 70
    32
  0
VERTEX
  5
926D
  8
AM_0
 10
411.61987177332622
 20
58.076618179809657
 30
0.0
 70
    32
  0
VERTEX
  5
926E
  8
AM_0
 10
411.62487177332628
 20
58.075018179809717
 30
0.0
 70
    32
  0
VERTEX
  5
926F
  8
AM_0
 10
411.62887177332618
 20
58.073518179809419
 30
0.0
 70
    32
  0
VERTEX
  5
9270
  8
AM_0
 10
411.6328717733262
 20
58.072018179809668
 30
0.0
 70
    32
  0
VERTEX
  5
9271
  8
AM_0
 10
411.63687177332628
 20
58.070418179809742
 30
0.0
 70
    32
  0
VERTEX
  5
9272
  8
AM_0
 10
411.6408717733263
 20
58.06891817980965
 30
0.0
 70
    32
  0
VERTEX
  5
9273
  8
AM_0
 10
411.64487177332632
 20
58.0674181798097
 30
0.0
 70
    32
  0
VERTEX
  5
9274
  8
AM_0
 10
411.64887177332622
 20
58.065818179809654
 30
0.0
 70
    32
  0
VERTEX
  5
9275
  8
AM_0
 10
411.65287177332601
 20
58.064318179809568
 30
0.0
 70
    32
  0
VERTEX
  5
9276
  8
AM_0
 10
411.65687177332632
 20
58.062818179809831
 30
0.0
 70
    32
  0
VERTEX
  5
9277
  8
AM_0
 10
411.66087177332628
 20
58.061318179809753
 30
0.0
 70
    32
  0
VERTEX
  5
9278
  8
AM_0
 10
411.6648717733263
 20
58.059818179809668
 30
0.0
 70
    32
  0
VERTEX
  5
9279
  8
AM_0
 10
411.6688717733262
 20
58.058318179809817
 30
0.0
 70
    32
  0
VERTEX
  5
927A
  8
AM_0
 10
411.67287177332628
 20
58.056818179809753
 30
0.0
 70
    32
  0
VERTEX
  5
927B
  8
AM_0
 10
411.6768717733263
 20
58.05541817980977
 30
0.0
 70
    32
  0
VERTEX
  5
927C
  8
AM_0
 10
411.68187177332629
 20
58.053918179809678
 30
0.0
 70
    32
  0
VERTEX
  5
927D
  8
AM_0
 10
411.68587177332631
 20
58.052418179809713
 30
0.0
 70
    32
  0
VERTEX
  5
927E
  8
AM_0
 10
411.68987177332622
 20
58.050918179809749
 30
0.0
 70
    32
  0
VERTEX
  5
927F
  8
AM_0
 10
411.69387177332629
 20
58.049518179809631
 30
0.0
 70
    32
  0
VERTEX
  5
9280
  8
AM_0
 10
411.69787177332609
 20
58.048018179809887
 30
0.0
 70
    32
  0
VERTEX
  5
9281
  8
AM_0
 10
411.70187177332627
 20
58.046618179809677
 30
0.0
 70
    32
  0
VERTEX
  5
9282
  8
AM_0
 10
411.70587177332629
 20
58.045118179809513
 30
0.0
 70
    32
  0
VERTEX
  5
9283
  8
AM_0
 10
411.70987177332631
 20
58.043718179809751
 30
0.0
 70
    32
  0
VERTEX
  5
9284
  8
AM_0
 10
411.71387177332628
 20
58.042318179809847
 30
0.0
 70
    32
  0
VERTEX
  5
9285
  8
AM_0
 10
411.71787177332618
 20
58.040918179809637
 30
0.0
 70
    32
  0
VERTEX
  5
9286
  8
AM_0
 10
411.72287177332629
 20
58.039418179809907
 30
0.0
 70
    32
  0
VERTEX
  5
9287
  8
AM_0
 10
411.72687177332642
 20
58.038018179809569
 30
0.0
 70
    32
  0
VERTEX
  5
9288
  8
AM_0
 10
411.73087177332633
 20
58.0366181798097
 30
0.0
 70
    32
  0
VERTEX
  5
9289
  8
AM_0
 10
411.73487177332612
 20
58.035218179809711
 30
0.0
 70
    32
  0
VERTEX
  5
928A
  8
AM_0
 10
411.73887177332631
 20
58.033818179809607
 30
0.0
 70
    32
  0
VERTEX
  5
928B
  8
AM_0
 10
411.74287177332633
 20
58.032418179809497
 30
0.0
 70
    32
  0
VERTEX
  5
928C
  8
AM_0
 10
411.74687177332612
 20
58.031018179809742
 30
0.0
 70
    32
  0
VERTEX
  5
928D
  8
AM_0
 10
411.75087177332631
 20
58.029618179809852
 30
0.0
 70
    32
  0
VERTEX
  5
928E
  8
AM_0
 10
411.75487177332627
 20
58.028318179809837
 30
0.0
 70
    32
  0
VERTEX
  5
928F
  8
AM_0
 10
411.75987177332632
 20
58.026918179809741
 30
0.0
 70
    32
  0
VERTEX
  5
9290
  8
AM_0
 10
411.76387177332612
 20
58.025518179809637
 30
0.0
 70
    32
  0
VERTEX
  5
9291
  8
AM_0
 10
411.76787177332631
 20
58.024218179809743
 30
0.0
 70
    32
  0
VERTEX
  5
9292
  8
AM_0
 10
411.77187177332632
 20
58.022818179809761
 30
0.0
 70
    32
  0
VERTEX
  5
9293
  8
AM_0
 10
411.77587177332629
 20
58.021518179809732
 30
0.0
 70
    32
  0
VERTEX
  5
9294
  8
AM_0
 10
411.77987177332631
 20
58.020118179809863
 30
0.0
 70
    32
  0
VERTEX
  5
9295
  8
AM_0
 10
411.78387177332621
 20
58.01881817980972
 30
0.0
 70
    32
  0
VERTEX
  5
9296
  8
AM_0
 10
411.78887177332632
 20
58.01751817980972
 30
0.0
 70
    32
  0
VERTEX
  5
9297
  8
AM_0
 10
411.79287177332628
 20
58.01611817980973
 30
0.0
 70
    32
  0
VERTEX
  5
9298
  8
AM_0
 10
411.7968717733263
 20
58.014818179809701
 30
0.0
 70
    32
  0
VERTEX
  5
9299
  8
AM_0
 10
411.80087177332632
 20
58.01351817980958
 30
0.0
 70
    32
  0
VERTEX
  5
929A
  8
AM_0
 10
411.80487177332623
 20
58.012218179809572
 30
0.0
 70
    32
  0
VERTEX
  5
929B
  8
AM_0
 10
411.8088717733263
 20
58.010918179809671
 30
0.0
 70
    32
  0
VERTEX
  5
929C
  8
AM_0
 10
411.81287177332621
 20
58.00961817980965
 30
0.0
 70
    32
  0
VERTEX
  5
929D
  8
AM_0
 10
411.81787177332632
 20
58.008318179809748
 30
0.0
 70
    32
  0
VERTEX
  5
929E
  8
AM_0
 10
411.82187177332622
 20
58.007018179809741
 30
0.0
 70
    32
  0
VERTEX
  5
929F
  8
AM_0
 10
411.8258717733263
 20
58.005718179809733
 30
0.0
 70
    32
  0
VERTEX
  5
92A0
  8
AM_0
 10
411.82987177332632
 20
58.004418179809711
 30
0.0
 70
    32
  0
VERTEX
  5
92A1
  8
AM_0
 10
411.83387177332622
 20
58.003118179809583
 30
0.0
 70
    32
  0
VERTEX
  5
92A2
  8
AM_0
 10
411.8378717733263
 20
58.001918179809657
 30
0.0
 70
    32
  0
VERTEX
  5
92A3
  8
AM_0
 10
411.8418717733262
 20
58.000618179809742
 30
0.0
 70
    32
  0
VERTEX
  5
92A4
  8
AM_0
 10
411.84687177332631
 20
57.999318179809741
 30
0.0
 70
    32
  0
VERTEX
  5
92A5
  8
AM_0
 10
411.85087177332622
 20
57.998118179809588
 30
0.0
 70
    32
  0
VERTEX
  5
92A6
  8
AM_0
 10
411.85487177332629
 20
57.996818179809573
 30
0.0
 70
    32
  0
VERTEX
  5
92A7
  8
AM_0
 10
411.8588717733262
 20
57.995618179809647
 30
0.0
 70
    32
  0
VERTEX
  5
92A8
  8
AM_0
 10
411.86287177332628
 20
57.994318179809731
 30
0.0
 70
    32
  0
VERTEX
  5
92A9
  8
AM_0
 10
411.8668717733263
 20
57.993118179809713
 30
0.0
 70
    32
  0
VERTEX
  5
92AA
  8
AM_0
 10
411.87187177332629
 20
57.991918179809417
 30
0.0
 70
    32
  0
VERTEX
  5
92AB
  8
AM_0
 10
411.87587177332631
 20
57.990618179809637
 30
0.0
 70
    32
  0
VERTEX
  5
92AC
  8
AM_0
 10
411.87987177332627
 20
57.989418179809853
 30
0.0
 70
    32
  0
VERTEX
  5
92AD
  8
AM_0
 10
411.88387177332652
 20
57.988218179809678
 30
0.0
 70
    32
  0
VERTEX
  5
92AE
  8
AM_0
 10
411.88787177332631
 20
57.987018179809652
 30
0.0
 70
    32
  0
VERTEX
  5
92AF
  8
AM_0
 10
411.89187177332622
 20
57.985818179809819
 30
0.0
 70
    32
  0
VERTEX
  5
92B0
  8
AM_0
 10
411.89687177332632
 20
57.984618179809672
 30
0.0
 70
    32
  0
VERTEX
  5
92B1
  8
AM_0
 10
411.90087177332617
 20
57.98341817980976
 30
0.0
 70
    32
  0
VERTEX
  5
92B2
  8
AM_0
 10
411.90487177332631
 20
57.982218179809827
 30
0.0
 70
    32
  0
VERTEX
  5
92B3
  8
AM_0
 10
411.90887177332621
 20
57.981018179809674
 30
0.0
 70
    32
  0
VERTEX
  5
92B4
  8
AM_0
 10
411.91287177332629
 20
57.979818179809747
 30
0.0
 70
    32
  0
VERTEX
  5
92B5
  8
AM_0
 10
411.91787177332623
 20
57.978618179809821
 30
0.0
 70
    32
  0
VERTEX
  5
92B6
  8
AM_0
 10
411.9218717733263
 20
57.977518179809408
 30
0.0
 70
    32
  0
VERTEX
  5
92B7
  8
AM_0
 10
411.92587177332632
 20
57.976318179809702
 30
0.0
 70
    32
  0
VERTEX
  5
92B8
  8
AM_0
 10
411.92987177332623
 20
57.975118179809677
 30
0.0
 70
    32
  0
VERTEX
  5
92B9
  8
AM_0
 10
411.9338717733263
 20
57.974018179809718
 30
0.0
 70
    32
  0
VERTEX
  5
92BA
  8
AM_0
 10
411.93787177332621
 20
57.972818179809693
 30
0.0
 70
    32
  0
VERTEX
  5
92BB
  8
AM_0
 10
411.94287177332632
 20
57.971718179809741
 30
0.0
 70
    32
  0
VERTEX
  5
92BC
  8
AM_0
 10
411.94687177332622
 20
57.970518179809808
 30
0.0
 70
    32
  0
VERTEX
  5
92BD
  8
AM_0
 10
411.9508717733263
 20
57.969418179809288
 30
0.0
 70
    32
  0
VERTEX
  5
92BE
  8
AM_0
 10
411.95487177332632
 20
57.968218179809583
 30
0.0
 70
    32
  0
VERTEX
  5
92BF
  8
AM_0
 10
411.95887177332628
 20
57.967118179809752
 30
0.0
 70
    32
  0
VERTEX
  5
92C0
  8
AM_0
 10
411.96387177332628
 20
57.966018179809687
 30
0.0
 70
    32
  0
VERTEX
  5
92C1
  8
AM_0
 10
411.96787177332612
 20
57.96491817980975
 30
0.0
 70
    32
  0
VERTEX
  5
92C2
  8
AM_0
 10
411.9718717733262
 20
57.963718179809582
 30
0.0
 70
    32
  0
VERTEX
  5
92C3
  8
AM_0
 10
411.97587177332628
 20
57.962618179809738
 30
0.0
 70
    32
  0
VERTEX
  5
92C4
  8
AM_0
 10
411.97987177332629
 20
57.961518179809673
 30
0.0
 70
    32
  0
VERTEX
  5
92C5
  8
AM_0
 10
411.98487177332629
 20
57.960418179809722
 30
0.0
 70
    32
  0
VERTEX
  5
92C6
  8
AM_0
 10
411.98887177332648
 20
57.959318179809657
 30
0.0
 70
    32
  0
VERTEX
  5
92C7
  8
AM_0
 10
411.99287177332633
 20
57.958218179809599
 30
0.0
 70
    32
  0
VERTEX
  5
92C8
  8
AM_0
 10
411.99687177332629
 20
57.957118179809648
 30
0.0
 70
    32
  0
VERTEX
  5
92C9
  8
AM_0
 10
412.00187177332629
 20
57.956118179809891
 30
0.0
 70
    32
  0
VERTEX
  5
92CA
  8
AM_0
 10
412.00587177332619
 20
57.955018179809599
 30
0.0
 70
    32
  0
VERTEX
  5
92CB
  8
AM_0
 10
412.00987177332632
 20
57.953918179809662
 30
0.0
 70
    32
  0
VERTEX
  5
92CC
  8
AM_0
 10
412.01387177332617
 20
57.952818179809462
 30
0.0
 70
    32
  0
VERTEX
  5
92CD
  8
AM_0
 10
412.01787177332642
 20
57.95181817980972
 30
0.0
 70
    32
  0
VERTEX
  5
92CE
  8
AM_0
 10
412.0228717733263
 20
57.950718179809648
 30
0.0
 70
    32
  0
VERTEX
  5
92CF
  8
AM_0
 10
412.02687177332632
 20
57.949718179809672
 30
0.0
 70
    32
  0
VERTEX
  5
92D0
  8
AM_0
 10
412.03087177332628
 20
57.948618179809721
 30
0.0
 70
    32
  0
VERTEX
  5
92D1
  8
AM_0
 10
412.03487177332619
 20
57.947618179809652
 30
0.0
 70
    32
  0
VERTEX
  5
92D2
  8
AM_0
 10
412.03887177332632
 20
57.946518179809459
 30
0.0
 70
    32
  0
VERTEX
  5
92D3
  8
AM_0
 10
412.04387177332632
 20
57.945518179809589
 30
0.0
 70
    32
  0
VERTEX
  5
92D4
  8
AM_0
 10
412.04787177332628
 20
57.944518179809741
 30
0.0
 70
    32
  0
VERTEX
  5
92D5
  8
AM_0
 10
412.05187177332613
 20
57.943418179809669
 30
0.0
 70
    32
  0
VERTEX
  5
92D6
  8
AM_0
 10
412.0558717733262
 20
57.942418179809707
 30
0.0
 70
    32
  0
VERTEX
  5
92D7
  8
AM_0
 10
412.06087177332608
 20
57.941418179809723
 30
0.0
 70
    32
  0
VERTEX
  5
92D8
  8
AM_0
 10
412.06487177332627
 20
57.940418179809747
 30
0.0
 70
    32
  0
VERTEX
  5
92D9
  8
AM_0
 10
412.06887177332629
 20
57.939418179809877
 30
0.0
 70
    32
  0
VERTEX
  5
92DA
  8
AM_0
 10
412.07287177332609
 20
57.938418179809453
 30
0.0
 70
    32
  0
VERTEX
  5
92DB
  8
AM_0
 10
412.07687177332627
 20
57.937418179809697
 30
0.0
 70
    32
  0
VERTEX
  5
92DC
  8
AM_0
 10
412.08187177332621
 20
57.936418179809721
 30
0.0
 70
    32
  0
VERTEX
  5
92DD
  8
AM_0
 10
412.08587177332629
 20
57.935418179809751
 30
0.0
 70
    32
  0
VERTEX
  5
92DE
  8
AM_0
 10
412.08987177332631
 20
57.934418179809661
 30
0.0
 70
    32
  0
VERTEX
  5
92DF
  8
AM_0
 10
412.0938717733265
 20
57.933518179809653
 30
0.0
 70
    32
  0
VERTEX
  5
92E0
  8
AM_0
 10
412.09887177332632
 20
57.93251817980957
 30
0.0
 70
    32
  0
VERTEX
  5
92E1
  8
AM_0
 10
412.10287177332629
 20
57.931518179809601
 30
0.0
 70
    32
  0
VERTEX
  5
92E2
  8
AM_0
 10
412.10687177332642
 20
57.930618179809699
 30
0.0
 70
    32
  0
VERTEX
  5
92E3
  8
AM_0
 10
412.11087177332621
 20
57.929618179809722
 30
0.0
 70
    32
  0
VERTEX
  5
92E4
  8
AM_0
 10
412.11587177332632
 20
57.92861817980986
 30
0.0
 70
    32
  0
VERTEX
  5
92E5
  8
AM_0
 10
412.11987177332622
 20
57.927718179809872
 30
0.0
 70
    32
  0
VERTEX
  5
92E6
  8
AM_0
 10
412.1238717733263
 20
57.92671817980942
 30
0.0
 70
    32
  0
VERTEX
  5
92E7
  8
AM_0
 10
412.12787177332632
 20
57.925818179809418
 30
0.0
 70
    32
  0
VERTEX
  5
92E8
  8
AM_0
 10
412.1328717733262
 20
57.924918179809417
 30
0.0
 70
    32
  0
VERTEX
  5
92E9
  8
AM_0
 10
412.13687177332628
 20
57.923918179809668
 30
0.0
 70
    32
  0
VERTEX
  5
92EA
  8
AM_0
 10
412.1408717733263
 20
57.923018179809667
 30
0.0
 70
    32
  0
VERTEX
  5
92EB
  8
AM_0
 10
412.14487177332632
 20
57.922118179809672
 30
0.0
 70
    32
  0
VERTEX
  5
92EC
  8
AM_0
 10
412.1498717733262
 20
57.921218179809678
 30
0.0
 70
    32
  0
VERTEX
  5
92ED
  8
AM_0
 10
412.15387177332627
 20
57.920318179809676
 30
0.0
 70
    32
  0
VERTEX
  5
92EE
  8
AM_0
 10
412.15787177332629
 20
57.919418179809668
 30
0.0
 70
    32
  0
VERTEX
  5
92EF
  8
AM_0
 10
412.16187177332603
 20
57.918518179809674
 30
0.0
 70
    32
  0
VERTEX
  5
92F0
  8
AM_0
 10
412.16687177332631
 20
57.917618179809672
 30
0.0
 70
    32
  0
VERTEX
  5
92F1
  8
AM_0
 10
412.17087177332621
 20
57.916718179809678
 30
0.0
 70
    32
  0
VERTEX
  5
92F2
  8
AM_0
 10
412.17487177332629
 20
57.915818179809683
 30
0.0
 70
    32
  0
VERTEX
  5
92F3
  8
AM_0
 10
412.17887177332648
 20
57.914918179809682
 30
0.0
 70
    32
  0
VERTEX
  5
92F4
  8
AM_0
 10
412.1838717733263
 20
57.914018179809659
 30
0.0
 70
    32
  0
VERTEX
  5
92F5
  8
AM_0
 10
412.18787177332621
 20
57.913118179809651
 30
0.0
 70
    32
  0
VERTEX
  5
92F6
  8
AM_0
 10
412.19187177332628
 20
57.91231817980929
 30
0.0
 70
    32
  0
VERTEX
  5
92F7
  8
AM_0
 10
412.1958717733263
 20
57.91141817980985
 30
0.0
 70
    32
  0
VERTEX
  5
92F8
  8
AM_0
 10
412.20087177332641
 20
57.910518179809742
 30
0.0
 70
    32
  0
VERTEX
  5
92F9
  8
AM_0
 10
412.20487177332632
 20
57.90971817980985
 30
0.0
 70
    32
  0
VERTEX
  5
92FA
  8
AM_0
 10
412.20887177332611
 20
57.908818179809842
 30
0.0
 70
    32
  0
VERTEX
  5
92FB
  8
AM_0
 10
412.2128717733263
 20
57.908018179809702
 30
0.0
 70
    32
  0
VERTEX
  5
92FC
  8
AM_0
 10
412.21787177332618
 20
57.9071181798097
 30
0.0
 70
    32
  0
VERTEX
  5
92FD
  8
AM_0
 10
412.22187177332631
 20
57.906318179809652
 30
0.0
 70
    32
  0
VERTEX
  5
92FE
  8
AM_0
 10
412.22587177332622
 20
57.905418179809651
 30
0.0
 70
    32
  0
VERTEX
  5
92FF
  8
AM_0
 10
412.22987177332629
 20
57.904618179809752
 30
0.0
 70
    32
  0
VERTEX
  5
9300
  8
AM_0
 10
412.23487177332612
 20
57.903818179809718
 30
0.0
 70
    32
  0
VERTEX
  5
9301
  8
AM_0
 10
412.23887177332631
 20
57.903018179809713
 30
0.0
 70
    32
  0
VERTEX
  5
9302
  8
AM_0
 10
412.24287177332633
 20
57.902118179809712
 30
0.0
 70
    32
  0
VERTEX
  5
9303
  8
AM_0
 10
412.24787177332632
 20
57.901318179809671
 30
0.0
 70
    32
  0
VERTEX
  5
9304
  8
AM_0
 10
412.25187177332629
 20
57.90051817980963
 30
0.0
 70
    32
  0
VERTEX
  5
9305
  8
AM_0
 10
412.25587177332608
 20
57.899718179809732
 30
0.0
 70
    32
  0
VERTEX
  5
9306
  8
AM_0
 10
412.25987177332632
 20
57.898918179809819
 30
0.0
 70
    32
  0
VERTEX
  5
9307
  8
AM_0
 10
412.26487177332621
 20
57.898118179809678
 30
0.0
 70
    32
  0
VERTEX
  5
9308
  8
AM_0
 10
412.26887177332628
 20
57.897318179809638
 30
0.0
 70
    32
  0
VERTEX
  5
9309
  8
AM_0
 10
412.2728717733263
 20
57.896518179809497
 30
0.0
 70
    32
  0
VERTEX
  5
930A
  8
AM_0
 10
412.27687177332632
 20
57.895718179809712
 30
0.0
 70
    32
  0
VERTEX
  5
930B
  8
AM_0
 10
412.28187177332632
 20
57.8949181798098
 30
0.0
 70
    32
  0
VERTEX
  5
930C
  8
AM_0
 10
412.28587177332628
 20
57.894218179809762
 30
0.0
 70
    32
  0
VERTEX
  5
930D
  8
AM_0
 10
412.2898717733263
 20
57.893418179809721
 30
0.0
 70
    32
  0
VERTEX
  5
930E
  8
AM_0
 10
412.29487177332629
 20
57.892618179809809
 30
0.0
 70
    32
  0
VERTEX
  5
930F
  8
AM_0
 10
412.29887177332631
 20
57.891818179809668
 30
0.0
 70
    32
  0
VERTEX
  5
9310
  8
AM_0
 10
412.30287177332622
 20
57.891118179809723
 30
0.0
 70
    32
  0
VERTEX
  5
9311
  8
AM_0
 10
412.30687177332629
 20
57.890318179809697
 30
0.0
 70
    32
  0
VERTEX
  5
9312
  8
AM_0
 10
412.31187177332612
 20
57.889618179809652
 30
0.0
 70
    32
  0
VERTEX
  5
9313
  8
AM_0
 10
412.31587177332642
 20
57.888818179809739
 30
0.0
 70
    32
  0
VERTEX
  5
9314
  8
AM_0
 10
412.31987177332633
 20
57.888118179809801
 30
0.0
 70
    32
  0
VERTEX
  5
9315
  8
AM_0
 10
412.32487177332621
 20
57.887318179809647
 30
0.0
 70
    32
  0
VERTEX
  5
9316
  8
AM_0
 10
412.32887177332628
 20
57.88661817980973
 30
0.0
 70
    32
  0
VERTEX
  5
9317
  8
AM_0
 10
412.33287177332619
 20
57.885918179809678
 30
0.0
 70
    32
  0
VERTEX
  5
9318
  8
AM_0
 10
412.33687177332632
 20
57.885118179809638
 30
0.0
 70
    32
  0
VERTEX
  5
9319
  8
AM_0
 10
412.34187177332632
 20
57.8844181798097
 30
0.0
 70
    32
  0
VERTEX
  5
931A
  8
AM_0
 10
412.34587177332628
 20
57.883718179809662
 30
0.0
 70
    32
  0
VERTEX
  5
931B
  8
AM_0
 10
412.34987177332607
 20
57.883018179809497
 30
0.0
 70
    32
  0
VERTEX
  5
931C
  8
AM_0
 10
412.35487177332629
 20
57.882218179809684
 30
0.0
 70
    32
  0
VERTEX
  5
931D
  8
AM_0
 10
412.35887177332609
 20
57.881518179809753
 30
0.0
 70
    32
  0
VERTEX
  5
931E
  8
AM_0
 10
412.36287177332628
 20
57.880818179809701
 30
0.0
 70
    32
  0
VERTEX
  5
931F
  8
AM_0
 10
412.3668717733263
 20
57.880118179809649
 30
0.0
 70
    32
  0
VERTEX
  5
9320
  8
AM_0
 10
412.37187177332612
 20
57.879418179809598
 30
0.0
 70
    32
  0
VERTEX
  5
9321
  8
AM_0
 10
412.37587177332631
 20
57.878718179809653
 30
0.0
 70
    32
  0
VERTEX
  5
9322
  8
AM_0
 10
412.37987177332627
 20
57.878018179809722
 30
0.0
 70
    32
  0
VERTEX
  5
9323
  8
AM_0
 10
412.38487177332632
 20
57.877418179809652
 30
0.0
 70
    32
  0
VERTEX
  5
9324
  8
AM_0
 10
412.38887177332629
 20
57.876718179809473
 30
0.0
 70
    32
  0
VERTEX
  5
9325
  8
AM_0
 10
412.39287177332648
 20
57.876018179809883
 30
0.0
 70
    32
  0
VERTEX
  5
9326
  8
AM_0
 10
412.39687177332632
 20
57.875318179809732
 30
0.0
 70
    32
  0
VERTEX
  5
9327
  8
AM_0
 10
412.40187177332632
 20
57.8746181798099
 30
0.0
 70
    32
  0
VERTEX
  5
9328
  8
AM_0
 10
412.40587177332628
 20
57.874018179809461
 30
0.0
 70
    32
  0
VERTEX
  5
9329
  8
AM_0
 10
412.40987177332619
 20
57.873318179809857
 30
0.0
 70
    32
  0
VERTEX
  5
932A
  8
AM_0
 10
412.4148717733263
 20
57.872718179809667
 30
0.0
 70
    32
  0
VERTEX
  5
932B
  8
AM_0
 10
412.4188717733262
 20
57.872018179809849
 30
0.0
 70
    32
  0
VERTEX
  5
932C
  8
AM_0
 10
412.42287177332628
 20
57.871318179809698
 30
0.0
 70
    32
  0
VERTEX
  5
932D
  8
AM_0
 10
412.42687177332613
 20
57.870718179809721
 30
0.0
 70
    32
  0
VERTEX
  5
932E
  8
AM_0
 10
412.43187177332629
 20
57.870118179809893
 30
0.0
 70
    32
  0
VERTEX
  5
932F
  8
AM_0
 10
412.43587177332631
 20
57.86941817980972
 30
0.0
 70
    32
  0
VERTEX
  5
9330
  8
AM_0
 10
412.43987177332627
 20
57.868818179809871
 30
0.0
 70
    32
  0
VERTEX
  5
9331
  8
AM_0
 10
412.44487177332633
 20
57.868118179809713
 30
0.0
 70
    32
  0
VERTEX
  5
9332
  8
AM_0
 10
412.44887177332629
 20
57.867518179809743
 30
0.0
 70
    32
  0
VERTEX
  5
9333
  8
AM_0
 10
412.45287177332631
 20
57.866918179809652
 30
0.0
 70
    32
  0
VERTEX
  5
9334
  8
AM_0
 10
412.45787177332608
 20
57.866318179809703
 30
0.0
 70
    32
  0
VERTEX
  5
9335
  8
AM_0
 10
412.46187177332621
 20
57.865718179809733
 30
0.0
 70
    32
  0
VERTEX
  5
9336
  8
AM_0
 10
412.46587177332628
 20
57.865018179809802
 30
0.0
 70
    32
  0
VERTEX
  5
9337
  8
AM_0
 10
412.47087177332628
 20
57.864418179809718
 30
0.0
 70
    32
  0
VERTEX
  5
9338
  8
AM_0
 10
412.4748717733263
 20
57.863818179809883
 30
0.0
 70
    32
  0
VERTEX
  5
9339
  8
AM_0
 10
412.47887177332598
 20
57.863218179809792
 30
0.0
 70
    32
  0
VERTEX
  5
933A
  8
AM_0
 10
412.48287177332628
 20
57.862618179809722
 30
0.0
 70
    32
  0
VERTEX
  5
933B
  8
AM_0
 10
412.48787177332599
 20
57.862018179809638
 30
0.0
 70
    32
  0
VERTEX
  5
933C
  8
AM_0
 10
412.49187177332641
 20
57.861418179809782
 30
0.0
 70
    32
  0
VERTEX
  5
933D
  8
AM_0
 10
412.49587177332648
 20
57.860818179809719
 30
0.0
 70
    32
  0
VERTEX
  5
933E
  8
AM_0
 10
412.50087177332642
 20
57.860318179809731
 30
0.0
 70
    32
  0
VERTEX
  5
933F
  8
AM_0
 10
412.50487177332622
 20
57.85971817980964
 30
0.0
 70
    32
  0
VERTEX
  5
9340
  8
AM_0
 10
412.50887177332629
 20
57.859118179809577
 30
0.0
 70
    32
  0
VERTEX
  5
9341
  8
AM_0
 10
412.51387177332612
 20
57.858518179809721
 30
0.0
 70
    32
  0
VERTEX
  5
9342
  8
AM_0
 10
412.51787177332631
 20
57.858018179809847
 30
0.0
 70
    32
  0
VERTEX
  5
9343
  8
AM_0
 10
412.52187177332632
 20
57.857418179809663
 30
0.0
 70
    32
  0
VERTEX
  5
9344
  8
AM_0
 10
412.52587177332612
 20
57.856818179809473
 30
0.0
 70
    32
  0
VERTEX
  5
9345
  8
AM_0
 10
412.53087177332628
 20
57.856318179809712
 30
0.0
 70
    32
  0
VERTEX
  5
9346
  8
AM_0
 10
412.53487177332607
 20
57.855718179809749
 30
0.0
 70
    32
  0
VERTEX
  5
9347
  8
AM_0
 10
412.53887177332632
 20
57.855218179809633
 30
0.0
 70
    32
  0
VERTEX
  5
9348
  8
AM_0
 10
412.5438717733262
 20
57.85461817980957
 30
0.0
 70
    32
  0
VERTEX
  5
9349
  8
AM_0
 10
412.54787177332628
 20
57.854118179809682
 30
0.0
 70
    32
  0
VERTEX
  5
934A
  8
AM_0
 10
412.55187177332613
 20
57.8536181798097
 30
0.0
 70
    32
  0
VERTEX
  5
934B
  8
AM_0
 10
412.55687177332629
 20
57.853018179809737
 30
0.0
 70
    32
  0
VERTEX
  5
934C
  8
AM_0
 10
412.56087177332608
 20
57.852518179809628
 30
0.0
 70
    32
  0
VERTEX
  5
934D
  8
AM_0
 10
412.56487177332627
 20
57.852018179809647
 30
0.0
 70
    32
  0
VERTEX
  5
934E
  8
AM_0
 10
412.56987177332621
 20
57.851418179809457
 30
0.0
 70
    32
  0
VERTEX
  5
934F
  8
AM_0
 10
412.57387177332629
 20
57.850918179809703
 30
0.0
 70
    32
  0
VERTEX
  5
9350
  8
AM_0
 10
412.57787177332631
 20
57.850418179809701
 30
0.0
 70
    32
  0
VERTEX
  5
9351
  8
AM_0
 10
412.5828717733263
 20
57.84991817980972
 30
0.0
 70
    32
  0
VERTEX
  5
9352
  8
AM_0
 10
412.58687177332632
 20
57.849418179809739
 30
0.0
 70
    32
  0
VERTEX
  5
9353
  8
AM_0
 10
412.59087177332623
 20
57.84891817980975
 30
0.0
 70
    32
  0
VERTEX
  5
9354
  8
AM_0
 10
412.59587177332628
 20
57.848418179809627
 30
0.0
 70
    32
  0
VERTEX
  5
9355
  8
AM_0
 10
412.5998717733263
 20
57.847918179809881
 30
0.0
 70
    32
  0
VERTEX
  5
9356
  8
AM_0
 10
412.6038717733262
 20
57.847418179809672
 30
0.0
 70
    32
  0
VERTEX
  5
9357
  8
AM_0
 10
412.60787177332628
 20
57.84691817980945
 30
0.0
 70
    32
  0
VERTEX
  5
9358
  8
AM_0
 10
412.61287177332622
 20
57.846418179809682
 30
0.0
 70
    32
  0
VERTEX
  5
9359
  8
AM_0
 10
412.6168717733263
 20
57.846018179809448
 30
0.0
 70
    32
  0
VERTEX
  5
935A
  8
AM_0
 10
412.62087177332631
 20
57.845518179809581
 30
0.0
 70
    32
  0
VERTEX
  5
935B
  8
AM_0
 10
412.62587177332631
 20
57.845018179809593
 30
0.0
 70
    32
  0
VERTEX
  5
935C
  8
AM_0
 10
412.62987177332622
 20
57.844618179809679
 30
0.0
 70
    32
  0
VERTEX
  5
935D
  8
AM_0
 10
412.63387177332629
 20
57.844118179809698
 30
0.0
 70
    32
  0
VERTEX
  5
935E
  8
AM_0
 10
412.63887177332612
 20
57.843618179809717
 30
0.0
 70
    32
  0
VERTEX
  5
935F
  8
AM_0
 10
412.64287177332631
 20
57.84321817980959
 30
0.0
 70
    32
  0
VERTEX
  5
9360
  8
AM_0
 10
412.64687177332632
 20
57.842818179809683
 30
0.0
 70
    32
  0
VERTEX
  5
9361
  8
AM_0
 10
412.65187177332621
 20
57.842318179809702
 30
0.0
 70
    32
  0
VERTEX
  5
9362
  8
AM_0
 10
412.65587177332628
 20
57.841918179809568
 30
0.0
 70
    32
  0
VERTEX
  5
9363
  8
AM_0
 10
412.6598717733263
 20
57.8414181798097
 30
0.0
 70
    32
  0
VERTEX
  5
9364
  8
AM_0
 10
412.6648717733263
 20
57.841018179809573
 30
0.0
 70
    32
  0
VERTEX
  5
9365
  8
AM_0
 10
412.66887177332609
 20
57.840618179809667
 30
0.0
 70
    32
  0
VERTEX
  5
9366
  8
AM_0
 10
412.67287177332622
 20
57.840218179809654
 30
0.0
 70
    32
  0
VERTEX
  5
9367
  8
AM_0
 10
412.67787177332622
 20
57.839718179809438
 30
0.0
 70
    32
  0
VERTEX
  5
9368
  8
AM_0
 10
412.68187177332629
 20
57.839318179809659
 30
0.0
 70
    32
  0
VERTEX
  5
9369
  8
AM_0
 10
412.68587177332631
 20
57.838918179809653
 30
0.0
 70
    32
  0
VERTEX
  5
936A
  8
AM_0
 10
412.69087177332648
 20
57.838518179809732
 30
0.0
 70
    32
  0
VERTEX
  5
936B
  8
AM_0
 10
412.69487177332633
 20
57.838118179809847
 30
0.0
 70
    32
  0
VERTEX
  5
936C
  8
AM_0
 10
412.69887177332629
 20
57.83771817980972
 30
0.0
 70
    32
  0
VERTEX
  5
936D
  8
AM_0
 10
412.70387177332628
 20
57.837318179809706
 30
0.0
 70
    32
  0
VERTEX
  5
936E
  8
AM_0
 10
412.70787177332619
 20
57.837018179809441
 30
0.0
 70
    32
  0
VERTEX
  5
936F
  8
AM_0
 10
412.71187177332632
 20
57.836618179809662
 30
0.0
 70
    32
  0
VERTEX
  5
9370
  8
AM_0
 10
412.7168717733262
 20
57.836218179809748
 30
0.0
 70
    32
  0
VERTEX
  5
9371
  8
AM_0
 10
412.72087177332628
 20
57.835818179809849
 30
0.0
 70
    32
  0
VERTEX
  5
9372
  8
AM_0
 10
412.72487177332607
 20
57.835518179809711
 30
0.0
 70
    32
  0
VERTEX
  5
9373
  8
AM_0
 10
412.72987177332629
 20
57.83511817980969
 30
0.0
 70
    32
  0
VERTEX
  5
9374
  8
AM_0
 10
412.7338717733262
 20
57.83471817980967
 30
0.0
 70
    32
  0
VERTEX
  5
9375
  8
AM_0
 10
412.73787177332628
 20
57.834418179809752
 30
0.0
 70
    32
  0
VERTEX
  5
9376
  8
AM_0
 10
412.74287177332633
 20
57.834018179809739
 30
0.0
 70
    32
  0
VERTEX
  5
9377
  8
AM_0
 10
412.74687177332629
 20
57.833718179809701
 30
0.0
 70
    32
  0
VERTEX
  5
9378
  8
AM_0
 10
412.75087177332631
 20
57.833418179809428
 30
0.0
 70
    32
  0
VERTEX
  5
9379
  8
AM_0
 10
412.75587177332631
 20
57.833018179809649
 30
0.0
 70
    32
  0
VERTEX
  5
937A
  8
AM_0
 10
412.75987177332621
 20
57.832718179809852
 30
0.0
 70
    32
  0
VERTEX
  5
937B
  8
AM_0
 10
412.76387177332629
 20
57.832418179809672
 30
0.0
 70
    32
  0
VERTEX
  5
937C
  8
AM_0
 10
412.76887177332628
 20
57.832118179809648
 30
0.0
 70
    32
  0
VERTEX
  5
937D
  8
AM_0
 10
412.7728717733263
 20
57.831718179809741
 30
0.0
 70
    32
  0
VERTEX
  5
937E
  8
AM_0
 10
412.77687177332632
 20
57.831418179809717
 30
0.0
 70
    32
  0
VERTEX
  5
937F
  8
AM_0
 10
412.78187177332632
 20
57.831118179809678
 30
0.0
 70
    32
  0
VERTEX
  5
9380
  8
AM_0
 10
412.78587177332628
 20
57.830818179809739
 30
0.0
 70
    32
  0
VERTEX
  5
9381
  8
AM_0
 10
412.78987177332641
 20
57.830518179809701
 30
0.0
 70
    32
  0
VERTEX
  5
9382
  8
AM_0
 10
412.79487177332629
 20
57.830218179809677
 30
0.0
 70
    32
  0
VERTEX
  5
9383
  8
AM_0
 10
412.79887177332631
 20
57.829918179809738
 30
0.0
 70
    32
  0
VERTEX
  5
9384
  8
AM_0
 10
412.80287177332622
 20
57.829618179809707
 30
0.0
 70
    32
  0
VERTEX
  5
9385
  8
AM_0
 10
412.80787177332633
 20
57.829318179809668
 30
0.0
 70
    32
  0
VERTEX
  5
9386
  8
AM_0
 10
412.81187177332612
 20
57.829118179809818
 30
0.0
 70
    32
  0
VERTEX
  5
9387
  8
AM_0
 10
412.81587177332631
 20
57.82881817980968
 30
0.0
 70
    32
  0
VERTEX
  5
9388
  8
AM_0
 10
412.82087177332619
 20
57.828518179809763
 30
0.0
 70
    32
  0
VERTEX
  5
9389
  8
AM_0
 10
412.82487177332621
 20
57.828218179809831
 30
0.0
 70
    32
  0
VERTEX
  5
938A
  8
AM_0
 10
412.82887177332628
 20
57.828018179809419
 30
0.0
 70
    32
  0
VERTEX
  5
938B
  8
AM_0
 10
412.83387177332622
 20
57.827718179809722
 30
0.0
 70
    32
  0
VERTEX
  5
938C
  8
AM_0
 10
412.8378717733263
 20
57.827518179809651
 30
0.0
 70
    32
  0
VERTEX
  5
938D
  8
AM_0
 10
412.8418717733262
 20
57.827218179809741
 30
0.0
 70
    32
  0
VERTEX
  5
938E
  8
AM_0
 10
412.8468717733262
 20
57.82701817980967
 30
0.0
 70
    32
  0
VERTEX
  5
938F
  8
AM_0
 10
412.85087177332628
 20
57.826718179809752
 30
0.0
 70
    32
  0
VERTEX
  5
9390
  8
AM_0
 10
412.85487177332629
 20
57.826518179809682
 30
0.0
 70
    32
  0
VERTEX
  5
9391
  8
AM_0
 10
412.85987177332629
 20
57.826218179809423
 30
0.0
 70
    32
  0
VERTEX
  5
9392
  8
AM_0
 10
412.86387177332648
 20
57.826018179809701
 30
0.0
 70
    32
  0
VERTEX
  5
9393
  8
AM_0
 10
412.86787177332633
 20
57.825818179809751
 30
0.0
 70
    32
  0
VERTEX
  5
9394
  8
AM_0
 10
412.87287177332632
 20
57.825618179809688
 30
0.0
 70
    32
  0
VERTEX
  5
9395
  8
AM_0
 10
412.87687177332629
 20
57.825318179809422
 30
0.0
 70
    32
  0
VERTEX
  5
9396
  8
AM_0
 10
412.88087177332631
 20
57.825118179809706
 30
0.0
 70
    32
  0
VERTEX
  5
9397
  8
AM_0
 10
412.88587177332641
 20
57.82491817980975
 30
0.0
 70
    32
  0
VERTEX
  5
9398
  8
AM_0
 10
412.88987177332621
 20
57.824718179809693
 30
0.0
 70
    32
  0
VERTEX
  5
9399
  8
AM_0
 10
412.89387177332628
 20
57.824518179809722
 30
0.0
 70
    32
  0
VERTEX
  5
939A
  8
AM_0
 10
412.89887177332622
 20
57.824318179809673
 30
0.0
 70
    32
  0
VERTEX
  5
939B
  8
AM_0
 10
412.90287177332618
 20
57.824118179809602
 30
0.0
 70
    32
  0
VERTEX
  5
939C
  8
AM_0
 10
412.90687177332632
 20
57.82391817980966
 30
0.0
 70
    32
  0
VERTEX
  5
939D
  8
AM_0
 10
412.9118717733262
 20
57.823718179809809
 30
0.0
 70
    32
  0
VERTEX
  5
939E
  8
AM_0
 10
412.91587177332627
 20
57.823518179809412
 30
0.0
 70
    32
  0
VERTEX
  5
939F
  8
AM_0
 10
412.91987177332629
 20
57.823318179809711
 30
0.0
 70
    32
  0
VERTEX
  5
93A0
  8
AM_0
 10
412.92487177332629
 20
57.82311817980986
 30
0.0
 70
    32
  0
VERTEX
  5
93A1
  8
AM_0
 10
412.92887177332631
 20
57.82291817980969
 30
0.0
 70
    32
  0
VERTEX
  5
93A2
  8
AM_0
 10
412.93287177332633
 20
57.822818179809808
 30
0.0
 70
    32
  0
VERTEX
  5
93A3
  8
AM_0
 10
412.93787177332632
 20
57.82261817980941
 30
0.0
 70
    32
  0
VERTEX
  5
93A4
  8
AM_0
 10
412.94187177332628
 20
57.822418179809702
 30
0.0
 70
    32
  0
VERTEX
  5
93A5
  8
AM_0
 10
412.94687177332628
 20
57.82231817980972
 30
0.0
 70
    32
  0
VERTEX
  5
93A6
  8
AM_0
 10
412.9508717733263
 20
57.822118179809642
 30
0.0
 70
    32
  0
VERTEX
  5
93A7
  8
AM_0
 10
412.95487177332609
 20
57.821918179809821
 30
0.0
 70
    32
  0
VERTEX
  5
93A8
  8
AM_0
 10
412.95987177332631
 20
57.821818179809732
 30
0.0
 70
    32
  0
VERTEX
  5
93A9
  8
AM_0
 10
412.96387177332622
 20
57.821618179809647
 30
0.0
 70
    32
  0
VERTEX
  5
93AA
  8
AM_0
 10
412.96787177332612
 20
57.821518179809701
 30
0.0
 70
    32
  0
VERTEX
  5
93AB
  8
AM_0
 10
412.97287177332629
 20
57.821318179809751
 30
0.0
 70
    32
  0
VERTEX
  5
93AC
  8
AM_0
 10
412.97687177332631
 20
57.821218179809641
 30
0.0
 70
    32
  0
VERTEX
  5
93AD
  8
AM_0
 10
412.98087177332633
 20
57.821118179809673
 30
0.0
 70
    32
  0
VERTEX
  5
93AE
  8
AM_0
 10
412.98587177332621
 20
57.82091817980973
 30
0.0
 70
    32
  0
VERTEX
  5
93AF
  8
AM_0
 10
412.98987177332629
 20
57.820818179809287
 30
0.0
 70
    32
  0
VERTEX
  5
93B0
  8
AM_0
 10
412.99387177332642
 20
57.820718179809653
 30
0.0
 70
    32
  0
VERTEX
  5
93B1
  8
AM_0
 10
412.9988717733263
 20
57.820618179809678
 30
0.0
 70
    32
  0
VERTEX
  5
93B2
  8
AM_0
 10
413.00287177332632
 20
57.82051817980971
 30
0.0
 70
    32
  0
VERTEX
  5
93B3
  8
AM_0
 10
413.00687177332628
 20
57.820418179809742
 30
0.0
 70
    32
  0
VERTEX
  5
93B4
  8
AM_0
 10
413.01187177332628
 20
57.820218179809672
 30
0.0
 70
    32
  0
VERTEX
  5
93B5
  8
AM_0
 10
413.0158717733263
 20
57.820118179809818
 30
0.0
 70
    32
  0
VERTEX
  5
93B6
  8
AM_0
 10
413.01987177332632
 20
57.820018179809722
 30
0.0
 70
    32
  0
VERTEX
  5
93B7
  8
AM_0
 10
413.0248717733262
 20
57.819918179809846
 30
0.0
 70
    32
  0
VERTEX
  5
93B8
  8
AM_0
 10
413.02887177332627
 20
57.819918179809846
 30
0.0
 70
    32
  0
VERTEX
  5
93B9
  8
AM_0
 10
413.03287177332612
 20
57.819818179809658
 30
0.0
 70
    32
  0
VERTEX
  5
93BA
  8
AM_0
 10
413.03787177332629
 20
57.819718179809684
 30
0.0
 70
    32
  0
VERTEX
  5
93BB
  8
AM_0
 10
413.04187177332608
 20
57.819618179809602
 30
0.0
 70
    32
  0
VERTEX
  5
93BC
  8
AM_0
 10
413.04587177332633
 20
57.819518179809741
 30
0.0
 70
    32
  0
VERTEX
  5
93BD
  8
AM_0
 10
413.05087177332621
 20
57.819518179809741
 30
0.0
 70
    32
  0
VERTEX
  5
93BE
  8
AM_0
 10
413.05487177332628
 20
57.819418179809638
 30
0.0
 70
    32
  0
VERTEX
  5
93BF
  8
AM_0
 10
413.0588717733263
 20
57.819318179809677
 30
0.0
 70
    32
  0
VERTEX
  5
93C0
  8
AM_0
 10
413.0638717733263
 20
57.819318179809677
 30
0.0
 70
    32
  0
VERTEX
  5
93C1
  8
AM_0
 10
413.06787177332632
 20
57.819218179809702
 30
0.0
 70
    32
  0
VERTEX
  5
93C2
  8
AM_0
 10
413.07287177332609
 20
57.81911817980972
 30
0.0
 70
    32
  0
VERTEX
  5
93C3
  8
AM_0
 10
413.07687177332627
 20
57.81911817980972
 30
0.0
 70
    32
  0
VERTEX
  5
93C4
  8
AM_0
 10
413.08087177332629
 20
57.819018179809753
 30
0.0
 70
    32
  0
VERTEX
  5
93C5
  8
AM_0
 10
413.08587177332629
 20
57.819018179809753
 30
0.0
 70
    32
  0
VERTEX
  5
93C6
  8
AM_0
 10
413.08987177332642
 20
57.818918179809657
 30
0.0
 70
    32
  0
VERTEX
  5
93C7
  8
AM_0
 10
413.09387177332633
 20
57.818918179809657
 30
0.0
 70
    32
  0
VERTEX
  5
93C8
  8
AM_0
 10
413.09887177332632
 20
57.818818179809682
 30
0.0
 70
    32
  0
VERTEX
  5
93C9
  8
AM_0
 10
413.10287177332629
 20
57.818818179809682
 30
0.0
 70
    32
  0
VERTEX
  5
93CA
  8
AM_0
 10
413.1068717733263
 20
57.8187181798097
 30
0.0
 70
    32
  0
VERTEX
  5
93CB
  8
AM_0
 10
413.1118717733263
 20
57.8187181798097
 30
0.0
 70
    32
  0
VERTEX
  5
93CC
  8
AM_0
 10
413.11587177332632
 20
57.8187181798097
 30
0.0
 70
    32
  0
VERTEX
  5
93CD
  8
AM_0
 10
413.11987177332622
 20
57.818618179809853
 30
0.0
 70
    32
  0
VERTEX
  5
93CE
  8
AM_0
 10
413.12487177332628
 20
57.818618179809853
 30
0.0
 70
    32
  0
VERTEX
  5
93CF
  8
AM_0
 10
413.12887177332613
 20
57.818518179809637
 30
0.0
 70
    32
  0
VERTEX
  5
93D0
  8
AM_0
 10
413.1328717733262
 20
57.818518179809637
 30
0.0
 70
    32
  0
VERTEX
  5
93D1
  8
AM_0
 10
413.13787177332608
 20
57.818518179809637
 30
0.0
 70
    32
  0
VERTEX
  5
93D2
  8
AM_0
 10
413.14187177332627
 20
57.818418179809683
 30
0.0
 70
    32
  0
SEQEND
  5
93D3
  8
AM_0
  0
LINE
  5
93D4
  8
AM_0
 10
423.64191883840027
 20
57.818451857750013
 30
0.0
 11
413.14191883840022
 21
57.818451857750013
 31
0.0
  0
ARC
  5
93D5
  8
AM_0
 10
413.14191883840022
 20
50.04860337676724
 30
0.0
 40
2.5
 50
180.0
 51
270.0
  0
LINE
  5
93D6
  8
AM_0
 10
410.64191883840022
 20
45.948603376766521
 30
0.0
 11
410.64191883840022
 21
50.04860337676724
 31
0.0
  0
ARC
  5
93D7
  8
AM_0
 10
411.14191883840027
 20
45.948603376766748
 30
0.0
 40
0.5
 50
180.0
 51
270.0
  0
LINE
  5
93D8
  8
AM_0
 10
413.14191883840022
 20
47.548603376767218
 30
0.0
 11
422.1769188384003
 21
47.548603376767218
 31
0.0
  0
LINE
  5
93D9
  8
AM_0
 10
427.64191883840027
 20
105.94860337676511
 30
0.0
 11
427.64191883840027
 21
117.44860337676501
 31
0.0
  0
LINE
  5
93DA
  8
AM_0
 10
427.64191883840027
 20
117.4486033767665
 30
0.0
 11
427.64191883840027
 21
86.948603376766528
 31
0.0
  0
LINE
  5
93DB
  8
AM_0
 10
427.64191883840027
 20
75.948603376766528
 30
0.0
 11
427.64191883840027
 21
45.448603376766748
 31
0.0
  0
LINE
  5
93DC
  8
AM_0
 10
429.6419318384003
 20
105.94860337676511
 30
0.0
 11
427.64191883840027
 21
105.94860337676511
 31
0.0
  0
LINE
  5
93DD
  8
AM_0
 10
427.64191883840027
 20
45.448603376764929
 30
0.0
 11
427.64191883840027
 21
56.94860337676505
 31
0.0
  0
LINE
  5
93DE
  8
AM_0
 10
430.40184487290782
 20
56.94860337676505
 30
0.0
 11
427.64191883840027
 21
56.94860337676505
 31
0.0
  0
LINE
  5
93E2
  8
AM_0
 10
14.30844687675949
 20
49.778587376766822
 30
0.0
 11
14.30844687675949
 21
115.9785733767669
 31
0.0
  0
LINE
  5
93E3
  8
AM_0
 10
16.808436876759451
 20
57.468592376767099
 30
0.0
 11
16.808436876759451
 21
138.4486183767668
 31
0.0
  0
LINE
  5
93E4
  8
AM_0
 10
64.308456876759578
 20
138.4486183767668
 30
0.0
 11
64.308456876759578
 21
24.44860037676699
 31
0.0
  0
ARC
  5
93E5
  8
AM_0
 10
8.0188268767594746
 20
32.147545376767077
 30
0.0
 40
0.30119199
 50
5.9148297999953741
 51
88.175987000000191
  0
ARC
  5
93E6
  8
AM_0
 10
8.0202968767594598
 20
32.146249376766718
 30
0.0
 40
0.8023920299999998
 50
5.8908350000000436
 51
89.417558000000113
  0
LINE
  5
93E7
  8
AM_0
 10
7.808436876759683
 20
32.948587376766909
 30
0.0
 11
7.808436876759683
 21
32.448601376766987
 31
0.0
  0
LINE
  5
93E8
  8
AM_0
 10
7.808436876759683
 20
32.948587376766909
 30
0.0
 11
8.028486876759473
 21
32.948587376766909
 31
0.0
  0
LINE
  5
93E9
  8
AM_0
 10
23.388456876759498
 20
77.728600376766863
 30
0.0
 11
8.9284568767592951
 21
33.218590376766649
 31
0.0
  0
LINE
  5
93EA
  8
AM_0
 10
28.148406876759449
 20
76.188592376766906
 30
0.0
 11
13.6884668767596
 21
31.678597376766891
 31
0.0
  0
LINE
  5
93EB
  8
AM_0
 10
16.808436876759451
 20
37.558588376766693
 30
0.0
 11
64.308456876759578
 21
37.558588376766693
 31
0.0
  0
LINE
  5
93EC
  8
AM_0
 10
16.308456876759571
 20
24.44860037676699
 30
0.0
 11
64.308456876759578
 21
24.44860037676699
 31
0.0
  0
ARC
  5
93ED
  8
AM_0
 10
11.30844687675949
 20
32.448601376766987
 30
0.0
 40
2.5014601500000002
 50
162.07207999999801
 51
342.07206999999869
  0
LINE
  5
93EE
  8
AM_0
 10
14.30844687675949
 20
33.598594376766748
 30
0.0
 11
14.30844687675949
 21
26.448601376767211
 31
0.0
  0
ARC
  5
93EF
  8
AM_0
 10
11.307396876759469
 20
32.447059376766909
 30
0.0
 40
3.001016099999998
 50
185.13260000000409
 51
0.0291460009999036
  0
ARC
  5
93F0
  8
AM_0
 10
16.30617687675959
 20
26.4462823767667
 30
0.0
 40
1.9976960999999991
 50
179.9338299999965
 51
270.06616999999687
  0
ARC
  5
93F1
  8
AM_0
 10
14.357166876759489
 20
43.948510376767217
 30
0.0
 40
4.0507442999999981
 50
99.071790999998854
 51
224.91234000000031
  0
LINE
  5
93F2
  8
AM_0
 10
16.808436876759451
 20
41.288584376766707
 30
0.0
 11
16.808436876759451
 21
24.44860037676699
 31
0.0
  0
ARC
  5
93F3
  8
AM_0
 10
47.307966876759451
 20
81.448390376766838
 30
0.0
 40
8.000195699999999
 50
89.996300999997729
 51
161.78902999999599
  0
ARC
  5
93F4
  8
AM_0
 10
47.306016876759493
 20
81.446161376766895
 30
0.0
 40
7.9975721999999978
 50
198.1973499999981
 51
270.0173099999991
  0
LINE
  5
93F5
  8
AM_0
 10
31.958406876759451
 20
83.948572376766805
 30
0.0
 11
41.80845687675945
 21
83.948572376766805
 31
0.0
  0
LINE
  5
93F6
  8
AM_0
 10
31.958406876759451
 20
78.948604376766866
 30
0.0
 11
41.80845687675945
 21
78.948604376766866
 31
0.0
  0
ARC
  5
93F7
  8
AM_0
 10
31.95621687675947
 20
74.951503376766809
 30
0.0
 40
8.9970875999999986
 50
89.985774999998554
 51
162.0211999999965
  0
ARC
  5
93F8
  8
AM_0
 10
31.951686876759432
 20
74.948206376766848
 30
0.0
 40
4.0003919999999971
 50
89.903054999997906
 51
161.93679000000009
  0
LINE
  5
93F9
  8
ﾁｭｳｼﾝｾﾝ
 10
47.30844687675949
 20
69.238605376766984
 30
0.0
 11
47.30844687675949
 21
93.658601376767194
 31
0.0
  0
LINE
  5
93FA
  8
AM_0
 10
47.30844687675949
 20
73.448572376766819
 30
0.0
 11
64.308456876759578
 21
73.448572376766819
 31
0.0
  0
LINE
  5
93FB
  8
AM_0
 10
47.30844687675949
 20
89.448604376767108
 30
0.0
 11
64.308456876759578
 21
89.448604376767108
 31
0.0
  0
ARC
  5
93FC
  8
AM_0
 10
47.30844687675949
 20
81.446590376766821
 30
0.0
 40
4.998440399999998
 50
23.61099900000109
 51
156.38900000000541
  0
ARC
  5
93FD
  8
AM_0
 10
47.30844687675949
 20
81.446590376766821
 30
0.0
 40
4.9968401999999967
 50
203.56897999999919
 51
336.43102000000079
  0
LINE
  5
93FE
  8
AM_0
 10
41.80845687675945
 20
83.448604376766866
 30
0.0
 11
52.808436876759473
 21
83.448604376766866
 31
0.0
  0
LINE
  5
93FF
  8
AM_0
 10
41.80845687675945
 20
79.448572376766819
 30
0.0
 11
52.808436876759473
 21
79.448572376766819
 31
0.0
  0
LINE
  5
9400
  8
AM_0
 10
41.80845687675945
 20
78.948604376766866
 30
0.0
 11
41.80845687675945
 21
83.948572376766805
 31
0.0
  0
LINE
  5
9401
  8
AM_0
 10
55.308456876759458
 20
78.948604376766866
 30
0.0
 11
55.308456876759458
 21
83.948572376766805
 31
0.0
  0
LINE
  5
9402
  8
AM_0
 10
52.808436876759473
 20
78.948604376766866
 30
0.0
 11
52.808436876759473
 21
83.948572376766805
 31
0.0
  0
LINE
  5
9403
  8
AM_0
 10
52.808436876759473
 20
83.948572376766805
 30
0.0
 11
55.308456876759458
 21
83.948572376766805
 31
0.0
  0
LINE
  5
9404
  8
AM_0
 10
52.808436876759473
 20
78.948604376766866
 30
0.0
 11
55.308456876759458
 21
78.948604376766866
 31
0.0
  0
LINE
  5
9405
  8
AM_0
 10
16.808436876759451
 20
125.33858837676731
 30
0.0
 11
64.308456876759578
 21
125.33858837676731
 31
0.0
  0
LINE
  5
9406
  8
AM_0
 10
16.808436876759451
 20
115.0885873767666
 30
0.0
 11
59.30844687675949
 21
115.0885873767666
 31
0.0
  0
LINE
  5
9407
  8
AM_0
 10
16.308456876759571
 20
138.4486183767668
 30
0.0
 11
64.308456876759578
 21
138.4486183767668
 31
0.0
  0
LINE
  5
9408
  8
AM_0
 10
15.50844687675947
 20
115.7386123767668
 30
0.0
 11
15.50844687675947
 21
124.93859837676681
 31
0.0
  0
LINE
  5
9409
  8
AM_0
 10
12.2084768767595
 20
118.8385783767669
 30
0.0
 11
12.2084768767595
 21
121.8385783767669
 31
0.0
  0
LINE
  5
940A
  8
AM_0
 10
15.50844687675947
 20
115.7386123767668
 30
0.0
 11
16.808436876759451
 21
115.7386123767668
 31
0.0
  0
ARC
  5
940B
  8
AM_0
 10
15.20412687675991
 20
118.8387583767669
 30
0.0
 40
2.9956880400000001
 50
180.0036399999974
 51
275.83037000000309
  0
LINE
  5
940C
  8
AM_0
 10
14.30844687675949
 20
124.7085883767669
 30
0.0
 11
14.30844687675949
 21
136.44857837676679
 31
0.0
  0
LINE
  5
940D
  8
AM_0
 10
15.50844687675947
 20
124.93859837676681
 30
0.0
 11
16.808436876759451
 21
124.93859837676681
 31
0.0
  0
ARC
  5
940E
  8
AM_0
 10
15.210126876759601
 20
121.8417883767668
 30
0.0
 40
3.0016479
 50
84.295613000003087
 51
180.06134999999779
  0
ARC
  5
940F
  8
AM_0
 10
16.307946876759502
 20
136.4490883767667
 30
0.0
 40
1.9994960399999999
 50
89.985542999997904
 51
180.0144599999999
  0
LINE
  5
9410
  8
AM_0
 10
59.30844687675949
 20
89.448604376767108
 30
0.0
 11
59.30844687675949
 21
138.4486183767668
 31
0.0
  0
LINE
  5
9411
  8
AM_0
 10
59.30844687675949
 20
37.558588376766693
 30
0.0
 11
59.30844687675949
 21
24.44860037676699
 31
0.0
  0
ARC
  5
9414
  8
ﾁｭｳｼﾝｾﾝ
 10
514.64191883840033
 20
101.44858937676661
 30
0.0
 40
100.0000109999999
 50
128.69427394766919
 51
141.30570660550441
  0
LINE
  5
9415
  8
ﾁｭｳｼﾝｾﾝ
 10
436.15305274534973
 20
179.93747046981741
 30
0.0
 11
451.70940193145111
 21
164.38112128371569
 31
0.0
  0
ARC
  5
9416
  8
ﾁｭｳｼﾝｾﾝ
 10
514.64191883840044
 20
101.44858937676671
 30
0.0
 40
100.0000109999999
 50
218.69427394766919
 51
231.30570660550441
  0
LINE
  5
9417
  8
ﾁｭｳｼﾝｾﾝ
 10
436.15303774534971
 20
22.959723283716041
 30
0.0
 11
451.70938693145121
 21
38.516072469817317
 31
0.0
  0
ARC
  5
9418
  8
ﾁｭｳｼﾝｾﾝ
 10
514.64191883840033
 20
101.44858937676661
 30
0.0
 40
100.0000109999999
 50
308.6942739476691
 51
321.30570660550438
  0
LINE
  5
9419
  8
ﾁｭｳｼﾝｾﾝ
 10
593.13078493145076
 20
22.95970828371582
 30
0.0
 11
577.57443574534955
 21
38.51605746981749
 31
0.0
  0
LINE
  5
9676
  8
ﾁｭｳｼﾝｾﾝ
 10
4.6162815241345907
 20
335.58072240828909
 30
0.0
 11
339.52809687675932
 21
335.58072240828909
 31
0.0
  0
LINE
  5
97A5
  8
AM_0
 10
290.30843687675929
 20
405.58072240828892
 30
0.0
 11
290.30843687675929
 21
265.58072240828909
 31
0.0
  0
LINE
  5
97A6
  8
AM_0
 10
280.30840687675948
 20
268.79937240828912
 30
0.0
 11
280.30840687675948
 21
402.36206240828898
 31
0.0
  0
LINE
  5
97A7
  8
AM_0
 10
286.30840687675931
 20
250.58072240828901
 30
0.0
 11
286.30840687675931
 21
420.58075240828902
 31
0.0
  0
LINE
  5
97A8
  8
AM_0
 10
258.30840687675948
 20
405.96969240828889
 30
0.0
 11
258.30840687675948
 21
265.19174240828909
 31
0.0
  0
LINE
  5
97A9
  8
AM_0
 10
226.30840687675931
 20
406.58072240828898
 30
0.0
 11
226.30840687675931
 21
264.58072240828898
 31
0.0
  0
LINE
  5
97AA
  8
AM_0
 10
291.30840687675919
 20
310.04638240828911
 30
0.0
 11
291.30840687675919
 21
361.11502240828889
 31
0.0
  0
LINE
  5
97AB
  8
AM_0
 10
333.30840687675919
 20
347.58072240828909
 30
0.0
 11
333.30840687675919
 21
323.58072240828909
 31
0.0
  0
LINE
  5
97AC
  8
AM_0
 10
293.30837687675933
 20
348.08069240828911
 30
0.0
 11
293.30837687675933
 21
323.08075240828907
 31
0.0
  0
LINE
  5
97AF
  8
AM_0
 10
188.3084368767594
 20
279.58072240828898
 30
0.0
 11
188.3084368767594
 21
391.58072240828898
 31
0.0
  0
LINE
  5
97B0
  8
AM_0
 10
219.3084368767594
 20
266.71234240828909
 30
0.0
 11
219.3084368767594
 21
404.44909240828912
 31
0.0
  0
LINE
  5
97B1
  8
AM_0
 10
257.33199687675932
 20
263.76831240828909
 30
0.0
 11
226.30840687675931
 21
264.580692408289
 31
0.0
  0
LINE
  5
981A
  8
AM_0
 10
214.30840687675919
 20
272.3694424082891
 30
0.0
 11
214.30840687675919
 21
287.58041240828908
 31
0.0
  0
LINE
  5
981B
  8
AM_0
 10
214.3084368767592
 20
278.89987240828913
 30
0.0
 11
188.3084668767593
 21
279.58072240828898
 31
0.0
  0
LINE
  5
981C
  8
AM_0
 10
226.30843687675929
 20
264.580692408289
 30
0.0
 11
221.2560968767593
 21
264.71301240828888
 31
0.0
  0
ARC
  5
981D
  8
AM_0
 10
216.30840687675919
 20
272.3694424082891
 30
0.0
 40
2.0
 50
180.00001000000091
 51
270.0
  0
ARC
  5
981E
  8
AM_0
 10
217.3084368767594
 20
268.3694424082891
 30
0.0
 40
2.0
 50
0.0
 51
90.000003000000945
  0
ARC
  5
981F
  8
AM_0
 10
221.3084368767594
 20
266.71234240828909
 30
0.0
 40
2.0
 50
180.00001000000091
 51
268.5000000000004
  0
LINE
  5
9820
  8
AM_0
 10
216.30840687675919
 20
270.3694424082891
 30
0.0
 11
217.3084368767594
 21
270.3694424082891
 31
0.0
  0
LINE
  5
9821
  8
AM_0
 10
188.3084368767594
 20
303.64078240828911
 30
0.0
 11
219.3084368767594
 21
303.64078240828911
 31
0.0
  0
LINE
  5
9822
  8
AM_0
 10
188.3084368767594
 20
289.58041240828908
 30
0.0
 11
219.3084368767594
 21
289.58041240828908
 31
0.0
  0
ARC
  5
9823
  8
AM_0
 10
212.30840687675919
 20
287.58041240828908
 30
0.0
 40
2.0
 50
0.0
 51
90.000003000000945
  0
LINE
  5
9824
  8
AM_0
 10
286.30840687675931
 20
265.58072240828909
 30
0.0
 11
290.30843687675929
 21
265.58072240828909
 31
0.0
  0
ARC
  5
9825
  8
AM_0
 10
263.30840687675931
 20
285.4527924082891
 30
0.0
 40
5.0
 50
179.99998999999889
 51
239.431710000001
  0
ARC
  5
9826
  8
AM_0
 10
263.30840687675931
 20
288.9370424082889
 30
0.0
 40
5.0
 50
179.99998999999889
 51
239.431710000001
  0
LINE
  5
9827
  8
AM_0
 10
273.85124687675932
 20
276.9028624082892
 30
0.0
 11
260.7656168767594
 21
284.6318924082891
 31
0.0
  0
LINE
  5
9828
  8
AM_0
 10
276.30840687675931
 20
293.62906240828897
 30
0.0
 11
276.30840687675931
 21
252.86133240828909
 31
0.0
  0
LINE
  5
9829
  8
AM_0
 10
273.85124687675932
 20
273.41861240828911
 30
0.0
 11
260.7655868767593
 21
281.14770240828898
 31
0.0
  0
LINE
  5
982A
  8
AM_0
 10
261.22991687675932
 20
262.19278240828919
 30
0.0
 11
273.38695687675931
 21
261.87445240828907
 31
0.0
  0
ARC
  5
982B
  8
AM_0
 10
261.30840687675931
 20
265.19174240828909
 30
0.0
 40
3.0
 50
179.99998999999889
 51
268.50000999999872
  0
ARC
  5
982C
  8
AM_0
 10
257.25347687675918
 20
260.76935240828902
 30
0.0
 40
3.0
 50
47.481952000001627
 51
88.499997000000747
  0
ARC
  5
982D
  8
AM_0
 10
273.30840687675931
 20
258.8754624082892
 30
0.0
 40
3.0
 50
0.0
 51
88.499997000000747
  0
LINE
  5
982E
  8
AM_0
 10
278.23860687675932
 20
250.8625224082891
 30
0.0
 11
286.30837687675938
 21
250.58072240828901
 31
0.0
  0
ARC
  5
982F
  8
AM_0
 10
278.30843687675929
 20
252.86133240828909
 30
0.0
 40
2.0
 50
179.99998999999889
 51
268.00000999999861
  0
ARC
  5
9830
  8
AM_0
 10
271.30840687675931
 20
272.59775240828918
 30
0.0
 40
5.0
 50
0.0
 51
59.431709000000481
  0
ARC
  5
9831
  8
AM_0
 10
271.30840687675931
 20
269.11349240828912
 30
0.0
 40
5.0
 50
0.0
 51
59.431709000000481
  0
ARC
  5
9832
  8
AM_0
 10
277.30840687675931
 20
268.79937240828912
 30
0.0
 40
3.0
 50
270.0
 51
0.0
  0
LINE
  5
9833
  8
AM_0
 10
259.30840687675948
 20
287.88260240828907
 30
0.0
 11
274.30840687675948
 21
287.88260240828907
 31
0.0
  0
ARC
  5
9834
  8
AM_0
 10
259.30840687675948
 20
288.88260240828919
 30
0.0
 40
1.0
 50
179.99998999999889
 51
270.0
  0
ARC
  5
9835
  8
AM_0
 10
274.30840687675948
 20
285.88260240828907
 30
0.0
 40
2.0
 50
0.0
 51
90.000003000000945
  0
ARC
  5
9836
  8
AM_0
 10
279.30840687675931
 20
293.62906240828897
 30
0.0
 40
3.0
 50
90.000003000000945
 51
180.00001000000091
  0
LINE
  5
9837
  8
AM_0
 10
293.30837687675933
 20
323.58072240828909
 30
0.0
 11
333.30840687675919
 21
323.58072240828909
 31
0.0
  0
ARC
  5
9838
  8
AM_0
 10
290.30840687675931
 20
310.04638240828911
 30
0.0
 40
1.0
 50
272.0000000000004
 51
0.0
  0
LINE
  5
9839
  8
AM_0
 10
290.30843687675929
 20
309.04580240828909
 30
0.0
 11
290.34331687675927
 21
309.04703240828911
 31
0.0
  0
LINE
  5
983A
  8
AM_0
 10
291.30840687675919
 20
323.08075240828907
 30
0.0
 11
293.30837687675933
 21
323.08075240828907
 31
0.0
  0
LINE
  5
983B
  8
AM_0
 10
257.33202687675919
 20
407.39309240828902
 30
0.0
 11
226.30840687675931
 21
406.58072240828898
 31
0.0
  0
ARC
  5
983C
  8
AM_0
 10
221.3084368767594
 20
404.44909240828912
 30
0.0
 40
2.0
 50
91.500001000001546
 51
180.00001000000091
  0
LINE
  5
9863
  8
AM_0
 10
188.3084368767594
 20
367.52066240828913
 30
0.0
 11
219.3084368767594
 21
367.52066240828913
 31
0.0
  0
LINE
  5
9864
  8
AM_0
 10
188.3084368767594
 20
381.5810224082889
 30
0.0
 11
219.3084368767594
 21
381.5810224082889
 31
0.0
  0
LINE
  5
9865
  8
AM_0
 10
214.3084368767592
 20
392.2615324082891
 30
0.0
 11
188.3084668767593
 21
391.58072240828898
 31
0.0
  0
LINE
  5
9866
  8
AM_0
 10
214.30840687675919
 20
398.79202240828897
 30
0.0
 11
214.30840687675919
 21
383.5810224082889
 31
0.0
  0
ARC
  5
9867
  8
AM_0
 10
212.30840687675919
 20
383.5810224082889
 30
0.0
 40
2.0
 50
270.0
 51
0.0
  0
ARC
  5
9868
  8
AM_0
 10
216.30840687675919
 20
398.79202240828897
 30
0.0
 40
2.0
 50
90.000003000000945
 51
180.00001000000091
  0
ARC
  5
9869
  8
AM_0
 10
217.3084368767594
 20
402.79202240828891
 30
0.0
 40
2.0
 50
270.0
 51
0.0
  0
LINE
  5
986A
  8
AM_0
 10
216.30840687675919
 20
400.79202240828897
 30
0.0
 11
217.3084368767594
 21
400.79202240828897
 31
0.0
  0
LINE
  5
986B
  8
AM_0
 10
226.30840687675931
 20
406.58072240828898
 30
0.0
 11
221.2560968767593
 21
406.4484224082891
 31
0.0
  0
ARC
  5
986C
  8
AM_0
 10
277.30840687675931
 20
402.36206240828898
 30
0.0
 40
3.0
 50
0.0
 51
90.000003000000945
  0
LINE
  5
986D
  8
AM_0
 10
276.30840687675931
 20
377.5323824082891
 30
0.0
 11
276.30840687675931
 21
418.30011240828912
 31
0.0
  0
LINE
  5
986E
  8
AM_0
 10
273.85124687675932
 20
397.74280240828898
 30
0.0
 11
260.7656168767594
 21
390.01373240828912
 31
0.0
  0
LINE
  5
986F
  8
AM_0
 10
273.85124687675932
 20
394.2585724082889
 30
0.0
 11
260.7656168767594
 21
386.52951240828912
 31
0.0
  0
LINE
  5
9870
  8
AM_0
 10
259.30840687675948
 20
383.27884240828911
 30
0.0
 11
274.30840687675948
 21
383.27884240828911
 31
0.0
  0
ARC
  5
9871
  8
AM_0
 10
263.30840687675931
 20
382.22439240828902
 30
0.0
 40
5.0
 50
120.5682899999989
 51
180.00001000000091
  0
ARC
  5
9872
  8
AM_0
 10
259.30840687675948
 20
382.27884240828911
 30
0.0
 40
1.0
 50
90.000003000000945
 51
180.00001000000091
  0
ARC
  5
9873
  8
AM_0
 10
263.30840687675931
 20
385.70865240828903
 30
0.0
 40
5.0
 50
120.5682899999989
 51
180.00001000000091
  0
ARC
  5
9874
  8
AM_0
 10
274.30840687675948
 20
385.27884240828911
 30
0.0
 40
2.0
 50
270.0
 51
0.0
  0
ARC
  5
9875
  8
AM_0
 10
279.30840687675931
 20
377.5323824082891
 30
0.0
 40
3.0
 50
179.99998999999889
 51
270.0
  0
ARC
  5
9876
  8
AM_0
 10
271.30840687675931
 20
402.04794240828898
 30
0.0
 40
5.0
 50
300.56828999999891
 51
0.0
  0
ARC
  5
9877
  8
AM_0
 10
271.30840687675931
 20
398.56369240828911
 30
0.0
 40
5.0
 50
300.56828999999891
 51
0.0
  0
LINE
  5
9878
  8
AM_0
 10
301.30840687675931
 20
331.58072240828909
 30
0.0
 11
333.30840687675919
 21
331.58072240828909
 31
0.0
  0
LINE
  5
9879
  8
AM_0
 10
293.30837687675933
 20
347.58072240828909
 30
0.0
 11
333.30840687675919
 21
347.58072240828909
 31
0.0
  0
LINE
  5
987A
  8
AM_0
 10
301.30840687675931
 20
339.58069240828911
 30
0.0
 11
333.30840687675919
 21
339.58069240828911
 31
0.0
  0
ARC
  5
987B
  8
AM_0
 10
301.30840687675931
 20
335.58069240828911
 30
0.0
 40
3.9999962
 50
90.000003000000945
 51
270.0
  0
LINE
  5
987C
  8
AM_0
 10
301.30840687675931
 20
339.58069240828911
 30
0.0
 11
301.30840687675931
 21
331.58072240828909
 31
0.0
  0
LINE
  5
987D
  8
AM_0
 10
291.30840687675919
 20
348.08069240828911
 30
0.0
 11
293.30837687675933
 21
348.08069240828911
 31
0.0
  0
ARC
  5
987E
  8
AM_0
 10
290.30840687675931
 20
361.11502240828889
 30
0.0
 40
1.0
 50
0.0
 51
87.999999999999659
  0
LINE
  5
987F
  8
AM_0
 10
290.30843687675929
 20
362.11563240828912
 30
0.0
 11
290.34328687675929
 21
362.11441240828918
 31
0.0
  0
LINE
  5
9880
  8
AM_0
 10
286.30840687675931
 20
405.58072240828892
 30
0.0
 11
290.30843687675929
 21
405.58072240828892
 31
0.0
  0
LINE
  5
9881
  8
AM_0
 10
261.22988687675928
 20
408.96866240828911
 30
0.0
 11
273.38692687675928
 21
409.28702240828898
 31
0.0
  0
ARC
  5
9882
  8
AM_0
 10
261.30840687675931
 20
405.96969240828889
 30
0.0
 40
3.0
 50
91.500001000001546
 51
180.00001000000091
  0
ARC
  5
9883
  8
AM_0
 10
257.25347687675918
 20
410.39206240828912
 30
0.0
 40
3.0
 50
271.49999999999937
 51
312.51811999999887
  0
ARC
  5
9884
  8
AM_0
 10
273.30840687675931
 20
412.28598240828887
 30
0.0
 40
3.0
 50
271.49999999999937
 51
0.0
  0
LINE
  5
9885
  8
AM_0
 10
278.2385768767594
 20
420.29895240828921
 30
0.0
 11
286.30840687675931
 21
420.58075240828902
 31
0.0
  0
ARC
  5
9886
  8
AM_0
 10
278.30843687675929
 20
418.30011240828912
 30
0.0
 40
2.0
 50
91.999998000000545
 51
180.00001000000091
  0
LINE
  5
9A51
  8
AM_0
 10
180.3084368767594
 20
391.58072240828898
 30
0.0
 11
180.3084368767594
 21
279.58072240828909
 31
0.0
  0
LINE
  5
9A52
  8
AM_0
 10
16.808436876759451
 20
282.79873240828908
 30
0.0
 11
16.808436876759451
 21
388.33072240828898
 31
0.0
  0
LINE
  5
9A53
  8
AM_0
 10
13.807006776759399
 20
370.31918350399633
 30
0.0
 11
13.807006776759399
 21
300.84226131258168
 31
0.0
  0
LINE
  5
9A54
  8
AM_0
 10
14.308436876759449
 20
301.05166240828908
 30
0.0
 11
14.308436876759449
 21
370.10977240828919
 31
0.0
  0
LINE
  5
9A55
  8
AM_0
 10
8.8070067767594082
 20
391.58072240828898
 30
0.0
 11
8.8070067767594082
 21
279.58072240828909
 31
0.0
  0
LINE
  5
9A56
  8
AM_0
 10
59.308436876759451
 20
298.39566240828918
 30
0.0
 11
59.308436876759451
 21
372.76675240828911
 31
0.0
  0
LINE
  5
9A57
  8
AM_0
 10
72.308436876759458
 20
388.58072240828898
 30
0.0
 11
72.308436876759458
 21
282.58072240828909
 31
0.0
  0
LINE
  5
9A58
  8
AM_0
 10
64.30843687675943
 20
394.33072240828898
 30
0.0
 11
64.30843687675943
 21
276.83072240828909
 31
0.0
  0
POLYLINE
  5
9A59
  8
AM_0
 66
     1
 10
0.0
 20
0.0
 30
0.0
  0
VERTEX
  5
9A5A
  8
AM_0
 10
74.712486876759414
 20
329.31033240828918
 30
0.0
 42
0.00076695235
  0
VERTEX
  5
9A5B
  8
AM_0
 10
74.727286876759351
 20
328.6925724082891
 30
0.0
 42
0.00073263043
  0
VERTEX
  5
9A5C
  8
AM_0
 10
74.743926876759389
 20
328.07497240828911
 30
0.0
 42
0.00076525988
  0
VERTEX
  5
9A5D
  8
AM_0
 10
74.762416876759346
 20
327.45730240828908
 30
0.0
 42
0.00075144488
  0
VERTEX
  5
9A5E
  8
AM_0
 10
74.782786876759403
 20
326.8397024082891
 30
0.0
 42
0.00076035096
  0
VERTEX
  5
9A5F
  8
AM_0
 10
74.805026876759428
 20
326.2222724082892
 30
0.0
 42
0.00075543154
  0
VERTEX
  5
9A60
  8
AM_0
 10
74.829126876759389
 20
325.604892408289
 30
0.0
 42
0.0007577325
  0
VERTEX
  5
9A61
  8
AM_0
 10
74.855106876759379
 20
324.9874924082892
 30
0.0
 42
0.00076034585
  0
VERTEX
  5
9A62
  8
AM_0
 10
74.882956876759451
 20
324.37010240828897
 30
0.0
 42
0.00074823143
  0
VERTEX
  5
9A63
  8
AM_0
 10
74.912686876759423
 20
323.7527124082892
 30
0.0
 42
0.00074896605
  0
VERTEX
  5
9A64
  8
AM_0
 10
74.944246876759323
 20
323.13558240828911
 30
0.0
 42
0.00076039763
  0
VERTEX
  5
9A65
  8
AM_0
 10
74.977666876759429
 20
322.51855240828922
 30
0.0
 42
0.00075616127
  0
VERTEX
  5
9A66
  8
AM_0
 10
75.012966876759421
 20
321.90152240828911
 30
0.0
  0
SEQEND
  5
9A67
  8
AM_0
  0
ARC
  5
9A68
  8
AM_0
 10
74.853056876759453
 20
320.58072240828909
 30
0.0
 40
1.000013899999999
 50
89.691659999999231
 51
270.30834000000078
  0
ARC
  5
9A69
  8
AM_0
 10
74.853056876759453
 20
310.58072240828909
 30
0.0
 40
1.000013899999999
 50
89.691659999999231
 51
270.30834000000078
  0
ARC
  5
9A6A
  8
AM_0
 10
74.853056876759453
 20
300.58072240828909
 30
0.0
 40
1.000013899999999
 50
89.691659999999231
 51
270.30834000000078
  0
ARC
  5
9A6B
  8
AM_0
 10
73.981596876759383
 20
300.5356724082892
 30
0.0
 40
1.675014
 50
89.766498999996756
 51
270.2335099999994
  0
ARC
  5
9A6C
  8
AM_0
 10
75.214686876759458
 20
278.45071240828918
 30
0.0
 40
2.0
 50
187.9504400000034
 51
269.999989999999
  0
ARC
  5
9A6D
  8
AM_0
 10
75.295066876759449
 20
278.45071240828918
 30
0.0
 40
2.0
 50
188.62962000000411
 51
269.999989999999
  0
ARC
  5
9A6E
  8
AM_0
 10
75.564606876759456
 20
278.4510824082891
 30
0.0
 40
2.000420099999999
 50
188.9268200000015
 51
269.82270999999599
  0
ARC
  5
9A6F
  8
AM_0
 10
75.513276876759448
 20
281.2999624082891
 30
0.0
 40
1.9992490000000001
 50
190.643100000001
 51
270.14743000000129
  0
LINE
  5
9A70
  8
AM_0
 10
77.668426876759483
 20
298.93072240828911
 30
0.0
 11
72.308436876759458
 21
287.49072240828917
 31
0.0
  0
LINE
  5
9A71
  8
AM_0
 10
73.76845687675943
 20
312.02066240828918
 30
0.0
 11
177.34267687675941
 21
312.02066240828918
 31
0.0
  0
LINE
  5
9A72
  8
AM_0
 10
73.76845687675943
 20
309.09073240828911
 30
0.0
 11
141.30843687675929
 21
309.09073240828911
 31
0.0
  0
LINE
  5
9A73
  8
AM_0
 10
73.638456876759449
 20
321.90066240828918
 30
0.0
 11
109.96712687675939
 21
321.90066240828918
 31
0.0
  0
LINE
  5
9A74
  8
AM_0
 10
73.638456876759449
 20
319.2407524082891
 30
0.0
 11
109.97970687675929
 21
319.2407524082891
 31
0.0
  0
ARC
  5
9A75
  8
AM_0
 10
17.80700677675939
 20
279.58072240828909
 30
0.0
 40
9.0
 50
179.99997999999781
 51
269.99995000000138
  0
LINE
  5
9A76
  8
AM_0
 10
72.308436876759458
 20
284.80072240828912
 30
0.0
 11
73.233916876759451
 21
278.17410240828912
 31
0.0
  0
LINE
  5
9A77
  8
AM_0
 10
72.308436876759458
 20
284.80066240828887
 30
0.0
 11
73.317656876759486
 21
278.15063240828908
 31
0.0
  0
LINE
  5
9A78
  8
AM_0
 10
72.308436876759458
 20
286.1406524082891
 30
0.0
 11
73.588406876759393
 21
278.14071240828912
 31
0.0
  0
LINE
  5
9A79
  8
AM_0
 10
39.308436876759451
 20
276.83072240828909
 30
0.0
 11
39.308436876759451
 21
282.83072240828909
 31
0.0
  0
ARC
  5
9A7A
  8
AM_0
 10
18.807006776759401
 20
280.58072240828909
 30
0.0
 40
5.0
 50
179.99997999999781
 51
269.99995000000138
  0
LINE
  5
9A7B
  8
AM_0
 10
18.807006776759401
 20
275.58072240828909
 30
0.0
 11
42.308436876759451
 21
275.58072240828909
 31
0.0
  0
LINE
  5
9A7C
  8
AM_0
 10
17.80700677675939
 20
270.58072240828909
 30
0.0
 11
55.308436876759473
 21
270.58072240828909
 31
0.0
  0
LINE
  5
9A7D
  8
AM_0
 10
39.308436876759451
 20
276.83072240828909
 30
0.0
 11
64.30843687675943
 21
276.83072240828909
 31
0.0
  0
LINE
  5
9A7E
  8
AM_0
 10
42.308436876759451
 20
276.83072240828909
 30
0.0
 11
42.308436876759451
 21
270.58072240828909
 31
0.0
  0
LINE
  5
9A7F
  8
AM_0
 10
55.308436876759473
 20
275.58072240828909
 30
0.0
 11
55.308436876759473
 21
270.58072240828909
 31
0.0
  0
LINE
  5
9A80
  8
AM_0
 10
52.308436876759458
 20
276.83072240828909
 30
0.0
 11
52.308436876759458
 21
270.58072240828909
 31
0.0
  0
LINE
  5
9A81
  8
AM_0
 10
52.308436876759458
 20
275.58072240828909
 30
0.0
 11
55.308436876759473
 21
275.58072240828909
 31
0.0
  0
LINE
  5
9A82
  8
AM_0
 10
16.808436876759451
 20
291.68973240828888
 30
0.0
 11
59.308436876759451
 21
291.68973240828888
 31
0.0
  0
LINE
  5
9A83
  8
AM_0
 10
16.808436876759451
 20
301.93973240828888
 30
0.0
 11
59.308436876759451
 21
301.93973240828888
 31
0.0
  0
LINE
  5
9A84
  8
AM_0
 10
16.308436876759458
 20
282.83072240828909
 30
0.0
 11
64.30843687675943
 21
282.83072240828909
 31
0.0
  0
LINE
  5
9A85
  8
AM_0
 10
13.807006776759399
 20
292.5372035039963
 30
0.0
 11
13.807006776759399
 21
280.58072240828909
 31
0.0
  0
LINE
  5
9A86
  8
AM_0
 10
14.308436876759449
 20
292.3277924082891
 30
0.0
 11
14.308436876759449
 21
284.83072240828909
 31
0.0
  0
ARC
  5
9A87
  8
AM_0
 10
16.308436876759458
 20
284.83072240828909
 30
0.0
 40
2.0
 50
179.99997999999781
 51
269.99995000000138
  0
LINE
  5
9A88
  8
AM_0
 10
12.20846687675936
 20
298.18973240828888
 30
0.0
 11
12.20846687675936
 21
295.18973240828888
 31
0.0
  0
LINE
  5
9A89
  8
AM_0
 10
15.50844687675936
 20
301.28970240828909
 30
0.0
 11
15.50844687675936
 21
292.08975240828897
 31
0.0
  0
ARC
  5
9A8A
  8
AM_0
 10
15.20846687675936
 20
295.18973240828888
 30
0.0
 40
3.0
 50
179.99997999999781
 51
269.99995000000138
  0
LINE
  5
9A8B
  8
AM_0
 10
15.20846687675936
 20
292.18973240828888
 30
0.0
 11
15.50844687675936
 21
292.18973240828888
 31
0.0
  0
LINE
  5
9A8C
  8
AM_0
 10
15.50844687675936
 20
292.08975240828897
 30
0.0
 11
16.808436876759451
 21
292.08975240828897
 31
0.0
  0
ARC
  5
9A8D
  8
AM_0
 10
15.20846687675936
 20
298.18973240828888
 30
0.0
 40
3.0
 50
89.999988999997569
 51
179.99997999999781
  0
LINE
  5
9A8E
  8
AM_0
 10
15.20846687675936
 20
301.18973240828888
 30
0.0
 11
15.50844687675936
 21
301.18973240828888
 31
0.0
  0
LINE
  5
9A8F
  8
AM_0
 10
15.50844687675936
 20
301.28970240828909
 30
0.0
 11
16.808436876759451
 21
301.28970240828909
 31
0.0
  0
LINE
  5
9A90
  8
AM_0
 10
59.308436876759451
 20
291.68973240828888
 30
0.0
 11
59.308436876759451
 21
282.83072240828909
 31
0.0
  0
LINE
  5
9A91
  8
AM_0
 10
64.30843687675943
 20
282.58072240828909
 30
0.0
 11
72.308436876759458
 21
282.58072240828909
 31
0.0
  0
LINE
  5
9A92
  8
AM_0
 10
72.308436876759458
 20
287.4906624082891
 30
0.0
 11
73.548426876759464
 21
280.93066240828921
 31
0.0
  0
LINE
  5
9A93
  8
AM_0
 10
65.008446876759365
 20
292.39078240828928
 30
0.0
 11
71.238426876759434
 21
292.39078240828928
 31
0.0
  0
ARC
  5
9A94
  8
AM_0
 10
73.76845687675943
 20
310.55569240828908
 30
0.0
 40
1.465004
 50
90.00000299999769
 51
270.0
  0
ARC
  5
9A95
  8
AM_0
 10
73.638456876759449
 20
320.57071240828918
 30
0.0
 40
1.3300049999999981
 50
90.00000299999769
 51
270.0
  0
LINE
  5
9A96
  8
AM_0
 10
160.71059930833931
 20
244.58072240828909
 30
0.0
 11
160.71059930833931
 21
234.58072240828909
 31
0.0
  0
LINE
  5
9A97
  8
AM_0
 10
150.44075082735631
 20
232.08072240828909
 30
0.0
 11
150.44075082735631
 21
243.61621301075729
 31
0.0
  0
LINE
  5
9A98
  8
AM_0
 10
78.310599308338368
 20
235.7807224082901
 30
0.0
 11
78.310599308338368
 21
233.5807224082892
 31
0.0
  0
LINE
  5
9A99
  8
AM_0
 10
77.81059930833942
 20
240.7807224082901
 30
0.0
 11
77.81059930833942
 21
233.5807224082892
 31
0.0
  0
LINE
  5
9A9A
  8
AM_0
 10
159.03629444517929
 20
245.08072240828909
 30
0.0
 11
82.736294445179382
 21
232.08072240828909
 31
0.0
  0
LINE
  5
9A9B
  8
AM_0
 10
158.2105993083394
 20
232.08072240828909
 30
0.0
 11
82.736294445179382
 21
232.08072240828909
 31
0.0
  0
LINE
  5
9A9C
  8
AM_0
 10
79.810599308338354
 20
232.08072240828909
 30
0.0
 11
82.736294445179382
 21
232.08072240828909
 31
0.0
  0
ARC
  5
9A9D
  8
AM_0
 10
79.31059930833942
 20
233.5807224082902
 30
0.0
 40
1.5
 50
180.00000000000659
 51
269.99999999999341
  0
ARC
  5
9A9E
  8
AM_0
 10
79.810599308338354
 20
233.5807224082892
 30
0.0
 40
1.5
 50
180.0
 51
270.0
  0
LINE
  5
9A9F
  8
AM_0
 10
79.31059930833942
 20
232.08072240828909
 30
0.0
 11
79.609085204496424
 21
232.0807224082902
 31
0.0
  0
ARC
  5
9AA0
  8
AM_0
 10
158.2105993083394
 20
234.58072240828909
 30
0.0
 40
2.5
 50
270.0
 51
0.0
  0
LINE
  5
9AA1
  8
AM_0
 10
138.52066144476939
 20
261.08072240828909
 30
0.0
 11
137.02066144476939
 21
261.08072240828909
 31
0.0
  0
LINE
  5
9AA2
  8
AM_0
 10
138.52066144476939
 20
257.08072240828909
 30
0.0
 11
137.02066144476939
 21
257.08072240828909
 31
0.0
  0
LINE
  5
9AA3
  8
AM_0
 10
129.3084368767594
 20
298.86075240828887
 30
0.0
 11
177.12844687675931
 21
298.86075240828887
 31
0.0
  0
LINE
  5
9AA4
  8
AM_0
 10
148.21059930833829
 20
266.08072240828909
 30
0.0
 11
110.4105993083384
 21
266.08072240828909
 31
0.0
  0
LINE
  5
9AA5
  8
AM_0
 10
162.8084368767594
 20
268.58072240828909
 30
0.0
 11
95.808436876759458
 21
268.58072240828909
 31
0.0
  0
LINE
  5
9AA6
  8
AM_0
 10
173.64846687675939
 20
299.58072240828909
 30
0.0
 11
129.3084368767594
 21
299.58072240828909
 31
0.0
  0
LINE
  5
9AA7
  8
AM_0
 10
173.64846687675939
 20
301.58072240828909
 30
0.0
 11
129.3084368767594
 21
301.58072240828909
 31
0.0
  0
LINE
  5
9AA8
  8
AM_0
 10
82.410599308338405
 20
236.08072240828909
 30
0.0
 11
158.71059930833829
 21
249.08072240828909
 31
0.0
  0
LINE
  5
9AA9
  8
AM_0
 10
82.410599308338405
 20
236.08072240828909
 30
0.0
 11
158.71059930833829
 21
249.08072240828909
 31
0.0
  0
LINE
  5
9AAA
  8
AM_0
 10
173.64126687675929
 20
311.58072240828909
 30
0.0
 11
74.668426876759483
 21
311.58072240828909
 31
0.0
  0
LINE
  5
9AAB
  8
AM_0
 10
73.988426876759419
 20
302.21072240828909
 30
0.0
 11
141.32845687675939
 21
302.21072240828909
 31
0.0
  0
LINE
  5
9AAC
  8
AM_0
 10
141.30843687675929
 20
309.58072240828909
 30
0.0
 11
74.668426876759483
 21
309.58072240828909
 31
0.0
  0
LINE
  5
9AAD
  8
AM_0
 10
75.518456876759416
 20
279.30069240828908
 30
0.0
 11
172.43844687675929
 21
279.30069240828908
 31
0.0
  0
LINE
  5
9AAE
  8
AM_0
 10
110.4105993083384
 20
266.08072240828909
 30
0.0
 11
104.2105993083383
 21
266.08072240828909
 31
0.0
  0
LINE
  5
9AAF
  8
AM_0
 10
82.329175524127336
 20
237.08072240828909
 30
0.0
 11
114.3072452628594
 21
242.5291484450332
 31
0.0
  0
LINE
  5
9AB0
  8
ﾁｭｳｼﾝｾﾝ
 10
82.910599308347827
 20
249.08072240828909
 30
0.0
 11
106.910599308329
 21
249.08072240828909
 31
0.0
  0
LINE
  5
9AB1
  8
AM_0
 10
104.2105993083383
 20
266.08072240828909
 30
0.0
 11
104.2105993083383
 21
249.08072240828909
 31
0.0
  0
LINE
  5
9AB2
  8
ﾁｭｳｼﾝｾﾝ
 10
94.910599308338405
 20
261.08073740828911
 30
0.0
 11
94.910599308338405
 21
237.08073740828911
 31
0.0
  0
LINE
  5
9AB3
  8
AM_0
 10
85.610599308338351
 20
266.08072240828909
 30
0.0
 11
85.610599308338351
 21
249.08072240828909
 31
0.0
  0
LINE
  5
9AB4
  8
AM_0
 10
79.810599308338354
 20
265.08072240828909
 30
0.0
 11
79.810599308338354
 21
242.0807224082892
 31
0.0
  0
CIRCLE
  5
9AB5
  8
AM_0
 10
94.910599308338405
 20
249.08072240828909
 30
0.0
 40
6.299999999999998
  0
ARC
  5
9AB6
  8
AM_0
 10
94.910599308338405
 20
249.08072240828909
 30
0.0
 40
9.3000000000000007
 50
180.0
 51
0.0
  0
LINE
  5
9AB7
  8
AM_0
 10
82.329175524127336
 20
237.08072240828909
 30
0.0
 11
78.610599308338351
 21
237.08072240828909
 31
0.0
  0
LINE
  5
9AB8
  8
AM_0
 10
78.610599308338351
 20
236.08072240828909
 30
0.0
 11
82.410599308338405
 21
236.08072240828909
 31
0.0
  0
LINE
  5
9AB9
  8
AM_0
 10
78.310599308338368
 20
236.08072240828909
 30
0.0
 11
82.410599308338405
 21
236.08072240828909
 31
0.0
  0
LINE
  5
9ABA
  8
AM_0
 10
79.510599308338342
 20
239.2763650890052
 30
0.0
 11
79.510599308338342
 21
241.8807224082901
 31
0.0
  0
LINE
  5
9ABB
  8
AM_0
 10
79.810599308338354
 20
242.0807224082892
 30
0.0
 11
79.810599308337373
 21
237.08072240828909
 31
0.0
  0
ARC
  5
9ABC
  8
AM_0
 10
78.110599308339374
 20
240.7807224082901
 30
0.0
 40
0.3
 50
90.0
 51
180.0
  0
LINE
  5
9ABD
  8
AM_0
 10
79.010599308338342
 20
241.08072240828909
 30
0.0
 11
78.610599308338351
 21
241.08072240828909
 31
0.0
  0
LINE
  5
9ABE
  8
AM_0
 10
78.610599308338351
 20
241.08072240828909
 30
0.0
 11
78.110599308339374
 21
241.08072240828909
 31
0.0
  0
LINE
  5
9ABF
  8
AM_0
 10
79.310599308338354
 20
239.2763650890052
 30
0.0
 11
79.510599308338342
 21
239.2763650890052
 31
0.0
  0
LINE
  5
9AC0
  8
AM_0
 10
79.510599308338342
 20
238.07636508900509
 30
0.0
 11
79.310599308338354
 21
238.07636508900509
 31
0.0
  0
LINE
  5
9AC1
  8
AM_0
 10
79.510599308338342
 20
238.07636508900509
 30
0.0
 11
79.510599308338342
 21
239.2763650890052
 31
0.0
  0
ARC
  5
9AC2
  8
AM_0
 10
79.010599308338342
 20
240.7807224082901
 30
0.0
 40
0.3
 50
0.0
 51
90.0
  0
ARC
  5
9AC3
  8
AM_0
 10
78.610599308338351
 20
236.7807224082901
 30
0.0
 40
0.3
 50
90.0
 51
180.0
  0
ARC
  5
9AC4
  8
AM_0
 10
78.610599308338351
 20
235.7807224082901
 30
0.0
 40
0.3
 50
90.0
 51
180.0
  0
LINE
  5
9AC5
  8
AM_0
 10
78.310599308338368
 20
236.7807224082901
 30
0.0
 11
78.310599308338368
 21
236.08072240828909
 31
0.0
  0
LINE
  5
9AC6
  8
AM_0
 10
79.310599308338354
 20
237.08072240828909
 30
0.0
 11
79.310599308338354
 21
240.7807224082901
 31
0.0
  0
LINE
  5
9AC7
  8
AM_0
 10
79.510599308338342
 20
237.08072240828909
 30
0.0
 11
79.510599308338342
 21
238.07636508900509
 31
0.0
  0
LINE
  5
9AC8
  8
AM_0
 10
79.510599308338342
 20
241.8807224082901
 30
0.0
 11
79.710599308338374
 21
242.0807224082892
 31
0.0
  0
LINE
  5
9AC9
  8
AM_0
 10
79.710599308338374
 20
242.0807224082892
 30
0.0
 11
79.810599308338354
 21
242.0807224082892
 31
0.0
  0
LINE
  5
9ACA
  8
AM_0
 10
85.610599308338351
 20
266.08072240828909
 30
0.0
 11
103.2105993083383
 21
266.08072240828909
 31
0.0
  0
LINE
  5
9ACB
  8
AM_0
 10
75.214686876759458
 20
276.45071240828918
 30
0.0
 11
97.641087075426256
 21
276.45071240828918
 31
0.0
  0
LINE
  5
9ACC
  8
AM_0
 10
80.810599308338354
 20
266.08072240828909
 30
0.0
 11
85.610599308338351
 21
266.08072240828909
 31
0.0
  0
ARC
  5
9ACD
  8
AM_0
 10
80.810599308338354
 20
265.08072240828909
 30
0.0
 40
1.0
 50
90.0
 51
180.0
  0
LINE
  5
9ACE
  8
AM_0
 10
99.308376876759496
 20
268.58069240828911
 30
0.0
 11
99.027712689420454
 21
279.30069240828902
 31
0.0
  0
LINE
  5
9ACF
  8
AM_0
 10
95.808436876759458
 20
266.08072240828909
 30
0.0
 11
95.808436876759458
 21
268.58072240828909
 31
0.0
  0
LINE
  5
9AD0
  8
AM_0
 10
103.2105993083383
 20
266.08072240828909
 30
0.0
 11
104.2105993083383
 21
266.08072240828909
 31
0.0
  0
ARC
  5
9AD1
  8
AM_0
 10
97.641087075426256
 20
274.95071240828912
 30
0.0
 40
1.5
 50
1.499738863867264
 51
90.0
1001
GENIUS_GENODEF_13
1002
{
1000
HIER
1070
     0
1002
}
1002
{
1000
MANEDIT
1070
     0
1002
}
1002
{
1000
NOSEL
1070
     0
1002
}
1002
{
1000
BEHIND
1070
     0
1002
}
1002
{
1000
REACTOR
1002
}
1001
GENIUS_GENOBJ-N-FIL_13
1002
{
1000
OWNER
1000
GEN
1002
}
  0
LINE
  5
9AD2
  8
AM_0
 10
127.9105993083403
 20
244.8468889770281
 30
0.0
 11
127.9105993083403
 21
258.36934622909121
 31
0.0
  0
LINE
  5
9AD3
  8
AM_0
 10
114.3072452628594
 20
258.36934622909121
 30
0.0
 11
114.3072452628594
 21
242.5291484450332
 31
0.0
  0
LINE
  5
9AD4
  8
AM_0
 10
122.2072452628593
 20
261.08072240828909
 30
0.0
 11
122.2072452628593
 21
243.87515106626509
 31
0.0
  0
LINE
  5
9AD5
  8
AM_0
 10
120.0072452628593
 20
243.5003148932642
 30
0.0
 11
120.0072452628593
 21
261.08072240828909
 31
0.0
  0
LINE
  5
9AD6
  8
AM_0
 10
118.5072452628593
 20
261.08072240828909
 30
0.0
 11
118.5072452628602
 21
243.24474477530811
 31
0.0
  0
LINE
  5
9AD7
  8
AM_0
 10
116.3072452628594
 20
242.86990860230719
 30
0.0
 11
116.3072452628594
 21
261.08072240829023
 31
0.0
  0
LINE
  5
9AD8
  8
AM_0
 10
125.9105993083373
 20
261.08072240828909
 30
0.0
 11
125.9105993083373
 21
244.5061288197542
 31
0.0
  0
LINE
  5
9AD9
  8
AM_0
 10
123.7072452628593
 20
244.13072118422019
 30
0.0
 11
123.7072452628593
 21
261.08072240828909
 31
0.0
  0
LINE
  5
9ADA
  8
AM_0
 10
137.02066144476939
 20
261.08072240828909
 30
0.0
 11
137.02066144476939
 21
246.39906208022009
 31
0.0
  0
LINE
  5
9ADB
  8
AM_0
 10
134.81730739929239
 20
246.023654444687
 30
0.0
 11
134.81730739929239
 21
261.08072240828909
 31
0.0
  0
LINE
  5
9ADC
  8
AM_0
 10
133.31730739929239
 20
261.08072240828909
 30
0.0
 11
133.31730739929239
 21
245.76808432673209
 31
0.0
  0
LINE
  5
9ADD
  8
AM_0
 10
131.11395335381431
 20
245.39267669119809
 30
0.0
 11
131.11395335381431
 21
261.08072240828909
 31
0.0
  0
LINE
  5
9ADE
  8
AM_0
 10
129.6139533538144
 20
261.08072240828909
 30
0.0
 11
129.6139533538144
 21
245.13710657324319
 31
0.0
  0
LINE
  5
9ADF
  8
AM_0
 10
120.0072452628593
 20
243.5003148932642
 30
0.0
 11
122.2072452628593
 21
243.87515106626509
 31
0.0
  0
LINE
  5
9AE0
  8
AM_0
 10
116.3072452628594
 20
242.86990860230719
 30
0.0
 11
118.5072452628602
 21
243.24474477530811
 31
0.0
  0
CIRCLE
  5
9AE1
  8
AM_0
 10
109.4105993083384
 20
249.08072240828909
 30
0.0
 40
0.75
  0
LINE
  5
9AE2
  8
AM_0
 10
116.3072452628594
 20
257.08072240828909
 30
0.0
 11
114.3072452628594
 21
257.08072240828909
 31
0.0
  0
LINE
  5
9AE3
  8
AM_0
 10
120.0072452628593
 20
257.08072240828909
 30
0.0
 11
118.5072452628593
 21
257.08072240828909
 31
0.0
  0
LINE
  5
9AE4
  8
AM_0
 10
123.7072452628593
 20
244.13072118422019
 30
0.0
 11
125.9105993083373
 21
244.5061288197542
 31
0.0
  0
LINE
  5
9AE5
  8
AM_0
 10
127.9105993083403
 20
244.8468889770281
 30
0.0
 11
129.6139533538144
 21
245.13710657324319
 31
0.0
  0
LINE
  5
9AE6
  8
AM_0
 10
131.11395335381431
 20
245.39267669119809
 30
0.0
 11
133.31730739929239
 21
245.76808432673209
 31
0.0
  0
LINE
  5
9AE7
  8
AM_0
 10
134.81730739929239
 20
246.023654444687
 30
0.0
 11
137.02066144476939
 21
246.39906208022009
 31
0.0
  0
LINE
  5
9AE8
  8
AM_0
 10
131.11395335381431
 20
257.08072240828909
 30
0.0
 11
129.6139533538144
 21
257.08072240828909
 31
0.0
  0
LINE
  5
9AE9
  8
AM_0
 10
123.7072452628593
 20
257.08072240828909
 30
0.0
 11
122.2072452628593
 21
257.08072240828909
 31
0.0
  0
LINE
  5
9AEA
  8
AM_0
 10
127.9105993083403
 20
257.08072240828909
 30
0.0
 11
125.9105993083373
 21
257.08072240828909
 31
0.0
  0
LINE
  5
9AEB
  8
AM_0
 10
134.81730739929239
 20
257.08072240828909
 30
0.0
 11
133.31730739929239
 21
257.08072240828909
 31
0.0
  0
LINE
  5
9AEC
  8
AM_0
 10
115.0072452628593
 20
259.03669828569519
 30
0.0
 11
114.3072452628594
 21
258.36934622909121
 31
0.0
  0
LINE
  5
9AED
  8
AM_0
 10
116.3072452628594
 20
261.08072240829023
 30
0.0
 11
115.0072452628593
 21
261.08072240828909
 31
0.0
  0
LINE
  5
9AEE
  8
AM_0
 10
115.0072452628593
 20
261.08072240828909
 30
0.0
 11
115.0072452628593
 21
259.03669828569519
 31
0.0
  0
LINE
  5
9AEF
  8
AM_0
 10
120.0072452628593
 20
261.08072240828909
 30
0.0
 11
118.5072452628593
 21
261.08072240828909
 31
0.0
  0
LINE
  5
9AF0
  8
AM_0
 10
131.11395335381431
 20
261.08072240828909
 30
0.0
 11
129.6139533538144
 21
261.08072240828909
 31
0.0
  0
LINE
  5
9AF1
  8
AM_0
 10
123.7072452628593
 20
261.08072240828909
 30
0.0
 11
122.2072452628593
 21
261.08072240828909
 31
0.0
  0
LINE
  5
9AF2
  8
AM_0
 10
127.21059930833729
 20
261.08072240828909
 30
0.0
 11
125.9105993083373
 21
261.08072240828909
 31
0.0
  0
LINE
  5
9AF3
  8
AM_0
 10
127.21059930833729
 20
259.03669828569519
 30
0.0
 11
127.21059930833729
 21
261.08072240828909
 31
0.0
  0
LINE
  5
9AF4
  8
AM_0
 10
127.9105993083403
 20
258.36934622909121
 30
0.0
 11
127.21059930833729
 21
259.03669828569519
 31
0.0
  0
LINE
  5
9AF5
  8
AM_0
 10
134.81730739929239
 20
261.08072240828909
 30
0.0
 11
133.31730739929239
 21
261.08072240828909
 31
0.0
  0
LINE
  5
9AF6
  8
AM_0
 10
129.3084368767594
 20
299.58072240828909
 30
0.0
 11
74.668426876759483
 21
299.58072240828909
 31
0.0
  0
LINE
  5
9AF7
  8
AM_0
 10
129.3084368767594
 20
301.58072240828909
 30
0.0
 11
74.668426876759483
 21
301.58072240828909
 31
0.0
  0
LINE
  5
9AF8
  8
AM_0
 10
73.988426876759419
 20
298.86075240828887
 30
0.0
 11
129.3084368767594
 21
298.86075240828887
 31
0.0
  0
LINE
  5
9AF9
  8
AM_0
 10
108.74715687675941
 20
319.58072240828909
 30
0.0
 11
74.668426876759483
 21
319.58072240828909
 31
0.0
  0
LINE
  5
9AFA
  8
AM_0
 10
108.74715687675941
 20
321.58072240828909
 30
0.0
 11
74.668426876759483
 21
321.58072240828909
 31
0.0
  0
POLYLINE
  5
9AFB
  8
AM_0
 66
     1
 10
0.0
 20
0.0
 30
0.0
  0
VERTEX
  5
9AFC
  8
AM_0
 10
75.186676876759449
 20
319.2401424082891
 30
0.0
 42
0.00073721992
  0
VERTEX
  5
9AFD
  8
AM_0
 10
75.230826876759409
 20
318.63773240828908
 30
0.0
 42
0.00074398496
  0
VERTEX
  5
9AFE
  8
AM_0
 10
75.276756876759393
 20
318.03546240828911
 30
0.0
 42
0.00073322625
  0
VERTEX
  5
9AFF
  8
AM_0
 10
75.32448687675938
 20
317.43313240828911
 30
0.0
 42
0.00073594289
  0
VERTEX
  5
9B00
  8
AM_0
 10
75.373966876759425
 20
316.83114240828911
 30
0.0
 42
0.00074742568
  0
VERTEX
  5
9B01
  8
AM_0
 10
75.42523687675947
 20
316.22928240828912
 30
0.0
 42
0.00073216749
  0
VERTEX
  5
9B02
  8
AM_0
 10
75.478296876759401
 20
315.62747240828912
 30
0.0
 42
0.00074184065
  0
VERTEX
  5
9B03
  8
AM_0
 10
75.533116876759379
 20
315.02594240828921
 30
0.0
 42
0.00072077528
  0
VERTEX
  5
9B04
  8
AM_0
 10
75.589696876759419
 20
314.42471240828911
 30
0.0
 42
0.00074978179
  0
VERTEX
  5
9B05
  8
AM_0
 10
75.648036876759363
 20
313.8235124082891
 30
0.0
 42
0.00074288888
  0
VERTEX
  5
9B06
  8
AM_0
 10
75.70818687675937
 20
313.22249240828887
 30
0.0
 42
0.00072503679
  0
VERTEX
  5
9B07
  8
AM_0
 10
75.770096876759382
 20
312.62175240828918
 30
0.0
 42
0.00074640584
  0
VERTEX
  5
9B08
  8
AM_0
 10
75.833766876759384
 20
312.02115240828908
 30
0.0
  0
SEQEND
  5
9B09
  8
AM_0
  0
POLYLINE
  5
9B0A
  8
AM_0
 66
     1
 10
0.0
 20
0.0
 30
0.0
  0
VERTEX
  5
9B0B
  8
AM_0
 10
76.169336876759473
 20
309.09768240828907
 30
0.0
 42
0.00068900015
  0
VERTEX
  5
9B0C
  8
AM_0
 10
76.240216876759334
 20
308.52293240828908
 30
0.0
 42
0.00070644648
  0
VERTEX
  5
9B0D
  8
AM_0
 10
76.312716876759453
 20
307.94825240828908
 30
0.0
 42
0.00069245587
  0
VERTEX
  5
9B0E
  8
AM_0
 10
76.38680687675938
 20
307.37393240828908
 30
0.0
 42
0.00069587802
  0
VERTEX
  5
9B0F
  8
AM_0
 10
76.462486876759414
 20
306.79979240828908
 30
0.0
 42
0.00068980012
  0
VERTEX
  5
9B10
  8
AM_0
 10
76.539786876759351
 20
306.22579240828912
 30
0.0
 42
0.00072079193
  0
VERTEX
  5
9B11
  8
AM_0
 10
76.61867687675948
 20
305.65201240828918
 30
0.0
 42
0.00071003147
  0
VERTEX
  5
9B12
  8
AM_0
 10
76.699216876759365
 20
305.07853240828911
 30
0.0
 42
0.00072658712
  0
VERTEX
  5
9B13
  8
AM_0
 10
76.781376876759452
 20
304.50544240828918
 30
0.0
 42
0.00069571059
  0
VERTEX
  5
9B14
  8
AM_0
 10
76.86519687675937
 20
303.93240240828908
 30
0.0
 42
0.0007126617
  0
VERTEX
  5
9B15
  8
AM_0
 10
76.950626876759486
 20
303.35964240828912
 30
0.0
 42
0.00071614574
  0
VERTEX
  5
9B16
  8
AM_0
 10
77.037656876759371
 20
302.7872924082892
 30
0.0
 42
0.00072290803
  0
VERTEX
  5
9B17
  8
AM_0
 10
77.126366876759391
 20
302.21499240828911
 30
0.0
  0
SEQEND
  5
9B18
  8
AM_0
  0
ARC
  5
9B19
  8
AM_0
 10
109.9734168767593
 20
320.57071240828918
 30
0.0
 40
1.3300148000000001
 50
269.72941999999853
 51
90.270567000000995
  0
ARC
  5
9B1A
  8
AM_0
 10
108.74715687675941
 20
320.58072240828909
 30
0.0
 40
1.0000056999999991
 50
269.999989999999
 51
90.00000299999769
  0
ARC
  5
9B1B
  8
AM_0
 10
172.43361687675929
 20
281.30545240828911
 30
0.0
 40
2.0047290000000002
 50
270.13832000000423
 51
344.82650000000177
  0
LINE
  5
9B1C
  8
AM_0
 10
179.3084368767594
 20
282.58069240828911
 30
0.0
 11
173.58263687675941
 21
273.76373240828912
 31
0.0
  0
LINE
  5
9B1D
  8
AM_0
 10
160.88751756254439
 20
273.08072240828909
 30
0.0
 11
172.32461687675939
 21
273.08072240828909
 31
0.0
  0
LINE
  5
9B1E
  8
AM_0
 10
142.22401549024619
 20
247.28560995166501
 30
0.0
 11
142.22401549024619
 21
261.08072240828909
 31
0.0
  0
LINE
  5
9B1F
  8
AM_0
 10
138.52066144476939
 20
246.6546321981761
 30
0.0
 11
138.52066144476939
 21
261.08072240828909
 31
0.0
  0
LINE
  5
9B20
  8
AM_0
 10
140.7240154902463
 20
261.08072240828909
 30
0.0
 11
140.7240154902463
 21
247.03003983370911
 31
0.0
  0
LINE
  5
9B21
  8
AM_0
 10
167.0857255741854
 20
249.08072240828909
 30
0.0
 11
167.0857255741854
 21
265.08072240828909
 31
0.0
  0
LINE
  5
9B22
  8
AM_0
 10
152.08572557418529
 20
248.965848891261
 30
0.0
 11
152.08572557418529
 21
266.08072240828909
 31
0.0
  0
LINE
  5
9B23
  8
AM_0
 10
151.31059930833939
 20
243.76651718099211
 30
0.0
 11
151.31059930833939
 21
247.819909826376
 31
0.0
  0
LINE
  5
9B24
  8
AM_0
 10
138.52066144476939
 20
246.6546321981761
 30
0.0
 11
140.7240154902463
 21
247.03003983370911
 31
0.0
  0
LINE
  5
9B25
  8
AM_0
 10
142.22401549024619
 20
247.28560995166501
 30
0.0
 11
152.08572557418529
 21
248.965848891261
 31
0.0
  0
CIRCLE
  5
9B26
  8
AM_0
 10
143.91059930833839
 20
249.08072240828909
 30
0.0
 40
0.75
  0
LINE
  5
9B27
  8
AM_0
 10
142.22401549024619
 20
257.08072240828909
 30
0.0
 11
140.7240154902463
 21
257.08072240828909
 31
0.0
  0
LINE
  5
9B28
  8
AM_0
 10
167.0857255741854
 20
249.08072240828909
 30
0.0
 11
167.0857255741854
 21
245.58072240828909
 31
0.0
  0
LINE
  5
9B29
  8
AM_0
 10
161.2105993083394
 20
245.08072240828909
 30
0.0
 11
166.5857255741854
 21
245.08072240828909
 31
0.0
  0
LINE
  5
9B2A
  8
AM_0
 10
161.2105993083394
 20
245.08072240828909
 30
0.0
 11
159.03629444517929
 21
245.08072240828909
 31
0.0
  0
ARC
  5
9B2B
  8
AM_0
 10
161.2105993083394
 20
244.58072240828909
 30
0.0
 40
0.5
 50
90.0
 51
180.0
  0
ARC
  5
9B2C
  8
AM_0
 10
166.5857255741854
 20
245.58072240828909
 30
0.0
 40
0.5
 50
270.0
 51
0.0
  0
LINE
  5
9B2D
  8
AM_0
 10
167.0857255741854
 20
249.08072240828909
 30
0.0
 11
158.71059930833829
 21
249.08072240828909
 31
0.0
  0
LINE
  5
9B2E
  8
AM_0
 10
155.41059930833839
 20
266.08072240828909
 30
0.0
 11
148.21059930833829
 21
266.08072240828909
 31
0.0
  0
LINE
  5
9B2F
  8
AM_0
 10
142.22401549024619
 20
261.08072240828909
 30
0.0
 11
140.7240154902463
 21
261.08072240828909
 31
0.0
  0
LINE
  5
9B30
  8
AM_0
 10
159.30843687675929
 20
268.58066240828902
 30
0.0
 11
159.5891759998226
 21
279.30069240828908
 31
0.0
  0
LINE
  5
9B31
  8
AM_0
 10
166.0857255741854
 20
266.08072240828909
 30
0.0
 11
155.41059930833839
 21
266.08072240828909
 31
0.0
  0
LINE
  5
9B32
  8
AM_0
 10
162.8084368767594
 20
266.08072240828909
 30
0.0
 11
162.8084368767594
 21
268.58072240828909
 31
0.0
  0
ARC
  5
9B33
  8
AM_0
 10
166.0857255741854
 20
265.08072240828909
 30
0.0
 40
1.0
 50
0.0
 51
90.0
  0
ARC
  5
9B34
  8
AM_0
 10
160.88751756254439
 20
271.58072240828909
 30
0.0
 40
1.5
 50
90.0
 51
178.4998650936468
1001
GENIUS_GENODEF_13
1002
{
1000
HIER
1070
     0
1002
}
1002
{
1000
MANEDIT
1070
     0
1002
}
1002
{
1000
NOSEL
1070
     0
1002
}
1002
{
1000
BEHIND
1070
     0
1002
}
1002
{
1000
REACTOR
1002
}
1001
GENIUS_GENOBJ-N-FIL_13
1002
{
1000
OWNER
1000
GEN
1002
}
  0
LINE
  5
9B35
  8
AM_0
 10
180.3084368767594
 20
279.58072240828909
 30
0.0
 11
188.3084368767594
 21
279.58072240828909
 31
0.0
  0
ARC
  5
9B36
  8
AM_0
 10
172.32461687675939
 20
274.58072240828909
 30
0.0
 40
1.5
 50
269.999989999999
 51
326.99999999999801
  0
LINE
  5
9B37
  8
AM_0
 10
159.30843687675929
 20
309.10074240828908
 30
0.0
 11
177.34267687675941
 21
309.10074240828908
 31
0.0
  0
LINE
  5
9B38
  8
AM_0
 10
173.64126687675929
 20
309.58072240828909
 30
0.0
 11
159.30843687675929
 21
309.58072240828909
 31
0.0
  0
LINE
  5
9B39
  8
AM_0
 10
177.12844687675931
 20
302.21072240828909
 30
0.0
 11
159.28841687675941
 21
302.21072240828909
 31
0.0
  0
ARC
  5
9B3A
  8
AM_0
 10
159.30843687675929
 20
303.08072240828909
 30
0.0
 40
1.5
 50
179.99998999999889
 51
270.0
  0
ARC
  5
9B3B
  8
AM_0
 10
159.28841687675941
 20
303.22073240828911
 30
0.0
 40
1.0
 50
179.99998999999889
 51
270.0
  0
ARC
  5
9B3C
  8
AM_0
 10
141.30843687675929
 20
303.08072240828909
 30
0.0
 40
1.5
 50
269.999989999999
 51
0.0000006832495047
  0
ARC
  5
9B3D
  8
AM_0
 10
141.32845687675939
 20
303.22073240828911
 30
0.0
 40
1.0
 50
269.999989999999
 51
0.0000006832495047
  0
CIRCLE
  5
9B3E
  8
AM_0
 10
152.8084368767594
 20
307.08072240828909
 30
0.0
 40
1.0
  0
LINE
  5
9B3F
  8
AM_0
 10
142.32845687675939
 20
308.08072240828909
 30
0.0
 11
142.32845687675939
 21
303.22073240828911
 31
0.0
  0
LINE
  5
9B40
  8
AM_0
 10
142.8084368767594
 20
308.08072240828909
 30
0.0
 11
142.8084368767594
 21
303.08072240828909
 31
0.0
  0
ARC
  5
9B41
  8
AM_0
 10
141.30843687675929
 20
308.08072240828909
 30
0.0
 40
1.5
 50
0.0
 51
90.00000299999769
  0
ARC
  5
9B42
  8
AM_0
 10
141.30843687675929
 20
308.08072240828909
 30
0.0
 40
1.02
 50
0.0
 51
90.00000299999769
  0
CIRCLE
  5
9B43
  8
AM_0
 10
147.8084368767594
 20
307.08072240828909
 30
0.0
 40
1.1000000000000001
  0
CIRCLE
  5
9B44
  8
AM_0
 10
147.8084368767594
 20
307.08072240828909
 30
0.0
 40
1.149999999999999
  0
LINE
  5
9B45
  8
AM_0
 10
157.8084368767594
 20
308.08072240828909
 30
0.0
 11
157.8084368767594
 21
303.08072240828909
 31
0.0
  0
LINE
  5
9B46
  8
AM_0
 10
158.28841687675941
 20
308.08072240828909
 30
0.0
 11
158.28841687675941
 21
303.22073240828911
 31
0.0
  0
ARC
  5
9B47
  8
AM_0
 10
159.30843687675929
 20
308.08072240828909
 30
0.0
 40
1.5
 50
90.00000299999769
 51
180.00001000000091
  0
ARC
  5
9B48
  8
AM_0
 10
159.30843687675929
 20
308.08072240828909
 30
0.0
 40
1.02
 50
90.00000299999769
 51
180.00001000000091
  0
ARC
  5
9B49
  8
AM_0
 10
177.12844687675931
 20
300.5356724082892
 30
0.0
 40
1.6750020000000001
 50
269.999989999999
 51
90.00000299999769
  0
LINE
  5
9B4A
  8
AM_0
 10
180.3084368767594
 20
289.58072240828909
 30
0.0
 11
188.3084368767594
 21
289.58072240828909
 31
0.0
  0
LINE
  5
9B4B
  8
AM_0
 10
178.51412687675941
 20
296.26178240828909
 30
0.0
 11
174.36837687675941
 21
280.78067240828898
 31
0.0
  0
LINE
  5
9B4C
  8
AM_0
 10
174.85048687675939
 20
282.58072240828909
 30
0.0
 11
180.3084368767594
 21
282.58072240828909
 31
0.0
  0
ARC
  5
9B4D
  8
AM_0
 10
173.64846687675939
 20
300.58072240828909
 30
0.0
 40
1.0
 50
269.999989999999
 51
90.00000299999769
  0
ARC
  5
9B4E
  8
AM_0
 10
179.9616368767594
 20
295.85794240828898
 30
0.0
 40
1.502775999999999
 50
90.122413000001615
 51
165.2435700000006
  0
LINE
  5
9B4F
  8
AM_0
 10
180.3084368767594
 20
303.64078240828911
 30
0.0
 11
188.3084368767594
 21
303.64078240828911
 31
0.0
  0
ARC
  5
9B50
  8
AM_0
 10
177.34841687675939
 20
310.55069240828908
 30
0.0
 40
1.460011199999999
 50
269.77524999999662
 51
90.224749999996845
  0
ARC
  5
9B51
  8
AM_0
 10
173.6484068767594
 20
310.58072240828909
 30
0.0
 40
1.0000255999999981
 50
269.58947000000319
 51
90.410530999997775
  0
ARC
  5
9B52
  8
AM_0
 10
75.573026876759457
 20
394.56399240828898
 30
0.0
 40
1.9967330000000001
 50
89.843966999998912
 51
171.45387999999721
  0
ARC
  5
9B53
  8
AM_0
 10
75.558686876759381
 20
392.71548240828901
 30
0.0
 40
1.995282999999999
 50
90.006203999996856
 51
170.90835000000069
  0
ARC
  5
9B54
  8
AM_0
 10
75.594936876759391
 20
395.47513240828903
 30
0.0
 40
1.995633
 50
89.899708000002292
 51
172.06112999999959
  0
ARC
  5
9B55
  8
AM_0
 10
75.507166876759399
 20
389.86661240828897
 30
0.0
 40
1.994108999999999
 50
89.675548000002749
 51
169.18776999999869
  0
ARC
  5
9B56
  8
AM_0
 10
74.853056876759453
 20
370.58072240828898
 30
0.0
 40
1.000013899999999
 50
89.691659999999231
 51
270.30834000000078
  0
ARC
  5
9B57
  8
AM_0
 10
73.981046876759422
 20
370.62576240828912
 30
0.0
 40
1.6750160000000001
 50
89.746145000004447
 51
270.25387000000092
  0
ARC
  5
9B58
  8
AM_0
 10
74.853056876759453
 20
360.58072240828898
 30
0.0
 40
1.000013899999999
 50
89.691659999999231
 51
270.30834000000078
  0
LINE
  5
9B59
  8
AM_0
 10
77.668426876759483
 20
372.23071240828898
 30
0.0
 11
72.308436876759458
 21
383.68069240828902
 31
0.0
  0
ARC
  5
9B5A
  8
AM_0
 10
74.853056876759453
 20
350.58072240828898
 30
0.0
 40
1.000013899999999
 50
89.691659999999231
 51
270.30834000000078
  0
ARC
  5
9B5B
  8
AM_0
 10
74.853056876759453
 20
330.58072240828909
 30
0.0
 40
1.000013899999999
 50
89.691659999999231
 51
270.30834000000078
  0
ARC
  5
9B5C
  8
AM_0
 10
73.572596876759391
 20
330.58072240828909
 30
0.0
 40
1.2700129999999981
 50
89.736617000001587
 51
270.2633699999991
  0
ARC
  5
9B5D
  8
AM_0
 10
73.572596876759391
 20
340.58572240828909
 30
0.0
 40
1.2650129999999991
 50
89.735579000001735
 51
270.26441000000239
  0
ARC
  5
9B5E
  8
AM_0
 10
74.853056876759453
 20
340.58072240828909
 30
0.0
 40
1.000013899999999
 50
89.691659999999231
 51
270.30834000000078
  0
LINE
  5
9B5F
  8
AM_0
 10
73.76845687675943
 20
359.14078240828911
 30
0.0
 11
177.34267687675941
 21
359.14078240828911
 31
0.0
  0
LINE
  5
9B60
  8
AM_0
 10
73.638456876759449
 20
349.26077240828897
 30
0.0
 11
109.96712687675939
 21
349.26077240828897
 31
0.0
  0
LINE
  5
9B61
  8
AM_0
 10
73.638456876759449
 20
351.92068240828911
 30
0.0
 11
109.96712687675939
 21
351.92068240828911
 31
0.0
  0
LINE
  5
9B62
  8
AM_0
 10
73.57845687675939
 20
339.32071240828918
 30
0.0
 11
110.0271268767595
 21
339.32071240828918
 31
0.0
  0
LINE
  5
9B63
  8
AM_0
 10
73.57845687675939
 20
341.85074240828908
 30
0.0
 11
110.0271268767595
 21
341.85074240828908
 31
0.0
  0
LINE
  5
9B64
  8
AM_0
 10
73.57845687675939
 20
329.31070240828922
 30
0.0
 11
110.0271268767595
 21
329.31070240828922
 31
0.0
  0
LINE
  5
9B65
  8
AM_0
 10
73.57845687675939
 20
331.85074240828908
 30
0.0
 11
110.0271268767595
 21
331.85074240828908
 31
0.0
  0
LINE
  5
9B66
  8
AM_0
 10
73.76845687675943
 20
362.07071240828913
 30
0.0
 11
141.30843687675929
 21
362.07071240828913
 31
0.0
  0
ARC
  5
9B67
  8
AM_0
 10
17.80700677675939
 20
391.58072240828898
 30
0.0
 40
9.0
 50
89.999988999997569
 51
179.99997999999781
  0
LINE
  5
9B68
  8
AM_0
 10
7.8084668767594376
 20
330.58072240828909
 30
0.0
 11
7.8084668767594376
 21
340.58072240828909
 31
0.0
  0
LINE
  5
9B69
  8
AM_0
 10
8.8070067767594082
 20
330.58072240828909
 30
0.0
 11
7.8084668767594376
 21
330.58072240828909
 31
0.0
  0
LINE
  5
9B6A
  8
AM_0
 10
8.8070067767594082
 20
340.58072240828909
 30
0.0
 11
7.8084668767594376
 21
340.58072240828909
 31
0.0
  0
LINE
  5
9B6B
  8
AM_0
 10
14.308436876759449
 20
330.58072240828909
 30
0.0
 11
13.807006776759399
 21
330.58072240828909
 31
0.0
  0
LINE
  5
9B6C
  8
AM_0
 10
14.308436876759449
 20
340.58072240828909
 30
0.0
 11
13.807006776759399
 21
340.58072240828909
 31
0.0
  0
ARC
  5
9B6D
  8
AM_0
 10
73.638456876759449
 20
350.59073240828911
 30
0.0
 40
1.3300049999999981
 50
90.00000299999769
 51
270.0
  0
ARC
  5
9B6E
  8
AM_0
 10
73.76845687675943
 20
360.60574240828902
 30
0.0
 40
1.465004
 50
90.00000299999769
 51
270.0
  0
LINE
  5
9B6F
  8
AM_0
 10
18.807006776759401
 20
395.58072240828898
 30
0.0
 11
42.308436876759451
 21
395.58072240828898
 31
0.0
  0
LINE
  5
9B70
  8
AM_0
 10
39.308436876759451
 20
394.33072240828898
 30
0.0
 11
64.30843687675943
 21
394.33072240828898
 31
0.0
  0
LINE
  5
9B71
  8
AM_0
 10
17.80700677675939
 20
400.58072240828898
 30
0.0
 11
55.308436876759473
 21
400.58072240828898
 31
0.0
  0
LINE
  5
9B72
  8
AM_0
 10
16.308436876759458
 20
388.33072240828898
 30
0.0
 11
64.30843687675943
 21
388.33072240828898
 31
0.0
  0
LINE
  5
9B73
  8
AM_0
 10
16.808436876759451
 20
369.22171240828902
 30
0.0
 11
59.308436876759451
 21
369.22171240828902
 31
0.0
  0
LINE
  5
9B74
  8
AM_0
 10
16.808436876759451
 20
379.47171240828902
 30
0.0
 11
59.308436876759451
 21
379.47171240828902
 31
0.0
  0
ARC
  5
9B75
  8
AM_0
 10
18.807006776759401
 20
390.58072240828898
 30
0.0
 40
5.0
 50
89.999988999997569
 51
180.0
  0
LINE
  5
9B76
  8
AM_0
 10
39.308436876759451
 20
394.33072240828898
 30
0.0
 11
39.308436876759451
 21
388.33072240828898
 31
0.0
  0
LINE
  5
9B77
  8
AM_0
 10
13.807006776759399
 20
378.62424131258177
 30
0.0
 11
13.807006776759399
 21
390.58072240828898
 31
0.0
  0
LINE
  5
9B78
  8
AM_0
 10
14.308436876759449
 20
378.83365240828903
 30
0.0
 11
14.308436876759449
 21
386.33072240828898
 31
0.0
  0
LINE
  5
9B79
  8
AM_0
 10
12.20846687675936
 20
372.97171240828902
 30
0.0
 11
12.20846687675936
 21
375.97171240828902
 31
0.0
  0
LINE
  5
9B7A
  8
AM_0
 10
15.50844687675936
 20
369.87174240828898
 30
0.0
 11
15.50844687675936
 21
379.07169240828898
 31
0.0
  0
ARC
  5
9B7B
  8
AM_0
 10
15.20846687675936
 20
372.97171240828902
 30
0.0
 40
3.0
 50
180.00002000000191
 51
270.00001100000242
  0
LINE
  5
9B7C
  8
AM_0
 10
15.20846687675936
 20
369.97171240828902
 30
0.0
 11
15.50844687675936
 21
369.97171240828902
 31
0.0
  0
LINE
  5
9B7D
  8
AM_0
 10
15.50844687675936
 20
369.87174240828898
 30
0.0
 11
16.808436876759451
 21
369.87174240828898
 31
0.0
  0
ARC
  5
9B7E
  8
AM_0
 10
15.20846687675936
 20
375.97171240828902
 30
0.0
 40
3.0
 50
90.000049999998538
 51
180.00002000000191
  0
LINE
  5
9B7F
  8
AM_0
 10
15.20846687675936
 20
378.97171240828902
 30
0.0
 11
15.50844687675936
 21
378.97171240828902
 31
0.0
  0
LINE
  5
9B80
  8
AM_0
 10
15.50844687675936
 20
379.07169240828898
 30
0.0
 11
16.808436876759451
 21
379.07169240828898
 31
0.0
  0
ARC
  5
9B81
  8
AM_0
 10
16.308436876759458
 20
386.33072240828898
 30
0.0
 40
2.0
 50
90.000049999998538
 51
180.00002000000191
  0
LINE
  5
9B82
  8
AM_0
 10
72.308436876759458
 20
386.37073240828897
 30
0.0
 11
73.61843687675939
 21
395.75076240828912
 31
0.0
  0
LINE
  5
9B83
  8
AM_0
 10
72.308436876759458
 20
385.02075240828913
 30
0.0
 11
73.588406876759393
 21
393.03070240828902
 31
0.0
  0
LINE
  5
9B84
  8
AM_0
 10
72.308436876759458
 20
386.37073240828897
 30
0.0
 11
73.598416876759359
 21
394.8606924082892
 31
0.0
  0
LINE
  5
9B85
  8
AM_0
 10
59.308436876759451
 20
379.47171240828902
 30
0.0
 11
59.308436876759451
 21
388.33072240828898
 31
0.0
  0
LINE
  5
9B86
  8
AM_0
 10
65.008446876759365
 20
378.77066240828913
 30
0.0
 11
71.238426876759434
 21
378.77066240828913
 31
0.0
  0
LINE
  5
9B87
  8
AM_0
 10
64.30843687675943
 20
388.58072240828898
 30
0.0
 11
72.308436876759458
 21
388.58072240828898
 31
0.0
  0
LINE
  5
9B88
  8
AM_0
 10
72.308436876759458
 20
383.68075240828921
 30
0.0
 11
73.548426876759464
 21
390.24072240828917
 31
0.0
  0
LINE
  5
9B89
  8
AM_0
 10
42.308436876759451
 20
394.33072240828898
 30
0.0
 11
42.308436876759451
 21
400.58072240828898
 31
0.0
  0
LINE
  5
9B8A
  8
AM_0
 10
55.308436876759473
 20
395.58072240828898
 30
0.0
 11
55.308436876759473
 21
400.58072240828898
 31
0.0
  0
LINE
  5
9B8B
  8
AM_0
 10
52.308436876759458
 20
394.33072240828898
 30
0.0
 11
52.308436876759458
 21
400.58072240828898
 31
0.0
  0
LINE
  5
9B8C
  8
AM_0
 10
52.308436876759458
 20
395.58072240828898
 30
0.0
 11
55.308436876759473
 21
395.58072240828898
 31
0.0
  0
LINE
  5
9B8D
  8
AM_0
 10
73.988426876759419
 20
372.30069240828919
 30
0.0
 11
177.12844687675931
 21
372.30069240828919
 31
0.0
  0
LINE
  5
9B8E
  8
AM_0
 10
173.64126687675929
 20
359.58072240828898
 30
0.0
 11
74.668426876759483
 21
359.58072240828898
 31
0.0
  0
LINE
  5
9B8F
  8
AM_0
 10
141.30843687675929
 20
361.58072240828898
 30
0.0
 11
74.668426876759483
 21
361.58072240828898
 31
0.0
  0
LINE
  5
9B90
  8
AM_0
 10
173.64846687675939
 20
369.58072240828898
 30
0.0
 11
74.668426876759483
 21
369.58072240828898
 31
0.0
  0
LINE
  5
9B91
  8
AM_0
 10
173.64846687675939
 20
371.58072240828898
 30
0.0
 11
74.668426876759483
 21
371.58072240828898
 31
0.0
  0
LINE
  5
9B92
  8
AM_0
 10
75.598416876759359
 20
397.47073240828911
 30
0.0
 11
172.43850687675939
 21
397.47073240828911
 31
0.0
  0
LINE
  5
9B93
  8
AM_0
 10
75.57845687675939
 20
396.56070240828922
 30
0.0
 11
172.43844687675929
 21
396.56070240828922
 31
0.0
  0
LINE
  5
9B94
  8
AM_0
 10
75.55843687675943
 20
394.71072240828897
 30
0.0
 11
172.43844687675929
 21
394.71072240828897
 31
0.0
  0
LINE
  5
9B95
  8
AM_0
 10
75.518456876759416
 20
391.86075240828887
 30
0.0
 11
172.43844687675929
 21
391.86075240828887
 31
0.0
  0
LINE
  5
9B96
  8
AM_0
 10
73.988426876759419
 20
368.95071240828901
 30
0.0
 11
141.32845687675939
 21
368.95071240828901
 31
0.0
  0
POLYLINE
  5
9B97
  8
AM_0
 66
     1
 10
0.0
 20
0.0
 30
0.0
  0
VERTEX
  5
9B98
  8
AM_0
 10
76.169336876759473
 20
362.06375240828902
 30
0.0
 42
-0.00068898288
  0
VERTEX
  5
9B99
  8
AM_0
 10
76.240216876759334
 20
362.63850240828913
 30
0.0
 42
-0.00070644354
  0
VERTEX
  5
9B9A
  8
AM_0
 10
76.312716876759453
 20
363.2131924082891
 30
0.0
 42
-0.00069248071
  0
VERTEX
  5
9B9B
  8
AM_0
 10
76.38680687675938
 20
363.78750240828901
 30
0.0
 42
-0.00069585665
  0
VERTEX
  5
9B9C
  8
AM_0
 10
76.462486876759414
 20
364.36164240828919
 30
0.0
 42
-0.00068980191
  0
VERTEX
  5
9B9D
  8
AM_0
 10
76.539786876759351
 20
364.93564240828903
 30
0.0
 42
-0.00072080104
  0
VERTEX
  5
9B9E
  8
AM_0
 10
76.61867687675948
 20
365.50943240828911
 30
0.0
 42
-0.00071002307
  0
VERTEX
  5
9B9F
  8
AM_0
 10
76.699216876759365
 20
366.08290240828899
 30
0.0
 42
-0.00072659056
  0
VERTEX
  5
9BA0
  8
AM_0
 10
76.781376876759452
 20
366.65600240828911
 30
0.0
 42
-0.00069570481
  0
VERTEX
  5
9BA1
  8
AM_0
 10
76.86519687675937
 20
367.22903240828902
 30
0.0
 42
-0.00071266935
  0
VERTEX
  5
9BA2
  8
AM_0
 10
76.950626876759486
 20
367.80180240828912
 30
0.0
 42
-0.00071614426
  0
VERTEX
  5
9BA3
  8
AM_0
 10
77.037656876759371
 20
368.37414240828912
 30
0.0
 42
-0.00072288975
  0
VERTEX
  5
9BA4
  8
AM_0
 10
77.126366876759391
 20
368.9464424082891
 30
0.0
  0
SEQEND
  5
9BA5
  8
AM_0
  0
LINE
  5
9BA6
  8
AM_0
 10
108.74715687675941
 20
349.58072240828909
 30
0.0
 11
74.668426876759483
 21
349.58072240828909
 31
0.0
  0
LINE
  5
9BA7
  8
AM_0
 10
108.74715687675941
 20
351.58072240828909
 30
0.0
 11
74.668426876759483
 21
351.58072240828909
 31
0.0
  0
LINE
  5
9BA8
  8
AM_0
 10
108.74715687675941
 20
339.58072240828909
 30
0.0
 11
74.668426876759483
 21
339.58072240828909
 31
0.0
  0
LINE
  5
9BA9
  8
AM_0
 10
108.74715687675941
 20
341.58072240828909
 30
0.0
 11
74.668426876759483
 21
341.58072240828909
 31
0.0
  0
LINE
  5
9BAA
  8
AM_0
 10
108.74715687675941
 20
329.58072240828909
 30
0.0
 11
74.668426876759483
 21
329.58072240828909
 31
0.0
  0
LINE
  5
9BAB
  8
AM_0
 10
108.74715687675941
 20
331.58072240828909
 30
0.0
 11
74.668426876759483
 21
331.58072240828909
 31
0.0
  0
POLYLINE
  5
9BAC
  8
AM_0
 66
     1
 10
0.0
 20
0.0
 30
0.0
  0
VERTEX
  5
9BAD
  8
AM_0
 10
74.712486876759414
 20
341.85110240828908
 30
0.0
 42
-0.00076691992
  0
VERTEX
  5
9BAE
  8
AM_0
 10
74.727286876759351
 20
342.46887240828909
 30
0.0
 42
-0.00073262792
  0
VERTEX
  5
9BAF
  8
AM_0
 10
74.743926876759389
 20
343.08646240828921
 30
0.0
 42
-0.00076529537
  0
VERTEX
  5
9BB0
  8
AM_0
 10
74.762416876759346
 20
343.70413240828901
 30
0.0
 42
-0.00075141097
  0
VERTEX
  5
9BB1
  8
AM_0
 10
74.782786876759403
 20
344.32173240828899
 30
0.0
 42
-0.00075841687
  0
VERTEX
  5
9BB2
  8
AM_0
 10
74.805016876759453
 20
344.93916240828912
 30
0.0
 42
-0.00075711788
  0
VERTEX
  5
9BB3
  8
AM_0
 10
74.829126876759389
 20
345.5566724082891
 30
0.0
 42
-0.00075976003
  0
VERTEX
  5
9BB4
  8
AM_0
 10
74.855116876759382
 20
346.1740624082891
 30
0.0
 42
-0.00075797311
  0
VERTEX
  5
9BB5
  8
AM_0
 10
74.882956876759451
 20
346.79134240828921
 30
0.0
 42
-0.0007482613
  0
VERTEX
  5
9BB6
  8
AM_0
 10
74.912686876759423
 20
347.40872240828912
 30
0.0
 42
-0.00074893561
  0
VERTEX
  5
9BB7
  8
AM_0
 10
74.944246876759323
 20
348.02585240828921
 30
0.0
 42
-0.00076039839
  0
VERTEX
  5
9BB8
  8
AM_0
 10
74.977666876759429
 20
348.64288240828898
 30
0.0
 42
-0.00075618786
  0
VERTEX
  5
9BB9
  8
AM_0
 10
75.012966876759421
 20
349.25992240828919
 30
0.0
  0
SEQEND
  5
9BBA
  8
AM_0
  0
POLYLINE
  5
9BBB
  8
AM_0
 66
     1
 10
0.0
 20
0.0
 30
0.0
  0
VERTEX
  5
9BBC
  8
AM_0
 10
74.668426876759483
 20
335.58072240828909
 30
0.0
 42
0.00039106589
  0
VERTEX
  5
9BBD
  8
AM_0
 10
74.66606687675943
 20
335.26958240828912
 30
0.0
 42
0.00035488584
  0
VERTEX
  5
9BBE
  8
AM_0
 10
74.664176876759399
 20
334.95847240828908
 30
0.0
 42
0.00039705232
  0
VERTEX
  5
9BBF
  8
AM_0
 10
74.6627468767594
 20
334.64737240828907
 30
0.0
 42
0.0003876649
  0
VERTEX
  5
9BC0
  8
AM_0
 10
74.66181687675936
 20
334.33623240828911
 30
0.0
 42
0.00040613779
  0
VERTEX
  5
9BC1
  8
AM_0
 10
74.661366876759359
 20
334.02512240828918
 30
0.0
 42
0.00035571855
  0
VERTEX
  5
9BC2
  8
AM_0
 10
74.661406876759486
 20
333.71402240828911
 30
0.0
 42
0.00038547358
  0
VERTEX
  5
9BC3
  8
AM_0
 10
74.661896876759371
 20
333.40288240828897
 30
0.0
 42
0.000355015
  0
VERTEX
  5
9BC4
  8
AM_0
 10
74.662856876759449
 20
333.09178240828919
 30
0.0
 42
0.00040118616
  0
VERTEX
  5
9BC5
  8
AM_0
 10
74.664276876759374
 20
332.78055240828911
 30
0.0
 42
0.00038319867
  0
VERTEX
  5
9BC6
  8
AM_0
 10
74.666186876759454
 20
332.46941240828909
 30
0.0
 42
0.00035656356
  0
VERTEX
  5
9BC7
  8
AM_0
 10
74.668566876759371
 20
332.15818240828912
 30
0.0
 42
0.00040140992
  0
VERTEX
  5
9BC8
  8
AM_0
 10
74.671416876759451
 20
331.84707240828908
 30
0.0
  0
SEQEND
  5
9BC9
  8
AM_0
  0
POLYLINE
  5
9BCA
  8
AM_0
 66
     1
 10
0.0
 20
0.0
 30
0.0
  0
VERTEX
  5
9BCB
  8
AM_0
 10
74.668426876759483
 20
335.58072240828909
 30
0.0
 42
-0.00039106649
  0
VERTEX
  5
9BCC
  8
AM_0
 10
74.66606687675943
 20
335.89185240828908
 30
0.0
 42
-0.00035488198
  0
VERTEX
  5
9BCD
  8
AM_0
 10
74.664176876759399
 20
336.20296240828901
 30
0.0
 42
-0.00039706113
  0
VERTEX
  5
9BCE
  8
AM_0
 10
74.6627468767594
 20
336.51407240828911
 30
0.0
 42
-0.00038765718
  0
VERTEX
  5
9BCF
  8
AM_0
 10
74.66181687675936
 20
336.82521240828908
 30
0.0
 42
-0.00040613432
  0
VERTEX
  5
9BD0
  8
AM_0
 10
74.661366876759359
 20
337.13631240828897
 30
0.0
 42
-0.00035573434
  0
VERTEX
  5
9BD1
  8
AM_0
 10
74.661406876759486
 20
337.44742240828919
 30
0.0
 42
-0.00038545884
  0
VERTEX
  5
9BD2
  8
AM_0
 10
74.661896876759371
 20
337.75855240828912
 30
0.0
 42
-0.00035501205
  0
VERTEX
  5
9BD3
  8
AM_0
 10
74.662856876759449
 20
338.0696624082891
 30
0.0
 42
-0.00040120779
  0
VERTEX
  5
9BD4
  8
AM_0
 10
74.664276876759374
 20
338.38089240828918
 30
0.0
 42
-0.00038317817
  0
VERTEX
  5
9BD5
  8
AM_0
 10
74.666186876759454
 20
338.69202240828912
 30
0.0
 42
-0.00035656084
  0
VERTEX
  5
9BD6
  8
AM_0
 10
74.668566876759371
 20
339.00326240828912
 30
0.0
 42
-0.00040143615
  0
VERTEX
  5
9BD7
  8
AM_0
 10
74.671416876759451
 20
339.31436240828901
 30
0.0
  0
SEQEND
  5
9BD8
  8
AM_0
  0
POLYLINE
  5
9BD9
  8
AM_0
 66
     1
 10
0.0
 20
0.0
 30
0.0
  0
VERTEX
  5
9BDA
  8
AM_0
 10
75.186676876759449
 20
351.9212924082891
 30
0.0
 42
-0.0007337051
  0
VERTEX
  5
9BDB
  8
AM_0
 10
75.23081687675942
 20
352.5237124082891
 30
0.0
 42
-0.00075211323
  0
VERTEX
  5
9BDC
  8
AM_0
 10
75.276756876759393
 20
353.12610240828911
 30
0.0
 42
-0.0007297491
  0
VERTEX
  5
9BDD
  8
AM_0
 10
75.32448687675938
 20
353.72830240828921
 30
0.0
 42
-0.00073593041
  0
VERTEX
  5
9BDE
  8
AM_0
 10
75.373966876759425
 20
354.33029240828898
 30
0.0
 42
-0.00074742739
  0
VERTEX
  5
9BDF
  8
AM_0
 10
75.42523687675947
 20
354.93216240828912
 30
0.0
 42
-0.00073217363
  0
VERTEX
  5
9BE0
  8
AM_0
 10
75.478296876759401
 20
355.53396240828903
 30
0.0
 42
-0.00073754168
  0
VERTEX
  5
9BE1
  8
AM_0
 10
75.533116876759379
 20
356.13550240828903
 30
0.0
 42
-0.00073075073
  0
VERTEX
  5
9BE2
  8
AM_0
 10
75.589696876759419
 20
356.73686240828903
 30
0.0
 42
-0.00074550816
  0
VERTEX
  5
9BE3
  8
AM_0
 10
75.648036876759363
 20
357.3379224082891
 30
0.0
 42
-0.00074288416
  0
VERTEX
  5
9BE4
  8
AM_0
 10
75.70818687675937
 20
357.93894240828922
 30
0.0
 42
-0.00072504001
  0
VERTEX
  5
9BE5
  8
AM_0
 10
75.770096876759382
 20
358.53969240828911
 30
0.0
 42
-0.00074640667
  0
VERTEX
  5
9BE6
  8
AM_0
 10
75.833766876759384
 20
359.1402924082891
 30
0.0
  0
SEQEND
  5
9BE7
  8
AM_0
  0
ARC
  5
9BE8
  8
AM_0
 10
108.74715687675941
 20
330.58072240828909
 30
0.0
 40
1.0000056999999991
 50
269.999989999999
 51
90.00000299999769
  0
ARC
  5
9BE9
  8
AM_0
 10
110.0353668767593
 20
330.58072240828909
 30
0.0
 40
1.2700266
 50
269.62931999999989
 51
90.370670000004694
  0
ARC
  5
9BEA
  8
AM_0
 10
108.74715687675941
 20
340.58072240828909
 30
0.0
 40
1.0000056999999991
 50
269.999989999999
 51
90.00000299999769
  0
ARC
  5
9BEB
  8
AM_0
 10
110.0353668767593
 20
340.59073240828911
 30
0.0
 40
1.2700266
 50
269.62931999999989
 51
90.370670000004694
  0
ARC
  5
9BEC
  8
AM_0
 10
109.9734168767593
 20
350.59573240828911
 30
0.0
 40
1.3350147999999991
 50
269.73042999999973
 51
90.269556000001344
  0
ARC
  5
9BED
  8
AM_0
 10
108.74715687675941
 20
350.58072240828898
 30
0.0
 40
1.0000056999999991
 50
269.999989999999
 51
90.00000299999769
  0
ARC
  5
9BEE
  8
AM_0
 10
159.28841687675941
 20
367.9407024082891
 30
0.0
 40
1.0
 50
90.00000299999769
 51
180.00001000000091
  0
ARC
  5
9BEF
  8
AM_0
 10
159.30843687675929
 20
368.08072240828909
 30
0.0
 40
1.5
 50
90.00000299999769
 51
180.00001000000091
  0
ARC
  5
9BF0
  8
AM_0
 10
141.30843687675929
 20
368.08072240828909
 30
0.0
 40
1.5
 50
0.0
 51
90.00000299999769
  0
ARC
  5
9BF1
  8
AM_0
 10
141.32845687675939
 20
367.9407024082891
 30
0.0
 40
1.0
 50
0.0
 51
90.00000299999769
  0
LINE
  5
9BF2
  8
AM_0
 10
159.30843687675929
 20
362.07071240828913
 30
0.0
 11
177.35409687675929
 21
362.07071240828913
 31
0.0
  0
LINE
  5
9BF3
  8
AM_0
 10
173.65560687675941
 20
361.58072240828898
 30
0.0
 11
159.30843687675929
 21
361.58072240828898
 31
0.0
  0
CIRCLE
  5
9BF4
  8
AM_0
 10
152.8084368767594
 20
364.08072240828909
 30
0.0
 40
1.0
  0
LINE
  5
9BF5
  8
AM_0
 10
142.32845687675939
 20
363.08072240828898
 30
0.0
 11
142.32845687675939
 21
367.9407024082891
 31
0.0
  0
LINE
  5
9BF6
  8
AM_0
 10
142.8084368767594
 20
363.08072240828898
 30
0.0
 11
142.8084368767594
 21
368.08072240828909
 31
0.0
  0
ARC
  5
9BF7
  8
AM_0
 10
141.30843687675929
 20
363.08072240828898
 30
0.0
 40
1.02
 50
269.999989999999
 51
0.0000006832429909
  0
ARC
  5
9BF8
  8
AM_0
 10
141.30843687675929
 20
363.08072240828898
 30
0.0
 40
1.5
 50
269.999989999999
 51
0.0000006832495047
  0
CIRCLE
  5
9BF9
  8
AM_0
 10
147.8084368767594
 20
364.08072240828909
 30
0.0
 40
1.149999999999999
  0
CIRCLE
  5
9BFA
  8
AM_0
 10
147.8084368767594
 20
364.08072240828909
 30
0.0
 40
1.1000000000000001
  0
LINE
  5
9BFB
  8
AM_0
 10
157.8084368767594
 20
363.08072240828898
 30
0.0
 11
157.8084368767594
 21
368.08072240828909
 31
0.0
  0
LINE
  5
9BFC
  8
AM_0
 10
158.28841687675941
 20
363.08072240828898
 30
0.0
 11
158.28841687675941
 21
367.9407024082891
 31
0.0
  0
ARC
  5
9BFD
  8
AM_0
 10
159.30843687675929
 20
363.08072240828898
 30
0.0
 40
1.5
 50
179.99998999999889
 51
270.0
  0
ARC
  5
9BFE
  8
AM_0
 10
159.30843687675929
 20
363.08072240828898
 30
0.0
 40
1.02
 50
179.99998999999889
 51
270.0
  0
LINE
  5
9BFF
  8
AM_0
 10
180.3084368767594
 20
367.52066240828913
 30
0.0
 11
188.3084368767594
 21
367.52066240828913
 31
0.0
  0
ARC
  5
9C00
  8
AM_0
 10
177.34841687675939
 20
360.61075240828887
 30
0.0
 40
1.460011199999999
 50
269.77524999999662
 51
90.224749999996845
  0
ARC
  5
9C01
  8
AM_0
 10
173.6484068767594
 20
360.58072240828898
 30
0.0
 40
1.0000255999999981
 50
269.58947000000319
 51
90.410530999997775
  0
LINE
  5
9C02
  8
AM_0
 10
159.28841687675941
 20
368.94070240828898
 30
0.0
 11
177.12844687675931
 21
368.94070240828898
 31
0.0
  0
ARC
  5
9C03
  8
AM_0
 10
172.43850687675939
 20
389.86246240828888
 30
0.0
 40
1.9982919999999991
 50
15.032547999996
 51
90.002632000001341
  0
LINE
  5
9C04
  8
AM_0
 10
178.51415687675939
 20
379.59955240828913
 30
0.0
 11
174.3684368767594
 21
395.08066240828902
 31
0.0
  0
LINE
  5
9C05
  8
AM_0
 10
178.5141868767594
 20
380.50955240828921
 30
0.0
 11
174.36846687675941
 21
395.9906624082891
 31
0.0
  0
LINE
  5
9C06
  8
AM_0
 10
178.51415687675939
 20
377.74957240828911
 30
0.0
 11
174.3684368767594
 21
393.23071240828898
 31
0.0
  0
LINE
  5
9C07
  8
AM_0
 10
180.3084368767594
 20
381.58072240828898
 30
0.0
 11
188.3084368767594
 21
381.58072240828898
 31
0.0
  0
LINE
  5
9C08
  8
AM_0
 10
178.50844687675931
 20
374.92065240828902
 30
0.0
 11
174.3684368767594
 21
390.38067240828917
 31
0.0
  0
ARC
  5
9C09
  8
AM_0
 10
179.9616368767594
 20
380.9134824082891
 30
0.0
 40
1.502775999999999
 50
194.7564299999992
 51
269.8775799999986
  0
ARC
  5
9C0A
  8
AM_0
 10
177.12844687675931
 20
370.62576240828912
 30
0.0
 40
1.6750020000000001
 50
269.999989999999
 51
90.00000299999769
  0
ARC
  5
9C0B
  8
AM_0
 10
173.64846687675939
 20
370.58072240828898
 30
0.0
 40
1.0
 50
269.999989999999
 51
90.00000299999769
  0
ARC
  5
9C0C
  8
AM_0
 10
179.9616368767594
 20
375.30350240828921
 30
0.0
 40
1.502775999999999
 50
194.7564299999992
 51
269.8775799999986
  0
ARC
  5
9C0D
  8
AM_0
 10
179.9616368767594
 20
380.00345240828898
 30
0.0
 40
1.502775999999999
 50
194.7564299999992
 51
269.8775799999986
  0
ARC
  5
9C0E
  8
AM_0
 10
179.9616368767594
 20
378.15347240828919
 30
0.0
 40
1.502775999999999
 50
194.7564299999992
 51
269.8775799999986
  0
LINE
  5
9C0F
  8
AM_0
 10
174.84841687675939
 20
388.58072240828898
 30
0.0
 11
180.3084368767594
 21
388.58072240828898
 31
0.0
  0
LINE
  5
9C10
  8
AM_0
 10
180.3084368767594
 20
391.58072240828898
 30
0.0
 11
188.3084368767594
 21
391.58072240828898
 31
0.0
  0
ARC
  5
9C11
  8
AM_0
 10
172.43361687675929
 20
394.55594240828913
 30
0.0
 40
2.0047290000000002
 50
15.173495999996319
 51
89.861678000000197
  0
ARC
  5
9C12
  8
AM_0
 10
172.43361687675929
 20
395.46597240828902
 30
0.0
 40
2.0047290000000002
 50
15.173495999996319
 51
89.861678000000197
  0
ARC
  5
9C13
  8
AM_0
 10
172.43361687675929
 20
392.705962408289
 30
0.0
 40
2.0047290000000002
 50
15.173495999996319
 51
89.861678000000197
  0
TEXT
  5
A124
  8
0
  6
CONTINUOUS
 62
     0
 10
414.85256976978371
 20
318.63739731530592
 30
0.0
 40
10.0
  1
VX01-060BF~VX01-200BF
  0
VIEWPORT
  5
89
 67
     1
  8
0
 10
210.0
 20
148.5
 30
0.0
 40
420.0
 41
297.0
 68
    -1
 69
     1
1001
ACAD
1000
MVIEW
1002
{
1070
    16
1010
0.0
1020
0.0
1030
0.0
1010
0.0
1020
0.0
1030
1.0
1040
0.0
1040
297.0
1040
221.70154043645701
1040
148.5
1040
50.0
1040
0.0
1040
0.0
1070
     0
1070
   100
1070
     1
1070
     1
1070
     0
1070
     0
1070
     0
1070
     0
1040
0.0
1040
0.0
1040
0.0
1040
10.0
1040
10.0
1040
10.0
1040
10.0
1070
     0
1002
{
1002
}
1002
}
1001
GENIUS_GENOREF_13
1005
1B94
1001
GENIUS_GENSCREG_15
1000
PF
1040
1.0
1000
DF
1040
1.0
1000
MIN
1011
0.0
1021
0.0
1031
0.0
1021
0.0
1031
0.0
1000
MAX
1011
420.0
1021
0.0
1031
0.0
1021
297.0
1031
0.0
1000
FLAGS
1070
     4
  0
ENDSEC
  0
EOF
