  0
SECTION
  2
HEADER
  9
$ACADVER
  1
AC1009
  9
$INSBASE
 10
0.0
 20
0.0
 30
0.0
  9
$EXTMIN
 10
10.069753221471499
 20
3.5624828768777661
 30
-0.0000000000112498
  9
$EXTMAX
 10
708.40380410755893
 20
478.57421677086171
 30
0.0000000000002956
  9
$LIMMIN
 10
0.0
 20
0.0
  9
$LIMMAX
 10
408.0
 20
284.0
  9
$ORTHOMODE
 70
     0
  9
$REGENMODE
 70
     1
  9
$FILLMODE
 70
     1
  9
$QTEXTMODE
 70
     0
  9
$MIRRTEXT
 70
     1
  9
$DRAGMODE
 70
     2
  9
$LTSCALE
 40
1.0
  9
$OSMODE
 70
   551
  9
$ATTMODE
 70
     1
  9
$TEXTSIZE
 40
2.5
  9
$TRACEWID
 40
1.0
  9
$TEXTSTYLE
  7
STANDARD
  9
$CLAYER
  8
AM_0
  9
$CELTYPE
  6
BYLAYER
  9
$CECOLOR
 62
   256
  9
$DIMSCALE
 40
1.0
  9
$DIMASZ
 40
2.5
  9
$DIMEXO
 40
1.0
  9
$DIMDLI
 40
7.0
  9
$DIMRND
 40
0.0
  9
$DIMDLE
 40
0.0
  9
$DIMEXE
 40
1.0
  9
$DIMTP
 40
0.1
  9
$DIMTM
 40
0.1000000001
  9
$DIMTXT
 40
2.5
  9
$DIMCEN
 40
0.0
  9
$DIMTSZ
 40
0.0
  9
$DIMTOL
 70
     0
  9
$DIMLIM
 70
     0
  9
$DIMTIH
 70
     0
  9
$DIMTOH
 70
     0
  9
$DIMSE1
 70
     0
  9
$DIMSE2
 70
     0
  9
$DIMTAD
 70
     3
  9
$DIMZIN
 70
     8
  9
$DIMBLK
  1

  9
$DIMASO
 70
     1
  9
$DIMSHO
 70
     1
  9
$DIMPOST
  1

  9
$DIMAPOST
  1
"
  9
$DIMALT
 70
     0
  9
$DIMALTD
 70
     2
  9
$DIMALTF
 40
0.0393701
  9
$DIMLFAC
 40
1.0
  9
$DIMTOFL
 70
     1
  9
$DIMTVP
 40
0.0
  9
$DIMTIX
 70
     0
  9
$DIMSOXD
 70
     0
  9
$DIMSAH
 70
     0
  9
$DIMBLK1
  1

  9
$DIMBLK2
  1

  9
$DIMSTYLE
  2
AM_JIS
  9
$DIMCLRD
 70
   256
  9
$DIMCLRE
 70
   256
  9
$DIMCLRT
 70
     4
  9
$DIMTFAC
 40
0.71
  9
$DIMGAP
 40
1.0
  9
$LUNITS
 70
     2
  9
$LUPREC
 70
     2
  9
$SKETCHINC
 40
1.0
  9
$FILLETRAD
 40
2.5
  9
$AUNITS
 70
     0
  9
$AUPREC
 70
     3
  9
$MENU
  1
.
  9
$ELEVATION
 40
0.0
  9
$PELEVATION
 40
0.0
  9
$THICKNESS
 40
0.0
  9
$LIMCHECK
 70
     0
  9
$BLIPMODE
 70
     0
  9
$CHAMFERA
 40
2.5
  9
$CHAMFERB
 40
2.5
  9
$SKPOLY
 70
     0
  9
$TDCREATE
 40
2453062.4496249189
  9
$TDUPDATE
 40
2458541.3562676269
  9
$TDINDWG
 40
0.0438418519
  9
$TDUSRTIMER
 40
0.0438416667
  9
$USRTIMER
 70
     1
  9
$ANGBASE
 50
0.0
  9
$ANGDIR
 70
     0
  9
$PDMODE
 70
     0
  9
$PDSIZE
 40
0.0
  9
$PLINEWID
 40
0.0
  9
$COORDS
 70
     1
  9
$SPLFRAME
 70
     0
  9
$SPLINETYPE
 70
     6
  9
$SPLINESEGS
 70
     8
  9
$ATTDIA
 70
     1
  9
$ATTREQ
 70
     1
  9
$HANDLING
 70
     1
  9
$HANDSEED
  5
A1A0
  9
$SURFTAB1
 70
     6
  9
$SURFTAB2
 70
     6
  9
$SURFTYPE
 70
     6
  9
$SURFU
 70
     6
  9
$SURFV
 70
     6
  9
$UCSNAME
  2

  9
$UCSORG
 10
0.0
 20
0.0
 30
0.0
  9
$UCSXDIR
 10
1.0
 20
0.0
 30
0.0
  9
$UCSYDIR
 10
0.0
 20
1.0
 30
0.0
  9
$PUCSNAME
  2

  9
$PUCSORG
 10
0.0
 20
0.0
 30
0.0
  9
$PUCSXDIR
 10
1.0
 20
0.0
 30
0.0
  9
$PUCSYDIR
 10
0.0
 20
1.0
 30
0.0
  9
$USERI1
 70
     0
  9
$USERI2
 70
     0
  9
$USERI3
 70
     0
  9
$USERI4
 70
     0
  9
$USERI5
 70
     0
  9
$USERR1
 40
0.0
  9
$USERR2
 40
0.0
  9
$USERR3
 40
0.0
  9
$USERR4
 40
0.0
  9
$USERR5
 40
0.0
  9
$WORLDVIEW
 70
     1
  9
$SHADEDGE
 70
     3
  9
$SHADEDIF
 70
    70
  9
$TILEMODE
 70
     1
  9
$MAXACTVP
 70
    48
  9
$PLIMCHECK
 70
     0
  9
$PEXTMIN
 10
1.0000000000000000E+020
 20
1.0000000000000000E+020
 30
1.0000000000000000E+020
  9
$PEXTMAX
 10
-1.0000000000000000E+020
 20
-1.0000000000000000E+020
 30
-1.0000000000000000E+020
  9
$PLIMMIN
 10
0.0
 20
0.0
  9
$PLIMMAX
 10
420.0
 20
297.0
  9
$UNITMODE
 70
     0
  9
$VISRETAIN
 70
     1
  9
$PLINEGEN
 70
     0
  9
$PSLTSCALE
 70
     1
  0
ENDSEC
  0
SECTION
  2
TABLES
  0
TABLE
  2
VPORT
 70
     1
  0
VPORT
  2
*ACTIVE
 70
     0
 10
0.0
 20
0.0
 11
1.0
 21
1.0
 12
359.23677866451521
 22
241.06834982386971
 13
0.0
 23
0.0
 14
1.0
 24
1.0
 15
10.0
 25
10.0
 16
0.0
 26
0.0
 36
1.0
 17
0.0
 27
0.0
 37
0.0
 40
478.27268401224927
 41
1.7571592210767459
 42
50.0
 43
0.0
 44
0.0
 50
0.0
 51
0.0
 71
     0
 72
   100
 73
     1
 74
     1
 75
     0
 76
     0
 77
     0
 78
     0
  0
ENDTAB
  0
TABLE
  2
LTYPE
 70
    25
  0
LTYPE
  2
CONTINUOUS
 70
     0
  3
Solid line
 72
    65
 73
     0
 40
0.0
  0
LTYPE
  2
PHANTOM2
 70
     0
  3
Phantom (.5x) ___ _ _ ___ _ _ ___ _ _ ___ _ _
 72
    65
 73
     6
 40
31.75
 49
15.875
 49
-3.174999999999998
 49
3.174999999999998
 49
-3.174999999999998
 49
3.174999999999998
 49
-3.174999999999998
  0
LTYPE
  2
CENTER
 70
     0
  3
Center ____ _ ____ _ ____ _ ____ _ ____ _ ____
 72
    65
 73
     4
 40
50.799999999999997
 49
31.75
 49
-6.3499999999999979
 49
6.3499999999999979
 49
-6.3499999999999979
  0
LTYPE
  2
ACANSTGBM
 70
     0
  3
__ . . __ . .
 72
    65
 73
     6
 40
9.0
 49
4.0
 49
-1.0
 49
1.0
 49
-1.0
 49
1.0
 49
-1.0
  0
LTYPE
  2
ACANSTGLM
 70
     0
  3
_ _ _ _ _
 72
    65
 73
     2
 40
3.0
 49
2.0
 49
-1.0
  0
LTYPE
  2
GEN7
 70
     0
  3
____ . ____ . ____ . ____ . ____ . ____ . ____
 72
    65
 73
     4
 40
14.25
 49
9.75
 49
-1.5
 49
1.5
 49
-1.5
  0
LTYPE
  2
AM_ISO02W050
 70
     0
  3
__ __ __ __ __ __ __ __ __ __ __ __ __ __ __
 72
    65
 73
     2
 40
7.5
 49
6.0
 49
-1.5
  0
LTYPE
  2
AM_ISO08W050
 70
     0
  3
____ . ____ . ____ . ____ . ____ . ____ . ____
 72
    65
 73
     4
 40
18.0
 49
12.0
 49
-1.5
 49
3.0
 49
-1.5
  0
LTYPE
  2
AM_ISO09W050
 70
     0
  3
_____ . . _____ . . _____ . . ____ .. ____
 72
    65
 73
     6
 40
22.5
 49
12.0
 49
-1.5
 49
3.0
 49
-1.5
 49
3.0
 49
-1.5
  0
LTYPE
  2
AMCONSTR
 70
     0
  3
_______________________
 72
    65
 73
     2
 40
9999.0
 49
9999.0
 49
0.0
  0
LTYPE
  2
AM_ISO02W050X2
 70
     0
  3
 _ _ _ _ _ _ _ _ _ _ _ _
 72
    65
 73
     2
 40
3.75
 49
3.0
 49
-0.75
  0
LTYPE
  2
AM_ISO08W050X2
 70
     0
  3
__ . __ . __ . __ . __ . __
 72
    65
 73
     4
 40
9.0
 49
6.0
 49
-0.75
 49
1.5
 49
-0.75
  0
LTYPE
  2
AMZIGZAG
 70
     0
  3
/\/-/\/-/\/-/\/-/\/-/\/
 72
    65
 73
     2
 40
11.000099999999991
 49
0.0001
 49
-11.0
  0
LTYPE
  2
ACJISTGB
 70
     0
  3
__ . . __ . .
 72
    65
 73
     6
 40
9.0
 49
4.0
 49
-1.0
 49
1.0
 49
-1.0
 49
1.0
 49
-1.0
  0
LTYPE
  2
ACJISTGL
 70
     0
  3
_ _ _ _ _
 72
    65
 73
     2
 40
3.0
 49
2.0
 49
-1.0
  0
LTYPE
  2
ACISOWELD
 70
     0
  3
_ _ _ _ _
 72
    65
 73
     2
 40
2.0
 49
2.0
 49
-1.0
  0
LTYPE
  2
ACISOTGB
 70
     0
  3
__ . . __ . .
 72
    65
 73
     6
 40
9.0
 49
4.0
 49
-1.0
 49
1.0
 49
-1.0
 49
1.0
 49
-1.0
  0
LTYPE
  2
ACISOTGL
 70
     0
  3
_ _ _ _ _
 72
    65
 73
     2
 40
3.0
 49
2.0
 49
-1.0
  0
LTYPE
  2
HIDDEN
 70
     0
  3
Hidden __ __ __ __ __ __ __ __ __ __ __ __ __ _
 72
    65
 73
     2
 40
0.375
 49
0.25
 49
-0.125
  0
LTYPE
  2
CENTER2
 70
     0
  3
Center (.5x) ___ _ ___ _ ___ _ ___ _ ___ _ ___
 72
    65
 73
     4
 40
1.125
 49
0.75
 49
-0.125
 49
0.125
 49
-0.125
  0
LTYPE
  2
HIDDEN2
 70
     0
  3
Hidden (.5x) _ _ _ _ _ _ _ _ _ _ _ _ _ _ _ _ _
 72
    65
 73
     2
 40
0.1875
 49
0.125
 49
-0.0625
  0
LTYPE
  2
AMZIGZAG2
 70
     0
  3
/\/-/\/-/\/-/\/-/\/-/\/
 72
    65
 73
     2
 40
0.4401
 49
0.0001
 49
-0.4400000000000001
  0
LTYPE
  2
ACANSTGB
 70
     0
  3
__ . . __ . .
 72
    65
 73
     6
 40
0.35433070866
 49
0.15748031496
 49
-0.03937007874
 49
0.03937007874
 49
-0.03937007874
 49
0.03937007874
 49
-0.03937007874
  0
LTYPE
  2
ACANSTGL
 70
     0
  3
_ _ _ _ _
 72
    65
 73
     2
 40
0.11811023622
 49
0.07874015748
 49
-0.03937007874
  0
ENDTAB
  0
TABLE
  2
LAYER
 70
     6
  0
LAYER
  2
0
 70
     0
 62
     7
  6
CONTINUOUS
  0
LAYER
  2
AM_0
 70
     0
 62
     7
  6
CONTINUOUS
  0
LAYER
  2
DEFPOINTS
 70
     0
 62
     7
  6
CONTINUOUS
  0
LAYER
  2
ﾁｭｳｼﾝｾﾝ
 70
     0
 62
     1
  6
GEN7
  0
LAYER
  2
AM_0N
 70
     0
 62
     7
  6
CONTINUOUS
  0
LAYER
  2
AM_5
 70
     0
 62
     2
  6
CONTINUOUS
  0
ENDTAB
  0
TABLE
  2
STYLE
 70
    10
  0
STYLE
  2
STANDARD
 70
     0
 40
0.0
 41
0.8299999999999999
 50
0.0
 71
     0
 42
2.5
  3
txt.shx
  4
bigfont.shx
  0
STYLE
  2
ANNOTATIVE
 70
     0
 40
0.0
 41
1.0
 50
0.0
 71
     0
 42
0.2
  3
txt
  4

  0
STYLE
  2
ACANSTS
 70
     0
 40
1.0
 41
1.0
 50
0.0
 71
     0
 42
2.5
  3
romans.shx
  4
bigfont.shx
  0
STYLE
  2
ACANSGDT
 70
     0
 40
0.0
 41
1.0
 50
0.0
 71
     0
 42
2.5
  3
amgdt.shx
  4

  0
STYLE
  2

 70
     1
 40
0.0
 41
1.0
 50
0.0
 71
     0
 42
2.5
  3
ltypeshp.shx
  4

  0
STYLE
  2
ACJISTS
 70
     0
 40
1.0
 41
0.8299999999999999
 50
0.0
 71
     0
 42
2.5
  3
txt.shx
  4
bigfont.shx
  0
STYLE
  2
ACJISGDT
 70
     0
 40
0.0
 41
1.0
 50
0.0
 71
     0
 42
2.5
  3
amgdt.shx
  4

  0
STYLE
  2
ACISOTS
 70
     0
 40
1.0
 41
1.0
 50
0.0
 71
     0
 42
2.5
  3
isocp.shx
  4
extfont.shx
  0
STYLE
  2
ACISOGDT
 70
     0
 40
0.0
 41
1.0
 50
0.0
 71
     0
 42
2.5
  3
amgdt.shx
  4

  0
STYLE
  2

 70
     1
 40
0.0
 41
1.0
 50
0.0
 71
     0
 42
2.5
  3
genltshp.shx
  4

  0
ENDTAB
  0
TABLE
  2
VIEW
 70
    12
  0
VIEW
  2
GEN1
 70
     0
 40
95.824742268041234
 10
71.5
 20
137.08762886597941
 41
143.0
 11
0.0
 21
0.0
 31
1.0
 12
0.0
 22
0.0
 32
0.0
 42
50.0
 43
0.0
 44
0.0
 50
0.0
 71
     0
  0
VIEW
  2
GEN2
 70
     0
 40
95.824742268041234
 10
214.5
 20
137.08762886597941
 41
143.0
 11
0.0
 21
0.0
 31
1.0
 12
0.0
 22
0.0
 32
0.0
 42
50.0
 43
0.0
 44
0.0
 50
0.0
 71
     0
  0
VIEW
  2
GEN3
 70
     0
 40
95.824742268041234
 10
71.5
 20
47.912371134020603
 41
143.0
 11
0.0
 21
0.0
 31
1.0
 12
0.0
 22
0.0
 32
0.0
 42
50.0
 43
0.0
 44
0.0
 50
0.0
 71
     0
  0
VIEW
  2
GEN4
 70
     0
 40
95.824742268041234
 10
214.5
 20
47.912371134020603
 41
143.0
 11
0.0
 21
0.0
 31
1.0
 12
0.0
 22
0.0
 32
0.0
 42
50.0
 43
0.0
 44
0.0
 50
0.0
 71
     0
  0
VIEW
  2
GEN5
 70
     0
 40
95.824742268041234
 10
143.0
 20
92.500000000000057
 41
143.0
 11
0.0
 21
0.0
 31
1.0
 12
0.0
 22
0.0
 32
0.0
 42
50.0
 43
0.0
 44
0.0
 50
0.0
 71
     0
  0
VIEW
  2
GEN6
 70
     0
 40
191.64756804123709
 10
143.0
 20
92.5
 41
285.99713999999989
 11
0.0
 21
0.0
 31
1.0
 12
0.0
 22
0.0
 32
0.0
 42
50.0
 43
0.0
 44
0.0
 50
0.0
 71
     0
  0
VIEW
  2
AM_VIEW1
 70
     0
 40
142.0
 10
119.7777777777777
 20
213.0
 41
239.55555555555549
 11
0.0
 21
0.0
 31
1.0
 12
0.0
 22
0.0
 32
0.0
 42
50.0
 43
0.0
 44
0.0
 50
0.0
 71
     0
  0
VIEW
  2
AM_VIEW2
 70
     0
 40
142.0
 10
288.22222222222211
 20
213.0
 41
239.55555555555549
 11
0.0
 21
0.0
 31
1.0
 12
0.0
 22
0.0
 32
0.0
 42
50.0
 43
0.0
 44
0.0
 50
0.0
 71
     0
  0
VIEW
  2
AM_VIEW3
 70
     0
 40
142.0
 10
119.7777777777777
 20
71.0
 41
239.55555555555549
 11
0.0
 21
0.0
 31
1.0
 12
0.0
 22
0.0
 32
0.0
 42
50.0
 43
0.0
 44
0.0
 50
0.0
 71
     0
  0
VIEW
  2
AM_VIEW4
 70
     0
 40
142.0
 10
288.22222222222211
 20
71.0
 41
239.55555555555549
 11
0.0
 21
0.0
 31
1.0
 12
0.0
 22
0.0
 32
0.0
 42
50.0
 43
0.0
 44
0.0
 50
0.0
 71
     0
  0
VIEW
  2
AM_VIEW5
 70
     0
 40
142.0
 10
204.0
 20
142.0
 41
239.55555555555549
 11
0.0
 21
0.0
 31
1.0
 12
0.0
 22
0.0
 32
0.0
 42
50.0
 43
0.0
 44
0.0
 50
0.0
 71
     0
  0
VIEW
  2
AM_VIEW6
 70
     0
 40
283.99716000000001
 10
204.0
 20
142.0
 41
479.10631999999993
 11
0.0
 21
0.0
 31
1.0
 12
0.0
 22
0.0
 32
0.0
 42
50.0
 43
0.0
 44
0.0
 50
0.0
 71
     0
  0
ENDTAB
  0
TABLE
  2
UCS
 70
     0
  0
ENDTAB
  0
TABLE
  2
APPID
 70
   106
  0
APPID
  2
ACAD
 70
     0
  0
APPID
  2
ACADANNOTATIVE
 70
     0
  0
APPID
  2
MCAD_NO_VIS
 70
     0
  0
APPID
  2
ACAD_TEMP_GRAPHIC
 70
     0
  0
APPID
  2
AD_DRAW
 70
     0
  0
APPID
  2
DESIGNERASSEMBLIES
 70
     0
  0
APPID
  2
ASURF_PCURVE_APPNAME
 70
     0
  0
APPID
  2
GENIUS_GE3SECT_13
 70
     0
  0
APPID
  2
GENIUS_GENCFG_13
 70
     0
  0
APPID
  2
GENIUS_GE3CFG0_13
 70
     0
  0
APPID
  2
GENIUS_GENCFG0_13
 70
     0
  0
APPID
  2
GENIUS_GENCFG1_13
 70
     0
  0
APPID
  2
GENIUS_GENCFG2_13
 70
     0
  0
APPID
  2
GENIUS_GENCFG3_13
 70
     0
  0
APPID
  2
GENIUS_GENCFG4_13
 70
     0
  0
APPID
  2
GENIUS_GEVCFG0_13
 70
     0
  0
APPID
  2
GENIUS_GENOENT_13
 70
     0
  0
APPID
  2
GENIUS_GENREC_14
 70
     0
  0
APPID
  2
GENIUS_GENODEF_13
 70
     0
  0
APPID
  2
GENIUS_GENOBJ-N-REC_13
 70
     0
  0
APPID
  2
GENIUS_GENHINW_13
 70
     0
  0
APPID
  2
GENIUS_FIRSTVISTXT_14
 70
     0
  0
APPID
  2
GENIUS_GENOBJ-N-LEADER_13
 70
     0
  0
APPID
  2
GENIUS_GENOREF_13
 70
     0
  0
APPID
  2
GENIUS_GENOLIS_13
 70
     0
  0
APPID
  2
GEV_VCCNULL_SWITCH_OFF
 70
     0
  0
APPID
  2
GENIUS_GENDTOL_13
 70
     0
  0
APPID
  2
GENIUS_GEFCFG0_13
 70
     0
  0
APPID
  2
GENIUS_GENOBJ-N-TIT_13
 70
     0
  0
APPID
  2
GENIUS_GENTITLE_13
 70
     0
  0
APPID
  2
GENIUS_GENZVEED_13
 70
     0
  0
APPID
  2
GENIUS_GENOBJ-N-SDF_13
 70
     0
  0
APPID
  2
GENIUS_GENSCREG_13
 70
     0
  0
APPID
  2
GENIUS_DUMCFG0_13
 70
     0
  0
APPID
  2
GEVID936201362
 70
     0
  0
APPID
  2
GEVDC
 70
     0
  0
APPID
  2
GEVCON
 70
     0
  0
APPID
  2
VCC
 70
     0
  0
APPID
  2
GEVPT
 70
     0
  0
APPID
  2
GEVIT
 70
     0
  0
APPID
  2
GENBH
 70
     0
  0
APPID
  2
GEVMK
 70
     0
  0
APPID
  2
GENIUS_GENBH_13
 70
     0
  0
APPID
  2
GENIUS_GENOBJ-NBEHI-BHF_13
 70
     0
  0
APPID
  2
GENIUS_GENOBJ-NBEHI-BHB_13
 70
     0
  0
APPID
  2
GENIUS_GENOBJ-F-DESC_13
 70
     0
  0
APPID
  2
GENIUS_GEFDESC_14
 70
     0
  0
APPID
  2
GENIUS_GENOBJ-F-PART_13
 70
     0
  0
APPID
  2
GENIUS_GEFSTDP_13
 70
     0
  0
APPID
  2
GENIUS_GEFPARTINS_13
 70
     0
  0
APPID
  2
GENIUS_GENTRA_14
 70
     0
  0
APPID
  2
GENIUS_GENINF13_13
 70
     0
  0
APPID
  2
GENIUS_GENOBJ-N-INFOPT_13
 70
     0
  0
APPID
  2
GENIUS_GENOBJ-N-RSSYM_13
 70
     0
  0
APPID
  2
GENIUS_GENSYMENT_13
 70
     0
  0
APPID
  2
GENIUS_GENSCSYM_13
 70
     0
  0
APPID
  2
GENIUS_GEFINFNAM_13
 70
     0
  0
APPID
  2
GENIUS_GENSCREG_15
 70
     0
  0
APPID
  2
GENIUS_GENOBJ-N-CEN_13
 70
     0
  0
APPID
  2
GENIUS_GENOBJ-N-CRS_13
 70
     0
  0
APPID
  2
GENIUS_GENOBJ-N-CRC_13
 70
     0
  0
APPID
  2
GENIUS_GENCRC_14
 70
     0
  0
APPID
  2
GEVID942827039
 70
     0
  0
APPID
  2
GEVID942827040
 70
     0
  0
APPID
  2
GEVID942827041
 70
     0
  0
APPID
  2
GENIUS_GENOBJ-F-SCPASSM_13
 70
     0
  0
APPID
  2
GENIUS_GENDIMSH_14
 70
     0
  0
APPID
  2
GENIUS_GENFIL_13
 70
     0
  0
APPID
  2
GENIUS_GENOBJ-N-CHA_13
 70
     0
  0
APPID
  2
GENIUS_GENOBJ-N-FIL_13
 70
     0
  0
APPID
  2
GEVID942827042
 70
     0
  0
APPID
  2
GEVID946020473
 70
     0
  0
APPID
  2
GEVID946020474
 70
     0
  0
APPID
  2
GEVID946020475
 70
     0
  0
APPID
  2
GENIUS_GENOBJ-N-HTC_13
 70
     0
  0
APPID
  2
GENIUS_GENHATCH_13
 70
     0
  0
APPID
  2
GEVID948854295
 70
     0
  0
APPID
  2
GEVID939402019
 70
     0
  0
APPID
  2
GEVID952919491
 70
     0
  0
APPID
  2
GEVID952919492
 70
     0
  0
APPID
  2
GENIUS_GEFWELD_13
 70
     0
  0
APPID
  2
GENIUS_GENOBJ-F-WELS_13
 70
     0
  0
APPID
  2
GEVID952919493
 70
     0
  0
APPID
  2
GENIUS_GENOBJ-N-RSBK_13
 70
     0
  0
APPID
  2
GENIUS_GENOBJ-N-LIB_13
 70
     0
  0
APPID
  2
GENIUS_GENSCALE_13
 70
     0
  0
APPID
  2
GEVID986376691
 70
     0
  0
APPID
  2
ACATTRIBSERVICES
 70
     0
  0
APPID
  2
ACADM_DIM_EDIT
 70
     0
  0
APPID
  2
AMDT_DM_ADJ
 70
     0
  0
APPID
  2
GEVID1057795304
 70
     0
  0
APPID
  2
GENIUS_GEFSH_13
 70
     0
  0
APPID
  2
GENIUS_GENOBJ-F-SHS_13
 70
     0
  0
APPID
  2
GENIUS_GENOBJ-N-ADDLEAD_13
 70
     0
  0
APPID
  2
GENIUS_GENMAINADDLEADER_14
 70
     0
  0
APPID
  2
GENIUS_GENADDLEADER_14
 70
     0
  0
APPID
  2
GENIUS_GENDREL_13
 70
     0
  0
APPID
  2
GEVID1121934822
 70
     0
  0
APPID
  2
GEVID1121934823
 70
     0
  0
APPID
  2
GEVID1121934824
 70
     0
  0
APPID
  2
ACAD_DSTYLE_DIMJAG
 70
     0
  0
APPID
  2
ACAD_DSTYLE_DIMBREAK
 70
     0
  0
APPID
  2
ACAD_NAV_VCDISPLAY
 70
     0
  0
APPID
  2
ACADANNOPO
 70
     0
  0
APPID
  2
ACAD_EXEMPT_FROM_CAD_STANDARDS
 70
     0
  0
APPID
  2
ACAD_MLEADERVER
 70
     0
  0
ENDTAB
  0
TABLE
  2
DIMSTYLE
 70
    29
  0
DIMSTYLE
  2
STANDARD
 70
     0
  3

  4

  5

  6

  7

 40
1.0
 41
0.18
 42
0.0625
 43
0.38
 44
0.18
 45
0.0
 46
0.0
 47
0.0
 48
0.0
140
0.18
141
0.09
142
0.0
143
25.399999999999999
144
1.0
145
0.0
146
1.0
147
0.09
 71
     0
 72
     0
 73
     1
 74
     1
 75
     0
 76
     0
 77
     0
 78
     0
170
     0
171
     2
172
     0
173
     0
174
     0
175
     0
176
     0
177
     0
178
     0
  0
DIMSTYLE
  2
ANNOTATIVE
 70
     0
  3

  4

  5

  6

  7

 40
1.0
 41
0.18
 42
0.0625
 43
0.38
 44
0.18
 45
0.0
 46
0.0
 47
0.0
 48
0.0
140
0.18
141
0.09
142
0.0
143
25.399999999999999
144
1.0
145
0.0
146
1.0
147
0.09
 71
     0
 72
     0
 73
     1
 74
     1
 75
     0
 76
     0
 77
     0
 78
     0
170
     0
171
     2
172
     0
173
     0
174
     0
175
     0
176
     0
177
     0
178
     0
  0
DIMSTYLE
  2
AM_JIS
 70
     0
  3

  4
"
  5

  6

  7

 40
1.0
 41
2.0
 42
1.0
 43
8.0
 44
1.0
 45
0.0
 46
0.0
 47
0.1
 48
0.1
140
2.5
141
0.0
142
0.0
143
0.0393701
144
1.0
145
0.0
146
0.71
147
1.5
 71
     0
 72
     0
 73
     0
 74
     0
 75
     0
 76
     0
 77
     3
 78
     8
170
     0
171
     2
172
     1
173
     0
174
     0
175
     0
176
   256
177
   256
178
     4
  0
DIMSTYLE
  2
AM_JIS$3
 70
     0
  3

  4
"
  5

  6

  7

 40
1.0
 41
2.0
 42
1.0
 43
10.0
 44
1.0
 45
0.0
 46
0.0
 47
0.1
 48
0.1
140
2.5
141
0.0
142
0.0
143
0.0393701
144
1.0
145
0.0
146
0.71
147
1.5
 71
     0
 72
     0
 73
     0
 74
     1
 75
     0
 76
     0
 77
     3
 78
     8
170
     0
171
     2
172
     0
173
     0
174
     0
175
     0
176
   256
177
   256
178
     4
  0
DIMSTYLE
  2
AM_JIS$4
 70
     0
  3

  4
"
  5

  6

  7

 40
1.0
 41
2.0
 42
1.0
 43
10.0
 44
1.0
 45
0.0
 46
0.0
 47
0.1
 48
0.1
140
2.5
141
0.0
142
0.0
143
0.0393701
144
1.0
145
0.0
146
0.71
147
1.5
 71
     0
 72
     0
 73
     0
 74
     0
 75
     0
 76
     0
 77
     3
 78
     8
170
     0
171
     2
172
     0
173
     0
174
     0
175
     0
176
   256
177
   256
178
     4
  0
DIMSTYLE
  2
AM_JIS$6
 70
     0
  3

  4
"
  5

  6

  7

 40
1.0
 41
2.0
 42
1.0
 43
10.0
 44
1.0
 45
0.0
 46
0.0
 47
0.1
 48
0.1
140
2.5
141
0.0
142
0.0
143
0.0393701
144
1.0
145
0.0
146
0.71
147
1.5
 71
     0
 72
     0
 73
     0
 74
     0
 75
     0
 76
     0
 77
     0
 78
     8
170
     0
171
     2
172
     1
173
     0
174
     0
175
     0
176
   256
177
   256
178
     4
  0
DIMSTYLE
  2
AM_JIS$7
 70
     0
  3

  4
"
  5

  6

  7

 40
1.0
 41
2.0
 42
1.0
 43
10.0
 44
1.0
 45
0.0
 46
0.0
 47
0.1
 48
0.1
140
2.5
141
0.0
142
0.0
143
0.0393701
144
1.0
145
0.0
146
0.71
147
1.5
 71
     0
 72
     0
 73
     0
 74
     0
 75
     0
 76
     0
 77
     3
 78
     8
170
     0
171
     2
172
     1
173
     0
174
     0
175
     0
176
   256
177
   256
178
     4
  0
DIMSTYLE
  2
AM_JIS$SF
 70
     0
  3

  4
"
  5

  6

  7

 40
1.0
 41
2.0
 42
1.0
 43
10.0
 44
1.0
 45
0.0
 46
0.0
 47
0.1
 48
0.1
140
2.5
141
0.0
142
0.0
143
0.0393701
144
1.0
145
0.0
146
0.71
147
1.5
 71
     0
 72
     0
 73
     0
 74
     0
 75
     1
 76
     1
 77
     3
 78
     8
170
     0
171
     2
172
     1
173
     0
174
     0
175
     0
176
   256
177
   256
178
     4
  0
DIMSTYLE
  2
AM_JIS$SH
 70
     0
  3

  4
"
  5

  6

  7

 40
1.0
 41
2.0
 42
1.0
 43
10.0
 44
1.0
 45
0.0
 46
0.0
 47
0.1
 48
0.1
140
2.5
141
0.0
142
0.0
143
0.0393701
144
2.0
145
0.0
146
0.71
147
1.5
 71
     0
 72
     0
 73
     0
 74
     0
 75
     1
 76
     1
 77
     3
 78
     8
170
     0
171
     2
172
     1
173
     1
174
     0
175
     0
176
   256
177
   256
178
     4
  0
DIMSTYLE
  2
AM_ISO
 70
     0
  3

  4
"
  5

  6

  7

 40
1.0
 41
2.5
 42
1.0
 43
10.0
 44
1.0
 45
0.0
 46
0.0
 47
0.1
 48
0.1
140
3.5
141
0.0
142
0.0
143
0.0393701
144
1.0
145
0.0
146
0.71
147
1.5
 71
     0
 72
     0
 73
     0
 74
     0
 75
     0
 76
     0
 77
     1
 78
     8
170
     0
171
     2
172
     1
173
     0
174
     0
175
     0
176
   256
177
   256
178
     2
  0
DIMSTYLE
  2
AM_ISO$3
 70
     0
  3

  4
"
  5

  6

  7

 40
1.0
 41
2.5
 42
1.0
 43
10.0
 44
1.0
 45
0.0
 46
0.0
 47
0.1
 48
0.1
140
3.5
141
0.0
142
0.0
143
0.0393701
144
1.0
145
0.0
146
0.71
147
1.5
 71
     0
 72
     0
 73
     0
 74
     1
 75
     0
 76
     0
 77
     1
 78
     8
170
     0
171
     2
172
     0
173
     0
174
     0
175
     0
176
   256
177
   256
178
     2
  0
DIMSTYLE
  2
AM_ISO$4
 70
     0
  3

  4
"
  5

  6

  7

 40
1.0
 41
2.5
 42
1.0
 43
10.0
 44
1.0
 45
0.0
 46
0.0
 47
0.1
 48
0.1
140
3.5
141
0.0
142
0.0
143
0.0393701
144
1.0
145
0.0
146
0.71
147
1.5
 71
     0
 72
     0
 73
     0
 74
     1
 75
     0
 76
     0
 77
     1
 78
     8
170
     0
171
     2
172
     0
173
     0
174
     0
175
     0
176
   256
177
   256
178
     2
  0
DIMSTYLE
  2
AM_ISO$6
 70
     0
  3

  4
"
  5

  6

  7

 40
1.0
 41
2.5
 42
1.0
 43
10.0
 44
1.0
 45
0.0
 46
0.0
 47
0.1
 48
0.1
140
3.5
141
0.0
142
0.0
143
0.0393701
144
1.0
145
0.0
146
0.71
147
1.5
 71
     0
 72
     0
 73
     0
 74
     0
 75
     0
 76
     0
 77
     0
 78
     8
170
     0
171
     2
172
     1
173
     0
174
     0
175
     0
176
   256
177
   256
178
     2
  0
DIMSTYLE
  2
AM_ISO$7
 70
     0
  3

  4
"
  5

  6

  7

 40
1.0
 41
2.5
 42
1.0
 43
10.0
 44
1.0
 45
0.0
 46
0.0
 47
0.1
 48
0.1
140
5.0
141
0.0
142
0.0
143
0.0393701
144
1.0
145
0.0
146
0.71
147
1.5
 71
     0
 72
     0
 73
     0
 74
     0
 75
     0
 76
     0
 77
     1
 78
     8
170
     0
171
     2
172
     1
173
     0
174
     0
175
     0
176
   256
177
   256
178
     2
  0
DIMSTYLE
  2
AM_ISO$SF
 70
     0
  3

  4
"
  5

  6

  7

 40
1.0
 41
2.5
 42
1.0
 43
10.0
 44
1.0
 45
0.0
 46
0.0
 47
0.1
 48
0.1
140
3.5
141
0.0
142
0.0
143
0.0393701
144
1.0
145
0.0
146
0.71
147
1.5
 71
     0
 72
     0
 73
     0
 74
     0
 75
     1
 76
     1
 77
     1
 78
     8
170
     0
171
     2
172
     1
173
     0
174
     0
175
     0
176
   256
177
   256
178
     2
  0
DIMSTYLE
  2
AM_ISO$SH
 70
     0
  3

  4
"
  5

  6

  7

 40
1.0
 41
2.5
 42
1.0
 43
10.0
 44
1.0
 45
0.0
 46
0.0
 47
0.1
 48
0.1
140
3.5
141
0.0
142
0.0
143
0.0393701
144
2.0
145
0.0
146
0.71
147
1.5
 71
     0
 72
     0
 73
     0
 74
     0
 75
     1
 76
     1
 77
     1
 78
     8
170
     0
171
     2
172
     1
173
     1
174
     0
175
     0
176
   256
177
   256
178
     2
  0
DIMSTYLE
  2
GEN-ANSI
 70
     0
  3

  4
"
  5

  6

  7

 40
1.0
 41
2.0
 42
0.5
 43
10.0
 44
0.5
 45
0.0
 46
0.0
 47
0.1
 48
0.1
140
2.5
141
0.0
142
0.0
143
0.0393701
144
1.0
145
0.0
146
0.71
147
1.5
 71
     0
 72
     0
 73
     1
 74
     1
 75
     0
 76
     0
 77
     0
 78
     8
170
     0
171
     2
172
     0
173
     0
174
     0
175
     0
176
   256
177
   256
178
     4
  0
DIMSTYLE
  2
GEN-ANSI$3
 70
     0
  3

  4
"
  5

  6

  7

 40
1.0
 41
2.0
 42
0.5
 43
10.0
 44
0.5
 45
0.0
 46
0.0
 47
0.1
 48
0.1
140
2.5
141
0.0
142
0.0
143
0.0393701
144
1.0
145
0.0
146
0.71
147
1.5
 71
     0
 72
     0
 73
     1
 74
     1
 75
     0
 76
     0
 77
     0
 78
     8
170
     0
171
     2
172
     0
173
     0
174
     0
175
     0
176
   256
177
   256
178
     4
  0
DIMSTYLE
  2
GEN-ANSI$4
 70
     0
  3

  4
"
  5

  6

  7

 40
1.0
 41
2.0
 42
0.5
 43
10.0
 44
0.5
 45
0.0
 46
0.0
 47
0.1
 48
0.1
140
2.5
141
0.0
142
0.0
143
0.0393701
144
1.0
145
0.0
146
0.71
147
1.5
 71
     0
 72
     0
 73
     1
 74
     1
 75
     0
 76
     0
 77
     0
 78
     8
170
     0
171
     2
172
     0
173
     0
174
     0
175
     0
176
   256
177
   256
178
     4
  0
DIMSTYLE
  2
GEN-ANSI$6
 70
     0
  3

  4
"
  5

  6

  7

 40
1.0
 41
2.0
 42
0.5
 43
10.0
 44
0.5
 45
0.0
 46
0.0
 47
0.1
 48
0.1
140
2.5
141
0.0
142
0.0
143
0.0393701
144
1.0
145
0.0
146
0.71
147
1.5
 71
     0
 72
     0
 73
     1
 74
     1
 75
     0
 76
     0
 77
     0
 78
     8
170
     0
171
     2
172
     0
173
     0
174
     0
175
     0
176
   256
177
   256
178
     4
  0
DIMSTYLE
  2
GEN-ANSI-POS
 70
     0
  3

  4
"
  5

  6

  7

 40
1.0
 41
2.5
 42
0.5
 43
10.0
 44
0.5
 45
0.0
 46
0.0
 47
0.1
 48
0.1
140
5.0
141
0.0
142
0.0
143
0.0393701
144
1.0
145
0.0
146
0.71
147
1.5
 71
     0
 72
     0
 73
     0
 74
     0
 75
     0
 76
     0
 77
     0
 78
     8
170
     0
171
     2
172
     0
173
     0
174
     0
175
     0
176
   256
177
   256
178
     4
  0
DIMSTYLE
  2
GEN-ANSI-AXE-F
 70
     0
  3

  4
"
  5

  6

  7

 40
1.0
 41
2.0
 42
0.5
 43
10.0
 44
0.5
 45
0.0
 46
0.0
 47
0.1
 48
0.1
140
2.5
141
0.0
142
0.0
143
0.0393701
144
1.0
145
0.0
146
0.71
147
1.5
 71
     0
 72
     0
 73
     1
 74
     1
 75
     1
 76
     1
 77
     0
 78
     8
170
     0
171
     2
172
     0
173
     1
174
     0
175
     0
176
   256
177
   256
178
     4
  0
DIMSTYLE
  2
GEN-ANSI-AXE-H
 70
     0
  3

  4
"
  5

  6

  7

 40
1.0
 41
2.0
 42
0.5
 43
10.0
 44
0.5
 45
0.0
 46
0.0
 47
0.1
 48
0.1
140
2.5
141
0.0
142
0.0
143
0.0393701
144
2.0
145
0.0
146
0.71
147
1.5
 71
     0
 72
     0
 73
     0
 74
     0
 75
     1
 76
     1
 77
     0
 78
     8
170
     0
171
     2
172
     1
173
     1
174
     0
175
     0
176
   256
177
   256
178
     4
  0
DIMSTYLE
  2
AM_ANSI
 70
     0
  3

  4
mm
  5

  6

  7

 40
1.0
 41
0.12
 42
0.05
 43
0.5
 44
0.1
 45
0.0
 46
0.0
 47
0.1
 48
0.1
140
0.12
141
0.0
142
0.0
143
25.399999999999999
144
1.0
145
0.0
146
0.71
147
0.06
 71
     0
 72
     0
 73
     1
 74
     1
 75
     0
 76
     0
 77
     0
 78
     7
170
     0
171
     2
172
     0
173
     0
174
     0
175
     0
176
   256
177
   256
178
     2
  0
DIMSTYLE
  2
AM_ANSI$3
 70
     0
  3

  4
mm
  5

  6

  7

 40
1.0
 41
0.12
 42
0.05
 43
0.5
 44
0.1
 45
0.0
 46
0.0
 47
0.1
 48
0.1
140
0.12
141
0.0
142
0.0
143
25.399999999999999
144
1.0
145
0.0
146
0.71
147
0.06
 71
     0
 72
     0
 73
     1
 74
     1
 75
     0
 76
     0
 77
     0
 78
     7
170
     0
171
     2
172
     0
173
     0
174
     0
175
     0
176
   256
177
   256
178
     2
  0
DIMSTYLE
  2
AM_ANSI$4
 70
     0
  3

  4
mm
  5

  6

  7

 40
1.0
 41
0.12
 42
0.05
 43
0.5
 44
0.1
 45
0.0
 46
0.0
 47
0.1
 48
0.1
140
0.12
141
0.0
142
0.0
143
25.399999999999999
144
1.0
145
0.0
146
0.71
147
0.06
 71
     0
 72
     0
 73
     1
 74
     1
 75
     0
 76
     0
 77
     0
 78
     7
170
     0
171
     2
172
     0
173
     0
174
     0
175
     0
176
   256
177
   256
178
     2
  0
DIMSTYLE
  2
AM_ANSI$7
 70
     0
  3

  4
mm
  5

  6

  7

 40
1.0
 41
0.12
 42
0.05
 43
0.5
 44
0.1
 45
0.0
 46
0.0
 47
0.1
 48
0.1
140
0.12
141
0.0
142
0.0
143
25.399999999999999
144
1.0
145
0.0
146
0.71
147
0.06
 71
     0
 72
     0
 73
     1
 74
     1
 75
     0
 76
     0
 77
     0
 78
     7
170
     0
171
     2
172
     0
173
     0
174
     0
175
     0
176
   256
177
   256
178
     2
  0
DIMSTYLE
  2
AM_ANSI$SF
 70
     0
  3

  4
mm
  5

  6

  7

 40
1.0
 41
0.12
 42
0.05
 43
0.5
 44
0.1
 45
0.0
 46
0.0
 47
0.1
 48
0.1
140
0.12
141
0.0
142
0.0
143
25.399999999999999
144
1.0
145
0.0
146
0.71
147
0.06
 71
     0
 72
     0
 73
     1
 74
     1
 75
     1
 76
     1
 77
     0
 78
     7
170
     0
171
     2
172
     0
173
     0
174
     0
175
     0
176
   256
177
   256
178
     2
  0
DIMSTYLE
  2
AM_ANSI$SH
 70
     0
  3

  4
mm
  5

  6
GENAXEH
  7

 40
1.0
 41
0.12
 42
0.05
 43
0.5
 44
0.1
 45
0.0
 46
0.0
 47
0.1
 48
0.1
140
0.12
141
0.0
142
0.0
143
25.399999999999999
144
1.0
145
0.0
146
0.71
147
0.06
 71
     0
 72
     0
 73
     1
 74
     1
 75
     1
 76
     1
 77
     0
 78
     7
170
     0
171
     2
172
     0
173
     1
174
     0
175
     0
176
   256
177
   256
178
     2
  0
ENDTAB
  0
ENDSEC
  0
SECTION
  2
BLOCKS
  0
BLOCK
  8
0
  2
$MODEL_SPACE
 70
     0
 10
0.0
 20
0.0
 30
0.0
  3
$MODEL_SPACE
  1

  0
ENDBLK
  5
A00F
  8
0
  0
BLOCK
 67
     1
  8
0
  2
$PAPER_SPACE
 70
     0
 10
0.0
 20
0.0
 30
0.0
  3
$PAPER_SPACE
  1

  0
ENDBLK
  5
A00B
 67
     1
  8
0
  0
BLOCK
  8
0
  2
GENAXEH
 70
     0
 10
0.0
 20
0.0
 30
0.0
  3
GENAXEH
  1

  0
LINE
  5
9F59
  8
0
 10
-1.0
 20
0.0
 30
0.0
 11
1.0
 21
0.0
 31
0.0
  0
ENDBLK
  5
9F5B
  8
0
  0
BLOCK
  8
0
  2
_ACMFILLEDHALF
 70
     0
 10
0.0
 20
0.0
 30
0.0
  3
_ACMFILLEDHALF
  1

  0
TRACE
  5
A11C
  8
AM_0
 62
     0
 10
-0.8
 20
0.0
 30
0.0
 11
-1.0
 21
0.166666666
 31
0.0
 12
0.0
 22
0.0
 32
0.0
 13
0.0
 23
0.0
 33
0.0
  0
LINE
  5
A11D
  8
AM_0
 62
     0
 10
-1.0
 20
0.0
 30
0.0
 11
-0.8
 21
0.0
 31
0.0
  0
ENDBLK
  5
A11B
  8
0
  0
ENDSEC
  0
SECTION
  2
ENTITIES
  0
POINT
  5
1B94
  8
0
 10
0.0
 20
0.0
 30
0.0
1001
GENIUS_GENODEF_13
1002
{
1000
HIER
1070
     1
1002
}
1002
{
1000
MANEDIT
1070
     0
1002
}
1002
{
1000
NOSEL
1070
     0
1002
}
1002
{
1000
BEHIND
1070
     0
1002
}
1002
{
1000
REACTOR
1002
}
1001
GENIUS_GENOBJ-N-SDF_13
1002
{
1000
OWNER
1000
GEN
1002
}
1001
GENIUS_GENOENT_13
1002
{
1000
MYREF
1005
1B94
1002
}
1002
{
1000
GRP
1005
0
1002
}
1001
GENIUS_GENOLIS_13
1002
{
1000
ENT
1005
89
1002
}
  0
ARC
  5
8C41
  8
AM_0
 10
342.5633257905485
 20
175.13231975819241
 30
0.0
 40
3.0
 50
271.99999999999687
 51
315.00000000000688
  0
LINE
  5
8C42
  8
AM_0
 10
332.27170579054842
 20
51.293615758192118
 30
0.0
 11
372.27172579054837
 21
51.293615758192118
 31
0.0
  0
LINE
  5
8C43
  8
AM_0
 10
332.27170579054842
 20
36.63029975819336
 30
0.0
 11
372.27172579054837
 21
36.63029975819336
 31
0.0
  0
LINE
  5
8C44
  8
AM_0
 10
343.84900579054852
 20
172.17534875819251
 30
0.0
 11
363.20179579054849
 21
154.4691717581924
 31
0.0
  0
LINE
  5
8C45
  8
AM_0
 10
307.27171579054851
 20
8.8980747581931592
 30
0.0
 11
350.02564579054848
 21
7.4050797581933221
 31
0.0
  0
LINE
  5
8C46
  8
AM_0
 10
307.27168579054847
 20
136.14809375819411
 30
0.0
 11
369.21700579054851
 21
136.14809375819411
 31
0.0
  0
LINE
  5
8C47
  8
AM_0
 10
307.27168579054847
 20
23.787860758194249
 30
0.0
 11
372.27172579054837
 21
23.787860758194249
 31
0.0
  0
LINE
  5
8C48
  8
ﾁｭｳｼﾝｾﾝ
 10
241.3687357905487
 20
113.0980767581932
 30
0.0
 11
433.21948579054839
 21
113.0980767581932
 31
0.0
  0
LINE
  5
8C4A
  8
AM_0
 10
218.27173579054869
 20
168.16350875819259
 30
0.0
 11
218.27173579054869
 21
132.04639475819209
 31
0.0
  0
LINE
  5
8C4B
  8
AM_0
 10
195.2717557905487
 20
58.898030758193272
 30
0.0
 11
195.2717557905487
 21
170.8980657581925
 31
0.0
  0
LINE
  5
8C4C
  8
AM_0
 10
290.27170579054831
 20
160.7204217581924
 30
0.0
 11
290.27170579054831
 21
11.42311475819224
 31
0.0
  0
LINE
  5
8C4D
  8
AM_0
 10
263.77168579054882
 20
26.398091758192091
 30
0.0
 11
263.77168579054882
 21
153.39809675819271
 31
0.0
  0
LINE
  5
8C4E
  8
AM_0
 10
307.27168579054847
 20
170.8980657581925
 30
0.0
 11
307.27168579054847
 21
8.8980837581941614
 31
0.0
  0
LINE
  5
8C4F
  8
ﾁｭｳｼﾝｾﾝ
 10
253.89223579054899
 20
114.89806475819221
 30
0.0
 11
17.083002035779138
 21
114.89806475819221
 31
0.0
  0
LINE
  5
8C50
  8
AM_0
 10
195.27169579054839
 20
58.898060758192301
 30
0.0
 11
222.37642579054869
 21
57.951560758193168
 31
0.0
  0
LINE
  5
8C51
  8
AM_0
 10
203.27173579054869
 20
80.961065758193186
 30
0.0
 11
203.27173579054869
 21
70.898063758193274
 31
0.0
  0
LINE
  5
8C52
  8
AM_0
 10
187.27174579054869
 20
68.898062758193191
 30
0.0
 11
195.2717557905487
 21
68.898062758193191
 31
0.0
  0
LINE
  5
8C53
  8
AM_0
 10
187.27174579054869
 20
58.898030758193272
 30
0.0
 11
195.2717557905487
 21
58.898030758193272
 31
0.0
  0
ARC
  5
8C54
  8
AM_0
 10
201.2717557905487
 20
70.898063758193274
 30
0.0
 40
2.00000007
 50
270.0
 51
0.0
  0
LINE
  5
8C55
  8
AM_0
 10
195.2717557905487
 20
68.898062758193191
 30
0.0
 11
201.2717557905487
 21
68.898062758193191
 31
0.0
  0
LINE
  5
8C56
  8
AM_0
 10
187.27174579054869
 20
82.958060758195174
 30
0.0
 11
195.2717557905487
 21
82.958060758195174
 31
0.0
  0
ARC
  5
8C57
  8
AM_0
 10
201.2717557905487
 20
80.961065758193186
 30
0.0
 40
2.00000007
 50
0.0
 51
90.00000299999769
  0
LINE
  5
8C58
  8
AM_0
 10
195.2717557905487
 20
82.961066758195102
 30
0.0
 11
201.2717557905487
 21
82.961066758195102
 31
0.0
  0
LINE
  5
8C59
  8
AM_0
 10
232.4378257905484
 20
56.793767758194249
 30
0.0
 11
257.89303579054871
 21
31.338566758194251
 31
0.0
  0
LINE
  5
8C5A
  8
AM_0
 10
258.77173579054869
 20
28.504034758193249
 30
0.0
 11
258.77173579054869
 21
124.0464267581942
 31
0.0
  0
LINE
  5
8C5B
  8
AM_0
 10
225.2717557905487
 20
34.52681375819315
 30
0.0
 11
225.2717557905487
 21
54.953375758193253
 31
0.0
  0
LINE
  5
8C5C
  8
AM_0
 10
300.27172579054849
 20
121.0472937581951
 30
0.0
 11
300.27172579054849
 21
30.35410175819424
 31
0.0
  0
LINE
  5
8C5D
  8
AM_0
 10
263.77168579054882
 20
38.398091758192102
 30
0.0
 11
290.27170579054831
 21
38.398091758192102
 31
0.0
  0
LINE
  5
8C5E
  8
AM_0
 10
263.77174579054878
 20
26.398091758192091
 30
0.0
 11
285.9985357905486
 21
25.62192275819325
 31
0.0
  0
LINE
  5
8C5F
  8
AM_0
 10
228.1669957905487
 20
31.528646758193201
 30
0.0
 11
256.84150579054858
 21
30.52730375819328
 31
0.0
  0
ARC
  5
8C60
  8
AM_0
 10
228.2717557905487
 20
34.52681375819315
 30
0.0
 40
3.0
 50
179.99998999999889
 51
268.00000999999878
  0
ARC
  5
8C61
  8
AM_0
 10
255.77173579054869
 20
29.217260758195149
 30
0.0
 40
3.0
 50
0.0
 51
45.000000999996892
  0
ARC
  5
8C62
  8
AM_0
 10
256.77175579054881
 20
28.528523758193149
 30
0.0
 40
2.00000007
 50
0.0
 51
88.000000000002998
  0
LINE
  5
8C63
  8
AM_0
 10
260.70193579054848
 20
26.505254758192219
 30
0.0
 11
263.77174579054878
 21
26.398046758193232
 31
0.0
  0
ARC
  5
8C64
  8
AM_0
 10
260.77168579054882
 20
28.504034758193249
 30
0.0
 40
2.00000007
 50
179.99998999999889
 51
268.00000999999878
  0
LINE
  5
8C65
  8
AM_0
 10
258.77173579054869
 20
38.398046758193232
 30
0.0
 11
263.77168579054882
 21
38.398046758193232
 31
0.0
  0
LINE
  5
8C66
  8
AM_0
 10
307.27171579054851
 20
8.8980747581931592
 30
0.0
 11
292.20190579054878
 21
9.4243287581932673
 31
0.0
  0
LINE
  5
8C67
  8
AM_0
 10
292.27168579054882
 20
28.354100758192089
 30
0.0
 11
298.27168579054887
 21
28.354100758192089
 31
0.0
  0
ARC
  5
8C68
  8
AM_0
 10
292.27168579054882
 20
11.42311475819224
 30
0.0
 40
2.00000007
 50
179.99998999999889
 51
268.00000999999878
  0
ARC
  5
8C69
  8
AM_0
 10
292.27168579054882
 20
26.354099758193339
 30
0.0
 40
2.00000007
 50
90.00000299999769
 51
180.00001000000091
  0
ARC
  5
8C6A
  8
AM_0
 10
287.27170579054842
 20
22.380788758195191
 30
0.0
 40
3.0
 50
0.0
 51
79.999998000001099
  0
ARC
  5
8C6B
  8
AM_0
 10
285.89383579054851
 20
22.623737758193322
 30
0.0
 40
3.0
 50
79.999998000001099
 51
88.000000000002998
  0
LINE
  5
8C6C
  8
AM_0
 10
286.41475579054861
 20
25.578161758194248
 30
0.0
 11
287.79265579054851
 21
25.335194758193211
 31
0.0
  0
ARC
  5
8C6D
  8
AM_0
 10
298.27168579054887
 20
30.35410175819424
 30
0.0
 40
2.00000007
 50
270.0
 51
0.0
  0
ARC
  5
8C6E
  8
AM_0
 10
332.27335579054852
 20
43.96196675819418
 30
0.0
 40
7.331659199999998
 50
90.00000299999769
 51
270.0
  0
LINE
  5
8C6F
  8
AM_0
 10
332.27170579054842
 20
37.813298758192097
 30
0.0
 11
332.27170579054842
 21
50.133290758192281
 31
0.0
  0
LINE
  5
8C70
  8
AM_0
 10
263.77168579054882
 20
52.750142758194222
 30
0.0
 11
290.27170579054831
 21
52.750142758194222
 31
0.0
  0
LINE
  5
8C71
  8
AM_0
 10
263.77168579054882
 20
127.0460427581922
 30
0.0
 11
290.27170579054831
 21
127.0460427581922
 31
0.0
  0
LINE
  5
8C72
  8
AM_0
 10
231.60226579054881
 20
59.771720758192252
 30
0.0
 11
231.60226579054881
 21
124.4138277581921
 31
0.0
  0
LINE
  5
8C73
  8
AM_0
 10
222.37642579054869
 20
57.951560758193168
 30
0.0
 11
230.42122579054859
 21
57.670613758193198
 31
0.0
  0
ARC
  5
8C74
  8
AM_0
 10
222.2717557905487
 20
54.953375758193253
 30
0.0
 40
3.0
 50
0.0
 51
88.000000000002998
  0
ARC
  5
8C75
  8
AM_0
 10
230.31655579054839
 20
54.672446758192102
 30
0.0
 40
3.0
 50
45.000000999996892
 51
88.000000000002998
  0
LINE
  5
8C76
  8
AM_0
 10
258.77173579054869
 20
52.749701758192252
 30
0.0
 11
263.77168579054882
 21
52.749701758192252
 31
0.0
  0
LINE
  5
8C78
  8
AM_0
 10
223.2716857905487
 20
127.04642675819331
 30
0.0
 11
263.77168579054882
 21
127.04642675819331
 31
0.0
  0
ARC
  5
8C79
  8
AM_0
 10
223.2716857905487
 20
132.04639475819209
 30
0.0
 40
5.0000000999999967
 50
179.99998999999889
 51
270.0
  0
ARC
  5
8C7F
  8
AM_0
 10
255.77173579054869
 20
124.0464267581942
 30
0.0
 40
3.0
 50
0.0
 51
90.00000299999769
  0
LINE
  5
8C80
  8
AM_0
 10
291.18715579054862
 20
116.5701687581932
 30
0.0
 11
298.27168579054887
 21
116.5701687581932
 31
0.0
  0
ARC
  5
8C81
  8
AM_0
 10
298.27168579054887
 20
114.5701677581941
 30
0.0
 40
2.00000007
 50
0.0
 51
90.00000299999769
  0
LINE
  5
8C82
  8
AM_0
 10
292.27168579054882
 20
123.0472947581932
 30
0.0
 11
298.27168579054887
 21
123.0472947581932
 31
0.0
  0
ARC
  5
8C83
  8
AM_0
 10
292.27168579054882
 20
125.04731075819321
 30
0.0
 40
2.00000007
 50
179.99998999999889
 51
270.0
  0
ARC
  5
8C84
  8
AM_0
 10
298.27168579054887
 20
121.0472937581951
 30
0.0
 40
2.00000007
 50
0.0
 51
90.00000299999769
  0
LINE
  5
8C89
  8
AM_0
 10
195.27169579054839
 20
170.8980657581925
 30
0.0
 11
216.34150579054881
 21
170.16228575819261
 31
0.0
  0
ARC
  5
8C8C
  8
AM_0
 10
201.2717557905487
 20
158.8980657581925
 30
0.0
 40
2.00000007
 50
0.0
 51
90.00000299999769
  0
LINE
  5
8C8D
  8
AM_0
 10
187.27174579054869
 20
146.8380657581925
 30
0.0
 11
195.2717557905487
 21
146.8380657581925
 31
0.0
  0
LINE
  5
8C8E
  8
AM_0
 10
203.27173579054869
 20
158.8980657581925
 30
0.0
 11
203.27173579054869
 21
148.83504575819239
 31
0.0
  0
ARC
  5
8C8F
  8
AM_0
 10
201.2717557905487
 20
148.83504575819239
 30
0.0
 40
2.00000007
 50
270.0
 51
0.0
  0
LINE
  5
8C90
  8
AM_0
 10
195.2717557905487
 20
146.8350777581924
 30
0.0
 11
201.2717557905487
 21
146.8350777581924
 31
0.0
  0
LINE
  5
8C91
  8
AM_0
 10
187.27174579054869
 20
160.89803375819241
 30
0.0
 11
195.2717557905487
 21
160.89803375819241
 31
0.0
  0
LINE
  5
8C92
  8
AM_0
 10
187.27174579054869
 20
170.8980657581925
 30
0.0
 11
195.2717557905487
 21
170.8980657581925
 31
0.0
  0
LINE
  5
8C93
  8
AM_0
 10
195.2717557905487
 20
160.89803375819241
 30
0.0
 11
201.2717557905487
 21
160.89803375819241
 31
0.0
  0
LINE
  5
8C94
  8
AM_0
 10
263.77168579054882
 20
141.39809375819269
 30
0.0
 11
290.27170579054831
 21
141.39809375819269
 31
0.0
  0
LINE
  5
8C95
  8
AM_0
 10
263.77168579054882
 20
153.39809675819271
 30
0.0
 11
285.85882579054851
 21
154.16939675819251
 31
0.0
  0
LINE
  5
8C96
  8
AM_0
 10
218.27173579054869
 20
141.39803375819241
 30
0.0
 11
263.77168579054882
 21
141.39803375819241
 31
0.0
  0
LINE
  5
8C97
  8
AM_0
 10
221.3764357905487
 20
148.03032875819241
 30
0.0
 11
256.84150579054858
 21
149.26879175819209
 31
0.0
  0
ARC
  5
8C98
  8
AM_0
 10
221.27173579054869
 20
151.02852875819241
 30
0.0
 40
3.0
 50
179.99998999999889
 51
271.99999000000111
  0
ARC
  5
8C99
  8
AM_0
 10
216.2717557905487
 20
168.16350875819259
 30
0.0
 40
2.00000007
 50
0.0
 51
88.000000000002998
  0
LINE
  5
8C9A
  8
AM_0
 10
260.84149579054838
 20
153.50036075819219
 30
0.0
 11
263.77168579054882
 21
153.39803375819241
 31
0.0
  0
ARC
  5
8C9B
  8
AM_0
 10
256.77175579054881
 20
151.2676017581926
 30
0.0
 40
2.00000007
 50
271.99999999999687
 51
0.0
  0
LINE
  5
8C9C
  8
AM_0
 10
258.77173579054869
 20
144.39803375819241
 30
0.0
 11
258.77173579054869
 21
151.5016107581925
 31
0.0
  0
ARC
  5
8C9D
  8
AM_0
 10
255.77173579054869
 20
144.39803375819241
 30
0.0
 40
3.0
 50
270.0
 51
0.0
  0
ARC
  5
8C9E
  8
AM_0
 10
260.77168579054882
 20
151.5016107581925
 30
0.0
 40
2.00000007
 50
88.000013999998231
 51
180.00001000000091
  0
LINE
  5
8C9F
  8
AM_0
 10
307.27171579054851
 20
170.8980657581925
 30
0.0
 11
342.66799579054862
 21
172.13414975819239
 31
0.0
  0
ARC
  5
8CA0
  8
AM_0
 10
295.27168579054887
 20
160.7204217581924
 30
0.0
 40
5.0000000999999967
 50
91.999998000000758
 51
180.00001000000091
  0
LINE
  5
8CA1
  8
AM_0
 10
300.27172579054849
 20
168.7222527581925
 30
0.0
 11
300.27172579054849
 21
146.2321707581925
 31
0.0
  0
LINE
  5
8CA2
  8
AM_0
 10
292.27168579054882
 20
144.2321697581925
 30
0.0
 11
298.27168579054887
 21
144.2321697581925
 31
0.0
  0
ARC
  5
8CA3
  8
AM_0
 10
292.27168579054882
 20
142.23217175819241
 30
0.0
 40
2.00000007
 50
90.00000299999769
 51
180.00001000000091
  0
ARC
  5
8CA4
  8
AM_0
 10
285.68434579054849
 20
159.16634375819251
 30
0.0
 40
5.0000000999999967
 50
271.99999999999687
 51
279.99999999999739
  0
ARC
  5
8CA5
  8
AM_0
 10
287.27170579054842
 20
157.41536975819241
 30
0.0
 40
3.0
 50
279.99999999999739
 51
0.0
  0
LINE
  5
8CA6
  8
AM_0
 10
286.55257579054847
 20
154.24230275819261
 30
0.0
 11
287.79265579054851
 21
154.46096075819261
 31
0.0
  0
ARC
  5
8CA7
  8
AM_0
 10
298.27168579054887
 20
146.2321707581925
 30
0.0
 40
2.00000007
 50
270.0
 51
0.0
  0
LINE
  5
8CA8
  8
AM_0
 10
307.27171579054851
 20
170.89809575819251
 30
0.0
 11
302.20192579054861
 21
170.7210627581924
 31
0.0
  0
ARC
  5
8CA9
  8
AM_0
 10
302.27170579054848
 20
168.7222527581925
 30
0.0
 40
2.00000007
 50
91.999998000000758
 51
163.2736499999933
  0
ARC
  5
8CAA
  8
AM_0
 10
295.56784579054857
 20
170.73687275819239
 30
0.0
 40
5.0000000999999967
 50
271.99999999999687
 51
343.27365999999517
  0
LINE
  5
8CAB
  8
AM_0
 10
295.09717579054842
 20
165.71740175819241
 30
0.0
 11
295.74235579054852
 21
165.73992275819251
 31
0.0
  0
ARC
  5
8CB2
  8
AM_0
 10
346.43950579054848
 20
136.14809375819411
 30
0.0
 40
24.832211399999991
 50
349.3816800000028
 51
47.544066000004463
  0
LINE
  5
8CB3
  8
AM_0
 10
372.27172579054837
 20
89.187719758192088
 30
0.0
 11
372.27172579054837
 21
164.22332075819239
 31
0.0
  0
LINE
  5
8CB4
  8
AM_0
 10
376.27168579054847
 20
42.598073758193323
 30
0.0
 11
376.27168579054847
 21
183.27038375819239
 31
0.0
  0
LINE
  5
8CB5
  8
AM_0
 10
382.27168579054847
 20
113.0980767581932
 30
0.0
 11
382.27168579054847
 21
205.5980637581925
 31
0.0
  0
LINE
  5
8CB6
  8
AM_0
 10
386.27170579054842
 20
198.09806375819261
 30
0.0
 11
386.27170579054842
 21
28.098089758193279
 31
0.0
  0
LINE
  5
8CB7
  8
AM_0
 10
372.27172579054837
 20
23.35544375819336
 30
0.0
 11
372.27172579054837
 21
58.727423758192103
 31
0.0
  0
LINE
  5
8CB8
  8
AM_0
 10
382.27168579054847
 20
20.598056758192111
 30
0.0
 11
382.27168579054847
 21
113.0980767581932
 31
0.0
  0
LINE
  5
8CBA
  8
AM_0
 10
350.02561579054839
 20
7.405070758192096
 30
0.0
 11
372.27169579054839
 21
20.248844758193169
 31
0.0
  0
LINE
  5
8CBB
  8
AM_0
 10
372.27172579054837
 20
20.248859758192111
 30
0.0
 11
382.27168579054847
 21
20.59807175819514
 31
0.0
  0
ARC
  5
8CBC
  8
AM_0
 10
375.27172579054849
 20
23.35544375819336
 30
0.0
 40
3.0
 50
179.99998999999889
 51
271.99999000000111
  0
ARC
  5
8CBD
  8
AM_0
 10
373.27168579054847
 20
42.598073758193323
 30
0.0
 40
3.0
 50
270.0
 51
0.0
  0
LINE
  5
8CBE
  8
AM_0
 10
382.27168579054847
 20
28.098089758193279
 30
0.0
 11
386.27170579054842
 21
28.098089758193279
 31
0.0
  0
LINE
  5
8CC0
  8
AM_0
 10
396.27172579054849
 20
130.09809275819219
 30
0.0
 11
428.27173579054841
 21
130.09809275819219
 31
0.0
  0
LINE
  5
8CC1
  8
AM_0
 10
386.27170579054842
 20
99.098075758194213
 30
0.0
 11
428.27173579054841
 21
99.098075758194213
 31
0.0
  0
LINE
  5
8CC2
  8
AM_0
 10
386.27170579054842
 20
127.0980927581932
 30
0.0
 11
428.27173579054841
 21
127.0980927581932
 31
0.0
  0
ARC
  5
8CC3
  8
AM_0
 10
390.91702579054851
 20
103.8658527581951
 30
0.0
 40
24.832211399999991
 50
169.3816800000028
 51
218.79320999999419
  0
ARC
  5
8CC4
  8
AM_0
 10
375.27172579054849
 20
58.727423758192103
 30
0.0
 40
3.0
 50
90.00000299999769
 51
180.00001000000091
  0
ARC
  5
8CC5
  8
AM_0
 10
373.90075579054837
 20
90.187736758192202
 30
0.0
 40
3.0
 50
218.7932199999963
 51
270.0
  0
LINE
  5
8CC6
  8
AM_0
 10
373.90075579054837
 20
87.187736758193296
 30
0.0
 11
376.27168579054847
 21
87.187736758193296
 31
0.0
  0
LINE
  5
8CC7
  8
AM_0
 10
370.84648579054863
 20
131.57236475819511
 30
0.0
 11
366.51004579054847
 21
108.4415817581941
 31
0.0
  0
LINE
  5
8CC8
  8
AM_0
 10
396.27172579054849
 20
130.09809275819219
 30
0.0
 11
396.27172579054849
 21
127.0980927581932
 31
0.0
  0
LINE
  5
8CCD
  8
AM_0
 10
428.27173579054841
 20
130.09809275819219
 30
0.0
 11
428.27173579054841
 21
99.098075758194213
 31
0.0
  0
LINE
  5
8CD9
  8
AM_0
 10
344.6846557905485
 20
173.01101075819241
 30
0.0
 11
372.27172579054837
 21
200.59805375819241
 31
0.0
  0
LINE
  5
8CDA
  8
AM_0
 10
372.27172579054837
 20
164.22332075819239
 30
0.0
 11
372.27172579054837
 21
203.31746375819239
 31
0.0
  0
ARC
  5
8CDB
  8
AM_0
 10
375.27172579054849
 20
164.22332075819239
 30
0.0
 40
3.0
 50
179.99998999999889
 51
270.0
  0
LINE
  5
8CDC
  8
AM_0
 10
363.20179579054849
 20
154.4692017581925
 30
0.0
 11
363.20179579054849
 21
154.4692017581925
 31
0.0
  0
LINE
  5
8CE1
  8
AM_0
 10
374.2019257905485
 20
205.31627375819249
 30
0.0
 11
382.27165579054849
 21
205.5980637581925
 31
0.0
  0
ARC
  5
8CE2
  8
AM_0
 10
374.27170579054842
 20
203.31746375819239
 30
0.0
 40
2.00000007
 50
91.999998000000758
 51
180.00001000000091
  0
ARC
  5
8CE3
  8
AM_0
 10
373.27168579054847
 20
183.27038375819239
 30
0.0
 40
3.0
 50
0.0
 51
91.999998000000758
  0
LINE
  5
8CE8
  8
AM_0
 10
382.27168579054847
 20
198.09806375819261
 30
0.0
 11
386.27170579054842
 21
198.09806375819261
 31
0.0
  0
ARC
  5
8CF2
  8
AM_0
 10
607.62463279054839
 20
89.898077758193267
 30
0.0
 40
81.000003000000035
 50
125.474170000001
 51
155.41122999999669
  0
ARC
  5
8CF3
  8
AM_0
 10
573.98811079054838
 20
138.2493207581922
 30
0.0
 40
3.0
 50
323.2132100000062
 51
45.000000999996892
  0
CIRCLE
  5
8CF4
  8
AM_0
 10
607.62463279054839
 20
113.0980917581941
 30
0.0
 40
29.000001000000001
  0
CIRCLE
  5
8CF5
  8
AM_0
 10
607.62463279054839
 20
113.0980767581932
 30
0.0
 40
80.000000999999983
  0
ARC
  5
8CF6
  8
AM_0
 10
607.62463279054839
 20
89.898077758193267
 30
0.0
 40
81.000003000000035
 50
24.588775000004379
 51
54.52582999999899
  0
CIRCLE
  5
8CF7
  8
AM_0
 10
607.62463279054839
 20
113.0980767581932
 30
0.0
 40
85.000001999999981
  0
ARC
  5
8CF8
  8
AM_0
 10
641.26116979054825
 20
138.2493207581922
 30
0.0
 40
3.0
 50
135.00000000000691
 51
216.78678999999369
  0
LINE
  5
8CF9
  8
AM_0
 10
515.12466079054855
 20
113.0980767581932
 30
0.0
 11
515.12466079054855
 21
143.09807675819241
 31
0.0
  0
LINE
  5
8CFA
  8
AM_0
 10
700.12464079054826
 20
113.0980767581932
 30
0.0
 11
700.12464079054826
 21
143.09807675819241
 31
0.0
  0
LINE
  5
8CFB
  8
ﾁｭｳｼﾝｾﾝ
 10
607.62463279054839
 20
3.563351758193221
 30
0.0
 11
607.62463279054839
 21
211.37891923339799
 31
0.0
  0
ARC
  5
8CFE
  8
AM_0
 10
607.62463279054839
 20
89.898077758193267
 30
0.0
 40
81.000003000000035
 50
270.0
 51
291.36620000000318
  0
CIRCLE
  5
8CFF
  8
AM_5
 10
607.62463279054839
 20
113.0980767581932
 30
0.0
 40
4.000000199999997
  0
ARC
  5
8D00
  8
AM_0
 10
607.62463279054839
 20
113.0980767581932
 30
0.0
 40
14.000001299999999
 50
106.6015400000032
 51
73.398451999997818
  0
LINE
  5
8D01
  8
AM_0
 10
607.62463279054839
 20
20.59807175819514
 30
0.0
 11
637.62464779054835
 21
20.59807175819514
 31
0.0
  0
LINE
  5
8D02
  8
ﾁｭｳｼﾝｾﾝ
 10
557.82217054008925
 20
114.89806475819221
 30
0.0
 11
657.42709504100742
 21
114.89806475819221
 31
0.0
  0
LINE
  5
8D03
  8
ﾁｭｳｼﾝｾﾝ
 10
511.74078075664909
 20
113.0980767581932
 30
0.0
 11
703.50848482444735
 21
113.0980767581932
 31
0.0
  0
LINE
  5
8D04
  8
AM_0
 10
603.62463079054839
 20
123.0980757581921
 30
0.0
 11
611.62461679054798
 21
123.0980757581921
 31
0.0
  0
LINE
  5
8D05
  8
AM_0
 10
603.62463079054839
 20
130.09809275819219
 30
0.0
 11
611.62461679054798
 21
130.09809275819219
 31
0.0
  0
LINE
  5
8D06
  8
AM_0
 10
515.12462779054863
 20
83.098058758193275
 30
0.0
 11
517.53017779054835
 21
37.197989758194119
 31
0.0
  0
LINE
  5
8D07
  8
AM_0
 10
577.62466279054843
 20
20.59807175819514
 30
0.0
 11
531.72459079054829
 21
23.00359175819516
 31
0.0
  0
ARC
  5
8D08
  8
AM_0
 10
532.50959479054836
 20
37.983038758194191
 30
0.0
 40
15.000000299999989
 50
183.00000999999321
 51
267.00000000000108
  0
ARC
  5
8D09
  8
AM_0
 10
532.50959479054836
 20
37.983038758194191
 30
0.0
 40
15.000000299999989
 50
183.00000999999321
 51
267.00000000000108
  0
CIRCLE
  5
8D0C
  8
AM_0
 10
531.6106687905484
 20
37.084097758195171
 30
0.0
 40
6.0000002999999991
  0
ARC
  5
8D0D
  8
AM_0
 10
565.87464679054835
 20
17.584949758193261
 30
0.0
 40
8.0000000999999976
 50
156.7387399999979
 51
323.26126999999758
  0
ARC
  5
8D0E
  8
AM_0
 10
607.62463279054839
 20
89.898077758193267
 30
0.0
 40
81.000003000000035
 50
248.63379999999671
 51
270.0
  0
ARC
  5
8D0F
  8
AM_0
 10
576.29247679054845
 20
9.8087817581922536
 30
0.0
 40
5.0000000999999967
 50
68.633797999995252
 51
143.2612599999951
  0
LINE
  5
8D10
  8
AM_0
 10
607.62463279054839
 20
20.59807175819514
 30
0.0
 11
577.62462979054817
 21
20.59807175819514
 31
0.0
  0
LINE
  5
8D11
  8
AM_0
 10
532.75970179054843
 20
84.898094758192187
 30
0.0
 11
563.62461379054844
 21
84.898094758192187
 31
0.0
  0
ARC
  5
8D12
  8
AM_0
 10
607.62463279054839
 20
89.898077758193267
 30
0.0
 40
76.000001999999981
 50
167.23980000000071
 51
181.3935400000023
  0
LINE
  5
8D13
  8
AM_0
 10
515.12466079054855
 20
113.0980767581932
 30
0.0
 11
515.12466079054855
 21
83.098073758195156
 31
0.0
  0
ARC
  5
8D14
  8
AM_0
 10
607.62463279054839
 20
113.0980767581932
 30
0.0
 40
74.400002999999998
 50
171.8834500000053
 51
184.94542000000189
  0
LINE
  5
8D15
  8
AM_0
 10
568.62462979054828
 20
113.0980767581932
 30
0.0
 11
568.62462979054828
 21
89.898077758193267
 31
0.0
  0
ARC
  5
8D16
  8
AM_0
 10
563.62461379054844
 20
89.898077758193267
 30
0.0
 40
5.0000000999999967
 50
270.0
 51
0.0
  0
ARC
  5
8D17
  8
AM_0
 10
607.62463279054839
 20
113.0980767581932
 30
0.0
 40
39.000011999999998
 50
143.21321000000609
 51
180.00001000000091
  0
CIRCLE
  5
8D18
  8
AM_0
 10
607.62463279054839
 20
113.0980767581932
 30
0.0
 40
3.0
  0
LINE
  5
8D19
  8
AM_0
 10
603.62463079054839
 20
123.0980757581921
 30
0.0
 11
603.62463079054839
 21
130.09809275819219
 31
0.0
  0
LINE
  5
8D1A
  8
AM_0
 10
700.12464979054835
 20
83.098091758194187
 30
0.0
 11
697.71912379054845
 21
37.198004758193292
 31
0.0
  0
CIRCLE
  5
8D1B
  8
AM_0
 10
683.63862679054796
 20
37.084097758195171
 30
0.0
 40
6.0000002999999991
  0
LINE
  5
8D1D
  8
AM_0
 10
637.62463279054839
 20
20.59807175819514
 30
0.0
 11
683.52472579054847
 21
23.00359175819516
 31
0.0
  0
ARC
  5
8D1F
  8
AM_0
 10
649.37464879054835
 20
17.584949758193261
 30
0.0
 40
8.0000000999999976
 50
216.73874000000481
 51
23.261257999996911
  0
ARC
  5
8D20
  8
AM_0
 10
638.95681579054826
 20
9.8087817581922536
 30
0.0
 40
5.0000000999999967
 50
36.738737000001208
 51
111.3662099999999
  0
ARC
  5
8D22
  8
AM_0
 10
682.73968579054826
 20
37.983038758194191
 30
0.0
 40
15.000000299999989
 50
272.99999999999892
 51
356.9999999999942
  0
ARC
  5
8D23
  8
AM_0
 10
682.73968579054826
 20
37.983038758194191
 30
0.0
 40
15.000000299999989
 50
272.99999999999892
 51
356.9999999999942
  0
LINE
  5
8D24
  8
AM_0
 10
682.4895937905485
 20
84.898094758192187
 30
0.0
 11
651.62464879054835
 21
84.898094758192187
 31
0.0
  0
LINE
  5
8D25
  8
AM_0
 10
646.62466279054831
 20
113.0980767581932
 30
0.0
 11
646.62466279054831
 21
89.898077758193267
 31
0.0
  0
ARC
  5
8D27
  8
AM_0
 10
651.62464879054835
 20
89.898077758193267
 30
0.0
 40
5.0000000999999967
 50
179.99998999999889
 51
270.0
  0
ARC
  5
8D28
  8
AM_0
 10
607.62463279054839
 20
113.0980767581932
 30
0.0
 40
39.000011999999998
 50
0.0
 51
36.786791000006609
  0
LINE
  5
8D29
  8
AM_0
 10
611.62461679054798
 20
123.0980757581921
 30
0.0
 11
611.62461679054798
 21
130.09809275819219
 31
0.0
  0
ARC
  5
8D2A
  8
AM_0
 10
607.62463279054839
 20
89.898077758193267
 30
0.0
 40
76.000001999999981
 50
358.60644999999602
 51
12.760201999995511
  0
LINE
  5
8D2B
  8
AM_0
 10
700.12464079054826
 20
113.0980767581932
 30
0.0
 11
700.12464079054826
 21
83.098073758195156
 31
0.0
  0
ARC
  5
8D2D
  8
AM_0
 10
607.62463279054839
 20
113.0980767581932
 30
0.0
 40
74.400002999999998
 50
355.054579999998
 51
8.1165494000065852
  0
ARC
  5
8D2E
  8
AM_0
 10
613.12464679054835
 20
173.71782875819241
 30
0.0
 40
3.0
 50
180.00001000000091
 51
266.24579999999742
  0
ARC
  5
8D2F
  8
AM_0
 10
613.12464679054835
 20
184.28591375819241
 30
0.0
 40
3.0
 50
85.582086000002562
 51
180.00001000000091
  0
ARC
  5
8D30
  8
AM_0
 10
607.62463279054839
 20
113.0980767581932
 30
0.0
 40
39.000011999999998
 50
53.213208000000037
 51
126.7867900000054
  0
LINE
  5
8D31
  8
AM_0
 10
607.62463279054839
 20
205.5980637581925
 30
0.0
 11
637.62464779054835
 21
205.5980637581925
 31
0.0
  0
LINE
  5
8D35
  8
AM_0
 10
577.62462979054817
 20
205.5980337581924
 30
0.0
 11
531.72456079054825
 21
203.19254375819261
 31
0.0
  0
LINE
  5
8D36
  8
AM_0
 10
515.12466079054855
 20
143.09807675819241
 30
0.0
 11
517.53017779054835
 21
188.99813375819241
 31
0.0
  0
ARC
  5
8D38
  8
AM_0
 10
532.50959479054836
 20
188.2130937581924
 30
0.0
 40
15.000000299999989
 50
92.999999000001665
 51
176.99999000000659
  0
ARC
  5
8D39
  8
AM_0
 10
532.50959479054836
 20
188.2130937581924
 30
0.0
 40
15.000000299999989
 50
92.999999000001665
 51
176.99999000000659
  0
CIRCLE
  5
8D3A
  8
AM_0
 10
531.6106687905484
 20
189.1120437581925
 30
0.0
 40
6.0000002999999991
  0
LINE
  5
8D3B
  8
AM_0
 10
610.12464679054813
 20
173.71782875819241
 30
0.0
 11
610.12464679054813
 21
184.28591375819241
 31
0.0
  0
LINE
  5
8D3C
  8
AM_0
 10
605.12464579054836
 20
173.71782875819241
 30
0.0
 11
605.12464579054836
 21
184.28591375819241
 31
0.0
  0
ARC
  5
8D3D
  8
AM_0
 10
607.62463279054805
 20
89.898110758194193
 30
0.0
 40
81.000003000000035
 50
93.763941594169026
 51
121.139060000006
  0
LINE
  5
8D3E
  8
AM_0
 10
580.35206179054808
 20
144.6133047581921
 30
0.0
 11
555.46428979054815
 21
169.50106175819241
 31
0.0
  0
LINE
  5
8D3F
  8
AM_0
 10
576.10941679054838
 20
140.3706597581924
 30
0.0
 11
551.22164479054845
 21
165.25841675819251
 31
0.0
  0
ARC
  5
8D40
  8
AM_0
 10
557.58561379054845
 20
171.6224007581925
 30
0.0
 40
3.0
 50
130.53086000000411
 51
224.99999999999309
  0
ARC
  5
8D41
  8
AM_0
 10
549.10032379054826
 20
163.13711075819251
 30
0.0
 40
3.0
 50
45.000000999996892
 51
139.46914000000251
  0
ARC
  5
8D42
  8
AM_0
 10
582.47340079054845
 20
146.73461375819261
 30
0.0
 40
3.0
 50
224.99999999999309
 51
306.7867900000054
  0
ARC
  5
8D43
  8
AM_0
 10
602.12464579054813
 20
173.71782875819241
 30
0.0
 40
3.0
 50
273.75420000000253
 51
0.0
  0
LINE
  5
8D44
  8
AM_0
 10
607.62463279054839
 20
205.5980637581925
 30
0.0
 11
577.62462979054817
 21
205.5980637581925
 31
0.0
  0
ARC
  5
8D46
  8
AM_0
 10
602.12464579054813
 20
184.28591375819241
 30
0.0
 40
3.0
 50
0.0
 51
94.417918999996871
  0
ARC
  5
8D4E
  8
ﾁｭｳｼﾝｾﾝ
 10
607.62463279054839
 20
113.0980767581932
 30
0.0
 40
107.5000109999999
 50
38.600856906119141
 51
51.39912274254457
  0
CIRCLE
  5
8D4F
  8
AM_0
 10
683.63862679054796
 20
189.1120437581925
 30
0.0
 40
6.0000002999999991
  0
LINE
  5
8D50
  8
AM_0
 10
637.62464779054835
 20
205.5980637581925
 30
0.0
 11
683.52472579054847
 21
203.1925737581924
 31
0.0
  0
LINE
  5
8D51
  8
ﾁｭｳｼﾝｾﾝ
 10
675.153334916316
 20
180.6267728839604
 30
0.0
 11
692.12389766478043
 21
197.5973356324246
 31
0.0
  0
ARC
  5
8D52
  8
AM_0
 10
607.62463279054839
 20
89.898077758193267
 30
0.0
 40
81.000003000000035
 50
58.8609450000028
 51
86.245802999997153
  0
LINE
  5
8D53
  8
AM_0
 10
639.13984579054818
 20
140.3706597581924
 30
0.0
 11
664.02763279054841
 21
165.25844675819241
 31
0.0
  0
LINE
  5
8D54
  8
AM_0
 10
634.89721579054844
 20
144.6133047581921
 30
0.0
 11
659.78499679054835
 21
169.50106175819241
 31
0.0
  0
ARC
  5
8D55
  8
AM_0
 10
632.77589179054814
 20
146.73461375819261
 30
0.0
 40
3.0
 50
233.21320999999449
 51
315.00000000000688
  0
ARC
  5
8D56
  8
AM_0
 10
657.66367279054828
 20
171.6224007581925
 30
0.0
 40
3.0
 50
315.00000000000688
 51
49.469136999994006
  0
ARC
  5
8D57
  8
AM_0
 10
666.14895679054825
 20
163.13711075819251
 30
0.0
 40
3.0
 50
40.530864999996624
 51
135.00000000000691
  0
LINE
  5
8D58
  8
AM_0
 10
700.12464979054835
 20
143.09807675819241
 30
0.0
 11
697.71912379054845
 21
188.99813375819241
 31
0.0
  0
ARC
  5
8D59
  8
AM_0
 10
682.73968579054826
 20
188.2130937581924
 30
0.0
 40
15.000000299999989
 50
3.0000000999988461
 51
86.999998999996649
  0
ARC
  5
8D5A
  8
AM_0
 10
682.73968579054826
 20
188.2130937581924
 30
0.0
 40
15.000000299999989
 50
3.0000000999988461
 51
86.999998999996649
  0
ARC
  5
8D61
  8
AM_0
 10
80.595555790548815
 20
129.90807575819221
 30
0.0
 40
1.335016049999999
 50
89.732355000002016
 51
270.26763000000221
  0
LINE
  5
8D62
  8
ﾁｭｳｼﾝｾﾝ
 10
136.27174579054869
 20
155.5230792581919
 30
0.0
 11
136.27174579054869
 21
74.273050258192654
 31
0.0
  0
LINE
  5
8D63
  8
AM_0
 10
177.0417757905486
 20
144.89306075819241
 30
0.0
 11
177.0417757905486
 21
84.893057758193237
 31
0.0
  0
LINE
  5
8D64
  8
AM_0
 10
79.271745790548664
 20
167.89304975819221
 30
0.0
 11
79.271745790548664
 21
65.453069758192214
 31
0.0
  0
LINE
  5
8D65
  8
AM_0
 10
187.2717757905487
 20
170.89805975819209
 30
0.0
 11
187.2717757905487
 21
58.898048758192083
 31
0.0
  0
LINE
  5
8D67
  8
AM_0
 10
180.51181034656139
 20
78.898064758192263
 30
0.0
 11
81.914249947471134
 21
78.898064758192263
 31
0.0
  0
LINE
  5
8D68
  8
AM_0
 10
136.27174579054869
 20
78.173057758192243
 30
0.0
 11
184.0917757905487
 21
78.173057758192243
 31
0.0
  0
LINE
  5
8D69
  8
AM_0
 10
82.471755790548656
 20
58.61304275819316
 30
0.0
 11
179.39176579054859
 21
58.61304275819316
 31
0.0
  0
LINE
  5
8D6A
  8
AM_0
 10
104.77174579054859
 20
76.673057758192257
 30
0.0
 11
187.2717757905487
 21
76.673057758192257
 31
0.0
  0
ARC
  5
8D6B
  8
AM_0
 10
286.32293899780211
 20
116.5856386981153
 30
0.0
 40
204.69842337270771
 50
178.02572260412779
 51
178.71785518950381
  0
ARC
  5
8D6C
  8
AM_0
 10
286.2456871096395
 20
113.2060948321682
 30
0.0
 40
204.6212004872653
 50
181.28349981583841
 51
181.9756167481539
  0
ARC
  5
8D6D
  8
AM_0
 10
81.814005790548663
 20
79.893059758192294
 30
0.0
 40
1.0000319699999971
 50
89.552707000000495
 51
270.44730000000112
  0
ARC
  5
8D6E
  8
AM_0
 10
81.814005790548663
 20
129.89306075819209
 30
0.0
 40
1.0000319699999971
 50
89.552707000000495
 51
270.44730000000112
  0
ARC
  5
8D6F
  8
AM_0
 10
81.814005790548663
 20
119.89305875819331
 30
0.0
 40
1.0000319699999971
 50
89.552707000000495
 51
270.44730000000112
  0
ARC
  5
8D70
  8
AM_0
 10
81.814005790548663
 20
109.8930597581932
 30
0.0
 40
1.0000319699999971
 50
89.552707000000495
 51
270.44730000000112
  0
ARC
  5
8D71
  8
AM_0
 10
81.814005790548663
 20
99.893057758194118
 30
0.0
 40
1.0000319699999971
 50
89.552707000000495
 51
270.44730000000112
  0
ARC
  5
8D72
  8
AM_0
 10
81.814005790548663
 20
89.893043758193244
 30
0.0
 40
1.0000319699999971
 50
89.552707000000495
 51
270.44730000000112
  0
ARC
  5
8D73
  8
AM_0
 10
80.533545790548487
 20
119.90303975819219
 30
0.0
 40
1.270028039999999
 50
89.627211000000742
 51
270.37279000000228
  0
ARC
  5
8D74
  8
AM_0
 10
80.533545790548487
 20
109.8930597581932
 30
0.0
 40
1.270028039999999
 50
89.627211000000742
 51
270.37279000000228
  0
ARC
  5
8D75
  8
AM_0
 10
80.595555790548815
 20
99.883049758192115
 30
0.0
 40
1.3300160699999981
 50
89.73134399999789
 51
270.26864999999918
  0
ARC
  5
8D76
  8
AM_0
 10
80.726175790548652
 20
89.873069758193182
 30
0.0
 40
1.460012009999998
 50
89.778814000002811
 51
270.22118999999998
  0
ARC
  5
8D77
  8
AM_0
 10
82.563885790548696
 20
55.00353275819225
 30
0.0
 40
2.000475929999999
 50
187.7704600000072
 51
269.93969000000249
  0
ARC
  5
8D78
  8
AM_0
 10
82.476405790548483
 20
60.612050758192247
 30
0.0
 40
1.999007999999999
 50
190.63740999999681
 51
269.86655000000292
  0
ARC
  5
8D79
  8
AM_0
 10
82.527735790548633
 20
57.763235758194249
 30
0.0
 40
2.0001841200000001
 50
188.92099999999621
 51
269.8285299999992
  0
ARC
  5
8D7A
  8
AM_0
 10
82.535295790548503
 20
55.92038675819321
 30
0.0
 40
1.997348129999998
 50
188.85146999999321
 51
270.18467999999763
  0
LINE
  5
8D7B
  8
AM_0
 10
85.271745790548664
 20
130.89305975819209
 30
0.0
 11
81.631815790548615
 21
130.89305975819209
 31
0.0
  0
LINE
  5
8D7C
  8
AM_0
 10
85.271745790548664
 20
128.8930587581942
 30
0.0
 11
81.631815790548615
 21
128.8930587581942
 31
0.0
  0
LINE
  5
8D7D
  8
AM_0
 10
85.271745790548664
 20
120.89306075819511
 30
0.0
 11
81.631815790548615
 21
120.89306075819511
 31
0.0
  0
LINE
  5
8D7E
  8
AM_0
 10
85.271745790548664
 20
118.89305975819209
 30
0.0
 11
81.631815790548615
 21
118.89305975819209
 31
0.0
  0
LINE
  5
8D7F
  8
AM_0
 10
80.601765790548484
 20
128.5730517581942
 30
0.0
 11
85.271745790548664
 21
128.5730517581942
 31
0.0
  0
LINE
  5
8D80
  8
AM_0
 10
80.541765790548482
 20
121.17305975819509
 30
0.0
 11
85.271745790548664
 21
121.17305975819509
 31
0.0
  0
LINE
  5
8D81
  8
AM_0
 10
80.541765790548482
 20
118.6330497581922
 30
0.0
 11
85.271745790548664
 21
118.6330497581922
 31
0.0
  0
LINE
  5
8D82
  8
AM_0
 10
80.541765790548482
 20
111.1630497581932
 30
0.0
 11
85.271745790548664
 21
111.1630497581932
 31
0.0
  0
LINE
  5
8D83
  8
AM_0
 10
85.271745790548664
 20
110.8930587581921
 30
0.0
 11
81.631815790548615
 21
110.8930587581921
 31
0.0
  0
LINE
  5
8D84
  8
AM_0
 10
85.271745790548664
 20
108.8930607581933
 30
0.0
 11
81.631815790548615
 21
108.8930607581933
 31
0.0
  0
LINE
  5
8D85
  8
AM_0
 10
80.541765790548482
 20
108.62306975819411
 30
0.0
 11
85.271745790548664
 21
108.62306975819411
 31
0.0
  0
LINE
  5
8D86
  8
AM_0
 10
80.601765790548484
 20
101.2130667581921
 30
0.0
 11
85.271745790548664
 21
101.2130667581921
 31
0.0
  0
LINE
  5
8D87
  8
AM_0
 10
85.271745790548664
 20
100.89305975819219
 30
0.0
 11
81.631815790548615
 21
100.89305975819219
 31
0.0
  0
LINE
  5
8D88
  8
AM_0
 10
85.271745790548664
 20
98.893043758192107
 30
0.0
 11
81.631815790548615
 21
98.893043758192107
 31
0.0
  0
LINE
  5
8D89
  8
AM_0
 10
80.601765790548484
 20
98.55306275819224
 30
0.0
 11
85.271745790548664
 21
98.55306275819224
 31
0.0
  0
LINE
  5
8D8A
  8
AM_0
 10
85.271745790548664
 20
90.893057758193223
 30
0.0
 11
81.631815790548615
 21
90.893057758193223
 31
0.0
  0
LINE
  5
8D8B
  8
AM_0
 10
80.731785790548656
 20
91.333061758194162
 30
0.0
 11
85.271745790548664
 21
91.333061758194162
 31
0.0
  0
LINE
  5
8D8C
  8
AM_0
 10
85.271745790548664
 20
88.893059758192294
 30
0.0
 11
81.631815790548615
 21
88.893059758192294
 31
0.0
  0
LINE
  5
8D8D
  8
AM_0
 10
80.731785790548656
 20
88.413047758193215
 30
0.0
 11
85.271745790548664
 21
88.413047758193215
 31
0.0
  0
LINE
  5
8D8E
  8
AM_0
 10
80.941755790548655
 20
78.173057758192243
 30
0.0
 11
136.27174579054869
 21
78.173057758192243
 31
0.0
  0
LINE
  5
8D8F
  8
AM_0
 10
80.941755790548655
 20
81.533072758194066
 30
0.0
 11
85.378649818962685
 21
81.533072758194066
 31
0.0
  0
LINE
  5
8D90
  8
AM_0
 10
85.609114951653282
 20
80.893043758192078
 30
0.0
 11
81.631815790548615
 21
80.893043758192078
 31
0.0
  0
LINE
  5
8D91
  8
AM_0
 10
84.631755790548652
 20
78.243065758192174
 30
0.0
 11
79.271745790548664
 21
66.80306075819226
 31
0.0
  0
LINE
  5
8D92
  8
AM_0
 10
79.271745790548664
 20
66.803045758192184
 30
0.0
 11
80.511735790548798
 21
60.243047758195189
 31
0.0
  0
LINE
  5
8D93
  8
AM_0
 10
79.271745790548664
 20
64.113074758193292
 30
0.0
 11
80.581755790548712
 21
54.7330707581932
 31
0.0
  0
LINE
  5
8D94
  8
AM_0
 10
71.27176579054867
 20
61.898048758193219
 30
0.0
 11
79.271745790548664
 21
61.898048758193219
 31
0.0
  0
LINE
  5
8D95
  8
AM_0
 10
71.27176579054867
 20
61.893056758192166
 30
0.0
 11
79.271745790548664
 21
61.893056758192166
 31
0.0
  0
LINE
  5
8D96
  8
AM_0
 10
79.271745790548664
 20
65.453054758193289
 30
0.0
 11
80.551725790548517
 21
57.45305675819327
 31
0.0
  0
LINE
  5
8D97
  8
AM_0
 10
79.271745790548664
 20
64.113044758193155
 30
0.0
 11
80.561805790548703
 21
55.613057758193243
 31
0.0
  0
LINE
  5
8D98
  8
AM_0
 10
71.961765790548611
 20
71.703056758194194
 30
0.0
 11
78.191805790548699
 21
71.703056758194194
 31
0.0
  0
ARC
  5
8D99
  8
AM_0
 10
80.941755790548655
 20
79.853048758193154
 30
0.0
 40
1.679999999999999
 50
90.00000299999769
 51
270.0
  0
ARC
  5
8D9A
  8
AM_0
 10
283.23547043192718
 20
116.6059053237162
 30
0.0
 40
201.61085738285439
 50
179.42527489174191
 51
180.13294661221761
  0
ARC
  5
8D9B
  8
AM_0
 10
286.2653897100609
 20
116.6052881018322
 30
0.0
 40
204.64076721509861
 50
180.13080539049491
 51
180.47940135319399
  0
ARC
  5
8D9C
  8
AM_0
 10
284.5187237609133
 20
113.18031602120109
 30
0.0
 40
202.89403267033549
 50
180.21919094446361
 51
180.57069649462861
  0
ARC
  5
8D9D
  8
AM_0
 10
285.55536332271907
 20
113.1885593537222
 30
0.0
 40
203.93069622692141
 50
179.87077327206001
 51
180.22039274125001
  0
ARC
  5
8D9E
  8
AM_0
 10
285.17736883214963
 20
113.19132897171809
 30
0.0
 40
203.55269646012371
 50
179.52099544220221
 51
179.87131288695369
  0
ARC
  5
8D9F
  8
AM_0
 10
286.590837595332
 20
113.1928572672582
 30
0.0
 40
204.96200297080929
 50
186.94488316606041
 51
187.59240971813529
  0
LINE
  5
8DA0
  8
AM_0
 10
82.521765790548613
 20
55.763051758192212
 30
0.0
 11
116.2717657905486
 21
55.763051758192212
 31
0.0
  0
LINE
  5
8DA1
  8
AM_0
 10
82.541775790548513
 20
53.923055758192291
 30
0.0
 11
116.2717657905486
 21
53.923055758192291
 31
0.0
  0
LINE
  5
8DA2
  8
AM_0
 10
82.561785790548683
 20
53.003057758193329
 30
0.0
 11
116.2717657905486
 21
53.003057758193329
 31
0.0
  0
LINE
  5
8DA3
  8
AM_0
 10
104.77174579054859
 20
76.673057758192257
 30
0.0
 11
84.59896579054849
 21
78.173057758192243
 31
0.0
  0
ARC
  5
8DA4
  8
AM_0
 10
287.07307295807772
 20
113.26317372809621
 30
0.0
 40
205.44930125633391
 50
187.59407870998189
 51
188.8860675939209
  0
ARC
  5
8DA5
  8
AM_0
 10
116.2684657905487
 20
55.926338758192273
 30
0.0
 40
2.003279969999999
 50
270.09378999999711
 51
359.90621000000289
  0
LINE
  5
8DA6
  8
AM_0
 10
118.27174579054859
 20
55.003058758192083
 30
0.0
 11
118.27174579054859
 21
58.61304275819316
 31
0.0
  0
ARC
  5
8DA7
  8
AM_0
 10
116.2637557905486
 20
55.011068758192103
 30
0.0
 40
2.0080361999999989
 50
270.22878999999938
 51
359.77121000000051
  0
ARC
  5
8DA8
  8
AM_0
 10
116.2645657905486
 20
57.770240758193253
 30
0.0
 40
2.007180029999998
 50
270.20461999999759
 51
359.79537999999582
  0
ARC
  5
8DAA
  8
AM_0
 10
286.17810366287449
 20
113.20145128978329
 30
0.0
 40
204.55326957220879
 50
185.46031399634921
 51
186.13700085447189
  0
ARC
  5
8DAB
  8
AM_0
 10
286.8314725566355
 20
113.26065633817321
 30
0.0
 40
205.2093074617344
 50
184.78473638767409
 51
185.45941055424001
  0
ARC
  5
8DAC
  8
AM_0
 10
286.26110882194422
 20
113.2107328875622
 30
0.0
 40
204.63676715666841
 50
184.10764570184199
 51
184.78412767204631
  0
ARC
  5
8DAD
  8
AM_0
 10
286.00246547406368
 20
113.1989912650492
 30
0.0
 40
204.37787853975311
 50
181.97597713469739
 51
183.3618692197046
  0
ARC
  5
8DAE
  8
AM_0
 10
286.33128869978879
 20
116.58298778438321
 30
0.0
 40
204.70684984457009
 50
176.64084313943471
 51
177.33301926919191
  0
ARC
  5
8DAF
  8
AM_0
 10
287.648154372769
 20
116.52881277516219
 30
0.0
 40
206.0248100930055
 50
177.33501004864749
 51
178.0226252694244
  0
LINE
  5
8DB0
  8
AM_0
 10
184.0917757905487
 20
81.533072758194066
 30
0.0
 11
174.27174579054821
 21
81.533072758194066
 31
0.0
  0
LINE
  5
8DB1
  8
AM_0
 10
185.7717757905487
 20
76.673057758192257
 30
0.0
 11
181.32175579054851
 21
60.093053758192127
 31
0.0
  0
ARC
  5
8DB2
  8
AM_0
 10
179.3888857905487
 20
60.615194758193169
 30
0.0
 40
2.0021281800000001
 50
270.0815199999999
 51
344.88329999999883
  0
LINE
  5
8DB3
  8
AM_0
 10
180.61177579054871
 20
80.893043758192078
 30
0.0
 11
174.27174579054821
 21
80.893043758192078
 31
0.0
  0
LINE
  5
8DB4
  8
AM_0
 10
174.27174579054821
 20
84.815352673866059
 30
0.0
 11
177.0417757905486
 21
84.893042758192195
 31
0.0
  0
ARC
  5
8DB5
  8
AM_0
 10
180.61177579054871
 20
79.893059758192294
 30
0.0
 40
1.000004069999999
 50
270.0
 51
90.00000299999769
  0
LINE
  5
8DB6
  8
AM_0
 10
181.8117457905484
 20
61.893056758192166
 30
0.0
 11
187.2717757905487
 21
61.893056758192166
 31
0.0
  0
ARC
  5
8DB7
  8
AM_0
 10
184.0917757905487
 20
79.853048758193154
 30
0.0
 40
1.680008099999998
 50
270.0
 51
90.00000299999769
  0
ARC
  5
8DB8
  8
AM_0
 10
184.0917757905487
 20
79.853048758193154
 30
0.0
 40
1.675004159999999
 50
270.0
 51
90.00000299999769
  0
LINE
  5
8DBA
  8
AM_0
 10
81.821812696401594
 20
150.8930632548128
 30
0.0
 11
180.61177573818841
 21
150.89306582819239
 31
0.0
  0
LINE
  5
8DBB
  8
AM_0
 10
80.941755790548655
 20
151.6230297581921
 30
0.0
 11
184.0917757905487
 21
151.6230297581921
 31
0.0
  0
LINE
  5
8DBC
  8
AM_0
 10
82.471755790548656
 20
171.1830597581924
 30
0.0
 11
179.39176579054859
 21
171.1830597581924
 31
0.0
  0
LINE
  5
8DBD
  8
AM_0
 10
104.77174579054859
 20
153.1230297581925
 30
0.0
 11
187.2717757905487
 21
153.1230297581925
 31
0.0
  0
ARC
  5
8DBE
  8
AM_0
 10
81.814005790548663
 20
149.8930617581924
 30
0.0
 40
1.0000319699999971
 50
89.552707000000495
 51
270.44730000000112
  0
ARC
  5
8DBF
  8
AM_0
 10
81.814005790548663
 20
139.89305975819249
 30
0.0
 40
1.0000319699999971
 50
89.552707000000495
 51
270.44730000000112
  0
ARC
  5
8DC0
  8
AM_0
 10
80.726115790548704
 20
139.92305975819249
 30
0.0
 40
1.460012009999998
 50
89.777016999998949
 51
270.22298999999867
  0
ARC
  5
8DC1
  8
AM_0
 10
82.474635790548689
 20
169.18613975819221
 30
0.0
 40
1.996904069999998
 50
90.083473999999597
 51
169.41255999999501
  0
ARC
  5
8DC2
  8
AM_0
 10
82.520175790548478
 20
172.0299297581924
 30
0.0
 40
1.9931281199999991
 50
89.953373000000497
 51
170.96118000000021
  0
ARC
  5
8DC3
  8
AM_0
 10
82.534515790548483
 20
173.8784697581921
 30
0.0
 40
1.994588069999998
 50
89.790753000002425
 51
171.50708999999441
  0
ARC
  5
8DC4
  8
AM_0
 10
82.556415790548499
 20
174.78956975819261
 30
0.0
 40
1.9934921999999999
 50
89.846091000001351
 51
172.1147400000026
  0
LINE
  5
8DC5
  8
AM_0
 10
85.607271911580284
 20
148.89305975819241
 30
0.0
 11
81.631815790548615
 21
148.89305975819241
 31
0.0
  0
LINE
  5
8DC6
  8
AM_0
 10
85.271745790548664
 20
140.8930617581924
 30
0.0
 11
81.631815790548615
 21
140.8930617581924
 31
0.0
  0
LINE
  5
8DC7
  8
AM_0
 10
85.271745790548664
 20
138.89306075819329
 30
0.0
 11
81.631815790548615
 21
138.89306075819329
 31
0.0
  0
LINE
  5
8DC8
  8
AM_0
 10
80.941755790548655
 20
148.2630567581925
 30
0.0
 11
85.38041839450068
 21
148.2630567581925
 31
0.0
  0
LINE
  5
8DC9
  8
AM_0
 10
80.731785790548656
 20
141.38305175819241
 30
0.0
 11
85.271745790548664
 21
141.38305175819241
 31
0.0
  0
LINE
  5
8DCA
  8
AM_0
 10
80.731785790548656
 20
138.4630377581951
 30
0.0
 11
85.271745790548664
 21
138.4630377581951
 31
0.0
  0
LINE
  5
8DCB
  8
AM_0
 10
80.601765790548484
 20
131.2430667581921
 30
0.0
 11
85.271745790548664
 21
131.2430667581921
 31
0.0
  0
LINE
  5
8DCC
  8
AM_0
 10
84.631755790548652
 20
151.5430497581925
 30
0.0
 11
79.271745790548664
 21
162.99302975819251
 31
0.0
  0
LINE
  5
8DCD
  8
AM_0
 10
79.271745790548664
 20
165.68303975819219
 30
0.0
 11
80.581755790548712
 21
175.06304975819211
 31
0.0
  0
ARC
  5
8DCE
  8
AM_0
 10
80.941755790548655
 20
149.94304775819251
 30
0.0
 40
1.679999999999999
 50
90.00000299999769
 51
270.0
  0
LINE
  5
8DCF
  8
AM_0
 10
79.271745790548664
 20
162.9930597581922
 30
0.0
 11
80.511735790548798
 21
169.55306975819241
 31
0.0
  0
LINE
  5
8DD0
  8
AM_0
 10
71.961765790548611
 20
158.0830497581924
 30
0.0
 11
78.191805790548699
 21
158.0830497581924
 31
0.0
  0
LINE
  5
8DD1
  8
AM_0
 10
71.27176579054867
 20
167.8980597581924
 30
0.0
 11
79.271745790548664
 21
167.8980597581924
 31
0.0
  0
LINE
  5
8DD2
  8
AM_0
 10
71.27176579054867
 20
167.89304975819221
 30
0.0
 11
79.271745790548664
 21
167.89304975819221
 31
0.0
  0
LINE
  5
8DD3
  8
AM_0
 10
79.271745790548664
 20
164.33306975819241
 30
0.0
 11
80.551725790548517
 21
172.34303975819239
 31
0.0
  0
LINE
  5
8DD4
  8
AM_0
 10
79.271745790548664
 20
165.6830697581922
 30
0.0
 11
80.561805790548703
 21
174.17306975819221
 31
0.0
  0
ARC
  5
8DD5
  8
AM_0
 10
116.2702357905486
 20
173.87150975819239
 30
0.0
 40
2.0015440500000001
 50
0.044213999007396
 51
89.955783999999085
  0
LINE
  5
8DD6
  8
AM_0
 10
118.27174579054859
 20
174.78305975819211
 30
0.0
 11
118.27174579054859
 21
171.1830597581924
 31
0.0
  0
LINE
  5
8DD7
  8
AM_0
 10
82.521765790548613
 20
174.02303975819211
 30
0.0
 11
116.2717657905486
 21
174.02303975819211
 31
0.0
  0
LINE
  5
8DD8
  8
AM_0
 10
104.77174579054859
 20
153.1230297581925
 30
0.0
 11
84.594315790548478
 21
151.6230597581926
 31
0.0
  0
ARC
  5
8DD9
  8
AM_0
 10
286.05275529836382
 20
116.6421345779962
 30
0.0
 40
204.4231110527293
 50
172.39935376233609
 51
173.04804061342691
  0
ARC
  5
8DDA
  8
AM_0
 10
286.70903743617038
 20
116.5434615840112
 30
0.0
 40
205.086602105558
 50
173.86479656848479
 51
175.21533938006809
  0
ARC
  5
8DDB
  8
AM_0
 10
286.10327377606097
 20
116.6009901703131
 30
0.0
 40
204.47815098782999
 50
175.21724497658491
 51
175.89452073851371
  0
ARC
  5
8DDC
  8
AM_0
 10
286.38359217900251
 20
116.5928449656252
 30
0.0
 40
204.75756069728581
 50
171.10266677356
 51
172.3979273485285
  0
ARC
  5
8DDD
  8
AM_0
 10
116.27134579054839
 20
172.02263975819241
 30
0.0
 40
2.0004079799999981
 50
0.0116489999941815
 51
89.98834999999788
  0
LINE
  5
8DDE
  8
AM_0
 10
82.541775790548513
 20
175.87304975819239
 30
0.0
 11
116.2717657905486
 21
175.87304975819239
 31
0.0
  0
LINE
  5
8DDF
  8
AM_0
 10
82.561785790548683
 20
176.7830697581924
 30
0.0
 11
116.2717657905486
 21
176.7830697581924
 31
0.0
  0
ARC
  5
8DE0
  8
AM_0
 10
116.2704757905486
 20
174.78176975819241
 30
0.0
 40
2.0012880000000002
 50
0.0368719990021973
 51
89.963125999997985
  0
LINE
  5
8DE1
  8
AM_0
 10
184.0917757905487
 20
148.2630567581925
 30
0.0
 11
174.27174579054821
 21
148.2630567581925
 31
0.0
  0
LINE
  5
8DE2
  8
AM_0
 10
185.4717757905488
 20
154.23305975819221
 30
0.0
 11
181.3218157905487
 21
169.6930497581925
 31
0.0
  0
LINE
  5
8DE3
  8
AM_0
 10
174.27174579054821
 20
144.9807618425194
 30
0.0
 11
177.0417757905486
 21
144.90307175819211
 31
0.0
  0
ARC
  5
8DE4
  8
AM_0
 10
180.61177579054871
 20
149.8930617581924
 30
0.0
 40
1.000004069999999
 50
270.0
 51
90.00000299999769
  0
ARC
  5
8DE5
  8
AM_0
 10
179.38894579054869
 20
169.18445975819239
 30
0.0
 40
1.99860411
 50
14.742716000005739
 51
89.919516000001124
  0
ARC
  5
8DE6
  8
AM_0
 10
184.0917757905487
 20
149.94304775819251
 30
0.0
 40
1.680008099999998
 50
270.0
 51
90.00000299999769
  0
ARC
  5
8DE7
  8
AM_0
 10
184.0917757905487
 20
149.94304775819251
 30
0.0
 40
1.675004159999999
 50
270.0
 51
90.00000299999769
  0
ARC
  5
8DE8
  8
AM_0
 10
186.9249457905488
 20
154.62080975819251
 30
0.0
 40
1.502776079999999
 50
194.75642999999971
 51
269.8775900000029
  0
LINE
  5
8DE9
  8
AM_0
 10
181.8117457905484
 20
167.89304975819221
 30
0.0
 11
187.2717757905487
 21
167.89304975819221
 31
0.0
  0
LINE
  5
8DEA
  8
AM_0
 10
169.77174579054889
 20
137.39806475819211
 30
0.0
 11
169.77174579054829
 21
92.398064758193186
 31
0.0
  0
LINE
  5
8DEB
  8
AM_0
 10
167.6717457905487
 20
137.94831728988731
 30
0.0
 11
167.6717457905483
 21
91.847812226499144
 31
0.0
  0
LINE
  5
8DEC
  8
AM_0
 10
84.771745790548664
 20
96.898064758192277
 30
0.0
 11
84.771745790548664
 21
86.898054758193226
 31
0.0
  0
LINE
  5
8DED
  8
AM_0
 10
85.271745790548664
 20
82.398058758193187
 30
0.0
 11
85.271745790548664
 21
147.39805475819199
 31
0.0
  0
LINE
  5
8DEE
  8
AM_0
 10
156.8219903222431
 20
80.998056758192192
 30
0.0
 11
89.691725790548617
 21
80.998056758192192
 31
0.0
  0
LINE
  5
8DEF
  8
AM_0
 10
89.691725790548617
 20
80.998056758192192
 30
0.0
 11
89.691725790548617
 21
78.898065758192161
 31
0.0
  0
ARC
  5
8DF0
  8
AM_0
 10
88.764365790548666
 20
82.39071175819322
 30
0.0
 40
3.492651899999998
 50
179.8793300000022
 51
270.12067999999482
  0
ARC
  5
8DF1
  8
AM_0
 10
85.264425790548614
 20
86.890714758192175
 30
0.0
 40
0.4927000100000001
 50
179.14455999999711
 51
270.8554400000026
  0
ARC
  5
8DF2
  8
AM_0
 10
171.77174579054821
 20
92.398064758193186
 30
0.0
 40
2.0
 50
180.0
 51
270.0
  0
LINE
  5
8DF3
  8
AM_0
 10
167.2616952842094
 20
90.857862732838129
 30
0.0
 11
157.8119398159044
 21
81.408107264531282
 31
0.0
  0
LINE
  5
8DF4
  8
AM_0
 10
157.81194781590381
 20
81.408115264532185
 30
0.0
 11
167.26169528420991
 21
90.857862732838129
 31
0.0
  0
ARC
  5
8DF5
  8
AM_0
 10
156.8219903222431
 20
82.398056758193206
 30
0.0
 40
1.399999999999999
 50
270.0
 51
315.00000000000921
1001
GENIUS_GENODEF_13
1002
{
1000
HIER
1070
     0
1002
}
1002
{
1000
MANEDIT
1070
     0
1002
}
1002
{
1000
NOSEL
1070
     0
1002
}
1002
{
1000
BEHIND
1070
     0
1002
}
1002
{
1000
OTHER
1070
     0
1002
}
1002
{
1000
REACTOR
1002
}
1001
GENIUS_GENOBJ-N-FIL_13
1002
{
1000
OWNER
1000
GEN
1002
}
  0
ARC
  5
8DF6
  8
AM_0
 10
166.27174579054841
 20
91.847812226499144
 30
0.0
 40
1.4000000000006301
 50
314.99999999997232
 51
0.0
  0
ARC
  5
8DF7
  8
AM_0
 10
172.2717457905481
 20
80.898064758192263
 30
0.0
 40
2.0
 50
270.0
 51
0.0
  0
ARC
  5
8DF8
  8
AM_0
 10
172.2717457905481
 20
88.398064758193186
 30
0.0
 40
2.0
 50
0.0
 51
90.0
  0
LINE
  5
8DF9
  8
AM_0
 10
172.2717457905481
 20
90.398064758193186
 30
0.0
 11
171.77174579054821
 21
90.398064758193186
 31
0.0
  0
LINE
  5
8DFA
  8
AM_0
 10
174.27174579054821
 20
80.898064758192263
 30
0.0
 11
174.27174579054821
 21
88.398064758193186
 31
0.0
  0
LINE
  5
8DFB
  8
AM_0
 10
89.691725790548617
 20
148.79804475819211
 30
0.0
 11
156.82948161042381
 21
148.79804475819211
 31
0.0
  0
ARC
  5
8DFC
  8
AM_0
 10
85.272295790548682
 20
96.897514758192287
 30
0.0
 40
0.5005480100000002
 50
90.062622000000005
 51
179.9373699999839
  0
ARC
  5
8DFD
  8
AM_0
 10
85.272295790548682
 20
142.89751475819199
 30
0.0
 40
0.5005480100000002
 50
90.062622000000005
 51
179.9373699999839
  0
ARC
  5
8DFE
  8
AM_0
 10
85.264235790548696
 20
132.8905547581922
 30
0.0
 40
0.49254802
 50
179.1265600000018
 51
270.87345000000141
  0
LINE
  5
8DFF
  8
AM_0
 10
84.771745790548664
 20
142.89805475819199
 30
0.0
 11
84.771745790548664
 21
132.8980647581933
 31
0.0
  0
LINE
  5
8E00
  8
AM_0
 10
89.691725790548617
 20
148.79804475819211
 30
0.0
 11
89.691725790548617
 21
150.89304475819191
 31
0.0
  0
ARC
  5
8E01
  8
AM_0
 10
88.772235790548663
 20
147.39756475819209
 30
0.0
 40
3.5005001999999981
 50
90.008164999996055
 51
179.99183999999781
  0
LINE
  5
8E02
  8
AM_0
 10
171.77174579054889
 20
120.39806475819211
 30
0.0
 11
169.77174579054889
 21
120.39806475819211
 31
0.0
  0
LINE
  5
8E03
  8
AM_0
 10
169.77174579054849
 20
109.39806475819221
 30
0.0
 11
171.77174579054889
 21
109.39806475819221
 31
0.0
  0
LINE
  5
8E04
  8
AM_0
 10
171.77174579054889
 20
109.39806475819221
 30
0.0
 11
171.77174579054889
 21
120.39806475819211
 31
0.0
  0
ARC
  5
8E05
  8
AM_0
 10
171.77174579054821
 20
137.39806475819211
 30
0.0
 40
2.0
 50
90.0
 51
180.0
  0
CIRCLE
  5
8E06
  8
AM_0
 10
168.77174579054821
 20
145.89806475819199
 30
0.0
 40
3.4999999999999631
  0
LINE
  5
8E07
  8
AM_0
 10
157.81194781590469
 20
148.38801425185309
 30
0.0
 11
167.2616952842094
 21
138.93826678354921
 31
0.0
  0
LINE
  5
8E08
  8
AM_0
 10
165.6717457905483
 20
140.5282162772084
 30
0.0
 11
167.26169528420951
 21
138.93826678354921
 31
0.0
  0
ARC
  5
8E09
  8
AM_0
 10
166.27174579054841
 20
137.94831728988731
 30
0.0
 40
1.400000000000118
 50
0.0
 51
45.000000000027619
  0
ARC
  5
8E0A
  8
AM_0
 10
156.82199832224251
 20
147.3980647581925
 30
0.0
 40
1.40000000000077
 50
44.999999999972353
 51
89.999999999954383
  0
LINE
  5
8E0B
  8
AM_0
 10
174.27174579054821
 20
141.39806475819239
 30
0.0
 11
174.27174579054821
 21
148.89806475819211
 31
0.0
  0
LINE
  5
8E0C
  8
AM_0
 10
174.27174579054821
 20
141.39806475819239
 30
0.0
 11
174.27174579054821
 21
148.89806475819211
 31
0.0
  0
ARC
  5
8E0D
  8
AM_0
 10
172.2717457905481
 20
141.39806475819239
 30
0.0
 40
2.0
 50
270.0
 51
0.0
  0
LINE
  5
8E0E
  8
AM_0
 10
171.77174579054821
 20
139.39806475819211
 30
0.0
 11
172.2717457905481
 21
139.39806475819211
 31
0.0
  0
ARC
  5
8E0F
  8
AM_0
 10
172.2717457905481
 20
148.89806475819211
 30
0.0
 40
2.0
 50
0.0
 51
90.0
  0
LINE
  5
8E10
  8
AM_0
 10
166.13317410934141
 20
145.89806475819341
 30
0.0
 11
171.41031747175481
 21
145.8980647581929
 31
0.0
  0
LINE
  5
8E11
  8
AM_0
 10
168.77174579054821
 20
148.53663643939879
 30
0.0
 11
168.77174579054801
 21
143.25949307698559
 31
0.0
  0
CIRCLE
  5
8E12
  8
AM_0
 10
168.77174579054821
 20
83.898064758192248
 30
0.0
 40
3.4999999999999631
  0
LINE
  5
8E13
  8
AM_0
 10
166.13317410934141
 20
83.898064758194096
 30
0.0
 11
171.41031747175481
 21
83.898064758193186
 31
0.0
  0
LINE
  5
8E14
  8
AM_0
 10
168.77174579054821
 20
86.536636439400127
 30
0.0
 11
168.77174579054801
 21
81.259493076986246
 31
0.0
  0
LINE
  5
8E15
  8
AM_0
 10
180.61177579054871
 20
148.90308575819219
 30
0.0
 11
174.27174579054821
 21
148.90308575819219
 31
0.0
  0
LINE
  5
8E17
  8
AM_0
 10
515.53344094957959
 20
150.8980767581908
 30
0.0
 11
504.12463279054839
 21
150.8980767581908
 31
0.0
  0
LINE
  5
8E18
  8
AM_0
 10
504.12463279054839
 20
78.89807675819074
 30
0.0
 11
515.34474220257925
 21
78.89807675819074
 31
0.0
  0
LINE
  5
8E19
  8
AM_0
 10
503.62463279054839
 20
146.2980767581937
 30
0.0
 11
503.62463279054839
 21
83.498076758192724
 31
0.0
  0
ARC
  5
8E1A
  8
AM_0
 10
506.1246327905485
 20
146.2980767581937
 30
0.0
 40
2.5
 50
90.0
 51
180.0
  0
LINE
  5
8E1B
  8
AM_0
 10
503.62463279054839
 20
150.39807675819171
 30
0.0
 11
503.62463279054839
 21
146.2980767581937
 31
0.0
  0
ARC
  5
8E1C
  8
AM_0
 10
504.1246327905485
 20
150.39807675819171
 30
0.0
 40
0.5
 50
90.0
 51
180.0
  0
LINE
  5
8E1D
  8
AM_0
 10
515.4233847529174
 20
148.79807675819271
 30
0.0
 11
506.12463279054822
 21
148.79807675819271
 31
0.0
  0
POLYLINE
  5
8E1E
  8
AM_0
 66
     1
 10
0.0
 20
0.0
 30
0.0
 70
     8
  0
VERTEX
  5
8E1F
  8
AM_0
 10
506.12458572547428
 20
138.5284915612356
 30
0.0
 70
    32
  0
VERTEX
  5
8E20
  8
AM_0
 10
506.1205857254742
 20
138.5284915612356
 30
0.0
 70
    32
  0
VERTEX
  5
8E21
  8
AM_0
 10
506.11658572547441
 20
138.5284915612356
 30
0.0
 70
    32
  0
VERTEX
  5
8E22
  8
AM_0
 10
506.11158572547419
 20
138.5284915612356
 30
0.0
 70
    32
  0
VERTEX
  5
8E23
  8
AM_0
 10
506.10758572547439
 20
138.5284915612356
 30
0.0
 70
    32
  0
VERTEX
  5
8E24
  8
AM_0
 10
506.10358572547437
 20
138.5284915612356
 30
0.0
 70
    32
  0
VERTEX
  5
8E25
  8
AM_0
 10
506.09858572547438
 20
138.5284915612356
 30
0.0
 70
    32
  0
VERTEX
  5
8E26
  8
AM_0
 10
506.09458572547442
 20
138.5274915612348
 30
0.0
 70
    32
  0
VERTEX
  5
8E27
  8
AM_0
 10
506.0905857254744
 20
138.5274915612348
 30
0.0
 70
    32
  0
VERTEX
  5
8E28
  8
AM_0
 10
506.08658572547421
 20
138.5274915612348
 30
0.0
 70
    32
  0
VERTEX
  5
8E29
  8
AM_0
 10
506.08158572547438
 20
138.5274915612348
 30
0.0
 70
    32
  0
VERTEX
  5
8E2A
  8
AM_0
 10
506.07758572547419
 20
138.5274915612348
 30
0.0
 70
    32
  0
VERTEX
  5
8E2B
  8
AM_0
 10
506.07358572547429
 20
138.5274915612348
 30
0.0
 70
    32
  0
VERTEX
  5
8E2C
  8
AM_0
 10
506.06958572547433
 20
138.5274915612348
 30
0.0
 70
    32
  0
VERTEX
  5
8E2D
  8
AM_0
 10
506.06458572547427
 20
138.5274915612348
 30
0.0
 70
    32
  0
VERTEX
  5
8E2E
  8
AM_0
 10
506.06058572547431
 20
138.5274915612348
 30
0.0
 70
    32
  0
VERTEX
  5
8E2F
  8
AM_0
 10
506.05658572547441
 20
138.5274915612348
 30
0.0
 70
    32
  0
VERTEX
  5
8E30
  8
AM_0
 10
506.05158572547441
 20
138.5274915612348
 30
0.0
 70
    32
  0
VERTEX
  5
8E31
  8
AM_0
 10
506.04758572547428
 20
138.5274915612348
 30
0.0
 70
    32
  0
VERTEX
  5
8E32
  8
AM_0
 10
506.04358572547432
 20
138.5274915612348
 30
0.0
 70
    32
  0
VERTEX
  5
8E33
  8
AM_0
 10
506.03958572547452
 20
138.5274915612348
 30
0.0
 70
    32
  0
VERTEX
  5
8E34
  8
AM_0
 10
506.0345857254743
 20
138.5274915612348
 30
0.0
 70
    32
  0
VERTEX
  5
8E35
  8
AM_0
 10
506.03058572547451
 20
138.5274915612348
 30
0.0
 70
    32
  0
VERTEX
  5
8E36
  8
AM_0
 10
506.02658572547421
 20
138.5274915612348
 30
0.0
 70
    32
  0
VERTEX
  5
8E37
  8
AM_0
 10
506.02258572547441
 20
138.5274915612348
 30
0.0
 70
    32
  0
VERTEX
  5
8E38
  8
AM_0
 10
506.01758572547408
 20
138.5264915612357
 30
0.0
 70
    32
  0
VERTEX
  5
8E39
  8
AM_0
 10
506.0135857254744
 20
138.5264915612357
 30
0.0
 70
    32
  0
VERTEX
  5
8E3A
  8
AM_0
 10
506.00958572547438
 20
138.5264915612357
 30
0.0
 70
    32
  0
VERTEX
  5
8E3B
  8
AM_0
 10
506.00558572547442
 20
138.5264915612357
 30
0.0
 70
    32
  0
VERTEX
  5
8E3C
  8
AM_0
 10
506.00058572547442
 20
138.5264915612357
 30
0.0
 70
    32
  0
VERTEX
  5
8E3D
  8
AM_0
 10
505.99658572547429
 20
138.5264915612357
 30
0.0
 70
    32
  0
VERTEX
  5
8E3E
  8
AM_0
 10
505.99258572547438
 20
138.5264915612357
 30
0.0
 70
    32
  0
VERTEX
  5
8E3F
  8
AM_0
 10
505.98758572547439
 20
138.5264915612357
 30
0.0
 70
    32
  0
VERTEX
  5
8E40
  8
AM_0
 10
505.98358572547443
 20
138.5264915612357
 30
0.0
 70
    32
  0
VERTEX
  5
8E41
  8
AM_0
 10
505.97958572547429
 20
138.5264915612357
 30
0.0
 70
    32
  0
VERTEX
  5
8E42
  8
AM_0
 10
505.97558572547428
 20
138.52549156123479
 30
0.0
 70
    32
  0
VERTEX
  5
8E43
  8
AM_0
 10
505.97058572547411
 20
138.52549156123479
 30
0.0
 70
    32
  0
VERTEX
  5
8E44
  8
AM_0
 10
505.96658572547432
 20
138.52549156123479
 30
0.0
 70
    32
  0
VERTEX
  5
8E45
  8
AM_0
 10
505.96258572547453
 20
138.52549156123479
 30
0.0
 70
    32
  0
VERTEX
  5
8E46
  8
AM_0
 10
505.95858572547428
 20
138.52549156123479
 30
0.0
 70
    32
  0
VERTEX
  5
8E47
  8
AM_0
 10
505.95358572547428
 20
138.52549156123479
 30
0.0
 70
    32
  0
VERTEX
  5
8E48
  8
AM_0
 10
505.94958572547432
 20
138.52549156123479
 30
0.0
 70
    32
  0
VERTEX
  5
8E49
  8
AM_0
 10
505.94558572547442
 20
138.52449156123481
 30
0.0
 70
    32
  0
VERTEX
  5
8E4A
  8
AM_0
 10
505.94158572547428
 20
138.52449156123481
 30
0.0
 70
    32
  0
VERTEX
  5
8E4B
  8
AM_0
 10
505.9365857254744
 20
138.52449156123481
 30
0.0
 70
    32
  0
VERTEX
  5
8E4C
  8
AM_0
 10
505.93258572547433
 20
138.52449156123481
 30
0.0
 70
    32
  0
VERTEX
  5
8E4D
  8
AM_0
 10
505.92858572547442
 20
138.52449156123481
 30
0.0
 70
    32
  0
VERTEX
  5
8E4E
  8
AM_0
 10
505.92358572547442
 20
138.52449156123481
 30
0.0
 70
    32
  0
VERTEX
  5
8E4F
  8
AM_0
 10
505.91958572547418
 20
138.52449156123481
 30
0.0
 70
    32
  0
VERTEX
  5
8E50
  8
AM_0
 10
505.91558572547439
 20
138.5234915612358
 30
0.0
 70
    32
  0
VERTEX
  5
8E51
  8
AM_0
 10
505.91158572547442
 20
138.5234915612358
 30
0.0
 70
    32
  0
VERTEX
  5
8E52
  8
AM_0
 10
505.90658572547437
 20
138.5234915612358
 30
0.0
 70
    32
  0
VERTEX
  5
8E53
  8
AM_0
 10
505.90258572547441
 20
138.5234915612358
 30
0.0
 70
    32
  0
VERTEX
  5
8E54
  8
AM_0
 10
505.89858572547439
 20
138.5234915612358
 30
0.0
 70
    32
  0
VERTEX
  5
8E55
  8
AM_0
 10
505.89458572547409
 20
138.52249156123671
 30
0.0
 70
    32
  0
VERTEX
  5
8E56
  8
AM_0
 10
505.88958572547438
 20
138.52249156123671
 30
0.0
 70
    32
  0
VERTEX
  5
8E57
  8
AM_0
 10
505.88558572547419
 20
138.52249156123671
 30
0.0
 70
    32
  0
VERTEX
  5
8E58
  8
AM_0
 10
505.88158572547428
 20
138.52249156123671
 30
0.0
 70
    32
  0
VERTEX
  5
8E59
  8
AM_0
 10
505.87758572547432
 20
138.52249156123671
 30
0.0
 70
    32
  0
VERTEX
  5
8E5A
  8
AM_0
 10
505.87258572547432
 20
138.52249156123671
 30
0.0
 70
    32
  0
VERTEX
  5
8E5B
  8
AM_0
 10
505.86858572547442
 20
138.52149156123559
 30
0.0
 70
    32
  0
VERTEX
  5
8E5C
  8
AM_0
 10
505.86458572547429
 20
138.52149156123559
 30
0.0
 70
    32
  0
VERTEX
  5
8E5D
  8
AM_0
 10
505.86058572547432
 20
138.52149156123559
 30
0.0
 70
    32
  0
VERTEX
  5
8E5E
  8
AM_0
 10
505.85558572547433
 20
138.52149156123559
 30
0.0
 70
    32
  0
VERTEX
  5
8E5F
  8
AM_0
 10
505.85158572547442
 20
138.52049156123559
 30
0.0
 70
    32
  0
VERTEX
  5
8E60
  8
AM_0
 10
505.84758572547452
 20
138.52049156123559
 30
0.0
 70
    32
  0
VERTEX
  5
8E61
  8
AM_0
 10
505.84258572547429
 20
138.52049156123559
 30
0.0
 70
    32
  0
VERTEX
  5
8E62
  8
AM_0
 10
505.83858572547427
 20
138.52049156123559
 30
0.0
 70
    32
  0
VERTEX
  5
8E63
  8
AM_0
 10
505.83458572547408
 20
138.52049156123559
 30
0.0
 70
    32
  0
VERTEX
  5
8E64
  8
AM_0
 10
505.83058572547441
 20
138.51949156123561
 30
0.0
 70
    32
  0
VERTEX
  5
8E65
  8
AM_0
 10
505.82558572547413
 20
138.51949156123561
 30
0.0
 70
    32
  0
VERTEX
  5
8E66
  8
AM_0
 10
505.82158572547439
 20
138.51949156123561
 30
0.0
 70
    32
  0
VERTEX
  5
8E67
  8
AM_0
 10
505.81758572547432
 20
138.51949156123561
 30
0.0
 70
    32
  0
VERTEX
  5
8E68
  8
AM_0
 10
505.81358572547418
 20
138.5184915612347
 30
0.0
 70
    32
  0
VERTEX
  5
8E69
  8
AM_0
 10
505.80858572547442
 20
138.5184915612347
 30
0.0
 70
    32
  0
VERTEX
  5
8E6A
  8
AM_0
 10
505.80458572547428
 20
138.5184915612347
 30
0.0
 70
    32
  0
VERTEX
  5
8E6B
  8
AM_0
 10
505.80058572547438
 20
138.51749156123569
 30
0.0
 70
    32
  0
VERTEX
  5
8E6C
  8
AM_0
 10
505.7965857254743
 20
138.51749156123569
 30
0.0
 70
    32
  0
VERTEX
  5
8E6D
  8
AM_0
 10
505.79158572547442
 20
138.51749156123569
 30
0.0
 70
    32
  0
VERTEX
  5
8E6E
  8
AM_0
 10
505.78758572547429
 20
138.51749156123569
 30
0.0
 70
    32
  0
VERTEX
  5
8E6F
  8
AM_0
 10
505.78358572547432
 20
138.5164915612348
 30
0.0
 70
    32
  0
VERTEX
  5
8E70
  8
AM_0
 10
505.77958572547448
 20
138.5164915612348
 30
0.0
 70
    32
  0
VERTEX
  5
8E71
  8
AM_0
 10
505.77458572547442
 20
138.5164915612348
 30
0.0
 70
    32
  0
VERTEX
  5
8E72
  8
AM_0
 10
505.77058572547429
 20
138.5164915612348
 30
0.0
 70
    32
  0
VERTEX
  5
8E73
  8
AM_0
 10
505.76658572547427
 20
138.51549156123571
 30
0.0
 70
    32
  0
VERTEX
  5
8E74
  8
AM_0
 10
505.76258572547442
 20
138.51549156123571
 30
0.0
 70
    32
  0
VERTEX
  5
8E75
  8
AM_0
 10
505.75758572547431
 20
138.51549156123571
 30
0.0
 70
    32
  0
VERTEX
  5
8E76
  8
AM_0
 10
505.75358572547441
 20
138.51449156123661
 30
0.0
 70
    32
  0
VERTEX
  5
8E77
  8
AM_0
 10
505.74958572547428
 20
138.51449156123661
 30
0.0
 70
    32
  0
VERTEX
  5
8E78
  8
AM_0
 10
505.74458572547439
 20
138.51449156123661
 30
0.0
 70
    32
  0
VERTEX
  5
8E79
  8
AM_0
 10
505.7405857254742
 20
138.51349156123581
 30
0.0
 70
    32
  0
VERTEX
  5
8E7A
  8
AM_0
 10
505.7365857254743
 20
138.51349156123581
 30
0.0
 70
    32
  0
VERTEX
  5
8E7B
  8
AM_0
 10
505.73258572547451
 20
138.51349156123581
 30
0.0
 70
    32
  0
VERTEX
  5
8E7C
  8
AM_0
 10
505.72758572547428
 20
138.51249156123561
 30
0.0
 70
    32
  0
VERTEX
  5
8E7D
  8
AM_0
 10
505.72358572547438
 20
138.51249156123561
 30
0.0
 70
    32
  0
VERTEX
  5
8E7E
  8
AM_0
 10
505.71958572547442
 20
138.51249156123561
 30
0.0
 70
    32
  0
VERTEX
  5
8E7F
  8
AM_0
 10
505.7155857254744
 20
138.5114915612356
 30
0.0
 70
    32
  0
VERTEX
  5
8E80
  8
AM_0
 10
505.7105857254744
 20
138.5114915612356
 30
0.0
 70
    32
  0
VERTEX
  5
8E81
  8
AM_0
 10
505.70658572547438
 20
138.5114915612356
 30
0.0
 70
    32
  0
VERTEX
  5
8E82
  8
AM_0
 10
505.70258572547419
 20
138.5104915612356
 30
0.0
 70
    32
  0
VERTEX
  5
8E83
  8
AM_0
 10
505.69858572547429
 20
138.5104915612356
 30
0.0
 70
    32
  0
VERTEX
  5
8E84
  8
AM_0
 10
505.69358572547429
 20
138.5104915612356
 30
0.0
 70
    32
  0
VERTEX
  5
8E85
  8
AM_0
 10
505.68958572547427
 20
138.50949156123471
 30
0.0
 70
    32
  0
VERTEX
  5
8E86
  8
AM_0
 10
505.68558572547443
 20
138.50949156123471
 30
0.0
 70
    32
  0
VERTEX
  5
8E87
  8
AM_0
 10
505.68158572547441
 20
138.5084915612357
 30
0.0
 70
    32
  0
VERTEX
  5
8E88
  8
AM_0
 10
505.67658572547441
 20
138.5084915612357
 30
0.0
 70
    32
  0
VERTEX
  5
8E89
  8
AM_0
 10
505.67258572547439
 20
138.5084915612357
 30
0.0
 70
    32
  0
VERTEX
  5
8E8A
  8
AM_0
 10
505.66858572547432
 20
138.5074915612357
 30
0.0
 70
    32
  0
VERTEX
  5
8E8B
  8
AM_0
 10
505.66458572547452
 20
138.5074915612357
 30
0.0
 70
    32
  0
VERTEX
  5
8E8C
  8
AM_0
 10
505.6595857254743
 20
138.50649156123481
 30
0.0
 70
    32
  0
VERTEX
  5
8E8D
  8
AM_0
 10
505.65558572547428
 20
138.50649156123481
 30
0.0
 70
    32
  0
VERTEX
  5
8E8E
  8
AM_0
 10
505.65158572547432
 20
138.50649156123481
 30
0.0
 70
    32
  0
VERTEX
  5
8E8F
  8
AM_0
 10
505.64758572547441
 20
138.50549156123481
 30
0.0
 70
    32
  0
VERTEX
  5
8E90
  8
AM_0
 10
505.64258572547431
 20
138.50549156123481
 30
0.0
 70
    32
  0
VERTEX
  5
8E91
  8
AM_0
 10
505.6385857254744
 20
138.50449156123571
 30
0.0
 70
    32
  0
VERTEX
  5
8E92
  8
AM_0
 10
505.63458572547432
 20
138.50449156123571
 30
0.0
 70
    32
  0
VERTEX
  5
8E93
  8
AM_0
 10
505.63058572547419
 20
138.5034915612367
 30
0.0
 70
    32
  0
VERTEX
  5
8E94
  8
AM_0
 10
505.62558572547442
 20
138.5034915612367
 30
0.0
 70
    32
  0
VERTEX
  5
8E95
  8
AM_0
 10
505.62158572547429
 20
138.5034915612367
 30
0.0
 70
    32
  0
VERTEX
  5
8E96
  8
AM_0
 10
505.61758572547438
 20
138.50249156123559
 30
0.0
 70
    32
  0
VERTEX
  5
8E97
  8
AM_0
 10
505.61358572547431
 20
138.50249156123559
 30
0.0
 70
    32
  0
VERTEX
  5
8E98
  8
AM_0
 10
505.60858572547443
 20
138.50149156123561
 30
0.0
 70
    32
  0
VERTEX
  5
8E99
  8
AM_0
 10
505.60458572547418
 20
138.50149156123561
 30
0.0
 70
    32
  0
VERTEX
  5
8E9A
  8
AM_0
 10
505.60058572547439
 20
138.5004915612347
 30
0.0
 70
    32
  0
VERTEX
  5
8E9B
  8
AM_0
 10
505.59658572547448
 20
138.5004915612347
 30
0.0
 70
    32
  0
VERTEX
  5
8E9C
  8
AM_0
 10
505.59258572547418
 20
138.4994915612356
 30
0.0
 70
    32
  0
VERTEX
  5
8E9D
  8
AM_0
 10
505.5875857254743
 20
138.4994915612356
 30
0.0
 70
    32
  0
VERTEX
  5
8E9E
  8
AM_0
 10
505.58358572547428
 20
138.49849156123469
 30
0.0
 70
    32
  0
VERTEX
  5
8E9F
  8
AM_0
 10
505.57958572547432
 20
138.49849156123469
 30
0.0
 70
    32
  0
VERTEX
  5
8EA0
  8
AM_0
 10
505.5755857254743
 20
138.4974915612348
 30
0.0
 70
    32
  0
VERTEX
  5
8EA1
  8
AM_0
 10
505.57058572547442
 20
138.4974915612348
 30
0.0
 70
    32
  0
VERTEX
  5
8EA2
  8
AM_0
 10
505.56658572547428
 20
138.4964915612357
 30
0.0
 70
    32
  0
VERTEX
  5
8EA3
  8
AM_0
 10
505.56258572547432
 20
138.4964915612357
 30
0.0
 70
    32
  0
VERTEX
  5
8EA4
  8
AM_0
 10
505.55858572547447
 20
138.49549156123661
 30
0.0
 70
    32
  0
VERTEX
  5
8EA5
  8
AM_0
 10
505.55358572547431
 20
138.49549156123661
 30
0.0
 70
    32
  0
VERTEX
  5
8EA6
  8
AM_0
 10
505.54958572547451
 20
138.4944915612358
 30
0.0
 70
    32
  0
VERTEX
  5
8EA7
  8
AM_0
 10
505.54558572547433
 20
138.4944915612358
 30
0.0
 70
    32
  0
VERTEX
  5
8EA8
  8
AM_0
 10
505.54158572547442
 20
138.4934915612358
 30
0.0
 70
    32
  0
VERTEX
  5
8EA9
  8
AM_0
 10
505.53658572547448
 20
138.4934915612358
 30
0.0
 70
    32
  0
VERTEX
  5
8EAA
  8
AM_0
 10
505.53258572547441
 20
138.4924915612356
 30
0.0
 70
    32
  0
VERTEX
  5
8EAB
  8
AM_0
 10
505.52858572547427
 20
138.4924915612356
 30
0.0
 70
    32
  0
VERTEX
  5
8EAC
  8
AM_0
 10
505.52458572547442
 20
138.49149156123471
 30
0.0
 70
    32
  0
VERTEX
  5
8EAD
  8
AM_0
 10
505.51958572547431
 20
138.49149156123471
 30
0.0
 70
    32
  0
VERTEX
  5
8EAE
  8
AM_0
 10
505.51558572547418
 20
138.49049156123559
 30
0.0
 70
    32
  0
VERTEX
  5
8EAF
  8
AM_0
 10
505.51158572547439
 20
138.49049156123559
 30
0.0
 70
    32
  0
VERTEX
  5
8EB0
  8
AM_0
 10
505.50758572547443
 20
138.4894915612347
 30
0.0
 70
    32
  0
VERTEX
  5
8EB1
  8
AM_0
 10
505.50358572547418
 20
138.4894915612347
 30
0.0
 70
    32
  0
VERTEX
  5
8EB2
  8
AM_0
 10
505.49858572547441
 20
138.48849156123569
 30
0.0
 70
    32
  0
VERTEX
  5
8EB3
  8
AM_0
 10
505.49458572547428
 20
138.4874915612348
 30
0.0
 70
    32
  0
VERTEX
  5
8EB4
  8
AM_0
 10
505.49058572547409
 20
138.4874915612348
 30
0.0
 70
    32
  0
VERTEX
  5
8EB5
  8
AM_0
 10
505.48658572547441
 20
138.48649156123571
 30
0.0
 70
    32
  0
VERTEX
  5
8EB6
  8
AM_0
 10
505.48158572547447
 20
138.48649156123571
 30
0.0
 70
    32
  0
VERTEX
  5
8EB7
  8
AM_0
 10
505.47758572547428
 20
138.4854915612357
 30
0.0
 70
    32
  0
VERTEX
  5
8EB8
  8
AM_0
 10
505.47358572547432
 20
138.4854915612357
 30
0.0
 70
    32
  0
VERTEX
  5
8EB9
  8
AM_0
 10
505.46958572547447
 20
138.48449156123669
 30
0.0
 70
    32
  0
VERTEX
  5
8EBA
  8
AM_0
 10
505.46458572547442
 20
138.48349156123561
 30
0.0
 70
    32
  0
VERTEX
  5
8EBB
  8
AM_0
 10
505.4605857254744
 20
138.48349156123561
 30
0.0
 70
    32
  0
VERTEX
  5
8EBC
  8
AM_0
 10
505.45658572547421
 20
138.4824915612347
 30
0.0
 70
    32
  0
VERTEX
  5
8EBD
  8
AM_0
 10
505.45258572547408
 20
138.4824915612347
 30
0.0
 70
    32
  0
VERTEX
  5
8EBE
  8
AM_0
 10
505.44858572547429
 20
138.48149156123469
 30
0.0
 70
    32
  0
VERTEX
  5
8EBF
  8
AM_0
 10
505.44358572547441
 20
138.4804915612356
 30
0.0
 70
    32
  0
VERTEX
  5
8EC0
  8
AM_0
 10
505.43958572547427
 20
138.4804915612356
 30
0.0
 70
    32
  0
VERTEX
  5
8EC1
  8
AM_0
 10
505.43558572547431
 20
138.4794915612357
 30
0.0
 70
    32
  0
VERTEX
  5
8EC2
  8
AM_0
 10
505.43158572547441
 20
138.4794915612357
 30
0.0
 70
    32
  0
VERTEX
  5
8EC3
  8
AM_0
 10
505.42658572547441
 20
138.47849156123479
 30
0.0
 70
    32
  0
VERTEX
  5
8EC4
  8
AM_0
 10
505.42258572547439
 20
138.47749156123569
 30
0.0
 70
    32
  0
VERTEX
  5
8EC5
  8
AM_0
 10
505.41858572547437
 20
138.47749156123569
 30
0.0
 70
    32
  0
VERTEX
  5
8EC6
  8
AM_0
 10
505.41458572547441
 20
138.4764915612366
 30
0.0
 70
    32
  0
VERTEX
  5
8EC7
  8
AM_0
 10
505.41058572547428
 20
138.47549156123571
 30
0.0
 70
    32
  0
VERTEX
  5
8EC8
  8
AM_0
 10
505.4055857254744
 20
138.47549156123571
 30
0.0
 70
    32
  0
VERTEX
  5
8EC9
  8
AM_0
 10
505.40158572547432
 20
138.47449156123579
 30
0.0
 70
    32
  0
VERTEX
  5
8ECA
  8
AM_0
 10
505.3975857254743
 20
138.47449156123579
 30
0.0
 70
    32
  0
VERTEX
  5
8ECB
  8
AM_0
 10
505.3935857254744
 20
138.47349156123471
 30
0.0
 70
    32
  0
VERTEX
  5
8ECC
  8
AM_0
 10
505.38858572547429
 20
138.4724915612355
 30
0.0
 70
    32
  0
VERTEX
  5
8ECD
  8
AM_0
 10
505.38458572547449
 20
138.4724915612355
 30
0.0
 70
    32
  0
VERTEX
  5
8ECE
  8
AM_0
 10
505.38058572547442
 20
138.47149156123561
 30
0.0
 70
    32
  0
VERTEX
  5
8ECF
  8
AM_0
 10
505.37658572547429
 20
138.4704915612356
 30
0.0
 70
    32
  0
VERTEX
  5
8ED0
  8
AM_0
 10
505.37258572547432
 20
138.4704915612356
 30
0.0
 70
    32
  0
VERTEX
  5
8ED1
  8
AM_0
 10
505.36758572547433
 20
138.46949156123571
 30
0.0
 70
    32
  0
VERTEX
  5
8ED2
  8
AM_0
 10
505.36358572547431
 20
138.4684915612348
 30
0.0
 70
    32
  0
VERTEX
  5
8ED3
  8
AM_0
 10
505.3595857254744
 20
138.4684915612348
 30
0.0
 70
    32
  0
VERTEX
  5
8ED4
  8
AM_0
 10
505.35558572547433
 20
138.4674915612357
 30
0.0
 70
    32
  0
VERTEX
  5
8ED5
  8
AM_0
 10
505.35058572547428
 20
138.4664915612357
 30
0.0
 70
    32
  0
VERTEX
  5
8ED6
  8
AM_0
 10
505.34658572547443
 20
138.4664915612357
 30
0.0
 70
    32
  0
VERTEX
  5
8ED7
  8
AM_0
 10
505.34258572547429
 20
138.46549156123669
 30
0.0
 70
    32
  0
VERTEX
  5
8ED8
  8
AM_0
 10
505.33858572547439
 20
138.46449156123469
 30
0.0
 70
    32
  0
VERTEX
  5
8ED9
  8
AM_0
 10
505.3345857254742
 20
138.4634915612356
 30
0.0
 70
    32
  0
VERTEX
  5
8EDA
  8
AM_0
 10
505.32958572547432
 20
138.4634915612356
 30
0.0
 70
    32
  0
VERTEX
  5
8EDB
  8
AM_0
 10
505.32558572547413
 20
138.46249156123559
 30
0.0
 70
    32
  0
VERTEX
  5
8EDC
  8
AM_0
 10
505.32158572547439
 20
138.46149156123559
 30
0.0
 70
    32
  0
VERTEX
  5
8EDD
  8
AM_0
 10
505.31758572547437
 20
138.46149156123559
 30
0.0
 70
    32
  0
VERTEX
  5
8EDE
  8
AM_0
 10
505.31358572547418
 20
138.4604915612347
 30
0.0
 70
    32
  0
VERTEX
  5
8EDF
  8
AM_0
 10
505.3085857254743
 20
138.45949156123569
 30
0.0
 70
    32
  0
VERTEX
  5
8EE0
  8
AM_0
 10
505.30458572547428
 20
138.45849156123569
 30
0.0
 70
    32
  0
VERTEX
  5
8EE1
  8
AM_0
 10
505.30058572547438
 20
138.45849156123569
 30
0.0
 70
    32
  0
VERTEX
  5
8EE2
  8
AM_0
 10
505.2965857254743
 20
138.45749156123659
 30
0.0
 70
    32
  0
VERTEX
  5
8EE3
  8
AM_0
 10
505.29258572547428
 20
138.45649156123579
 30
0.0
 70
    32
  0
VERTEX
  5
8EE4
  8
AM_0
 10
505.28758572547417
 20
138.45549156123491
 30
0.0
 70
    32
  0
VERTEX
  5
8EE5
  8
AM_0
 10
505.28358572547432
 20
138.45549156123491
 30
0.0
 70
    32
  0
VERTEX
  5
8EE6
  8
AM_0
 10
505.27958572547448
 20
138.4544915612347
 30
0.0
 70
    32
  0
VERTEX
  5
8EE7
  8
AM_0
 10
505.27558572547429
 20
138.45349156123561
 30
0.0
 70
    32
  0
VERTEX
  5
8EE8
  8
AM_0
 10
505.27158572547432
 20
138.4524915612356
 30
0.0
 70
    32
  0
VERTEX
  5
8EE9
  8
AM_0
 10
505.26658572547427
 20
138.4524915612356
 30
0.0
 70
    32
  0
VERTEX
  5
8EEA
  8
AM_0
 10
505.26258572547448
 20
138.4514915612356
 30
0.0
 70
    32
  0
VERTEX
  5
8EEB
  8
AM_0
 10
505.25858572547429
 20
138.45049156123571
 30
0.0
 70
    32
  0
VERTEX
  5
8EEC
  8
AM_0
 10
505.25458572547433
 20
138.44949156123479
 30
0.0
 70
    32
  0
VERTEX
  5
8EED
  8
AM_0
 10
505.25058572547442
 20
138.44949156123479
 30
0.0
 70
    32
  0
VERTEX
  5
8EEE
  8
AM_0
 10
505.2455857254742
 20
138.4484915612357
 30
0.0
 70
    32
  0
VERTEX
  5
8EEF
  8
AM_0
 10
505.24158572547441
 20
138.44749156123569
 30
0.0
 70
    32
  0
VERTEX
  5
8EF0
  8
AM_0
 10
505.23758572547428
 20
138.44649156123481
 30
0.0
 70
    32
  0
VERTEX
  5
8EF1
  8
AM_0
 10
505.23358572547431
 20
138.4454915612358
 30
0.0
 70
    32
  0
VERTEX
  5
8EF2
  8
AM_0
 10
505.22958572547418
 20
138.4454915612358
 30
0.0
 70
    32
  0
VERTEX
  5
8EF3
  8
AM_0
 10
505.22458572547441
 20
138.44449156123559
 30
0.0
 70
    32
  0
VERTEX
  5
8EF4
  8
AM_0
 10
505.22058572547422
 20
138.44349156123471
 30
0.0
 70
    32
  0
VERTEX
  5
8EF5
  8
AM_0
 10
505.21658572547437
 20
138.4424915612347
 30
0.0
 70
    32
  0
VERTEX
  5
8EF6
  8
AM_0
 10
505.2125857254743
 20
138.44149156123561
 30
0.0
 70
    32
  0
VERTEX
  5
8EF7
  8
AM_0
 10
505.20858572547428
 20
138.44149156123561
 30
0.0
 70
    32
  0
VERTEX
  5
8EF8
  8
AM_0
 10
505.2035857254744
 20
138.44049156123569
 30
0.0
 70
    32
  0
VERTEX
  5
8EF9
  8
AM_0
 10
505.19958572547432
 20
138.43949156123571
 30
0.0
 70
    32
  0
VERTEX
  5
8EFA
  8
AM_0
 10
505.19558572547442
 20
138.43849156123659
 30
0.0
 70
    32
  0
VERTEX
  5
8EFB
  8
AM_0
 10
505.19158572547423
 20
138.4374915612357
 30
0.0
 70
    32
  0
VERTEX
  5
8EFC
  8
AM_0
 10
505.18758572547432
 20
138.43649156123479
 30
0.0
 70
    32
  0
VERTEX
  5
8EFD
  8
AM_0
 10
505.18358572547447
 20
138.43649156123479
 30
0.0
 70
    32
  0
VERTEX
  5
8EFE
  8
AM_0
 10
505.17858572547431
 20
138.43549156123561
 30
0.0
 70
    32
  0
VERTEX
  5
8EFF
  8
AM_0
 10
505.1745857254744
 20
138.4344915612356
 30
0.0
 70
    32
  0
VERTEX
  5
8F00
  8
AM_0
 10
505.17058572547433
 20
138.43349156123469
 30
0.0
 70
    32
  0
VERTEX
  5
8F01
  8
AM_0
 10
505.16658572547442
 20
138.43249156123559
 30
0.0
 70
    32
  0
VERTEX
  5
8F02
  8
AM_0
 10
505.16258572547429
 20
138.4314915612357
 30
0.0
 70
    32
  0
VERTEX
  5
8F03
  8
AM_0
 10
505.15758572547441
 20
138.43049156123479
 30
0.0
 70
    32
  0
VERTEX
  5
8F04
  8
AM_0
 10
505.15358572547427
 20
138.43049156123479
 30
0.0
 70
    32
  0
VERTEX
  5
8F05
  8
AM_0
 10
505.14958572547442
 20
138.42949156123569
 30
0.0
 70
    32
  0
VERTEX
  5
8F06
  8
AM_0
 10
505.1455857254744
 20
138.42849156123481
 30
0.0
 70
    32
  0
VERTEX
  5
8F07
  8
AM_0
 10
505.14158572547427
 20
138.4274915612348
 30
0.0
 70
    32
  0
VERTEX
  5
8F08
  8
AM_0
 10
505.13758572547442
 20
138.42649156123579
 30
0.0
 70
    32
  0
VERTEX
  5
8F09
  8
AM_0
 10
505.13258572547431
 20
138.42549156123559
 30
0.0
 70
    32
  0
VERTEX
  5
8F0A
  8
AM_0
 10
505.12858572547441
 20
138.42449156123561
 30
0.0
 70
    32
  0
VERTEX
  5
8F0B
  8
AM_0
 10
505.12458572547422
 20
138.42349156123561
 30
0.0
 70
    32
  0
VERTEX
  5
8F0C
  8
AM_0
 10
505.12058572547443
 20
138.4224915612356
 30
0.0
 70
    32
  0
VERTEX
  5
8F0D
  8
AM_0
 10
505.11658572547441
 20
138.4224915612356
 30
0.0
 70
    32
  0
VERTEX
  5
8F0E
  8
AM_0
 10
505.11258572547428
 20
138.42149156123571
 30
0.0
 70
    32
  0
VERTEX
  5
8F0F
  8
AM_0
 10
505.10758572547428
 20
138.42049156123571
 30
0.0
 70
    32
  0
VERTEX
  5
8F10
  8
AM_0
 10
505.10358572547449
 20
138.41949156123479
 30
0.0
 70
    32
  0
VERTEX
  5
8F11
  8
AM_0
 10
505.0995857254743
 20
138.4184915612357
 30
0.0
 70
    32
  0
VERTEX
  5
8F12
  8
AM_0
 10
505.09558572547411
 20
138.41749156123569
 30
0.0
 70
    32
  0
VERTEX
  5
8F13
  8
AM_0
 10
505.09158572547432
 20
138.41649156123469
 30
0.0
 70
    32
  0
VERTEX
  5
8F14
  8
AM_0
 10
505.08758572547441
 20
138.41549156123469
 30
0.0
 70
    32
  0
VERTEX
  5
8F15
  8
AM_0
 10
505.0825857254743
 20
138.41449156123559
 30
0.0
 70
    32
  0
VERTEX
  5
8F16
  8
AM_0
 10
505.07858572547428
 20
138.41349156123559
 30
0.0
 70
    32
  0
VERTEX
  5
8F17
  8
AM_0
 10
505.07458572547432
 20
138.41249156123561
 30
0.0
 70
    32
  0
VERTEX
  5
8F18
  8
AM_0
 10
505.07058572547442
 20
138.41149156123481
 30
0.0
 70
    32
  0
VERTEX
  5
8F19
  8
AM_0
 10
505.06658572547428
 20
138.41049156123481
 30
0.0
 70
    32
  0
VERTEX
  5
8F1A
  8
AM_0
 10
505.06258572547421
 20
138.4094915612348
 30
0.0
 70
    32
  0
VERTEX
  5
8F1B
  8
AM_0
 10
505.05758572547433
 20
138.40849156123579
 30
0.0
 70
    32
  0
VERTEX
  5
8F1C
  8
AM_0
 10
505.05358572547419
 20
138.40749156123579
 30
0.0
 70
    32
  0
VERTEX
  5
8F1D
  8
AM_0
 10
505.0495857254744
 20
138.4064915612347
 30
0.0
 70
    32
  0
VERTEX
  5
8F1E
  8
AM_0
 10
505.04558572547433
 20
138.40549156123561
 30
0.0
 70
    32
  0
VERTEX
  5
8F1F
  8
AM_0
 10
505.04158572547442
 20
138.4044915612356
 30
0.0
 70
    32
  0
VERTEX
  5
8F20
  8
AM_0
 10
505.03758572547412
 20
138.4034915612356
 30
0.0
 70
    32
  0
VERTEX
  5
8F21
  8
AM_0
 10
505.03358572547438
 20
138.40249156123571
 30
0.0
 70
    32
  0
VERTEX
  5
8F22
  8
AM_0
 10
505.02858572547422
 20
138.40149156123479
 30
0.0
 70
    32
  0
VERTEX
  5
8F23
  8
AM_0
 10
505.02458572547431
 20
138.40049156123479
 30
0.0
 70
    32
  0
VERTEX
  5
8F24
  8
AM_0
 10
505.0205857254744
 20
138.39949156123569
 30
0.0
 70
    32
  0
VERTEX
  5
8F25
  8
AM_0
 10
505.01658572547427
 20
138.39849156123481
 30
0.0
 70
    32
  0
VERTEX
  5
8F26
  8
AM_0
 10
505.01258572547442
 20
138.3974915612358
 30
0.0
 70
    32
  0
VERTEX
  5
8F27
  8
AM_0
 10
505.00858572547429
 20
138.39649156123559
 30
0.0
 70
    32
  0
VERTEX
  5
8F28
  8
AM_0
 10
505.0035857254743
 20
138.39549156123559
 30
0.0
 70
    32
  0
VERTEX
  5
8F29
  8
AM_0
 10
504.99958572547428
 20
138.39449156123561
 30
0.0
 70
    32
  0
VERTEX
  5
8F2A
  8
AM_0
 10
504.99558572547431
 20
138.39349156123569
 30
0.0
 70
    32
  0
VERTEX
  5
8F2B
  8
AM_0
 10
504.99158572547441
 20
138.39249156123569
 30
0.0
 70
    32
  0
VERTEX
  5
8F2C
  8
AM_0
 10
504.98758572547428
 20
138.3914915612348
 30
0.0
 70
    32
  0
VERTEX
  5
8F2D
  8
AM_0
 10
504.98358572547431
 20
138.39049156123571
 30
0.0
 70
    32
  0
VERTEX
  5
8F2E
  8
AM_0
 10
504.97958572547429
 20
138.38949156123479
 30
0.0
 70
    32
  0
VERTEX
  5
8F2F
  8
AM_0
 10
504.97558572547428
 20
138.38849156123581
 30
0.0
 70
    32
  0
VERTEX
  5
8F30
  8
AM_0
 10
504.97058572547428
 20
138.38749156123549
 30
0.0
 70
    32
  0
VERTEX
  5
8F31
  8
AM_0
 10
504.96658572547432
 20
138.3864915612356
 30
0.0
 70
    32
  0
VERTEX
  5
8F32
  8
AM_0
 10
504.96258572547453
 20
138.3854915612356
 30
0.0
 70
    32
  0
VERTEX
  5
8F33
  8
AM_0
 10
504.95858572547428
 20
138.3834915612357
 30
0.0
 70
    32
  0
VERTEX
  5
8F34
  8
AM_0
 10
504.95458572547432
 20
138.38249156123479
 30
0.0
 70
    32
  0
VERTEX
  5
8F35
  8
AM_0
 10
504.95058572547413
 20
138.38149156123569
 30
0.0
 70
    32
  0
VERTEX
  5
8F36
  8
AM_0
 10
504.94658572547439
 20
138.38049156123569
 30
0.0
 70
    32
  0
VERTEX
  5
8F37
  8
AM_0
 10
504.94258572547432
 20
138.3794915612348
 30
0.0
 70
    32
  0
VERTEX
  5
8F38
  8
AM_0
 10
504.93758572547438
 20
138.37849156123579
 30
0.0
 70
    32
  0
VERTEX
  5
8F39
  8
AM_0
 10
504.93358572547442
 20
138.37749156123559
 30
0.0
 70
    32
  0
VERTEX
  5
8F3A
  8
AM_0
 10
504.92958572547428
 20
138.37649156123561
 30
0.0
 70
    32
  0
VERTEX
  5
8F3B
  8
AM_0
 10
504.92558572547438
 20
138.37549156123561
 30
0.0
 70
    32
  0
VERTEX
  5
8F3C
  8
AM_0
 10
504.92158572547419
 20
138.37349156123469
 30
0.0
 70
    32
  0
VERTEX
  5
8F3D
  8
AM_0
 10
504.9175857254744
 20
138.37249156123571
 30
0.0
 70
    32
  0
VERTEX
  5
8F3E
  8
AM_0
 10
504.91358572547449
 20
138.37149156123479
 30
0.0
 70
    32
  0
VERTEX
  5
8F3F
  8
AM_0
 10
504.9095857254743
 20
138.3704915612357
 30
0.0
 70
    32
  0
VERTEX
  5
8F40
  8
AM_0
 10
504.90458572547442
 20
138.36949156123569
 30
0.0
 70
    32
  0
VERTEX
  5
8F41
  8
AM_0
 10
504.90058572547429
 20
138.36849156123671
 30
0.0
 70
    32
  0
VERTEX
  5
8F42
  8
AM_0
 10
504.89658572547432
 20
138.3674915612356
 30
0.0
 70
    32
  0
VERTEX
  5
8F43
  8
AM_0
 10
504.89258572547431
 20
138.36549156123559
 30
0.0
 70
    32
  0
VERTEX
  5
8F44
  8
AM_0
 10
504.88858572547429
 20
138.3644915612347
 30
0.0
 70
    32
  0
VERTEX
  5
8F45
  8
AM_0
 10
504.88458572547449
 20
138.36349156123569
 30
0.0
 70
    32
  0
VERTEX
  5
8F46
  8
AM_0
 10
504.8805857254743
 20
138.3624915612348
 30
0.0
 70
    32
  0
VERTEX
  5
8F47
  8
AM_0
 10
504.8765857254744
 20
138.36149156123571
 30
0.0
 70
    32
  0
VERTEX
  5
8F48
  8
AM_0
 10
504.87258572547432
 20
138.3604915612348
 30
0.0
 70
    32
  0
VERTEX
  5
8F49
  8
AM_0
 10
504.86858572547442
 20
138.35849156123561
 30
0.0
 70
    32
  0
VERTEX
  5
8F4A
  8
AM_0
 10
504.86358572547431
 20
138.35749156123561
 30
0.0
 70
    32
  0
VERTEX
  5
8F4B
  8
AM_0
 10
504.8595857254744
 20
138.3564915612356
 30
0.0
 70
    32
  0
VERTEX
  5
8F4C
  8
AM_0
 10
504.85558572547433
 20
138.35549156123469
 30
0.0
 70
    32
  0
VERTEX
  5
8F4D
  8
AM_0
 10
504.85158572547419
 20
138.3544915612357
 30
0.0
 70
    32
  0
VERTEX
  5
8F4E
  8
AM_0
 10
504.8475857254744
 20
138.35249156123481
 30
0.0
 70
    32
  0
VERTEX
  5
8F4F
  8
AM_0
 10
504.84358572547433
 20
138.35149156123569
 30
0.0
 70
    32
  0
VERTEX
  5
8F50
  8
AM_0
 10
504.83958572547442
 20
138.35049156123571
 30
0.0
 70
    32
  0
VERTEX
  5
8F51
  8
AM_0
 10
504.8355857254744
 20
138.3494915612367
 30
0.0
 70
    32
  0
VERTEX
  5
8F52
  8
AM_0
 10
504.83158572547438
 20
138.34749156123561
 30
0.0
 70
    32
  0
VERTEX
  5
8F53
  8
AM_0
 10
504.82758572547431
 20
138.3464915612347
 30
0.0
 70
    32
  0
VERTEX
  5
8F54
  8
AM_0
 10
504.82358572547429
 20
138.34549156123569
 30
0.0
 70
    32
  0
VERTEX
  5
8F55
  8
AM_0
 10
504.81858572547441
 20
138.3444915612348
 30
0.0
 70
    32
  0
VERTEX
  5
8F56
  8
AM_0
 10
504.81458572547427
 20
138.3424915612357
 30
0.0
 70
    32
  0
VERTEX
  5
8F57
  8
AM_0
 10
504.81058572547443
 20
138.34149156123479
 30
0.0
 70
    32
  0
VERTEX
  5
8F58
  8
AM_0
 10
504.80658572547441
 20
138.34049156123581
 30
0.0
 70
    32
  0
VERTEX
  5
8F59
  8
AM_0
 10
504.80258572547427
 20
138.3394915612358
 30
0.0
 70
    32
  0
VERTEX
  5
8F5A
  8
AM_0
 10
504.79858572547448
 20
138.33749156123471
 30
0.0
 70
    32
  0
VERTEX
  5
8F5B
  8
AM_0
 10
504.79458572547429
 20
138.33649156123559
 30
0.0
 70
    32
  0
VERTEX
  5
8F5C
  8
AM_0
 10
504.79058572547427
 20
138.3354915612347
 30
0.0
 70
    32
  0
VERTEX
  5
8F5D
  8
AM_0
 10
504.78658572547448
 20
138.33449156123481
 30
0.0
 70
    32
  0
VERTEX
  5
8F5E
  8
AM_0
 10
504.78258572547441
 20
138.33249156123571
 30
0.0
 70
    32
  0
VERTEX
  5
8F5F
  8
AM_0
 10
504.77858572547427
 20
138.33149156123571
 30
0.0
 70
    32
  0
VERTEX
  5
8F60
  8
AM_0
 10
504.77458572547431
 20
138.3304915612367
 30
0.0
 70
    32
  0
VERTEX
  5
8F61
  8
AM_0
 10
504.77058572547452
 20
138.3284915612347
 30
0.0
 70
    32
  0
VERTEX
  5
8F62
  8
AM_0
 10
504.7655857254743
 20
138.3274915612356
 30
0.0
 70
    32
  0
VERTEX
  5
8F63
  8
AM_0
 10
504.76158572547439
 20
138.3264915612356
 30
0.0
 70
    32
  0
VERTEX
  5
8F64
  8
AM_0
 10
504.7575857254742
 20
138.3244915612357
 30
0.0
 70
    32
  0
VERTEX
  5
8F65
  8
AM_0
 10
504.75358572547441
 20
138.3234915612357
 30
0.0
 70
    32
  0
VERTEX
  5
8F66
  8
AM_0
 10
504.74958572547428
 20
138.32249156123481
 30
0.0
 70
    32
  0
VERTEX
  5
8F67
  8
AM_0
 10
504.74558572547431
 20
138.32049156123671
 30
0.0
 70
    32
  0
VERTEX
  5
8F68
  8
AM_0
 10
504.74158572547441
 20
138.31949156123471
 30
0.0
 70
    32
  0
VERTEX
  5
8F69
  8
AM_0
 10
504.73758572547439
 20
138.31849156123559
 30
0.0
 70
    32
  0
VERTEX
  5
8F6A
  8
AM_0
 10
504.73358572547431
 20
138.31649156123561
 30
0.0
 70
    32
  0
VERTEX
  5
8F6B
  8
AM_0
 10
504.72958572547412
 20
138.31549156123481
 30
0.0
 70
    32
  0
VERTEX
  5
8F6C
  8
AM_0
 10
504.72558572547439
 20
138.3144915612348
 30
0.0
 70
    32
  0
VERTEX
  5
8F6D
  8
AM_0
 10
504.72158572547443
 20
138.3124915612357
 30
0.0
 70
    32
  0
VERTEX
  5
8F6E
  8
AM_0
 10
504.71758572547418
 20
138.31149156123669
 30
0.0
 70
    32
  0
VERTEX
  5
8F6F
  8
AM_0
 10
504.71358572547439
 20
138.31049156123461
 30
0.0
 70
    32
  0
VERTEX
  5
8F70
  8
AM_0
 10
504.70958572547443
 20
138.3084915612356
 30
0.0
 70
    32
  0
VERTEX
  5
8F71
  8
AM_0
 10
504.70558572547429
 20
138.30749156123559
 30
0.0
 70
    32
  0
VERTEX
  5
8F72
  8
AM_0
 10
504.70158572547439
 20
138.3054915612357
 30
0.0
 70
    32
  0
VERTEX
  5
8F73
  8
AM_0
 10
504.69758572547431
 20
138.30449156123569
 30
0.0
 70
    32
  0
VERTEX
  5
8F74
  8
AM_0
 10
504.69358572547441
 20
138.30349156123481
 30
0.0
 70
    32
  0
VERTEX
  5
8F75
  8
AM_0
 10
504.68958572547427
 20
138.3014915612367
 30
0.0
 70
    32
  0
VERTEX
  5
8F76
  8
AM_0
 10
504.68558572547431
 20
138.30049156123559
 30
0.0
 70
    32
  0
VERTEX
  5
8F77
  8
AM_0
 10
504.68158572547452
 20
138.29849156123561
 30
0.0
 70
    32
  0
VERTEX
  5
8F78
  8
AM_0
 10
504.67758572547427
 20
138.2974915612356
 30
0.0
 70
    32
  0
VERTEX
  5
8F79
  8
AM_0
 10
504.67358572547442
 20
138.29649156123571
 30
0.0
 70
    32
  0
VERTEX
  5
8F7A
  8
AM_0
 10
504.66958572547429
 20
138.2944915612357
 30
0.0
 70
    32
  0
VERTEX
  5
8F7B
  8
AM_0
 10
504.66558572547427
 20
138.29349156123661
 30
0.0
 70
    32
  0
VERTEX
  5
8F7C
  8
AM_0
 10
504.66058572547428
 20
138.2914915612358
 30
0.0
 70
    32
  0
VERTEX
  5
8F7D
  8
AM_0
 10
504.65658572547432
 20
138.2904915612356
 30
0.0
 70
    32
  0
VERTEX
  5
8F7E
  8
AM_0
 10
504.65258572547441
 20
138.28849156123471
 30
0.0
 70
    32
  0
VERTEX
  5
8F7F
  8
AM_0
 10
504.64858572547439
 20
138.28749156123561
 30
0.0
 70
    32
  0
VERTEX
  5
8F80
  8
AM_0
 10
504.64458572547431
 20
138.2854915612368
 30
0.0
 70
    32
  0
VERTEX
  5
8F81
  8
AM_0
 10
504.64058572547418
 20
138.2844915612348
 30
0.0
 70
    32
  0
VERTEX
  5
8F82
  8
AM_0
 10
504.63658572547439
 20
138.2824915612367
 30
0.0
 70
    32
  0
VERTEX
  5
8F83
  8
AM_0
 10
504.63258572547443
 20
138.28149156123561
 30
0.0
 70
    32
  0
VERTEX
  5
8F84
  8
AM_0
 10
504.62858572547418
 20
138.27949156123469
 30
0.0
 70
    32
  0
VERTEX
  5
8F85
  8
AM_0
 10
504.62458572547428
 20
138.2784915612356
 30
0.0
 70
    32
  0
VERTEX
  5
8F86
  8
AM_0
 10
504.62058572547443
 20
138.27649156123479
 30
0.0
 70
    32
  0
VERTEX
  5
8F87
  8
AM_0
 10
504.61658572547441
 20
138.2754915612357
 30
0.0
 70
    32
  0
VERTEX
  5
8F88
  8
AM_0
 10
504.61258572547428
 20
138.27349156123671
 30
0.0
 70
    32
  0
VERTEX
  5
8F89
  8
AM_0
 10
504.60858572547443
 20
138.2724915612358
 30
0.0
 70
    32
  0
VERTEX
  5
8F8A
  8
AM_0
 10
504.60458572547429
 20
138.27049156123471
 30
0.0
 70
    32
  0
VERTEX
  5
8F8B
  8
AM_0
 10
504.60058572547428
 20
138.26949156123561
 30
0.0
 70
    32
  0
VERTEX
  5
8F8C
  8
AM_0
 10
504.59758572547429
 20
138.26749156123569
 30
0.0
 70
    32
  0
VERTEX
  5
8F8D
  8
AM_0
 10
504.59358572547433
 20
138.26649156123679
 30
0.0
 70
    32
  0
VERTEX
  5
8F8E
  8
AM_0
 10
504.58958572547442
 20
138.2644915612357
 30
0.0
 70
    32
  0
VERTEX
  5
8F8F
  8
AM_0
 10
504.5855857254744
 20
138.26349156123669
 30
0.0
 70
    32
  0
VERTEX
  5
8F90
  8
AM_0
 10
504.58158572547433
 20
138.26149156123469
 30
0.0
 70
    32
  0
VERTEX
  5
8F91
  8
AM_0
 10
504.57758572547408
 20
138.2604915612356
 30
0.0
 70
    32
  0
VERTEX
  5
8F92
  8
AM_0
 10
504.57358572547429
 20
138.2584915612357
 30
0.0
 70
    32
  0
VERTEX
  5
8F93
  8
AM_0
 10
504.56958572547433
 20
138.25649156123569
 30
0.0
 70
    32
  0
VERTEX
  5
8F94
  8
AM_0
 10
504.56558572547419
 20
138.2554915612366
 30
0.0
 70
    32
  0
VERTEX
  5
8F95
  8
AM_0
 10
504.5615857254744
 20
138.25349156123579
 30
0.0
 70
    32
  0
VERTEX
  5
8F96
  8
AM_0
 10
504.55758572547433
 20
138.25249156123471
 30
0.0
 70
    32
  0
VERTEX
  5
8F97
  8
AM_0
 10
504.55358572547419
 20
138.25049156123561
 30
0.0
 70
    32
  0
VERTEX
  5
8F98
  8
AM_0
 10
504.5495857254744
 20
138.24849156123571
 30
0.0
 70
    32
  0
VERTEX
  5
8F99
  8
AM_0
 10
504.54558572547433
 20
138.24749156123681
 30
0.0
 70
    32
  0
VERTEX
  5
8F9A
  8
AM_0
 10
504.54158572547442
 20
138.2454915612357
 30
0.0
 70
    32
  0
VERTEX
  5
8F9B
  8
AM_0
 10
504.53758572547429
 20
138.2444915612349
 30
0.0
 70
    32
  0
VERTEX
  5
8F9C
  8
AM_0
 10
504.53358572547438
 20
138.2424915612356
 30
0.0
 70
    32
  0
VERTEX
  5
8F9D
  8
AM_0
 10
504.52958572547431
 20
138.24049156123559
 30
0.0
 70
    32
  0
VERTEX
  5
8F9E
  8
AM_0
 10
504.52558572547429
 20
138.2394915612347
 30
0.0
 70
    32
  0
VERTEX
  5
8F9F
  8
AM_0
 10
504.52158572547438
 20
138.23749156123569
 30
0.0
 70
    32
  0
VERTEX
  5
8FA0
  8
AM_0
 10
504.51758572547431
 20
138.23549156123781
 30
0.0
 70
    32
  0
VERTEX
  5
8FA1
  8
AM_0
 10
504.51358572547429
 20
138.23449156123581
 30
0.0
 70
    32
  0
VERTEX
  5
8FA2
  8
AM_0
 10
504.50958572547449
 20
138.23249156123561
 30
0.0
 70
    32
  0
VERTEX
  5
8FA3
  8
AM_0
 10
504.50658572547428
 20
138.2304915612356
 30
0.0
 70
    32
  0
VERTEX
  5
8FA4
  8
AM_0
 10
504.50258572547432
 20
138.2294915612357
 30
0.0
 70
    32
  0
VERTEX
  5
8FA5
  8
AM_0
 10
504.49858572547453
 20
138.22749156123569
 30
0.0
 70
    32
  0
VERTEX
  5
8FA6
  8
AM_0
 10
504.49458572547428
 20
138.2254915612348
 30
0.0
 70
    32
  0
VERTEX
  5
8FA7
  8
AM_0
 10
504.49058572547409
 20
138.22449156123579
 30
0.0
 70
    32
  0
VERTEX
  5
8FA8
  8
AM_0
 10
504.4865857254743
 20
138.22249156123561
 30
0.0
 70
    32
  0
VERTEX
  5
8FA9
  8
AM_0
 10
504.48258572547428
 20
138.22049156123569
 30
0.0
 70
    32
  0
VERTEX
  5
8FAA
  8
AM_0
 10
504.47858572547437
 20
138.2194915612348
 30
0.0
 70
    32
  0
VERTEX
  5
8FAB
  8
AM_0
 10
504.47458572547441
 20
138.21749156123479
 30
0.0
 70
    32
  0
VERTEX
  5
8FAC
  8
AM_0
 10
504.47058572547428
 20
138.21549156123581
 30
0.0
 70
    32
  0
VERTEX
  5
8FAD
  8
AM_0
 10
504.4665857254742
 20
138.2134915612356
 30
0.0
 70
    32
  0
VERTEX
  5
8FAE
  8
AM_0
 10
504.46258572547441
 20
138.21249156123559
 30
0.0
 70
    32
  0
VERTEX
  5
8FAF
  8
AM_0
 10
504.4595857254742
 20
138.2104915612357
 30
0.0
 70
    32
  0
VERTEX
  5
8FB0
  8
AM_0
 10
504.45558572547441
 20
138.20849156123569
 30
0.0
 70
    32
  0
VERTEX
  5
8FB1
  8
AM_0
 10
504.45158572547439
 20
138.2064915612348
 30
0.0
 70
    32
  0
VERTEX
  5
8FB2
  8
AM_0
 10
504.44758572547431
 20
138.20549156123579
 30
0.0
 70
    32
  0
VERTEX
  5
8FB3
  8
AM_0
 10
504.44358572547441
 20
138.20349156123561
 30
0.0
 70
    32
  0
VERTEX
  5
8FB4
  8
AM_0
 10
504.43958572547427
 20
138.20149156123469
 30
0.0
 70
    32
  0
VERTEX
  5
8FB5
  8
AM_0
 10
504.43558572547443
 20
138.19949156123479
 30
0.0
 70
    32
  0
VERTEX
  5
8FB6
  8
AM_0
 10
504.43158572547441
 20
138.19849156123479
 30
0.0
 70
    32
  0
VERTEX
  5
8FB7
  8
AM_0
 10
504.42758572547439
 20
138.1964915612358
 30
0.0
 70
    32
  0
VERTEX
  5
8FB8
  8
AM_0
 10
504.4245857254744
 20
138.19449156123559
 30
0.0
 70
    32
  0
VERTEX
  5
8FB9
  8
AM_0
 10
504.42058572547433
 20
138.1924915612347
 30
0.0
 70
    32
  0
VERTEX
  5
8FBA
  8
AM_0
 10
504.41658572547442
 20
138.19049156123481
 30
0.0
 70
    32
  0
VERTEX
  5
8FBB
  8
AM_0
 10
504.41258572547417
 20
138.18949156123571
 30
0.0
 70
    32
  0
VERTEX
  5
8FBC
  8
AM_0
 10
504.40858572547432
 20
138.18749156123479
 30
0.0
 70
    32
  0
VERTEX
  5
8FBD
  8
AM_0
 10
504.40458572547448
 20
138.18549156123561
 30
0.0
 70
    32
  0
VERTEX
  5
8FBE
  8
AM_0
 10
504.40058572547429
 20
138.1834915612356
 30
0.0
 70
    32
  0
VERTEX
  5
8FBF
  8
AM_0
 10
504.39758572547441
 20
138.18149156123479
 30
0.0
 70
    32
  0
VERTEX
  5
8FC0
  8
AM_0
 10
504.39358572547428
 20
138.18049156123479
 30
0.0
 70
    32
  0
VERTEX
  5
8FC1
  8
AM_0
 10
504.38958572547432
 20
138.17849156123569
 30
0.0
 70
    32
  0
VERTEX
  5
8FC2
  8
AM_0
 10
504.38558572547407
 20
138.17649156123491
 30
0.0
 70
    32
  0
VERTEX
  5
8FC3
  8
AM_0
 10
504.38158572547428
 20
138.1744915612347
 30
0.0
 70
    32
  0
VERTEX
  5
8FC4
  8
AM_0
 10
504.37758572547432
 20
138.1724915612356
 30
0.0
 70
    32
  0
VERTEX
  5
8FC5
  8
AM_0
 10
504.37358572547441
 20
138.17049156123571
 30
0.0
 70
    32
  0
VERTEX
  5
8FC6
  8
AM_0
 10
504.37058572547431
 20
138.16849156123479
 30
0.0
 70
    32
  0
VERTEX
  5
8FC7
  8
AM_0
 10
504.36658572547441
 20
138.16649156123671
 30
0.0
 70
    32
  0
VERTEX
  5
8FC8
  8
AM_0
 10
504.36258572547428
 20
138.16549156123469
 30
0.0
 70
    32
  0
VERTEX
  5
8FC9
  8
AM_0
 10
504.35858572547431
 20
138.16349156123559
 30
0.0
 70
    32
  0
VERTEX
  5
8FCA
  8
AM_0
 10
504.35458572547418
 20
138.16149156123481
 30
0.0
 70
    32
  0
VERTEX
  5
8FCB
  8
AM_0
 10
504.35158572547442
 20
138.15949156123571
 30
0.0
 70
    32
  0
VERTEX
  5
8FCC
  8
AM_0
 10
504.3475857254744
 20
138.15749156123491
 30
0.0
 70
    32
  0
VERTEX
  5
8FCD
  8
AM_0
 10
504.34358572547433
 20
138.15549156123561
 30
0.0
 70
    32
  0
VERTEX
  5
8FCE
  8
AM_0
 10
504.33958572547431
 20
138.1534915612356
 30
0.0
 70
    32
  0
VERTEX
  5
8FCF
  8
AM_0
 10
504.3355857254744
 20
138.1514915612357
 30
0.0
 70
    32
  0
VERTEX
  5
8FD0
  8
AM_0
 10
504.3325857254743
 20
138.14949156123481
 30
0.0
 70
    32
  0
VERTEX
  5
8FD1
  8
AM_0
 10
504.32858572547428
 20
138.14749156123671
 30
0.0
 70
    32
  0
VERTEX
  5
8FD2
  8
AM_0
 10
504.32458572547432
 20
138.14549156123559
 30
0.0
 70
    32
  0
VERTEX
  5
8FD3
  8
AM_0
 10
504.32058572547442
 20
138.1434915612347
 30
0.0
 70
    32
  0
VERTEX
  5
8FD4
  8
AM_0
 10
504.31658572547428
 20
138.1414915612348
 30
0.0
 70
    32
  0
VERTEX
  5
8FD5
  8
AM_0
 10
504.31358572547441
 20
138.1394915612367
 30
0.0
 70
    32
  0
VERTEX
  5
8FD6
  8
AM_0
 10
504.30958572547428
 20
138.13749156123561
 30
0.0
 70
    32
  0
VERTEX
  5
8FD7
  8
AM_0
 10
504.30558572547432
 20
138.1354915612356
 30
0.0
 70
    32
  0
VERTEX
  5
8FD8
  8
AM_0
 10
504.30158572547441
 20
138.1334915612357
 30
0.0
 70
    32
  0
VERTEX
  5
8FD9
  8
AM_0
 10
504.29758572547428
 20
138.13149156123481
 30
0.0
 70
    32
  0
VERTEX
  5
8FDA
  8
AM_0
 10
504.29458572547429
 20
138.12949156123571
 30
0.0
 70
    32
  0
VERTEX
  5
8FDB
  8
AM_0
 10
504.29058572547427
 20
138.12749156123559
 30
0.0
 70
    32
  0
VERTEX
  5
8FDC
  8
AM_0
 10
504.28658572547448
 20
138.1254915612347
 30
0.0
 70
    32
  0
VERTEX
  5
8FDD
  8
AM_0
 10
504.28258572547441
 20
138.1234915612348
 30
0.0
 70
    32
  0
VERTEX
  5
8FDE
  8
AM_0
 10
504.27958572547442
 20
138.1214915612357
 30
0.0
 70
    32
  0
VERTEX
  5
8FDF
  8
AM_0
 10
504.27558572547429
 20
138.11949156123569
 30
0.0
 70
    32
  0
VERTEX
  5
8FE0
  8
AM_0
 10
504.27158572547432
 20
138.1174915612356
 30
0.0
 70
    32
  0
VERTEX
  5
8FE1
  8
AM_0
 10
504.26758572547408
 20
138.11549156123559
 30
0.0
 70
    32
  0
VERTEX
  5
8FE2
  8
AM_0
 10
504.26458572547432
 20
138.11349156123569
 30
0.0
 70
    32
  0
VERTEX
  5
8FE3
  8
AM_0
 10
504.26058572547407
 20
138.1114915612348
 30
0.0
 70
    32
  0
VERTEX
  5
8FE4
  8
AM_0
 10
504.25658572547428
 20
138.10949156123669
 30
0.0
 70
    32
  0
VERTEX
  5
8FE5
  8
AM_0
 10
504.25358572547441
 20
138.1074915612347
 30
0.0
 70
    32
  0
VERTEX
  5
8FE6
  8
AM_0
 10
504.24958572547422
 20
138.10449156123559
 30
0.0
 70
    32
  0
VERTEX
  5
8FE7
  8
AM_0
 10
504.24558572547431
 20
138.10249156123569
 30
0.0
 70
    32
  0
VERTEX
  5
8FE8
  8
AM_0
 10
504.24158572547441
 20
138.1004915612358
 30
0.0
 70
    32
  0
VERTEX
  5
8FE9
  8
AM_0
 10
504.23858572547431
 20
138.09849156123471
 30
0.0
 70
    32
  0
VERTEX
  5
8FEA
  8
AM_0
 10
504.23458572547429
 20
138.09649156123561
 30
0.0
 70
    32
  0
VERTEX
  5
8FEB
  8
AM_0
 10
504.2305857254745
 20
138.09449156123571
 30
0.0
 70
    32
  0
VERTEX
  5
8FEC
  8
AM_0
 10
504.22758572547428
 20
138.0924915612357
 30
0.0
 70
    32
  0
VERTEX
  5
8FED
  8
AM_0
 10
504.22358572547438
 20
138.09049156123669
 30
0.0
 70
    32
  0
VERTEX
  5
8FEE
  8
AM_0
 10
504.21958572547442
 20
138.08749156123471
 30
0.0
 70
    32
  0
VERTEX
  5
8FEF
  8
AM_0
 10
504.21658572547432
 20
138.0854915612347
 30
0.0
 70
    32
  0
VERTEX
  5
8FF0
  8
AM_0
 10
504.21258572547441
 20
138.08349156123569
 30
0.0
 70
    32
  0
VERTEX
  5
8FF1
  8
AM_0
 10
504.20858572547428
 20
138.08149156123571
 30
0.0
 70
    32
  0
VERTEX
  5
8FF2
  8
AM_0
 10
504.20558572547441
 20
138.0794915612347
 30
0.0
 70
    32
  0
VERTEX
  5
8FF3
  8
AM_0
 10
504.20158572547439
 20
138.0764915612356
 30
0.0
 70
    32
  0
VERTEX
  5
8FF4
  8
AM_0
 10
504.19758572547431
 20
138.07449156123479
 30
0.0
 70
    32
  0
VERTEX
  5
8FF5
  8
AM_0
 10
504.19458572547433
 20
138.07249156123569
 30
0.0
 70
    32
  0
VERTEX
  5
8FF6
  8
AM_0
 10
504.19058572547431
 20
138.07049156123779
 30
0.0
 70
    32
  0
VERTEX
  5
8FF7
  8
AM_0
 10
504.1865857254744
 20
138.06849156123471
 30
0.0
 70
    32
  0
VERTEX
  5
8FF8
  8
AM_0
 10
504.18358572547447
 20
138.06549156123569
 30
0.0
 70
    32
  0
VERTEX
  5
8FF9
  8
AM_0
 10
504.17958572547428
 20
138.06349156123659
 30
0.0
 70
    32
  0
VERTEX
  5
8FFA
  8
AM_0
 10
504.17558572547432
 20
138.0614915612349
 30
0.0
 70
    32
  0
VERTEX
  5
8FFB
  8
AM_0
 10
504.17258572547439
 20
138.0594915612356
 30
0.0
 70
    32
  0
VERTEX
  5
8FFC
  8
AM_0
 10
504.1685857254742
 20
138.05649156123559
 30
0.0
 70
    32
  0
VERTEX
  5
8FFD
  8
AM_0
 10
504.16558572547439
 20
138.05449156123569
 30
0.0
 70
    32
  0
VERTEX
  5
8FFE
  8
AM_0
 10
504.16158572547448
 20
138.0524915612348
 30
0.0
 70
    32
  0
VERTEX
  5
8FFF
  8
AM_0
 10
504.15758572547441
 20
138.05049156123559
 30
0.0
 70
    32
  0
VERTEX
  5
9000
  8
AM_0
 10
504.15458572547442
 20
138.04749156123469
 30
0.0
 70
    32
  0
VERTEX
  5
9001
  8
AM_0
 10
504.15058572547429
 20
138.04549156123571
 30
0.0
 70
    32
  0
VERTEX
  5
9002
  8
AM_0
 10
504.14758572547441
 20
138.0434915612357
 30
0.0
 70
    32
  0
VERTEX
  5
9003
  8
AM_0
 10
504.1435857254744
 20
138.0404915612356
 30
0.0
 70
    32
  0
VERTEX
  5
9004
  8
AM_0
 10
504.13958572547438
 20
138.03849156123559
 30
0.0
 70
    32
  0
VERTEX
  5
9005
  8
AM_0
 10
504.13658572547439
 20
138.03649156123481
 30
0.0
 70
    32
  0
VERTEX
  5
9006
  8
AM_0
 10
504.13258572547443
 20
138.0334915612348
 30
0.0
 70
    32
  0
VERTEX
  5
9007
  8
AM_0
 10
504.12958572547439
 20
138.03149156123561
 30
0.0
 70
    32
  0
VERTEX
  5
9008
  8
AM_0
 10
504.12558572547448
 20
138.02949156123469
 30
0.0
 70
    32
  0
VERTEX
  5
9009
  8
AM_0
 10
504.12258572547432
 20
138.0264915612357
 30
0.0
 70
    32
  0
VERTEX
  5
900A
  8
AM_0
 10
504.11858572547442
 20
138.02449156123569
 30
0.0
 70
    32
  0
VERTEX
  5
900B
  8
AM_0
 10
504.11558572547409
 20
138.02149156123559
 30
0.0
 70
    32
  0
VERTEX
  5
900C
  8
AM_0
 10
504.11158572547441
 20
138.01949156123561
 30
0.0
 70
    32
  0
VERTEX
  5
900D
  8
AM_0
 10
504.10758572547428
 20
138.01749156123569
 30
0.0
 70
    32
  0
VERTEX
  5
900E
  8
AM_0
 10
504.10458572547429
 20
138.01449156123479
 30
0.0
 70
    32
  0
VERTEX
  5
900F
  8
AM_0
 10
504.10058572547428
 20
138.01249156123561
 30
0.0
 70
    32
  0
VERTEX
  5
9010
  8
AM_0
 10
504.0975857254744
 20
138.00949156123559
 30
0.0
 70
    32
  0
VERTEX
  5
9011
  8
AM_0
 10
504.09358572547433
 20
138.00749156123479
 30
0.0
 70
    32
  0
VERTEX
  5
9012
  8
AM_0
 10
504.0905857254744
 20
138.0044915612348
 30
0.0
 70
    32
  0
VERTEX
  5
9013
  8
AM_0
 10
504.08658572547421
 20
138.00249156123471
 30
0.0
 70
    32
  0
VERTEX
  5
9014
  8
AM_0
 10
504.08358572547428
 20
138.00049156123561
 30
0.0
 70
    32
  0
VERTEX
  5
9015
  8
AM_0
 10
504.07958572547432
 20
137.9974915612348
 30
0.0
 70
    32
  0
VERTEX
  5
9016
  8
AM_0
 10
504.07658572547439
 20
137.99549156123479
 30
0.0
 70
    32
  0
VERTEX
  5
9017
  8
AM_0
 10
504.0725857254742
 20
137.9924915612356
 30
0.0
 70
    32
  0
VERTEX
  5
9018
  8
AM_0
 10
504.06958572547438
 20
137.99049156123559
 30
0.0
 70
    32
  0
VERTEX
  5
9019
  8
AM_0
 10
504.06658572547428
 20
137.9874915612348
 30
0.0
 70
    32
  0
VERTEX
  5
901A
  8
AM_0
 10
504.06258572547432
 20
137.9854915612348
 30
0.0
 70
    32
  0
VERTEX
  5
901B
  8
AM_0
 10
504.05958572547439
 20
137.98249156123561
 30
0.0
 70
    32
  0
VERTEX
  5
901C
  8
AM_0
 10
504.05558572547432
 20
137.98049156123469
 30
0.0
 70
    32
  0
VERTEX
  5
901D
  8
AM_0
 10
504.05258572547439
 20
137.9774915612347
 30
0.0
 70
    32
  0
VERTEX
  5
901E
  8
AM_0
 10
504.04858572547442
 20
137.9754915612358
 30
0.0
 70
    32
  0
VERTEX
  5
901F
  8
AM_0
 10
504.04558572547433
 20
137.97249156123561
 30
0.0
 70
    32
  0
VERTEX
  5
9020
  8
AM_0
 10
504.0425857254744
 20
137.9694915612348
 30
0.0
 70
    32
  0
VERTEX
  5
9021
  8
AM_0
 10
504.03858572547449
 20
137.9674915612357
 30
0.0
 70
    32
  0
VERTEX
  5
9022
  8
AM_0
 10
504.03558572547428
 20
137.9644915612358
 30
0.0
 70
    32
  0
VERTEX
  5
9023
  8
AM_0
 10
504.03158572547437
 20
137.96249156123471
 30
0.0
 70
    32
  0
VERTEX
  5
9024
  8
AM_0
 10
504.02858572547422
 20
137.95949156123481
 30
0.0
 70
    32
  0
VERTEX
  5
9025
  8
AM_0
 10
504.02558572547429
 20
137.95649156123571
 30
0.0
 70
    32
  0
VERTEX
  5
9026
  8
AM_0
 10
504.02158572547432
 20
137.95449156123561
 30
0.0
 70
    32
  0
VERTEX
  5
9027
  8
AM_0
 10
504.0185857254744
 20
137.9514915612356
 30
0.0
 70
    32
  0
VERTEX
  5
9028
  8
AM_0
 10
504.01458572547432
 20
137.94949156123479
 30
0.0
 70
    32
  0
VERTEX
  5
9029
  8
AM_0
 10
504.01158572547439
 20
137.94649156123569
 30
0.0
 70
    32
  0
VERTEX
  5
902A
  8
AM_0
 10
504.0085857254744
 20
137.94349156123559
 30
0.0
 70
    32
  0
VERTEX
  5
902B
  8
AM_0
 10
504.00458572547433
 20
137.9414915612347
 30
0.0
 70
    32
  0
VERTEX
  5
902C
  8
AM_0
 10
504.00158572547429
 20
137.93849156123571
 30
0.0
 70
    32
  0
VERTEX
  5
902D
  8
AM_0
 10
503.99858572547453
 20
137.9354915612347
 30
0.0
 70
    32
  0
VERTEX
  5
902E
  8
AM_0
 10
503.99458572547428
 20
137.9334915612356
 30
0.0
 70
    32
  0
VERTEX
  5
902F
  8
AM_0
 10
503.99158572547452
 20
137.9304915612357
 30
0.0
 70
    32
  0
VERTEX
  5
9030
  8
AM_0
 10
503.98858572547431
 20
137.9274915612358
 30
0.0
 70
    32
  0
VERTEX
  5
9031
  8
AM_0
 10
503.98558572547421
 20
137.92449156123561
 30
0.0
 70
    32
  0
VERTEX
  5
9032
  8
AM_0
 10
503.98158572547442
 20
137.92249156123469
 30
0.0
 70
    32
  0
VERTEX
  5
9033
  8
AM_0
 10
503.97858572547437
 20
137.9194915612357
 30
0.0
 70
    32
  0
VERTEX
  5
9034
  8
AM_0
 10
503.97558572547439
 20
137.9164915612358
 30
0.0
 70
    32
  0
VERTEX
  5
9035
  8
AM_0
 10
503.97158572547443
 20
137.91349156123559
 30
0.0
 70
    32
  0
VERTEX
  5
9036
  8
AM_0
 10
503.96858572547433
 20
137.91149156123569
 30
0.0
 70
    32
  0
VERTEX
  5
9037
  8
AM_0
 10
503.9655857254744
 20
137.90849156123571
 30
0.0
 70
    32
  0
VERTEX
  5
9038
  8
AM_0
 10
503.96258572547441
 20
137.90549156123561
 30
0.0
 70
    32
  0
VERTEX
  5
9039
  8
AM_0
 10
503.95858572547428
 20
137.90249156123471
 30
0.0
 70
    32
  0
VERTEX
  5
903A
  8
AM_0
 10
503.95558572547441
 20
137.9004915612357
 30
0.0
 70
    32
  0
VERTEX
  5
903B
  8
AM_0
 10
503.95258572547431
 20
137.8974915612358
 30
0.0
 70
    32
  0
VERTEX
  5
903C
  8
AM_0
 10
503.94958572547432
 20
137.89449156123561
 30
0.0
 70
    32
  0
VERTEX
  5
903D
  8
AM_0
 10
503.94658572547439
 20
137.89149156123571
 30
0.0
 70
    32
  0
VERTEX
  5
903E
  8
AM_0
 10
503.94258572547449
 20
137.88849156123669
 30
0.0
 70
    32
  0
VERTEX
  5
903F
  8
AM_0
 10
503.93958572547427
 20
137.8854915612356
 30
0.0
 70
    32
  0
VERTEX
  5
9040
  8
AM_0
 10
503.93658572547429
 20
137.88349156123559
 30
0.0
 70
    32
  0
VERTEX
  5
9041
  8
AM_0
 10
503.9335857254743
 20
137.8804915612366
 30
0.0
 70
    32
  0
VERTEX
  5
9042
  8
AM_0
 10
503.93058572547432
 20
137.87749156123459
 30
0.0
 70
    32
  0
VERTEX
  5
9043
  8
AM_0
 10
503.92758572547427
 20
137.8744915612356
 30
0.0
 70
    32
  0
VERTEX
  5
9044
  8
AM_0
 10
503.9245857254744
 20
137.87149156123479
 30
0.0
 70
    32
  0
VERTEX
  5
9045
  8
AM_0
 10
503.92058572547433
 20
137.86849156123671
 30
0.0
 70
    32
  0
VERTEX
  5
9046
  8
AM_0
 10
503.91758572547428
 20
137.86549156123559
 30
0.0
 70
    32
  0
VERTEX
  5
9047
  8
AM_0
 10
503.91458572547441
 20
137.86249156123569
 30
0.0
 70
    32
  0
VERTEX
  5
9048
  8
AM_0
 10
503.91158572547448
 20
137.85949156123581
 30
0.0
 70
    32
  0
VERTEX
  5
9049
  8
AM_0
 10
503.90858572547432
 20
137.8564915612356
 30
0.0
 70
    32
  0
VERTEX
  5
904A
  8
AM_0
 10
503.90558572547428
 20
137.85349156123681
 30
0.0
 70
    32
  0
VERTEX
  5
904B
  8
AM_0
 10
503.90258572547452
 20
137.8504915612348
 30
0.0
 70
    32
  0
VERTEX
  5
904C
  8
AM_0
 10
503.89958572547442
 20
137.84749156123561
 30
0.0
 70
    32
  0
VERTEX
  5
904D
  8
AM_0
 10
503.89658572547432
 20
137.8444915612348
 30
0.0
 70
    32
  0
VERTEX
  5
904E
  8
AM_0
 10
503.8935857254744
 20
137.84149156123669
 30
0.0
 70
    32
  0
VERTEX
  5
904F
  8
AM_0
 10
503.89058572547441
 20
137.8384915612356
 30
0.0
 70
    32
  0
VERTEX
  5
9050
  8
AM_0
 10
503.88758572547442
 20
137.8354915612357
 30
0.0
 70
    32
  0
VERTEX
  5
9051
  8
AM_0
 10
503.88458572547432
 20
137.8324915612348
 30
0.0
 70
    32
  0
VERTEX
  5
9052
  8
AM_0
 10
503.88158572547428
 20
137.82949156123561
 30
0.0
 70
    32
  0
VERTEX
  5
9053
  8
AM_0
 10
503.87858572547441
 20
137.82649156123469
 30
0.0
 70
    32
  0
VERTEX
  5
9054
  8
AM_0
 10
503.87558572547442
 20
137.82349156123479
 30
0.0
 70
    32
  0
VERTEX
  5
9055
  8
AM_0
 10
503.87258572547432
 20
137.82049156123489
 30
0.0
 70
    32
  0
VERTEX
  5
9056
  8
AM_0
 10
503.86958572547439
 20
137.8174915612347
 30
0.0
 70
    32
  0
VERTEX
  5
9057
  8
AM_0
 10
503.86658572547441
 20
137.81449156123571
 30
0.0
 70
    32
  0
VERTEX
  5
9058
  8
AM_0
 10
503.86358572547419
 20
137.8114915612357
 30
0.0
 70
    32
  0
VERTEX
  5
9059
  8
AM_0
 10
503.86058572547438
 20
137.8084915612356
 30
0.0
 70
    32
  0
VERTEX
  5
905A
  8
AM_0
 10
503.85758572547439
 20
137.80549156123479
 30
0.0
 70
    32
  0
VERTEX
  5
905B
  8
AM_0
 10
503.85458572547418
 20
137.8024915612358
 30
0.0
 70
    32
  0
VERTEX
  5
905C
  8
AM_0
 10
503.85158572547431
 20
137.79849156123561
 30
0.0
 70
    32
  0
VERTEX
  5
905D
  8
AM_0
 10
503.84858572547438
 20
137.79549156123571
 30
0.0
 70
    32
  0
VERTEX
  5
905E
  8
AM_0
 10
503.84558572547422
 20
137.79249156123581
 30
0.0
 70
    32
  0
VERTEX
  5
905F
  8
AM_0
 10
503.84358572547433
 20
137.78949156123559
 30
0.0
 70
    32
  0
VERTEX
  5
9060
  8
AM_0
 10
503.84058572547428
 20
137.78649156123481
 30
0.0
 70
    32
  0
VERTEX
  5
9061
  8
AM_0
 10
503.8375857254743
 20
137.78349156123571
 30
0.0
 70
    32
  0
VERTEX
  5
9062
  8
AM_0
 10
503.83458572547443
 20
137.7794915612356
 30
0.0
 70
    32
  0
VERTEX
  5
9063
  8
AM_0
 10
503.83158572547433
 20
137.7764915612357
 30
0.0
 70
    32
  0
VERTEX
  5
9064
  8
AM_0
 10
503.82858572547428
 20
137.77349156123569
 30
0.0
 70
    32
  0
VERTEX
  5
9065
  8
AM_0
 10
503.82658572547439
 20
137.77049156123559
 30
0.0
 70
    32
  0
VERTEX
  5
9066
  8
AM_0
 10
503.82358572547429
 20
137.7664915612348
 30
0.0
 70
    32
  0
VERTEX
  5
9067
  8
AM_0
 10
503.82058572547442
 20
137.7634915612349
 30
0.0
 70
    32
  0
VERTEX
  5
9068
  8
AM_0
 10
503.81758572547449
 20
137.7604915612356
 30
0.0
 70
    32
  0
VERTEX
  5
9069
  8
AM_0
 10
503.81558572547431
 20
137.7574915612357
 30
0.0
 70
    32
  0
VERTEX
  5
906A
  8
AM_0
 10
503.81258572547432
 20
137.7534915612367
 30
0.0
 70
    32
  0
VERTEX
  5
906B
  8
AM_0
 10
503.80958572547428
 20
137.75049156123561
 30
0.0
 70
    32
  0
VERTEX
  5
906C
  8
AM_0
 10
503.80758572547421
 20
137.74749156123571
 30
0.0
 70
    32
  0
VERTEX
  5
906D
  8
AM_0
 10
503.80458572547428
 20
137.7434915612358
 30
0.0
 70
    32
  0
VERTEX
  5
906E
  8
AM_0
 10
503.80158572547441
 20
137.74049156123559
 30
0.0
 70
    32
  0
VERTEX
  5
906F
  8
AM_0
 10
503.7995857254744
 20
137.7374915612348
 30
0.0
 70
    32
  0
VERTEX
  5
9070
  8
AM_0
 10
503.7965857254743
 20
137.73349156123561
 30
0.0
 70
    32
  0
VERTEX
  5
9071
  8
AM_0
 10
503.79358572547432
 20
137.73049156123469
 30
0.0
 70
    32
  0
VERTEX
  5
9072
  8
AM_0
 10
503.79158572547442
 20
137.72749156123569
 30
0.0
 70
    32
  0
VERTEX
  5
9073
  8
AM_0
 10
503.78858572547432
 20
137.72349156123559
 30
0.0
 70
    32
  0
VERTEX
  5
9074
  8
AM_0
 10
503.78658572547442
 20
137.7204915612356
 30
0.0
 70
    32
  0
VERTEX
  5
9075
  8
AM_0
 10
503.78358572547432
 20
137.7164915612357
 30
0.0
 70
    32
  0
VERTEX
  5
9076
  8
AM_0
 10
503.78058572547451
 20
137.7134915612356
 30
0.0
 70
    32
  0
VERTEX
  5
9077
  8
AM_0
 10
503.77858572547427
 20
137.71049156123561
 30
0.0
 70
    32
  0
VERTEX
  5
9078
  8
AM_0
 10
503.77558572547429
 20
137.70649156123571
 30
0.0
 70
    32
  0
VERTEX
  5
9079
  8
AM_0
 10
503.77358572547439
 20
137.7034915612347
 30
0.0
 70
    32
  0
VERTEX
  5
907A
  8
AM_0
 10
503.7705857254744
 20
137.69949156123479
 30
0.0
 70
    32
  0
VERTEX
  5
907B
  8
AM_0
 10
503.7685857254744
 20
137.69649156123671
 30
0.0
 70
    32
  0
VERTEX
  5
907C
  8
AM_0
 10
503.76558572547418
 20
137.69249156123561
 30
0.0
 70
    32
  0
VERTEX
  5
907D
  8
AM_0
 10
503.7635857254744
 20
137.68949156123571
 30
0.0
 70
    32
  0
VERTEX
  5
907E
  8
AM_0
 10
503.76158572547439
 20
137.6854915612347
 30
0.0
 70
    32
  0
VERTEX
  5
907F
  8
AM_0
 10
503.75858572547429
 20
137.68249156123559
 30
0.0
 70
    32
  0
VERTEX
  5
9080
  8
AM_0
 10
503.75658572547428
 20
137.67849156123569
 30
0.0
 70
    32
  0
VERTEX
  5
9081
  8
AM_0
 10
503.75358572547441
 20
137.67549156123559
 30
0.0
 70
    32
  0
VERTEX
  5
9082
  8
AM_0
 10
503.7515857254744
 20
137.67149156123571
 30
0.0
 70
    32
  0
VERTEX
  5
9083
  8
AM_0
 10
503.74958572547428
 20
137.6674915612349
 30
0.0
 70
    32
  0
VERTEX
  5
9084
  8
AM_0
 10
503.74658572547429
 20
137.66449156123559
 30
0.0
 70
    32
  0
VERTEX
  5
9085
  8
AM_0
 10
503.74458572547439
 20
137.66049156123569
 30
0.0
 70
    32
  0
VERTEX
  5
9086
  8
AM_0
 10
503.74258572547438
 20
137.65749156123579
 30
0.0
 70
    32
  0
VERTEX
  5
9087
  8
AM_0
 10
503.7395857254744
 20
137.6534915612356
 30
0.0
 70
    32
  0
VERTEX
  5
9088
  8
AM_0
 10
503.73758572547428
 20
137.64949156123569
 30
0.0
 70
    32
  0
VERTEX
  5
9089
  8
AM_0
 10
503.73558572547438
 20
137.64649156123559
 30
0.0
 70
    32
  0
VERTEX
  5
908A
  8
AM_0
 10
503.73358572547443
 20
137.64249156123569
 30
0.0
 70
    32
  0
VERTEX
  5
908B
  8
AM_0
 10
503.7305857254745
 20
137.6384915612357
 30
0.0
 70
    32
  0
VERTEX
  5
908C
  8
AM_0
 10
503.72858572547449
 20
137.6354915612356
 30
0.0
 70
    32
  0
VERTEX
  5
908D
  8
AM_0
 10
503.72658572547442
 20
137.63149156123481
 30
0.0
 70
    32
  0
VERTEX
  5
908E
  8
AM_0
 10
503.72458572547441
 20
137.62749156123471
 30
0.0
 70
    32
  0
VERTEX
  5
908F
  8
AM_0
 10
503.7225857254744
 20
137.6244915612356
 30
0.0
 70
    32
  0
VERTEX
  5
9090
  8
AM_0
 10
503.72058572547422
 20
137.6204915612357
 30
0.0
 70
    32
  0
VERTEX
  5
9091
  8
AM_0
 10
503.71858572547433
 20
137.61649156123559
 30
0.0
 70
    32
  0
VERTEX
  5
9092
  8
AM_0
 10
503.71558572547428
 20
137.61349156123569
 30
0.0
 70
    32
  0
VERTEX
  5
9093
  8
AM_0
 10
503.71358572547439
 20
137.60949156123479
 30
0.0
 70
    32
  0
VERTEX
  5
9094
  8
AM_0
 10
503.71158572547421
 20
137.6054915612356
 30
0.0
 70
    32
  0
VERTEX
  5
9095
  8
AM_0
 10
503.70958572547431
 20
137.60149156123481
 30
0.0
 70
    32
  0
VERTEX
  5
9096
  8
AM_0
 10
503.7075857254743
 20
137.59849156123559
 30
0.0
 70
    32
  0
VERTEX
  5
9097
  8
AM_0
 10
503.70558572547441
 20
137.59449156123469
 30
0.0
 70
    32
  0
VERTEX
  5
9098
  8
AM_0
 10
503.7035857254744
 20
137.5904915612349
 30
0.0
 70
    32
  0
VERTEX
  5
9099
  8
AM_0
 10
503.70158572547427
 20
137.58649156123559
 30
0.0
 70
    32
  0
VERTEX
  5
909A
  8
AM_0
 10
503.69958572547432
 20
137.5824915612348
 30
0.0
 70
    32
  0
VERTEX
  5
909B
  8
AM_0
 10
503.69858572547429
 20
137.57949156123561
 30
0.0
 70
    32
  0
VERTEX
  5
909C
  8
AM_0
 10
503.69658572547428
 20
137.57549156123571
 30
0.0
 70
    32
  0
VERTEX
  5
909D
  8
AM_0
 10
503.69458572547433
 20
137.5714915612358
 30
0.0
 70
    32
  0
VERTEX
  5
909E
  8
AM_0
 10
503.69258572547432
 20
137.5674915612347
 30
0.0
 70
    32
  0
VERTEX
  5
909F
  8
AM_0
 10
503.69058572547431
 20
137.56349156123571
 30
0.0
 70
    32
  0
VERTEX
  5
90A0
  8
AM_0
 10
503.6885857254743
 20
137.5594915612356
 30
0.0
 70
    32
  0
VERTEX
  5
90A1
  8
AM_0
 10
503.68758572547421
 20
137.55549156123479
 30
0.0
 70
    32
  0
VERTEX
  5
90A2
  8
AM_0
 10
503.68558572547431
 20
137.55249156123571
 30
0.0
 70
    32
  0
VERTEX
  5
90A3
  8
AM_0
 10
503.68358572547442
 20
137.54849156123561
 30
0.0
 70
    32
  0
VERTEX
  5
90A4
  8
AM_0
 10
503.68158572547441
 20
137.5444915612357
 30
0.0
 70
    32
  0
VERTEX
  5
90A5
  8
AM_0
 10
503.68058572547409
 20
137.54049156123469
 30
0.0
 70
    32
  0
VERTEX
  5
90A6
  8
AM_0
 10
503.67858572547419
 20
137.53649156123569
 30
0.0
 70
    32
  0
VERTEX
  5
90A7
  8
AM_0
 10
503.67658572547441
 20
137.53249156123579
 30
0.0
 70
    32
  0
VERTEX
  5
90A8
  8
AM_0
 10
503.67558572547432
 20
137.52849156123469
 30
0.0
 70
    32
  0
VERTEX
  5
90A9
  8
AM_0
 10
503.67358572547431
 20
137.52449156123569
 30
0.0
 70
    32
  0
VERTEX
  5
90AA
  8
AM_0
 10
503.67158572547407
 20
137.52049156123559
 30
0.0
 70
    32
  0
VERTEX
  5
90AB
  8
AM_0
 10
503.67058572547433
 20
137.51649156123571
 30
0.0
 70
    32
  0
VERTEX
  5
90AC
  8
AM_0
 10
503.66858572547432
 20
137.51249156123561
 30
0.0
 70
    32
  0
VERTEX
  5
90AD
  8
AM_0
 10
503.6675857254744
 20
137.5084915612357
 30
0.0
 70
    32
  0
VERTEX
  5
90AE
  8
AM_0
 10
503.66558572547439
 20
137.50449156123659
 30
0.0
 70
    32
  0
VERTEX
  5
90AF
  8
AM_0
 10
503.66458572547441
 20
137.5004915612347
 30
0.0
 70
    32
  0
VERTEX
  5
90B0
  8
AM_0
 10
503.66258572547412
 20
137.49649156123479
 30
0.0
 70
    32
  0
VERTEX
  5
90B1
  8
AM_0
 10
503.66158572547442
 20
137.4924915612356
 30
0.0
 70
    32
  0
VERTEX
  5
90B2
  8
AM_0
 10
503.66058572547428
 20
137.48849156123569
 30
0.0
 70
    32
  0
VERTEX
  5
90B3
  8
AM_0
 10
503.65858572547438
 20
137.48449156123581
 30
0.0
 70
    32
  0
VERTEX
  5
90B4
  8
AM_0
 10
503.65758572547441
 20
137.4804915612356
 30
0.0
 70
    32
  0
VERTEX
  5
90B5
  8
AM_0
 10
503.65658572547437
 20
137.47649156123569
 30
0.0
 70
    32
  0
VERTEX
  5
90B6
  8
AM_0
 10
503.65458572547442
 20
137.47249156123561
 30
0.0
 70
    32
  0
VERTEX
  5
90B7
  8
AM_0
 10
503.65358572547422
 20
137.46849156123571
 30
0.0
 70
    32
  0
VERTEX
  5
90B8
  8
AM_0
 10
503.65258572547441
 20
137.46449156123469
 30
0.0
 70
    32
  0
VERTEX
  5
90B9
  8
AM_0
 10
503.65158572547432
 20
137.4594915612368
 30
0.0
 70
    32
  0
VERTEX
  5
90BA
  8
AM_0
 10
503.65058572547429
 20
137.45549156123579
 30
0.0
 70
    32
  0
VERTEX
  5
90BB
  8
AM_0
 10
503.64858572547439
 20
137.4514915612356
 30
0.0
 70
    32
  0
VERTEX
  5
90BC
  8
AM_0
 10
503.6475857254743
 20
137.44749156123481
 30
0.0
 70
    32
  0
VERTEX
  5
90BD
  8
AM_0
 10
503.64658572547438
 20
137.44349156123559
 30
0.0
 70
    32
  0
VERTEX
  5
90BE
  8
AM_0
 10
503.6455857254744
 20
137.43949156123571
 30
0.0
 70
    32
  0
VERTEX
  5
90BF
  8
AM_0
 10
503.64458572547409
 20
137.43549156123561
 30
0.0
 70
    32
  0
VERTEX
  5
90C0
  8
AM_0
 10
503.6435857254744
 20
137.43149156123471
 30
0.0
 70
    32
  0
VERTEX
  5
90C1
  8
AM_0
 10
503.64258572547431
 20
137.42649156123491
 30
0.0
 70
    32
  0
VERTEX
  5
90C2
  8
AM_0
 10
503.64158572547427
 20
137.4224915612356
 30
0.0
 70
    32
  0
VERTEX
  5
90C3
  8
AM_0
 10
503.64058572547418
 20
137.41849156123479
 30
0.0
 70
    32
  0
VERTEX
  5
90C4
  8
AM_0
 10
503.63958572547438
 20
137.41449156123559
 30
0.0
 70
    32
  0
VERTEX
  5
90C5
  8
AM_0
 10
503.63858572547429
 20
137.41049156123481
 30
0.0
 70
    32
  0
VERTEX
  5
90C6
  8
AM_0
 10
503.63758572547442
 20
137.40649156123561
 30
0.0
 70
    32
  0
VERTEX
  5
90C7
  8
AM_0
 10
503.63758572547442
 20
137.4014915612357
 30
0.0
 70
    32
  0
VERTEX
  5
90C8
  8
AM_0
 10
503.63658572547439
 20
137.39749156123671
 30
0.0
 70
    32
  0
VERTEX
  5
90C9
  8
AM_0
 10
503.63558572547419
 20
137.39349156123569
 30
0.0
 70
    32
  0
VERTEX
  5
90CA
  8
AM_0
 10
503.63458572547449
 20
137.3894915612357
 30
0.0
 70
    32
  0
VERTEX
  5
90CB
  8
AM_0
 10
503.63358572547418
 20
137.3854915612356
 30
0.0
 70
    32
  0
VERTEX
  5
90CC
  8
AM_0
 10
503.63358572547418
 20
137.38049156123481
 30
0.0
 70
    32
  0
VERTEX
  5
90CD
  8
AM_0
 10
503.63258572547443
 20
137.37649156123561
 30
0.0
 70
    32
  0
VERTEX
  5
90CE
  8
AM_0
 10
503.63158572547428
 20
137.3724915612348
 30
0.0
 70
    32
  0
VERTEX
  5
90CF
  8
AM_0
 10
503.63158572547428
 20
137.36849156123461
 30
0.0
 70
    32
  0
VERTEX
  5
90D0
  8
AM_0
 10
503.63058572547442
 20
137.36349156123569
 30
0.0
 70
    32
  0
VERTEX
  5
90D1
  8
AM_0
 10
503.62958572547433
 20
137.35949156123669
 30
0.0
 70
    32
  0
VERTEX
  5
90D2
  8
AM_0
 10
503.62958572547433
 20
137.35549156123469
 30
0.0
 70
    32
  0
VERTEX
  5
90D3
  8
AM_0
 10
503.6285857254743
 20
137.3514915612366
 30
0.0
 70
    32
  0
VERTEX
  5
90D4
  8
AM_0
 10
503.6285857254743
 20
137.3464915612347
 30
0.0
 70
    32
  0
VERTEX
  5
90D5
  8
AM_0
 10
503.62758572547432
 20
137.34249156123479
 30
0.0
 70
    32
  0
VERTEX
  5
90D6
  8
AM_0
 10
503.62758572547432
 20
137.3384915612356
 30
0.0
 70
    32
  0
VERTEX
  5
90D7
  8
AM_0
 10
503.6265857254744
 20
137.33449156123481
 30
0.0
 70
    32
  0
VERTEX
  5
90D8
  8
AM_0
 10
503.6265857254744
 20
137.32949156123561
 30
0.0
 70
    32
  0
VERTEX
  5
90D9
  8
AM_0
 10
503.6265857254744
 20
137.32549156123571
 30
0.0
 70
    32
  0
VERTEX
  5
90DA
  8
AM_0
 10
503.62558572547448
 20
137.32149156123671
 30
0.0
 70
    32
  0
VERTEX
  5
90DB
  8
AM_0
 10
503.62558572547448
 20
137.31749156123561
 30
0.0
 70
    32
  0
VERTEX
  5
90DC
  8
AM_0
 10
503.62558572547448
 20
137.3124915612357
 30
0.0
 70
    32
  0
VERTEX
  5
90DD
  8
AM_0
 10
503.62558572547448
 20
137.3084915612356
 30
0.0
 70
    32
  0
VERTEX
  5
90DE
  8
AM_0
 10
503.62458572547411
 20
137.30449156123481
 30
0.0
 70
    32
  0
VERTEX
  5
90DF
  8
AM_0
 10
503.62458572547411
 20
137.30049156123559
 30
0.0
 70
    32
  0
VERTEX
  5
90E0
  8
AM_0
 10
503.62458572547411
 20
137.29549156123571
 30
0.0
 70
    32
  0
VERTEX
  5
90E1
  8
AM_0
 10
503.62458572547411
 20
137.29149156123469
 30
0.0
 70
    32
  0
VERTEX
  5
90E2
  8
AM_0
 10
503.62458572547411
 20
137.28749156123561
 30
0.0
 70
    32
  0
VERTEX
  5
90E3
  8
AM_0
 10
503.62458572547411
 20
137.2824915612378
 30
0.0
 70
    32
  0
VERTEX
  5
90E4
  8
AM_0
 10
503.62458572547411
 20
137.2784915612356
 30
0.0
 70
    32
  0
VERTEX
  5
90E5
  8
AM_0
 10
503.62458572547411
 20
137.27449156123569
 30
0.0
 70
    32
  0
VERTEX
  5
90E6
  8
AM_0
 10
503.62458572547411
 20
137.27049156123559
 30
0.0
 70
    32
  0
VERTEX
  5
90E7
  8
AM_0
 10
503.62458572547411
 20
137.26549156123571
 30
0.0
 70
    32
  0
VERTEX
  5
90E8
  8
AM_0
 10
503.62558572547448
 20
137.26149156123469
 30
0.0
 70
    32
  0
VERTEX
  5
90E9
  8
AM_0
 10
503.62558572547448
 20
137.2574915612357
 30
0.0
 70
    32
  0
VERTEX
  5
90EA
  8
AM_0
 10
503.62558572547448
 20
137.25349156123491
 30
0.0
 70
    32
  0
VERTEX
  5
90EB
  8
AM_0
 10
503.62558572547448
 20
137.24849156123571
 30
0.0
 70
    32
  0
VERTEX
  5
90EC
  8
AM_0
 10
503.6265857254744
 20
137.24449156123569
 30
0.0
 70
    32
  0
VERTEX
  5
90ED
  8
AM_0
 10
503.6265857254744
 20
137.24049156123559
 30
0.0
 70
    32
  0
VERTEX
  5
90EE
  8
AM_0
 10
503.6265857254744
 20
137.23649156123571
 30
0.0
 70
    32
  0
VERTEX
  5
90EF
  8
AM_0
 10
503.62758572547432
 20
137.2314915612356
 30
0.0
 70
    32
  0
VERTEX
  5
90F0
  8
AM_0
 10
503.62758572547432
 20
137.22749156123481
 30
0.0
 70
    32
  0
VERTEX
  5
90F1
  8
AM_0
 10
503.62758572547432
 20
137.22349156123471
 30
0.0
 70
    32
  0
VERTEX
  5
90F2
  8
AM_0
 10
503.6285857254743
 20
137.2194915612348
 30
0.0
 70
    32
  0
VERTEX
  5
90F3
  8
AM_0
 10
503.6285857254743
 20
137.21449156123469
 30
0.0
 70
    32
  0
VERTEX
  5
90F4
  8
AM_0
 10
503.62958572547433
 20
137.2104915612347
 30
0.0
 70
    32
  0
VERTEX
  5
90F5
  8
AM_0
 10
503.62958572547433
 20
137.20649156123571
 30
0.0
 70
    32
  0
VERTEX
  5
90F6
  8
AM_0
 10
503.63058572547442
 20
137.2024915612356
 30
0.0
 70
    32
  0
VERTEX
  5
90F7
  8
AM_0
 10
503.63058572547442
 20
137.19749156123481
 30
0.0
 70
    32
  0
VERTEX
  5
90F8
  8
AM_0
 10
503.63158572547428
 20
137.19349156123559
 30
0.0
 70
    32
  0
VERTEX
  5
90F9
  8
AM_0
 10
503.63158572547428
 20
137.1894915612348
 30
0.0
 70
    32
  0
VERTEX
  5
90FA
  8
AM_0
 10
503.63258572547443
 20
137.18549156123561
 30
0.0
 70
    32
  0
VERTEX
  5
90FB
  8
AM_0
 10
503.63258572547443
 20
137.18049156123479
 30
0.0
 70
    32
  0
VERTEX
  5
90FC
  8
AM_0
 10
503.63358572547418
 20
137.17649156123579
 30
0.0
 70
    32
  0
VERTEX
  5
90FD
  8
AM_0
 10
503.63358572547418
 20
137.1724915612356
 30
0.0
 70
    32
  0
VERTEX
  5
90FE
  8
AM_0
 10
503.63458572547449
 20
137.1684915612357
 30
0.0
 70
    32
  0
SEQEND
  5
90FF
  8
AM_0
  0
LINE
  5
9100
  8
AM_0
 10
515.12466079054855
 20
138.52822827720871
 30
0.0
 11
506.12463279054418
 21
138.52822827721079
 31
0.0
  0
POLYLINE
  5
9101
  8
AM_0
 66
     1
 10
0.0
 20
0.0
 30
0.0
 70
     8
  0
VERTEX
  5
9102
  8
AM_0
 10
503.63458572547449
 20
92.407891561235715
 30
0.0
 70
    32
  0
VERTEX
  5
9103
  8
AM_0
 10
503.63558572547419
 20
92.403691561235632
 30
0.0
 70
    32
  0
VERTEX
  5
9104
  8
AM_0
 10
503.63658572547439
 20
92.399391561234907
 30
0.0
 70
    32
  0
VERTEX
  5
9105
  8
AM_0
 10
503.63758572547442
 20
92.39519156123572
 30
0.0
 70
    32
  0
VERTEX
  5
9106
  8
AM_0
 10
503.63858572547429
 20
92.390891561235691
 30
0.0
 70
    32
  0
VERTEX
  5
9107
  8
AM_0
 10
503.63958572547438
 20
92.386691561235793
 30
0.0
 70
    32
  0
VERTEX
  5
9108
  8
AM_0
 10
503.64058572547418
 20
92.382391561235707
 30
0.0
 70
    32
  0
VERTEX
  5
9109
  8
AM_0
 10
503.64158572547427
 20
92.378191561235653
 30
0.0
 70
    32
  0
VERTEX
  5
910A
  8
AM_0
 10
503.64258572547431
 20
92.373991561237844
 30
0.0
 70
    32
  0
VERTEX
  5
910B
  8
AM_0
 10
503.6435857254744
 20
92.369691561234845
 30
0.0
 70
    32
  0
VERTEX
  5
910C
  8
AM_0
 10
503.64458572547409
 20
92.365491561235714
 30
0.0
 70
    32
  0
VERTEX
  5
910D
  8
AM_0
 10
503.6455857254744
 20
92.361291561236726
 30
0.0
 70
    32
  0
VERTEX
  5
910E
  8
AM_0
 10
503.64658572547438
 20
92.356991561235773
 30
0.0
 70
    32
  0
VERTEX
  5
910F
  8
AM_0
 10
503.6475857254743
 20
92.352791561234767
 30
0.0
 70
    32
  0
VERTEX
  5
9110
  8
AM_0
 10
503.64858572547439
 20
92.348591561235793
 30
0.0
 70
    32
  0
VERTEX
  5
9111
  8
AM_0
 10
503.64958572547442
 20
92.34439156123571
 30
0.0
 70
    32
  0
VERTEX
  5
9112
  8
AM_0
 10
503.65058572547429
 20
92.340191561234747
 30
0.0
 70
    32
  0
VERTEX
  5
9113
  8
AM_0
 10
503.65258572547441
 20
92.335991561235787
 30
0.0
 70
    32
  0
VERTEX
  5
9114
  8
AM_0
 10
503.65358572547422
 20
92.331791561235718
 30
0.0
 70
    32
  0
VERTEX
  5
9115
  8
AM_0
 10
503.65458572547442
 20
92.327691561235596
 30
0.0
 70
    32
  0
VERTEX
  5
9116
  8
AM_0
 10
503.6555857254744
 20
92.323491561234832
 30
0.0
 70
    32
  0
VERTEX
  5
9117
  8
AM_0
 10
503.65658572547437
 20
92.319291561235701
 30
0.0
 70
    32
  0
VERTEX
  5
9118
  8
AM_0
 10
503.65858572547438
 20
92.315191561235807
 30
0.0
 70
    32
  0
VERTEX
  5
9119
  8
AM_0
 10
503.65958572547419
 20
92.31099156123571
 30
0.0
 70
    32
  0
VERTEX
  5
911A
  8
AM_0
 10
503.66058572547428
 20
92.306891561234664
 30
0.0
 70
    32
  0
VERTEX
  5
911B
  8
AM_0
 10
503.66258572547412
 20
92.302791561235694
 30
0.0
 70
    32
  0
VERTEX
  5
911C
  8
AM_0
 10
503.66358572547438
 20
92.298691561235614
 30
0.0
 70
    32
  0
VERTEX
  5
911D
  8
AM_0
 10
503.66458572547441
 20
92.294491561235773
 30
0.0
 70
    32
  0
VERTEX
  5
911E
  8
AM_0
 10
503.66658572547442
 20
92.290491561235612
 30
0.0
 70
    32
  0
VERTEX
  5
911F
  8
AM_0
 10
503.6675857254744
 20
92.286391561235732
 30
0.0
 70
    32
  0
VERTEX
  5
9120
  8
AM_0
 10
503.66958572547418
 20
92.282291561234729
 30
0.0
 70
    32
  0
VERTEX
  5
9121
  8
AM_0
 10
503.67058572547433
 20
92.278191561235786
 30
0.0
 70
    32
  0
VERTEX
  5
9122
  8
AM_0
 10
503.67258572547439
 20
92.274191561235625
 30
0.0
 70
    32
  0
VERTEX
  5
9123
  8
AM_0
 10
503.67358572547431
 20
92.270091561234835
 30
0.0
 70
    32
  0
VERTEX
  5
9124
  8
AM_0
 10
503.67558572547432
 20
92.266091561235598
 30
0.0
 70
    32
  0
VERTEX
  5
9125
  8
AM_0
 10
503.67758572547439
 20
92.262091561235692
 30
0.0
 70
    32
  0
VERTEX
  5
9126
  8
AM_0
 10
503.67858572547419
 20
92.258091561235787
 30
0.0
 70
    32
  0
VERTEX
  5
9127
  8
AM_0
 10
503.68058572547409
 20
92.254091561234745
 30
0.0
 70
    32
  0
VERTEX
  5
9128
  8
AM_0
 10
503.68258572547433
 20
92.250091561235777
 30
0.0
 70
    32
  0
VERTEX
  5
9129
  8
AM_0
 10
503.68458572547439
 20
92.246091561235644
 30
0.0
 70
    32
  0
VERTEX
  5
912A
  8
AM_0
 10
503.68558572547431
 20
92.2421915612357
 30
0.0
 70
    32
  0
VERTEX
  5
912B
  8
AM_0
 10
503.68758572547421
 20
92.238191561234885
 30
0.0
 70
    32
  0
VERTEX
  5
912C
  8
AM_0
 10
503.68958572547427
 20
92.234291561234727
 30
0.0
 70
    32
  0
VERTEX
  5
912D
  8
AM_0
 10
503.69158572547428
 20
92.230291561235717
 30
0.0
 70
    32
  0
VERTEX
  5
912E
  8
AM_0
 10
503.69358572547452
 20
92.226391561236724
 30
0.0
 70
    32
  0
VERTEX
  5
912F
  8
AM_0
 10
503.69558572547442
 20
92.222491561235657
 30
0.0
 70
    32
  0
VERTEX
  5
9130
  8
AM_0
 10
503.69758572547431
 20
92.218591561234803
 30
0.0
 70
    32
  0
VERTEX
  5
9131
  8
AM_0
 10
503.69958572547432
 20
92.214691561235796
 30
0.0
 70
    32
  0
VERTEX
  5
9132
  8
AM_0
 10
503.70158572547427
 20
92.210791561234714
 30
0.0
 70
    32
  0
VERTEX
  5
9133
  8
AM_0
 10
503.7035857254744
 20
92.206891561234784
 30
0.0
 70
    32
  0
VERTEX
  5
9134
  8
AM_0
 10
503.70558572547441
 20
92.2030915612348
 30
0.0
 70
    32
  0
VERTEX
  5
9135
  8
AM_0
 10
503.7075857254743
 20
92.199191561235779
 30
0.0
 70
    32
  0
VERTEX
  5
9136
  8
AM_0
 10
503.70958572547431
 20
92.195391561235624
 30
0.0
 70
    32
  0
VERTEX
  5
9137
  8
AM_0
 10
503.71158572547421
 20
92.191591561234759
 30
0.0
 70
    32
  0
VERTEX
  5
9138
  8
AM_0
 10
503.71358572547439
 20
92.187691561235695
 30
0.0
 70
    32
  0
VERTEX
  5
9139
  8
AM_0
 10
503.71558572547428
 20
92.183891561235797
 30
0.0
 70
    32
  0
VERTEX
  5
913A
  8
AM_0
 10
503.71758572547441
 20
92.180091561235812
 30
0.0
 70
    32
  0
VERTEX
  5
913B
  8
AM_0
 10
503.71958572547447
 20
92.176391561235619
 30
0.0
 70
    32
  0
VERTEX
  5
913C
  8
AM_0
 10
503.72158572547448
 20
92.172591561235649
 30
0.0
 70
    32
  0
VERTEX
  5
913D
  8
AM_0
 10
503.72458572547441
 20
92.168791561235693
 30
0.0
 70
    32
  0
VERTEX
  5
913E
  8
AM_0
 10
503.72658572547442
 20
92.165091561234803
 30
0.0
 70
    32
  0
VERTEX
  5
913F
  8
AM_0
 10
503.72858572547449
 20
92.161291561234862
 30
0.0
 70
    32
  0
VERTEX
  5
9140
  8
AM_0
 10
503.7305857254745
 20
92.157591561235805
 30
0.0
 70
    32
  0
VERTEX
  5
9141
  8
AM_0
 10
503.73358572547443
 20
92.153891561235795
 30
0.0
 70
    32
  0
VERTEX
  5
9142
  8
AM_0
 10
503.73558572547438
 20
92.150091561235627
 30
0.0
 70
    32
  0
VERTEX
  5
9143
  8
AM_0
 10
503.73758572547428
 20
92.146391561235632
 30
0.0
 70
    32
  0
VERTEX
  5
9144
  8
AM_0
 10
503.7395857254744
 20
92.142791561235654
 30
0.0
 70
    32
  0
VERTEX
  5
9145
  8
AM_0
 10
503.74258572547438
 20
92.139091561235659
 30
0.0
 70
    32
  0
VERTEX
  5
9146
  8
AM_0
 10
503.74458572547439
 20
92.135391561234755
 30
0.0
 70
    32
  0
VERTEX
  5
9147
  8
AM_0
 10
503.74658572547429
 20
92.131791561235715
 30
0.0
 70
    32
  0
VERTEX
  5
9148
  8
AM_0
 10
503.74958572547428
 20
92.128091561235692
 30
0.0
 70
    32
  0
VERTEX
  5
9149
  8
AM_0
 10
503.7515857254744
 20
92.1244915612357
 30
0.0
 70
    32
  0
VERTEX
  5
914A
  8
AM_0
 10
503.75458572547439
 20
92.120791561234796
 30
0.0
 70
    32
  0
VERTEX
  5
914B
  8
AM_0
 10
503.75658572547428
 20
92.117191561234804
 30
0.0
 70
    32
  0
VERTEX
  5
914C
  8
AM_0
 10
503.75858572547429
 20
92.113591561235694
 30
0.0
 70
    32
  0
VERTEX
  5
914D
  8
AM_0
 10
503.76158572547439
 20
92.109991561234764
 30
0.0
 70
    32
  0
VERTEX
  5
914E
  8
AM_0
 10
503.7635857254744
 20
92.106491561235629
 30
0.0
 70
    32
  0
VERTEX
  5
914F
  8
AM_0
 10
503.76658572547427
 20
92.102891561235623
 30
0.0
 70
    32
  0
VERTEX
  5
9150
  8
AM_0
 10
503.7685857254744
 20
92.099291561235617
 30
0.0
 70
    32
  0
VERTEX
  5
9151
  8
AM_0
 10
503.77158572547438
 20
92.0957915612356
 30
0.0
 70
    32
  0
VERTEX
  5
9152
  8
AM_0
 10
503.77358572547439
 20
92.092291561235825
 30
0.0
 70
    32
  0
VERTEX
  5
9153
  8
AM_0
 10
503.77658572547432
 20
92.088791561235766
 30
0.0
 70
    32
  0
VERTEX
  5
9154
  8
AM_0
 10
503.77958572547442
 20
92.085191561236684
 30
0.0
 70
    32
  0
VERTEX
  5
9155
  8
AM_0
 10
503.78158572547432
 20
92.081791561235718
 30
0.0
 70
    32
  0
VERTEX
  5
9156
  8
AM_0
 10
503.7845857254743
 20
92.078291561234764
 30
0.0
 70
    32
  0
VERTEX
  5
9157
  8
AM_0
 10
503.78658572547442
 20
92.074791561235642
 30
0.0
 70
    32
  0
VERTEX
  5
9158
  8
AM_0
 10
503.78958572547452
 20
92.071291561234716
 30
0.0
 70
    32
  0
VERTEX
  5
9159
  8
AM_0
 10
503.7925857254744
 20
92.067891561235797
 30
0.0
 70
    32
  0
VERTEX
  5
915A
  8
AM_0
 10
503.79458572547429
 20
92.064391561234856
 30
0.0
 70
    32
  0
VERTEX
  5
915B
  8
AM_0
 10
503.79758572547428
 20
92.0609915612348
 30
0.0
 70
    32
  0
VERTEX
  5
915C
  8
AM_0
 10
503.80058572547432
 20
92.05759156123564
 30
0.0
 70
    32
  0
VERTEX
  5
915D
  8
AM_0
 10
503.80258572547427
 20
92.054191561235797
 30
0.0
 70
    32
  0
VERTEX
  5
915E
  8
AM_0
 10
503.80558572547432
 20
92.050791561235783
 30
0.0
 70
    32
  0
VERTEX
  5
915F
  8
AM_0
 10
503.80858572547447
 20
92.047391561235699
 30
0.0
 70
    32
  0
VERTEX
  5
9160
  8
AM_0
 10
503.81158572547429
 20
92.044091561235632
 30
0.0
 70
    32
  0
VERTEX
  5
9161
  8
AM_0
 10
503.8135857254743
 20
92.040691561234866
 30
0.0
 70
    32
  0
VERTEX
  5
9162
  8
AM_0
 10
503.81658572547423
 20
92.037391561234799
 30
0.0
 70
    32
  0
VERTEX
  5
9163
  8
AM_0
 10
503.81958572547433
 20
92.033991561234757
 30
0.0
 70
    32
  0
VERTEX
  5
9164
  8
AM_0
 10
503.82258572547431
 20
92.030691561235784
 30
0.0
 70
    32
  0
VERTEX
  5
9165
  8
AM_0
 10
503.82458572547432
 20
92.027391561235717
 30
0.0
 70
    32
  0
VERTEX
  5
9166
  8
AM_0
 10
503.82758572547419
 20
92.024091561234741
 30
0.0
 70
    32
  0
VERTEX
  5
9167
  8
AM_0
 10
503.83058572547429
 20
92.020791561235797
 30
0.0
 70
    32
  0
VERTEX
  5
9168
  8
AM_0
 10
503.83358572547428
 20
92.017491561235715
 30
0.0
 70
    32
  0
VERTEX
  5
9169
  8
AM_0
 10
503.83658572547421
 20
92.014191561234725
 30
0.0
 70
    32
  0
VERTEX
  5
916A
  8
AM_0
 10
503.83958572547442
 20
92.010991561236864
 30
0.0
 70
    32
  0
VERTEX
  5
916B
  8
AM_0
 10
503.84258572547418
 20
92.007691561235674
 30
0.0
 70
    32
  0
VERTEX
  5
916C
  8
AM_0
 10
503.84558572547422
 20
92.004491561235795
 30
0.0
 70
    32
  0
VERTEX
  5
916D
  8
AM_0
 10
503.84858572547438
 20
92.001291561235689
 30
0.0
 70
    32
  0
VERTEX
  5
916E
  8
AM_0
 10
503.85058572547439
 20
91.99809156123672
 30
0.0
 70
    32
  0
VERTEX
  5
916F
  8
AM_0
 10
503.85358572547437
 20
91.994891561235676
 30
0.0
 70
    32
  0
VERTEX
  5
9170
  8
AM_0
 10
503.85658572547442
 20
91.991691561236706
 30
0.0
 70
    32
  0
VERTEX
  5
9171
  8
AM_0
 10
503.8595857254744
 20
91.988491561235705
 30
0.0
 70
    32
  0
VERTEX
  5
9172
  8
AM_0
 10
503.86258572547428
 20
91.985291561234703
 30
0.0
 70
    32
  0
VERTEX
  5
9173
  8
AM_0
 10
503.86558572547432
 20
91.982191561235695
 30
0.0
 70
    32
  0
VERTEX
  5
9174
  8
AM_0
 10
503.86858572547442
 20
91.978991561235787
 30
0.0
 70
    32
  0
VERTEX
  5
9175
  8
AM_0
 10
503.87158572547429
 20
91.975891561235684
 30
0.0
 70
    32
  0
VERTEX
  5
9176
  8
AM_0
 10
503.87458572547428
 20
91.972791561235795
 30
0.0
 70
    32
  0
VERTEX
  5
9177
  8
AM_0
 10
503.87758572547432
 20
91.969591561235674
 30
0.0
 70
    32
  0
VERTEX
  5
9178
  8
AM_0
 10
503.88058572547419
 20
91.966491561236666
 30
0.0
 70
    32
  0
VERTEX
  5
9179
  8
AM_0
 10
503.88358572547429
 20
91.963391561235625
 30
0.0
 70
    32
  0
VERTEX
  5
917A
  8
AM_0
 10
503.88658572547439
 20
91.96039156123571
 30
0.0
 70
    32
  0
VERTEX
  5
917B
  8
AM_0
 10
503.89058572547441
 20
91.957291561235792
 30
0.0
 70
    32
  0
VERTEX
  5
917C
  8
AM_0
 10
503.8935857254744
 20
91.954191561234765
 30
0.0
 70
    32
  0
VERTEX
  5
917D
  8
AM_0
 10
503.89658572547432
 20
91.951191561235774
 30
0.0
 70
    32
  0
VERTEX
  5
917E
  8
AM_0
 10
503.89958572547442
 20
91.948091561235614
 30
0.0
 70
    32
  0
VERTEX
  5
917F
  8
AM_0
 10
503.90258572547452
 20
91.945091561235714
 30
0.0
 70
    32
  0
VERTEX
  5
9180
  8
AM_0
 10
503.90558572547428
 20
91.94209156123577
 30
0.0
 70
    32
  0
VERTEX
  5
9181
  8
AM_0
 10
503.90858572547432
 20
91.939091561235585
 30
0.0
 70
    32
  0
VERTEX
  5
9182
  8
AM_0
 10
503.91158572547448
 20
91.936091561235685
 30
0.0
 70
    32
  0
VERTEX
  5
9183
  8
AM_0
 10
503.91558572547427
 20
91.933091561236864
 30
0.0
 70
    32
  0
VERTEX
  5
9184
  8
AM_0
 10
503.91858572547432
 20
91.930091561234917
 30
0.0
 70
    32
  0
VERTEX
  5
9185
  8
AM_0
 10
503.9215857254743
 20
91.927091561235684
 30
0.0
 70
    32
  0
VERTEX
  5
9186
  8
AM_0
 10
503.9245857254744
 20
91.924191561235716
 30
0.0
 70
    32
  0
VERTEX
  5
9187
  8
AM_0
 10
503.92758572547427
 20
91.921191561235787
 30
0.0
 70
    32
  0
VERTEX
  5
9188
  8
AM_0
 10
503.93058572547432
 20
91.918291561235606
 30
0.0
 70
    32
  0
VERTEX
  5
9189
  8
AM_0
 10
503.93458572547428
 20
91.915291561234767
 30
0.0
 70
    32
  0
VERTEX
  5
918A
  8
AM_0
 10
503.93758572547438
 20
91.912391561234784
 30
0.0
 70
    32
  0
VERTEX
  5
918B
  8
AM_0
 10
503.94058572547431
 20
91.90949156123483
 30
0.0
 70
    32
  0
VERTEX
  5
918C
  8
AM_0
 10
503.94358572547441
 20
91.906591561235786
 30
0.0
 70
    32
  0
VERTEX
  5
918D
  8
AM_0
 10
503.94758572547443
 20
91.903691561235647
 30
0.0
 70
    32
  0
VERTEX
  5
918E
  8
AM_0
 10
503.95058572547413
 20
91.900791561235692
 30
0.0
 70
    32
  0
VERTEX
  5
918F
  8
AM_0
 10
503.9535857254744
 20
91.897991561234804
 30
0.0
 70
    32
  0
VERTEX
  5
9190
  8
AM_0
 10
503.95658572547438
 20
91.895091561234835
 30
0.0
 70
    32
  0
VERTEX
  5
9191
  8
AM_0
 10
503.9605857254744
 20
91.892291561235766
 30
0.0
 70
    32
  0
VERTEX
  5
9192
  8
AM_0
 10
503.96358572547439
 20
91.889391561236707
 30
0.0
 70
    32
  0
VERTEX
  5
9193
  8
AM_0
 10
503.96658572547432
 20
91.88659156123579
 30
0.0
 70
    32
  0
VERTEX
  5
9194
  8
AM_0
 10
503.97058572547428
 20
91.883791561235626
 30
0.0
 70
    32
  0
VERTEX
  5
9195
  8
AM_0
 10
503.97358572547432
 20
91.880991561235632
 30
0.0
 70
    32
  0
VERTEX
  5
9196
  8
AM_0
 10
503.97658572547442
 20
91.878191561234758
 30
0.0
 70
    32
  0
VERTEX
  5
9197
  8
AM_0
 10
503.98058572547433
 20
91.875391561234764
 30
0.0
 70
    32
  0
VERTEX
  5
9198
  8
AM_0
 10
503.98358572547431
 20
91.872591561234785
 30
0.0
 70
    32
  0
VERTEX
  5
9199
  8
AM_0
 10
503.9865857254743
 20
91.869791561235715
 30
0.0
 70
    32
  0
VERTEX
  5
919A
  8
AM_0
 10
503.99058572547409
 20
91.867091561235711
 30
0.0
 70
    32
  0
VERTEX
  5
919B
  8
AM_0
 10
503.99358572547442
 20
91.864291561234836
 30
0.0
 70
    32
  0
VERTEX
  5
919C
  8
AM_0
 10
503.99658572547429
 20
91.861591561234832
 30
0.0
 70
    32
  0
VERTEX
  5
919D
  8
AM_0
 10
504.00058572547448
 20
91.858791561235776
 30
0.0
 70
    32
  0
VERTEX
  5
919E
  8
AM_0
 10
504.00358572547441
 20
91.856091561235729
 30
0.0
 70
    32
  0
VERTEX
  5
919F
  8
AM_0
 10
504.00758572547431
 20
91.853391561235767
 30
0.0
 70
    32
  0
VERTEX
  5
91A0
  8
AM_0
 10
504.01058572547419
 20
91.850691561235735
 30
0.0
 70
    32
  0
VERTEX
  5
91A1
  8
AM_0
 10
504.01358572547429
 20
91.847991561235716
 30
0.0
 70
    32
  0
VERTEX
  5
91A2
  8
AM_0
 10
504.01758572547442
 20
91.84529156123574
 30
0.0
 70
    32
  0
VERTEX
  5
91A3
  8
AM_0
 10
504.0205857254744
 20
91.842591561235707
 30
0.0
 70
    32
  0
VERTEX
  5
91A4
  8
AM_0
 10
504.02458572547442
 20
91.839991561234797
 30
0.0
 70
    32
  0
VERTEX
  5
91A5
  8
AM_0
 10
504.02758572547441
 20
91.837291561234792
 30
0.0
 70
    32
  0
VERTEX
  5
91A6
  8
AM_0
 10
504.03158572547437
 20
91.834591561234774
 30
0.0
 70
    32
  0
VERTEX
  5
91A7
  8
AM_0
 10
504.0345857254743
 20
91.831991561234759
 30
0.0
 70
    32
  0
VERTEX
  5
91A8
  8
AM_0
 10
504.03758572547412
 20
91.829391561235639
 30
0.0
 70
    32
  0
VERTEX
  5
91A9
  8
AM_0
 10
504.04158572547431
 20
91.826791561235595
 30
0.0
 70
    32
  0
VERTEX
  5
91AA
  8
AM_0
 10
504.04458572547418
 20
91.824091561235846
 30
0.0
 70
    32
  0
VERTEX
  5
91AB
  8
AM_0
 10
504.04858572547442
 20
91.821491561235774
 30
0.0
 70
    32
  0
VERTEX
  5
91AC
  8
AM_0
 10
504.05158572547441
 20
91.818891561235773
 30
0.0
 70
    32
  0
VERTEX
  5
91AD
  8
AM_0
 10
504.05558572547432
 20
91.816391561234795
 30
0.0
 70
    32
  0
VERTEX
  5
91AE
  8
AM_0
 10
504.05858572547442
 20
91.813791561235675
 30
0.0
 70
    32
  0
VERTEX
  5
91AF
  8
AM_0
 10
504.06258572547432
 20
91.81119156123566
 30
0.0
 70
    32
  0
VERTEX
  5
91B0
  8
AM_0
 10
504.06558572547408
 20
91.808691561236756
 30
0.0
 70
    32
  0
VERTEX
  5
91B1
  8
AM_0
 10
504.06958572547438
 20
91.806091561236684
 30
0.0
 70
    32
  0
VERTEX
  5
91B2
  8
AM_0
 10
504.0725857254742
 20
91.803591561235734
 30
0.0
 70
    32
  0
VERTEX
  5
91B3
  8
AM_0
 10
504.07658572547439
 20
91.800991561235719
 30
0.0
 70
    32
  0
VERTEX
  5
91B4
  8
AM_0
 10
504.07958572547432
 20
91.798491561235636
 30
0.0
 70
    32
  0
VERTEX
  5
91B5
  8
AM_0
 10
504.08358572547428
 20
91.795991561235596
 30
0.0
 70
    32
  0
VERTEX
  5
91B6
  8
AM_0
 10
504.08758572547453
 20
91.793491561236678
 30
0.0
 70
    32
  0
VERTEX
  5
91B7
  8
AM_0
 10
504.0905857254744
 20
91.790991561235714
 30
0.0
 70
    32
  0
VERTEX
  5
91B8
  8
AM_0
 10
504.09458572547447
 20
91.788491561234764
 30
0.0
 70
    32
  0
VERTEX
  5
91B9
  8
AM_0
 10
504.0975857254744
 20
91.785991561234724
 30
0.0
 70
    32
  0
VERTEX
  5
91BA
  8
AM_0
 10
504.10158572547431
 20
91.78359156123669
 30
0.0
 70
    32
  0
VERTEX
  5
91BB
  8
AM_0
 10
504.10458572547429
 20
91.781091561234817
 30
0.0
 70
    32
  0
VERTEX
  5
91BC
  8
AM_0
 10
504.10858572547431
 20
91.778691561235632
 30
0.0
 70
    32
  0
VERTEX
  5
91BD
  8
AM_0
 10
504.11258572547428
 20
91.776191561235791
 30
0.0
 70
    32
  0
VERTEX
  5
91BE
  8
AM_0
 10
504.11558572547409
 20
91.773791561235711
 30
0.0
 70
    32
  0
VERTEX
  5
91BF
  8
AM_0
 10
504.11958572547428
 20
91.771391561234708
 30
0.0
 70
    32
  0
VERTEX
  5
91C0
  8
AM_0
 10
504.12258572547432
 20
91.768891561234909
 30
0.0
 70
    32
  0
VERTEX
  5
91C1
  8
AM_0
 10
504.12658572547429
 20
91.766491561236876
 30
0.0
 70
    32
  0
VERTEX
  5
91C2
  8
AM_0
 10
504.13058572547442
 20
91.764091561235702
 30
0.0
 70
    32
  0
VERTEX
  5
91C3
  8
AM_0
 10
504.13358572547429
 20
91.761691561234869
 30
0.0
 70
    32
  0
VERTEX
  5
91C4
  8
AM_0
 10
504.13758572547442
 20
91.759291561234818
 30
0.0
 70
    32
  0
VERTEX
  5
91C5
  8
AM_0
 10
504.14158572547427
 20
91.756991561234727
 30
0.0
 70
    32
  0
VERTEX
  5
91C6
  8
AM_0
 10
504.14458572547409
 20
91.754591561235785
 30
0.0
 70
    32
  0
VERTEX
  5
91C7
  8
AM_0
 10
504.14858572547439
 20
91.752191561235691
 30
0.0
 70
    32
  0
VERTEX
  5
91C8
  8
AM_0
 10
504.15258572547452
 20
91.749891561234918
 30
0.0
 70
    32
  0
VERTEX
  5
91C9
  8
AM_0
 10
504.1555857254744
 20
91.747491561236842
 30
0.0
 70
    32
  0
VERTEX
  5
91CA
  8
AM_0
 10
504.15958572547419
 20
91.745191561235629
 30
0.0
 70
    32
  0
VERTEX
  5
91CB
  8
AM_0
 10
504.16358572547432
 20
91.742891561234813
 30
0.0
 70
    32
  0
VERTEX
  5
91CC
  8
AM_0
 10
504.16658572547442
 20
91.740591561235632
 30
0.0
 70
    32
  0
VERTEX
  5
91CD
  8
AM_0
 10
504.17058572547433
 20
91.738291561235783
 30
0.0
 70
    32
  0
VERTEX
  5
91CE
  8
AM_0
 10
504.17458572547451
 20
91.73589156123478
 30
0.0
 70
    32
  0
VERTEX
  5
91CF
  8
AM_0
 10
504.17758572547427
 20
91.733691561235787
 30
0.0
 70
    32
  0
VERTEX
  5
91D0
  8
AM_0
 10
504.18158572547452
 20
91.731391561234744
 30
0.0
 70
    32
  0
VERTEX
  5
91D1
  8
AM_0
 10
504.18558572547431
 20
91.729091561235776
 30
0.0
 70
    32
  0
VERTEX
  5
91D2
  8
AM_0
 10
504.1885857254743
 20
91.726791561235686
 30
0.0
 70
    32
  0
VERTEX
  5
91D3
  8
AM_0
 10
504.19258572547449
 20
91.724491561235794
 30
0.0
 70
    32
  0
VERTEX
  5
91D4
  8
AM_0
 10
504.19658572547428
 20
91.722291561235679
 30
0.0
 70
    32
  0
VERTEX
  5
91D5
  8
AM_0
 10
504.2005857254743
 20
91.719991561235787
 30
0.0
 70
    32
  0
VERTEX
  5
91D6
  8
AM_0
 10
504.20358572547428
 20
91.717791561235686
 30
0.0
 70
    32
  0
VERTEX
  5
91D7
  8
AM_0
 10
504.2075857254743
 20
91.715591561234874
 30
0.0
 70
    32
  0
VERTEX
  5
91D8
  8
AM_0
 10
504.21158572547421
 20
91.71329156123565
 30
0.0
 70
    32
  0
VERTEX
  5
91D9
  8
AM_0
 10
504.21458572547442
 20
91.711091561234852
 30
0.0
 70
    32
  0
VERTEX
  5
91DA
  8
AM_0
 10
504.21858572547433
 20
91.708891561234722
 30
0.0
 70
    32
  0
VERTEX
  5
91DB
  8
AM_0
 10
504.22258572547429
 20
91.706691561235715
 30
0.0
 70
    32
  0
VERTEX
  5
91DC
  8
AM_0
 10
504.22658572547442
 20
91.704491561235585
 30
0.0
 70
    32
  0
VERTEX
  5
91DD
  8
AM_0
 10
504.22958572547418
 20
91.702291561235711
 30
0.0
 70
    32
  0
VERTEX
  5
91DE
  8
AM_0
 10
504.23358572547443
 20
91.700191561235769
 30
0.0
 70
    32
  0
VERTEX
  5
91DF
  8
AM_0
 10
504.23758572547428
 20
91.697991561235639
 30
0.0
 70
    32
  0
VERTEX
  5
91E0
  8
AM_0
 10
504.24158572547441
 20
91.695791561234842
 30
0.0
 70
    32
  0
VERTEX
  5
91E1
  8
AM_0
 10
504.24558572547431
 20
91.69369156123787
 30
0.0
 70
    32
  0
VERTEX
  5
91E2
  8
AM_0
 10
504.24858572547441
 20
91.691491561235694
 30
0.0
 70
    32
  0
VERTEX
  5
91E3
  8
AM_0
 10
504.25258572547438
 20
91.689391561234828
 30
0.0
 70
    32
  0
VERTEX
  5
91E4
  8
AM_0
 10
504.25658572547428
 20
91.687191561235636
 30
0.0
 70
    32
  0
VERTEX
  5
91E5
  8
AM_0
 10
504.26058572547407
 20
91.685091561236845
 30
0.0
 70
    32
  0
VERTEX
  5
91E6
  8
AM_0
 10
504.2635857254744
 20
91.682991561235795
 30
0.0
 70
    32
  0
VERTEX
  5
91E7
  8
AM_0
 10
504.26758572547408
 20
91.680891561235626
 30
0.0
 70
    32
  0
VERTEX
  5
91E8
  8
AM_0
 10
504.27158572547432
 20
91.678791561234803
 30
0.0
 70
    32
  0
VERTEX
  5
91E9
  8
AM_0
 10
504.27558572547429
 20
91.676691561235785
 30
0.0
 70
    32
  0
VERTEX
  5
91EA
  8
AM_0
 10
504.27958572547442
 20
91.674591561234706
 30
0.0
 70
    32
  0
VERTEX
  5
91EB
  8
AM_0
 10
504.28358572547421
 20
91.672491561234764
 30
0.0
 70
    32
  0
VERTEX
  5
91EC
  8
AM_0
 10
504.28658572547448
 20
91.670391561235775
 30
0.0
 70
    32
  0
VERTEX
  5
91ED
  8
AM_0
 10
504.29058572547427
 20
91.668391561236689
 30
0.0
 70
    32
  0
VERTEX
  5
91EE
  8
AM_0
 10
504.29458572547429
 20
91.666291561235639
 30
0.0
 70
    32
  0
VERTEX
  5
91EF
  8
AM_0
 10
504.29858572547448
 20
91.664191561236834
 30
0.0
 70
    32
  0
VERTEX
  5
91F0
  8
AM_0
 10
504.30258572547427
 20
91.662191561234849
 30
0.0
 70
    32
  0
VERTEX
  5
91F1
  8
AM_0
 10
504.30558572547432
 20
91.660091561235618
 30
0.0
 70
    32
  0
VERTEX
  5
91F2
  8
AM_0
 10
504.30958572547428
 20
91.658091561235651
 30
0.0
 70
    32
  0
VERTEX
  5
91F3
  8
AM_0
 10
504.31358572547441
 20
91.656091561234803
 30
0.0
 70
    32
  0
VERTEX
  5
91F4
  8
AM_0
 10
504.31758572547449
 20
91.654091561235774
 30
0.0
 70
    32
  0
VERTEX
  5
91F5
  8
AM_0
 10
504.32158572547428
 20
91.652091561234855
 30
0.0
 70
    32
  0
VERTEX
  5
91F6
  8
AM_0
 10
504.3255857254743
 20
91.650091561235612
 30
0.0
 70
    32
  0
VERTEX
  5
91F7
  8
AM_0
 10
504.32958572547437
 20
91.648091561235688
 30
0.0
 70
    32
  0
VERTEX
  5
91F8
  8
AM_0
 10
504.3325857254743
 20
91.646091561235707
 30
0.0
 70
    32
  0
VERTEX
  5
91F9
  8
AM_0
 10
504.33658572547421
 20
91.644091561234859
 30
0.0
 70
    32
  0
VERTEX
  5
91FA
  8
AM_0
 10
504.3405857254744
 20
91.642091561235787
 30
0.0
 70
    32
  0
VERTEX
  5
91FB
  8
AM_0
 10
504.34458572547442
 20
91.640091561235636
 30
0.0
 70
    32
  0
VERTEX
  5
91FC
  8
AM_0
 10
504.34858572547438
 20
91.638191561235644
 30
0.0
 70
    32
  0
VERTEX
  5
91FD
  8
AM_0
 10
504.35258572547428
 20
91.636191561235691
 30
0.0
 70
    32
  0
VERTEX
  5
91FE
  8
AM_0
 10
504.35658572547442
 20
91.634291561234818
 30
0.0
 70
    32
  0
VERTEX
  5
91FF
  8
AM_0
 10
504.36058572547432
 20
91.632291561234851
 30
0.0
 70
    32
  0
VERTEX
  5
9200
  8
AM_0
 10
504.3645857254744
 20
91.630391561236706
 30
0.0
 70
    32
  0
VERTEX
  5
9201
  8
AM_0
 10
504.36758572547433
 20
91.628491561236729
 30
0.0
 70
    32
  0
VERTEX
  5
9202
  8
AM_0
 10
504.37158572547429
 20
91.626491561235625
 30
0.0
 70
    32
  0
VERTEX
  5
9203
  8
AM_0
 10
504.37558572547442
 20
91.624591561234766
 30
0.0
 70
    32
  0
VERTEX
  5
9204
  8
AM_0
 10
504.37958572547433
 20
91.622691561235683
 30
0.0
 70
    32
  0
VERTEX
  5
9205
  8
AM_0
 10
504.38358572547429
 20
91.620791561235691
 30
0.0
 70
    32
  0
VERTEX
  5
9206
  8
AM_0
 10
504.38758572547442
 20
91.618891561235714
 30
0.0
 70
    32
  0
VERTEX
  5
9207
  8
AM_0
 10
504.39158572547427
 20
91.616991561235707
 30
0.0
 70
    32
  0
VERTEX
  5
9208
  8
AM_0
 10
504.3955857254744
 20
91.615191561234838
 30
0.0
 70
    32
  0
VERTEX
  5
9209
  8
AM_0
 10
504.39958572547431
 20
91.613291561234846
 30
0.0
 70
    32
  0
VERTEX
  5
920A
  8
AM_0
 10
504.4035857254741
 20
91.611391561234868
 30
0.0
 70
    32
  0
VERTEX
  5
920B
  8
AM_0
 10
504.40758572547429
 20
91.609591561235789
 30
0.0
 70
    32
  0
VERTEX
  5
920C
  8
AM_0
 10
504.41058572547428
 20
91.607691561235796
 30
0.0
 70
    32
  0
VERTEX
  5
920D
  8
AM_0
 10
504.4145857254743
 20
91.605891561235794
 30
0.0
 70
    32
  0
VERTEX
  5
920E
  8
AM_0
 10
504.41858572547437
 20
91.603991561235844
 30
0.0
 70
    32
  0
VERTEX
  5
920F
  8
AM_0
 10
504.42258572547439
 20
91.602191561236708
 30
0.0
 70
    32
  0
VERTEX
  5
9210
  8
AM_0
 10
504.42658572547418
 20
91.600391561234915
 30
0.0
 70
    32
  0
VERTEX
  5
9211
  8
AM_0
 10
504.43058572547432
 20
91.598491561234695
 30
0.0
 70
    32
  0
VERTEX
  5
9212
  8
AM_0
 10
504.43458572547439
 20
91.596691561235616
 30
0.0
 70
    32
  0
VERTEX
  5
9213
  8
AM_0
 10
504.43858572547418
 20
91.594891561234704
 30
0.0
 70
    32
  0
VERTEX
  5
9214
  8
AM_0
 10
504.44258572547437
 20
91.593091561234701
 30
0.0
 70
    32
  0
VERTEX
  5
9215
  8
AM_0
 10
504.44658572547439
 20
91.591291561234684
 30
0.0
 70
    32
  0
VERTEX
  5
9216
  8
AM_0
 10
504.45058572547413
 20
91.589491561234667
 30
0.0
 70
    32
  0
VERTEX
  5
9217
  8
AM_0
 10
504.45458572547432
 20
91.58779156123488
 30
0.0
 70
    32
  0
VERTEX
  5
9218
  8
AM_0
 10
504.45858572547428
 20
91.585991561236725
 30
0.0
 70
    32
  0
VERTEX
  5
9219
  8
AM_0
 10
504.46258572547441
 20
91.584191561235784
 30
0.0
 70
    32
  0
VERTEX
  5
921A
  8
AM_0
 10
504.4665857254742
 20
91.582391561234871
 30
0.0
 70
    32
  0
VERTEX
  5
921B
  8
AM_0
 10
504.47058572547428
 20
91.580691561235767
 30
0.0
 70
    32
  0
VERTEX
  5
921C
  8
AM_0
 10
504.47458572547441
 20
91.57889156123484
 30
0.0
 70
    32
  0
VERTEX
  5
921D
  8
AM_0
 10
504.47858572547437
 20
91.577191561234827
 30
0.0
 70
    32
  0
VERTEX
  5
921E
  8
AM_0
 10
504.48258572547428
 20
91.575491561235694
 30
0.0
 70
    32
  0
VERTEX
  5
921F
  8
AM_0
 10
504.4865857254743
 20
91.573691561235705
 30
0.0
 70
    32
  0
VERTEX
  5
9220
  8
AM_0
 10
504.49058572547409
 20
91.571991561235649
 30
0.0
 70
    32
  0
VERTEX
  5
9221
  8
AM_0
 10
504.49458572547428
 20
91.570291561235663
 30
0.0
 70
    32
  0
VERTEX
  5
9222
  8
AM_0
 10
504.49858572547453
 20
91.568591561235621
 30
0.0
 70
    32
  0
VERTEX
  5
9223
  8
AM_0
 10
504.50258572547432
 20
91.566891561234911
 30
0.0
 70
    32
  0
VERTEX
  5
9224
  8
AM_0
 10
504.50658572547428
 20
91.565191561235793
 30
0.0
 70
    32
  0
VERTEX
  5
9225
  8
AM_0
 10
504.51058572547419
 20
91.563491561236688
 30
0.0
 70
    32
  0
VERTEX
  5
9226
  8
AM_0
 10
504.51458572547438
 20
91.561791561235694
 30
0.0
 70
    32
  0
VERTEX
  5
9227
  8
AM_0
 10
504.5185857254744
 20
91.560091561234785
 30
0.0
 70
    32
  0
VERTEX
  5
9228
  8
AM_0
 10
504.5225857254743
 20
91.558391561235652
 30
0.0
 70
    32
  0
VERTEX
  5
9229
  8
AM_0
 10
504.52658572547432
 20
91.556691561234743
 30
0.0
 70
    32
  0
VERTEX
  5
922A
  8
AM_0
 10
504.5305857254744
 20
91.555091561236722
 30
0.0
 70
    32
  0
VERTEX
  5
922B
  8
AM_0
 10
504.53458572547419
 20
91.553391561235784
 30
0.0
 70
    32
  0
VERTEX
  5
922C
  8
AM_0
 10
504.53858572547438
 20
91.551791561235731
 30
0.0
 70
    32
  0
VERTEX
  5
922D
  8
AM_0
 10
504.5425857254744
 20
91.550091561235718
 30
0.0
 70
    32
  0
VERTEX
  5
922E
  8
AM_0
 10
504.54658572547407
 20
91.548491561235664
 30
0.0
 70
    32
  0
VERTEX
  5
922F
  8
AM_0
 10
504.55058572547432
 20
91.546791561234727
 30
0.0
 70
    32
  0
VERTEX
  5
9230
  8
AM_0
 10
504.55458572547428
 20
91.54519156123672
 30
0.0
 70
    32
  0
VERTEX
  5
9231
  8
AM_0
 10
504.55858572547442
 20
91.543591561235729
 30
0.0
 70
    32
  0
VERTEX
  5
9232
  8
AM_0
 10
504.56258572547421
 20
91.54199156123569
 30
0.0
 70
    32
  0
VERTEX
  5
9233
  8
AM_0
 10
504.56658572547428
 20
91.540291561234767
 30
0.0
 70
    32
  0
VERTEX
  5
9234
  8
AM_0
 10
504.57058572547442
 20
91.538691561234728
 30
0.0
 70
    32
  0
VERTEX
  5
9235
  8
AM_0
 10
504.57458572547421
 20
91.537091561235783
 30
0.0
 70
    32
  0
VERTEX
  5
9236
  8
AM_0
 10
504.5785857254744
 20
91.535491561235716
 30
0.0
 70
    32
  0
VERTEX
  5
9237
  8
AM_0
 10
504.5825857254743
 20
91.533991561235652
 30
0.0
 70
    32
  0
VERTEX
  5
9238
  8
AM_0
 10
504.58658572547421
 20
91.532391561235585
 30
0.0
 70
    32
  0
VERTEX
  5
9239
  8
AM_0
 10
504.59058572547428
 20
91.530791561235787
 30
0.0
 70
    32
  0
VERTEX
  5
923A
  8
AM_0
 10
504.59458572547447
 20
91.529191561235706
 30
0.0
 70
    32
  0
VERTEX
  5
923B
  8
AM_0
 10
504.59858572547432
 20
91.527691561235642
 30
0.0
 70
    32
  0
VERTEX
  5
923C
  8
AM_0
 10
504.60258572547428
 20
91.526091561234665
 30
0.0
 70
    32
  0
VERTEX
  5
923D
  8
AM_0
 10
504.60758572547428
 20
91.524491561235777
 30
0.0
 70
    32
  0
VERTEX
  5
923E
  8
AM_0
 10
504.6115857254743
 20
91.522991561235699
 30
0.0
 70
    32
  0
VERTEX
  5
923F
  8
AM_0
 10
504.61558572547409
 20
91.521491561235607
 30
0.0
 70
    32
  0
VERTEX
  5
9240
  8
AM_0
 10
504.61958572547428
 20
91.519891561235795
 30
0.0
 70
    32
  0
VERTEX
  5
9241
  8
AM_0
 10
504.62358572547441
 20
91.518391561235717
 30
0.0
 70
    32
  0
VERTEX
  5
9242
  8
AM_0
 10
504.62758572547438
 20
91.516891561235639
 30
0.0
 70
    32
  0
VERTEX
  5
9243
  8
AM_0
 10
504.63158572547428
 20
91.515291561235784
 30
0.0
 70
    32
  0
VERTEX
  5
9244
  8
AM_0
 10
504.63558572547419
 20
91.513791561235735
 30
0.0
 70
    32
  0
VERTEX
  5
9245
  8
AM_0
 10
504.63958572547438
 20
91.512291561235642
 30
0.0
 70
    32
  0
VERTEX
  5
9246
  8
AM_0
 10
504.6435857254744
 20
91.510791561235791
 30
0.0
 70
    32
  0
VERTEX
  5
9247
  8
AM_0
 10
504.64758572547441
 20
91.509291561235713
 30
0.0
 70
    32
  0
VERTEX
  5
9248
  8
AM_0
 10
504.65158572547432
 20
91.507791561235663
 30
0.0
 70
    32
  0
VERTEX
  5
9249
  8
AM_0
 10
504.6555857254744
 20
91.506291561235784
 30
0.0
 70
    32
  0
VERTEX
  5
924A
  8
AM_0
 10
504.65958572547419
 20
91.504891561235695
 30
0.0
 70
    32
  0
VERTEX
  5
924B
  8
AM_0
 10
504.66458572547441
 20
91.503391561235603
 30
0.0
 70
    32
  0
VERTEX
  5
924C
  8
AM_0
 10
504.6685857254742
 20
91.501891561234842
 30
0.0
 70
    32
  0
VERTEX
  5
924D
  8
AM_0
 10
504.67258572547428
 20
91.500391561235702
 30
0.0
 70
    32
  0
VERTEX
  5
924E
  8
AM_0
 10
504.67658572547441
 20
91.498991561235783
 30
0.0
 70
    32
  0
VERTEX
  5
924F
  8
AM_0
 10
504.68058572547432
 20
91.497491561235719
 30
0.0
 70
    32
  0
VERTEX
  5
9250
  8
AM_0
 10
504.68458572547428
 20
91.496091561235644
 30
0.0
 70
    32
  0
VERTEX
  5
9251
  8
AM_0
 10
504.6885857254743
 20
91.49459156123487
 30
0.0
 70
    32
  0
VERTEX
  5
9252
  8
AM_0
 10
504.69258572547449
 20
91.49319156123569
 30
0.0
 70
    32
  0
VERTEX
  5
9253
  8
AM_0
 10
504.69658572547428
 20
91.491791561235786
 30
0.0
 70
    32
  0
VERTEX
  5
9254
  8
AM_0
 10
504.7005857254743
 20
91.490391561234759
 30
0.0
 70
    32
  0
VERTEX
  5
9255
  8
AM_0
 10
504.70558572547429
 20
91.488891561235619
 30
0.0
 70
    32
  0
VERTEX
  5
9256
  8
AM_0
 10
504.70958572547443
 20
91.487491561234833
 30
0.0
 70
    32
  0
VERTEX
  5
9257
  8
AM_0
 10
504.71358572547439
 20
91.486091561235654
 30
0.0
 70
    32
  0
VERTEX
  5
9258
  8
AM_0
 10
504.71758572547418
 20
91.484691561238705
 30
0.0
 70
    32
  0
VERTEX
  5
9259
  8
AM_0
 10
504.72158572547443
 20
91.483291561234765
 30
0.0
 70
    32
  0
VERTEX
  5
925A
  8
AM_0
 10
504.72558572547439
 20
91.481891561235784
 30
0.0
 70
    32
  0
VERTEX
  5
925B
  8
AM_0
 10
504.72958572547412
 20
91.480491561234743
 30
0.0
 70
    32
  0
VERTEX
  5
925C
  8
AM_0
 10
504.73358572547431
 20
91.479091561234867
 30
0.0
 70
    32
  0
VERTEX
  5
925D
  8
AM_0
 10
504.73758572547439
 20
91.477791561234767
 30
0.0
 70
    32
  0
VERTEX
  5
925E
  8
AM_0
 10
504.74258572547438
 20
91.476391561236724
 30
0.0
 70
    32
  0
VERTEX
  5
925F
  8
AM_0
 10
504.74658572547429
 20
91.474991561235697
 30
0.0
 70
    32
  0
VERTEX
  5
9260
  8
AM_0
 10
504.75058572547442
 20
91.473691561234858
 30
0.0
 70
    32
  0
VERTEX
  5
9261
  8
AM_0
 10
504.75458572547439
 20
91.472291561235707
 30
0.0
 70
    32
  0
VERTEX
  5
9262
  8
AM_0
 10
504.75858572547429
 20
91.470991561236715
 30
0.0
 70
    32
  0
VERTEX
  5
9263
  8
AM_0
 10
504.76258572547442
 20
91.469591561235688
 30
0.0
 70
    32
  0
VERTEX
  5
9264
  8
AM_0
 10
504.76658572547427
 20
91.468291561235773
 30
0.0
 70
    32
  0
VERTEX
  5
9265
  8
AM_0
 10
504.77158572547432
 20
91.466991561234735
 30
0.0
 70
    32
  0
VERTEX
  5
9266
  8
AM_0
 10
504.77558572547429
 20
91.465591561235783
 30
0.0
 70
    32
  0
VERTEX
  5
9267
  8
AM_0
 10
504.77958572547448
 20
91.464291561234745
 30
0.0
 70
    32
  0
VERTEX
  5
9268
  8
AM_0
 10
504.78358572547432
 20
91.462991561234816
 30
0.0
 70
    32
  0
VERTEX
  5
9269
  8
AM_0
 10
504.78758572547429
 20
91.461691561235625
 30
0.0
 70
    32
  0
VERTEX
  5
926A
  8
AM_0
 10
504.79158572547442
 20
91.460391561235696
 30
0.0
 70
    32
  0
VERTEX
  5
926B
  8
AM_0
 10
504.79558572547433
 20
91.459091561235809
 30
0.0
 70
    32
  0
VERTEX
  5
926C
  8
AM_0
 10
504.80058572547432
 20
91.457791561234785
 30
0.0
 70
    32
  0
VERTEX
  5
926D
  8
AM_0
 10
504.80458572547428
 20
91.456491561235794
 30
0.0
 70
    32
  0
VERTEX
  5
926E
  8
AM_0
 10
504.80858572547442
 20
91.455191561235651
 30
0.0
 70
    32
  0
VERTEX
  5
926F
  8
AM_0
 10
504.81258572547438
 20
91.453891561236873
 30
0.0
 70
    32
  0
VERTEX
  5
9270
  8
AM_0
 10
504.81658572547423
 20
91.452591561235636
 30
0.0
 70
    32
  0
VERTEX
  5
9271
  8
AM_0
 10
504.8205857254743
 20
91.45139156123571
 30
0.0
 70
    32
  0
VERTEX
  5
9272
  8
AM_0
 10
504.82458572547432
 20
91.450091561236718
 30
0.0
 70
    32
  0
VERTEX
  5
9273
  8
AM_0
 10
504.82958572547437
 20
91.448791561235694
 30
0.0
 70
    32
  0
VERTEX
  5
9274
  8
AM_0
 10
504.83358572547428
 20
91.447591561235754
 30
0.0
 70
    32
  0
VERTEX
  5
9275
  8
AM_0
 10
504.83758572547441
 20
91.446291561234716
 30
0.0
 70
    32
  0
VERTEX
  5
9276
  8
AM_0
 10
504.84158572547432
 20
91.445091561235699
 30
0.0
 70
    32
  0
VERTEX
  5
9277
  8
AM_0
 10
504.84558572547428
 20
91.443791561237845
 30
0.0
 70
    32
  0
VERTEX
  5
9278
  8
AM_0
 10
504.84958572547441
 20
91.442591561235631
 30
0.0
 70
    32
  0
VERTEX
  5
9279
  8
AM_0
 10
504.85458572547429
 20
91.441391561234823
 30
0.0
 70
    32
  0
VERTEX
  5
927A
  8
AM_0
 10
504.85858572547431
 20
91.440091561235775
 30
0.0
 70
    32
  0
VERTEX
  5
927B
  8
AM_0
 10
504.86258572547428
 20
91.43889156123565
 30
0.0
 70
    32
  0
VERTEX
  5
927C
  8
AM_0
 10
504.86658572547452
 20
91.43769156123571
 30
0.0
 70
    32
  0
VERTEX
  5
927D
  8
AM_0
 10
504.87058572547431
 20
91.436491561236721
 30
0.0
 70
    32
  0
VERTEX
  5
927E
  8
AM_0
 10
504.87458572547428
 20
91.435291561235644
 30
0.0
 70
    32
  0
VERTEX
  5
927F
  8
AM_0
 10
504.87958572547433
 20
91.434091561235718
 30
0.0
 70
    32
  0
VERTEX
  5
9280
  8
AM_0
 10
504.88358572547429
 20
91.432891561235792
 30
0.0
 70
    32
  0
VERTEX
  5
9281
  8
AM_0
 10
504.88758572547442
 20
91.431691561235638
 30
0.0
 70
    32
  0
VERTEX
  5
9282
  8
AM_0
 10
504.89158572547427
 20
91.430491561235726
 30
0.0
 70
    32
  0
VERTEX
  5
9283
  8
AM_0
 10
504.8955857254744
 20
91.429291561234876
 30
0.0
 70
    32
  0
VERTEX
  5
9284
  8
AM_0
 10
504.90058572547429
 20
91.428091561235632
 30
0.0
 70
    32
  0
VERTEX
  5
9285
  8
AM_0
 10
504.90458572547442
 20
91.426991561234786
 30
0.0
 70
    32
  0
VERTEX
  5
9286
  8
AM_0
 10
504.90858572547438
 20
91.425791561234874
 30
0.0
 70
    32
  0
VERTEX
  5
9287
  8
AM_0
 10
504.91258572547412
 20
91.424591561235601
 30
0.0
 70
    32
  0
VERTEX
  5
9288
  8
AM_0
 10
504.91658572547431
 20
91.42349156123565
 30
0.0
 70
    32
  0
VERTEX
  5
9289
  8
AM_0
 10
504.92058572547433
 20
91.4222915612348
 30
0.0
 70
    32
  0
VERTEX
  5
928A
  8
AM_0
 10
504.92558572547438
 20
91.421191561234878
 30
0.0
 70
    32
  0
VERTEX
  5
928B
  8
AM_0
 10
504.92958572547428
 20
91.419991561235634
 30
0.0
 70
    32
  0
VERTEX
  5
928C
  8
AM_0
 10
504.93358572547442
 20
91.418891561234744
 30
0.0
 70
    32
  0
VERTEX
  5
928D
  8
AM_0
 10
504.93758572547438
 20
91.417691561234832
 30
0.0
 70
    32
  0
VERTEX
  5
928E
  8
AM_0
 10
504.94158572547428
 20
91.416591561236714
 30
0.0
 70
    32
  0
VERTEX
  5
928F
  8
AM_0
 10
504.94658572547439
 20
91.415491561235612
 30
0.0
 70
    32
  0
VERTEX
  5
9290
  8
AM_0
 10
504.95058572547413
 20
91.414391561234766
 30
0.0
 70
    32
  0
VERTEX
  5
9291
  8
AM_0
 10
504.95458572547432
 20
91.413191561234854
 30
0.0
 70
    32
  0
VERTEX
  5
9292
  8
AM_0
 10
504.95858572547428
 20
91.412091561236707
 30
0.0
 70
    32
  0
VERTEX
  5
9293
  8
AM_0
 10
504.96258572547453
 20
91.410991561235619
 30
0.0
 70
    32
  0
VERTEX
  5
9294
  8
AM_0
 10
504.96758572547429
 20
91.409891561234758
 30
0.0
 70
    32
  0
VERTEX
  5
9295
  8
AM_0
 10
504.97158572547448
 20
91.408791561234807
 30
0.0
 70
    32
  0
VERTEX
  5
9296
  8
AM_0
 10
504.97558572547428
 20
91.407691561235765
 30
0.0
 70
    32
  0
VERTEX
  5
9297
  8
AM_0
 10
504.97958572547429
 20
91.406591561235786
 30
0.0
 70
    32
  0
VERTEX
  5
9298
  8
AM_0
 10
504.98458572547429
 20
91.405591561235596
 30
0.0
 70
    32
  0
VERTEX
  5
9299
  8
AM_0
 10
504.98858572547431
 20
91.404491561234764
 30
0.0
 70
    32
  0
VERTEX
  5
929A
  8
AM_0
 10
504.99258572547433
 20
91.403391561234784
 30
0.0
 70
    32
  0
VERTEX
  5
929B
  8
AM_0
 10
504.99658572547429
 20
91.402291561234833
 30
0.0
 70
    32
  0
VERTEX
  5
929C
  8
AM_0
 10
505.00058572547448
 20
91.401291561235794
 30
0.0
 70
    32
  0
VERTEX
  5
929D
  8
AM_0
 10
505.00558572547442
 20
91.400191561235829
 30
0.0
 70
    32
  0
VERTEX
  5
929E
  8
AM_0
 10
505.00958572547449
 20
91.399191561235625
 30
0.0
 70
    32
  0
VERTEX
  5
929F
  8
AM_0
 10
505.01358572547429
 20
91.398091561234764
 30
0.0
 70
    32
  0
VERTEX
  5
92A0
  8
AM_0
 10
505.01758572547431
 20
91.39709156123476
 30
0.0
 70
    32
  0
VERTEX
  5
92A1
  8
AM_0
 10
505.02158572547438
 20
91.395991561235732
 30
0.0
 70
    32
  0
VERTEX
  5
92A2
  8
AM_0
 10
505.02658572547432
 20
91.394991561236651
 30
0.0
 70
    32
  0
VERTEX
  5
92A3
  8
AM_0
 10
505.0305857254744
 20
91.393991561235794
 30
0.0
 70
    32
  0
VERTEX
  5
92A4
  8
AM_0
 10
505.03458572547419
 20
91.392891561235601
 30
0.0
 70
    32
  0
VERTEX
  5
92A5
  8
AM_0
 10
505.03858572547432
 20
91.391891561234743
 30
0.0
 70
    32
  0
VERTEX
  5
92A6
  8
AM_0
 10
505.0435857254742
 20
91.390891561235634
 30
0.0
 70
    32
  0
VERTEX
  5
92A7
  8
AM_0
 10
505.04758572547451
 20
91.389891561235686
 30
0.0
 70
    32
  0
VERTEX
  5
92A8
  8
AM_0
 10
505.05158572547441
 20
91.38889156123571
 30
0.0
 70
    32
  0
VERTEX
  5
92A9
  8
AM_0
 10
505.05558572547409
 20
91.387891561235705
 30
0.0
 70
    32
  0
VERTEX
  5
92AA
  8
AM_0
 10
505.05958572547439
 20
91.386891561234833
 30
0.0
 70
    32
  0
VERTEX
  5
92AB
  8
AM_0
 10
505.06458572547427
 20
91.385891561234871
 30
0.0
 70
    32
  0
VERTEX
  5
92AC
  8
AM_0
 10
505.06858572547452
 20
91.38489156123579
 30
0.0
 70
    32
  0
VERTEX
  5
92AD
  8
AM_0
 10
505.07258572547431
 20
91.383891561236723
 30
0.0
 70
    32
  0
VERTEX
  5
92AE
  8
AM_0
 10
505.07658572547439
 20
91.382991561237873
 30
0.0
 70
    32
  0
VERTEX
  5
92AF
  8
AM_0
 10
505.08158572547433
 20
91.381991561234727
 30
0.0
 70
    32
  0
VERTEX
  5
92B0
  8
AM_0
 10
505.08558572547429
 20
91.380991561234708
 30
0.0
 70
    32
  0
VERTEX
  5
92B1
  8
AM_0
 10
505.08958572547442
 20
91.380091561235645
 30
0.0
 70
    32
  0
VERTEX
  5
92B2
  8
AM_0
 10
505.09358572547433
 20
91.379091561234745
 30
0.0
 70
    32
  0
VERTEX
  5
92B3
  8
AM_0
 10
505.09858572547432
 20
91.378091561235692
 30
0.0
 70
    32
  0
VERTEX
  5
92B4
  8
AM_0
 10
505.10258572547428
 20
91.377191561234795
 30
0.0
 70
    32
  0
VERTEX
  5
92B5
  8
AM_0
 10
505.1065857254743
 20
91.376191561234805
 30
0.0
 70
    32
  0
VERTEX
  5
92B6
  8
AM_0
 10
505.11058572547438
 20
91.375291561234803
 30
0.0
 70
    32
  0
VERTEX
  5
92B7
  8
AM_0
 10
505.11558572547409
 20
91.374391561236834
 30
0.0
 70
    32
  0
VERTEX
  5
92B8
  8
AM_0
 10
505.11958572547439
 20
91.373391561235707
 30
0.0
 70
    32
  0
VERTEX
  5
92B9
  8
AM_0
 10
505.12358572547441
 20
91.37249156123687
 30
0.0
 70
    32
  0
VERTEX
  5
92BA
  8
AM_0
 10
505.12758572547438
 20
91.371591561235704
 30
0.0
 70
    32
  0
VERTEX
  5
92BB
  8
AM_0
 10
505.13258572547431
 20
91.370691561235716
 30
0.0
 70
    32
  0
VERTEX
  5
92BC
  8
AM_0
 10
505.13658572547439
 20
91.369791561235715
 30
0.0
 70
    32
  0
VERTEX
  5
92BD
  8
AM_0
 10
505.14058572547441
 20
91.368891561235699
 30
0.0
 70
    32
  0
VERTEX
  5
92BE
  8
AM_0
 10
505.14458572547409
 20
91.367991561235698
 30
0.0
 70
    32
  0
VERTEX
  5
92BF
  8
AM_0
 10
505.14958572547442
 20
91.367091561235696
 30
0.0
 70
    32
  0
VERTEX
  5
92C0
  8
AM_0
 10
505.15358572547427
 20
91.366191561235695
 30
0.0
 70
    32
  0
VERTEX
  5
92C1
  8
AM_0
 10
505.15758572547441
 20
91.365291561235694
 30
0.0
 70
    32
  0
VERTEX
  5
92C2
  8
AM_0
 10
505.16158572547448
 20
91.36439156123572
 30
0.0
 70
    32
  0
VERTEX
  5
92C3
  8
AM_0
 10
505.16658572547442
 20
91.363491561235705
 30
0.0
 70
    32
  0
VERTEX
  5
92C4
  8
AM_0
 10
505.17058572547433
 20
91.362591561235689
 30
0.0
 70
    32
  0
VERTEX
  5
92C5
  8
AM_0
 10
505.1745857254744
 20
91.361791561234782
 30
0.0
 70
    32
  0
VERTEX
  5
92C6
  8
AM_0
 10
505.17858572547431
 20
91.36089156123569
 30
0.0
 70
    32
  0
VERTEX
  5
92C7
  8
AM_0
 10
505.18358572547447
 20
91.359991561234764
 30
0.0
 70
    32
  0
VERTEX
  5
92C8
  8
AM_0
 10
505.18758572547432
 20
91.359191561235662
 30
0.0
 70
    32
  0
VERTEX
  5
92C9
  8
AM_0
 10
505.19158572547423
 20
91.35829156123566
 30
0.0
 70
    32
  0
VERTEX
  5
92CA
  8
AM_0
 10
505.19558572547442
 20
91.357491561235634
 30
0.0
 70
    32
  0
VERTEX
  5
92CB
  8
AM_0
 10
505.2005857254743
 20
91.356591561234708
 30
0.0
 70
    32
  0
VERTEX
  5
92CC
  8
AM_0
 10
505.20458572547437
 20
91.355791561235606
 30
0.0
 70
    32
  0
VERTEX
  5
92CD
  8
AM_0
 10
505.20858572547428
 20
91.354891561235846
 30
0.0
 70
    32
  0
VERTEX
  5
92CE
  8
AM_0
 10
505.2125857254743
 20
91.354091561235791
 30
0.0
 70
    32
  0
VERTEX
  5
92CF
  8
AM_0
 10
505.21758572547418
 20
91.353291561235807
 30
0.0
 70
    32
  0
VERTEX
  5
92D0
  8
AM_0
 10
505.22158572547443
 20
91.352491561235766
 30
0.0
 70
    32
  0
VERTEX
  5
92D1
  8
AM_0
 10
505.22558572547439
 20
91.351591561236873
 30
0.0
 70
    32
  0
VERTEX
  5
92D2
  8
AM_0
 10
505.2305857254745
 20
91.350791561234786
 30
0.0
 70
    32
  0
VERTEX
  5
92D3
  8
AM_0
 10
505.2345857254744
 20
91.349991561235683
 30
0.0
 70
    32
  0
VERTEX
  5
92D4
  8
AM_0
 10
505.23858572547419
 20
91.349191561235699
 30
0.0
 70
    32
  0
VERTEX
  5
92D5
  8
AM_0
 10
505.24258572547438
 20
91.348391561235644
 30
0.0
 70
    32
  0
VERTEX
  5
92D6
  8
AM_0
 10
505.24758572547432
 20
91.347591561235618
 30
0.0
 70
    32
  0
VERTEX
  5
92D7
  8
AM_0
 10
505.25158572547451
 20
91.346791561235804
 30
0.0
 70
    32
  0
VERTEX
  5
92D8
  8
AM_0
 10
505.2555857254743
 20
91.345991561234868
 30
0.0
 70
    32
  0
VERTEX
  5
92D9
  8
AM_0
 10
505.25958572547432
 20
91.345191561234842
 30
0.0
 70
    32
  0
VERTEX
  5
92DA
  8
AM_0
 10
505.26458572547432
 20
91.34439156123571
 30
0.0
 70
    32
  0
VERTEX
  5
92DB
  8
AM_0
 10
505.26858572547428
 20
91.343691561235701
 30
0.0
 70
    32
  0
VERTEX
  5
92DC
  8
AM_0
 10
505.27258572547441
 20
91.34289156123566
 30
0.0
 70
    32
  0
VERTEX
  5
92DD
  8
AM_0
 10
505.27758572547441
 20
91.342091561235634
 30
0.0
 70
    32
  0
VERTEX
  5
92DE
  8
AM_0
 10
505.28158572547432
 20
91.341291561235593
 30
0.0
 70
    32
  0
VERTEX
  5
92DF
  8
AM_0
 10
505.28558572547428
 20
91.340591561236693
 30
0.0
 70
    32
  0
VERTEX
  5
92E0
  8
AM_0
 10
505.2895857254743
 20
91.339791561234833
 30
0.0
 70
    32
  0
VERTEX
  5
92E1
  8
AM_0
 10
505.29458572547418
 20
91.339091561234795
 30
0.0
 70
    32
  0
VERTEX
  5
92E2
  8
AM_0
 10
505.29858572547448
 20
91.338291561235664
 30
0.0
 70
    32
  0
VERTEX
  5
92E3
  8
AM_0
 10
505.30258572547439
 20
91.337591561234717
 30
0.0
 70
    32
  0
VERTEX
  5
92E4
  8
AM_0
 10
505.30758572547421
 20
91.336791561236723
 30
0.0
 70
    32
  0
VERTEX
  5
92E5
  8
AM_0
 10
505.3115857254744
 20
91.336091561236685
 30
0.0
 70
    32
  0
VERTEX
  5
92E6
  8
AM_0
 10
505.31558572547431
 20
91.33539156123571
 30
0.0
 70
    32
  0
VERTEX
  5
92E7
  8
AM_0
 10
505.31958572547438
 20
91.334591561234774
 30
0.0
 70
    32
  0
VERTEX
  5
92E8
  8
AM_0
 10
505.32458572547432
 20
91.333891561235632
 30
0.0
 70
    32
  0
VERTEX
  5
92E9
  8
AM_0
 10
505.3285857254744
 20
91.333191561235793
 30
0.0
 70
    32
  0
VERTEX
  5
92EA
  8
AM_0
 10
505.33258572547419
 20
91.33249156123486
 30
0.0
 70
    32
  0
VERTEX
  5
92EB
  8
AM_0
 10
505.33758572547441
 20
91.331691561235729
 30
0.0
 70
    32
  0
VERTEX
  5
92EC
  8
AM_0
 10
505.3415857254742
 20
91.330991561235678
 30
0.0
 70
    32
  0
VERTEX
  5
92ED
  8
AM_0
 10
505.34558572547428
 20
91.33029156123564
 30
0.0
 70
    32
  0
VERTEX
  5
92EE
  8
AM_0
 10
505.34958572547441
 20
91.329591561234906
 30
0.0
 70
    32
  0
VERTEX
  5
92EF
  8
AM_0
 10
505.35458572547429
 20
91.32889156123484
 30
0.0
 70
    32
  0
VERTEX
  5
92F0
  8
AM_0
 10
505.35858572547431
 20
91.328191561235727
 30
0.0
 70
    32
  0
VERTEX
  5
92F1
  8
AM_0
 10
505.36258572547428
 20
91.327491561235661
 30
0.0
 70
    32
  0
VERTEX
  5
92F2
  8
AM_0
 10
505.36758572547433
 20
91.326891561236735
 30
0.0
 70
    32
  0
VERTEX
  5
92F3
  8
AM_0
 10
505.37158572547429
 20
91.326191561234836
 30
0.0
 70
    32
  0
VERTEX
  5
92F4
  8
AM_0
 10
505.37558572547448
 20
91.325491561235708
 30
0.0
 70
    32
  0
VERTEX
  5
92F5
  8
AM_0
 10
505.37958572547433
 20
91.324791561235628
 30
0.0
 70
    32
  0
VERTEX
  5
92F6
  8
AM_0
 10
505.38458572547449
 20
91.324091561235846
 30
0.0
 70
    32
  0
VERTEX
  5
92F7
  8
AM_0
 10
505.38858572547429
 20
91.323491561234832
 30
0.0
 70
    32
  0
VERTEX
  5
92F8
  8
AM_0
 10
505.39258572547431
 20
91.32279156123569
 30
0.0
 70
    32
  0
VERTEX
  5
92F9
  8
AM_0
 10
505.3975857254743
 20
91.322191561235613
 30
0.0
 70
    32
  0
VERTEX
  5
92FA
  8
AM_0
 10
505.40158572547432
 20
91.321491561235788
 30
0.0
 70
    32
  0
VERTEX
  5
92FB
  8
AM_0
 10
505.4055857254744
 20
91.320791561234842
 30
0.0
 70
    32
  0
VERTEX
  5
92FC
  8
AM_0
 10
505.40958572547419
 20
91.320191561235674
 30
0.0
 70
    32
  0
VERTEX
  5
92FD
  8
AM_0
 10
505.41458572547441
 20
91.319591561235811
 30
0.0
 70
    32
  0
VERTEX
  5
92FE
  8
AM_0
 10
505.41858572547437
 20
91.318891561234835
 30
0.0
 70
    32
  0
VERTEX
  5
92FF
  8
AM_0
 10
505.42258572547439
 20
91.318291561235696
 30
0.0
 70
    32
  0
VERTEX
  5
9300
  8
AM_0
 10
505.42758572547439
 20
91.317591561235616
 30
0.0
 70
    32
  0
VERTEX
  5
9301
  8
AM_0
 10
505.43158572547441
 20
91.316991561234857
 30
0.0
 70
    32
  0
VERTEX
  5
9302
  8
AM_0
 10
505.43558572547431
 20
91.316391561235719
 30
0.0
 70
    32
  0
VERTEX
  5
9303
  8
AM_0
 10
505.44058572547408
 20
91.315791561235642
 30
0.0
 70
    32
  0
VERTEX
  5
9304
  8
AM_0
 10
505.44458572547433
 20
91.31519156123673
 30
0.0
 70
    32
  0
VERTEX
  5
9305
  8
AM_0
 10
505.44858572547429
 20
91.314491561235727
 30
0.0
 70
    32
  0
VERTEX
  5
9306
  8
AM_0
 10
505.4535857254744
 20
91.313891561234755
 30
0.0
 70
    32
  0
VERTEX
  5
9307
  8
AM_0
 10
505.4575857254743
 20
91.313291561236724
 30
0.0
 70
    32
  0
VERTEX
  5
9308
  8
AM_0
 10
505.46158572547421
 20
91.312691561235695
 30
0.0
 70
    32
  0
VERTEX
  5
9309
  8
AM_0
 10
505.46558572547428
 20
91.312091561234766
 30
0.0
 70
    32
  0
VERTEX
  5
930A
  8
AM_0
 10
505.47058572547422
 20
91.311491561235826
 30
0.0
 70
    32
  0
VERTEX
  5
930B
  8
AM_0
 10
505.47458572547441
 20
91.310891561235721
 30
0.0
 70
    32
  0
VERTEX
  5
930C
  8
AM_0
 10
505.47858572547449
 20
91.310291561234735
 30
0.0
 70
    32
  0
VERTEX
  5
930D
  8
AM_0
 10
505.48358572547448
 20
91.309791561236693
 30
0.0
 70
    32
  0
VERTEX
  5
930E
  8
AM_0
 10
505.48758572547428
 20
91.309191561235693
 30
0.0
 70
    32
  0
VERTEX
  5
930F
  8
AM_0
 10
505.49158572547441
 20
91.308591561235644
 30
0.0
 70
    32
  0
VERTEX
  5
9310
  8
AM_0
 10
505.49658572547429
 20
91.307991561234871
 30
0.0
 70
    32
  0
VERTEX
  5
9311
  8
AM_0
 10
505.50058572547442
 20
91.307491561235679
 30
0.0
 70
    32
  0
VERTEX
  5
9312
  8
AM_0
 10
505.50458572547439
 20
91.306891561235844
 30
0.0
 70
    32
  0
VERTEX
  5
9313
  8
AM_0
 10
505.50858572547412
 20
91.306291561236876
 30
0.0
 70
    32
  0
VERTEX
  5
9314
  8
AM_0
 10
505.5135857254744
 20
91.305791561234741
 30
0.0
 70
    32
  0
VERTEX
  5
9315
  8
AM_0
 10
505.51758572547419
 20
91.305191561234878
 30
0.0
 70
    32
  0
VERTEX
  5
9316
  8
AM_0
 10
505.52158572547438
 20
91.3046915612357
 30
0.0
 70
    32
  0
VERTEX
  5
9317
  8
AM_0
 10
505.52658572547432
 20
91.304091561235623
 30
0.0
 70
    32
  0
VERTEX
  5
9318
  8
AM_0
 10
505.5305857254744
 20
91.303591561234853
 30
0.0
 70
    32
  0
VERTEX
  5
9319
  8
AM_0
 10
505.53458572547419
 20
91.303091561235647
 30
0.0
 70
    32
  0
VERTEX
  5
931A
  8
AM_0
 10
505.53958572547441
 20
91.302491561236707
 30
0.0
 70
    32
  0
VERTEX
  5
931B
  8
AM_0
 10
505.5435857254742
 20
91.301991561234786
 30
0.0
 70
    32
  0
VERTEX
  5
931C
  8
AM_0
 10
505.54758572547439
 20
91.301491561234926
 30
0.0
 70
    32
  0
VERTEX
  5
931D
  8
AM_0
 10
505.55258572547427
 20
91.300891561235716
 30
0.0
 70
    32
  0
VERTEX
  5
931E
  8
AM_0
 10
505.55658572547452
 20
91.300391561234704
 30
0.0
 70
    32
  0
VERTEX
  5
931F
  8
AM_0
 10
505.56058572547448
 20
91.299891561234844
 30
0.0
 70
    32
  0
VERTEX
  5
9320
  8
AM_0
 10
505.56558572547431
 20
91.299391561235652
 30
0.0
 70
    32
  0
VERTEX
  5
9321
  8
AM_0
 10
505.56958572547433
 20
91.298891561235806
 30
0.0
 70
    32
  0
VERTEX
  5
9322
  8
AM_0
 10
505.57358572547429
 20
91.298391561234794
 30
0.0
 70
    32
  0
VERTEX
  5
9323
  8
AM_0
 10
505.57858572547428
 20
91.297891561235787
 30
0.0
 70
    32
  0
VERTEX
  5
9324
  8
AM_0
 10
505.58258572547442
 20
91.297391561235713
 30
0.0
 70
    32
  0
VERTEX
  5
9325
  8
AM_0
 10
505.58658572547421
 20
91.296891561235583
 30
0.0
 70
    32
  0
VERTEX
  5
9326
  8
AM_0
 10
505.59058572547428
 20
91.296391561234813
 30
0.0
 70
    32
  0
VERTEX
  5
9327
  8
AM_0
 10
505.59558572547422
 20
91.295891561234725
 30
0.0
 70
    32
  0
VERTEX
  5
9328
  8
AM_0
 10
505.59958572547418
 20
91.295491561235707
 30
0.0
 70
    32
  0
VERTEX
  5
9329
  8
AM_0
 10
505.60358572547449
 20
91.294991561234724
 30
0.0
 70
    32
  0
VERTEX
  5
932A
  8
AM_0
 10
505.60858572547443
 20
91.294491561234835
 30
0.0
 70
    32
  0
VERTEX
  5
932B
  8
AM_0
 10
505.61258572547428
 20
91.294091561234723
 30
0.0
 70
    32
  0
VERTEX
  5
932C
  8
AM_0
 10
505.61658572547441
 20
91.293591561235729
 30
0.0
 70
    32
  0
VERTEX
  5
932D
  8
AM_0
 10
505.62158572547429
 20
91.293091561235642
 30
0.0
 70
    32
  0
VERTEX
  5
932E
  8
AM_0
 10
505.62558572547442
 20
91.292691561236921
 30
0.0
 70
    32
  0
VERTEX
  5
932F
  8
AM_0
 10
505.62958572547439
 20
91.292291561234705
 30
0.0
 70
    32
  0
VERTEX
  5
9330
  8
AM_0
 10
505.63458572547432
 20
91.291791561235755
 30
0.0
 70
    32
  0
VERTEX
  5
9331
  8
AM_0
 10
505.6385857254744
 20
91.291391561234704
 30
0.0
 70
    32
  0
VERTEX
  5
9332
  8
AM_0
 10
505.64258572547431
 20
91.290891561235711
 30
0.0
 70
    32
  0
VERTEX
  5
9333
  8
AM_0
 10
505.64758572547441
 20
91.290491561234717
 30
0.0
 70
    32
  0
VERTEX
  5
9334
  8
AM_0
 10
505.65158572547432
 20
91.290091561234803
 30
0.0
 70
    32
  0
VERTEX
  5
9335
  8
AM_0
 10
505.65558572547428
 20
91.28969156123469
 30
0.0
 70
    32
  0
VERTEX
  5
9336
  8
AM_0
 10
505.66058572547428
 20
91.289191561236862
 30
0.0
 70
    32
  0
VERTEX
  5
9337
  8
AM_0
 10
505.66458572547452
 20
91.288791561235811
 30
0.0
 70
    32
  0
VERTEX
  5
9338
  8
AM_0
 10
505.66858572547432
 20
91.288391561235699
 30
0.0
 70
    32
  0
VERTEX
  5
9339
  8
AM_0
 10
505.67358572547448
 20
91.287991561235813
 30
0.0
 70
    32
  0
VERTEX
  5
933A
  8
AM_0
 10
505.67758572547427
 20
91.287591561235686
 30
0.0
 70
    32
  0
VERTEX
  5
933B
  8
AM_0
 10
505.68158572547441
 20
91.287191561234849
 30
0.0
 70
    32
  0
VERTEX
  5
933C
  8
AM_0
 10
505.68658572547429
 20
91.286791561235631
 30
0.0
 70
    32
  0
VERTEX
  5
933D
  8
AM_0
 10
505.69058572547431
 20
91.286491561234783
 30
0.0
 70
    32
  0
VERTEX
  5
933E
  8
AM_0
 10
505.69458572547438
 20
91.286091561235807
 30
0.0
 70
    32
  0
VERTEX
  5
933F
  8
AM_0
 10
505.69958572547432
 20
91.285691561235694
 30
0.0
 70
    32
  0
VERTEX
  5
9340
  8
AM_0
 10
505.7035857254744
 20
91.285291561235795
 30
0.0
 70
    32
  0
VERTEX
  5
9341
  8
AM_0
 10
505.70758572547419
 20
91.284991561235657
 30
0.0
 70
    32
  0
VERTEX
  5
9342
  8
AM_0
 10
505.71258572547441
 20
91.284591561235715
 30
0.0
 70
    32
  0
VERTEX
  5
9343
  8
AM_0
 10
505.71658572547432
 20
91.284191561234707
 30
0.0
 70
    32
  0
VERTEX
  5
9344
  8
AM_0
 10
505.72058572547422
 20
91.283891561235691
 30
0.0
 70
    32
  0
VERTEX
  5
9345
  8
AM_0
 10
505.72558572547439
 20
91.283491561236701
 30
0.0
 70
    32
  0
VERTEX
  5
9346
  8
AM_0
 10
505.72958572547418
 20
91.283191561235654
 30
0.0
 70
    32
  0
VERTEX
  5
9347
  8
AM_0
 10
505.73358572547431
 20
91.282891561234806
 30
0.0
 70
    32
  0
VERTEX
  5
9348
  8
AM_0
 10
505.73858572547419
 20
91.282491561234906
 30
0.0
 70
    32
  0
VERTEX
  5
9349
  8
AM_0
 10
505.74258572547433
 20
91.282191561235663
 30
0.0
 70
    32
  0
VERTEX
  5
934A
  8
AM_0
 10
505.74658572547429
 20
91.28189156123571
 30
0.0
 70
    32
  0
VERTEX
  5
934B
  8
AM_0
 10
505.7515857254744
 20
91.281591561236723
 30
0.0
 70
    32
  0
VERTEX
  5
934C
  8
AM_0
 10
505.7555857254743
 20
91.281191561235701
 30
0.0
 70
    32
  0
VERTEX
  5
934D
  8
AM_0
 10
505.75958572547449
 20
91.280891561234839
 30
0.0
 70
    32
  0
VERTEX
  5
934E
  8
AM_0
 10
505.76458572547432
 20
91.280591561234701
 30
0.0
 70
    32
  0
VERTEX
  5
934F
  8
AM_0
 10
505.7685857254744
 20
91.2802915612357
 30
0.0
 70
    32
  0
VERTEX
  5
9350
  8
AM_0
 10
505.77258572547441
 20
91.279991561235775
 30
0.0
 70
    32
  0
VERTEX
  5
9351
  8
AM_0
 10
505.77758572547441
 20
91.279691561234685
 30
0.0
 70
    32
  0
VERTEX
  5
9352
  8
AM_0
 10
505.78158572547437
 20
91.279391561235698
 30
0.0
 70
    32
  0
VERTEX
  5
9353
  8
AM_0
 10
505.78558572547428
 20
91.279091561234836
 30
0.0
 70
    32
  0
VERTEX
  5
9354
  8
AM_0
 10
505.79058572547439
 20
91.278791561234684
 30
0.0
 70
    32
  0
VERTEX
  5
9355
  8
AM_0
 10
505.79458572547418
 20
91.278591561235643
 30
0.0
 70
    32
  0
VERTEX
  5
9356
  8
AM_0
 10
505.79858572547442
 20
91.278291561235719
 30
0.0
 70
    32
  0
VERTEX
  5
9357
  8
AM_0
 10
505.80358572547431
 20
91.277991561235794
 30
0.0
 70
    32
  0
VERTEX
  5
9358
  8
AM_0
 10
505.80758572547421
 20
91.277691561235642
 30
0.0
 70
    32
  0
VERTEX
  5
9359
  8
AM_0
 10
505.8115857254744
 20
91.277491561234797
 30
0.0
 70
    32
  0
VERTEX
  5
935A
  8
AM_0
 10
505.81658572547423
 20
91.277191561234886
 30
0.0
 70
    32
  0
VERTEX
  5
935B
  8
AM_0
 10
505.82058572547442
 20
91.276991561234667
 30
0.0
 70
    32
  0
VERTEX
  5
935C
  8
AM_0
 10
505.82458572547432
 20
91.276691561235694
 30
0.0
 70
    32
  0
VERTEX
  5
935D
  8
AM_0
 10
505.82958572547432
 20
91.276491561235716
 30
0.0
 70
    32
  0
VERTEX
  5
935E
  8
AM_0
 10
505.83358572547428
 20
91.276191561235791
 30
0.0
 70
    32
  0
VERTEX
  5
935F
  8
AM_0
 10
505.83758572547441
 20
91.275991561235614
 30
0.0
 70
    32
  0
VERTEX
  5
9360
  8
AM_0
 10
505.84258572547429
 20
91.275691561235675
 30
0.0
 70
    32
  0
VERTEX
  5
9361
  8
AM_0
 10
505.84658572547443
 20
91.275491561234844
 30
0.0
 70
    32
  0
VERTEX
  5
9362
  8
AM_0
 10
505.85058572547428
 20
91.275291561236727
 30
0.0
 70
    32
  0
VERTEX
  5
9363
  8
AM_0
 10
505.85558572547433
 20
91.275091561235612
 30
0.0
 70
    32
  0
VERTEX
  5
9364
  8
AM_0
 10
505.8595857254744
 20
91.274791561234792
 30
0.0
 70
    32
  0
VERTEX
  5
9365
  8
AM_0
 10
505.86358572547431
 20
91.274591561235766
 30
0.0
 70
    32
  0
VERTEX
  5
9366
  8
AM_0
 10
505.86858572547442
 20
91.274391561236726
 30
0.0
 70
    32
  0
VERTEX
  5
9367
  8
AM_0
 10
505.87258572547432
 20
91.274191561235625
 30
0.0
 70
    32
  0
VERTEX
  5
9368
  8
AM_0
 10
505.87658572547429
 20
91.27399156123569
 30
0.0
 70
    32
  0
VERTEX
  5
9369
  8
AM_0
 10
505.88158572547428
 20
91.273791561235726
 30
0.0
 70
    32
  0
VERTEX
  5
936A
  8
AM_0
 10
505.88558572547419
 20
91.273591561234852
 30
0.0
 70
    32
  0
VERTEX
  5
936B
  8
AM_0
 10
505.88958572547438
 20
91.273391561236735
 30
0.0
 70
    32
  0
VERTEX
  5
936C
  8
AM_0
 10
505.89458572547409
 20
91.273191561235663
 30
0.0
 70
    32
  0
VERTEX
  5
936D
  8
AM_0
 10
505.89858572547439
 20
91.272991561234804
 30
0.0
 70
    32
  0
VERTEX
  5
936E
  8
AM_0
 10
505.90258572547441
 20
91.272791561235763
 30
0.0
 70
    32
  0
VERTEX
  5
936F
  8
AM_0
 10
505.90758572547441
 20
91.272591561234876
 30
0.0
 70
    32
  0
VERTEX
  5
9370
  8
AM_0
 10
505.91158572547442
 20
91.272391561235636
 30
0.0
 70
    32
  0
VERTEX
  5
9371
  8
AM_0
 10
505.91558572547439
 20
91.272291561235633
 30
0.0
 70
    32
  0
VERTEX
  5
9372
  8
AM_0
 10
505.92058572547433
 20
91.272091561234774
 30
0.0
 70
    32
  0
VERTEX
  5
9373
  8
AM_0
 10
505.9245857254744
 20
91.271891561235734
 30
0.0
 70
    32
  0
VERTEX
  5
9374
  8
AM_0
 10
505.92958572547428
 20
91.271791561236682
 30
0.0
 70
    32
  0
VERTEX
  5
9375
  8
AM_0
 10
505.93358572547442
 20
91.271591561235795
 30
0.0
 70
    32
  0
VERTEX
  5
9376
  8
AM_0
 10
505.93758572547421
 20
91.271391561235632
 30
0.0
 70
    32
  0
VERTEX
  5
9377
  8
AM_0
 10
505.94258572547432
 20
91.271291561235714
 30
0.0
 70
    32
  0
VERTEX
  5
9378
  8
AM_0
 10
505.94658572547428
 20
91.271091561235693
 30
0.0
 70
    32
  0
VERTEX
  5
9379
  8
AM_0
 10
505.9505857254743
 20
91.270991561234837
 30
0.0
 70
    32
  0
VERTEX
  5
937A
  8
AM_0
 10
505.95558572547441
 20
91.270791561235797
 30
0.0
 70
    32
  0
VERTEX
  5
937B
  8
AM_0
 10
505.95958572547431
 20
91.270691561234912
 30
0.0
 70
    32
  0
VERTEX
  5
937C
  8
AM_0
 10
505.96358572547439
 20
91.270591561235619
 30
0.0
 70
    32
  0
VERTEX
  5
937D
  8
AM_0
 10
505.96858572547433
 20
91.270391561235698
 30
0.0
 70
    32
  0
VERTEX
  5
937E
  8
AM_0
 10
505.9725857254744
 20
91.270291561234785
 30
0.0
 70
    32
  0
VERTEX
  5
937F
  8
AM_0
 10
505.97658572547442
 20
91.270191561236857
 30
0.0
 70
    32
  0
VERTEX
  5
9380
  8
AM_0
 10
505.98158572547442
 20
91.270091561234835
 30
0.0
 70
    32
  0
VERTEX
  5
9381
  8
AM_0
 10
505.98558572547438
 20
91.26999156123577
 30
0.0
 70
    32
  0
VERTEX
  5
9382
  8
AM_0
 10
505.9895857254744
 20
91.269891561236705
 30
0.0
 70
    32
  0
VERTEX
  5
9383
  8
AM_0
 10
505.99458572547439
 20
91.269691561235618
 30
0.0
 70
    32
  0
VERTEX
  5
9384
  8
AM_0
 10
505.99858572547441
 20
91.269591561235643
 30
0.0
 70
    32
  0
VERTEX
  5
9385
  8
AM_0
 10
506.00258572547438
 20
91.269491561235697
 30
0.0
 70
    32
  0
VERTEX
  5
9386
  8
AM_0
 10
506.00758572547431
 20
91.269391561234784
 30
0.0
 70
    32
  0
VERTEX
  5
9387
  8
AM_0
 10
506.01158572547439
 20
91.269391561234784
 30
0.0
 70
    32
  0
VERTEX
  5
9388
  8
AM_0
 10
506.01558572547418
 20
91.26929156123569
 30
0.0
 70
    32
  0
VERTEX
  5
9389
  8
AM_0
 10
506.0205857254744
 20
91.269191561234834
 30
0.0
 70
    32
  0
VERTEX
  5
938A
  8
AM_0
 10
506.0245857254742
 20
91.269091561234859
 30
0.0
 70
    32
  0
VERTEX
  5
938B
  8
AM_0
 10
506.02858572547427
 20
91.268991561235794
 30
0.0
 70
    32
  0
VERTEX
  5
938C
  8
AM_0
 10
506.03358572547421
 20
91.268991561235794
 30
0.0
 70
    32
  0
VERTEX
  5
938D
  8
AM_0
 10
506.03758572547429
 20
91.268891561235804
 30
0.0
 70
    32
  0
VERTEX
  5
938E
  8
AM_0
 10
506.04158572547442
 20
91.268791561234707
 30
0.0
 70
    32
  0
VERTEX
  5
938F
  8
AM_0
 10
506.0465857254743
 20
91.268791561234707
 30
0.0
 70
    32
  0
VERTEX
  5
9390
  8
AM_0
 10
506.05058572547432
 20
91.268691561235642
 30
0.0
 70
    32
  0
VERTEX
  5
9391
  8
AM_0
 10
506.05558572547432
 20
91.268591561235652
 30
0.0
 70
    32
  0
VERTEX
  5
9392
  8
AM_0
 10
506.05958572547428
 20
91.268591561235652
 30
0.0
 70
    32
  0
VERTEX
  5
9393
  8
AM_0
 10
506.06358572547441
 20
91.268491561234782
 30
0.0
 70
    32
  0
VERTEX
  5
9394
  8
AM_0
 10
506.06858572547441
 20
91.268491561234782
 30
0.0
 70
    32
  0
VERTEX
  5
9395
  8
AM_0
 10
506.07258572547443
 20
91.268391561235717
 30
0.0
 70
    32
  0
VERTEX
  5
9396
  8
AM_0
 10
506.07658572547439
 20
91.268391561235717
 30
0.0
 70
    32
  0
VERTEX
  5
9397
  8
AM_0
 10
506.08158572547438
 20
91.268291561236921
 30
0.0
 70
    32
  0
VERTEX
  5
9398
  8
AM_0
 10
506.0855857254744
 20
91.268291561236921
 30
0.0
 70
    32
  0
VERTEX
  5
9399
  8
AM_0
 10
506.08958572547442
 20
91.268191561234843
 30
0.0
 70
    32
  0
VERTEX
  5
939A
  8
AM_0
 10
506.09458572547442
 20
91.268191561234843
 30
0.0
 70
    32
  0
VERTEX
  5
939B
  8
AM_0
 10
506.09858572547438
 20
91.268191561234843
 30
0.0
 70
    32
  0
VERTEX
  5
939C
  8
AM_0
 10
506.10258572547428
 20
91.268091561235792
 30
0.0
 70
    32
  0
VERTEX
  5
939D
  8
AM_0
 10
506.10758572547439
 20
91.268091561235792
 30
0.0
 70
    32
  0
VERTEX
  5
939E
  8
AM_0
 10
506.11158572547419
 20
91.267991561236727
 30
0.0
 70
    32
  0
VERTEX
  5
939F
  8
AM_0
 10
506.11558572547432
 20
91.267991561236727
 30
0.0
 70
    32
  0
VERTEX
  5
93A0
  8
AM_0
 10
506.1205857254742
 20
91.267991561236727
 30
0.0
 70
    32
  0
VERTEX
  5
93A1
  8
AM_0
 10
506.12458572547428
 20
91.267891561235601
 30
0.0
 70
    32
  0
SEQEND
  5
93A2
  8
AM_0
  0
LINE
  5
93A3
  8
AM_0
 10
515.12466079054855
 20
91.267925239175725
 30
0.0
 11
506.12463279054822
 21
91.267925239175725
 31
0.0
  0
ARC
  5
93A4
  8
AM_0
 10
506.12463279054822
 20
83.498076758192724
 30
0.0
 40
2.5
 50
180.0
 51
270.0
  0
LINE
  5
93A5
  8
AM_0
 10
503.62463279054839
 20
79.398076758193724
 30
0.0
 11
503.62463279054839
 21
83.498076758192724
 31
0.0
  0
ARC
  5
93A6
  8
AM_0
 10
504.12463279054839
 20
79.398076758193724
 30
0.0
 40
0.5
 50
180.0
 51
270.0
  0
LINE
  5
93A7
  8
AM_0
 10
506.12463279054822
 20
80.998076758192724
 30
0.0
 11
515.23468452488817
 21
80.998076758192695
 31
0.0
  0
LINE
  5
93AB
  8
AM_0
 10
21.271755790548578
 20
83.22804875819223
 30
0.0
 11
21.271755790548578
 21
149.42803475819221
 31
0.0
  0
LINE
  5
93AC
  8
AM_0
 10
23.7717457905486
 20
90.918053758192201
 30
0.0
 11
23.7717457905486
 21
171.8980797581919
 31
0.0
  0
LINE
  5
93AD
  8
AM_0
 10
71.27176579054867
 20
171.8980797581919
 30
0.0
 11
71.27176579054867
 21
57.898061758195141
 31
0.0
  0
ARC
  5
93AE
  8
AM_0
 10
14.98213579054862
 20
65.597006758193174
 30
0.0
 40
0.30119199
 50
5.9148297999953741
 51
88.175987000000418
  0
ARC
  5
93AF
  8
AM_0
 10
14.98360579054866
 20
65.595710758192126
 30
0.0
 40
0.8023920299999998
 50
5.8908350000065264
 51
89.417558000000042
  0
LINE
  5
93B0
  8
AM_0
 10
14.77174579054866
 20
66.398048758193212
 30
0.0
 11
14.77174579054866
 21
65.898062758192282
 31
0.0
  0
LINE
  5
93B1
  8
AM_0
 10
14.77174579054866
 20
66.398048758193212
 30
0.0
 11
14.991795790548499
 21
66.398048758193212
 31
0.0
  0
LINE
  5
93B2
  8
AM_0
 10
30.35176579054859
 20
111.1780617581921
 30
0.0
 11
15.891765790548609
 21
66.668051758192163
 31
0.0
  0
LINE
  5
93B3
  8
AM_0
 10
35.111715790548601
 20
109.6380537581921
 30
0.0
 11
20.651775790548811
 21
65.12805875819322
 31
0.0
  0
LINE
  5
93B4
  8
AM_0
 10
23.7717457905486
 20
71.008049758192087
 30
0.0
 11
71.27176579054867
 21
71.008049758192087
 31
0.0
  0
LINE
  5
93B5
  8
AM_0
 10
23.27176579054867
 20
57.898061758195141
 30
0.0
 11
71.27176579054867
 21
57.898061758195141
 31
0.0
  0
ARC
  5
93B6
  8
AM_0
 10
18.271755790548571
 20
65.898062758192282
 30
0.0
 40
2.5014601500000002
 50
162.07208000000421
 51
342.07206999999869
  0
LINE
  5
93B7
  8
AM_0
 10
21.271755790548578
 20
67.048055758192277
 30
0.0
 11
21.271755790548578
 21
59.898062758193191
 31
0.0
  0
ARC
  5
93B8
  8
AM_0
 10
18.270705790548611
 20
65.896520758192082
 30
0.0
 40
3.001016099999998
 50
185.13260000000409
 51
0.0291460010064174
  0
ARC
  5
93B9
  8
AM_0
 10
23.269485790548622
 20
59.895743758192111
 30
0.0
 40
1.9976960999999991
 50
179.9338299999965
 51
270.06616999999687
  0
ARC
  5
93BA
  8
AM_0
 10
21.320475790548581
 20
77.39797175819217
 30
0.0
 40
4.0507442999999981
 50
99.071790999998854
 51
224.91234000000031
  0
LINE
  5
93BB
  8
AM_0
 10
23.7717457905486
 20
74.738045758192143
 30
0.0
 11
23.7717457905486
 21
57.898061758195141
 31
0.0
  0
ARC
  5
93BC
  8
AM_0
 10
54.2712757905486
 20
114.8978517581922
 30
0.0
 40
8.000195699999999
 50
89.996300999997729
 51
161.78902999999599
  0
ARC
  5
93BD
  8
AM_0
 10
54.269325790548677
 20
114.8956227581922
 30
0.0
 40
7.9975721999999978
 50
198.1973499999981
 51
270.0173099999991
  0
LINE
  5
93BE
  8
AM_0
 10
38.921715790548603
 20
117.3980337581922
 30
0.0
 11
48.771765790548613
 21
117.3980337581922
 31
0.0
  0
LINE
  5
93BF
  8
AM_0
 10
38.921715790548603
 20
112.3980657581921
 30
0.0
 11
48.771765790548613
 21
112.3980657581921
 31
0.0
  0
ARC
  5
93C0
  8
AM_0
 10
38.919525790548491
 20
108.4009647581922
 30
0.0
 40
8.9970875999999986
 50
89.985774999998554
 51
162.0211999999965
  0
ARC
  5
93C1
  8
AM_0
 10
38.914995790548687
 20
108.39766775819309
 30
0.0
 40
4.0003919999999971
 50
89.903054999997906
 51
161.93678999999389
  0
LINE
  5
93C2
  8
ﾁｭｳｼﾝｾﾝ
 10
54.271755790548688
 20
102.6880667581917
 30
0.0
 11
54.271755790548688
 21
127.1080627581928
 31
0.0
  0
LINE
  5
93C3
  8
AM_0
 10
54.271755790548688
 20
106.8980337581922
 30
0.0
 11
71.27176579054867
 21
106.8980337581922
 31
0.0
  0
LINE
  5
93C4
  8
AM_0
 10
54.271755790548688
 20
122.8980657581933
 30
0.0
 11
71.27176579054867
 21
122.8980657581933
 31
0.0
  0
ARC
  5
93C5
  8
AM_0
 10
54.271755790548688
 20
114.8960517581922
 30
0.0
 40
4.998440399999998
 50
23.610999000007052
 51
156.3889999999995
  0
ARC
  5
93C6
  8
AM_0
 10
54.271755790548688
 20
114.8960517581922
 30
0.0
 40
4.9968401999999967
 50
203.56897999999919
 51
336.43102000000079
  0
LINE
  5
93C7
  8
AM_0
 10
48.771765790548613
 20
116.8980657581933
 30
0.0
 11
59.7717457905486
 21
116.8980657581933
 31
0.0
  0
LINE
  5
93C8
  8
AM_0
 10
48.771765790548613
 20
112.8980337581922
 30
0.0
 11
59.7717457905486
 21
112.8980337581922
 31
0.0
  0
LINE
  5
93C9
  8
AM_0
 10
48.771765790548613
 20
112.3980657581921
 30
0.0
 11
48.771765790548613
 21
117.3980337581922
 31
0.0
  0
LINE
  5
93CA
  8
AM_0
 10
62.27176579054867
 20
112.3980657581921
 30
0.0
 11
62.27176579054867
 21
117.3980337581922
 31
0.0
  0
LINE
  5
93CB
  8
AM_0
 10
59.7717457905486
 20
112.3980657581921
 30
0.0
 11
59.7717457905486
 21
117.3980337581922
 31
0.0
  0
LINE
  5
93CC
  8
AM_0
 10
59.7717457905486
 20
117.3980337581922
 30
0.0
 11
62.27176579054867
 21
117.3980337581922
 31
0.0
  0
LINE
  5
93CD
  8
AM_0
 10
59.7717457905486
 20
112.3980657581921
 30
0.0
 11
62.27176579054867
 21
112.3980657581921
 31
0.0
  0
LINE
  5
93CE
  8
AM_0
 10
23.7717457905486
 20
158.7880497581925
 30
0.0
 11
71.27176579054867
 21
158.7880497581925
 31
0.0
  0
LINE
  5
93CF
  8
AM_0
 10
23.7717457905486
 20
148.5380487581925
 30
0.0
 11
66.271755790548582
 21
148.5380487581925
 31
0.0
  0
LINE
  5
93D0
  8
AM_0
 10
23.27176579054867
 20
171.8980797581919
 30
0.0
 11
71.27176579054867
 21
171.8980797581919
 31
0.0
  0
LINE
  5
93D1
  8
AM_0
 10
22.47175579054851
 20
149.18807375819239
 30
0.0
 11
22.47175579054851
 21
158.38805975819261
 31
0.0
  0
LINE
  5
93D2
  8
AM_0
 10
19.17178579054859
 20
152.2880397581927
 30
0.0
 11
19.17178579054859
 21
155.2880397581925
 31
0.0
  0
LINE
  5
93D3
  8
AM_0
 10
22.47175579054851
 20
149.18807375819239
 30
0.0
 11
23.7717457905486
 21
149.18807375819239
 31
0.0
  0
ARC
  5
93D4
  8
AM_0
 10
22.16743579054889
 20
152.2882197581925
 30
0.0
 40
2.9956880400000001
 50
180.00364000000391
 51
275.83037000000252
  0
LINE
  5
93D5
  8
AM_0
 10
21.271755790548578
 20
158.15804975819199
 30
0.0
 11
21.271755790548578
 21
169.8980397581922
 31
0.0
  0
LINE
  5
93D6
  8
AM_0
 10
22.47175579054851
 20
158.38805975819261
 30
0.0
 11
23.7717457905486
 21
158.38805975819261
 31
0.0
  0
ARC
  5
93D7
  8
AM_0
 10
22.173435790548691
 20
155.29124975819241
 30
0.0
 40
3.0016479
 50
84.295613000003087
 51
180.06134999999779
  0
ARC
  5
93D8
  8
AM_0
 10
23.2712557905487
 20
169.89854975819199
 30
0.0
 40
1.9994960399999999
 50
89.985542999997904
 51
180.01446000000641
  0
LINE
  5
93D9
  8
AM_0
 10
66.271755790548582
 20
122.8980657581933
 30
0.0
 11
66.271755790548582
 21
171.8980797581919
 31
0.0
  0
LINE
  5
93DA
  8
AM_0
 10
66.271755790548582
 20
71.008049758192087
 30
0.0
 11
66.271755790548582
 21
57.898061758195141
 31
0.0
  0
LINE
  5
93DE
  8
ﾁｭｳｼﾝｾﾝ
 10
540.09593666478111
 20
180.62677888396101
 30
0.0
 11
523.12537391631713
 21
197.5973416324251
 31
0.0
  0
ARC
  5
93DF
  8
ﾁｭｳｼﾝｾﾝ
 10
607.62463279054839
 20
113.0980767581932
 30
0.0
 40
107.5000109999999
 50
128.60085690611911
 51
141.39912274254451
  0
LINE
  5
93E0
  8
ﾁｭｳｼﾝｾﾝ
 10
540.09593066478055
 20
45.569380632425997
 30
0.0
 11
523.12536791631658
 21
28.59881788396185
 31
0.0
  0
ARC
  5
93E1
  8
ﾁｭｳｼﾝｾﾝ
 10
607.6246327905485
 20
113.0980767581932
 30
0.0
 40
107.5000109999999
 50
218.60085690611911
 51
231.39912274254439
  0
LINE
  5
93E2
  8
ﾁｭｳｼﾝｾﾝ
 10
675.15332891631533
 20
45.569374632425252
 30
0.0
 11
692.12389166477965
 21
28.598811883961162
 31
0.0
  0
ARC
  5
93E3
  8
ﾁｭｳｼﾝｾﾝ
 10
607.62463279054839
 20
113.0980767581932
 30
0.0
 40
107.5000109999999
 50
308.60085690611908
 51
321.39912274254442
  0
LINE
  5
9620
  8
AM_0
 10
386.2717657905485
 20
400.07335225428039
 30
0.0
 11
428.27173579054841
 21
400.07335225428039
 31
0.0
  0
LINE
  5
9621
  8
AM_0
 10
386.2717657905485
 20
372.07335225428062
 30
0.0
 11
428.27173579054841
 21
372.07335225428062
 31
0.0
  0
LINE
  5
9623
  8
ﾁｭｳｼﾝｾﾝ
 10
10.0937453290628
 20
386.07332225428053
 30
0.0
 11
434.42459579054861
 21
386.07332225428053
 31
0.0
  0
POLYLINE
  5
9796
  8
AM_0
 66
     1
 10
0.0
 20
0.0
 30
0.0
  0
VERTEX
  5
9797
  8
AM_0
 10
369.18482579054847
 20
470.48631225428062
 30
0.0
 42
0.081985852
  0
VERTEX
  5
9798
  8
AM_0
 10
347.06893579054838
 20
415.5746322542804
 30
0.0
 42
0.10914194
  0
VERTEX
  5
9799
  8
AM_0
 10
347.06902579054838
 20
356.57162225428038
 30
0.0
 42
0.081985219
  0
VERTEX
  5
979A
  8
AM_0
 10
369.18482579054847
 20
301.66032225428052
 30
0.0
  0
SEQEND
  5
979B
  8
AM_0
  0
ARC
  5
979C
  8
AM_0
 10
251.77170579054851
 20
380.07332225428041
 30
0.0
 40
3.0
 50
0.0
 51
90.000003000000945
  0
ARC
  5
979D
  8
AM_0
 10
218.27170579054851
 20
380.07332225428041
 30
0.0
 40
3.0
 50
90.000003000000945
 51
180.00001000000091
  0
LINE
  5
979E
  8
AM_0
 10
386.27179579054848
 20
471.07332225428041
 30
0.0
 11
386.27179579054848
 21
301.07332225428041
 31
0.0
  0
LINE
  5
979F
  8
AM_0
 10
372.2717657905485
 20
295.85393225428061
 30
0.0
 11
372.2717657905485
 21
476.29271225428062
 31
0.0
  0
LINE
  5
97A0
  8
AM_0
 10
376.2717657905485
 20
315.5733222542803
 30
0.0
 11
376.2717657905485
 21
456.24562225428042
 31
0.0
  0
LINE
  5
97A1
  8
AM_0
 10
382.2717657905485
 20
293.57332225428053
 30
0.0
 11
382.2717657905485
 21
478.57332225428053
 31
0.0
  0
LINE
  5
97A4
  8
AM_0
 10
215.2717057905484
 20
333.51701225428047
 30
0.0
 11
215.2717057905484
 21
438.62962225428032
 31
0.0
  0
LINE
  5
97A5
  8
AM_0
 10
195.2717057905484
 20
330.07332225428053
 30
0.0
 11
195.2717057905484
 21
442.07332225428041
 31
0.0
  0
LINE
  5
97A6
  8
AM_0
 10
254.77170579054871
 20
325.5733222542803
 30
0.0
 11
254.77170579054871
 21
446.57332225428041
 31
0.0
  0
LINE
  5
97A7
  8
AM_0
 10
263.7717657905485
 20
322.57332225428053
 30
0.0
 11
263.7717657905485
 21
449.57332225428053
 31
0.0
  0
LINE
  5
97A8
  8
AM_0
 10
300.27173579054852
 20
314.98314225428061
 30
0.0
 11
300.27173579054852
 21
457.1635022542801
 31
0.0
  0
LINE
  5
97A9
  8
AM_0
 10
290.2717657905485
 20
309.24446225428068
 30
0.0
 11
290.2717657905485
 21
462.9021822542806
 31
0.0
  0
LINE
  5
97AA
  8
AM_0
 10
307.2717657905485
 20
303.82237225428048
 30
0.0
 11
307.2717657905485
 21
468.32427225428052
 31
0.0
  0
LINE
  5
97AB
  8
AM_0
 10
263.7717657905485
 20
334.03331225428047
 30
0.0
 11
290.27173579054852
 21
334.03331225428047
 31
0.0
  0
LINE
  5
97AC
  8
AM_0
 10
263.7717657905485
 20
348.92540225428053
 30
0.0
 11
290.27173579054852
 21
348.92540225428053
 31
0.0
  0
LINE
  5
97AD
  8
AM_0
 10
263.77179579054848
 20
322.57332225428053
 30
0.0
 11
287.37647579054851
 21
321.74904225428048
 31
0.0
  0
ARC
  5
97C7
  8
AM_0
 10
211.2717057905484
 20
333.51701225428047
 30
0.0
 40
4.0
 50
267.9999999999996
 51
0.0000006832462478
  0
LINE
  5
97C8
  8
AM_0
 10
195.2717057905484
 20
354.11165225428061
 30
0.0
 11
215.2717057905484
 21
354.11165225428061
 31
0.0
  0
LINE
  5
97C9
  8
AM_0
 10
195.2717057905484
 20
340.07301225428051
 30
0.0
 11
215.2717057905484
 21
340.07301225428051
 31
0.0
  0
LINE
  5
97CA
  8
AM_0
 10
195.2717057905484
 20
330.07335225428062
 30
0.0
 11
251.89530579054849
 21
328.09599225428047
 31
0.0
  0
ARC
  5
97FC
  8
AM_0
 10
257.77170579054871
 20
325.5733222542803
 30
0.0
 40
3.0
 50
180.00001000000091
 51
270.0
  0
LINE
  5
97FD
  8
AM_0
 10
263.77179579054848
 20
322.57332225428053
 30
0.0
 11
257.77170579054871
 21
322.57332225428053
 31
0.0
  0
LINE
  5
97FE
  8
AM_0
 10
263.7717657905485
 20
334.03331225428047
 30
0.0
 11
254.77170579054871
 21
334.03331225428047
 31
0.0
  0
ARC
  5
97FF
  8
AM_0
 10
251.79059579054839
 20
325.09782225428052
 30
0.0
 40
3.0
 50
4.545488300001014
 51
87.999999999999659
  0
LINE
  5
9800
  8
AM_0
 10
263.7717657905485
 20
348.92540225428053
 30
0.0
 11
254.77170579054871
 21
348.92540225428053
 31
0.0
  0
LINE
  5
9801
  8
AM_0
 10
367.21646579054851
 20
301.72905225428048
 30
0.0
 11
307.2717657905485
 21
303.82237225428048
 31
0.0
  0
ARC
  5
9802
  8
AM_0
 10
374.27179579054848
 20
295.85393225428061
 30
0.0
 40
2.0
 50
179.99998999999889
 51
268.00000999999861
  0
ARC
  5
9803
  8
AM_0
 10
367.04196579054849
 20
296.73210225428062
 30
0.0
 40
5.0
 50
45.000000999999187
 51
87.999999999999659
  0
LINE
  5
9804
  8
AM_0
 10
370.57752579054852
 20
300.2676222542803
 30
0.0
 11
372.27179579054842
 21
298.57335225428062
 31
0.0
  0
LINE
  5
9805
  8
AM_0
 10
374.20200579054841
 20
293.85512225428027
 30
0.0
 11
382.27173579054852
 21
293.57332225428053
 31
0.0
  0
LINE
  5
9806
  8
AM_0
 10
382.2717657905485
 20
301.07332225428041
 30
0.0
 11
386.27179579054848
 21
301.07332225428041
 31
0.0
  0
LINE
  5
9807
  8
AM_0
 10
290.2717657905485
 20
326.7648222542806
 30
0.0
 11
300.27173579054852
 21
326.7648222542806
 31
0.0
  0
LINE
  5
9808
  8
AM_0
 10
307.2717657905485
 20
303.82237225428048
 30
0.0
 11
295.09726579054842
 21
304.24751225428042
 31
0.0
  0
ARC
  5
9809
  8
AM_0
 10
295.27176579054839
 20
309.24446225428068
 30
0.0
 40
5.0
 50
180.00001000000091
 51
267.9999999999996
  0
ARC
  5
980A
  8
AM_0
 10
287.2717657905485
 20
318.75084225428049
 30
0.0
 40
3.0
 50
0.0
 51
87.999999999999659
  0
ARC
  5
980B
  8
AM_0
 10
373.2717657905485
 20
315.90102225428052
 30
0.0
 40
3.0
 50
267.9999999999996
 51
0.0
  0
ARC
  5
980C
  8
AM_0
 10
375.2717657905485
 20
334.94808225428051
 30
0.0
 40
3.0
 50
90.000003000000945
 51
180.00001000000091
  0
LINE
  5
980D
  8
AM_0
 10
263.77179579054848
 20
449.57332225428053
 30
0.0
 11
287.37647579054851
 21
450.39763225428061
 31
0.0
  0
LINE
  5
980E
  8
AM_0
 10
263.7717657905485
 20
423.22124225428041
 30
0.0
 11
290.27173579054852
 21
423.22124225428041
 31
0.0
  0
LINE
  5
980F
  8
AM_0
 10
263.7717657905485
 20
438.11333225428052
 30
0.0
 11
290.27173579054852
 21
438.11333225428052
 31
0.0
  0
ARC
  5
9810
  8
AM_0
 10
211.2717057905484
 20
438.62962225428032
 30
0.0
 40
4.0
 50
0.0
 51
91.999998000000545
  0
LINE
  5
9811
  8
AM_0
 10
195.2717057905484
 20
418.03499225428061
 30
0.0
 11
215.2717057905484
 21
418.03499225428061
 31
0.0
  0
LINE
  5
9812
  8
AM_0
 10
195.2717057905484
 20
432.07362225428028
 30
0.0
 11
215.2717057905484
 21
432.07362225428028
 31
0.0
  0
LINE
  5
9813
  8
AM_0
 10
251.89526579054839
 20
444.0506422542806
 30
0.0
 11
195.2717057905484
 21
442.07332225428041
 31
0.0
  0
LINE
  5
9832
  8
AM_0
 10
218.27170579054851
 20
389.07332225428041
 30
0.0
 11
251.77170579054851
 21
389.07332225428041
 31
0.0
  0
LINE
  5
9833
  8
AM_0
 10
218.27170579054851
 20
383.07332225428053
 30
0.0
 11
251.77170579054851
 21
383.07332225428053
 31
0.0
  0
ARC
  5
9834
  8
AM_0
 10
218.27170579054851
 20
392.07332225428053
 30
0.0
 40
3.0
 50
180.00001000000091
 51
270.0
  0
ARC
  5
9835
  8
AM_0
 10
251.77170579054851
 20
392.07332225428053
 30
0.0
 40
3.0
 50
270.0
 51
0.0
  0
LINE
  5
9836
  8
AM_0
 10
263.7717657905485
 20
438.11333225428052
 30
0.0
 11
254.77170579054871
 21
438.11333225428052
 31
0.0
  0
LINE
  5
9837
  8
AM_0
 10
263.7717657905485
 20
423.22124225428041
 30
0.0
 11
254.77170579054871
 21
423.22124225428041
 31
0.0
  0
ARC
  5
9838
  8
AM_0
 10
257.77170579054871
 20
446.57332225428041
 30
0.0
 40
3.0
 50
90.000003000000945
 51
180.00001000000091
  0
ARC
  5
9839
  8
AM_0
 10
251.79059579054839
 20
447.04881225428062
 30
0.0
 40
3.0
 50
272.0000000000004
 51
355.45443000000142
  0
LINE
  5
983A
  8
AM_0
 10
263.7717657905485
 20
449.57332225428053
 30
0.0
 11
257.77170579054871
 21
449.57332225428053
 31
0.0
  0
LINE
  5
983B
  8
AM_0
 10
290.2717657905485
 20
445.38182225428028
 30
0.0
 11
300.27173579054852
 21
445.38182225428028
 31
0.0
  0
ARC
  5
983C
  8
AM_0
 10
287.2717657905485
 20
453.3958022542804
 30
0.0
 40
3.0
 50
272.0000000000004
 51
0.0
  0
ARC
  5
983D
  8
AM_0
 10
375.2717657905485
 20
437.1985622542806
 30
0.0
 40
3.0
 50
179.99998999999889
 51
270.0
  0
ARC
  5
983E
  8
AM_0
 10
373.2717657905485
 20
456.24562225428042
 30
0.0
 40
3.0
 50
0.0
 51
91.999998000000545
  0
LINE
  5
983F
  8
AM_0
 10
367.21646579054851
 20
470.41759225428052
 30
0.0
 11
307.2717657905485
 21
468.3243022542805
 31
0.0
  0
LINE
  5
9840
  8
AM_0
 10
307.2717657905485
 20
468.3243022542805
 30
0.0
 11
295.09726579054842
 21
467.89916225428021
 31
0.0
  0
ARC
  5
9841
  8
AM_0
 10
295.27176579054839
 20
462.9021822542806
 30
0.0
 40
5.0
 50
91.999998000000545
 51
180.00001000000091
  0
ARC
  5
9842
  8
AM_0
 10
374.27179579054848
 20
476.29271225428062
 30
0.0
 40
2.0
 50
91.999998000000545
 51
180.00001000000091
  0
LINE
  5
9843
  8
AM_0
 10
370.57752579054852
 20
471.8789822542804
 30
0.0
 11
372.27182579054841
 21
473.57326225428062
 31
0.0
  0
ARC
  5
9844
  8
AM_0
 10
367.04196579054849
 20
475.4145422542806
 30
0.0
 40
5.0
 50
272.0000000000004
 51
315.0
  0
LINE
  5
9845
  8
AM_0
 10
382.2717657905485
 20
471.07332225428041
 30
0.0
 11
386.27179579054848
 21
471.07332225428041
 31
0.0
  0
LINE
  5
9846
  8
AM_0
 10
374.20200579054841
 20
478.29149225428029
 30
0.0
 11
382.2717657905485
 21
478.5732922542806
 31
0.0
  0
ARC
  5
9847
  8
AM_0
 10
396.27173579054852
 20
386.0732922542806
 30
0.0
 40
3.9999962
 50
90.000003000000945
 51
270.0
  0
LINE
  5
9848
  8
AM_0
 10
428.27173579054841
 20
400.07335225428039
 30
0.0
 11
428.27173579054841
 21
372.07335225428062
 31
0.0
  0
LINE
  5
9849
  8
AM_0
 10
396.27173579054852
 20
390.0732922542806
 30
0.0
 11
396.27173579054852
 21
382.07332225428053
 31
0.0
  0
LINE
  5
984A
  8
AM_0
 10
396.27173579054852
 20
382.07332225428053
 30
0.0
 11
428.27173579054841
 21
382.07332225428053
 31
0.0
  0
LINE
  5
984B
  8
AM_0
 10
396.27173579054852
 20
390.0732922542806
 30
0.0
 11
428.27173579054841
 21
390.0732922542806
 31
0.0
  0
ARC
  5
9A16
  8
AM_0
 10
116.9366857905484
 20
371.06331225428062
 30
0.0
 40
1.3300148000000001
 50
269.72941999999853
 51
90.270567000000995
  0
ARC
  5
9A17
  8
AM_0
 10
80.601725790548514
 20
371.06331225428062
 30
0.0
 40
1.3300049999999981
 50
90.00000299999769
 51
270.0
  0
LINE
  5
9A18
  8
AM_0
 10
71.271705790548538
 20
444.82332225428041
 30
0.0
 11
71.271705790548538
 21
327.32332225428053
 31
0.0
  0
LINE
  5
9A19
  8
AM_0
 10
79.271705790548538
 20
439.07332225428041
 30
0.0
 11
79.271705790548538
 21
333.07332225428053
 31
0.0
  0
LINE
  5
9A1A
  8
AM_0
 10
66.271705790548538
 20
348.88826225428051
 30
0.0
 11
66.271705790548538
 21
423.25935225428049
 31
0.0
  0
LINE
  5
9A1B
  8
AM_0
 10
15.77027569054848
 20
442.07332225428041
 30
0.0
 11
15.77027569054848
 21
330.07332225428053
 31
0.0
  0
LINE
  5
9A1C
  8
AM_0
 10
21.271705790548531
 20
351.54426225428051
 30
0.0
 11
21.271705790548531
 21
420.60237225428062
 31
0.0
  0
LINE
  5
9A1D
  8
AM_0
 10
20.77027569054848
 20
420.81178334998759
 30
0.0
 11
20.77027569054848
 21
351.33486115857318
 31
0.0
  0
LINE
  5
9A1E
  8
AM_0
 10
23.771705790548531
 20
333.29133225428058
 30
0.0
 11
23.771705790548531
 21
438.82332225428053
 31
0.0
  0
LINE
  5
9A1F
  8
AM_0
 10
187.2717057905484
 20
442.07332225428041
 30
0.0
 11
187.2717057905484
 21
330.07332225428053
 31
0.0
  0
POLYLINE
  5
9A20
  8
AM_0
 66
     1
 10
0.0
 20
0.0
 30
0.0
  0
VERTEX
  5
9A21
  8
AM_0
 10
83.132605790548524
 20
359.59028225428051
 30
0.0
 42
0.00068900015
  0
VERTEX
  5
9A22
  8
AM_0
 10
83.203485790548413
 20
359.01553225428052
 30
0.0
 42
0.00070644648
  0
VERTEX
  5
9A23
  8
AM_0
 10
83.275985790548532
 20
358.44085225428051
 30
0.0
 42
0.00069245587
  0
VERTEX
  5
9A24
  8
AM_0
 10
83.350075790548487
 20
357.86653225428063
 30
0.0
 42
0.00069587802
  0
VERTEX
  5
9A25
  8
AM_0
 10
83.425755790548521
 20
357.29239225428051
 30
0.0
 42
0.00068980012
  0
VERTEX
  5
9A26
  8
AM_0
 10
83.503055790548444
 20
356.71839225428062
 30
0.0
 42
0.00072079193
  0
VERTEX
  5
9A27
  8
AM_0
 10
83.581945790548559
 20
356.14461225428062
 30
0.0
 42
0.00071003147
  0
VERTEX
  5
9A28
  8
AM_0
 10
83.662485790548487
 20
355.57113225428049
 30
0.0
 42
0.00072658712
  0
VERTEX
  5
9A29
  8
AM_0
 10
83.744645790548532
 20
354.99804225428039
 30
0.0
 42
0.00069571059
  0
VERTEX
  5
9A2A
  8
AM_0
 10
83.828465790548449
 20
354.42500225428051
 30
0.0
 42
0.0007126617
  0
VERTEX
  5
9A2B
  8
AM_0
 10
83.913895790548565
 20
353.8522422542805
 30
0.0
 42
0.00071614574
  0
VERTEX
  5
9A2C
  8
AM_0
 10
84.00092579054845
 20
353.27989225428053
 30
0.0
 42
0.00072290803
  0
VERTEX
  5
9A2D
  8
AM_0
 10
84.089635790548442
 20
352.7075922542806
 30
0.0
  0
SEQEND
  5
9A2E
  8
AM_0
  0
LINE
  5
9A2F
  8
AM_0
 10
80.951695790548527
 20
349.35335225428042
 30
0.0
 11
136.2717057905484
 21
349.35335225428042
 31
0.0
  0
LINE
  5
9A30
  8
AM_0
 10
136.2717057905484
 20
352.07332225428053
 30
0.0
 11
81.631695790548576
 21
352.07332225428053
 31
0.0
  0
LINE
  5
9A31
  8
AM_0
 10
136.2717057905484
 20
350.07332225428053
 30
0.0
 11
81.631695790548576
 21
350.07332225428053
 31
0.0
  0
LINE
  5
9A32
  8
AM_0
 10
82.177955790548538
 20
326.94331225428061
 30
0.0
 11
104.60435598921531
 21
326.94331225428061
 31
0.0
  0
LINE
  5
9A33
  8
AM_0
 10
82.481725790548495
 20
329.79329225428057
 30
0.0
 11
179.40171579054839
 21
329.79329225428057
 31
0.0
  0
LINE
  5
9A34
  8
AM_0
 10
148.2717057905484
 20
360.07332225428053
 30
0.0
 11
81.631695790548576
 21
360.07332225428053
 31
0.0
  0
LINE
  5
9A35
  8
AM_0
 10
80.951695790548527
 20
352.70332225428052
 30
0.0
 11
148.2917257905485
 21
352.70332225428052
 31
0.0
  0
LINE
  5
9A36
  8
AM_0
 10
180.6045357905484
 20
362.07332225428053
 30
0.0
 11
81.631695790548576
 21
362.07332225428053
 31
0.0
  0
LINE
  5
9A37
  8
AM_0
 10
80.601725790548514
 20
369.73335225428048
 30
0.0
 11
116.9429757905484
 21
369.73335225428048
 31
0.0
  0
LINE
  5
9A38
  8
AM_0
 10
80.731725790548509
 20
359.58333225428049
 30
0.0
 11
148.2717057905484
 21
359.58333225428049
 31
0.0
  0
LINE
  5
9A39
  8
AM_0
 10
80.731725790548509
 20
362.51326225428051
 30
0.0
 11
184.30594579054841
 21
362.51326225428051
 31
0.0
  0
LINE
  5
9A3A
  8
AM_0
 10
84.631695790548576
 20
349.42332225428061
 30
0.0
 11
79.271705790548538
 21
337.98332225428061
 31
0.0
  0
ARC
  5
9A3B
  8
AM_0
 10
22.171735790548428
 20
348.68233225428042
 30
0.0
 40
3.0
 50
89.999988999997569
 51
179.99997999999781
  0
ARC
  5
9A3C
  8
AM_0
 10
22.171735790548428
 20
345.68233225428042
 30
0.0
 40
3.0
 50
179.99997999999781
 51
269.99995000000138
  0
ARC
  5
9A3D
  8
AM_0
 10
24.770275690548491
 20
330.07332225428053
 30
0.0
 40
9.0
 50
179.99997999999781
 51
269.99995000000138
  0
LINE
  5
9A3E
  8
AM_0
 10
19.171735790548439
 20
348.68233225428042
 30
0.0
 11
19.171735790548439
 21
345.68233225428042
 31
0.0
  0
LINE
  5
9A3F
  8
AM_0
 10
59.271705790548538
 20
327.32332225428053
 30
0.0
 11
59.271705790548538
 21
321.07332225428053
 31
0.0
  0
LINE
  5
9A40
  8
AM_0
 10
62.271705790548531
 20
326.07332225428053
 30
0.0
 11
62.271705790548531
 21
321.07332225428053
 31
0.0
  0
LINE
  5
9A41
  8
AM_0
 10
49.271705790548538
 20
327.32332225428053
 30
0.0
 11
49.271705790548538
 21
321.07332225428053
 31
0.0
  0
ARC
  5
9A42
  8
AM_0
 10
25.77027569054848
 20
331.07332225428053
 30
0.0
 40
5.0
 50
179.99997999999781
 51
269.99995000000138
  0
LINE
  5
9A43
  8
AM_0
 10
24.770275690548491
 20
321.07332225428053
 30
0.0
 11
62.271705790548531
 21
321.07332225428053
 31
0.0
  0
LINE
  5
9A44
  8
AM_0
 10
23.271705790548541
 20
333.32332225428053
 30
0.0
 11
71.271705790548538
 21
333.32332225428053
 31
0.0
  0
LINE
  5
9A45
  8
AM_0
 10
23.771705790548531
 20
352.43233225428042
 30
0.0
 11
66.271705790548538
 21
352.43233225428042
 31
0.0
  0
LINE
  5
9A46
  8
AM_0
 10
23.771705790548531
 20
342.18233225428042
 30
0.0
 11
66.271705790548538
 21
342.18233225428042
 31
0.0
  0
LINE
  5
9A47
  8
AM_0
 10
46.271705790548538
 20
327.32332225428053
 30
0.0
 11
71.271705790548538
 21
327.32332225428053
 31
0.0
  0
LINE
  5
9A48
  8
AM_0
 10
22.471715790548441
 20
351.78230225428052
 30
0.0
 11
22.471715790548441
 21
342.58235225428052
 31
0.0
  0
LINE
  5
9A49
  8
AM_0
 10
25.77027569054848
 20
326.07332225428053
 30
0.0
 11
49.271705790548538
 21
326.07332225428053
 31
0.0
  0
LINE
  5
9A4A
  8
AM_0
 10
21.271705790548531
 20
342.82039225428059
 30
0.0
 11
21.271705790548531
 21
335.32332225428053
 31
0.0
  0
LINE
  5
9A4B
  8
AM_0
 10
20.77027569054848
 20
343.02980334998767
 30
0.0
 11
20.77027569054848
 21
331.07332225428053
 31
0.0
  0
ARC
  5
9A4C
  8
AM_0
 10
23.271705790548541
 20
335.32332225428053
 30
0.0
 40
2.0
 50
179.99997999999781
 51
269.99995000000138
  0
LINE
  5
9A4D
  8
AM_0
 10
22.471715790548441
 20
342.58235225428052
 30
0.0
 11
23.771705790548531
 21
342.58235225428052
 31
0.0
  0
LINE
  5
9A4E
  8
AM_0
 10
22.171735790548428
 20
342.68233225428048
 30
0.0
 11
22.471715790548441
 21
342.68233225428048
 31
0.0
  0
LINE
  5
9A4F
  8
AM_0
 10
46.271705790548538
 20
327.32332225428053
 30
0.0
 11
46.271705790548538
 21
333.32332225428053
 31
0.0
  0
LINE
  5
9A50
  8
AM_0
 10
22.471715790548441
 20
351.78230225428052
 30
0.0
 11
23.771705790548531
 21
351.78230225428052
 31
0.0
  0
LINE
  5
9A51
  8
AM_0
 10
22.171735790548428
 20
351.68233225428042
 30
0.0
 11
22.471715790548441
 21
351.68233225428042
 31
0.0
  0
LINE
  5
9A52
  8
AM_0
 10
66.271705790548538
 20
342.18233225428042
 30
0.0
 11
66.271705790548538
 21
333.32332225428053
 31
0.0
  0
LINE
  5
9A53
  8
AM_0
 10
59.271705790548538
 20
326.07332225428053
 30
0.0
 11
62.271705790548531
 21
326.07332225428053
 31
0.0
  0
LINE
  5
9A54
  8
AM_0
 10
79.271705790548538
 20
337.98326225428048
 30
0.0
 11
80.511695790548586
 21
331.42326225428047
 31
0.0
  0
LINE
  5
9A55
  8
AM_0
 10
71.271705790548538
 20
333.07332225428053
 30
0.0
 11
79.271705790548538
 21
333.07332225428053
 31
0.0
  0
LINE
  5
9A56
  8
AM_0
 10
79.271705790548538
 20
336.63325225428048
 30
0.0
 11
80.551675790548444
 21
328.6333122542805
 31
0.0
  0
LINE
  5
9A57
  8
AM_0
 10
79.271705790548538
 20
335.29326225428048
 30
0.0
 11
80.280925790548565
 21
328.64323225428052
 31
0.0
  0
LINE
  5
9A58
  8
AM_0
 10
79.271705790548538
 20
335.29332225428061
 30
0.0
 11
80.197185790548531
 21
328.66670225428061
 31
0.0
  0
ARC
  5
9A59
  8
AM_0
 10
82.476545790548499
 20
331.79256225428048
 30
0.0
 40
1.9992490000000001
 50
190.643100000001
 51
270.14743000000129
  0
ARC
  5
9A5A
  8
AM_0
 10
82.527875790548535
 20
328.94368225428047
 30
0.0
 40
2.000420099999999
 50
188.9268200000015
 51
269.82270999999599
  0
ARC
  5
9A5B
  8
AM_0
 10
82.258335790548529
 20
328.94331225428061
 30
0.0
 40
2.0
 50
188.62962000000411
 51
269.999989999999
  0
ARC
  5
9A5C
  8
AM_0
 10
82.177955790548538
 20
328.94331225428061
 30
0.0
 40
2.0
 50
187.9504400000034
 51
269.999989999999
  0
LINE
  5
9A5D
  8
AM_0
 10
71.971715790548444
 20
342.8833822542806
 30
0.0
 11
78.201695790548513
 21
342.8833822542806
 31
0.0
  0
ARC
  5
9A5E
  8
AM_0
 10
80.944865790548434
 20
351.02827225428052
 30
0.0
 40
1.675014
 50
89.766498999996756
 51
270.2335099999994
  0
ARC
  5
9A5F
  8
AM_0
 10
81.816325790548547
 20
351.07332225428053
 30
0.0
 40
1.000013899999999
 50
89.691659999999231
 51
270.30834000000078
  0
POLYLINE
  5
9A60
  8
AM_0
 66
     1
 10
0.0
 20
0.0
 30
0.0
  0
VERTEX
  5
9A61
  8
AM_0
 10
82.149945790548543
 20
369.73274225428048
 30
0.0
 42
0.00073721992
  0
VERTEX
  5
9A62
  8
AM_0
 10
82.194095790548488
 20
369.1303322542804
 30
0.0
 42
0.00074398496
  0
VERTEX
  5
9A63
  8
AM_0
 10
82.240025790548486
 20
368.52806225428048
 30
0.0
 42
0.00073322625
  0
VERTEX
  5
9A64
  8
AM_0
 10
82.287755790548488
 20
367.92573225428049
 30
0.0
 42
0.00073594289
  0
VERTEX
  5
9A65
  8
AM_0
 10
82.33723579054849
 20
367.32374225428049
 30
0.0
 42
0.00074742568
  0
VERTEX
  5
9A66
  8
AM_0
 10
82.388505790548535
 20
366.7218822542805
 30
0.0
 42
0.00073216749
  0
VERTEX
  5
9A67
  8
AM_0
 10
82.441565790548495
 20
366.1200722542805
 30
0.0
 42
0.00074184065
  0
VERTEX
  5
9A68
  8
AM_0
 10
82.496385790548445
 20
365.51854225428048
 30
0.0
 42
0.00072077528
  0
VERTEX
  5
9A69
  8
AM_0
 10
82.552965790548512
 20
364.9173122542806
 30
0.0
 42
0.00074978179
  0
VERTEX
  5
9A6A
  8
AM_0
 10
82.611305790548442
 20
364.3161122542806
 30
0.0
 42
0.00074288888
  0
VERTEX
  5
9A6B
  8
AM_0
 10
82.671455790548464
 20
363.71509225428048
 30
0.0
 42
0.00072503679
  0
VERTEX
  5
9A6C
  8
AM_0
 10
82.733365790548447
 20
363.11435225428039
 30
0.0
 42
0.00074640584
  0
VERTEX
  5
9A6D
  8
AM_0
 10
82.797035790548492
 20
362.51375225428052
 30
0.0
  0
SEQEND
  5
9A6E
  8
AM_0
  0
ARC
  5
9A6F
  8
AM_0
 10
80.731725790548509
 20
361.04829225428051
 30
0.0
 40
1.465004
 50
90.00000299999769
 51
270.0
  0
ARC
  5
9A70
  8
AM_0
 10
81.816325790548547
 20
361.07332225428053
 30
0.0
 40
1.000013899999999
 50
89.691659999999231
 51
270.30834000000078
  0
LINE
  5
9A71
  8
AM_0
 10
145.48393035855841
 20
297.14723204416771
 30
0.0
 11
147.6872844040353
 21
297.52263967970049
 31
0.0
  0
LINE
  5
9A72
  8
AM_0
 10
89.37386822212747
 20
286.57332225428053
 30
0.0
 11
165.6738682221274
 21
299.57332225428053
 31
0.0
  0
LINE
  5
9A73
  8
AM_0
 10
89.37386822212747
 20
286.57332225428053
 30
0.0
 11
165.6738682221274
 21
299.57332225428053
 31
0.0
  0
LINE
  5
9A74
  8
AM_0
 10
180.61173579054849
 20
352.07332225428053
 30
0.0
 11
136.2717057905484
 21
352.07332225428053
 31
0.0
  0
LINE
  5
9A75
  8
AM_0
 10
180.61173579054849
 20
350.07332225428053
 30
0.0
 11
136.2717057905484
 21
350.07332225428053
 31
0.0
  0
LINE
  5
9A76
  8
AM_0
 10
169.7717057905484
 20
319.07332225428053
 30
0.0
 11
102.77170579054849
 21
319.07332225428053
 31
0.0
  0
LINE
  5
9A77
  8
AM_0
 10
155.1738682221274
 20
316.57332225428053
 30
0.0
 11
117.3738682221274
 21
316.57332225428053
 31
0.0
  0
LINE
  5
9A78
  8
AM_0
 10
136.2717057905484
 20
349.35335225428042
 30
0.0
 11
184.09171579054839
 21
349.35335225428042
 31
0.0
  0
LINE
  5
9A79
  8
AM_0
 10
165.17386822212839
 20
282.57332225428053
 30
0.0
 11
89.699563358968433
 21
282.57332225428053
 31
0.0
  0
LINE
  5
9A7A
  8
AM_0
 10
165.9995633589684
 20
295.57332225428053
 30
0.0
 11
89.699563358968433
 21
282.57332225428053
 31
0.0
  0
ARC
  5
9A7B
  8
AM_0
 10
104.60435598921531
 20
325.44331225428061
 30
0.0
 40
1.5
 50
1.499738863867264
 51
90.0
1001
GENIUS_GENODEF_13
1002
{
1000
HIER
1070
     0
1002
}
1002
{
1000
MANEDIT
1070
     0
1002
}
1002
{
1000
NOSEL
1070
     0
1002
}
1002
{
1000
BEHIND
1070
     0
1002
}
1002
{
1000
REACTOR
1002
}
1001
GENIUS_GENOBJ-N-FIL_13
1002
{
1000
OWNER
1000
GEN
1002
}
  0
LINE
  5
9A7C
  8
AM_0
 10
106.2716457905485
 20
319.07329225428049
 30
0.0
 11
105.99098160320951
 21
329.79329225428029
 31
0.0
  0
LINE
  5
9A7D
  8
AM_0
 10
89.292444437916416
 20
287.57332225428053
 30
0.0
 11
121.2705141766484
 21
293.02174829102461
 31
0.0
  0
LINE
  5
9A7E
  8
AM_0
 10
117.3738682221274
 20
316.57332225428053
 30
0.0
 11
111.1738682221274
 21
316.57332225428053
 31
0.0
  0
CIRCLE
  5
9A7F
  8
AM_0
 10
101.8738682221274
 20
299.57332225428053
 30
0.0
 40
6.299999999999998
  0
LINE
  5
9A80
  8
AM_0
 10
86.773868222127476
 20
315.57332225428053
 30
0.0
 11
86.773868222127476
 21
292.57332225428053
 31
0.0
  0
LINE
  5
9A81
  8
AM_0
 10
92.573868222127402
 20
316.57332225428053
 30
0.0
 11
92.573868222127402
 21
299.57332225428053
 31
0.0
  0
LINE
  5
9A82
  8
ﾁｭｳｼﾝｾﾝ
 10
101.8738682221274
 20
311.5733372542806
 30
0.0
 11
101.8738682221274
 21
287.5733372542806
 31
0.0
  0
LINE
  5
9A83
  8
AM_0
 10
111.1738682221274
 20
316.57332225428053
 30
0.0
 11
111.1738682221274
 21
299.57332225428053
 31
0.0
  0
ARC
  5
9A84
  8
AM_0
 10
101.8738682221274
 20
299.57332225428053
 30
0.0
 40
9.3000000000000007
 50
180.0
 51
0.0
  0
LINE
  5
9A85
  8
ﾁｭｳｼﾝｾﾝ
 10
89.873868222136863
 20
299.57332225428053
 30
0.0
 11
113.87386822211811
 21
299.57332225428053
 31
0.0
  0
LINE
  5
9A86
  8
AM_0
 10
86.773868222127476
 20
292.57332225428053
 30
0.0
 11
86.773868222126438
 21
287.57332225428053
 31
0.0
  0
LINE
  5
9A87
  8
AM_0
 10
86.473868222127393
 20
289.76896493499652
 30
0.0
 11
86.473868222127393
 21
292.3733222542815
 31
0.0
  0
LINE
  5
9A88
  8
AM_0
 10
85.273868222127447
 20
287.27332225428148
 30
0.0
 11
85.273868222127447
 21
286.57332225428053
 31
0.0
  0
LINE
  5
9A89
  8
AM_0
 10
84.773868222128485
 20
291.27332225428148
 30
0.0
 11
84.773868222128485
 21
284.0733222542807
 31
0.0
  0
LINE
  5
9A8A
  8
AM_0
 10
85.273868222127447
 20
286.57332225428053
 30
0.0
 11
89.37386822212747
 21
286.57332225428053
 31
0.0
  0
LINE
  5
9A8B
  8
AM_0
 10
85.573868222127444
 20
286.57332225428053
 30
0.0
 11
89.37386822212747
 21
286.57332225428053
 31
0.0
  0
LINE
  5
9A8C
  8
AM_0
 10
86.773868222127476
 20
282.57332225428053
 30
0.0
 11
89.699563358968433
 21
282.57332225428053
 31
0.0
  0
ARC
  5
9A8D
  8
AM_0
 10
85.573868222127444
 20
286.2733222542816
 30
0.0
 40
0.3
 50
90.0
 51
180.0
  0
LINE
  5
9A8E
  8
AM_0
 10
86.273868222128527
 20
282.57332225428053
 30
0.0
 11
86.572354118285489
 21
282.57332225428172
 31
0.0
  0
ARC
  5
9A8F
  8
AM_0
 10
86.773868222127476
 20
284.0733222542807
 30
0.0
 40
1.5
 50
180.0
 51
270.0
  0
ARC
  5
9A90
  8
AM_0
 10
86.273868222128527
 20
284.07332225428172
 30
0.0
 40
1.5
 50
180.00000000000659
 51
269.99999999999341
  0
LINE
  5
9A91
  8
AM_0
 10
85.273868222127447
 20
286.2733222542816
 30
0.0
 11
85.273868222127447
 21
284.0733222542807
 31
0.0
  0
LINE
  5
9A92
  8
AM_0
 10
89.292444437916416
 20
287.57332225428053
 30
0.0
 11
85.573868222127444
 21
287.57332225428053
 31
0.0
  0
LINE
  5
9A93
  8
AM_0
 10
86.473868222127393
 20
287.57332225428053
 30
0.0
 11
86.473868222127393
 21
288.56896493499647
 31
0.0
  0
LINE
  5
9A94
  8
AM_0
 10
86.273868222127476
 20
287.57332225428053
 30
0.0
 11
86.273868222127476
 21
291.27332225428148
 31
0.0
  0
ARC
  5
9A95
  8
AM_0
 10
85.573868222127444
 20
287.27332225428148
 30
0.0
 40
0.3
 50
90.0
 51
180.0
  0
ARC
  5
9A96
  8
AM_0
 10
85.973868222127379
 20
291.27332225428148
 30
0.0
 40
0.3
 50
0.0
 51
90.0
  0
LINE
  5
9A97
  8
AM_0
 10
86.473868222127393
 20
288.56896493499647
 30
0.0
 11
86.473868222127393
 21
289.76896493499652
 31
0.0
  0
LINE
  5
9A98
  8
AM_0
 10
86.473868222127393
 20
288.56896493499647
 30
0.0
 11
86.273868222127476
 21
288.56896493499647
 31
0.0
  0
LINE
  5
9A99
  8
AM_0
 10
86.273868222127476
 20
289.76896493499652
 30
0.0
 11
86.473868222127393
 21
289.76896493499652
 31
0.0
  0
LINE
  5
9A9A
  8
AM_0
 10
85.573868222127444
 20
291.57332225428053
 30
0.0
 11
85.073868222128453
 21
291.57332225428053
 31
0.0
  0
LINE
  5
9A9B
  8
AM_0
 10
85.973868222127379
 20
291.57332225428053
 30
0.0
 11
85.573868222127444
 21
291.57332225428053
 31
0.0
  0
ARC
  5
9A9C
  8
AM_0
 10
85.073868222128453
 20
291.27332225428148
 30
0.0
 40
0.3
 50
90.0
 51
180.0
  0
LINE
  5
9A9D
  8
AM_0
 10
86.673868222127453
 20
292.57332225428053
 30
0.0
 11
86.773868222127476
 21
292.57332225428053
 31
0.0
  0
LINE
  5
9A9E
  8
AM_0
 10
86.473868222127393
 20
292.3733222542815
 30
0.0
 11
86.673868222127453
 21
292.57332225428053
 31
0.0
  0
LINE
  5
9A9F
  8
AM_0
 10
92.573868222127402
 20
316.57332225428053
 30
0.0
 11
110.1738682221274
 21
316.57332225428053
 31
0.0
  0
LINE
  5
9AA0
  8
AM_0
 10
87.773868222127476
 20
316.57332225428053
 30
0.0
 11
92.573868222127402
 21
316.57332225428053
 31
0.0
  0
ARC
  5
9AA1
  8
AM_0
 10
87.773868222127476
 20
315.57332225428053
 30
0.0
 40
1.0
 50
90.0
 51
180.0
  0
LINE
  5
9AA2
  8
AM_0
 10
102.77170579054849
 20
316.57332225428053
 30
0.0
 11
102.77170579054849
 21
319.07332225428053
 31
0.0
  0
LINE
  5
9AA3
  8
AM_0
 10
110.1738682221274
 20
316.57332225428053
 30
0.0
 11
111.1738682221274
 21
316.57332225428053
 31
0.0
  0
LINE
  5
9AA4
  8
AM_0
 10
145.48393035855841
 20
297.14723204416771
 30
0.0
 11
145.48393035855841
 21
311.57332225428053
 31
0.0
  0
LINE
  5
9AA5
  8
AM_0
 10
136.57722226760339
 20
311.57332225428053
 30
0.0
 11
136.57722226760339
 21
295.62970641923471
 31
0.0
  0
LINE
  5
9AA6
  8
AM_0
 10
138.07722226760339
 20
295.88527653718961
 30
0.0
 11
138.07722226760339
 21
311.57332225428053
 31
0.0
  0
LINE
  5
9AA7
  8
AM_0
 10
140.2805763130815
 20
311.57332225428053
 30
0.0
 11
140.2805763130815
 21
296.26068417272359
 31
0.0
  0
LINE
  5
9AA8
  8
AM_0
 10
141.78057631308141
 20
296.51625429067849
 30
0.0
 11
141.78057631308141
 21
311.57332225428053
 31
0.0
  0
LINE
  5
9AA9
  8
AM_0
 10
143.9839303585585
 20
311.57332225428053
 30
0.0
 11
143.9839303585585
 21
296.8916619262115
 31
0.0
  0
LINE
  5
9AAA
  8
AM_0
 10
130.6705141766484
 20
294.62332103021163
 30
0.0
 11
130.6705141766484
 21
311.57332225428053
 31
0.0
  0
LINE
  5
9AAB
  8
AM_0
 10
132.87386822212639
 20
311.57332225428053
 30
0.0
 11
132.87386822212639
 21
294.99872866574572
 31
0.0
  0
LINE
  5
9AAC
  8
AM_0
 10
123.2705141766484
 20
293.36250844829863
 30
0.0
 11
123.2705141766484
 21
311.57332225428172
 31
0.0
  0
LINE
  5
9AAD
  8
AM_0
 10
125.47051417664839
 20
311.57332225428053
 30
0.0
 11
125.4705141766494
 21
293.73734462129948
 31
0.0
  0
LINE
  5
9AAE
  8
AM_0
 10
126.97051417664839
 20
293.9929147392557
 30
0.0
 11
126.97051417664839
 21
311.57332225428053
 31
0.0
  0
LINE
  5
9AAF
  8
AM_0
 10
129.1705141766484
 20
311.57332225428053
 30
0.0
 11
129.1705141766484
 21
294.3677509122565
 31
0.0
  0
LINE
  5
9AB0
  8
AM_0
 10
121.2705141766484
 20
308.86194607508253
 30
0.0
 11
121.2705141766484
 21
293.02174829102461
 31
0.0
  0
LINE
  5
9AB1
  8
AM_0
 10
134.8738682221294
 20
295.33948882301962
 30
0.0
 11
134.8738682221294
 21
308.86194607508253
 31
0.0
  0
LINE
  5
9AB2
  8
AM_0
 10
130.6705141766484
 20
294.62332103021163
 30
0.0
 11
132.87386822212639
 21
294.99872866574572
 31
0.0
  0
LINE
  5
9AB3
  8
AM_0
 10
123.2705141766484
 20
293.36250844829863
 30
0.0
 11
125.4705141766494
 21
293.73734462129948
 31
0.0
  0
CIRCLE
  5
9AB4
  8
AM_0
 10
116.3738682221274
 20
299.57332225428053
 30
0.0
 40
0.75
  0
LINE
  5
9AB5
  8
AM_0
 10
126.97051417664839
 20
293.9929147392557
 30
0.0
 11
129.1705141766484
 21
294.3677509122565
 31
0.0
  0
LINE
  5
9AB6
  8
AM_0
 10
138.07722226760339
 20
295.88527653718961
 30
0.0
 11
140.2805763130815
 21
296.26068417272359
 31
0.0
  0
LINE
  5
9AB7
  8
AM_0
 10
134.8738682221294
 20
295.33948882301962
 30
0.0
 11
136.57722226760339
 21
295.62970641923471
 31
0.0
  0
LINE
  5
9AB8
  8
AM_0
 10
141.78057631308141
 20
296.51625429067849
 30
0.0
 11
143.9839303585585
 21
296.8916619262115
 31
0.0
  0
LINE
  5
9AB9
  8
AM_0
 10
121.97051417664839
 20
309.52929813168669
 30
0.0
 11
121.2705141766484
 21
308.86194607508253
 31
0.0
  0
LINE
  5
9ABA
  8
AM_0
 10
123.2705141766484
 20
307.57332225428053
 30
0.0
 11
121.2705141766484
 21
307.57332225428053
 31
0.0
  0
LINE
  5
9ABB
  8
AM_0
 10
121.97051417664839
 20
311.57332225428053
 30
0.0
 11
121.97051417664839
 21
309.52929813168669
 31
0.0
  0
LINE
  5
9ABC
  8
AM_0
 10
123.2705141766484
 20
311.57332225428172
 30
0.0
 11
121.97051417664839
 21
311.57332225428053
 31
0.0
  0
LINE
  5
9ABD
  8
AM_0
 10
126.97051417664839
 20
307.57332225428053
 30
0.0
 11
125.47051417664839
 21
307.57332225428053
 31
0.0
  0
LINE
  5
9ABE
  8
AM_0
 10
130.6705141766484
 20
307.57332225428053
 30
0.0
 11
129.1705141766484
 21
307.57332225428053
 31
0.0
  0
LINE
  5
9ABF
  8
AM_0
 10
126.97051417664839
 20
311.57332225428053
 30
0.0
 11
125.47051417664839
 21
311.57332225428053
 31
0.0
  0
LINE
  5
9AC0
  8
AM_0
 10
130.6705141766484
 20
311.57332225428053
 30
0.0
 11
129.1705141766484
 21
311.57332225428053
 31
0.0
  0
LINE
  5
9AC1
  8
AM_0
 10
134.8738682221294
 20
308.86194607508253
 30
0.0
 11
134.1738682221264
 21
309.52929813168669
 31
0.0
  0
LINE
  5
9AC2
  8
AM_0
 10
134.8738682221294
 20
307.57332225428053
 30
0.0
 11
132.87386822212639
 21
307.57332225428053
 31
0.0
  0
LINE
  5
9AC3
  8
AM_0
 10
138.07722226760339
 20
307.57332225428053
 30
0.0
 11
136.57722226760339
 21
307.57332225428053
 31
0.0
  0
LINE
  5
9AC4
  8
AM_0
 10
134.1738682221264
 20
309.52929813168669
 30
0.0
 11
134.1738682221264
 21
311.57332225428053
 31
0.0
  0
LINE
  5
9AC5
  8
AM_0
 10
134.1738682221264
 20
311.57332225428053
 30
0.0
 11
132.87386822212639
 21
311.57332225428053
 31
0.0
  0
LINE
  5
9AC6
  8
AM_0
 10
138.07722226760339
 20
311.57332225428053
 30
0.0
 11
136.57722226760339
 21
311.57332225428053
 31
0.0
  0
LINE
  5
9AC7
  8
AM_0
 10
141.78057631308141
 20
307.57332225428053
 30
0.0
 11
140.2805763130815
 21
307.57332225428053
 31
0.0
  0
LINE
  5
9AC8
  8
AM_0
 10
145.48393035855841
 20
307.57332225428053
 30
0.0
 11
143.9839303585585
 21
307.57332225428053
 31
0.0
  0
LINE
  5
9AC9
  8
AM_0
 10
141.78057631308141
 20
311.57332225428053
 30
0.0
 11
140.2805763130815
 21
311.57332225428053
 31
0.0
  0
LINE
  5
9ACA
  8
AM_0
 10
145.48393035855841
 20
311.57332225428053
 30
0.0
 11
143.9839303585585
 21
311.57332225428053
 31
0.0
  0
LINE
  5
9ACB
  8
AM_0
 10
166.2717057905484
 20
319.07326225428039
 30
0.0
 11
166.55244491361159
 21
329.79329225428057
 31
0.0
  0
LINE
  5
9ACC
  8
AM_0
 10
186.2717057905484
 20
333.07329225428049
 30
0.0
 11
180.5459057905484
 21
324.25633225428049
 31
0.0
  0
LINE
  5
9ACD
  8
AM_0
 10
167.8507864763335
 20
323.57332225428053
 30
0.0
 11
179.2878857905485
 21
323.57332225428053
 31
0.0
  0
LINE
  5
9ACE
  8
AM_0
 10
159.0489944879744
 20
299.45844873725252
 30
0.0
 11
159.0489944879744
 21
316.57332225428053
 31
0.0
  0
LINE
  5
9ACF
  8
AM_0
 10
174.0489944879744
 20
299.57332225428053
 30
0.0
 11
174.0489944879744
 21
315.57332225428053
 31
0.0
  0
LINE
  5
9AD0
  8
AM_0
 10
147.6872844040353
 20
311.57332225428053
 30
0.0
 11
147.6872844040353
 21
297.52263967970049
 31
0.0
  0
LINE
  5
9AD1
  8
AM_0
 10
149.1872844040353
 20
297.77820979765642
 30
0.0
 11
149.1872844040353
 21
311.57332225428053
 31
0.0
  0
LINE
  5
9AD2
  8
AM_0
 10
157.40401974114539
 20
282.57332225428053
 30
0.0
 11
157.40401974114539
 21
294.10881285674873
 31
0.0
  0
LINE
  5
9AD3
  8
AM_0
 10
149.1872844040353
 20
297.77820979765642
 30
0.0
 11
159.0489944879744
 21
299.45844873725252
 31
0.0
  0
CIRCLE
  5
9AD4
  8
AM_0
 10
150.87386822212741
 20
299.57332225428053
 30
0.0
 40
0.75
  0
LINE
  5
9AD5
  8
AM_0
 10
158.27386822212841
 20
294.25911702698357
 30
0.0
 11
158.27386822212841
 21
298.31250967236741
 31
0.0
  0
LINE
  5
9AD6
  8
AM_0
 10
167.67386822212839
 20
295.07332225428053
 30
0.0
 11
167.67386822212839
 21
285.07332225428053
 31
0.0
  0
ARC
  5
9AD7
  8
AM_0
 10
165.17386822212839
 20
285.07332225428053
 30
0.0
 40
2.5
 50
270.0
 51
0.0
  0
LINE
  5
9AD8
  8
AM_0
 10
174.0489944879744
 20
299.57332225428053
 30
0.0
 11
165.6738682221274
 21
299.57332225428053
 31
0.0
  0
LINE
  5
9AD9
  8
AM_0
 10
168.17386822212839
 20
295.57332225428053
 30
0.0
 11
173.5489944879744
 21
295.57332225428053
 31
0.0
  0
LINE
  5
9ADA
  8
AM_0
 10
168.17386822212839
 20
295.57332225428053
 30
0.0
 11
165.9995633589684
 21
295.57332225428053
 31
0.0
  0
ARC
  5
9ADB
  8
AM_0
 10
168.17386822212839
 20
295.07332225428053
 30
0.0
 40
0.5
 50
90.0
 51
180.0
  0
LINE
  5
9ADC
  8
AM_0
 10
174.0489944879744
 20
299.57332225428053
 30
0.0
 11
174.0489944879744
 21
296.07332225428053
 31
0.0
  0
ARC
  5
9ADD
  8
AM_0
 10
173.5489944879744
 20
296.07332225428053
 30
0.0
 40
0.5
 50
270.0
 51
0.0
  0
LINE
  5
9ADE
  8
AM_0
 10
173.0489944879744
 20
316.57332225428053
 30
0.0
 11
162.37386822212741
 21
316.57332225428053
 31
0.0
  0
LINE
  5
9ADF
  8
AM_0
 10
149.1872844040353
 20
307.57332225428053
 30
0.0
 11
147.6872844040353
 21
307.57332225428053
 31
0.0
  0
LINE
  5
9AE0
  8
AM_0
 10
149.1872844040353
 20
311.57332225428053
 30
0.0
 11
147.6872844040353
 21
311.57332225428053
 31
0.0
  0
LINE
  5
9AE1
  8
AM_0
 10
162.37386822212741
 20
316.57332225428053
 30
0.0
 11
155.1738682221274
 21
316.57332225428053
 31
0.0
  0
LINE
  5
9AE2
  8
AM_0
 10
169.7717057905484
 20
316.57332225428053
 30
0.0
 11
169.7717057905484
 21
319.07332225428053
 31
0.0
  0
ARC
  5
9AE3
  8
AM_0
 10
167.8507864763335
 20
322.07332225428053
 30
0.0
 40
1.5
 50
90.0
 51
178.4998650936468
1001
GENIUS_GENODEF_13
1002
{
1000
HIER
1070
     0
1002
}
1002
{
1000
MANEDIT
1070
     0
1002
}
1002
{
1000
NOSEL
1070
     0
1002
}
1002
{
1000
BEHIND
1070
     0
1002
}
1002
{
1000
REACTOR
1002
}
1001
GENIUS_GENOBJ-N-FIL_13
1002
{
1000
OWNER
1000
GEN
1002
}
  0
ARC
  5
9AE4
  8
AM_0
 10
173.0489944879744
 20
315.57332225428053
 30
0.0
 40
1.0
 50
0.0
 51
90.0
  0
ARC
  5
9AE5
  8
AM_0
 10
179.2878857905485
 20
325.07332225428053
 30
0.0
 40
1.5
 50
269.999989999999
 51
326.99999999999801
  0
LINE
  5
9AE6
  8
AM_0
 10
184.09171579054839
 20
352.70332225428052
 30
0.0
 11
166.25168579054841
 21
352.70332225428052
 31
0.0
  0
LINE
  5
9AE7
  8
AM_0
 10
180.6045357905484
 20
360.07332225428053
 30
0.0
 11
166.2717057905484
 21
360.07332225428053
 31
0.0
  0
LINE
  5
9AE8
  8
AM_0
 10
166.2717057905484
 20
359.59334225428051
 30
0.0
 11
184.30594579054841
 21
359.59334225428051
 31
0.0
  0
ARC
  5
9AE9
  8
AM_0
 10
148.2717057905484
 20
358.57332225428053
 30
0.0
 40
1.02
 50
0.0
 51
90.00000299999769
  0
ARC
  5
9AEA
  8
AM_0
 10
148.2717057905484
 20
358.57332225428053
 30
0.0
 40
1.5
 50
0.0
 51
90.00000299999769
  0
CIRCLE
  5
9AEB
  8
AM_0
 10
154.7717057905484
 20
357.57332225428053
 30
0.0
 40
1.149999999999999
  0
CIRCLE
  5
9AEC
  8
AM_0
 10
154.7717057905484
 20
357.57332225428053
 30
0.0
 40
1.1000000000000001
  0
ARC
  5
9AED
  8
AM_0
 10
148.2917257905485
 20
353.71333225428049
 30
0.0
 40
1.0
 50
269.999989999999
 51
0.0000006832495047
  0
ARC
  5
9AEE
  8
AM_0
 10
148.2717057905484
 20
353.57332225428053
 30
0.0
 40
1.5
 50
269.999989999999
 51
0.0000006832495047
  0
LINE
  5
9AEF
  8
AM_0
 10
149.7717057905484
 20
358.57332225428053
 30
0.0
 11
149.7717057905484
 21
353.57332225428053
 31
0.0
  0
LINE
  5
9AF0
  8
AM_0
 10
149.2917257905485
 20
358.57332225428053
 30
0.0
 11
149.2917257905485
 21
353.71333225428049
 31
0.0
  0
CIRCLE
  5
9AF1
  8
AM_0
 10
159.7717057905484
 20
357.57332225428053
 30
0.0
 40
1.0
  0
ARC
  5
9AF2
  8
AM_0
 10
166.2717057905484
 20
358.57332225428053
 30
0.0
 40
1.02
 50
90.00000299999769
 51
180.00001000000091
  0
ARC
  5
9AF3
  8
AM_0
 10
166.2717057905484
 20
358.57332225428053
 30
0.0
 40
1.5
 50
90.00000299999769
 51
180.00001000000091
  0
ARC
  5
9AF4
  8
AM_0
 10
166.25168579054841
 20
353.71333225428049
 30
0.0
 40
1.0
 50
179.99998999999889
 51
270.0
  0
ARC
  5
9AF5
  8
AM_0
 10
166.2717057905484
 20
353.57332225428053
 30
0.0
 40
1.5
 50
179.99998999999889
 51
270.0
  0
LINE
  5
9AF6
  8
AM_0
 10
165.25168579054841
 20
358.57332225428053
 30
0.0
 11
165.25168579054841
 21
353.71333225428049
 31
0.0
  0
LINE
  5
9AF7
  8
AM_0
 10
164.7717057905484
 20
358.57332225428053
 30
0.0
 11
164.7717057905484
 21
353.57332225428053
 31
0.0
  0
ARC
  5
9AF8
  8
AM_0
 10
186.92490579054839
 20
346.35054225428053
 30
0.0
 40
1.502775999999999
 50
90.122413000001615
 51
165.2435700000006
  0
LINE
  5
9AF9
  8
AM_0
 10
187.2717057905484
 20
340.07332225428053
 30
0.0
 11
195.2717057905484
 21
340.07332225428053
 31
0.0
  0
LINE
  5
9AFA
  8
AM_0
 10
187.2717057905484
 20
330.07332225428053
 30
0.0
 11
195.2717057905484
 21
330.07332225428053
 31
0.0
  0
LINE
  5
9AFB
  8
AM_0
 10
185.47739579054851
 20
346.75438225428047
 30
0.0
 11
181.33164579054841
 21
331.27327225428053
 31
0.0
  0
LINE
  5
9AFC
  8
AM_0
 10
181.8137557905485
 20
333.07332225428053
 30
0.0
 11
187.2717057905484
 21
333.07332225428053
 31
0.0
  0
ARC
  5
9AFD
  8
AM_0
 10
179.3968857905484
 20
331.79805225428061
 30
0.0
 40
2.0047290000000002
 50
270.13832000000423
 51
344.82650000000177
  0
LINE
  5
9AFE
  8
AM_0
 10
187.2717057905484
 20
354.1333822542806
 30
0.0
 11
195.2717057905484
 21
354.1333822542806
 31
0.0
  0
ARC
  5
9AFF
  8
AM_0
 10
184.09171579054839
 20
351.02827225428052
 30
0.0
 40
1.6750020000000001
 50
269.999989999999
 51
90.00000299999769
  0
ARC
  5
9B00
  8
AM_0
 10
180.61173579054849
 20
351.07332225428053
 30
0.0
 40
1.0
 50
269.999989999999
 51
90.00000299999769
  0
ARC
  5
9B01
  8
AM_0
 10
184.31168579054841
 20
361.04329225428057
 30
0.0
 40
1.460011199999999
 50
269.77524999999662
 51
90.224749999996845
  0
ARC
  5
9B02
  8
AM_0
 10
180.6116757905485
 20
361.07332225428053
 30
0.0
 40
1.0000255999999981
 50
269.58947000000319
 51
90.410530999997775
  0
LINE
  5
9B03
  8
AM_0
 10
115.7104257905485
 20
382.07332225428053
 30
0.0
 11
81.631695790548576
 21
382.07332225428053
 31
0.0
  0
LINE
  5
9B04
  8
AM_0
 10
115.7104257905485
 20
380.07332225428053
 30
0.0
 11
81.631695790548576
 21
380.07332225428053
 31
0.0
  0
LINE
  5
9B05
  8
AM_0
 10
115.7104257905485
 20
392.07332225428053
 30
0.0
 11
81.631695790548576
 21
392.07332225428053
 31
0.0
  0
LINE
  5
9B06
  8
AM_0
 10
115.7104257905485
 20
390.07332225428053
 30
0.0
 11
81.631695790548576
 21
390.07332225428053
 31
0.0
  0
LINE
  5
9B07
  8
AM_0
 10
115.7104257905485
 20
402.07332225428053
 30
0.0
 11
81.631695790548576
 21
402.07332225428053
 31
0.0
  0
LINE
  5
9B08
  8
AM_0
 10
115.7104257905485
 20
400.07332225428041
 30
0.0
 11
81.631695790548576
 21
400.07332225428041
 31
0.0
  0
POLYLINE
  5
9B09
  8
AM_0
 66
     1
 10
0.0
 20
0.0
 30
0.0
  0
VERTEX
  5
9B0A
  8
AM_0
 10
83.132605790548524
 20
412.55635225428063
 30
0.0
 42
-0.00068898288
  0
VERTEX
  5
9B0B
  8
AM_0
 10
83.203485790548413
 20
413.13110225428062
 30
0.0
 42
-0.00070644354
  0
VERTEX
  5
9B0C
  8
AM_0
 10
83.275985790548532
 20
413.70579225428071
 30
0.0
 42
-0.00069248071
  0
VERTEX
  5
9B0D
  8
AM_0
 10
83.350075790548487
 20
414.28010225428039
 30
0.0
 42
-0.00069585665
  0
VERTEX
  5
9B0E
  8
AM_0
 10
83.425755790548521
 20
414.85424225428062
 30
0.0
 42
-0.00068980191
  0
VERTEX
  5
9B0F
  8
AM_0
 10
83.503055790548444
 20
415.42824225428041
 30
0.0
 42
-0.00072080104
  0
VERTEX
  5
9B10
  8
AM_0
 10
83.581945790548559
 20
416.00203225428049
 30
0.0
 42
-0.00071002307
  0
VERTEX
  5
9B11
  8
AM_0
 10
83.662485790548487
 20
416.57550225428042
 30
0.0
 42
-0.00072659056
  0
VERTEX
  5
9B12
  8
AM_0
 10
83.744645790548532
 20
417.1486022542806
 30
0.0
 42
-0.00069570481
  0
VERTEX
  5
9B13
  8
AM_0
 10
83.828465790548449
 20
417.72163225428062
 30
0.0
 42
-0.00071266935
  0
VERTEX
  5
9B14
  8
AM_0
 10
83.913895790548565
 20
418.29440225428039
 30
0.0
 42
-0.00071614426
  0
VERTEX
  5
9B15
  8
AM_0
 10
84.00092579054845
 20
418.86674225428038
 30
0.0
 42
-0.00072288975
  0
VERTEX
  5
9B16
  8
AM_0
 10
84.089635790548442
 20
419.43904225428048
 30
0.0
  0
SEQEND
  5
9B17
  8
AM_0
  0
LINE
  5
9B18
  8
AM_0
 10
80.951695790548527
 20
419.4433122542805
 30
0.0
 11
148.2917257905485
 21
419.4433122542805
 31
0.0
  0
LINE
  5
9B19
  8
AM_0
 10
82.481725790548495
 20
442.35335225428042
 30
0.0
 11
179.40171579054839
 21
442.35335225428042
 31
0.0
  0
LINE
  5
9B1A
  8
AM_0
 10
82.521705790548509
 20
445.20332225428041
 30
0.0
 11
179.40171579054839
 21
445.20332225428041
 31
0.0
  0
LINE
  5
9B1B
  8
AM_0
 10
82.541725790548483
 20
447.0533022542806
 30
0.0
 11
179.40171579054839
 21
447.0533022542806
 31
0.0
  0
LINE
  5
9B1C
  8
AM_0
 10
82.561685790548424
 20
447.96333225428037
 30
0.0
 11
179.4017757905485
 21
447.96333225428037
 31
0.0
  0
LINE
  5
9B1D
  8
AM_0
 10
180.61173579054849
 20
422.07332225428041
 30
0.0
 11
81.631695790548576
 21
422.07332225428041
 31
0.0
  0
LINE
  5
9B1E
  8
AM_0
 10
180.61173579054849
 20
420.07332225428053
 30
0.0
 11
81.631695790548576
 21
420.07332225428053
 31
0.0
  0
LINE
  5
9B1F
  8
AM_0
 10
148.2717057905484
 20
412.07332225428053
 30
0.0
 11
81.631695790548576
 21
412.07332225428053
 31
0.0
  0
LINE
  5
9B20
  8
AM_0
 10
180.6045357905484
 20
410.07332225428041
 30
0.0
 11
81.631695790548576
 21
410.07332225428041
 31
0.0
  0
LINE
  5
9B21
  8
AM_0
 10
80.951695790548527
 20
422.79329225428052
 30
0.0
 11
184.09171579054839
 21
422.79329225428052
 31
0.0
  0
LINE
  5
9B22
  8
AM_0
 10
80.731725790548509
 20
412.56331225428062
 30
0.0
 11
148.2717057905484
 21
412.56331225428062
 31
0.0
  0
LINE
  5
9B23
  8
AM_0
 10
80.541725790548469
 20
382.34334225428051
 30
0.0
 11
116.9903957905485
 21
382.34334225428051
 31
0.0
  0
LINE
  5
9B24
  8
AM_0
 10
80.541725790548469
 20
379.8033022542806
 30
0.0
 11
116.9903957905485
 21
379.8033022542806
 31
0.0
  0
LINE
  5
9B25
  8
AM_0
 10
80.541725790548469
 20
392.34334225428051
 30
0.0
 11
116.9903957905485
 21
392.34334225428051
 31
0.0
  0
LINE
  5
9B26
  8
AM_0
 10
80.541725790548469
 20
389.81331225428062
 30
0.0
 11
116.9903957905485
 21
389.81331225428062
 31
0.0
  0
LINE
  5
9B27
  8
AM_0
 10
80.601725790548514
 20
402.4132822542806
 30
0.0
 11
116.9303957905485
 21
402.4132822542806
 31
0.0
  0
LINE
  5
9B28
  8
AM_0
 10
80.601725790548514
 20
399.75337225428052
 30
0.0
 11
116.9303957905485
 21
399.75337225428052
 31
0.0
  0
LINE
  5
9B29
  8
AM_0
 10
80.731725790548509
 20
409.63338225428038
 30
0.0
 11
184.30594579054841
 21
409.63338225428038
 31
0.0
  0
LINE
  5
9B2A
  8
AM_0
 10
84.631695790548576
 20
422.72331225428042
 30
0.0
 11
79.271705790548538
 21
434.17329225428063
 31
0.0
  0
LINE
  5
9B2B
  8
AM_0
 10
115.7104257905485
 20
372.07332225428053
 30
0.0
 11
81.631695790548576
 21
372.07332225428053
 31
0.0
  0
LINE
  5
9B2C
  8
AM_0
 10
115.7104257905485
 20
370.07332225428053
 30
0.0
 11
81.631695790548576
 21
370.07332225428053
 31
0.0
  0
LINE
  5
9B2D
  8
AM_0
 10
80.601725790548514
 20
372.39326225428061
 30
0.0
 11
116.9303957905485
 21
372.39326225428061
 31
0.0
  0
ARC
  5
9B2E
  8
AM_0
 10
22.171735790548428
 20
426.4643122542804
 30
0.0
 40
3.0
 50
90.000049999998538
 51
180.00002000000191
  0
ARC
  5
9B2F
  8
AM_0
 10
22.171735790548428
 20
423.4643122542804
 30
0.0
 40
3.0
 50
180.00002000000191
 51
270.00001100000242
  0
ARC
  5
9B30
  8
AM_0
 10
24.770275690548491
 20
442.07332225428041
 30
0.0
 40
9.0
 50
89.999988999997569
 51
179.99997999999781
  0
LINE
  5
9B31
  8
AM_0
 10
14.77173579054851
 20
381.07332225428041
 30
0.0
 11
14.77173579054851
 21
391.07332225428053
 31
0.0
  0
LINE
  5
9B32
  8
AM_0
 10
15.77027569054848
 20
381.07332225428041
 30
0.0
 11
14.77173579054851
 21
381.07332225428041
 31
0.0
  0
LINE
  5
9B33
  8
AM_0
 10
15.77027569054848
 20
391.07332225428053
 30
0.0
 11
14.77173579054851
 21
391.07332225428053
 31
0.0
  0
LINE
  5
9B34
  8
AM_0
 10
19.171735790548439
 20
423.4643122542804
 30
0.0
 11
19.171735790548439
 21
426.4643122542804
 31
0.0
  0
LINE
  5
9B35
  8
AM_0
 10
21.271705790548531
 20
381.07332225428041
 30
0.0
 11
20.77027569054848
 21
381.07332225428041
 31
0.0
  0
LINE
  5
9B36
  8
AM_0
 10
21.271705790548531
 20
391.07332225428053
 30
0.0
 11
20.77027569054848
 21
391.07332225428053
 31
0.0
  0
ARC
  5
9B37
  8
AM_0
 10
80.535865790548485
 20
391.07832225428041
 30
0.0
 40
1.2650129999999991
 50
89.735579000001735
 51
270.26441000000239
  0
ARC
  5
9B38
  8
AM_0
 10
80.535865790548485
 20
381.07332225428041
 30
0.0
 40
1.2700129999999981
 50
89.736617000001587
 51
270.2633699999991
  0
ARC
  5
9B39
  8
AM_0
 10
81.816325790548547
 20
381.07332225428041
 30
0.0
 40
1.000013899999999
 50
89.691659999999231
 51
270.30834000000078
  0
POLYLINE
  5
9B3A
  8
AM_0
 66
     1
 10
0.0
 20
0.0
 30
0.0
  0
VERTEX
  5
9B3B
  8
AM_0
 10
81.675755790548536
 20
379.80293225428051
 30
0.0
 42
0.00076695235
  0
VERTEX
  5
9B3C
  8
AM_0
 10
81.690555790548444
 20
379.18517225428047
 30
0.0
 42
0.00073263043
  0
VERTEX
  5
9B3D
  8
AM_0
 10
81.707195790548496
 20
378.56757225428049
 30
0.0
 42
0.00076525988
  0
VERTEX
  5
9B3E
  8
AM_0
 10
81.725685790548425
 20
377.9499022542804
 30
0.0
 42
0.00075144488
  0
VERTEX
  5
9B3F
  8
AM_0
 10
81.746055790548496
 20
377.33230225428048
 30
0.0
 42
0.00076035096
  0
VERTEX
  5
9B40
  8
AM_0
 10
81.768295790548493
 20
376.71487225428052
 30
0.0
 42
0.00075543154
  0
VERTEX
  5
9B41
  8
AM_0
 10
81.792395790548497
 20
376.09749225428038
 30
0.0
 42
0.0007577325
  0
VERTEX
  5
9B42
  8
AM_0
 10
81.818375790548487
 20
375.48009225428052
 30
0.0
 42
0.00076034585
  0
VERTEX
  5
9B43
  8
AM_0
 10
81.846225790548544
 20
374.86270225428052
 30
0.0
 42
0.00074823143
  0
VERTEX
  5
9B44
  8
AM_0
 10
81.875955790548517
 20
374.24531225428052
 30
0.0
 42
0.00074896605
  0
VERTEX
  5
9B45
  8
AM_0
 10
81.907515790548416
 20
373.62818225428049
 30
0.0
 42
0.00076039763
  0
VERTEX
  5
9B46
  8
AM_0
 10
81.940935790548494
 20
373.0111522542806
 30
0.0
 42
0.00075616127
  0
VERTEX
  5
9B47
  8
AM_0
 10
81.976235790548515
 20
372.39412225428049
 30
0.0
  0
SEQEND
  5
9B48
  8
AM_0
  0
ARC
  5
9B49
  8
AM_0
 10
81.816325790548547
 20
371.07332225428053
 30
0.0
 40
1.000013899999999
 50
89.691659999999231
 51
270.30834000000078
  0
POLYLINE
  5
9B4A
  8
AM_0
 66
     1
 10
0.0
 20
0.0
 30
0.0
  0
VERTEX
  5
9B4B
  8
AM_0
 10
81.631695790548576
 20
386.07332225428053
 30
0.0
 42
-0.00039106649
  0
VERTEX
  5
9B4C
  8
AM_0
 10
81.629335790548495
 20
386.38445225428057
 30
0.0
 42
-0.00035488198
  0
VERTEX
  5
9B4D
  8
AM_0
 10
81.627445790548506
 20
386.69556225428039
 30
0.0
 42
-0.00039706113
  0
VERTEX
  5
9B4E
  8
AM_0
 10
81.626015790548479
 20
387.00667225428049
 30
0.0
 42
-0.00038765718
  0
VERTEX
  5
9B4F
  8
AM_0
 10
81.625085790548425
 20
387.31781225428062
 30
0.0
 42
-0.00040613432
  0
VERTEX
  5
9B50
  8
AM_0
 10
81.624635790548425
 20
387.62891225428052
 30
0.0
 42
-0.00035573434
  0
VERTEX
  5
9B51
  8
AM_0
 10
81.624675790548565
 20
387.94002225428062
 30
0.0
 42
-0.00038545884
  0
VERTEX
  5
9B52
  8
AM_0
 10
81.625165790548451
 20
388.2511522542805
 30
0.0
 42
-0.00035501205
  0
VERTEX
  5
9B53
  8
AM_0
 10
81.626125790548542
 20
388.56226225428048
 30
0.0
 42
-0.00040120779
  0
VERTEX
  5
9B54
  8
AM_0
 10
81.627545790548481
 20
388.87349225428051
 30
0.0
 42
-0.00038317817
  0
VERTEX
  5
9B55
  8
AM_0
 10
81.629455790548533
 20
389.18462225428061
 30
0.0
 42
-0.00035656084
  0
VERTEX
  5
9B56
  8
AM_0
 10
81.63183579054845
 20
389.49586225428061
 30
0.0
 42
-0.00040143615
  0
VERTEX
  5
9B57
  8
AM_0
 10
81.634685790548531
 20
389.80696225428039
 30
0.0
  0
SEQEND
  5
9B58
  8
AM_0
  0
POLYLINE
  5
9B59
  8
AM_0
 66
     1
 10
0.0
 20
0.0
 30
0.0
  0
VERTEX
  5
9B5A
  8
AM_0
 10
81.631695790548576
 20
386.07332225428053
 30
0.0
 42
0.00039106589
  0
VERTEX
  5
9B5B
  8
AM_0
 10
81.629335790548495
 20
385.7621822542805
 30
0.0
 42
0.00035488584
  0
VERTEX
  5
9B5C
  8
AM_0
 10
81.627445790548506
 20
385.45107225428052
 30
0.0
 42
0.00039705232
  0
VERTEX
  5
9B5D
  8
AM_0
 10
81.626015790548479
 20
385.13997225428039
 30
0.0
 42
0.0003876649
  0
VERTEX
  5
9B5E
  8
AM_0
 10
81.625085790548425
 20
384.82883225428048
 30
0.0
 42
0.00040613779
  0
VERTEX
  5
9B5F
  8
AM_0
 10
81.624635790548425
 20
384.51772225428061
 30
0.0
 42
0.00035571855
  0
VERTEX
  5
9B60
  8
AM_0
 10
81.624675790548565
 20
384.20662225428049
 30
0.0
 42
0.00038547358
  0
VERTEX
  5
9B61
  8
AM_0
 10
81.625165790548451
 20
383.89548225428052
 30
0.0
 42
0.000355015
  0
VERTEX
  5
9B62
  8
AM_0
 10
81.626125790548542
 20
383.58438225428063
 30
0.0
 42
0.00040118616
  0
VERTEX
  5
9B63
  8
AM_0
 10
81.627545790548481
 20
383.2731522542806
 30
0.0
 42
0.00038319867
  0
VERTEX
  5
9B64
  8
AM_0
 10
81.629455790548533
 20
382.96201225428058
 30
0.0
 42
0.00035656356
  0
VERTEX
  5
9B65
  8
AM_0
 10
81.63183579054845
 20
382.6507822542805
 30
0.0
 42
0.00040140992
  0
VERTEX
  5
9B66
  8
AM_0
 10
81.634685790548531
 20
382.3396722542804
 30
0.0
  0
SEQEND
  5
9B67
  8
AM_0
  0
ARC
  5
9B68
  8
AM_0
 10
81.816325790548547
 20
391.07332225428053
 30
0.0
 40
1.000013899999999
 50
89.691659999999231
 51
270.30834000000078
  0
POLYLINE
  5
9B69
  8
AM_0
 66
     1
 10
0.0
 20
0.0
 30
0.0
  0
VERTEX
  5
9B6A
  8
AM_0
 10
82.149945790548543
 20
402.4138922542806
 30
0.0
 42
-0.0007337051
  0
VERTEX
  5
9B6B
  8
AM_0
 10
82.194085790548513
 20
403.01631225428048
 30
0.0
 42
-0.00075211323
  0
VERTEX
  5
9B6C
  8
AM_0
 10
82.240025790548486
 20
403.61870225428038
 30
0.0
 42
-0.0007297491
  0
VERTEX
  5
9B6D
  8
AM_0
 10
82.287755790548488
 20
404.22090225428047
 30
0.0
 42
-0.00073593041
  0
VERTEX
  5
9B6E
  8
AM_0
 10
82.33723579054849
 20
404.82289225428042
 30
0.0
 42
-0.00074742739
  0
VERTEX
  5
9B6F
  8
AM_0
 10
82.388505790548535
 20
405.42476225428049
 30
0.0
 42
-0.00073217363
  0
VERTEX
  5
9B70
  8
AM_0
 10
82.441565790548495
 20
406.02656225428052
 30
0.0
 42
-0.00073754168
  0
VERTEX
  5
9B71
  8
AM_0
 10
82.496385790548445
 20
406.62810225428041
 30
0.0
 42
-0.00073075073
  0
VERTEX
  5
9B72
  8
AM_0
 10
82.552965790548512
 20
407.22946225428041
 30
0.0
 42
-0.00074550816
  0
VERTEX
  5
9B73
  8
AM_0
 10
82.611305790548442
 20
407.83052225428042
 30
0.0
 42
-0.00074288416
  0
VERTEX
  5
9B74
  8
AM_0
 10
82.671455790548464
 20
408.4315422542806
 30
0.0
 42
-0.00072504001
  0
VERTEX
  5
9B75
  8
AM_0
 10
82.733365790548447
 20
409.03229225428061
 30
0.0
 42
-0.00074640667
  0
VERTEX
  5
9B76
  8
AM_0
 10
82.797035790548492
 20
409.63289225428048
 30
0.0
  0
SEQEND
  5
9B77
  8
AM_0
  0
POLYLINE
  5
9B78
  8
AM_0
 66
     1
 10
0.0
 20
0.0
 30
0.0
  0
VERTEX
  5
9B79
  8
AM_0
 10
81.675755790548536
 20
392.34370225428052
 30
0.0
 42
-0.00076691992
  0
VERTEX
  5
9B7A
  8
AM_0
 10
81.690555790548444
 20
392.96147225428052
 30
0.0
 42
-0.00073262792
  0
VERTEX
  5
9B7B
  8
AM_0
 10
81.707195790548496
 20
393.57906225428047
 30
0.0
 42
-0.00076529537
  0
VERTEX
  5
9B7C
  8
AM_0
 10
81.725685790548425
 20
394.19673225428039
 30
0.0
 42
-0.00075141097
  0
VERTEX
  5
9B7D
  8
AM_0
 10
81.746055790548496
 20
394.81433225428049
 30
0.0
 42
-0.00075841687
  0
VERTEX
  5
9B7E
  8
AM_0
 10
81.768285790548546
 20
395.4317622542805
 30
0.0
 42
-0.00075711788
  0
VERTEX
  5
9B7F
  8
AM_0
 10
81.792395790548497
 20
396.04927225428071
 30
0.0
 42
-0.00075976003
  0
VERTEX
  5
9B80
  8
AM_0
 10
81.818385790548447
 20
396.66666225428071
 30
0.0
 42
-0.00075797311
  0
VERTEX
  5
9B81
  8
AM_0
 10
81.846225790548544
 20
397.28394225428048
 30
0.0
 42
-0.0007482613
  0
VERTEX
  5
9B82
  8
AM_0
 10
81.875955790548517
 20
397.90132225428039
 30
0.0
 42
-0.00074893561
  0
VERTEX
  5
9B83
  8
AM_0
 10
81.907515790548416
 20
398.51845225428048
 30
0.0
 42
-0.00076039839
  0
VERTEX
  5
9B84
  8
AM_0
 10
81.940935790548494
 20
399.13548225428048
 30
0.0
 42
-0.00075618786
  0
VERTEX
  5
9B85
  8
AM_0
 10
81.976235790548515
 20
399.75252225428062
 30
0.0
  0
SEQEND
  5
9B86
  8
AM_0
  0
ARC
  5
9B87
  8
AM_0
 10
80.601725790548514
 20
401.08333225428038
 30
0.0
 40
1.3300049999999981
 50
90.00000299999769
 51
270.0
  0
ARC
  5
9B88
  8
AM_0
 10
81.816325790548547
 20
401.07332225428041
 30
0.0
 40
1.000013899999999
 50
89.691659999999231
 51
270.30834000000078
  0
ARC
  5
9B89
  8
AM_0
 10
80.731725790548509
 20
411.09834225428062
 30
0.0
 40
1.465004
 50
90.00000299999769
 51
270.0
  0
ARC
  5
9B8A
  8
AM_0
 10
81.816325790548547
 20
411.07332225428053
 30
0.0
 40
1.000013899999999
 50
89.691659999999231
 51
270.30834000000078
  0
LINE
  5
9B8B
  8
AM_0
 10
23.771705790548531
 20
429.9643122542804
 30
0.0
 11
66.271705790548538
 21
429.9643122542804
 31
0.0
  0
LINE
  5
9B8C
  8
AM_0
 10
23.771705790548531
 20
419.7143122542804
 30
0.0
 11
66.271705790548538
 21
419.7143122542804
 31
0.0
  0
LINE
  5
9B8D
  8
AM_0
 10
23.271705790548541
 20
438.82332225428053
 30
0.0
 11
71.271705790548538
 21
438.82332225428053
 31
0.0
  0
LINE
  5
9B8E
  8
AM_0
 10
24.770275690548491
 20
451.07332225428041
 30
0.0
 11
62.271705790548531
 21
451.07332225428041
 31
0.0
  0
LINE
  5
9B8F
  8
AM_0
 10
46.271705790548538
 20
444.8233222542803
 30
0.0
 11
71.271705790548538
 21
444.8233222542803
 31
0.0
  0
LINE
  5
9B90
  8
AM_0
 10
21.271705790548531
 20
429.3262522542804
 30
0.0
 11
21.271705790548531
 21
436.82332225428041
 31
0.0
  0
LINE
  5
9B91
  8
AM_0
 10
20.77027569054848
 20
429.1168411585731
 30
0.0
 11
20.77027569054848
 21
441.07332225428053
 31
0.0
  0
LINE
  5
9B92
  8
AM_0
 10
22.471715790548441
 20
420.3643422542803
 30
0.0
 11
22.471715790548441
 21
429.56429225428042
 31
0.0
  0
LINE
  5
9B93
  8
AM_0
 10
22.471715790548441
 20
420.3643422542803
 30
0.0
 11
23.771705790548531
 21
420.3643422542803
 31
0.0
  0
LINE
  5
9B94
  8
AM_0
 10
22.171735790548428
 20
420.46431225428063
 30
0.0
 11
22.471715790548441
 21
420.46431225428063
 31
0.0
  0
LINE
  5
9B95
  8
AM_0
 10
22.471715790548441
 20
429.56429225428042
 30
0.0
 11
23.771705790548531
 21
429.56429225428042
 31
0.0
  0
LINE
  5
9B96
  8
AM_0
 10
22.171735790548428
 20
429.46431225428051
 30
0.0
 11
22.471715790548441
 21
429.46431225428051
 31
0.0
  0
LINE
  5
9B97
  8
AM_0
 10
25.77027569054848
 20
446.07332225428041
 30
0.0
 11
49.271705790548538
 21
446.07332225428041
 31
0.0
  0
ARC
  5
9B98
  8
AM_0
 10
25.77027569054848
 20
441.07332225428053
 30
0.0
 40
5.0
 50
89.999988999997569
 51
180.0
  0
ARC
  5
9B99
  8
AM_0
 10
23.271705790548541
 20
436.82332225428041
 30
0.0
 40
2.0
 50
90.000049999998538
 51
180.00002000000191
  0
LINE
  5
9B9A
  8
AM_0
 10
49.271705790548538
 20
444.82332225428041
 30
0.0
 11
49.271705790548538
 21
451.07332225428041
 31
0.0
  0
LINE
  5
9B9B
  8
AM_0
 10
46.271705790548538
 20
444.8233222542803
 30
0.0
 11
46.271705790548538
 21
438.82332225428053
 31
0.0
  0
LINE
  5
9B9C
  8
AM_0
 10
79.271705790548538
 20
434.17335225428047
 30
0.0
 11
80.511695790548586
 21
440.73332225428049
 31
0.0
  0
LINE
  5
9B9D
  8
AM_0
 10
66.271705790548538
 20
429.9643122542804
 30
0.0
 11
66.271705790548538
 21
438.82332225428053
 31
0.0
  0
LINE
  5
9B9E
  8
AM_0
 10
79.271705790548538
 20
435.51335225428039
 30
0.0
 11
80.551675790548444
 21
443.52330225428062
 31
0.0
  0
ARC
  5
9B9F
  8
AM_0
 10
80.944315790548501
 20
421.11836225428038
 30
0.0
 40
1.6750160000000001
 50
89.746145000004447
 51
270.25387000000092
  0
ARC
  5
9BA0
  8
AM_0
 10
81.816325790548547
 20
421.07332225428041
 30
0.0
 40
1.000013899999999
 50
89.691659999999231
 51
270.30834000000078
  0
LINE
  5
9BA1
  8
AM_0
 10
71.971715790548444
 20
429.26326225428039
 30
0.0
 11
78.201695790548513
 21
429.26326225428039
 31
0.0
  0
LINE
  5
9BA2
  8
AM_0
 10
59.271705790548538
 20
444.82332225428041
 30
0.0
 11
59.271705790548538
 21
451.07332225428041
 31
0.0
  0
LINE
  5
9BA3
  8
AM_0
 10
62.271705790548531
 20
446.07332225428041
 30
0.0
 11
62.271705790548531
 21
451.07332225428041
 31
0.0
  0
LINE
  5
9BA4
  8
AM_0
 10
59.271705790548538
 20
446.07332225428041
 30
0.0
 11
62.271705790548531
 21
446.07332225428041
 31
0.0
  0
ARC
  5
9BA5
  8
AM_0
 10
82.558205790548442
 20
445.96773225428052
 30
0.0
 40
1.995633
 50
89.899708000002292
 51
172.06112999999959
  0
LINE
  5
9BA6
  8
AM_0
 10
71.271705790548538
 20
439.07332225428041
 30
0.0
 11
79.271705790548538
 21
439.07332225428041
 31
0.0
  0
LINE
  5
9BA7
  8
AM_0
 10
79.271705790548538
 20
436.86333225428041
 30
0.0
 11
80.561685790548466
 21
445.35329225428052
 31
0.0
  0
LINE
  5
9BA8
  8
AM_0
 10
79.271705790548538
 20
436.86333225428041
 30
0.0
 11
80.581705790548483
 21
446.24336225428038
 31
0.0
  0
ARC
  5
9BA9
  8
AM_0
 10
82.470435790548493
 20
440.35921225428041
 30
0.0
 40
1.994108999999999
 50
89.675548000002749
 51
169.18776999999869
  0
ARC
  5
9BAA
  8
AM_0
 10
82.521955790548446
 20
443.2080822542805
 30
0.0
 40
1.995282999999999
 50
90.006203999996856
 51
170.90835000000069
  0
ARC
  5
9BAB
  8
AM_0
 10
82.536295790548536
 20
445.05659225428042
 30
0.0
 40
1.9967330000000001
 50
89.843966999998912
 51
171.45387999999721
  0
ARC
  5
9BAC
  8
AM_0
 10
115.7104257905485
 20
401.07332225428041
 30
0.0
 40
1.0000056999999991
 50
269.999989999999
 51
90.00000299999769
  0
ARC
  5
9BAD
  8
AM_0
 10
115.7104257905485
 20
391.07332225428053
 30
0.0
 40
1.0000056999999991
 50
269.999989999999
 51
90.00000299999769
  0
ARC
  5
9BAE
  8
AM_0
 10
115.7104257905485
 20
381.07332225428041
 30
0.0
 40
1.0000056999999991
 50
269.999989999999
 51
90.00000299999769
  0
ARC
  5
9BAF
  8
AM_0
 10
115.7104257905485
 20
371.07332225428053
 30
0.0
 40
1.0000056999999991
 50
269.999989999999
 51
90.00000299999769
  0
ARC
  5
9BB0
  8
AM_0
 10
116.99863579054841
 20
391.08333225428049
 30
0.0
 40
1.2700266
 50
269.62931999999989
 51
90.370670000004694
  0
ARC
  5
9BB1
  8
AM_0
 10
116.99863579054841
 20
381.07332225428041
 30
0.0
 40
1.2700266
 50
269.62931999999989
 51
90.370670000004694
  0
ARC
  5
9BB2
  8
AM_0
 10
116.9366857905484
 20
401.08833225428037
 30
0.0
 40
1.3350147999999991
 50
269.73042999999973
 51
90.269556000001344
  0
LINE
  5
9BB3
  8
AM_0
 10
165.25168579054841
 20
413.57332225428041
 30
0.0
 11
165.25168579054841
 21
418.43330225428042
 31
0.0
  0
LINE
  5
9BB4
  8
AM_0
 10
164.7717057905484
 20
413.57332225428041
 30
0.0
 11
164.7717057905484
 21
418.57332225428053
 31
0.0
  0
CIRCLE
  5
9BB5
  8
AM_0
 10
154.7717057905484
 20
414.57332225428053
 30
0.0
 40
1.1000000000000001
  0
CIRCLE
  5
9BB6
  8
AM_0
 10
154.7717057905484
 20
414.57332225428053
 30
0.0
 40
1.149999999999999
  0
LINE
  5
9BB7
  8
AM_0
 10
149.7717057905484
 20
413.57332225428041
 30
0.0
 11
149.7717057905484
 21
418.57332225428053
 31
0.0
  0
LINE
  5
9BB8
  8
AM_0
 10
149.2917257905485
 20
413.57332225428041
 30
0.0
 11
149.2917257905485
 21
418.43330225428042
 31
0.0
  0
CIRCLE
  5
9BB9
  8
AM_0
 10
159.7717057905484
 20
414.57332225428053
 30
0.0
 40
1.0
  0
LINE
  5
9BBA
  8
AM_0
 10
180.61887579054849
 20
412.07332225428053
 30
0.0
 11
166.2717057905484
 21
412.07332225428053
 31
0.0
  0
LINE
  5
9BBB
  8
AM_0
 10
166.2717057905484
 20
412.56331225428062
 30
0.0
 11
184.31736579054839
 21
412.56331225428062
 31
0.0
  0
ARC
  5
9BBC
  8
AM_0
 10
148.2717057905484
 20
413.57332225428041
 30
0.0
 40
1.5
 50
269.999989999999
 51
0.0000006832495047
  0
ARC
  5
9BBD
  8
AM_0
 10
148.2717057905484
 20
413.57332225428041
 30
0.0
 40
1.02
 50
269.999989999999
 51
0.0000006832429909
  0
ARC
  5
9BBE
  8
AM_0
 10
166.2717057905484
 20
413.57332225428041
 30
0.0
 40
1.02
 50
179.99998999999889
 51
270.0
  0
ARC
  5
9BBF
  8
AM_0
 10
166.2717057905484
 20
413.57332225428041
 30
0.0
 40
1.5
 50
179.99998999999889
 51
270.0
  0
ARC
  5
9BC0
  8
AM_0
 10
184.31168579054841
 20
411.10335225428042
 30
0.0
 40
1.460011199999999
 50
269.77524999999662
 51
90.224749999996845
  0
ARC
  5
9BC1
  8
AM_0
 10
180.6116757905485
 20
411.07332225428053
 30
0.0
 40
1.0000255999999981
 50
269.58947000000319
 51
90.410530999997775
  0
LINE
  5
9BC2
  8
AM_0
 10
166.25168579054841
 20
419.43330225428048
 30
0.0
 11
184.09171579054839
 21
419.43330225428048
 31
0.0
  0
ARC
  5
9BC3
  8
AM_0
 10
148.2717057905484
 20
418.57332225428053
 30
0.0
 40
1.5
 50
0.0
 51
90.00000299999769
  0
ARC
  5
9BC4
  8
AM_0
 10
148.2917257905485
 20
418.43330225428042
 30
0.0
 40
1.0
 50
0.0
 51
90.00000299999769
  0
ARC
  5
9BC5
  8
AM_0
 10
166.2717057905484
 20
418.57332225428053
 30
0.0
 40
1.5
 50
90.00000299999769
 51
180.00001000000091
  0
ARC
  5
9BC6
  8
AM_0
 10
166.25168579054841
 20
418.43330225428042
 30
0.0
 40
1.0
 50
90.00000299999769
 51
180.00001000000091
  0
LINE
  5
9BC7
  8
AM_0
 10
185.47171579054839
 20
425.41325225428039
 30
0.0
 11
181.3317057905484
 21
440.87327225428061
 31
0.0
  0
LINE
  5
9BC8
  8
AM_0
 10
185.47742579054841
 20
428.2421722542806
 30
0.0
 11
181.3317057905484
 21
443.72331225428047
 31
0.0
  0
LINE
  5
9BC9
  8
AM_0
 10
185.4774557905485
 20
431.00215225428047
 30
0.0
 11
181.33173579054841
 21
446.48326225428048
 31
0.0
  0
LINE
  5
9BCA
  8
AM_0
 10
185.47742579054841
 20
430.09215225428062
 30
0.0
 11
181.3317057905484
 21
445.57326225428039
 31
0.0
  0
LINE
  5
9BCB
  8
AM_0
 10
187.2717057905484
 20
432.07332225428053
 30
0.0
 11
195.2717057905484
 21
432.07332225428053
 31
0.0
  0
LINE
  5
9BCC
  8
AM_0
 10
187.2717057905484
 20
418.01326225428039
 30
0.0
 11
195.2717057905484
 21
418.01326225428039
 31
0.0
  0
ARC
  5
9BCD
  8
AM_0
 10
184.09171579054839
 20
421.11836225428038
 30
0.0
 40
1.6750020000000001
 50
269.999989999999
 51
90.00000299999769
  0
ARC
  5
9BCE
  8
AM_0
 10
180.61173579054849
 20
421.07332225428041
 30
0.0
 40
1.0
 50
269.999989999999
 51
90.00000299999769
  0
ARC
  5
9BCF
  8
AM_0
 10
186.92490579054839
 20
425.79610225428053
 30
0.0
 40
1.502775999999999
 50
194.7564299999992
 51
269.8775799999986
  0
ARC
  5
9BD0
  8
AM_0
 10
186.92490579054839
 20
431.40608225428042
 30
0.0
 40
1.502775999999999
 50
194.7564299999992
 51
269.8775799999986
  0
ARC
  5
9BD1
  8
AM_0
 10
186.92490579054839
 20
428.64607225428051
 30
0.0
 40
1.502775999999999
 50
194.7564299999992
 51
269.8775799999986
  0
ARC
  5
9BD2
  8
AM_0
 10
186.92490579054839
 20
430.49605225428041
 30
0.0
 40
1.502775999999999
 50
194.7564299999992
 51
269.8775799999986
  0
LINE
  5
9BD3
  8
AM_0
 10
187.2717057905484
 20
442.07332225428041
 30
0.0
 11
195.2717057905484
 21
442.07332225428041
 31
0.0
  0
ARC
  5
9BD4
  8
AM_0
 10
179.3968857905484
 20
445.95857225428063
 30
0.0
 40
2.0047290000000002
 50
15.173495999996319
 51
89.861678000000197
  0
LINE
  5
9BD5
  8
AM_0
 10
181.81168579054841
 20
439.07332225428041
 30
0.0
 11
187.2717057905484
 21
439.07332225428041
 31
0.0
  0
ARC
  5
9BD6
  8
AM_0
 10
179.4017757905485
 20
440.35506225428043
 30
0.0
 40
1.9982919999999991
 50
15.032547999996
 51
90.002632000001341
  0
ARC
  5
9BD7
  8
AM_0
 10
179.3968857905484
 20
443.19856225428038
 30
0.0
 40
2.0047290000000002
 50
15.173495999996319
 51
89.861678000000197
  0
ARC
  5
9BD8
  8
AM_0
 10
179.3968857905484
 20
445.04854225428062
 30
0.0
 40
2.0047290000000002
 50
15.173495999996319
 51
89.861678000000197
  0
TEXT
  5
A141
  8
0
  6
CONTINUOUS
 62
     0
 10
510.06719809116697
 20
374.25297645671333
 30
0.0
 40
10.0
  1
VX01-240BF~VX01-600BF
  0
VIEWPORT
  5
89
 67
     1
  8
0
 10
210.0
 20
148.5
 30
0.0
 40
420.0
 41
297.0
 68
    -1
 69
     1
1001
ACAD
1000
MVIEW
1002
{
1070
    16
1010
0.0
1020
0.0
1030
0.0
1010
0.0
1020
0.0
1030
1.0
1040
0.0
1040
297.0
1040
221.70154043645701
1040
148.5
1040
50.0
1040
0.0
1040
0.0
1070
     0
1070
   100
1070
     1
1070
     1
1070
     0
1070
     0
1070
     0
1070
     0
1040
0.0
1040
0.0
1040
0.0
1040
10.0
1040
10.0
1040
10.0
1040
10.0
1070
     0
1002
{
1002
}
1002
}
1001
GENIUS_GENOREF_13
1005
1B94
1001
GENIUS_GENSCREG_15
1000
PF
1040
1.0
1000
DF
1040
1.0
1000
MIN
1011
0.0
1021
0.0
1031
0.0
1021
0.0
1031
0.0
1000
MAX
1011
420.0
1021
0.0
1031
0.0
1021
297.0
1031
0.0
1000
FLAGS
1070
     4
  0
ENDSEC
  0
EOF
