  0
SECTION
  2
HEADER
  9
$ACADVER
  1
AC1009
  9
$INSBASE
 10
0.0
 20
0.0
 30
0.0
  9
$EXTMIN
 10
13.641410021371479
 20
3.1560390294205258
 30
-0.0015258207003583
  9
$EXTMAX
 10
801.87332039623755
 20
565.46561035377931
 30
0.0000000349246037
  9
$LIMMIN
 10
0.0
 20
0.0
  9
$LIMMAX
 10
408.0
 20
284.0
  9
$ORTHOMODE
 70
     0
  9
$REGENMODE
 70
     1
  9
$FILLMODE
 70
     1
  9
$QTEXTMODE
 70
     0
  9
$MIRRTEXT
 70
     1
  9
$DRAGMODE
 70
     2
  9
$LTSCALE
 40
1.0
  9
$OSMODE
 70
   551
  9
$ATTMODE
 70
     1
  9
$TEXTSIZE
 40
2.5
  9
$TRACEWID
 40
1.0
  9
$TEXTSTYLE
  7
STANDARD
  9
$CLAYER
  8
AM_0
  9
$CELTYPE
  6
BYLAYER
  9
$CECOLOR
 62
   256
  9
$DIMSCALE
 40
1.0
  9
$DIMASZ
 40
2.5
  9
$DIMEXO
 40
1.0
  9
$DIMDLI
 40
7.0
  9
$DIMRND
 40
0.0
  9
$DIMDLE
 40
0.0
  9
$DIMEXE
 40
1.0
  9
$DIMTP
 40
0.1
  9
$DIMTM
 40
0.1000000001
  9
$DIMTXT
 40
2.5
  9
$DIMCEN
 40
0.0
  9
$DIMTSZ
 40
0.0
  9
$DIMTOL
 70
     0
  9
$DIMLIM
 70
     0
  9
$DIMTIH
 70
     0
  9
$DIMTOH
 70
     0
  9
$DIMSE1
 70
     0
  9
$DIMSE2
 70
     0
  9
$DIMTAD
 70
     3
  9
$DIMZIN
 70
     8
  9
$DIMBLK
  1

  9
$DIMASO
 70
     1
  9
$DIMSHO
 70
     1
  9
$DIMPOST
  1

  9
$DIMAPOST
  1
"
  9
$DIMALT
 70
     0
  9
$DIMALTD
 70
     2
  9
$DIMALTF
 40
0.0393701
  9
$DIMLFAC
 40
1.0
  9
$DIMTOFL
 70
     1
  9
$DIMTVP
 40
0.0
  9
$DIMTIX
 70
     0
  9
$DIMSOXD
 70
     0
  9
$DIMSAH
 70
     0
  9
$DIMBLK1
  1

  9
$DIMBLK2
  1

  9
$DIMSTYLE
  2
AM_JIS
  9
$DIMCLRD
 70
   256
  9
$DIMCLRE
 70
   256
  9
$DIMCLRT
 70
     4
  9
$DIMTFAC
 40
0.71
  9
$DIMGAP
 40
1.0
  9
$LUNITS
 70
     2
  9
$LUPREC
 70
     2
  9
$SKETCHINC
 40
1.0
  9
$FILLETRAD
 40
2.5
  9
$AUNITS
 70
     0
  9
$AUPREC
 70
     3
  9
$MENU
  1
.
  9
$ELEVATION
 40
0.0
  9
$PELEVATION
 40
0.0
  9
$THICKNESS
 40
0.0
  9
$LIMCHECK
 70
     0
  9
$BLIPMODE
 70
     0
  9
$CHAMFERA
 40
2.5
  9
$CHAMFERB
 40
2.5
  9
$SKPOLY
 70
     0
  9
$TDCREATE
 40
2453062.4622178818
  9
$TDUPDATE
 40
2458541.3567364118
  9
$TDINDWG
 40
0.0309594907
  9
$TDUSRTIMER
 40
0.0309592824
  9
$USRTIMER
 70
     1
  9
$ANGBASE
 50
0.0
  9
$ANGDIR
 70
     0
  9
$PDMODE
 70
     0
  9
$PDSIZE
 40
0.0
  9
$PLINEWID
 40
0.0
  9
$COORDS
 70
     1
  9
$SPLFRAME
 70
     0
  9
$SPLINETYPE
 70
     6
  9
$SPLINESEGS
 70
     8
  9
$ATTDIA
 70
     1
  9
$ATTREQ
 70
     1
  9
$HANDLING
 70
     1
  9
$HANDSEED
  5
95F7
  9
$SURFTAB1
 70
     6
  9
$SURFTAB2
 70
     6
  9
$SURFTYPE
 70
     6
  9
$SURFU
 70
     6
  9
$SURFV
 70
     6
  9
$UCSNAME
  2

  9
$UCSORG
 10
0.0
 20
0.0
 30
0.0
  9
$UCSXDIR
 10
1.0
 20
0.0
 30
0.0
  9
$UCSYDIR
 10
0.0
 20
1.0
 30
0.0
  9
$PUCSNAME
  2

  9
$PUCSORG
 10
0.0
 20
0.0
 30
0.0
  9
$PUCSXDIR
 10
1.0
 20
0.0
 30
0.0
  9
$PUCSYDIR
 10
0.0
 20
1.0
 30
0.0
  9
$USERI1
 70
     0
  9
$USERI2
 70
     0
  9
$USERI3
 70
     0
  9
$USERI4
 70
     0
  9
$USERI5
 70
     0
  9
$USERR1
 40
0.0
  9
$USERR2
 40
0.0
  9
$USERR3
 40
0.0
  9
$USERR4
 40
0.0
  9
$USERR5
 40
0.0
  9
$WORLDVIEW
 70
     1
  9
$SHADEDGE
 70
     3
  9
$SHADEDIF
 70
    70
  9
$TILEMODE
 70
     1
  9
$MAXACTVP
 70
    48
  9
$PLIMCHECK
 70
     0
  9
$PEXTMIN
 10
1.0000000000000000E+020
 20
1.0000000000000000E+020
 30
1.0000000000000000E+020
  9
$PEXTMAX
 10
-1.0000000000000000E+020
 20
-1.0000000000000000E+020
 30
-1.0000000000000000E+020
  9
$PLIMMIN
 10
0.0
 20
0.0
  9
$PLIMMAX
 10
420.0
 20
297.0
  9
$UNITMODE
 70
     0
  9
$VISRETAIN
 70
     1
  9
$PLINEGEN
 70
     0
  9
$PSLTSCALE
 70
     1
  0
ENDSEC
  0
SECTION
  2
TABLES
  0
TABLE
  2
VPORT
 70
     1
  0
VPORT
  2
*ACTIVE
 70
     0
 10
0.0
 20
0.0
 11
1.0
 21
1.0
 12
407.75736520880452
 22
284.31082469159992
 13
0.0
 23
0.0
 14
1.0
 24
1.0
 15
10.0
 25
10.0
 16
0.0
 26
0.0
 36
1.0
 17
0.0
 27
0.0
 37
0.0
 40
566.16982009775245
 41
1.7571592210767459
 42
50.0
 43
0.0
 44
0.0
 50
0.0
 51
0.0
 71
     0
 72
   100
 73
     1
 74
     1
 75
     0
 76
     0
 77
     0
 78
     0
  0
ENDTAB
  0
TABLE
  2
LTYPE
 70
    25
  0
LTYPE
  2
CONTINUOUS
 70
     0
  3
Solid line
 72
    65
 73
     0
 40
0.0
  0
LTYPE
  2
PHANTOM2
 70
     0
  3
Phantom (.5x) ___ _ _ ___ _ _ ___ _ _ ___ _ _
 72
    65
 73
     6
 40
31.75
 49
15.875
 49
-3.174999999999998
 49
3.174999999999998
 49
-3.174999999999998
 49
3.174999999999998
 49
-3.174999999999998
  0
LTYPE
  2
CENTER
 70
     0
  3
Center ____ _ ____ _ ____ _ ____ _ ____ _ ____
 72
    65
 73
     4
 40
50.799999999999997
 49
31.75
 49
-6.3499999999999979
 49
6.3499999999999979
 49
-6.3499999999999979
  0
LTYPE
  2
ACANSTGBM
 70
     0
  3
__ . . __ . .
 72
    65
 73
     6
 40
9.0
 49
4.0
 49
-1.0
 49
1.0
 49
-1.0
 49
1.0
 49
-1.0
  0
LTYPE
  2
ACANSTGLM
 70
     0
  3
_ _ _ _ _
 72
    65
 73
     2
 40
3.0
 49
2.0
 49
-1.0
  0
LTYPE
  2
GEN7
 70
     0
  3
____ . ____ . ____ . ____ . ____ . ____ . ____
 72
    65
 73
     4
 40
14.25
 49
9.75
 49
-1.5
 49
1.5
 49
-1.5
  0
LTYPE
  2
AM_ISO02W050
 70
     0
  3
__ __ __ __ __ __ __ __ __ __ __ __ __ __ __
 72
    65
 73
     2
 40
7.5
 49
6.0
 49
-1.5
  0
LTYPE
  2
AM_ISO08W050
 70
     0
  3
____ . ____ . ____ . ____ . ____ . ____ . ____
 72
    65
 73
     4
 40
18.0
 49
12.0
 49
-1.5
 49
3.0
 49
-1.5
  0
LTYPE
  2
AM_ISO09W050
 70
     0
  3
_____ . . _____ . . _____ . . ____ .. ____
 72
    65
 73
     6
 40
22.5
 49
12.0
 49
-1.5
 49
3.0
 49
-1.5
 49
3.0
 49
-1.5
  0
LTYPE
  2
AMCONSTR
 70
     0
  3
_______________________
 72
    65
 73
     2
 40
9999.0
 49
9999.0
 49
0.0
  0
LTYPE
  2
AM_ISO02W050X2
 70
     0
  3
 _ _ _ _ _ _ _ _ _ _ _ _
 72
    65
 73
     2
 40
3.75
 49
3.0
 49
-0.75
  0
LTYPE
  2
AM_ISO08W050X2
 70
     0
  3
__ . __ . __ . __ . __ . __
 72
    65
 73
     4
 40
9.0
 49
6.0
 49
-0.75
 49
1.5
 49
-0.75
  0
LTYPE
  2
AMZIGZAG
 70
     0
  3
/\/-/\/-/\/-/\/-/\/-/\/
 72
    65
 73
     2
 40
11.000099999999991
 49
0.0001
 49
-11.0
  0
LTYPE
  2
ACJISTGB
 70
     0
  3
__ . . __ . .
 72
    65
 73
     6
 40
9.0
 49
4.0
 49
-1.0
 49
1.0
 49
-1.0
 49
1.0
 49
-1.0
  0
LTYPE
  2
ACJISTGL
 70
     0
  3
_ _ _ _ _
 72
    65
 73
     2
 40
3.0
 49
2.0
 49
-1.0
  0
LTYPE
  2
ACISOWELD
 70
     0
  3
_ _ _ _ _
 72
    65
 73
     2
 40
2.0
 49
2.0
 49
-1.0
  0
LTYPE
  2
ACISOTGB
 70
     0
  3
__ . . __ . .
 72
    65
 73
     6
 40
9.0
 49
4.0
 49
-1.0
 49
1.0
 49
-1.0
 49
1.0
 49
-1.0
  0
LTYPE
  2
ACISOTGL
 70
     0
  3
_ _ _ _ _
 72
    65
 73
     2
 40
3.0
 49
2.0
 49
-1.0
  0
LTYPE
  2
HIDDEN
 70
     0
  3
Hidden __ __ __ __ __ __ __ __ __ __ __ __ __ _
 72
    65
 73
     2
 40
0.375
 49
0.25
 49
-0.125
  0
LTYPE
  2
CENTER2
 70
     0
  3
Center (.5x) ___ _ ___ _ ___ _ ___ _ ___ _ ___
 72
    65
 73
     4
 40
1.125
 49
0.75
 49
-0.125
 49
0.125
 49
-0.125
  0
LTYPE
  2
HIDDEN2
 70
     0
  3
Hidden (.5x) _ _ _ _ _ _ _ _ _ _ _ _ _ _ _ _ _
 72
    65
 73
     2
 40
0.1875
 49
0.125
 49
-0.0625
  0
LTYPE
  2
AMZIGZAG2
 70
     0
  3
/\/-/\/-/\/-/\/-/\/-/\/
 72
    65
 73
     2
 40
0.4401
 49
0.0001
 49
-0.4400000000000001
  0
LTYPE
  2
ACANSTGB
 70
     0
  3
__ . . __ . .
 72
    65
 73
     6
 40
0.35433070866
 49
0.15748031496
 49
-0.03937007874
 49
0.03937007874
 49
-0.03937007874
 49
0.03937007874
 49
-0.03937007874
  0
LTYPE
  2
ACANSTGL
 70
     0
  3
_ _ _ _ _
 72
    65
 73
     2
 40
0.11811023622
 49
0.07874015748
 49
-0.03937007874
  0
ENDTAB
  0
TABLE
  2
LAYER
 70
     6
  0
LAYER
  2
0
 70
     0
 62
     7
  6
CONTINUOUS
  0
LAYER
  2
AM_0
 70
     0
 62
     7
  6
CONTINUOUS
  0
LAYER
  2
DEFPOINTS
 70
     0
 62
     7
  6
CONTINUOUS
  0
LAYER
  2
ﾁｭｳｼﾝｾﾝ
 70
     0
 62
     1
  6
GEN7
  0
LAYER
  2
AM_0N
 70
     0
 62
     7
  6
CONTINUOUS
  0
LAYER
  2
AM_5
 70
     0
 62
     2
  6
CONTINUOUS
  0
ENDTAB
  0
TABLE
  2
STYLE
 70
    10
  0
STYLE
  2
STANDARD
 70
     0
 40
0.0
 41
0.8299999999999999
 50
0.0
 71
     0
 42
2.5
  3
txt.shx
  4
bigfont.shx
  0
STYLE
  2
ANNOTATIVE
 70
     0
 40
0.0
 41
1.0
 50
0.0
 71
     0
 42
0.2
  3
txt
  4

  0
STYLE
  2
ACANSTS
 70
     0
 40
1.0
 41
1.0
 50
0.0
 71
     0
 42
2.5
  3
romans.shx
  4
bigfont.shx
  0
STYLE
  2
ACANSGDT
 70
     0
 40
0.0
 41
1.0
 50
0.0
 71
     0
 42
2.5
  3
amgdt.shx
  4

  0
STYLE
  2

 70
     1
 40
0.0
 41
1.0
 50
0.0
 71
     0
 42
2.5
  3
ltypeshp.shx
  4

  0
STYLE
  2
ACJISTS
 70
     0
 40
1.0
 41
0.8299999999999999
 50
0.0
 71
     0
 42
2.5
  3
txt.shx
  4
bigfont.shx
  0
STYLE
  2
ACJISGDT
 70
     0
 40
0.0
 41
1.0
 50
0.0
 71
     0
 42
2.5
  3
amgdt.shx
  4

  0
STYLE
  2
ACISOTS
 70
     0
 40
1.0
 41
1.0
 50
0.0
 71
     0
 42
2.5
  3
isocp.shx
  4
extfont.shx
  0
STYLE
  2
ACISOGDT
 70
     0
 40
0.0
 41
1.0
 50
0.0
 71
     0
 42
2.5
  3
amgdt.shx
  4

  0
STYLE
  2

 70
     1
 40
0.0
 41
1.0
 50
0.0
 71
     0
 42
2.5
  3
genltshp.shx
  4

  0
ENDTAB
  0
TABLE
  2
VIEW
 70
    12
  0
VIEW
  2
GEN1
 70
     0
 40
95.824742268041234
 10
71.5
 20
137.08762886597941
 41
143.0
 11
0.0
 21
0.0
 31
1.0
 12
0.0
 22
0.0
 32
0.0
 42
50.0
 43
0.0
 44
0.0
 50
0.0
 71
     0
  0
VIEW
  2
GEN2
 70
     0
 40
95.824742268041234
 10
214.5
 20
137.08762886597941
 41
143.0
 11
0.0
 21
0.0
 31
1.0
 12
0.0
 22
0.0
 32
0.0
 42
50.0
 43
0.0
 44
0.0
 50
0.0
 71
     0
  0
VIEW
  2
GEN3
 70
     0
 40
95.824742268041234
 10
71.5
 20
47.912371134020603
 41
143.0
 11
0.0
 21
0.0
 31
1.0
 12
0.0
 22
0.0
 32
0.0
 42
50.0
 43
0.0
 44
0.0
 50
0.0
 71
     0
  0
VIEW
  2
GEN4
 70
     0
 40
95.824742268041234
 10
214.5
 20
47.912371134020603
 41
143.0
 11
0.0
 21
0.0
 31
1.0
 12
0.0
 22
0.0
 32
0.0
 42
50.0
 43
0.0
 44
0.0
 50
0.0
 71
     0
  0
VIEW
  2
GEN5
 70
     0
 40
95.824742268041234
 10
143.0
 20
92.500000000000057
 41
143.0
 11
0.0
 21
0.0
 31
1.0
 12
0.0
 22
0.0
 32
0.0
 42
50.0
 43
0.0
 44
0.0
 50
0.0
 71
     0
  0
VIEW
  2
GEN6
 70
     0
 40
191.64756804123709
 10
143.0
 20
92.5
 41
285.99713999999989
 11
0.0
 21
0.0
 31
1.0
 12
0.0
 22
0.0
 32
0.0
 42
50.0
 43
0.0
 44
0.0
 50
0.0
 71
     0
  0
VIEW
  2
AM_VIEW1
 70
     0
 40
142.0
 10
119.7777777777777
 20
213.0
 41
239.55555555555549
 11
0.0
 21
0.0
 31
1.0
 12
0.0
 22
0.0
 32
0.0
 42
50.0
 43
0.0
 44
0.0
 50
0.0
 71
     0
  0
VIEW
  2
AM_VIEW2
 70
     0
 40
142.0
 10
288.22222222222211
 20
213.0
 41
239.55555555555549
 11
0.0
 21
0.0
 31
1.0
 12
0.0
 22
0.0
 32
0.0
 42
50.0
 43
0.0
 44
0.0
 50
0.0
 71
     0
  0
VIEW
  2
AM_VIEW3
 70
     0
 40
142.0
 10
119.7777777777777
 20
71.0
 41
239.55555555555549
 11
0.0
 21
0.0
 31
1.0
 12
0.0
 22
0.0
 32
0.0
 42
50.0
 43
0.0
 44
0.0
 50
0.0
 71
     0
  0
VIEW
  2
AM_VIEW4
 70
     0
 40
142.0
 10
288.22222222222211
 20
71.0
 41
239.55555555555549
 11
0.0
 21
0.0
 31
1.0
 12
0.0
 22
0.0
 32
0.0
 42
50.0
 43
0.0
 44
0.0
 50
0.0
 71
     0
  0
VIEW
  2
AM_VIEW5
 70
     0
 40
142.0
 10
204.0
 20
142.0
 41
239.55555555555549
 11
0.0
 21
0.0
 31
1.0
 12
0.0
 22
0.0
 32
0.0
 42
50.0
 43
0.0
 44
0.0
 50
0.0
 71
     0
  0
VIEW
  2
AM_VIEW6
 70
     0
 40
283.99716000000001
 10
204.0
 20
142.0
 41
479.10631999999993
 11
0.0
 21
0.0
 31
1.0
 12
0.0
 22
0.0
 32
0.0
 42
50.0
 43
0.0
 44
0.0
 50
0.0
 71
     0
  0
ENDTAB
  0
TABLE
  2
UCS
 70
     0
  0
ENDTAB
  0
TABLE
  2
APPID
 70
   106
  0
APPID
  2
ACAD
 70
     0
  0
APPID
  2
ACADANNOTATIVE
 70
     0
  0
APPID
  2
MCAD_NO_VIS
 70
     0
  0
APPID
  2
ACAD_TEMP_GRAPHIC
 70
     0
  0
APPID
  2
AD_DRAW
 70
     0
  0
APPID
  2
DESIGNERASSEMBLIES
 70
     0
  0
APPID
  2
ASURF_PCURVE_APPNAME
 70
     0
  0
APPID
  2
GENIUS_GE3SECT_13
 70
     0
  0
APPID
  2
GENIUS_GENCFG_13
 70
     0
  0
APPID
  2
GENIUS_GE3CFG0_13
 70
     0
  0
APPID
  2
GENIUS_GENCFG0_13
 70
     0
  0
APPID
  2
GENIUS_GENCFG1_13
 70
     0
  0
APPID
  2
GENIUS_GENCFG2_13
 70
     0
  0
APPID
  2
GENIUS_GENCFG3_13
 70
     0
  0
APPID
  2
GENIUS_GENCFG4_13
 70
     0
  0
APPID
  2
GENIUS_GEVCFG0_13
 70
     0
  0
APPID
  2
GENIUS_GENOENT_13
 70
     0
  0
APPID
  2
GENIUS_GENREC_14
 70
     0
  0
APPID
  2
GENIUS_GENODEF_13
 70
     0
  0
APPID
  2
GENIUS_GENOBJ-N-REC_13
 70
     0
  0
APPID
  2
GENIUS_GENHINW_13
 70
     0
  0
APPID
  2
GENIUS_FIRSTVISTXT_14
 70
     0
  0
APPID
  2
GENIUS_GENOBJ-N-LEADER_13
 70
     0
  0
APPID
  2
GENIUS_GENOREF_13
 70
     0
  0
APPID
  2
GENIUS_GENOLIS_13
 70
     0
  0
APPID
  2
GEV_VCCNULL_SWITCH_OFF
 70
     0
  0
APPID
  2
GENIUS_GENDTOL_13
 70
     0
  0
APPID
  2
GENIUS_GEFCFG0_13
 70
     0
  0
APPID
  2
GENIUS_GENOBJ-N-TIT_13
 70
     0
  0
APPID
  2
GENIUS_GENTITLE_13
 70
     0
  0
APPID
  2
GENIUS_GENZVEED_13
 70
     0
  0
APPID
  2
GENIUS_GENOBJ-N-SDF_13
 70
     0
  0
APPID
  2
GENIUS_GENSCREG_13
 70
     0
  0
APPID
  2
GENIUS_DUMCFG0_13
 70
     0
  0
APPID
  2
GEVID936201362
 70
     0
  0
APPID
  2
GEVDC
 70
     0
  0
APPID
  2
GEVCON
 70
     0
  0
APPID
  2
VCC
 70
     0
  0
APPID
  2
GEVPT
 70
     0
  0
APPID
  2
GEVIT
 70
     0
  0
APPID
  2
GENBH
 70
     0
  0
APPID
  2
GEVMK
 70
     0
  0
APPID
  2
GENIUS_GENBH_13
 70
     0
  0
APPID
  2
GENIUS_GENOBJ-NBEHI-BHF_13
 70
     0
  0
APPID
  2
GENIUS_GENOBJ-NBEHI-BHB_13
 70
     0
  0
APPID
  2
GENIUS_GENOBJ-F-DESC_13
 70
     0
  0
APPID
  2
GENIUS_GEFDESC_14
 70
     0
  0
APPID
  2
GENIUS_GENOBJ-F-PART_13
 70
     0
  0
APPID
  2
GENIUS_GEFSTDP_13
 70
     0
  0
APPID
  2
GENIUS_GEFPARTINS_13
 70
     0
  0
APPID
  2
GENIUS_GENTRA_14
 70
     0
  0
APPID
  2
GENIUS_GENINF13_13
 70
     0
  0
APPID
  2
GENIUS_GENOBJ-N-INFOPT_13
 70
     0
  0
APPID
  2
GENIUS_GENOBJ-N-RSSYM_13
 70
     0
  0
APPID
  2
GENIUS_GENSYMENT_13
 70
     0
  0
APPID
  2
GENIUS_GENSCSYM_13
 70
     0
  0
APPID
  2
GENIUS_GEFINFNAM_13
 70
     0
  0
APPID
  2
GENIUS_GENSCREG_15
 70
     0
  0
APPID
  2
GENIUS_GENOBJ-N-CEN_13
 70
     0
  0
APPID
  2
GENIUS_GENOBJ-N-CRS_13
 70
     0
  0
APPID
  2
GENIUS_GENOBJ-N-CRC_13
 70
     0
  0
APPID
  2
GENIUS_GENCRC_14
 70
     0
  0
APPID
  2
GEVID942827039
 70
     0
  0
APPID
  2
GEVID942827040
 70
     0
  0
APPID
  2
GEVID942827041
 70
     0
  0
APPID
  2
GENIUS_GENOBJ-F-SCPASSM_13
 70
     0
  0
APPID
  2
GENIUS_GENDIMSH_14
 70
     0
  0
APPID
  2
GENIUS_GENFIL_13
 70
     0
  0
APPID
  2
GENIUS_GENOBJ-N-CHA_13
 70
     0
  0
APPID
  2
GENIUS_GENOBJ-N-FIL_13
 70
     0
  0
APPID
  2
GEVID942827042
 70
     0
  0
APPID
  2
GEVID946020473
 70
     0
  0
APPID
  2
GEVID946020474
 70
     0
  0
APPID
  2
GEVID946020475
 70
     0
  0
APPID
  2
GENIUS_GENOBJ-N-HTC_13
 70
     0
  0
APPID
  2
GENIUS_GENHATCH_13
 70
     0
  0
APPID
  2
GEVID948854295
 70
     0
  0
APPID
  2
GEVID939402019
 70
     0
  0
APPID
  2
GEVID952919491
 70
     0
  0
APPID
  2
GEVID952919492
 70
     0
  0
APPID
  2
GENIUS_GEFWELD_13
 70
     0
  0
APPID
  2
GENIUS_GENOBJ-F-WELS_13
 70
     0
  0
APPID
  2
GEVID952919493
 70
     0
  0
APPID
  2
GENIUS_GENOBJ-N-RSBK_13
 70
     0
  0
APPID
  2
GENIUS_GENOBJ-N-LIB_13
 70
     0
  0
APPID
  2
GENIUS_GENSCALE_13
 70
     0
  0
APPID
  2
GEVID986376691
 70
     0
  0
APPID
  2
ACATTRIBSERVICES
 70
     0
  0
APPID
  2
ACADM_DIM_EDIT
 70
     0
  0
APPID
  2
AMDT_DM_ADJ
 70
     0
  0
APPID
  2
GEVID1057795304
 70
     0
  0
APPID
  2
GENIUS_GEFSH_13
 70
     0
  0
APPID
  2
GENIUS_GENOBJ-F-SHS_13
 70
     0
  0
APPID
  2
GENIUS_GENOBJ-N-ADDLEAD_13
 70
     0
  0
APPID
  2
GENIUS_GENMAINADDLEADER_14
 70
     0
  0
APPID
  2
GENIUS_GENADDLEADER_14
 70
     0
  0
APPID
  2
GENIUS_GENDREL_13
 70
     0
  0
APPID
  2
GEVID1121934822
 70
     0
  0
APPID
  2
GEVID1121934823
 70
     0
  0
APPID
  2
GEVID1121934824
 70
     0
  0
APPID
  2
ACAD_DSTYLE_DIMJAG
 70
     0
  0
APPID
  2
ACAD_DSTYLE_DIMBREAK
 70
     0
  0
APPID
  2
ACAD_NAV_VCDISPLAY
 70
     0
  0
APPID
  2
ACADANNOPO
 70
     0
  0
APPID
  2
ACAD_EXEMPT_FROM_CAD_STANDARDS
 70
     0
  0
APPID
  2
ACAD_MLEADERVER
 70
     0
  0
ENDTAB
  0
TABLE
  2
DIMSTYLE
 70
    29
  0
DIMSTYLE
  2
STANDARD
 70
     0
  3

  4

  5

  6

  7

 40
1.0
 41
0.18
 42
0.0625
 43
0.38
 44
0.18
 45
0.0
 46
0.0
 47
0.0
 48
0.0
140
0.18
141
0.09
142
0.0
143
25.399999999999999
144
1.0
145
0.0
146
1.0
147
0.09
 71
     0
 72
     0
 73
     1
 74
     1
 75
     0
 76
     0
 77
     0
 78
     0
170
     0
171
     2
172
     0
173
     0
174
     0
175
     0
176
     0
177
     0
178
     0
  0
DIMSTYLE
  2
ANNOTATIVE
 70
     0
  3

  4

  5

  6

  7

 40
1.0
 41
0.18
 42
0.0625
 43
0.38
 44
0.18
 45
0.0
 46
0.0
 47
0.0
 48
0.0
140
0.18
141
0.09
142
0.0
143
25.399999999999999
144
1.0
145
0.0
146
1.0
147
0.09
 71
     0
 72
     0
 73
     1
 74
     1
 75
     0
 76
     0
 77
     0
 78
     0
170
     0
171
     2
172
     0
173
     0
174
     0
175
     0
176
     0
177
     0
178
     0
  0
DIMSTYLE
  2
AM_JIS
 70
     0
  3

  4
"
  5

  6

  7

 40
1.0
 41
2.0
 42
1.0
 43
8.0
 44
1.0
 45
0.0
 46
0.0
 47
0.1
 48
0.1
140
2.5
141
0.0
142
0.0
143
0.0393701
144
1.0
145
0.0
146
0.71
147
1.5
 71
     0
 72
     0
 73
     0
 74
     0
 75
     0
 76
     0
 77
     3
 78
     8
170
     0
171
     2
172
     1
173
     0
174
     0
175
     0
176
   256
177
   256
178
     4
  0
DIMSTYLE
  2
AM_JIS$3
 70
     0
  3

  4
"
  5

  6

  7

 40
1.0
 41
2.0
 42
1.0
 43
10.0
 44
1.0
 45
0.0
 46
0.0
 47
0.1
 48
0.1
140
2.5
141
0.0
142
0.0
143
0.0393701
144
1.0
145
0.0
146
0.71
147
1.5
 71
     0
 72
     0
 73
     0
 74
     1
 75
     0
 76
     0
 77
     3
 78
     8
170
     0
171
     2
172
     0
173
     0
174
     0
175
     0
176
   256
177
   256
178
     4
  0
DIMSTYLE
  2
AM_JIS$4
 70
     0
  3

  4
"
  5

  6

  7

 40
1.0
 41
2.0
 42
1.0
 43
10.0
 44
1.0
 45
0.0
 46
0.0
 47
0.1
 48
0.1
140
2.5
141
0.0
142
0.0
143
0.0393701
144
1.0
145
0.0
146
0.71
147
1.5
 71
     0
 72
     0
 73
     0
 74
     0
 75
     0
 76
     0
 77
     3
 78
     8
170
     0
171
     2
172
     0
173
     0
174
     0
175
     0
176
   256
177
   256
178
     4
  0
DIMSTYLE
  2
AM_JIS$6
 70
     0
  3

  4
"
  5

  6

  7

 40
1.0
 41
2.0
 42
1.0
 43
10.0
 44
1.0
 45
0.0
 46
0.0
 47
0.1
 48
0.1
140
2.5
141
0.0
142
0.0
143
0.0393701
144
1.0
145
0.0
146
0.71
147
1.5
 71
     0
 72
     0
 73
     0
 74
     0
 75
     0
 76
     0
 77
     0
 78
     8
170
     0
171
     2
172
     1
173
     0
174
     0
175
     0
176
   256
177
   256
178
     4
  0
DIMSTYLE
  2
AM_JIS$7
 70
     0
  3

  4
"
  5

  6

  7

 40
1.0
 41
2.0
 42
1.0
 43
10.0
 44
1.0
 45
0.0
 46
0.0
 47
0.1
 48
0.1
140
2.5
141
0.0
142
0.0
143
0.0393701
144
1.0
145
0.0
146
0.71
147
1.5
 71
     0
 72
     0
 73
     0
 74
     0
 75
     0
 76
     0
 77
     3
 78
     8
170
     0
171
     2
172
     1
173
     0
174
     0
175
     0
176
   256
177
   256
178
     4
  0
DIMSTYLE
  2
AM_JIS$SF
 70
     0
  3

  4
"
  5

  6

  7

 40
1.0
 41
2.0
 42
1.0
 43
10.0
 44
1.0
 45
0.0
 46
0.0
 47
0.1
 48
0.1
140
2.5
141
0.0
142
0.0
143
0.0393701
144
1.0
145
0.0
146
0.71
147
1.5
 71
     0
 72
     0
 73
     0
 74
     0
 75
     1
 76
     1
 77
     3
 78
     8
170
     0
171
     2
172
     1
173
     0
174
     0
175
     0
176
   256
177
   256
178
     4
  0
DIMSTYLE
  2
AM_JIS$SH
 70
     0
  3

  4
"
  5

  6

  7

 40
1.0
 41
2.0
 42
1.0
 43
10.0
 44
1.0
 45
0.0
 46
0.0
 47
0.1
 48
0.1
140
2.5
141
0.0
142
0.0
143
0.0393701
144
2.0
145
0.0
146
0.71
147
1.5
 71
     0
 72
     0
 73
     0
 74
     0
 75
     1
 76
     1
 77
     3
 78
     8
170
     0
171
     2
172
     1
173
     1
174
     0
175
     0
176
   256
177
   256
178
     4
  0
DIMSTYLE
  2
AM_ISO
 70
     0
  3

  4
"
  5

  6

  7

 40
1.0
 41
2.5
 42
1.0
 43
10.0
 44
1.0
 45
0.0
 46
0.0
 47
0.1
 48
0.1
140
3.5
141
0.0
142
0.0
143
0.0393701
144
1.0
145
0.0
146
0.71
147
1.5
 71
     0
 72
     0
 73
     0
 74
     0
 75
     0
 76
     0
 77
     1
 78
     8
170
     0
171
     2
172
     1
173
     0
174
     0
175
     0
176
   256
177
   256
178
     2
  0
DIMSTYLE
  2
AM_ISO$3
 70
     0
  3

  4
"
  5

  6

  7

 40
1.0
 41
2.5
 42
1.0
 43
10.0
 44
1.0
 45
0.0
 46
0.0
 47
0.1
 48
0.1
140
3.5
141
0.0
142
0.0
143
0.0393701
144
1.0
145
0.0
146
0.71
147
1.5
 71
     0
 72
     0
 73
     0
 74
     1
 75
     0
 76
     0
 77
     1
 78
     8
170
     0
171
     2
172
     0
173
     0
174
     0
175
     0
176
   256
177
   256
178
     2
  0
DIMSTYLE
  2
AM_ISO$4
 70
     0
  3

  4
"
  5

  6

  7

 40
1.0
 41
2.5
 42
1.0
 43
10.0
 44
1.0
 45
0.0
 46
0.0
 47
0.1
 48
0.1
140
3.5
141
0.0
142
0.0
143
0.0393701
144
1.0
145
0.0
146
0.71
147
1.5
 71
     0
 72
     0
 73
     0
 74
     1
 75
     0
 76
     0
 77
     1
 78
     8
170
     0
171
     2
172
     0
173
     0
174
     0
175
     0
176
   256
177
   256
178
     2
  0
DIMSTYLE
  2
AM_ISO$6
 70
     0
  3

  4
"
  5

  6

  7

 40
1.0
 41
2.5
 42
1.0
 43
10.0
 44
1.0
 45
0.0
 46
0.0
 47
0.1
 48
0.1
140
3.5
141
0.0
142
0.0
143
0.0393701
144
1.0
145
0.0
146
0.71
147
1.5
 71
     0
 72
     0
 73
     0
 74
     0
 75
     0
 76
     0
 77
     0
 78
     8
170
     0
171
     2
172
     1
173
     0
174
     0
175
     0
176
   256
177
   256
178
     2
  0
DIMSTYLE
  2
AM_ISO$7
 70
     0
  3

  4
"
  5

  6

  7

 40
1.0
 41
2.5
 42
1.0
 43
10.0
 44
1.0
 45
0.0
 46
0.0
 47
0.1
 48
0.1
140
5.0
141
0.0
142
0.0
143
0.0393701
144
1.0
145
0.0
146
0.71
147
1.5
 71
     0
 72
     0
 73
     0
 74
     0
 75
     0
 76
     0
 77
     1
 78
     8
170
     0
171
     2
172
     1
173
     0
174
     0
175
     0
176
   256
177
   256
178
     2
  0
DIMSTYLE
  2
AM_ISO$SF
 70
     0
  3

  4
"
  5

  6

  7

 40
1.0
 41
2.5
 42
1.0
 43
10.0
 44
1.0
 45
0.0
 46
0.0
 47
0.1
 48
0.1
140
3.5
141
0.0
142
0.0
143
0.0393701
144
1.0
145
0.0
146
0.71
147
1.5
 71
     0
 72
     0
 73
     0
 74
     0
 75
     1
 76
     1
 77
     1
 78
     8
170
     0
171
     2
172
     1
173
     0
174
     0
175
     0
176
   256
177
   256
178
     2
  0
DIMSTYLE
  2
AM_ISO$SH
 70
     0
  3

  4
"
  5

  6

  7

 40
1.0
 41
2.5
 42
1.0
 43
10.0
 44
1.0
 45
0.0
 46
0.0
 47
0.1
 48
0.1
140
3.5
141
0.0
142
0.0
143
0.0393701
144
2.0
145
0.0
146
0.71
147
1.5
 71
     0
 72
     0
 73
     0
 74
     0
 75
     1
 76
     1
 77
     1
 78
     8
170
     0
171
     2
172
     1
173
     1
174
     0
175
     0
176
   256
177
   256
178
     2
  0
DIMSTYLE
  2
GEN-ANSI
 70
     0
  3

  4
"
  5

  6

  7

 40
1.0
 41
2.0
 42
0.5
 43
10.0
 44
0.5
 45
0.0
 46
0.0
 47
0.1
 48
0.1
140
2.5
141
0.0
142
0.0
143
0.0393701
144
1.0
145
0.0
146
0.71
147
1.5
 71
     0
 72
     0
 73
     1
 74
     1
 75
     0
 76
     0
 77
     0
 78
     8
170
     0
171
     2
172
     0
173
     0
174
     0
175
     0
176
   256
177
   256
178
     4
  0
DIMSTYLE
  2
GEN-ANSI$3
 70
     0
  3

  4
"
  5

  6

  7

 40
1.0
 41
2.0
 42
0.5
 43
10.0
 44
0.5
 45
0.0
 46
0.0
 47
0.1
 48
0.1
140
2.5
141
0.0
142
0.0
143
0.0393701
144
1.0
145
0.0
146
0.71
147
1.5
 71
     0
 72
     0
 73
     1
 74
     1
 75
     0
 76
     0
 77
     0
 78
     8
170
     0
171
     2
172
     0
173
     0
174
     0
175
     0
176
   256
177
   256
178
     4
  0
DIMSTYLE
  2
GEN-ANSI$4
 70
     0
  3

  4
"
  5

  6

  7

 40
1.0
 41
2.0
 42
0.5
 43
10.0
 44
0.5
 45
0.0
 46
0.0
 47
0.1
 48
0.1
140
2.5
141
0.0
142
0.0
143
0.0393701
144
1.0
145
0.0
146
0.71
147
1.5
 71
     0
 72
     0
 73
     1
 74
     1
 75
     0
 76
     0
 77
     0
 78
     8
170
     0
171
     2
172
     0
173
     0
174
     0
175
     0
176
   256
177
   256
178
     4
  0
DIMSTYLE
  2
GEN-ANSI$6
 70
     0
  3

  4
"
  5

  6

  7

 40
1.0
 41
2.0
 42
0.5
 43
10.0
 44
0.5
 45
0.0
 46
0.0
 47
0.1
 48
0.1
140
2.5
141
0.0
142
0.0
143
0.0393701
144
1.0
145
0.0
146
0.71
147
1.5
 71
     0
 72
     0
 73
     1
 74
     1
 75
     0
 76
     0
 77
     0
 78
     8
170
     0
171
     2
172
     0
173
     0
174
     0
175
     0
176
   256
177
   256
178
     4
  0
DIMSTYLE
  2
GEN-ANSI-POS
 70
     0
  3

  4
"
  5

  6

  7

 40
1.0
 41
2.5
 42
0.5
 43
10.0
 44
0.5
 45
0.0
 46
0.0
 47
0.1
 48
0.1
140
5.0
141
0.0
142
0.0
143
0.0393701
144
1.0
145
0.0
146
0.71
147
1.5
 71
     0
 72
     0
 73
     0
 74
     0
 75
     0
 76
     0
 77
     0
 78
     8
170
     0
171
     2
172
     0
173
     0
174
     0
175
     0
176
   256
177
   256
178
     4
  0
DIMSTYLE
  2
GEN-ANSI-AXE-F
 70
     0
  3

  4
"
  5

  6

  7

 40
1.0
 41
2.0
 42
0.5
 43
10.0
 44
0.5
 45
0.0
 46
0.0
 47
0.1
 48
0.1
140
2.5
141
0.0
142
0.0
143
0.0393701
144
1.0
145
0.0
146
0.71
147
1.5
 71
     0
 72
     0
 73
     1
 74
     1
 75
     1
 76
     1
 77
     0
 78
     8
170
     0
171
     2
172
     0
173
     1
174
     0
175
     0
176
   256
177
   256
178
     4
  0
DIMSTYLE
  2
GEN-ANSI-AXE-H
 70
     0
  3

  4
"
  5

  6

  7

 40
1.0
 41
2.0
 42
0.5
 43
10.0
 44
0.5
 45
0.0
 46
0.0
 47
0.1
 48
0.1
140
2.5
141
0.0
142
0.0
143
0.0393701
144
2.0
145
0.0
146
0.71
147
1.5
 71
     0
 72
     0
 73
     0
 74
     0
 75
     1
 76
     1
 77
     0
 78
     8
170
     0
171
     2
172
     1
173
     1
174
     0
175
     0
176
   256
177
   256
178
     4
  0
DIMSTYLE
  2
AM_ANSI
 70
     0
  3

  4
mm
  5

  6

  7

 40
1.0
 41
0.12
 42
0.05
 43
0.5
 44
0.1
 45
0.0
 46
0.0
 47
0.1
 48
0.1
140
0.12
141
0.0
142
0.0
143
25.399999999999999
144
1.0
145
0.0
146
0.71
147
0.06
 71
     0
 72
     0
 73
     1
 74
     1
 75
     0
 76
     0
 77
     0
 78
     7
170
     0
171
     2
172
     0
173
     0
174
     0
175
     0
176
   256
177
   256
178
     2
  0
DIMSTYLE
  2
AM_ANSI$3
 70
     0
  3

  4
mm
  5

  6

  7

 40
1.0
 41
0.12
 42
0.05
 43
0.5
 44
0.1
 45
0.0
 46
0.0
 47
0.1
 48
0.1
140
0.12
141
0.0
142
0.0
143
25.399999999999999
144
1.0
145
0.0
146
0.71
147
0.06
 71
     0
 72
     0
 73
     1
 74
     1
 75
     0
 76
     0
 77
     0
 78
     7
170
     0
171
     2
172
     0
173
     0
174
     0
175
     0
176
   256
177
   256
178
     2
  0
DIMSTYLE
  2
AM_ANSI$4
 70
     0
  3

  4
mm
  5

  6

  7

 40
1.0
 41
0.12
 42
0.05
 43
0.5
 44
0.1
 45
0.0
 46
0.0
 47
0.1
 48
0.1
140
0.12
141
0.0
142
0.0
143
25.399999999999999
144
1.0
145
0.0
146
0.71
147
0.06
 71
     0
 72
     0
 73
     1
 74
     1
 75
     0
 76
     0
 77
     0
 78
     7
170
     0
171
     2
172
     0
173
     0
174
     0
175
     0
176
   256
177
   256
178
     2
  0
DIMSTYLE
  2
AM_ANSI$7
 70
     0
  3

  4
mm
  5

  6

  7

 40
1.0
 41
0.12
 42
0.05
 43
0.5
 44
0.1
 45
0.0
 46
0.0
 47
0.1
 48
0.1
140
0.12
141
0.0
142
0.0
143
25.399999999999999
144
1.0
145
0.0
146
0.71
147
0.06
 71
     0
 72
     0
 73
     1
 74
     1
 75
     0
 76
     0
 77
     0
 78
     7
170
     0
171
     2
172
     0
173
     0
174
     0
175
     0
176
   256
177
   256
178
     2
  0
DIMSTYLE
  2
AM_ANSI$SF
 70
     0
  3

  4
mm
  5

  6

  7

 40
1.0
 41
0.12
 42
0.05
 43
0.5
 44
0.1
 45
0.0
 46
0.0
 47
0.1
 48
0.1
140
0.12
141
0.0
142
0.0
143
25.399999999999999
144
1.0
145
0.0
146
0.71
147
0.06
 71
     0
 72
     0
 73
     1
 74
     1
 75
     1
 76
     1
 77
     0
 78
     7
170
     0
171
     2
172
     0
173
     0
174
     0
175
     0
176
   256
177
   256
178
     2
  0
DIMSTYLE
  2
AM_ANSI$SH
 70
     0
  3

  4
mm
  5

  6
GENAXEH
  7

 40
1.0
 41
0.12
 42
0.05
 43
0.5
 44
0.1
 45
0.0
 46
0.0
 47
0.1
 48
0.1
140
0.12
141
0.0
142
0.0
143
25.399999999999999
144
1.0
145
0.0
146
0.71
147
0.06
 71
     0
 72
     0
 73
     1
 74
     1
 75
     1
 76
     1
 77
     0
 78
     7
170
     0
171
     2
172
     0
173
     1
174
     0
175
     0
176
   256
177
   256
178
     2
  0
ENDTAB
  0
ENDSEC
  0
SECTION
  2
BLOCKS
  0
BLOCK
  8
0
  2
$MODEL_SPACE
 70
     0
 10
0.0
 20
0.0
 30
0.0
  3
$MODEL_SPACE
  1

  0
ENDBLK
  5
9466
  8
0
  0
BLOCK
 67
     1
  8
0
  2
$PAPER_SPACE
 70
     0
 10
0.0
 20
0.0
 30
0.0
  3
$PAPER_SPACE
  1

  0
ENDBLK
  5
9462
 67
     1
  8
0
  0
BLOCK
  8
0
  2
GENAXEH
 70
     0
 10
0.0
 20
0.0
 30
0.0
  3
GENAXEH
  1

  0
LINE
  5
93B0
  8
0
 10
-1.0
 20
0.0
 30
0.0
 11
1.0
 21
0.0
 31
0.0
  0
ENDBLK
  5
93B2
  8
0
  0
BLOCK
  8
0
  2
_ACMFILLEDHALF
 70
     0
 10
0.0
 20
0.0
 30
0.0
  3
_ACMFILLEDHALF
  1

  0
TRACE
  5
9573
  8
AM_0
 62
     0
 10
-0.8
 20
0.0
 30
0.0
 11
-1.0
 21
0.166666666
 31
0.0
 12
0.0
 22
0.0
 32
0.0
 13
0.0
 23
0.0
 33
0.0
  0
LINE
  5
9574
  8
AM_0
 62
     0
 10
-1.0
 20
0.0
 30
0.0
 11
-0.8
 21
0.0
 31
0.0
  0
ENDBLK
  5
9572
  8
0
  0
ENDSEC
  0
SECTION
  2
ENTITIES
  0
POINT
  5
1B94
  8
0
 10
0.0
 20
0.0
 30
0.0
1001
GENIUS_GENODEF_13
1002
{
1000
HIER
1070
     1
1002
}
1002
{
1000
MANEDIT
1070
     0
1002
}
1002
{
1000
NOSEL
1070
     0
1002
}
1002
{
1000
BEHIND
1070
     0
1002
}
1002
{
1000
REACTOR
1002
}
1001
GENIUS_GENOBJ-N-SDF_13
1002
{
1000
OWNER
1000
GEN
1002
}
1001
GENIUS_GENOENT_13
1002
{
1000
MYREF
1005
1B94
1002
}
1002
{
1000
GRP
1005
0
1002
}
1001
GENIUS_GENOLIS_13
1002
{
1000
ENT
1005
89
1002
}
  0
LINE
  5
8693
  8
ﾁｭｳｼﾝｾﾝ
 10
485.44857951512512
 20
135.94412360599759
 30
0.0
 11
237.25172125202519
 21
135.94412360599759
 31
0.0
  0
LINE
  5
8694
  8
AM_0
 10
477.25343125202539
 20
151.94412560599761
 30
0.0
 11
419.25341125202527
 21
151.94412560599761
 31
0.0
  0
LINE
  5
8695
  8
AM_0
 10
477.25343125202539
 20
154.94412560599761
 30
0.0
 11
432.25343125202539
 21
154.94412560599761
 31
0.0
  0
LINE
  5
8696
  8
AM_0
 10
477.25343125202539
 20
119.94413960599761
 30
0.0
 11
419.25341125202527
 21
119.94413960599761
 31
0.0
  0
ARC
  5
86A0
  8
AM_0
 10
367.25345125202517
 20
187.1485616059976
 30
0.0
 40
21.000000600000011
 50
354.07598000000593
 51
80.875525000003577
  0
LINE
  5
86A1
  8
AM_0
 10
407.25341125202527
 20
135.94412360599759
 30
0.0
 11
407.25341125202527
 21
226.54387160599751
 31
0.0
  0
LINE
  5
86A2
  8
AM_0
 10
415.25345125202529
 20
135.94412360599759
 30
0.0
 11
415.25345125202529
 21
253.44412160599759
 31
0.0
  0
LINE
  5
86A3
  8
AM_0
 10
400.2534512520254
 20
107.1798716059977
 30
0.0
 11
400.2534512520254
 21
194.8548716059976
 31
0.0
  0
LINE
  5
86A4
  8
AM_0
 10
419.25341125202527
 20
30.94415060599772
 30
0.0
 11
419.25341125202527
 21
240.9441416059976
 31
0.0
  0
LINE
  5
86A5
  8
AM_0
 10
278.71793125202538
 20
183.4086026059976
 30
0.0
 11
291.37478125202563
 21
196.0654616059976
 31
0.0
  0
LINE
  5
86A6
  8
AM_0
 10
292.25345125202568
 20
10.7247296059977
 30
0.0
 11
292.25345125202568
 21
205.1635616059977
 31
0.0
  0
LINE
  5
86A7
  8
AM_0
 10
302.25341125202539
 20
8.4441416059976291
 30
0.0
 11
302.25341125202539
 21
207.4441316059976
 31
0.0
  0
LINE
  5
86A8
  8
ﾁｭｳｼﾝｾﾝ
 10
250.1015912520254
 20
82.944122605997563
 30
0.0
 11
18.521121252025559
 21
82.944122605997563
 31
0.0
  0
ARC
  5
86A9
  8
AM_0
 10
247.98689125202549
 20
123.9441236059976
 30
0.0
 40
5.0000000999999967
 50
314.99999999999068
 51
90.00000299999769
  0
LINE
  5
86AA
  8
AM_0
 10
245.9949512520256
 20
114.88112060599759
 30
0.0
 11
251.52242125202551
 21
120.4085846059977
 31
0.0
  0
LINE
  5
86AB
  8
AM_0
 10
221.2534412520252
 20
90.884108605997625
 30
0.0
 11
255.7534412520252
 21
90.884108605997625
 31
0.0
  0
LINE
  5
86AC
  8
AM_0
 10
245.99501125202519
 20
114.8811506059976
 30
0.0
 11
255.7534412520252
 21
95.444168605997703
 31
0.0
  0
LINE
  5
86AD
  8
AM_0
 10
229.14875125202519
 20
166.31351060599761
 30
0.0
 11
253.02680125202519
 21
167.1473726059975
 31
0.0
  0
LINE
  5
86AE
  8
AM_0
 10
220.39301125202519
 20
50.880476605997721
 30
0.0
 11
253.82327125202539
 21
49.713056605997743
 31
0.0
  0
LINE
  5
86AF
  8
AM_0
 10
234.49478125202521
 20
142.12358360599771
 30
0.0
 11
254.8747712520256
 21
162.50357360599759
 31
0.0
  0
LINE
  5
86B0
  8
AM_0
 10
218.43653125202539
 20
31.86974960599764
 30
0.0
 11
255.60836125202519
 21
44.21024960599766
 31
0.0
  0
LINE
  5
86B1
  8
AM_0
 10
196.2534512520254
 20
26.444135605997641
 30
0.0
 11
196.2534512520254
 21
139.44410960599771
 31
0.0
  0
LINE
  5
86B2
  8
AM_0
 10
216.25343125202539
 20
31.005308605997701
 30
0.0
 11
216.25343125202539
 21
85.884110605997634
 31
0.0
  0
LINE
  5
86B3
  8
AM_0
 10
188.25350125202539
 20
36.944135605997637
 30
0.0
 11
196.2534512520254
 21
36.944135605997637
 31
0.0
  0
LINE
  5
86B4
  8
AM_0
 10
188.25350125202539
 20
26.944136605997748
 30
0.0
 11
196.2534512520254
 21
26.944136605997748
 31
0.0
  0
ARC
  5
86B5
  8
AM_0
 10
212.2534412520252
 20
31.005308605997701
 30
0.0
 40
4.000000199999997
 50
272.00000000000341
 51
0.0
  0
LINE
  5
86B6
  8
AM_0
 10
196.2534512520254
 20
26.444120605997568
 30
0.0
 11
212.39303125202539
 21
27.007733605997601
 31
0.0
  0
LINE
  5
86B7
  8
AM_0
 10
196.2534512520254
 20
36.944135605997637
 30
0.0
 11
216.25343125202539
 21
36.944135605997637
 31
0.0
  0
ARC
  5
86B8
  8
AM_0
 10
219.6968612520254
 20
28.073483605997581
 30
0.0
 40
4.000000199999997
 50
108.3654200000051
 51
158.50145000000799
  0
LINE
  5
86BA
  8
AM_0
 10
188.25350125202539
 20
114.88412660599759
 30
0.0
 11
196.2534512520254
 21
114.88412660599759
 31
0.0
  0
LINE
  5
86BB
  8
AM_0
 10
188.25350125202539
 20
51.004148605997671
 30
0.0
 11
196.2534512520254
 21
51.004148605997671
 31
0.0
  0
LINE
  5
86BC
  8
AM_0
 10
196.2534512520254
 20
51.00712460599766
 30
0.0
 11
216.25343125202539
 21
51.00712460599766
 31
0.0
  0
ARC
  5
86BD
  8
AM_0
 10
220.2534512520254
 20
46.882901605997631
 30
0.0
 40
4.000000199999997
 50
87.999999999996476
 51
180.00001000000091
  0
LINE
  5
86BE
  8
AM_0
 10
196.2534512520254
 20
114.8811356059975
 30
0.0
 11
245.9949512520256
 21
114.8811356059975
 31
0.0
  0
POINT
  5
86BF
  8
AM_0
 10
196.2534512520254
 20
82.944122605997563
 30
0.0
  0
ARC
  5
86C0
  8
AM_0
 10
221.2534412520252
 20
85.884110605997634
 30
0.0
 40
5.0000000999999967
 50
90.00000299999769
 51
180.00001000000091
  0
LINE
  5
86C3
  8
AM_0
 10
188.25350125202539
 20
128.94410960599771
 30
0.0
 11
196.2534512520254
 21
128.94410960599771
 31
0.0
  0
LINE
  5
86C4
  8
AM_0
 10
188.25350125202539
 20
138.94412360599759
 30
0.0
 11
196.2534512520254
 21
138.94412360599759
 31
0.0
  0
LINE
  5
86C5
  8
AM_0
 10
226.25345125202529
 20
163.31537060599771
 30
0.0
 11
226.25345125202529
 21
143.38879460599759
 31
0.0
  0
LINE
  5
86C6
  8
AM_0
 10
196.2534512520254
 20
128.94410960599771
 30
0.0
 11
247.98689125202549
 21
128.94410960599771
 31
0.0
  0
LINE
  5
86C7
  8
AM_0
 10
196.2534512520254
 20
139.44410960599771
 30
0.0
 11
223.3581212520254
 21
140.39062760599759
 31
0.0
  0
LINE
  5
86C8
  8
AM_0
 10
233.1021212520254
 20
140.56129760599759
 30
0.0
 11
238.9346012520254
 21
128.94413960599761
 31
0.0
  0
ARC
  5
86CA
  8
AM_0
 10
223.2534512520254
 20
143.38879460599759
 30
0.0
 40
3.0
 50
272.00000000000341
 51
0.0
  0
ARC
  5
86CB
  8
AM_0
 10
230.95919125202531
 20
145.6591196059974
 30
0.0
 40
5.0000000999999967
 50
272.00000000000341
 51
314.99999999999068
  0
LINE
  5
86CC
  8
AM_0
 10
223.3581212520254
 20
140.39062760599759
 30
0.0
 11
231.13376125202541
 21
140.66215760599761
 31
0.0
  0
ARC
  5
86CD
  8
AM_0
 10
229.2534512520254
 20
163.31537060599771
 30
0.0
 40
3.0
 50
91.999997999994264
 51
180.00001000000091
  0
ARC
  5
86CE
  8
AM_0
 10
258.7534412520252
 20
47.155484605997572
 30
0.0
 40
3.0
 50
179.99998999999889
 51
268.00001000000532
  0
LINE
  5
86CF
  8
AM_0
 10
264.7534412520252
 20
43.944137605997632
 30
0.0
 11
264.7534412520252
 21
171.94412360599759
 31
0.0
  0
LINE
  5
86D0
  8
AM_0
 10
407.25341125202527
 20
44.576171605997601
 30
0.0
 11
407.25341125202527
 21
135.94412360599759
 31
0.0
  0
LINE
  5
86D1
  8
AM_0
 10
415.25345125202529
 20
18.444149605997609
 30
0.0
 11
415.25345125202529
 21
135.94412360599759
 31
0.0
  0
LINE
  5
86D2
  8
AM_0
 10
400.2534512520254
 20
21.02693060599767
 30
0.0
 11
400.2534512520254
 21
71.254868605997672
 31
0.0
  0
LINE
  5
86D3
  8
AM_0
 10
277.25345125202551
 20
36.015212605997696
 30
0.0
 11
277.25345125202551
 21
179.87304860599761
 31
0.0
  0
LINE
  5
86D4
  8
AM_0
 10
302.25341125202539
 20
8.4441356059976442
 30
0.0
 11
387.49031125202521
 21
6.2121266059975824
 31
0.0
  0
LINE
  5
86D5
  8
AM_0
 10
292.25345125202568
 20
27.526364605997738
 30
0.0
 11
398.51690125202549
 21
27.526364605997738
 31
0.0
  0
ARC
  5
86D6
  8
AM_0
 10
294.25340125202518
 20
10.7247296059977
 30
0.0
 40
2.00000007
 50
179.99998999999889
 51
268.00001000000532
  0
LINE
  5
86D7
  8
AM_0
 10
294.18365125202541
 20
8.7259436059975979
 30
0.0
 11
302.2534412520252
 21
8.4441356059976442
 31
0.0
  0
ARC
  5
86D8
  8
AM_0
 10
282.25343125202528
 20
36.015212605997696
 30
0.0
 40
5.0000000999999967
 50
179.99998999999889
 51
225.00000000000909
  0
ARC
  5
86D9
  8
AM_0
 10
272.2534412520252
 20
39.179198605997719
 30
0.0
 40
5.0000000999999967
 50
0.0
 51
87.999999999996476
  0
LINE
  5
86DA
  8
AM_0
 10
258.64877125202543
 20
44.157302605997749
 30
0.0
 11
264.7534412520252
 21
43.94411960599767
 31
0.0
  0
ARC
  5
86DB
  8
AM_0
 10
256.86866125202522
 20
40.414001605997562
 30
0.0
 40
4.000000199999997
 50
74.38029599999328
 51
108.3654200000051
  0
LINE
  5
86DC
  8
AM_0
 10
264.7534412520252
 20
44.44413560599763
 30
0.0
 11
272.42795125202548
 21
44.176130605997741
 31
0.0
  0
LINE
  5
86DD
  8
AM_0
 10
278.71793125202538
 20
32.479658605997649
 30
0.0
 11
291.37478125202563
 21
19.82282960599764
 31
0.0
  0
ARC
  5
86DE
  8
AM_0
 10
289.25345125202563
 20
17.701505605997681
 30
0.0
 40
3.0
 50
0.0
 51
45.000000999994569
  0
LINE
  5
86DF
  8
AM_0
 10
415.25345125202529
 20
30.94415060599772
 30
0.0
 11
419.25341125202527
 21
30.94415060599772
 31
0.0
  0
LINE
  5
86E0
  8
AM_0
 10
387.49037125202551
 20
6.2121266059975824
 30
0.0
 11
408.25343125202539
 21
18.199688605997601
 31
0.0
  0
ARC
  5
86E1
  8
AM_0
 10
403.25345125202517
 20
21.02693060599767
 30
0.0
 40
3.0
 50
179.99998999999889
 51
271.99998999999463
  0
LINE
  5
86E2
  8
AM_0
 10
403.35812125202511
 20
18.028745605999799
 30
0.0
 11
415.25342125202542
 21
18.44413460599753
 31
0.0
  0
ARC
  5
86E3
  8
AM_0
 10
404.25341125202539
 20
44.576171605997601
 30
0.0
 40
3.0
 50
272.00000000000341
 51
0.0
  0
LINE
  5
86E4
  8
AM_0
 10
402.53798125202542
 20
41.514419605997531
 30
0.0
 11
404.35814125202529
 21
41.577986605997687
 31
0.0
  0
LINE
  5
86E5
  8
AM_0
 10
292.25345125202568
 20
187.1485616059976
 30
0.0
 11
387.24692125202517
 21
187.1485616059976
 31
0.0
  0
LINE
  5
86E6
  8
AM_0
 10
292.25345125202568
 20
47.563901605997657
 30
0.0
 11
398.51690125202549
 21
47.563901605997657
 31
0.0
  0
LINE
  5
86E7
  8
AM_0
 10
255.7534412520252
 20
47.714294605997559
 30
0.0
 11
255.7534412520252
 21
169.1536886059975
 31
0.0
  0
LINE
  5
86E8
  8
AM_0
 10
264.7534412520252
 20
70.796204605997673
 30
0.0
 11
277.25345125202551
 21
70.796204605997673
 31
0.0
  0
LINE
  5
86E9
  8
AM_0
 10
264.7534412520252
 20
56.444150605997713
 30
0.0
 11
277.25345125202551
 21
56.444150605997713
 31
0.0
  0
LINE
  5
86EA
  8
AM_0
 10
255.7534412520252
 20
56.444135605997637
 30
0.0
 11
264.7534412520252
 21
56.444135605997637
 31
0.0
  0
ARC
  5
86EB
  8
AM_0
 10
253.75343125202559
 20
47.714294605997559
 30
0.0
 40
2.00000007
 50
0.0
 51
87.999999999996476
  0
LINE
  5
86EC
  8
AM_0
 10
255.7534412520252
 20
47.155484605997572
 30
0.0
 11
255.7534412520252
 21
47.714294605997559
 31
0.0
  0
LINE
  5
86ED
  8
AM_0
 10
255.7534412520252
 20
70.795775605997733
 30
0.0
 11
264.7534412520252
 21
70.795775605997733
 31
0.0
  0
LINE
  5
86EE
  8
AM_0
 10
264.7534412520252
 20
145.0920746059976
 30
0.0
 11
277.25345125202551
 21
145.0920746059976
 31
0.0
  0
LINE
  5
86EF
  8
AM_0
 10
255.7534412520252
 20
145.0924406059975
 30
0.0
 11
264.7534412520252
 21
145.0924406059975
 31
0.0
  0
LINE
  5
86F0
  8
AM_0
 10
302.2534412520252
 20
138.12945860599751
 30
0.0
 11
302.25500125202541
 21
138.12945860599751
 31
0.0
  0
ARC
  5
86F1
  8
AM_0
 10
272.2534412520252
 20
176.70907760599761
 30
0.0
 40
5.0000000999999967
 50
272.00000000000341
 51
0.0
  0
ARC
  5
86F2
  8
AM_0
 10
282.25343125202528
 20
179.87304860599761
 30
0.0
 40
5.0000000999999967
 50
134.99999999999071
 51
180.00001000000091
  0
LINE
  5
86F3
  8
AM_0
 10
264.7534412520252
 20
159.44412560599761
 30
0.0
 11
277.25345125202551
 21
159.44412560599761
 31
0.0
  0
LINE
  5
86F4
  8
AM_0
 10
258.64877125202543
 20
171.7309286059976
 30
0.0
 11
264.7534412520252
 21
171.94412360599759
 31
0.0
  0
LINE
  5
86F5
  8
AM_0
 10
255.7534412520252
 20
159.44412560599761
 30
0.0
 11
264.7534412520252
 21
159.44412560599761
 31
0.0
  0
ARC
  5
86F6
  8
AM_0
 10
258.7534412520252
 20
168.7327586059975
 30
0.0
 40
3.0
 50
91.999997999994264
 51
166.38107000000539
  0
ARC
  5
86F7
  8
AM_0
 10
252.92213125202531
 20
170.1455396059975
 30
0.0
 40
3.0
 50
272.00000000000341
 51
346.38107000000542
  0
ARC
  5
86F8
  8
AM_0
 10
252.7534412520252
 20
164.6249096059974
 30
0.0
 40
3.0
 50
314.99999999999068
 51
0.0
  0
LINE
  5
86F9
  8
AM_0
 10
264.7534412520252
 20
171.44412560599761
 30
0.0
 11
272.42795125202548
 21
171.7121306059974
 31
0.0
  0
ARC
  5
86FA
  8
AM_0
 10
423.50696125202518
 20
138.24888860599751
 30
0.0
 40
40.000001999999967
 50
174.07598000000601
 51
234.45534000000279
  0
ARC
  5
86FB
  8
AM_0
 10
403.25345125202517
 20
71.254868605997672
 30
0.0
 40
3.0
 50
90.00000299999769
 51
180.00001000000091
  0
LINE
  5
86FC
  8
AM_0
 10
403.25345125202517
 20
74.254868605997643
 30
0.0
 11
407.25341125202527
 21
74.254868605997643
 31
0.0
  0
ARC
  5
86FD
  8
AM_0
 10
403.25345125202517
 20
107.1798716059977
 30
0.0
 40
3.0
 50
179.99998999999889
 51
270.0
  0
LINE
  5
86FE
  8
AM_0
 10
403.25345125202517
 20
104.1798716059977
 30
0.0
 11
407.25341125202527
 21
104.1798716059977
 31
0.0
  0
LINE
  5
86FF
  8
AM_0
 10
388.1412512520252
 20
184.9811726059977
 30
0.0
 11
383.72054125202538
 21
142.37730560599761
 31
0.0
  0
LINE
  5
8700
  8
AM_0
 10
432.25343125202539
 20
151.94412560599761
 30
0.0
 11
432.25343125202539
 21
154.94412560599761
 31
0.0
  0
LINE
  5
8706
  8
AM_0
 10
302.2534412520252
 20
207.44416160599749
 30
0.0
 11
361.35932125202538
 21
208.99189160599741
 31
0.0
  0
ARC
  5
8707
  8
AM_0
 10
294.25340125202518
 20
205.1635616059977
 30
0.0
 40
2.00000007
 50
91.999997999994264
 51
180.00001000000091
  0
ARC
  5
8708
  8
AM_0
 10
289.25345125202563
 20
198.18676160599759
 30
0.0
 40
3.0
 50
314.99999999999068
 51
0.0
  0
LINE
  5
8709
  8
AM_0
 10
294.18362125202572
 20
207.1623416059976
 30
0.0
 11
302.25341125202539
 21
207.4441316059976
 31
0.0
  0
LINE
  5
870F
  8
AM_0
 10
415.25345125202529
 20
240.9441416059976
 30
0.0
 11
419.25341125202527
 21
240.9441416059976
 31
0.0
  0
ARC
  5
8710
  8
AM_0
 10
404.25341125202539
 20
226.54387160599751
 30
0.0
 40
3.0
 50
0.0
 51
91.999997999994264
  0
LINE
  5
8711
  8
AM_0
 10
400.2534512520254
 20
194.8548716059976
 30
0.0
 11
400.2534512520254
 21
250.02322160599761
 31
0.0
  0
LINE
  5
8712
  8
AM_0
 10
364.7639312520252
 20
210.45463160599769
 30
0.0
 11
400.2534512520254
 21
245.9441516059976
 31
0.0
  0
LINE
  5
8713
  8
AM_0
 10
363.35339125202529
 20
209.04409160599761
 30
0.0
 11
370.58363125202521
 21
207.88282160599761
 31
0.0
  0
ARC
  5
8714
  8
AM_0
 10
361.22840125202521
 20
213.9901616059976
 30
0.0
 40
5.0000000999999967
 50
271.50000000000267
 51
314.99999999999068
  0
ARC
  5
8715
  8
AM_0
 10
403.25345125202517
 20
194.8548716059976
 30
0.0
 40
3.0
 50
179.99998999999889
 51
270.0
  0
LINE
  5
8716
  8
AM_0
 10
403.25345125202517
 20
191.85487160599769
 30
0.0
 11
407.25341125202527
 21
191.85487160599769
 31
0.0
  0
LINE
  5
8717
  8
AM_0
 10
403.96889125202517
 20
229.53574160599749
 30
0.0
 11
404.14871125202518
 21
229.54204160599761
 31
0.0
  0
ARC
  5
8718
  8
AM_0
 10
403.25345125202517
 20
250.02322160599761
 30
0.0
 40
3.0
 50
91.999997999994264
 51
180.00001000000091
  0
LINE
  5
8719
  8
AM_0
 10
403.14875125202542
 20
253.0214216059976
 30
0.0
 11
415.25342125202542
 21
253.44412160599759
 31
0.0
  0
LINE
  5
8725
  8
AM_0
 10
477.25343125202539
 20
119.94413960599761
 30
0.0
 11
477.25343125202539
 21
154.94412560599761
 31
0.0
  0
CIRCLE
  5
872F
  8
AM_0
 10
679.59145895956601
 20
135.94412360599759
 30
0.0
 40
99.000003000000021
  0
CIRCLE
  5
8730
  8
AM_0
 10
679.59145895956601
 20
135.94412360599759
 30
0.0
 40
105.00000299999979
  0
LINE
  5
8731
  8
AM_0
 10
645.48751295956595
 20
175.70492960599759
 30
0.0
 11
616.25722595956574
 21
204.93520160599761
 31
0.0
  0
LINE
  5
8732
  8
AM_0
 10
562.09145495956602
 20
165.94412360599759
 30
0.0
 11
565.50630995956612
 21
231.10342160599771
 31
0.0
  0
LINE
  5
8733
  8
AM_0
 10
797.09145395956591
 20
165.94412360599759
 30
0.0
 11
793.67660195956591
 21
231.1033916059975
 31
0.0
  0
LINE
  5
8734
  8
AM_0
 10
639.83065295956567
 20
170.04806660599769
 30
0.0
 11
610.60036595956592
 21
199.2783416059975
 31
0.0
  0
LINE
  5
8735
  8
AM_0
 10
713.6954019595662
 20
175.70492960599759
 30
0.0
 11
742.92570995956623
 21
204.93523160599759
 31
0.0
  0
LINE
  5
8736
  8
AM_0
 10
719.35224695956595
 20
170.04809960599741
 30
0.0
 11
748.58256395956607
 21
199.27837160599751
 31
0.0
  0
LINE
  5
8737
  8
ﾁｭｳｼﾝｾﾝ
 10
679.59145895956601
 20
3.1734146059975541
 30
0.0
 11
679.59145895956601
 21
258.89598910965839
 31
0.0
  0
ARC
  5
873B
  8
AM_0
 10
679.59145895956601
 20
107.94413960599761
 30
0.0
 40
93.500003999999976
 50
356.99211999999977
 51
17.85321299999984
  0
CIRCLE
  5
873C
  8
AM_0
 10
775.05086495956584
 20
40.48473860599757
 30
0.0
 40
7.5000002999999982
  0
LINE
  5
873E
  8
AM_0
 10
709.59144395956605
 20
18.44413460599753
 30
0.0
 11
774.75072395956624
 21
21.858977605997548
 31
0.0
  0
LINE
  5
873F
  8
ﾁｭｳｼﾝｾﾝ
 10
557.35276145956595
 20
135.94412360599759
 30
0.0
 11
801.83015645956584
 21
135.94412360599759
 31
0.0
  0
CIRCLE
  5
8740
  8
AM_0
 10
584.13204395956586
 20
40.48473860599757
 30
0.0
 40
7.5000002999999982
  0
LINE
  5
8742
  8
AM_0
 10
562.09142495956576
 20
105.94413860599769
 30
0.0
 11
565.50627995956586
 21
40.784849605997579
 31
0.0
  0
ARC
  5
8744
  8
AM_0
 10
679.59145895956601
 20
107.94413960599761
 30
0.0
 40
99.500004000000004
 50
242.8856600000008
 51
297.11434999999523
  0
LINE
  5
8745
  8
AM_0
 10
679.59145895956601
 20
18.444149605997609
 30
0.0
 11
649.59144095956594
 21
18.444149605997609
 31
0.0
  0
LINE
  5
8746
  8
AM_0
 10
649.59144095956594
 20
18.44413460599753
 30
0.0
 11
584.43218495956592
 21
21.858992605997638
 31
0.0
  0
ARC
  5
8747
  8
AM_0
 10
585.47890595956608
 20
41.831588605997688
 30
0.0
 40
20.000000700000001
 50
183.00001000000611
 51
266.9999999999946
  0
LINE
  5
8748
  8
AM_0
 10
679.59145895956601
 20
18.444149605997609
 30
0.0
 11
709.5914589595659
 21
18.444149605997609
 31
0.0
  0
CIRCLE
  5
874A
  8
AM_0
 10
679.59145895956601
 20
135.94412360599759
 30
0.0
 40
29.000001000000001
  0
ARC
  5
874B
  8
AM_0
 10
679.59145895956601
 20
135.94412360599759
 30
0.0
 40
48.0
 50
54.776850000006839
 51
125.2231399999917
  0
ARC
  5
874C
  8
AM_0
 10
679.59145895956601
 20
107.94413960599761
 30
0.0
 40
93.500003999999976
 50
162.14679000000021
 51
183.00788
  0
LINE
  5
874D
  8
AM_0
 10
631.59144095956594
 20
135.94412360599759
 30
0.0
 11
631.59144095956594
 21
97.944122605997563
 31
0.0
  0
LINE
  5
874E
  8
AM_0
 10
562.09145495956602
 20
135.94412360599759
 30
0.0
 11
562.09145495956602
 21
105.9441236059976
 31
0.0
  0
LINE
  5
874F
  8
AM_0
 10
626.59143995956595
 20
92.944136605997784
 30
0.0
 11
593.61471095956585
 21
92.944136605997784
 31
0.0
  0
ARC
  5
8750
  8
AM_0
 10
593.61471095956585
 20
97.944122605997563
 30
0.0
 40
5.0000000999999967
 50
203.84446999999949
 51
270.0
  0
ARC
  5
8751
  8
AM_0
 10
626.59143995956595
 20
97.944122605997563
 30
0.0
 40
5.0000000999999967
 50
270.0
 51
0.0
  0
ARC
  5
8752
  8
AM_0
 10
679.59145895956601
 20
107.94413960599761
 30
0.0
 40
99.500004000000004
 50
125.8636900000059
 51
150.26975999999479
  0
ARC
  5
8753
  8
AM_0
 10
679.59145895956601
 20
135.94412360599759
 30
0.0
 40
89.000003999999961
 50
166.12422999999811
 51
179.57177000000021
  0
LINE
  5
8754
  8
AM_0
 10
562.09145495956602
 20
135.94412360599759
 30
0.0
 11
562.09145495956602
 21
165.94412360599759
 31
0.0
  0
ARC
  5
8755
  8
AM_0
 10
679.59145895956601
 20
135.94412360599759
 30
0.0
 40
48.0
 50
144.7768400000017
 51
180.00001000000091
  0
ARC
  5
8756
  8
AM_0
 10
636.29511695956592
 20
166.5125456059977
 30
0.0
 40
5.0000000999999967
 50
324.77685000000292
 51
45.000000999994569
  0
ARC
  5
8757
  8
AM_0
 10
649.02303695956607
 20
179.24045060599761
 30
0.0
 40
5.0000000999999967
 50
225.00000000000909
 51
305.22314999999321
  0
LINE
  5
8758
  8
AM_0
 10
727.59145295956591
 20
135.94412360599759
 30
0.0
 11
727.59145295956591
 21
97.944122605997563
 31
0.0
  0
LINE
  5
875A
  8
AM_0
 10
732.59145095956615
 20
92.944136605997784
 30
0.0
 11
765.56819195956621
 21
92.944136605997784
 31
0.0
  0
ARC
  5
875B
  8
AM_0
 10
732.59145095956615
 20
97.944122605997563
 30
0.0
 40
5.0000000999999967
 50
179.99998999999889
 51
270.0
  0
ARC
  5
875C
  8
AM_0
 10
765.56819195956621
 20
97.944122605997563
 30
0.0
 40
5.0000000999999967
 50
270.0
 51
336.15553000000051
  0
LINE
  5
875D
  8
AM_0
 10
684.59144195956605
 20
146.9441246059975
 30
0.0
 11
684.59144195956605
 21
154.94412560599761
 31
0.0
  0
LINE
  5
875E
  8
AM_0
 10
674.59144295956571
 20
146.9441246059975
 30
0.0
 11
674.59144295956571
 21
154.94412560599761
 31
0.0
  0
ARC
  5
875F
  8
AM_0
 10
679.59145895956601
 20
135.94412360599759
 30
0.0
 40
16.000000499999999
 50
108.2099599999986
 51
71.790052000007023
  0
ARC
  5
8760
  8
AM_0
 10
679.59145895956601
 20
135.94412360599759
 30
0.0
 40
16.000000499999999
 50
108.2099599999986
 51
71.790052000007023
  0
CIRCLE
  5
8761
  8
AM_0
 10
679.59145895956601
 20
135.94412360599759
 30
0.0
 40
2.75000007
  0
CIRCLE
  5
8762
  8
AM_0
 10
679.59145895956601
 20
135.94412360599759
 30
0.0
 40
2.75000007
  0
CIRCLE
  5
8763
  8
AM_0
 10
679.59145895956601
 20
135.94412360599759
 30
0.0
 40
2.75000007
  0
CIRCLE
  5
8764
  8
AM_5
 10
679.59145895956601
 20
135.94412360599759
 30
0.0
 40
4.000000199999997
  0
LINE
  5
8765
  8
AM_0
 10
674.59144295956571
 20
146.9441246059975
 30
0.0
 11
684.59144195956605
 21
146.9441246059975
 31
0.0
  0
LINE
  5
8766
  8
AM_0
 10
674.59144295956571
 20
154.94412560599761
 30
0.0
 11
684.59144195956605
 21
154.94412560599761
 31
0.0
  0
ARC
  5
8767
  8
AM_0
 10
710.15986295956623
 20
179.24045060599761
 30
0.0
 40
5.0000000999999967
 50
234.7768600000081
 51
314.99999999999068
  0
ARC
  5
8768
  8
AM_0
 10
679.59145895956601
 20
135.94412360599759
 30
0.0
 40
89.000003999999961
 50
0.4282278599951728
 51
13.87576399999174
  0
ARC
  5
8769
  8
AM_0
 10
679.59145895956601
 20
135.94412360599759
 30
0.0
 40
48.0
 50
0.0
 51
35.223151999997171
  0
ARC
  5
876A
  8
AM_0
 10
679.59145895956601
 20
107.94413960599761
 30
0.0
 40
99.500004000000004
 50
29.730243000000009
 51
54.136312000000359
  0
ARC
  5
876B
  8
AM_0
 10
722.88778595956592
 20
166.5125456059977
 30
0.0
 40
5.0000000999999967
 50
134.99999999999071
 51
215.2231499999931
  0
LINE
  5
876C
  8
AM_0
 10
797.09145395956591
 20
105.9441236059976
 30
0.0
 11
793.67659895956615
 21
40.784849605997579
 31
0.0
  0
ARC
  5
876D
  8
AM_0
 10
773.70400895956573
 20
41.831588605997688
 30
0.0
 40
20.000000700000001
 50
273.0000000000054
 51
357.0000000000075
  0
LINE
  5
876E
  8
AM_0
 10
797.09145095956615
 20
135.94412360599759
 30
0.0
 11
797.09145095956615
 21
105.9441236059976
 31
0.0
  0
LINE
  5
8770
  8
AM_0
 10
797.09145095956615
 20
135.94412360599759
 30
0.0
 11
797.09145095956615
 21
165.94412360599759
 31
0.0
  0
CIRCLE
  5
8772
  8
AM_0
 10
775.05086495956584
 20
231.4035416059975
 30
0.0
 40
7.5000002999999982
  0
ARC
  5
8773
  8
ﾁｭｳｼﾝｾﾝ
 10
679.59145895956601
 20
135.94412360599759
 30
0.0
 40
135.00000299999991
 50
38.630526483111872
 51
51.369480719418817
  0
LINE
  5
8774
  8
ﾁｭｳｼﾝｾﾝ
 10
764.44425287730223
 20
220.79695025267509
 30
0.0
 11
785.65745746791629
 21
242.01015253323561
 31
0.0
  0
LINE
  5
8775
  8
AM_0
 10
709.5914589595659
 20
253.44412160599759
 30
0.0
 11
774.75073295956577
 21
250.02928160599751
 31
0.0
  0
LINE
  5
8776
  8
AM_0
 10
679.59145895956601
 20
253.44412160599759
 30
0.0
 11
649.59144095956594
 21
253.44412160599759
 31
0.0
  0
ARC
  5
8778
  8
AM_0
 10
607.06479695956568
 20
195.74284160599751
 30
0.0
 40
5.0000000999999967
 50
45.000000999994569
 51
140.49417999999881
  0
LINE
  5
8779
  8
AM_0
 10
649.59144095956594
 20
253.4441516059976
 30
0.0
 11
584.43218495956592
 21
250.02931160599761
 31
0.0
  0
CIRCLE
  5
877A
  8
AM_0
 10
584.13204395956586
 20
231.4035416059975
 30
0.0
 40
7.5000002999999982
  0
ARC
  5
877C
  8
AM_0
 10
585.47890595956608
 20
230.0566616059975
 30
0.0
 40
20.000000700000001
 50
92.999998999995157
 51
176.99998999999369
  0
ARC
  5
877D
  8
AM_0
 10
679.59145895956601
 20
107.94413960599761
 30
0.0
 40
99.500004000000004
 50
93.362115621627623
 51
121.1614999999983
  0
ARC
  5
877E
  8
AM_0
 10
619.79271995956594
 20
208.47076160599769
 30
0.0
 40
5.0000000999999967
 50
129.50582000000111
 51
225.00000000000909
  0
ARC
  5
8780
  8
AM_0
 10
679.59145895956601
 20
107.94413960599761
 30
0.0
 40
99.500004000000004
 50
58.838493999999237
 51
86.64417999999624
  0
ARC
  5
8781
  8
AM_0
 10
685.59145895956601
 20
210.2683616059976
 30
0.0
 40
3.0
 50
179.99998999999889
 51
266.64419000000049
  0
ARC
  5
8782
  8
AM_0
 10
673.59144095956572
 20
210.2683616059976
 30
0.0
 40
3.0
 50
273.35582000000369
 51
0.0
  0
ARC
  5
8783
  8
AM_0
 10
673.59144095956572
 20
216.4588316059976
 30
0.0
 40
3.0
 50
0.0
 51
90.00000299999769
  0
ARC
  5
8784
  8
AM_0
 10
685.59145895956601
 20
216.4588316059976
 30
0.0
 40
3.0
 50
90.00000299999769
 51
180.00001000000091
  0
LINE
  5
8785
  8
AM_0
 10
676.59145895956578
 20
216.4588316059976
 30
0.0
 11
676.59145895956578
 21
210.2683616059976
 31
0.0
  0
LINE
  5
8786
  8
AM_0
 10
682.59145895956601
 20
216.4588316059976
 30
0.0
 11
682.59145895956601
 21
210.2683616059976
 31
0.0
  0
LINE
  5
8787
  8
AM_0
 10
679.59145895956601
 20
253.44412160599759
 30
0.0
 11
709.5914589595659
 21
253.44412160599759
 31
0.0
  0
ARC
  5
8788
  8
AM_0
 10
739.39017395956614
 20
208.47076160599769
 30
0.0
 40
5.0000000999999967
 50
314.99999999999068
 51
50.494181999991731
  0
ARC
  5
8789
  8
AM_0
 10
752.11808495956575
 20
195.74284160599751
 30
0.0
 40
5.0000000999999967
 50
39.505818000008247
 51
134.99999999999071
  0
ARC
  5
8790
  8
AM_0
 10
773.70400895956573
 20
230.0566616059975
 30
0.0
 40
20.000000700000001
 50
3.0000000999988461
 51
86.999998999996649
  0
ARC
  5
8796
  8
AM_0
 10
81.577251252025235
 20
97.954133605997654
 30
0.0
 40
1.335016049999999
 50
89.732355000002016
 51
270.26763000000221
  0
LINE
  5
8797
  8
ﾁｭｳｼﾝｾﾝ
 10
137.2534412520254
 20
123.5691371059975
 30
0.0
 11
137.2534412520254
 21
42.319108105997522
 31
0.0
  0
LINE
  5
8798
  8
AM_0
 10
178.02347125202519
 20
112.93911860599771
 30
0.0
 11
178.02347125202519
 21
52.939115605997593
 31
0.0
  0
LINE
  5
8799
  8
AM_0
 10
80.253441252025496
 20
135.93910760599761
 30
0.0
 11
80.253441252025496
 21
33.499127605997728
 31
0.0
  0
LINE
  5
879A
  8
AM_0
 10
188.25347125202521
 20
138.9441176059976
 30
0.0
 11
188.25347125202521
 21
26.9441066059976
 31
0.0
  0
LINE
  5
879C
  8
AM_0
 10
181.4935058080379
 20
46.944122605997563
 30
0.0
 11
82.895945408947796
 21
46.944122605997563
 31
0.0
  0
LINE
  5
879D
  8
AM_0
 10
137.2534412520254
 20
46.219115605997537
 30
0.0
 11
185.0734712520254
 21
46.219115605997537
 31
0.0
  0
LINE
  5
879E
  8
AM_0
 10
83.453451252025502
 20
26.65910060599753
 30
0.0
 11
180.37346125202529
 21
26.65910060599753
 31
0.0
  0
LINE
  5
879F
  8
AM_0
 10
105.7534412520254
 20
44.719115605997558
 30
0.0
 11
188.25347125202521
 21
44.719115605997558
 31
0.0
  0
ARC
  5
87A2
  8
AM_0
 10
287.30463445927887
 20
84.631696545919795
 30
0.0
 40
204.69842337270771
 50
178.02572260412779
 51
178.71785518950381
  0
ARC
  5
87A3
  8
AM_0
 10
287.22738257111632
 20
81.252152679971687
 30
0.0
 40
204.6212004872653
 50
181.28349981583841
 51
181.97561674815401
  0
ARC
  5
87A4
  8
AM_0
 10
82.795701252025509
 20
47.939117605997573
 30
0.0
 40
1.0000319699999971
 50
89.552707000000495
 51
270.44730000000112
  0
ARC
  5
87A5
  8
AM_0
 10
82.795701252025509
 20
97.939118605997706
 30
0.0
 40
1.0000319699999971
 50
89.552707000000495
 51
270.44730000000112
  0
ARC
  5
87A6
  8
AM_0
 10
82.795701252025509
 20
87.939116605997697
 30
0.0
 40
1.0000319699999971
 50
89.552707000000495
 51
270.44730000000112
  0
ARC
  5
87A7
  8
AM_0
 10
82.795701252025509
 20
77.939117605997581
 30
0.0
 40
1.0000319699999971
 50
89.552707000000495
 51
270.44730000000112
  0
ARC
  5
87A8
  8
AM_0
 10
82.795701252025509
 20
67.939115605997586
 30
0.0
 40
1.0000319699999971
 50
89.552707000000495
 51
270.44730000000112
  0
ARC
  5
87A9
  8
AM_0
 10
82.795701252025509
 20
57.939101605997621
 30
0.0
 40
1.0000319699999971
 50
89.552707000000495
 51
270.44730000000112
  0
ARC
  5
87AA
  8
AM_0
 10
81.515241252025177
 20
87.949097605997636
 30
0.0
 40
1.270028039999999
 50
89.627211000000742
 51
270.37279000000228
  0
ARC
  5
87AB
  8
AM_0
 10
81.515241252025177
 20
77.939117605997581
 30
0.0
 40
1.270028039999999
 50
89.627211000000742
 51
270.37279000000228
  0
ARC
  5
87AC
  8
AM_0
 10
81.577251252025235
 20
67.929107605997615
 30
0.0
 40
1.3300160699999981
 50
89.73134399999789
 51
270.26864999999918
  0
ARC
  5
87AD
  8
AM_0
 10
81.707871252025541
 20
57.919127605997573
 30
0.0
 40
1.460012009999998
 50
89.778814000002811
 51
270.22118999999998
  0
ARC
  5
87AE
  8
AM_0
 10
83.545581252025372
 20
23.04959060599753
 30
0.0
 40
2.000475929999999
 50
187.7704600000076
 51
269.93969000000249
  0
ARC
  5
87AF
  8
AM_0
 10
83.458101252025244
 20
28.658108605997541
 30
0.0
 40
1.999007999999999
 50
190.63740999999681
 51
269.86655000000292
  0
ARC
  5
87B0
  8
AM_0
 10
83.509431252025465
 20
25.809293605997709
 30
0.0
 40
2.0001841200000001
 50
188.9209999999957
 51
269.8285299999992
  0
ARC
  5
87B1
  8
AM_0
 10
83.516991252025264
 20
23.966444605997591
 30
0.0
 40
1.997348129999998
 50
188.85146999999321
 51
270.18467999999763
  0
LINE
  5
87B2
  8
AM_0
 10
86.253441252025553
 20
98.939117605997581
 30
0.0
 11
82.613511252025376
 21
98.939117605997581
 31
0.0
  0
LINE
  5
87B3
  8
AM_0
 10
86.253441252025553
 20
96.939116605997697
 30
0.0
 11
82.613511252025376
 21
96.939116605997697
 31
0.0
  0
LINE
  5
87B4
  8
AM_0
 10
86.253441252025553
 20
88.939118605997706
 30
0.0
 11
82.613511252025376
 21
88.939118605997706
 31
0.0
  0
LINE
  5
87B5
  8
AM_0
 10
86.253441252025553
 20
86.939117605997595
 30
0.0
 11
82.613511252025376
 21
86.939117605997595
 31
0.0
  0
LINE
  5
87B6
  8
AM_0
 10
81.583461252025245
 20
96.619109605997664
 30
0.0
 11
86.253441252025553
 21
96.619109605997664
 31
0.0
  0
LINE
  5
87B7
  8
AM_0
 10
81.523461252025456
 20
89.219117605997525
 30
0.0
 11
86.253441252025553
 21
89.219117605997525
 31
0.0
  0
LINE
  5
87B8
  8
AM_0
 10
81.523461252025456
 20
86.679107605997615
 30
0.0
 11
86.253441252025553
 21
86.679107605997615
 31
0.0
  0
LINE
  5
87B9
  8
AM_0
 10
81.523461252025456
 20
79.209107605997588
 30
0.0
 11
86.253441252025553
 21
79.209107605997588
 31
0.0
  0
LINE
  5
87BA
  8
AM_0
 10
86.253441252025553
 20
78.939116605997711
 30
0.0
 11
82.613511252025376
 21
78.939116605997711
 31
0.0
  0
LINE
  5
87BB
  8
AM_0
 10
86.253441252025553
 20
76.939118605997706
 30
0.0
 11
82.613511252025376
 21
76.939118605997706
 31
0.0
  0
LINE
  5
87BC
  8
AM_0
 10
81.523461252025456
 20
76.669127605997559
 30
0.0
 11
86.253441252025553
 21
76.669127605997559
 31
0.0
  0
LINE
  5
87BD
  8
AM_0
 10
81.583461252025245
 20
69.259124605997613
 30
0.0
 11
86.253441252025553
 21
69.259124605997613
 31
0.0
  0
LINE
  5
87BE
  8
AM_0
 10
86.253441252025553
 20
68.939117605997581
 30
0.0
 11
82.613511252025376
 21
68.939117605997581
 31
0.0
  0
LINE
  5
87BF
  8
AM_0
 10
86.253441252025553
 20
66.939101605997621
 30
0.0
 11
82.613511252025376
 21
66.939101605997621
 31
0.0
  0
LINE
  5
87C0
  8
AM_0
 10
81.583461252025245
 20
66.599120605997541
 30
0.0
 11
86.253441252025553
 21
66.599120605997541
 31
0.0
  0
LINE
  5
87C1
  8
AM_0
 10
86.253441252025553
 20
58.939115605997571
 30
0.0
 11
82.613511252025376
 21
58.939115605997571
 31
0.0
  0
LINE
  5
87C2
  8
AM_0
 10
81.713481252025247
 20
59.37911960599763
 30
0.0
 11
86.253441252025553
 21
59.37911960599763
 31
0.0
  0
LINE
  5
87C3
  8
AM_0
 10
86.253441252025553
 20
56.939117605997581
 30
0.0
 11
82.613511252025376
 21
56.939117605997581
 31
0.0
  0
LINE
  5
87C4
  8
AM_0
 10
81.713481252025247
 20
56.459105605997593
 30
0.0
 11
86.253441252025553
 21
56.459105605997593
 31
0.0
  0
LINE
  5
87C5
  8
AM_0
 10
81.923451252025245
 20
46.219115605997537
 30
0.0
 11
137.2534412520254
 21
46.219115605997537
 31
0.0
  0
LINE
  5
87C6
  8
AM_0
 10
81.923451252025245
 20
49.579130605997541
 30
0.0
 11
86.360345280439475
 21
49.579130605997541
 31
0.0
  0
LINE
  5
87C7
  8
AM_0
 10
86.590810413129901
 20
48.939101605997621
 30
0.0
 11
82.613511252025376
 21
48.939101605997621
 31
0.0
  0
LINE
  5
87C8
  8
AM_0
 10
85.613451252025257
 20
46.289123605997709
 30
0.0
 11
80.253441252025496
 21
34.849118605997532
 31
0.0
  0
LINE
  5
87C9
  8
AM_0
 10
80.253441252025496
 20
34.849103605997691
 30
0.0
 11
81.493431252025374
 21
28.289105605997751
 31
0.0
  0
LINE
  5
87CA
  8
AM_0
 10
80.253441252025496
 20
32.159132605997677
 30
0.0
 11
81.563451252025573
 21
22.779128605997581
 31
0.0
  0
LINE
  5
87CB
  8
AM_0
 10
72.253461252025545
 20
29.9441066059976
 30
0.0
 11
80.253441252025496
 21
29.9441066059976
 31
0.0
  0
LINE
  5
87CC
  8
AM_0
 10
72.253461252025545
 20
29.939114605997698
 30
0.0
 11
80.253441252025496
 21
29.939114605997698
 31
0.0
  0
LINE
  5
87CD
  8
AM_0
 10
80.253441252025496
 20
33.499112605997638
 30
0.0
 11
81.53342125202515
 21
25.49911460599764
 31
0.0
  0
LINE
  5
87CE
  8
AM_0
 10
80.253441252025496
 20
32.159102605997532
 30
0.0
 11
81.543501252025379
 21
23.659115605997609
 31
0.0
  0
LINE
  5
87CF
  8
AM_0
 10
72.943461252025543
 20
39.749114605997647
 30
0.0
 11
79.173501252025403
 21
39.749114605997647
 31
0.0
  0
ARC
  5
87D0
  8
AM_0
 10
81.923451252025245
 20
47.899106605997531
 30
0.0
 40
1.679999999999999
 50
90.00000299999769
 51
270.0
  0
ARC
  5
87D1
  8
AM_0
 10
284.217165893404
 20
84.65196317152072
 30
0.0
 40
201.61085738285439
 50
179.42527489174191
 51
180.13294661221761
  0
ARC
  5
87D2
  8
AM_0
 10
287.24708517153761
 20
84.651345949636834
 30
0.0
 40
204.64076721509861
 50
180.130805390495
 51
180.47940135319399
  0
ARC
  5
87D3
  8
AM_0
 10
285.50041922239012
 20
81.226373869005783
 30
0.0
 40
202.89403267033549
 50
180.21919094446361
 51
180.57069649462861
  0
ARC
  5
87D4
  8
AM_0
 10
286.53705878419572
 20
81.234617201527698
 30
0.0
 40
203.93069622692141
 50
179.87077327206001
 51
180.22039274125001
  0
ARC
  5
87D5
  8
AM_0
 10
286.15906429362639
 20
81.237386819522712
 30
0.0
 40
203.55269646012371
 50
179.52099544220221
 51
179.87131288695369
  0
ARC
  5
87D6
  8
AM_0
 10
287.57253305680871
 20
81.238915115061644
 30
0.0
 40
204.96200297080929
 50
186.94488316606041
 51
187.59240971813529
  0
LINE
  5
87D7
  8
AM_0
 10
83.503461252025474
 20
23.809109605997708
 30
0.0
 11
117.2534612520253
 21
23.809109605997708
 31
0.0
  0
LINE
  5
87D8
  8
AM_0
 10
83.523471252025246
 20
21.96911360599756
 30
0.0
 11
117.2534612520253
 21
21.96911360599756
 31
0.0
  0
LINE
  5
87D9
  8
AM_0
 10
83.543481252025231
 20
21.049115605997709
 30
0.0
 11
117.2534612520253
 21
21.049115605997709
 31
0.0
  0
LINE
  5
87DA
  8
AM_0
 10
105.7534412520254
 20
44.719115605997558
 30
0.0
 11
85.580661252025479
 21
46.219115605997537
 31
0.0
  0
ARC
  5
87DB
  8
AM_0
 10
288.05476841955459
 20
81.309231575900853
 30
0.0
 40
205.44930125633391
 50
187.59407870998231
 51
188.8860675939209
  0
ARC
  5
87DC
  8
AM_0
 10
117.25016125202561
 20
23.97239660599757
 30
0.0
 40
2.003279969999999
 50
270.09378999999711
 51
359.90621000000289
  0
LINE
  5
87DD
  8
AM_0
 10
119.2534412520255
 20
23.04911660599759
 30
0.0
 11
119.2534412520255
 21
26.65910060599753
 31
0.0
  0
ARC
  5
87DE
  8
AM_0
 10
117.2454512520254
 20
23.057126605997599
 30
0.0
 40
2.0080361999999989
 50
270.22878999999938
 51
359.77121000000051
  0
ARC
  5
87DF
  8
AM_0
 10
117.24626125202541
 20
25.816298605997641
 30
0.0
 40
2.007180029999998
 50
270.20461999999759
 51
359.79537999999559
  0
ARC
  5
87E1
  8
AM_0
 10
287.1597991243512
 20
81.247509137589773
 30
0.0
 40
204.55326957220879
 50
185.46031399634921
 51
186.13700085447221
  0
ARC
  5
87E2
  8
AM_0
 10
287.81316801811221
 20
81.306714185978748
 30
0.0
 40
205.2093074617344
 50
184.78473638767409
 51
185.45941055423961
  0
ARC
  5
87E3
  8
AM_0
 10
287.24280428342092
 20
81.256790735366849
 30
0.0
 40
204.63676715666841
 50
184.10764570184199
 51
184.78412767204631
  0
ARC
  5
87E4
  8
AM_0
 10
286.9841609355405
 20
81.245049112853593
 30
0.0
 40
204.37787853975311
 50
181.97597713469739
 51
183.3618692197046
  0
ARC
  5
87E5
  8
AM_0
 10
287.31298416126572
 20
84.629045632188749
 30
0.0
 40
204.70684984457009
 50
176.64084313943471
 51
177.33301926919199
  0
ARC
  5
87E6
  8
AM_0
 10
288.62984983424587
 20
84.574870622965818
 30
0.0
 40
206.0248100930055
 50
177.3350100486474
 51
178.02262526942451
  0
LINE
  5
87E7
  8
AM_0
 10
185.0734712520254
 20
49.579130605997541
 30
0.0
 11
175.253441252025
 21
49.579130605997541
 31
0.0
  0
LINE
  5
87E8
  8
AM_0
 10
186.75347125202541
 20
44.719115605997558
 30
0.0
 11
182.30345125202541
 21
28.139111605997641
 31
0.0
  0
ARC
  5
87E9
  8
AM_0
 10
180.37058125202529
 20
28.661252605997561
 30
0.0
 40
2.0021281800000001
 50
270.0815199999999
 51
344.88329999999792
  0
LINE
  5
87EA
  8
AM_0
 10
181.5934712520253
 20
48.939101605997621
 30
0.0
 11
175.253441252025
 21
48.939101605997621
 31
0.0
  0
LINE
  5
87EB
  8
AM_0
 10
175.253441252025
 20
52.861410521670891
 30
0.0
 11
178.02347125202519
 21
52.939100605997737
 31
0.0
  0
ARC
  5
87EC
  8
AM_0
 10
181.5934712520253
 20
47.939117605997573
 30
0.0
 40
1.000004069999999
 50
270.0
 51
90.00000299999769
  0
LINE
  5
87ED
  8
AM_0
 10
182.79344125202519
 20
29.939114605997698
 30
0.0
 11
188.25347125202521
 21
29.939114605997698
 31
0.0
  0
ARC
  5
87EE
  8
AM_0
 10
185.0734712520254
 20
47.899106605997531
 30
0.0
 40
1.680008099999998
 50
270.0
 51
90.00000299999769
  0
ARC
  5
87EF
  8
AM_0
 10
185.0734712520254
 20
47.899106605997531
 30
0.0
 40
1.675004159999999
 50
270.0
 51
90.00000299999769
  0
LINE
  5
87F1
  8
AM_0
 10
82.803508157878341
 20
118.9391211026177
 30
0.0
 11
181.5934711996652
 21
118.93912367599771
 31
0.0
  0
LINE
  5
87F2
  8
AM_0
 10
81.923451252025245
 20
119.6690876059976
 30
0.0
 11
185.0734712520254
 21
119.6690876059976
 31
0.0
  0
LINE
  5
87F3
  8
AM_0
 10
83.453451252025502
 20
139.22911760599749
 30
0.0
 11
180.37346125202529
 21
139.22911760599749
 31
0.0
  0
LINE
  5
87F4
  8
AM_0
 10
105.7534412520254
 20
121.1690876059976
 30
0.0
 11
188.25347125202521
 21
121.1690876059976
 31
0.0
  0
ARC
  5
87F5
  8
AM_0
 10
82.795701252025509
 20
117.9391196059975
 30
0.0
 40
1.0000319699999971
 50
89.552707000000495
 51
270.44730000000112
  0
ARC
  5
87F6
  8
AM_0
 10
82.795701252025509
 20
107.9391176059975
 30
0.0
 40
1.0000319699999971
 50
89.552707000000495
 51
270.44730000000112
  0
ARC
  5
87F7
  8
AM_0
 10
81.707811252025209
 20
107.9691176059975
 30
0.0
 40
1.460012009999998
 50
89.777016999998949
 51
270.22298999999867
  0
ARC
  5
87F8
  8
AM_0
 10
83.456331252025393
 20
137.2321976059977
 30
0.0
 40
1.996904069999998
 50
90.083473999999597
 51
169.41255999999501
  0
ARC
  5
87F9
  8
AM_0
 10
83.501871252025225
 20
140.0759876059976
 30
0.0
 40
1.9931281199999991
 50
89.953373000000497
 51
170.96118000000021
  0
ARC
  5
87FA
  8
AM_0
 10
83.516211252025187
 20
141.9245276059975
 30
0.0
 40
1.994588069999998
 50
89.790753000002425
 51
171.507089999995
  0
ARC
  5
87FB
  8
AM_0
 10
83.538111252025473
 20
142.83562760599759
 30
0.0
 40
1.9934921999999999
 50
89.846091000001351
 51
172.1147400000026
  0
LINE
  5
87FC
  8
AM_0
 10
86.588967373057187
 20
116.9391176059975
 30
0.0
 11
82.613511252025376
 21
116.9391176059975
 31
0.0
  0
LINE
  5
87FD
  8
AM_0
 10
86.253441252025553
 20
108.9391196059975
 30
0.0
 11
82.613511252025376
 21
108.9391196059975
 31
0.0
  0
LINE
  5
87FE
  8
AM_0
 10
86.253441252025553
 20
106.93911860599761
 30
0.0
 11
82.613511252025376
 21
106.93911860599761
 31
0.0
  0
LINE
  5
87FF
  8
AM_0
 10
81.923451252025245
 20
116.30911460599749
 30
0.0
 11
86.362113855976986
 21
116.30911460599749
 31
0.0
  0
LINE
  5
8800
  8
AM_0
 10
81.713481252025247
 20
109.4291096059976
 30
0.0
 11
86.253441252025553
 21
109.4291096059976
 31
0.0
  0
LINE
  5
8801
  8
AM_0
 10
81.713481252025247
 20
106.5090956059975
 30
0.0
 11
86.253441252025553
 21
106.5090956059975
 31
0.0
  0
LINE
  5
8802
  8
AM_0
 10
81.583461252025245
 20
99.289124605997586
 30
0.0
 11
86.253441252025553
 21
99.289124605997586
 31
0.0
  0
LINE
  5
8803
  8
AM_0
 10
85.613451252025257
 20
119.5891076059977
 30
0.0
 11
80.253441252025496
 21
131.03908760599751
 31
0.0
  0
LINE
  5
8804
  8
AM_0
 10
80.253441252025496
 20
133.72909760599759
 30
0.0
 11
81.563451252025573
 21
143.10910760599759
 31
0.0
  0
ARC
  5
8805
  8
AM_0
 10
81.923451252025245
 20
117.98910560599749
 30
0.0
 40
1.679999999999999
 50
90.00000299999769
 51
270.0
  0
LINE
  5
8806
  8
AM_0
 10
80.253441252025496
 20
131.03911760599769
 30
0.0
 11
81.493431252025374
 21
137.59912760599761
 31
0.0
  0
LINE
  5
8807
  8
AM_0
 10
72.943461252025543
 20
126.1291076059976
 30
0.0
 11
79.173501252025403
 21
126.1291076059976
 31
0.0
  0
LINE
  5
8808
  8
AM_0
 10
72.253461252025545
 20
135.9441176059976
 30
0.0
 11
80.253441252025496
 21
135.9441176059976
 31
0.0
  0
LINE
  5
8809
  8
AM_0
 10
72.253461252025545
 20
135.93910760599761
 30
0.0
 11
80.253441252025496
 21
135.93910760599761
 31
0.0
  0
LINE
  5
880A
  8
AM_0
 10
80.253441252025496
 20
132.37912760599761
 30
0.0
 11
81.53342125202515
 21
140.38909760599759
 31
0.0
  0
LINE
  5
880B
  8
AM_0
 10
80.253441252025496
 20
133.72912760599971
 30
0.0
 11
81.543501252025379
 21
142.2191276059977
 31
0.0
  0
ARC
  5
880C
  8
AM_0
 10
117.2519312520255
 20
141.91756760599759
 30
0.0
 40
2.0015440500000001
 50
0.0442139990073985
 51
89.955783999999085
  0
LINE
  5
880D
  8
AM_0
 10
119.2534412520255
 20
142.8291176059976
 30
0.0
 11
119.2534412520255
 21
139.22911760599749
 31
0.0
  0
LINE
  5
880E
  8
AM_0
 10
83.503461252025474
 20
142.06909760599771
 30
0.0
 11
117.2534612520253
 21
142.06909760599771
 31
0.0
  0
LINE
  5
880F
  8
AM_0
 10
105.7534412520254
 20
121.1690876059976
 30
0.0
 11
85.576011252025182
 21
119.6691176059976
 31
0.0
  0
ARC
  5
8810
  8
AM_0
 10
287.03445075984052
 20
84.688192425800707
 30
0.0
 40
204.4231110527293
 50
172.39935376233609
 51
173.04804061342651
  0
ARC
  5
8811
  8
AM_0
 10
287.69073289764708
 20
84.589519431816811
 30
0.0
 40
205.086602105558
 50
173.86479656848519
 51
175.2153393800678
  0
ARC
  5
8812
  8
AM_0
 10
287.08496923753819
 20
84.647048018117616
 30
0.0
 40
204.47815098782999
 50
175.2172449765846
 51
175.8945207385139
  0
ARC
  5
8813
  8
AM_0
 10
287.36528764047898
 20
84.638902813430803
 30
0.0
 40
204.75756069728581
 50
171.10266677355949
 51
172.3979273485281
  0
ARC
  5
8814
  8
AM_0
 10
117.2530412520252
 20
140.06869760599761
 30
0.0
 40
2.0004079799999981
 50
0.0116489999941815
 51
89.98834999999788
  0
LINE
  5
8815
  8
AM_0
 10
83.523471252025246
 20
143.9191076059976
 30
0.0
 11
117.2534612520253
 21
143.9191076059976
 31
0.0
  0
LINE
  5
8816
  8
AM_0
 10
83.543481252025231
 20
144.8291276059976
 30
0.0
 11
117.2534612520253
 21
144.8291276059976
 31
0.0
  0
ARC
  5
8817
  8
AM_0
 10
117.25217125202499
 20
142.8278276059977
 30
0.0
 40
2.0012880000000002
 50
0.0368719990021973
 51
89.963125999997985
  0
LINE
  5
8818
  8
AM_0
 10
185.0734712520254
 20
116.30911460599749
 30
0.0
 11
175.253441252025
 21
116.30911460599749
 31
0.0
  0
LINE
  5
8819
  8
AM_0
 10
186.45347125202531
 20
122.2791176059977
 30
0.0
 11
182.3035112520254
 21
137.7391076059975
 31
0.0
  0
LINE
  5
881A
  8
AM_0
 10
175.253441252025
 20
113.0268196903248
 30
0.0
 11
178.02347125202519
 21
112.9491296059975
 31
0.0
  0
ARC
  5
881B
  8
AM_0
 10
181.5934712520253
 20
117.9391196059975
 30
0.0
 40
1.000004069999999
 50
270.0
 51
90.00000299999769
  0
ARC
  5
881C
  8
AM_0
 10
180.37064125202519
 20
137.23051760599759
 30
0.0
 40
1.99860411
 50
14.742716000005739
 51
89.919516000001124
  0
ARC
  5
881D
  8
AM_0
 10
185.0734712520254
 20
117.98910560599749
 30
0.0
 40
1.680008099999998
 50
270.0
 51
90.00000299999769
  0
ARC
  5
881E
  8
AM_0
 10
185.0734712520254
 20
117.98910560599749
 30
0.0
 40
1.675004159999999
 50
270.0
 51
90.00000299999769
  0
ARC
  5
881F
  8
AM_0
 10
187.90664125202531
 20
122.6668676059975
 30
0.0
 40
1.502776079999999
 50
194.7564299999988
 51
269.8775900000029
  0
LINE
  5
8820
  8
AM_0
 10
182.79344125202519
 20
135.93910760599761
 30
0.0
 11
188.25347125202521
 21
135.93910760599761
 31
0.0
  0
LINE
  5
8821
  8
AM_0
 10
170.75344125202571
 20
105.44412260599751
 30
0.0
 11
170.753441252025
 21
60.444122605997563
 31
0.0
  0
LINE
  5
8822
  8
AM_0
 10
168.65344125202509
 20
105.99437513769151
 30
0.0
 11
168.65344125202509
 21
59.893870074305831
 31
0.0
  0
LINE
  5
8823
  8
AM_0
 10
85.753441252025524
 20
64.944122605997563
 30
0.0
 11
85.753441252025524
 21
54.944112605997589
 31
0.0
  0
LINE
  5
8824
  8
AM_0
 10
86.253441252025553
 20
50.444116605997579
 30
0.0
 11
86.253441252025553
 21
115.4441126059975
 31
0.0
  0
LINE
  5
8825
  8
AM_0
 10
157.80368578371991
 20
49.044114605997713
 30
0.0
 11
90.673421252025264
 21
49.044114605997713
 31
0.0
  0
LINE
  5
8826
  8
AM_0
 10
90.673421252025264
 20
49.044114605997713
 30
0.0
 11
90.673421252025264
 21
46.94412360599766
 31
0.0
  0
ARC
  5
8827
  8
AM_0
 10
89.746061252025456
 20
50.436769605997611
 30
0.0
 40
3.492651899999998
 50
179.8793300000022
 51
270.12067999999482
  0
ARC
  5
8828
  8
AM_0
 10
86.246121252025262
 20
54.93677260599771
 30
0.0
 40
0.4927000100000001
 50
179.14455999999711
 51
270.8554400000026
  0
ARC
  5
8829
  8
AM_0
 10
172.75344125202511
 20
60.444122605997563
 30
0.0
 40
2.0
 50
180.0
 51
270.0
  0
LINE
  5
882A
  8
AM_0
 10
168.24339074568621
 20
58.903920580641852
 30
0.0
 11
158.7936352773809
 21
49.454165112336803
 31
0.0
  0
LINE
  5
882B
  8
AM_0
 10
158.7936432773808
 20
49.454173112335873
 30
0.0
 11
168.2433907456869
 21
58.903920580641852
 31
0.0
  0
ARC
  5
882C
  8
AM_0
 10
157.80368578371991
 20
50.444114605997576
 30
0.0
 40
1.399999999999999
 50
270.0
 51
315.00000000000921
1001
GENIUS_GENODEF_13
1002
{
1000
HIER
1070
     0
1002
}
1002
{
1000
MANEDIT
1070
     0
1002
}
1002
{
1000
NOSEL
1070
     0
1002
}
1002
{
1000
BEHIND
1070
     0
1002
}
1002
{
1000
OTHER
1070
     0
1002
}
1002
{
1000
REACTOR
1002
}
1001
GENIUS_GENOBJ-N-FIL_13
1002
{
1000
OWNER
1000
GEN
1002
}
  0
ARC
  5
882D
  8
AM_0
 10
167.2534412520252
 20
59.893870074305831
 30
0.0
 40
1.4000000000006301
 50
314.99999999997232
 51
0.0
  0
ARC
  5
882E
  8
AM_0
 10
173.253441252025
 20
48.944122605997563
 30
0.0
 40
2.0
 50
270.0
 51
0.0
  0
ARC
  5
882F
  8
AM_0
 10
173.253441252025
 20
56.444122605997563
 30
0.0
 40
2.0
 50
0.0
 51
90.0
  0
LINE
  5
8830
  8
AM_0
 10
173.253441252025
 20
58.44412260599757
 30
0.0
 11
172.75344125202511
 21
58.44412260599757
 31
0.0
  0
LINE
  5
8831
  8
AM_0
 10
175.253441252025
 20
48.944122605997563
 30
0.0
 11
175.253441252025
 21
56.444122605997563
 31
0.0
  0
LINE
  5
8832
  8
AM_0
 10
90.673421252025264
 20
116.8441026059977
 30
0.0
 11
157.81117707190069
 21
116.8441026059977
 31
0.0
  0
ARC
  5
8833
  8
AM_0
 10
86.253991252025372
 20
64.943572605997588
 30
0.0
 40
0.5005480100000002
 50
90.062622000000005
 51
179.9373699999839
  0
ARC
  5
8834
  8
AM_0
 10
86.253991252025372
 20
110.9435726059975
 30
0.0
 40
0.5005480100000002
 50
90.062622000000005
 51
179.9373699999839
  0
ARC
  5
8835
  8
AM_0
 10
86.245931252025542
 20
100.9366126059976
 30
0.0
 40
0.49254802
 50
179.1265600000018
 51
270.87345000000141
  0
LINE
  5
8836
  8
AM_0
 10
85.753441252025524
 20
110.9441126059975
 30
0.0
 11
85.753441252025524
 21
100.94412260599751
 31
0.0
  0
LINE
  5
8837
  8
AM_0
 10
90.673421252025264
 20
116.8441026059977
 30
0.0
 11
90.673421252025264
 21
118.9391026059977
 31
0.0
  0
ARC
  5
8838
  8
AM_0
 10
89.753931252025382
 20
115.4436226059976
 30
0.0
 40
3.5005001999999981
 50
90.008164999996055
 51
179.99183999999781
  0
LINE
  5
8839
  8
AM_0
 10
172.7534412520254
 20
88.444122605997563
 30
0.0
 11
170.7534412520254
 21
88.444122605997563
 31
0.0
  0
LINE
  5
883A
  8
AM_0
 10
170.7534412520252
 20
77.444122605997563
 30
0.0
 11
172.75344125202571
 21
77.444122605997563
 31
0.0
  0
LINE
  5
883B
  8
AM_0
 10
172.75344125202579
 20
77.444122605997563
 30
0.0
 11
172.7534412520254
 21
88.444122605997563
 31
0.0
  0
ARC
  5
883C
  8
AM_0
 10
172.75344125202511
 20
105.44412260599751
 30
0.0
 40
2.0
 50
90.0
 51
180.0
  0
CIRCLE
  5
883D
  8
AM_0
 10
169.75344125202491
 20
113.94412260599751
 30
0.0
 40
3.4999999999999631
  0
LINE
  5
883E
  8
AM_0
 10
158.79364327738139
 20
116.43407209965881
 30
0.0
 11
168.24339074568621
 21
106.9843246313537
 31
0.0
  0
LINE
  5
883F
  8
AM_0
 10
166.65344125202509
 20
108.5742741250137
 30
0.0
 11
168.24339074568641
 21
106.9843246313537
 31
0.0
  0
ARC
  5
8840
  8
AM_0
 10
167.2534412520252
 20
105.99437513769151
 30
0.0
 40
1.400000000000118
 50
0.0
 51
45.000000000027619
  0
ARC
  5
8841
  8
AM_0
 10
157.80369378371921
 20
115.44412260599751
 30
0.0
 40
1.40000000000077
 50
44.999999999972353
 51
89.999999999954383
  0
LINE
  5
8842
  8
AM_0
 10
175.253441252025
 20
109.44412260599751
 30
0.0
 11
175.253441252025
 21
116.94412260599751
 31
0.0
  0
LINE
  5
8843
  8
AM_0
 10
175.253441252025
 20
109.44412260599751
 30
0.0
 11
175.253441252025
 21
116.94412260599751
 31
0.0
  0
ARC
  5
8844
  8
AM_0
 10
173.253441252025
 20
109.44412260599751
 30
0.0
 40
2.0
 50
270.0
 51
0.0
  0
LINE
  5
8845
  8
AM_0
 10
172.75344125202511
 20
107.44412260599751
 30
0.0
 11
173.253441252025
 21
107.44412260599751
 31
0.0
  0
ARC
  5
8846
  8
AM_0
 10
173.253441252025
 20
116.94412260599751
 30
0.0
 40
2.0
 50
0.0
 51
90.0
  0
LINE
  5
8847
  8
AM_0
 10
167.1148695708182
 20
113.9441226059989
 30
0.0
 11
172.39201293323171
 21
113.9441226059989
 31
0.0
  0
LINE
  5
8848
  8
AM_0
 10
169.75344125202491
 20
116.58269428720359
 30
0.0
 11
169.75344125202491
 21
111.30555092479059
 31
0.0
  0
CIRCLE
  5
8849
  8
AM_0
 10
169.75344125202491
 20
51.944122605997563
 30
0.0
 40
3.4999999999999631
  0
LINE
  5
884A
  8
AM_0
 10
167.1148695708182
 20
51.944122605998928
 30
0.0
 11
172.39201293323171
 21
51.944122605998928
 31
0.0
  0
LINE
  5
884B
  8
AM_0
 10
169.75344125202491
 20
54.582694287206778
 30
0.0
 11
169.75344125202491
 21
49.305550924790623
 31
0.0
  0
LINE
  5
884C
  8
AM_0
 10
181.5934712520253
 20
116.9491436059977
 30
0.0
 11
175.253441252025
 21
116.9491436059977
 31
0.0
  0
LINE
  5
884E
  8
AM_0
 10
22.2534512520254
 20
51.274106605997531
 30
0.0
 11
22.2534512520254
 21
117.4740926059976
 31
0.0
  0
LINE
  5
884F
  8
AM_0
 10
24.753441252025478
 20
58.96411160599768
 30
0.0
 11
24.753441252025478
 21
139.94413760599761
 31
0.0
  0
LINE
  5
8850
  8
AM_0
 10
72.253461252025545
 20
139.94413760599761
 30
0.0
 11
72.253461252025545
 21
25.944119605998821
 31
0.0
  0
ARC
  5
8851
  8
AM_0
 10
15.963831252025379
 20
33.643064605997552
 30
0.0
 40
0.30119199
 50
5.9148297999953741
 51
88.175987000000418
  0
ARC
  5
8852
  8
AM_0
 10
15.96530125202554
 20
33.64176860599764
 30
0.0
 40
0.8023920299999998
 50
5.8908350000065264
 51
89.417558000000042
  0
LINE
  5
8853
  8
AM_0
 10
15.75344125202553
 20
34.444106605997611
 30
0.0
 11
15.75344125202553
 21
33.944120605997568
 31
0.0
  0
LINE
  5
8854
  8
AM_0
 10
15.75344125202553
 20
34.444106605997611
 30
0.0
 11
15.973491252025379
 21
34.444106605997611
 31
0.0
  0
LINE
  5
8855
  8
AM_0
 10
31.333461252025408
 20
79.224119605997657
 30
0.0
 11
16.873461252025258
 21
34.714109605997692
 31
0.0
  0
LINE
  5
8856
  8
AM_0
 10
36.093411252025469
 20
77.6841116059977
 30
0.0
 11
21.633471252025569
 21
33.17411660599759
 31
0.0
  0
LINE
  5
8857
  8
AM_0
 10
24.753441252025478
 20
39.054107605997608
 30
0.0
 11
72.253461252025545
 21
39.054107605997608
 31
0.0
  0
LINE
  5
8858
  8
AM_0
 10
24.253461252025541
 20
25.944119605998821
 30
0.0
 11
72.253461252025545
 21
25.944119605998821
 31
0.0
  0
ARC
  5
8859
  8
AM_0
 10
19.253451252025378
 20
33.944120605997568
 30
0.0
 40
2.5014601500000002
 50
162.0720800000052
 51
342.07206999999772
  0
LINE
  5
885A
  8
AM_0
 10
22.2534512520254
 20
35.09411360599757
 30
0.0
 11
22.2534512520254
 21
27.944120605997568
 31
0.0
  0
ARC
  5
885B
  8
AM_0
 10
19.252401252025368
 20
33.942578605997589
 30
0.0
 40
3.001016099999998
 50
185.13260000000409
 51
0.0291460010064174
  0
ARC
  5
885C
  8
AM_0
 10
24.2511812520255
 20
27.941801605997629
 30
0.0
 40
1.9976960999999991
 50
179.9338299999965
 51
270.06616999999687
  0
ARC
  5
885D
  8
AM_0
 10
22.30217125202557
 20
45.44402960599767
 30
0.0
 40
4.0507442999999981
 50
99.071790999998854
 51
224.9123400000025
  0
LINE
  5
885E
  8
AM_0
 10
24.753441252025478
 20
42.784103605997629
 30
0.0
 11
24.753441252025478
 21
25.944119605998821
 31
0.0
  0
ARC
  5
885F
  8
AM_0
 10
55.252971252025397
 20
82.943909605997547
 30
0.0
 40
8.000195699999999
 50
89.996300999997729
 51
161.78902999999599
  0
ARC
  5
8860
  8
AM_0
 10
55.251021252025453
 20
82.941680605997576
 30
0.0
 40
7.9975721999999978
 50
198.1973499999981
 51
270.0173099999991
  0
LINE
  5
8861
  8
AM_0
 10
39.903411252025471
 20
85.444091605997755
 30
0.0
 11
49.753461252025481
 21
85.444091605997755
 31
0.0
  0
LINE
  5
8862
  8
AM_0
 10
39.903411252025471
 20
80.44412360599766
 30
0.0
 11
49.753461252025481
 21
80.44412360599766
 31
0.0
  0
ARC
  5
8863
  8
AM_0
 10
39.901221252025373
 20
76.447022605997731
 30
0.0
 40
8.9970875999999986
 50
89.985774999998554
 51
162.0211999999965
  0
ARC
  5
8864
  8
AM_0
 10
39.896691252025562
 20
76.443725605997543
 30
0.0
 40
4.0003919999999971
 50
89.903054999997906
 51
161.93678999999389
  0
LINE
  5
8865
  8
ﾁｭｳｼﾝｾﾝ
 10
55.253451252025442
 20
70.734124605997508
 30
0.0
 11
55.253451252025442
 21
95.154120605997605
 31
0.0
  0
LINE
  5
8866
  8
AM_0
 10
55.253451252025442
 20
74.944091605997741
 30
0.0
 11
72.253461252025545
 21
74.944091605997741
 31
0.0
  0
LINE
  5
8867
  8
AM_0
 10
55.253451252025442
 20
90.944123605997703
 30
0.0
 11
72.253461252025545
 21
90.944123605997703
 31
0.0
  0
ARC
  5
8868
  8
AM_0
 10
55.253451252025442
 20
82.942109605997729
 30
0.0
 40
4.998440399999998
 50
23.610999000008359
 51
156.3889999999995
  0
ARC
  5
8869
  8
AM_0
 10
55.253451252025442
 20
82.942109605997729
 30
0.0
 40
4.9968401999999967
 50
203.56897999999919
 51
336.43102000000079
  0
LINE
  5
886A
  8
AM_0
 10
49.753461252025481
 20
84.944123605997646
 30
0.0
 11
60.753441252025539
 21
84.944123605997646
 31
0.0
  0
LINE
  5
886B
  8
AM_0
 10
49.753461252025481
 20
80.944091605997741
 30
0.0
 11
60.753441252025539
 21
80.944091605997741
 31
0.0
  0
LINE
  5
886C
  8
AM_0
 10
49.753461252025481
 20
80.44412360599766
 30
0.0
 11
49.753461252025481
 21
85.444091605997755
 31
0.0
  0
LINE
  5
886D
  8
AM_0
 10
63.253461252025531
 20
80.44412360599766
 30
0.0
 11
63.253461252025531
 21
85.444091605997755
 31
0.0
  0
LINE
  5
886E
  8
AM_0
 10
60.753441252025539
 20
80.44412360599766
 30
0.0
 11
60.753441252025539
 21
85.444091605997755
 31
0.0
  0
LINE
  5
886F
  8
AM_0
 10
60.753441252025539
 20
85.444091605997755
 30
0.0
 11
63.253461252025531
 21
85.444091605997755
 31
0.0
  0
LINE
  5
8870
  8
AM_0
 10
60.753441252025539
 20
80.44412360599766
 30
0.0
 11
63.253461252025531
 21
80.44412360599766
 31
0.0
  0
LINE
  5
8871
  8
AM_0
 10
24.753441252025478
 20
126.8341076059998
 30
0.0
 11
72.253461252025545
 21
126.8341076059998
 31
0.0
  0
LINE
  5
8872
  8
AM_0
 10
24.753441252025478
 20
116.5841066059977
 30
0.0
 11
67.25345125202557
 21
116.5841066059977
 31
0.0
  0
LINE
  5
8873
  8
AM_0
 10
24.253461252025541
 20
139.94413760599761
 30
0.0
 11
72.253461252025545
 21
139.94413760599761
 31
0.0
  0
LINE
  5
8874
  8
AM_0
 10
23.453451252025548
 20
117.2341316059976
 30
0.0
 11
23.453451252025548
 21
126.4341176059976
 31
0.0
  0
LINE
  5
8875
  8
AM_0
 10
20.153481252025411
 20
120.3340976059976
 30
0.0
 11
20.153481252025411
 21
123.3340976059976
 31
0.0
  0
LINE
  5
8876
  8
AM_0
 10
23.453451252025548
 20
117.2341316059976
 30
0.0
 11
24.753441252025478
 21
117.2341316059976
 31
0.0
  0
ARC
  5
8877
  8
AM_0
 10
23.149131252025761
 20
120.3342776059976
 30
0.0
 40
2.9956880400000001
 50
180.00364000000391
 51
275.83037000000252
  0
LINE
  5
8878
  8
AM_0
 10
22.2534512520254
 20
126.20410760599771
 30
0.0
 11
22.2534512520254
 21
137.94409760599771
 31
0.0
  0
LINE
  5
8879
  8
AM_0
 10
23.453451252025548
 20
126.4341176059976
 30
0.0
 11
24.753441252025478
 21
126.4341176059976
 31
0.0
  0
ARC
  5
887A
  8
AM_0
 10
23.155131252025679
 20
123.33730760599769
 30
0.0
 40
3.0016479
 50
84.295613000003087
 51
180.06134999999779
  0
ARC
  5
887B
  8
AM_0
 10
24.252951252025468
 20
137.9446076059975
 30
0.0
 40
1.9994960399999999
 50
89.985542999997904
 51
180.01446000000641
  0
LINE
  5
887C
  8
AM_0
 10
67.25345125202557
 20
90.944123605997703
 30
0.0
 11
67.25345125202557
 21
139.94413760599761
 31
0.0
  0
LINE
  5
887D
  8
AM_0
 10
67.25345125202557
 20
39.054107605997608
 30
0.0
 11
67.25345125202557
 21
25.944119605998821
 31
0.0
  0
LINE
  5
887E
  8
ﾁｭｳｼﾝｾﾝ
 10
618.04313870956605
 20
82.944122605997563
 30
0.0
 11
740.28183620956622
 21
82.944122605997563
 31
0.0
  0
LINE
  5
8AE8
  8
AM_0
 10
477.25343125202539
 20
431.95435432047879
 30
0.0
 11
419.25340125202541
 21
431.95435432047879
 31
0.0
  0
LINE
  5
8AE9
  8
AM_0
 10
477.25343125202539
 20
463.95435432047873
 30
0.0
 11
419.25340125202541
 21
463.95435432047873
 31
0.0
  0
LINE
  5
8AEA
  8
ﾁｭｳｼﾝｾﾝ
 10
13.643631252025671
 20
447.95432432047852
 30
0.0
 11
485.16624125202532
 21
447.95432432047852
 31
0.0
  0
POLYLINE
  5
8C74
  8
AM_0
 66
     1
 10
0.0
 20
0.0
 30
0.0
  0
VERTEX
  5
8C75
  8
AM_0
 10
392.9195112520253
 20
550.62042432047883
 30
0.0
 42
0.079826744
  0
VERTEX
  5
8C76
  8
AM_0
 10
367.0776812520254
 20
483.7139843204788
 30
0.0
 42
0.10414854
  0
VERTEX
  5
8C77
  8
AM_0
 10
367.07775125202522
 20
412.19428432047852
 30
0.0
 42
0.079826277
  0
VERTEX
  5
8C78
  8
AM_0
 10
392.9195112520253
 20
345.28818432047882
 30
0.0
  0
SEQEND
  5
8C79
  8
AM_0
  0
LINE
  5
8C7A
  8
AM_0
 10
400.25340125202541
 20
333.87519432047861
 30
0.0
 11
400.25340125202541
 21
562.03345432047854
 31
0.0
  0
LINE
  5
8C7B
  8
AM_0
 10
407.25340125202553
 20
357.35459432047861
 30
0.0
 11
407.25340125202553
 21
538.55408432047852
 31
0.0
  0
LINE
  5
8C7C
  8
AM_0
 10
415.25340125202541
 20
330.45432432047869
 30
0.0
 11
415.25340125202541
 21
565.45435432047896
 31
0.0
  0
LINE
  5
8C7D
  8
AM_0
 10
419.25340125202541
 20
342.95429432047882
 30
0.0
 11
419.25340125202541
 21
552.95435432047896
 31
0.0
  0
LINE
  5
8C80
  8
AM_0
 10
226.2533712520256
 20
437.95432432047858
 30
0.0
 11
226.2533712520256
 21
457.95429432047882
 31
0.0
  0
LINE
  5
8C81
  8
AM_0
 10
196.2533712520254
 20
391.9543243204788
 30
0.0
 11
196.2533712520254
 21
503.95429432047882
 31
0.0
  0
LINE
  5
8C82
  8
AM_0
 10
255.75337125202549
 20
387.45432432047858
 30
0.0
 11
255.75337125202549
 21
508.45429432047871
 31
0.0
  0
LINE
  5
8C83
  8
AM_0
 10
264.75337125202537
 20
384.45432432047858
 30
0.0
 11
264.75337125202537
 21
511.45429432047882
 31
0.0
  0
LINE
  5
8C84
  8
AM_0
 10
264.75337125202537
 20
511.45429432047882
 30
0.0
 11
264.75337125202537
 21
384.45426432047861
 31
0.0
  0
LINE
  5
8C85
  8
AM_0
 10
292.25337125202572
 20
350.73493432047883
 30
0.0
 11
292.25337125202572
 21
545.17371432047878
 31
0.0
  0
LINE
  5
8C86
  8
AM_0
 10
277.25337125202537
 20
376.02539432047882
 30
0.0
 11
277.25337125202537
 21
519.88324432047875
 31
0.0
  0
LINE
  5
8C87
  8
AM_0
 10
302.25337125202537
 20
348.45432432047869
 30
0.0
 11
302.25337125202537
 21
547.45429432047854
 31
0.0
  0
LINE
  5
8C88
  8
AM_0
 10
294.18355125202538
 20
348.73612432047861
 30
0.0
 11
302.25337125202537
 21
348.45432432047869
 31
0.0
  0
ARC
  5
8C8B
  8
AM_0
 10
294.25337125202537
 20
350.73493432047883
 30
0.0
 40
2.0
 50
179.99998999999889
 51
268.00000999999861
  0
LINE
  5
8C8C
  8
AM_0
 10
229.2533712520256
 20
434.95432432047852
 30
0.0
 11
252.7533712520256
 21
434.95432432047852
 31
0.0
  0
LINE
  5
8C8D
  8
AM_0
 10
196.2533712520254
 20
391.9543243204788
 30
0.0
 11
252.87691125202559
 21
389.97699432047881
 31
0.0
  0
LINE
  5
8C8E
  8
AM_0
 10
196.2533712520254
 20
401.95401432047879
 30
0.0
 11
246.54243125202541
 21
401.95401432047879
 31
0.0
  0
LINE
  5
8C8F
  8
AM_0
 10
196.2533712520254
 20
415.99265432047878
 30
0.0
 11
242.07234125202541
 21
415.99265432047878
 31
0.0
  0
ARC
  5
8CC8
  8
AM_0
 10
229.2533712520256
 20
437.95432432047858
 30
0.0
 40
3.0
 50
180.00001000000091
 51
270.0
  0
POLYLINE
  5
8CC9
  8
AM_0
 66
     1
 10
0.0
 20
0.0
 30
0.0
  0
VERTEX
  5
8CCA
  8
AM_0
 10
253.68470125202541
 20
394.57369432047881
 30
0.0
  0
VERTEX
  5
8CCB
  8
AM_0
 10
248.1412712520256
 20
402.41590432047877
 30
0.0
 42
-1.0
  0
SEQEND
  5
8CCC
  8
AM_0
  0
LINE
  5
8CCD
  8
AM_0
 10
264.75337125202537
 20
384.45432432047858
 30
0.0
 11
258.7533712520256
 21
384.45432432047858
 31
0.0
  0
LINE
  5
8CCE
  8
AM_0
 10
264.75337125202537
 20
395.9143143204787
 30
0.0
 11
255.75337125202549
 21
395.9143143204787
 31
0.0
  0
ARC
  5
8CCF
  8
AM_0
 10
258.7533712520256
 20
387.45432432047858
 30
0.0
 40
3.0
 50
180.00001000000091
 51
270.0
  0
ARC
  5
8CD0
  8
AM_0
 10
252.7721712520256
 20
386.97882432047862
 30
0.0
 40
3.0
 50
4.545488300001014
 51
87.999999999999659
  0
ARC
  5
8CD1
  8
AM_0
 10
245.7533712520254
 20
388.48322432047883
 30
0.0
 40
10.0
 50
0.0
 51
37.523536000000121
  0
ARC
  5
8CD2
  8
AM_0
 10
282.25337125202537
 20
376.02539432047882
 30
0.0
 40
5.0
 50
179.99998999999889
 51
225.0
  0
LINE
  5
8CD3
  8
AM_0
 10
278.71785125202541
 20
372.48987432047858
 30
0.0
 11
291.37471125202529
 21
359.8330143204787
 31
0.0
  0
ARC
  5
8CD4
  8
AM_0
 10
289.25337125202537
 20
357.71167432047861
 30
0.0
 40
3.0
 50
0.0
 51
44.999998000001611
  0
LINE
  5
8CD5
  8
AM_0
 10
264.75337125202537
 20
384.45426432047861
 30
0.0
 11
272.42787125202551
 21
384.18631432047857
 31
0.0
  0
ARC
  5
8CD6
  8
AM_0
 10
272.25337125202537
 20
379.18936432047877
 30
0.0
 40
5.0
 50
0.0
 51
87.999999999999659
  0
LINE
  5
8CD7
  8
AM_0
 10
264.75337125202537
 20
395.9143143204787
 30
0.0
 11
277.25337125202537
 21
395.9143143204787
 31
0.0
  0
LINE
  5
8CD8
  8
AM_0
 10
264.75337125202537
 20
410.80640432047858
 30
0.0
 11
255.75337125202549
 21
410.80640432047858
 31
0.0
  0
POLYLINE
  5
8CD9
  8
AM_0
 66
     1
 10
0.0
 20
0.0
 30
0.0
  0
VERTEX
  5
8CDA
  8
AM_0
 10
240.6302812520255
 20
415.99185432047881
 30
0.0
  0
VERTEX
  5
8CDB
  8
AM_0
 10
234.3427312520256
 20
434.95379432047861
 30
0.0
 42
-1.0
  0
SEQEND
  5
8CDC
  8
AM_0
  0
POLYLINE
  5
8CDD
  8
AM_0
 66
     1
 10
0.0
 20
0.0
 30
0.0
  0
VERTEX
  5
8CDE
  8
AM_0
 10
249.10148125202539
 20
406.51973432047879
 30
0.0
 42
-0.0050917014
  0
VERTEX
  5
8CDF
  8
AM_0
 10
247.95356125202531
 20
408.43938432047878
 30
0.0
 42
-0.0052112711
  0
VERTEX
  5
8CE0
  8
AM_0
 10
246.8454212520254
 20
410.38227432047859
 30
0.0
 42
-0.0053447966
  0
VERTEX
  5
8CE1
  8
AM_0
 10
245.7785412520256
 20
412.34812432047858
 30
0.0
 42
-0.0054924736
  0
VERTEX
  5
8CE2
  8
AM_0
 10
244.75450125202519
 20
414.33664432047863
 30
0.0
  0
SEQEND
  5
8CE3
  8
AM_0
  0
ARC
  5
8CE4
  8
AM_0
 10
246.54243125202541
 20
404.95401432047879
 30
0.0
 40
3.0
 50
270.0
 51
31.46020299999924
  0
ARC
  5
8CE5
  8
AM_0
 10
242.07234125202541
 20
412.99265432047878
 30
0.0
 40
3.0
 50
26.614997999998909
 51
90.000003000000945
  0
ARC
  5
8CE6
  8
AM_0
 10
252.7533712520256
 20
431.95432432047852
 30
0.0
 40
3.0
 50
0.0
 51
90.000003000000945
  0
LINE
  5
8CE7
  8
AM_0
 10
264.75337125202537
 20
410.80432432047883
 30
0.0
 11
277.25337125202537
 21
410.80432432047883
 31
0.0
  0
LINE
  5
8CE8
  8
AM_0
 10
302.25343125202539
 20
348.45432432047869
 30
0.0
 11
390.95119125202552
 21
345.35691432047878
 31
0.0
  0
LINE
  5
8CE9
  8
AM_0
 10
403.14873125202541
 20
330.87702432047882
 30
0.0
 11
415.25340125202541
 21
330.45432432047869
 31
0.0
  0
LINE
  5
8CEA
  8
AM_0
 10
394.31218125202543
 20
343.8955143204787
 30
0.0
 11
400.25340125202541
 21
337.95429432047882
 31
0.0
  0
ARC
  5
8CEB
  8
AM_0
 10
403.25340125202553
 20
333.87519432047861
 30
0.0
 40
3.0
 50
179.99998999999889
 51
268.00000999999861
  0
ARC
  5
8CEC
  8
AM_0
 10
390.77666125202552
 20
340.35996432047881
 30
0.0
 40
5.0
 50
45.000000999999187
 51
87.999999999999659
  0
LINE
  5
8CED
  8
AM_0
 10
415.25340125202541
 20
342.95429432047882
 30
0.0
 11
419.25340125202541
 21
342.95429432047882
 31
0.0
  0
ARC
  5
8CEE
  8
AM_0
 10
404.25340125202541
 20
357.35459432047861
 30
0.0
 40
3.0
 50
267.9999999999996
 51
0.0
  0
LINE
  5
8CEF
  8
AM_0
 10
403.96886125202542
 20
354.36267432047879
 30
0.0
 11
404.14870125202549
 21
354.35642432047882
 31
0.0
  0
LINE
  5
8CF0
  8
AM_0
 10
403.25340125202553
 20
392.04358432047877
 30
0.0
 11
407.25340125202553
 21
392.04358432047877
 31
0.0
  0
ARC
  5
8CF1
  8
AM_0
 10
403.25340125202553
 20
389.04358432047877
 30
0.0
 40
3.0
 50
90.000003000000945
 51
180.00001000000091
  0
LINE
  5
8CF2
  8
AM_0
 10
294.18355125202538
 20
547.17255432047875
 30
0.0
 11
302.25337125202537
 21
547.45435432047861
 31
0.0
  0
ARC
  5
8CF3
  8
AM_0
 10
294.25337125202537
 20
545.17371432047878
 30
0.0
 40
2.0
 50
91.999998000000545
 51
180.00001000000091
  0
LINE
  5
8CF4
  8
AM_0
 10
196.2533712520254
 20
479.91596432047891
 30
0.0
 11
242.07234125202541
 21
479.91596432047891
 31
0.0
  0
LINE
  5
8CF5
  8
AM_0
 10
196.2533712520254
 20
493.95465432047871
 30
0.0
 11
246.54243125202541
 21
493.95465432047871
 31
0.0
  0
LINE
  5
8CF6
  8
AM_0
 10
229.2533712520256
 20
460.95429432047882
 30
0.0
 11
252.7533712520256
 21
460.95429432047882
 31
0.0
  0
LINE
  5
8CF7
  8
AM_0
 10
252.87691125202559
 20
505.93164432047888
 30
0.0
 11
196.2533712520254
 21
503.95435432047879
 31
0.0
  0
ARC
  5
8D09
  8
AM_0
 10
229.2533712520256
 20
457.95429432047882
 30
0.0
 40
3.0
 50
90.000003000000945
 51
180.00001000000091
  0
POLYLINE
  5
8D10
  8
AM_0
 66
     1
 10
0.0
 20
0.0
 30
0.0
  0
VERTEX
  5
8D11
  8
AM_0
 10
253.68470125202541
 20
501.33492432047848
 30
0.0
  0
VERTEX
  5
8D12
  8
AM_0
 10
248.1412712520256
 20
493.49270432047888
 30
0.0
 42
-1.0
  0
SEQEND
  5
8D13
  8
AM_0
  0
LINE
  5
8D14
  8
AM_0
 10
264.75337125202537
 20
485.10224432047858
 30
0.0
 11
255.75337125202549
 21
485.10224432047858
 31
0.0
  0
POLYLINE
  5
8D15
  8
AM_0
 66
     1
 10
0.0
 20
0.0
 30
0.0
  0
VERTEX
  5
8D16
  8
AM_0
 10
240.6302812520255
 20
479.91676432047882
 30
0.0
  0
VERTEX
  5
8D17
  8
AM_0
 10
234.3427312520256
 20
460.95484432047851
 30
0.0
 42
-1.0
  0
SEQEND
  5
8D18
  8
AM_0
  0
ARC
  5
8D19
  8
AM_0
 10
252.7533712520256
 20
463.95429432047848
 30
0.0
 40
3.0
 50
270.0
 51
0.0
  0
POLYLINE
  5
8D1A
  8
AM_0
 66
     1
 10
0.0
 20
0.0
 30
0.0
  0
VERTEX
  5
8D1B
  8
AM_0
 10
249.10148125202539
 20
489.38888432047878
 30
0.0
 42
0.0050916976
  0
VERTEX
  5
8D1C
  8
AM_0
 10
247.95356125202531
 20
487.46923432047851
 30
0.0
 42
0.005211269
  0
VERTEX
  5
8D1D
  8
AM_0
 10
246.8454212520254
 20
485.52634432047847
 30
0.0
 42
0.005344796
  0
VERTEX
  5
8D1E
  8
AM_0
 10
245.7785412520256
 20
483.56049432047882
 30
0.0
 42
0.0054924746
  0
VERTEX
  5
8D1F
  8
AM_0
 10
244.75450125202519
 20
481.5719843204788
 30
0.0
  0
SEQEND
  5
8D20
  8
AM_0
  0
ARC
  5
8D21
  8
AM_0
 10
246.54243125202541
 20
490.95465432047848
 30
0.0
 40
3.0
 50
328.53980000000109
 51
90.000003000000945
  0
ARC
  5
8D22
  8
AM_0
 10
242.07234125202541
 20
482.91596432047868
 30
0.0
 40
3.0
 50
270.0
 51
333.38500000000118
  0
LINE
  5
8D23
  8
AM_0
 10
264.75337125202537
 20
485.10431432047881
 30
0.0
 11
277.25337125202537
 21
485.10431432047881
 31
0.0
  0
LINE
  5
8D24
  8
AM_0
 10
264.75337125202537
 20
499.99433432047891
 30
0.0
 11
255.75337125202549
 21
499.99433432047891
 31
0.0
  0
LINE
  5
8D25
  8
AM_0
 10
264.75337125202537
 20
511.45429432047882
 30
0.0
 11
258.7533712520256
 21
511.45429432047882
 31
0.0
  0
ARC
  5
8D26
  8
AM_0
 10
258.7533712520256
 20
508.45429432047871
 30
0.0
 40
3.0
 50
90.000003000000945
 51
180.00001000000091
  0
ARC
  5
8D27
  8
AM_0
 10
245.7533712520254
 20
507.4254243204785
 30
0.0
 40
10.0
 50
322.47646000000032
 51
0.0
  0
ARC
  5
8D28
  8
AM_0
 10
252.7721712520256
 20
508.92981432047873
 30
0.0
 40
3.0
 50
272.0000000000004
 51
355.45443000000142
  0
ARC
  5
8D29
  8
AM_0
 10
282.25337125202537
 20
519.88324432047875
 30
0.0
 40
5.0
 50
135.0
 51
180.00001000000091
  0
LINE
  5
8D2A
  8
AM_0
 10
264.75337125202537
 20
499.99433432047891
 30
0.0
 11
277.25337125202537
 21
499.99433432047891
 31
0.0
  0
LINE
  5
8D2B
  8
AM_0
 10
264.75337125202537
 20
511.45429432047882
 30
0.0
 11
272.42787125202551
 21
511.72229432047862
 31
0.0
  0
ARC
  5
8D2C
  8
AM_0
 10
272.25337125202537
 20
516.71930432047861
 30
0.0
 40
5.0
 50
272.0000000000004
 51
0.0
  0
LINE
  5
8D2D
  8
AM_0
 10
278.71785125202541
 20
523.41876432047854
 30
0.0
 11
291.37471125202529
 21
536.07563432047891
 31
0.0
  0
ARC
  5
8D2E
  8
AM_0
 10
289.25337125202537
 20
538.19696432047886
 30
0.0
 40
3.0
 50
315.0
 51
0.0
  0
LINE
  5
8D2F
  8
AM_0
 10
403.25340125202553
 20
503.86505432047852
 30
0.0
 11
407.25340125202553
 21
503.86505432047852
 31
0.0
  0
ARC
  5
8D30
  8
AM_0
 10
403.25340125202553
 20
506.86505432047852
 30
0.0
 40
3.0
 50
179.99998999999889
 51
270.0
  0
ARC
  5
8D31
  8
AM_0
 10
404.25340125202541
 20
538.55408432047852
 30
0.0
 40
3.0
 50
0.0
 51
91.999998000000545
  0
LINE
  5
8D33
  8
AM_0
 10
403.96886125202542
 20
541.54596432047879
 30
0.0
 11
404.14870125202549
 21
541.55225432047905
 31
0.0
  0
LINE
  5
8D34
  8
AM_0
 10
302.25337125202537
 20
547.45435432047861
 30
0.0
 11
390.9511612520256
 21
550.55176432047892
 31
0.0
  0
LINE
  5
8D35
  8
AM_0
 10
403.14873125202541
 20
565.03162432047884
 30
0.0
 11
415.25340125202541
 21
565.45429432047854
 31
0.0
  0
LINE
  5
8D36
  8
AM_0
 10
394.31221125202552
 20
552.01313432047891
 30
0.0
 11
400.25340125202541
 21
557.95435432047884
 31
0.0
  0
ARC
  5
8D37
  8
AM_0
 10
390.77666125202552
 20
555.54865432047905
 30
0.0
 40
5.0
 50
272.0000000000004
 51
315.0
  0
ARC
  5
8D38
  8
AM_0
 10
403.25340125202553
 20
562.03345432047854
 30
0.0
 40
3.0
 50
91.999998000000545
 51
180.00001000000091
  0
LINE
  5
8D39
  8
AM_0
 10
415.25340125202541
 20
552.95435432047896
 30
0.0
 11
419.25340125202541
 21
552.95435432047896
 31
0.0
  0
ARC
  5
8D3A
  8
AM_0
 10
432.25340125202553
 20
447.95432432047852
 30
0.0
 40
5.0
 50
90.000003000000945
 51
270.0
  0
LINE
  5
8D3B
  8
AM_0
 10
432.25340125202553
 20
452.95429432047882
 30
0.0
 11
432.25340125202553
 21
442.95432432047852
 31
0.0
  0
LINE
  5
8D3C
  8
AM_0
 10
477.25343125202539
 20
431.95435432047879
 30
0.0
 11
477.25343125202539
 21
463.95435432047873
 31
0.0
  0
LINE
  5
8D3D
  8
AM_0
 10
432.25340125202553
 20
442.95432432047852
 30
0.0
 11
477.25343125202539
 21
442.95432432047852
 31
0.0
  0
LINE
  5
8D3E
  8
AM_0
 10
432.25340125202553
 20
452.95429432047882
 30
0.0
 11
477.25343125202539
 21
452.95429432047882
 31
0.0
  0
LINE
  5
8F09
  8
AM_0
 10
107.2533112520257
 20
380.95429432047871
 30
0.0
 11
106.9726470646866
 21
391.67429432047862
 31
0.0
  0
ARC
  5
8F0A
  8
AM_0
 10
25.751941152025658
 20
391.9543243204788
 30
0.0
 40
9.0
 50
179.99997999999781
 51
269.99995000000138
  0
LINE
  5
8F0B
  8
AM_0
 10
167.2533712520254
 20
380.95426432047873
 30
0.0
 11
167.5341103750888
 21
391.67429432047879
 31
0.0
  0
LINE
  5
8F0C
  8
AM_0
 10
166.98122882044541
 20
357.4543243204788
 30
0.0
 11
90.681228820445597
 21
344.4543243204788
 31
0.0
  0
LINE
  5
8F0D
  8
AM_0
 10
166.1555336836056
 20
344.4543243204788
 30
0.0
 11
90.681228820445597
 21
344.4543243204788
 31
0.0
  0
LINE
  5
8F0E
  8
AM_0
 10
156.1555336836044
 20
378.4543243204788
 30
0.0
 11
118.35553368360461
 21
378.4543243204788
 31
0.0
  0
LINE
  5
8F0F
  8
AM_0
 10
170.7533712520256
 20
380.95432432047858
 30
0.0
 11
103.7533712520256
 21
380.95432432047858
 31
0.0
  0
LINE
  5
8F10
  8
AM_0
 10
90.355533683604619
 20
348.4543243204788
 30
0.0
 11
166.6555336836044
 21
361.4543243204788
 31
0.0
  0
LINE
  5
8F11
  8
AM_0
 10
90.355533683604619
 20
348.4543243204788
 30
0.0
 11
166.6555336836044
 21
361.4543243204788
 31
0.0
  0
LINE
  5
8F12
  8
AM_0
 10
139.05888772908051
 20
357.76627860338778
 30
0.0
 11
141.26224177455859
 21
358.14168623892181
 31
0.0
  0
LINE
  5
8F13
  8
AM_0
 10
90.274109899393537
 20
349.4543243204788
 30
0.0
 11
122.2521796381256
 21
354.90275035722283
 31
0.0
  0
LINE
  5
8F14
  8
AM_0
 10
93.555533683604565
 20
378.4543243204788
 30
0.0
 11
111.1555336836045
 21
378.4543243204788
 31
0.0
  0
LINE
  5
8F15
  8
ﾁｭｳｼﾝｾﾝ
 10
90.855533683614027
 20
361.4543243204788
 30
0.0
 11
114.8555336835952
 21
361.4543243204788
 31
0.0
  0
ARC
  5
8F16
  8
AM_0
 10
102.85553368360461
 20
361.4543243204788
 30
0.0
 40
9.3000000000000007
 50
180.0
 51
0.0
  0
CIRCLE
  5
8F17
  8
AM_0
 10
102.85553368360461
 20
361.4543243204788
 30
0.0
 40
6.299999999999998
  0
LINE
  5
8F18
  8
ﾁｭｳｼﾝｾﾝ
 10
102.85553368360461
 20
373.45433932047882
 30
0.0
 11
102.85553368360461
 21
349.45433932047882
 31
0.0
  0
LINE
  5
8F19
  8
AM_0
 10
87.755533683604597
 20
377.4543243204788
 30
0.0
 11
87.755533683604597
 21
354.45432432047892
 31
0.0
  0
LINE
  5
8F1A
  8
AM_0
 10
86.255533683604597
 20
348.15432432047982
 30
0.0
 11
86.255533683604597
 21
345.95432432047892
 31
0.0
  0
LINE
  5
8F1B
  8
AM_0
 10
85.75553368360562
 20
353.15432432047959
 30
0.0
 11
85.75553368360562
 21
345.95432432047892
 31
0.0
  0
ARC
  5
8F1C
  8
AM_0
 10
87.255533683605634
 20
345.95432432047988
 30
0.0
 40
1.5
 50
180.00000000000659
 51
269.99999999999341
  0
LINE
  5
8F1D
  8
AM_0
 10
87.755533683604597
 20
344.4543243204788
 30
0.0
 11
90.681228820445597
 21
344.4543243204788
 31
0.0
  0
ARC
  5
8F1E
  8
AM_0
 10
87.755533683604597
 20
345.95432432047892
 30
0.0
 40
1.5
 50
180.0
 51
270.0
  0
LINE
  5
8F1F
  8
AM_0
 10
87.255533683605634
 20
344.4543243204788
 30
0.0
 11
87.554019579762596
 21
344.45432432047988
 31
0.0
  0
LINE
  5
8F20
  8
AM_0
 10
87.455533683604514
 20
351.64996700119491
 30
0.0
 11
87.455533683604514
 21
354.25432432047972
 31
0.0
  0
LINE
  5
8F21
  8
AM_0
 10
87.755533683604597
 20
354.45432432047892
 30
0.0
 11
87.755533683603545
 21
349.4543243204788
 31
0.0
  0
LINE
  5
8F22
  8
AM_0
 10
90.274109899393537
 20
349.4543243204788
 30
0.0
 11
86.555533683604565
 21
349.4543243204788
 31
0.0
  0
LINE
  5
8F23
  8
AM_0
 10
86.555533683604565
 20
348.4543243204788
 30
0.0
 11
90.355533683604619
 21
348.4543243204788
 31
0.0
  0
LINE
  5
8F24
  8
AM_0
 10
86.255533683604597
 20
348.4543243204788
 30
0.0
 11
90.355533683604619
 21
348.4543243204788
 31
0.0
  0
ARC
  5
8F25
  8
AM_0
 10
86.05553368360556
 20
353.15432432047959
 30
0.0
 40
0.3
 50
90.0
 51
180.0
  0
LINE
  5
8F26
  8
AM_0
 10
86.955533683604529
 20
353.4543243204788
 30
0.0
 11
86.555533683604565
 21
353.4543243204788
 31
0.0
  0
LINE
  5
8F27
  8
AM_0
 10
86.555533683604565
 20
353.4543243204788
 30
0.0
 11
86.05553368360556
 21
353.4543243204788
 31
0.0
  0
LINE
  5
8F28
  8
AM_0
 10
87.255533683604597
 20
351.64996700119491
 30
0.0
 11
87.455533683604514
 21
351.64996700119491
 31
0.0
  0
LINE
  5
8F29
  8
AM_0
 10
87.455533683604514
 20
350.44996700119469
 30
0.0
 11
87.255533683604597
 21
350.44996700119469
 31
0.0
  0
LINE
  5
8F2A
  8
AM_0
 10
87.455533683604514
 20
350.44996700119469
 30
0.0
 11
87.455533683604514
 21
351.64996700119491
 31
0.0
  0
ARC
  5
8F2B
  8
AM_0
 10
86.955533683604529
 20
353.15432432047959
 30
0.0
 40
0.3
 50
0.0
 51
90.0
  0
ARC
  5
8F2C
  8
AM_0
 10
86.555533683604565
 20
349.15432432047959
 30
0.0
 40
0.3
 50
90.0
 51
180.0
  0
LINE
  5
8F2D
  8
AM_0
 10
87.255533683604597
 20
349.4543243204788
 30
0.0
 11
87.255533683604597
 21
353.15432432047959
 31
0.0
  0
LINE
  5
8F2E
  8
AM_0
 10
87.455533683604514
 20
349.4543243204788
 30
0.0
 11
87.455533683604514
 21
350.44996700119469
 31
0.0
  0
ARC
  5
8F2F
  8
AM_0
 10
86.555533683604565
 20
348.15432432047982
 30
0.0
 40
0.3
 50
90.0
 51
180.0
  0
LINE
  5
8F30
  8
AM_0
 10
86.255533683604597
 20
349.15432432047959
 30
0.0
 11
86.255533683604597
 21
348.4543243204788
 31
0.0
  0
LINE
  5
8F31
  8
AM_0
 10
87.455533683604514
 20
354.25432432047972
 30
0.0
 11
87.655533683604588
 21
354.45432432047892
 31
0.0
  0
LINE
  5
8F32
  8
AM_0
 10
87.655533683604588
 20
354.45432432047892
 30
0.0
 11
87.755533683604597
 21
354.45432432047892
 31
0.0
  0
LINE
  5
8F33
  8
AM_0
 10
88.755533683604597
 20
378.4543243204788
 30
0.0
 11
93.555533683604565
 21
378.4543243204788
 31
0.0
  0
ARC
  5
8F34
  8
AM_0
 10
88.755533683604597
 20
377.4543243204788
 30
0.0
 40
1.0
 50
90.0
 51
180.0
  0
LINE
  5
8F35
  8
AM_0
 10
93.555533683604565
 20
378.4543243204788
 30
0.0
 11
93.555533683604565
 21
361.4543243204788
 31
0.0
  0
LINE
  5
8F36
  8
AM_0
 10
103.7533712520256
 20
378.4543243204788
 30
0.0
 11
103.7533712520256
 21
380.95432432047858
 31
0.0
  0
LINE
  5
8F37
  8
AM_0
 10
135.8555336836065
 20
357.22049088921779
 30
0.0
 11
135.8555336836065
 21
370.74294814128081
 31
0.0
  0
LINE
  5
8F38
  8
AM_0
 10
122.2521796381256
 20
370.74294814128081
 30
0.0
 11
122.2521796381256
 21
354.90275035722283
 31
0.0
  0
LINE
  5
8F39
  8
AM_0
 10
130.15217963812549
 20
373.4543243204788
 30
0.0
 11
130.15217963812549
 21
356.24875297845477
 31
0.0
  0
LINE
  5
8F3A
  8
AM_0
 10
127.9521796381255
 20
355.8739168054538
 30
0.0
 11
127.9521796381255
 21
373.4543243204788
 31
0.0
  0
LINE
  5
8F3B
  8
AM_0
 10
126.4521796381255
 20
373.4543243204788
 30
0.0
 11
126.45217963812649
 21
355.61834668749782
 31
0.0
  0
LINE
  5
8F3C
  8
AM_0
 10
124.2521796381256
 20
355.2435105144969
 30
0.0
 11
124.2521796381256
 21
373.45432432047988
 31
0.0
  0
LINE
  5
8F3D
  8
AM_0
 10
133.85553368360351
 20
373.4543243204788
 30
0.0
 11
133.85553368360351
 21
356.87973073194388
 31
0.0
  0
LINE
  5
8F3E
  8
AM_0
 10
131.65217963812549
 20
356.50432309640968
 30
0.0
 11
131.65217963812549
 21
373.4543243204788
 31
0.0
  0
LINE
  5
8F3F
  8
AM_0
 10
139.05888772908051
 20
357.76627860338778
 30
0.0
 11
139.05888772908051
 21
373.4543243204788
 31
0.0
  0
LINE
  5
8F40
  8
AM_0
 10
137.5588877290806
 20
373.4543243204788
 30
0.0
 11
137.5588877290806
 21
357.51070848543287
 31
0.0
  0
LINE
  5
8F41
  8
AM_0
 10
124.2521796381256
 20
355.2435105144969
 30
0.0
 11
126.45217963812649
 21
355.61834668749782
 31
0.0
  0
LINE
  5
8F42
  8
AM_0
 10
131.65217963812549
 20
356.50432309640968
 30
0.0
 11
133.85553368360351
 21
356.87973073194388
 31
0.0
  0
LINE
  5
8F43
  8
AM_0
 10
127.9521796381255
 20
355.8739168054538
 30
0.0
 11
130.15217963812549
 21
356.24875297845477
 31
0.0
  0
LINE
  5
8F44
  8
AM_0
 10
135.8555336836065
 20
357.22049088921779
 30
0.0
 11
137.5588877290806
 21
357.51070848543287
 31
0.0
  0
LINE
  5
8F45
  8
AM_0
 10
112.1555336836045
 20
378.4543243204788
 30
0.0
 11
112.1555336836045
 21
361.4543243204788
 31
0.0
  0
CIRCLE
  5
8F46
  8
AM_0
 10
117.35553368360461
 20
361.4543243204788
 30
0.0
 40
0.75
  0
LINE
  5
8F47
  8
AM_0
 10
124.2521796381256
 20
369.4543243204788
 30
0.0
 11
122.2521796381256
 21
369.4543243204788
 31
0.0
  0
LINE
  5
8F48
  8
AM_0
 10
118.35553368360461
 20
378.4543243204788
 30
0.0
 11
112.1555336836045
 21
378.4543243204788
 31
0.0
  0
LINE
  5
8F49
  8
AM_0
 10
111.1555336836045
 20
378.4543243204788
 30
0.0
 11
112.1555336836045
 21
378.4543243204788
 31
0.0
  0
LINE
  5
8F4A
  8
AM_0
 10
124.2521796381256
 20
373.45432432047988
 30
0.0
 11
122.9521796381255
 21
373.4543243204788
 31
0.0
  0
LINE
  5
8F4B
  8
AM_0
 10
122.9521796381255
 20
373.4543243204788
 30
0.0
 11
122.9521796381255
 21
371.41030019788491
 31
0.0
  0
LINE
  5
8F4C
  8
AM_0
 10
122.9521796381255
 20
371.41030019788491
 30
0.0
 11
122.2521796381256
 21
370.74294814128081
 31
0.0
  0
LINE
  5
8F4D
  8
AM_0
 10
127.9521796381255
 20
369.4543243204788
 30
0.0
 11
126.4521796381255
 21
369.4543243204788
 31
0.0
  0
LINE
  5
8F4E
  8
AM_0
 10
131.65217963812549
 20
369.4543243204788
 30
0.0
 11
130.15217963812549
 21
369.4543243204788
 31
0.0
  0
LINE
  5
8F4F
  8
AM_0
 10
135.8555336836065
 20
369.4543243204788
 30
0.0
 11
133.85553368360351
 21
369.4543243204788
 31
0.0
  0
LINE
  5
8F50
  8
AM_0
 10
139.05888772908051
 20
369.4543243204788
 30
0.0
 11
137.5588877290806
 21
369.4543243204788
 31
0.0
  0
LINE
  5
8F51
  8
AM_0
 10
127.9521796381255
 20
373.4543243204788
 30
0.0
 11
126.4521796381255
 21
373.4543243204788
 31
0.0
  0
LINE
  5
8F52
  8
AM_0
 10
131.65217963812549
 20
373.4543243204788
 30
0.0
 11
130.15217963812549
 21
373.4543243204788
 31
0.0
  0
LINE
  5
8F53
  8
AM_0
 10
135.15553368360341
 20
373.4543243204788
 30
0.0
 11
133.85553368360351
 21
373.4543243204788
 31
0.0
  0
LINE
  5
8F54
  8
AM_0
 10
135.15553368360341
 20
371.41030019788491
 30
0.0
 11
135.15553368360341
 21
373.4543243204788
 31
0.0
  0
LINE
  5
8F55
  8
AM_0
 10
135.8555336836065
 20
370.74294814128081
 30
0.0
 11
135.15553368360341
 21
371.41030019788491
 31
0.0
  0
LINE
  5
8F56
  8
AM_0
 10
139.05888772908051
 20
373.4543243204788
 30
0.0
 11
137.5588877290806
 21
373.4543243204788
 31
0.0
  0
LINE
  5
8F57
  8
AM_0
 10
174.0306599494516
 20
378.4543243204788
 30
0.0
 11
163.35553368360459
 21
378.4543243204788
 31
0.0
  0
LINE
  5
8F58
  8
AM_0
 10
169.1555336836056
 20
357.4543243204788
 30
0.0
 11
174.5306599494516
 21
357.4543243204788
 31
0.0
  0
LINE
  5
8F59
  8
AM_0
 10
175.0306599494516
 20
361.4543243204788
 30
0.0
 11
166.6555336836044
 21
361.4543243204788
 31
0.0
  0
LINE
  5
8F5A
  8
AM_0
 10
146.46559582003559
 20
359.02823411036582
 30
0.0
 11
148.6689498655125
 21
359.40364174589882
 31
0.0
  0
LINE
  5
8F5B
  8
AM_0
 10
159.25553368360559
 20
356.1401190931818
 30
0.0
 11
159.25553368360559
 21
360.19351173856558
 31
0.0
  0
LINE
  5
8F5C
  8
AM_0
 10
144.96559582003559
 20
373.4543243204788
 30
0.0
 11
144.96559582003559
 21
358.77266399240972
 31
0.0
  0
LINE
  5
8F5D
  8
AM_0
 10
142.76224177455859
 20
358.39725635687682
 30
0.0
 11
142.76224177455859
 21
373.4543243204788
 31
0.0
  0
LINE
  5
8F5E
  8
AM_0
 10
141.26224177455859
 20
373.4543243204788
 30
0.0
 11
141.26224177455859
 21
358.14168623892181
 31
0.0
  0
LINE
  5
8F5F
  8
AM_0
 10
146.46559582003559
 20
359.02823411036582
 30
0.0
 11
146.46559582003559
 21
373.4543243204788
 31
0.0
  0
LINE
  5
8F60
  8
AM_0
 10
142.76224177455859
 20
358.39725635687682
 30
0.0
 11
144.96559582003559
 21
358.77266399240972
 31
0.0
  0
LINE
  5
8F61
  8
AM_0
 10
168.6555336836056
 20
356.9543243204788
 30
0.0
 11
168.6555336836056
 21
346.9543243204788
 31
0.0
  0
LINE
  5
8F62
  8
AM_0
 10
158.38568520262251
 20
344.4543243204788
 30
0.0
 11
158.38568520262251
 21
355.98981492294678
 31
0.0
  0
ARC
  5
8F63
  8
AM_0
 10
166.1555336836056
 20
346.9543243204788
 30
0.0
 40
2.5
 50
270.0
 51
0.0
  0
ARC
  5
8F64
  8
AM_0
 10
169.1555336836056
 20
356.9543243204788
 30
0.0
 40
0.5
 50
90.0
 51
180.0
  0
LINE
  5
8F65
  8
AM_0
 10
169.1555336836056
 20
357.4543243204788
 30
0.0
 11
166.98122882044541
 21
357.4543243204788
 31
0.0
  0
LINE
  5
8F66
  8
AM_0
 10
163.35553368360459
 20
378.4543243204788
 30
0.0
 11
156.1555336836044
 21
378.4543243204788
 31
0.0
  0
LINE
  5
8F67
  8
AM_0
 10
150.1689498655125
 20
359.65921186385469
 30
0.0
 11
160.0306599494516
 21
361.33945080345057
 31
0.0
  0
LINE
  5
8F68
  8
AM_0
 10
150.1689498655125
 20
359.65921186385469
 30
0.0
 11
150.1689498655125
 21
373.4543243204788
 31
0.0
  0
LINE
  5
8F69
  8
AM_0
 10
148.6689498655125
 20
373.4543243204788
 30
0.0
 11
148.6689498655125
 21
359.40364174589882
 31
0.0
  0
LINE
  5
8F6A
  8
AM_0
 10
150.1689498655125
 20
369.4543243204788
 30
0.0
 11
148.6689498655125
 21
369.4543243204788
 31
0.0
  0
LINE
  5
8F6B
  8
AM_0
 10
146.46559582003559
 20
369.4543243204788
 30
0.0
 11
144.96559582003559
 21
369.4543243204788
 31
0.0
  0
LINE
  5
8F6C
  8
AM_0
 10
142.76224177455859
 20
369.4543243204788
 30
0.0
 11
141.26224177455859
 21
369.4543243204788
 31
0.0
  0
CIRCLE
  5
8F6D
  8
AM_0
 10
151.85553368360459
 20
361.4543243204788
 30
0.0
 40
0.75
  0
LINE
  5
8F6E
  8
AM_0
 10
150.1689498655125
 20
373.4543243204788
 30
0.0
 11
148.6689498655125
 21
373.4543243204788
 31
0.0
  0
LINE
  5
8F6F
  8
AM_0
 10
146.46559582003559
 20
373.4543243204788
 30
0.0
 11
144.96559582003559
 21
373.4543243204788
 31
0.0
  0
LINE
  5
8F70
  8
AM_0
 10
142.76224177455859
 20
373.4543243204788
 30
0.0
 11
141.26224177455859
 21
373.4543243204788
 31
0.0
  0
LINE
  5
8F71
  8
AM_0
 10
160.0306599494516
 20
361.33945080345057
 30
0.0
 11
160.0306599494516
 21
378.4543243204788
 31
0.0
  0
LINE
  5
8F72
  8
AM_0
 10
170.7533712520256
 20
378.4543243204788
 30
0.0
 11
170.7533712520256
 21
380.95432432047858
 31
0.0
  0
LINE
  5
8F73
  8
AM_0
 10
175.0306599494516
 20
361.4543243204788
 30
0.0
 11
175.0306599494516
 21
357.9543243204788
 31
0.0
  0
ARC
  5
8F74
  8
AM_0
 10
174.5306599494516
 20
357.9543243204788
 30
0.0
 40
0.5
 50
270.0
 51
0.0
  0
LINE
  5
8F75
  8
AM_0
 10
175.0306599494516
 20
361.4543243204788
 30
0.0
 11
175.0306599494516
 21
377.4543243204788
 31
0.0
  0
ARC
  5
8F76
  8
AM_0
 10
174.0306599494516
 20
377.4543243204788
 30
0.0
 40
1.0
 50
0.0
 51
90.0
  0
LINE
  5
8F77
  8
AM_0
 10
72.953381252025565
 20
404.76438432047883
 30
0.0
 11
79.18336125202562
 21
404.76438432047883
 31
0.0
  0
LINE
  5
8F78
  8
AM_0
 10
72.253371252025659
 20
394.9543243204788
 30
0.0
 11
80.253371252025659
 21
394.9543243204788
 31
0.0
  0
LINE
  5
8F79
  8
AM_0
 10
72.253371252025659
 20
500.95432432047852
 30
0.0
 11
80.253371252025659
 21
500.95432432047852
 31
0.0
  0
LINE
  5
8F7A
  8
AM_0
 10
72.953381252025565
 20
491.14426432047878
 30
0.0
 11
79.18336125202562
 21
491.14426432047878
 31
0.0
  0
LINE
  5
8F7B
  8
AM_0
 10
24.753371252025659
 20
395.1723343204788
 30
0.0
 11
24.753371252025659
 21
500.70432432047852
 31
0.0
  0
LINE
  5
8F7C
  8
AM_0
 10
21.751941152025658
 20
482.69278541618581
 30
0.0
 11
21.751941152025658
 21
413.21586322477128
 31
0.0
  0
LINE
  5
8F7D
  8
AM_0
 10
22.253371252025651
 20
413.42526432047862
 30
0.0
 11
22.253371252025651
 21
482.4833743204789
 31
0.0
  0
LINE
  5
8F7E
  8
AM_0
 10
16.751941152025658
 20
503.95432432047858
 30
0.0
 11
16.751941152025658
 21
391.9543243204788
 31
0.0
  0
LINE
  5
8F7F
  8
AM_0
 10
67.253371252025659
 20
410.76926432047878
 30
0.0
 11
67.253371252025659
 21
485.14035432047882
 31
0.0
  0
LINE
  5
8F80
  8
AM_0
 10
72.253371252025659
 20
506.70432432047858
 30
0.0
 11
72.253371252025659
 21
389.2043243204788
 31
0.0
  0
LINE
  5
8F81
  8
AM_0
 10
26.751941152025658
 20
387.9543243204788
 30
0.0
 11
50.253371252025651
 21
387.9543243204788
 31
0.0
  0
LINE
  5
8F82
  8
AM_0
 10
24.753371252025659
 20
404.06333432047859
 30
0.0
 11
67.253371252025659
 21
404.06333432047859
 31
0.0
  0
LINE
  5
8F83
  8
AM_0
 10
24.753371252025659
 20
414.31333432047859
 30
0.0
 11
67.253371252025659
 21
414.31333432047859
 31
0.0
  0
LINE
  5
8F84
  8
AM_0
 10
24.253371252025651
 20
395.20432432047858
 30
0.0
 11
72.253371252025659
 21
395.20432432047858
 31
0.0
  0
LINE
  5
8F85
  8
AM_0
 10
25.751941152025658
 20
382.9543243204788
 30
0.0
 11
63.253371252025651
 21
382.9543243204788
 31
0.0
  0
LINE
  5
8F86
  8
AM_0
 10
21.751941152025658
 20
404.91080541618601
 30
0.0
 11
21.751941152025658
 21
392.9543243204788
 31
0.0
  0
LINE
  5
8F87
  8
AM_0
 10
22.253371252025651
 20
404.70139432047858
 30
0.0
 11
22.253371252025651
 21
397.2043243204788
 31
0.0
  0
ARC
  5
8F88
  8
AM_0
 10
26.751941152025658
 20
392.9543243204788
 30
0.0
 40
5.0
 50
179.99997999999781
 51
269.99995000000138
  0
ARC
  5
8F89
  8
AM_0
 10
24.253371252025651
 20
397.2043243204788
 30
0.0
 40
2.0
 50
179.99997999999781
 51
269.99995000000138
  0
ARC
  5
8F8A
  8
AM_0
 10
23.15340125202556
 20
407.56333432047859
 30
0.0
 40
3.0
 50
179.99997999999781
 51
269.99995000000138
  0
ARC
  5
8F8B
  8
AM_0
 10
23.15340125202556
 20
410.56333432047859
 30
0.0
 40
3.0
 50
89.999988999997569
 51
179.99997999999781
  0
LINE
  5
8F8C
  8
AM_0
 10
20.15340125202556
 20
410.56333432047859
 30
0.0
 11
20.15340125202556
 21
407.56333432047859
 31
0.0
  0
LINE
  5
8F8D
  8
AM_0
 10
23.453381252025562
 20
413.66330432047857
 30
0.0
 11
23.453381252025562
 21
404.46335432047857
 31
0.0
  0
LINE
  5
8F8E
  8
AM_0
 10
23.15340125202556
 20
404.56333432047848
 30
0.0
 11
23.453381252025562
 21
404.56333432047848
 31
0.0
  0
LINE
  5
8F8F
  8
AM_0
 10
23.453381252025562
 20
404.46335432047857
 30
0.0
 11
24.753371252025659
 21
404.46335432047857
 31
0.0
  0
LINE
  5
8F90
  8
AM_0
 10
23.15340125202556
 20
413.56333432047848
 30
0.0
 11
23.453381252025562
 21
413.56333432047848
 31
0.0
  0
LINE
  5
8F91
  8
AM_0
 10
23.453381252025562
 20
413.66330432047857
 30
0.0
 11
24.753371252025659
 21
413.66330432047857
 31
0.0
  0
LINE
  5
8F92
  8
AM_0
 10
67.253371252025659
 20
404.06333432047859
 30
0.0
 11
67.253371252025659
 21
395.20432432047858
 31
0.0
  0
LINE
  5
8F93
  8
AM_0
 10
60.253371252025651
 20
387.9543243204788
 30
0.0
 11
63.253371252025651
 21
387.9543243204788
 31
0.0
  0
LINE
  5
8F94
  8
AM_0
 10
47.253371252025651
 20
389.2043243204788
 30
0.0
 11
72.253371252025659
 21
389.2043243204788
 31
0.0
  0
LINE
  5
8F95
  8
AM_0
 10
47.253371252025651
 20
389.2043243204788
 30
0.0
 11
47.253371252025651
 21
395.20432432047858
 31
0.0
  0
LINE
  5
8F96
  8
AM_0
 10
50.253371252025651
 20
389.2043243204788
 30
0.0
 11
50.253371252025651
 21
382.9543243204788
 31
0.0
  0
LINE
  5
8F97
  8
AM_0
 10
60.253371252025651
 20
389.2043243204788
 30
0.0
 11
60.253371252025651
 21
382.9543243204788
 31
0.0
  0
LINE
  5
8F98
  8
AM_0
 10
63.253371252025651
 20
387.9543243204788
 30
0.0
 11
63.253371252025651
 21
382.9543243204788
 31
0.0
  0
LINE
  5
8F99
  8
AM_0
 10
15.753401252025689
 20
442.9543243204788
 30
0.0
 11
15.753401252025689
 21
452.9543243204788
 31
0.0
  0
LINE
  5
8F9A
  8
AM_0
 10
16.751941152025658
 20
442.9543243204788
 30
0.0
 11
15.753401252025689
 21
442.9543243204788
 31
0.0
  0
LINE
  5
8F9B
  8
AM_0
 10
22.253371252025651
 20
442.9543243204788
 30
0.0
 11
21.751941152025658
 21
442.9543243204788
 31
0.0
  0
LINE
  5
8F9C
  8
AM_0
 10
16.751941152025658
 20
452.9543243204788
 30
0.0
 11
15.753401252025689
 21
452.9543243204788
 31
0.0
  0
LINE
  5
8F9D
  8
AM_0
 10
22.253371252025651
 20
452.9543243204788
 30
0.0
 11
21.751941152025658
 21
452.9543243204788
 31
0.0
  0
ARC
  5
8F9E
  8
AM_0
 10
25.751941152025658
 20
503.95432432047858
 30
0.0
 40
9.0
 50
89.999988999997569
 51
179.99997999999781
  0
LINE
  5
8F9F
  8
AM_0
 10
26.751941152025658
 20
507.9543243204788
 30
0.0
 11
50.253371252025651
 21
507.9543243204788
 31
0.0
  0
LINE
  5
8FA0
  8
AM_0
 10
25.751941152025658
 20
512.95432432047858
 30
0.0
 11
63.253371252025651
 21
512.95432432047858
 31
0.0
  0
LINE
  5
8FA1
  8
AM_0
 10
24.253371252025651
 20
500.70432432047852
 30
0.0
 11
72.253371252025659
 21
500.70432432047852
 31
0.0
  0
LINE
  5
8FA2
  8
AM_0
 10
24.753371252025659
 20
481.59531432047862
 30
0.0
 11
67.253371252025659
 21
481.59531432047862
 31
0.0
  0
LINE
  5
8FA3
  8
AM_0
 10
24.753371252025659
 20
491.84531432047851
 30
0.0
 11
67.253371252025659
 21
491.84531432047851
 31
0.0
  0
LINE
  5
8FA4
  8
AM_0
 10
21.751941152025658
 20
490.99784322477132
 30
0.0
 11
21.751941152025658
 21
502.95432432047852
 31
0.0
  0
LINE
  5
8FA5
  8
AM_0
 10
22.253371252025651
 20
491.20725432047851
 30
0.0
 11
22.253371252025651
 21
498.70432432047852
 31
0.0
  0
ARC
  5
8FA6
  8
AM_0
 10
23.15340125202556
 20
485.34531432047851
 30
0.0
 40
3.0
 50
180.00002000000191
 51
270.00001100000242
  0
ARC
  5
8FA7
  8
AM_0
 10
23.15340125202556
 20
488.34531432047862
 30
0.0
 40
3.0
 50
90.000049999998538
 51
180.00002000000191
  0
LINE
  5
8FA8
  8
AM_0
 10
20.15340125202556
 20
485.34531432047851
 30
0.0
 11
20.15340125202556
 21
488.34531432047862
 31
0.0
  0
LINE
  5
8FA9
  8
AM_0
 10
23.453381252025562
 20
482.24534432047858
 30
0.0
 11
23.453381252025562
 21
491.44529432047858
 31
0.0
  0
LINE
  5
8FAA
  8
AM_0
 10
23.15340125202556
 20
482.34531432047879
 30
0.0
 11
23.453381252025562
 21
482.34531432047879
 31
0.0
  0
LINE
  5
8FAB
  8
AM_0
 10
23.453381252025562
 20
482.24534432047858
 30
0.0
 11
24.753371252025659
 21
482.24534432047858
 31
0.0
  0
LINE
  5
8FAC
  8
AM_0
 10
23.15340125202556
 20
491.34531432047879
 30
0.0
 11
23.453381252025562
 21
491.34531432047879
 31
0.0
  0
LINE
  5
8FAD
  8
AM_0
 10
23.453381252025562
 20
491.44529432047858
 30
0.0
 11
24.753371252025659
 21
491.44529432047858
 31
0.0
  0
ARC
  5
8FAE
  8
AM_0
 10
26.751941152025658
 20
502.9543243204788
 30
0.0
 40
5.0
 50
89.999988999997569
 51
180.0
  0
ARC
  5
8FAF
  8
AM_0
 10
24.253371252025651
 20
498.70432432047852
 30
0.0
 40
2.0
 50
90.000049999998538
 51
180.00002000000191
  0
LINE
  5
8FB0
  8
AM_0
 10
67.253371252025659
 20
491.84531432047851
 30
0.0
 11
67.253371252025659
 21
500.70432432047852
 31
0.0
  0
LINE
  5
8FB1
  8
AM_0
 10
60.253371252025651
 20
507.9543243204788
 30
0.0
 11
63.253371252025651
 21
507.9543243204788
 31
0.0
  0
LINE
  5
8FB2
  8
AM_0
 10
47.253371252025651
 20
506.70432432047858
 30
0.0
 11
72.253371252025659
 21
506.70432432047858
 31
0.0
  0
LINE
  5
8FB3
  8
AM_0
 10
47.253371252025651
 20
506.70432432047858
 30
0.0
 11
47.253371252025651
 21
500.70432432047852
 31
0.0
  0
LINE
  5
8FB4
  8
AM_0
 10
50.253371252025651
 20
506.70432432047858
 30
0.0
 11
50.253371252025651
 21
512.95432432047858
 31
0.0
  0
LINE
  5
8FB5
  8
AM_0
 10
60.253371252025651
 20
506.70432432047858
 30
0.0
 11
60.253371252025651
 21
512.95432432047858
 31
0.0
  0
LINE
  5
8FB6
  8
AM_0
 10
63.253371252025651
 20
507.9543243204788
 30
0.0
 11
63.253371252025651
 21
512.95432432047858
 31
0.0
  0
LINE
  5
8FB7
  8
AM_0
 10
188.2533712520256
 20
503.95432432047858
 30
0.0
 11
188.2533712520256
 21
391.9543243204788
 31
0.0
  0
LINE
  5
8FB8
  8
AM_0
 10
80.253371252025659
 20
500.95432432047852
 30
0.0
 11
80.253371252025659
 21
394.9543243204788
 31
0.0
  0
POLYLINE
  5
8FB9
  8
AM_0
 66
     1
 10
0.0
 20
0.0
 30
0.0
  0
VERTEX
  5
8FBA
  8
AM_0
 10
83.13161125202565
 20
464.29489432047882
 30
0.0
 42
-0.0007337051
  0
VERTEX
  5
8FBB
  8
AM_0
 10
83.17575125202562
 20
464.89731432047881
 30
0.0
 42
-0.00075211323
  0
VERTEX
  5
8FBC
  8
AM_0
 10
83.221691252025593
 20
465.49970432047883
 30
0.0
 42
-0.0007297491
  0
VERTEX
  5
8FBD
  8
AM_0
 10
83.269421252025609
 20
466.1019043204787
 30
0.0
 42
-0.00073593041
  0
VERTEX
  5
8FBE
  8
AM_0
 10
83.318901252025626
 20
466.70389432047858
 30
0.0
 42
-0.00074742739
  0
VERTEX
  5
8FBF
  8
AM_0
 10
83.370171252025656
 20
467.30576432047877
 30
0.0
 42
-0.00073217363
  0
VERTEX
  5
8FC0
  8
AM_0
 10
83.42323125202563
 20
467.90756432047851
 30
0.0
 42
-0.00073754168
  0
VERTEX
  5
8FC1
  8
AM_0
 10
83.47805125202558
 20
468.50910432047851
 30
0.0
 42
-0.00073075073
  0
VERTEX
  5
8FC2
  8
AM_0
 10
83.534631252025619
 20
469.11046432047851
 30
0.0
 42
-0.00074550816
  0
VERTEX
  5
8FC3
  8
AM_0
 10
83.592971252025563
 20
469.71152432047882
 30
0.0
 42
-0.00074288416
  0
VERTEX
  5
8FC4
  8
AM_0
 10
83.653121252025571
 20
470.31254432047888
 30
0.0
 42
-0.00072504001
  0
VERTEX
  5
8FC5
  8
AM_0
 10
83.715031252025582
 20
470.91329432047883
 30
0.0
 42
-0.00074640667
  0
VERTEX
  5
8FC6
  8
AM_0
 10
83.778701252025598
 20
471.51389432047881
 30
0.0
  0
SEQEND
  5
8FC7
  8
AM_0
  0
LINE
  5
8FC8
  8
AM_0
 10
137.25337125202549
 20
411.23435432047859
 30
0.0
 11
185.07338125202551
 21
411.23435432047859
 31
0.0
  0
LINE
  5
8FC9
  8
AM_0
 10
181.59340125202559
 20
411.9543243204788
 30
0.0
 11
137.25337125202549
 21
411.9543243204788
 31
0.0
  0
LINE
  5
8FCA
  8
AM_0
 10
181.59340125202559
 20
413.9543243204788
 30
0.0
 11
137.25337125202549
 21
413.9543243204788
 31
0.0
  0
LINE
  5
8FCB
  8
AM_0
 10
81.713391252025616
 20
424.39426432047873
 30
0.0
 11
185.28761125202561
 21
424.39426432047873
 31
0.0
  0
LINE
  5
8FCC
  8
AM_0
 10
81.713391252025616
 20
421.46433432047871
 30
0.0
 11
149.2533712520256
 21
421.46433432047871
 31
0.0
  0
LINE
  5
8FCD
  8
AM_0
 10
181.5862012520256
 20
423.9543243204788
 30
0.0
 11
82.613361252025697
 21
423.9543243204788
 31
0.0
  0
LINE
  5
8FCE
  8
AM_0
 10
81.933361252025605
 20
414.5843243204788
 30
0.0
 11
149.27339125202559
 21
414.5843243204788
 31
0.0
  0
LINE
  5
8FCF
  8
AM_0
 10
149.2533712520256
 20
421.95432432047852
 30
0.0
 11
82.613361252025697
 21
421.95432432047852
 31
0.0
  0
LINE
  5
8FD0
  8
AM_0
 10
83.46339125202563
 20
391.67429432047879
 30
0.0
 11
180.3833812520254
 21
391.67429432047879
 31
0.0
  0
POLYLINE
  5
8FD1
  8
AM_0
 66
     1
 10
0.0
 20
0.0
 30
0.0
  0
VERTEX
  5
8FD2
  8
AM_0
 10
83.13161125202565
 20
431.61374432047859
 30
0.0
 42
0.00073721992
  0
VERTEX
  5
8FD3
  8
AM_0
 10
83.175761252025609
 20
431.0113343204788
 30
0.0
 42
0.00074398496
  0
VERTEX
  5
8FD4
  8
AM_0
 10
83.221691252025593
 20
430.40906432047882
 30
0.0
 42
0.00073322625
  0
VERTEX
  5
8FD5
  8
AM_0
 10
83.269421252025609
 20
429.80673432047871
 30
0.0
 42
0.00073594289
  0
VERTEX
  5
8FD6
  8
AM_0
 10
83.318901252025626
 20
429.20474432047871
 30
0.0
 42
0.00074742568
  0
VERTEX
  5
8FD7
  8
AM_0
 10
83.370171252025656
 20
428.60288432047872
 30
0.0
 42
0.00073216749
  0
VERTEX
  5
8FD8
  8
AM_0
 10
83.42323125202563
 20
428.00107432047878
 30
0.0
 42
0.00074184065
  0
VERTEX
  5
8FD9
  8
AM_0
 10
83.47805125202558
 20
427.39954432047881
 30
0.0
 42
0.00072077528
  0
VERTEX
  5
8FDA
  8
AM_0
 10
83.534631252025619
 20
426.79831432047882
 30
0.0
 42
0.00074978179
  0
VERTEX
  5
8FDB
  8
AM_0
 10
83.592971252025563
 20
426.19711432047882
 30
0.0
 42
0.00074288888
  0
VERTEX
  5
8FDC
  8
AM_0
 10
83.653121252025571
 20
425.59609432047881
 30
0.0
 42
0.00072503679
  0
VERTEX
  5
8FDD
  8
AM_0
 10
83.715031252025582
 20
424.99535432047873
 30
0.0
 42
0.00074640584
  0
VERTEX
  5
8FDE
  8
AM_0
 10
83.778701252025598
 20
424.3947543204788
 30
0.0
  0
SEQEND
  5
8FDF
  8
AM_0
  0
LINE
  5
8FE0
  8
AM_0
 10
137.25337125202549
 20
411.9543243204788
 30
0.0
 11
82.613361252025697
 21
411.9543243204788
 31
0.0
  0
LINE
  5
8FE1
  8
AM_0
 10
137.25337125202549
 20
413.9543243204788
 30
0.0
 11
82.613361252025697
 21
413.9543243204788
 31
0.0
  0
LINE
  5
8FE2
  8
AM_0
 10
81.933361252025605
 20
411.23435432047859
 30
0.0
 11
137.25337125202549
 21
411.23435432047859
 31
0.0
  0
LINE
  5
8FE3
  8
AM_0
 10
85.613361252025697
 20
411.30432432047883
 30
0.0
 11
80.253371252025659
 21
399.86432432047889
 31
0.0
  0
LINE
  5
8FE4
  8
AM_0
 10
83.15962125202563
 20
388.82431432047889
 30
0.0
 11
105.5860214506924
 21
388.82431432047889
 31
0.0
  0
ARC
  5
8FE5
  8
AM_0
 10
83.458211252025649
 20
393.67356432047882
 30
0.0
 40
1.9992490000000001
 50
190.643100000001
 51
270.14743000000129
  0
LINE
  5
8FE6
  8
AM_0
 10
80.253371252025659
 20
397.17432432047877
 30
0.0
 11
81.178851252025652
 21
390.54770432047877
 31
0.0
  0
LINE
  5
8FE7
  8
AM_0
 10
80.253371252025659
 20
397.1742643204787
 30
0.0
 11
81.262591252025686
 21
390.52423432047863
 31
0.0
  0
LINE
  5
8FE8
  8
AM_0
 10
80.253371252025659
 20
398.5142543204787
 30
0.0
 11
81.533341252025579
 21
390.51431432047872
 31
0.0
  0
ARC
  5
8FE9
  8
AM_0
 10
83.15962125202563
 20
390.82431432047889
 30
0.0
 40
2.0
 50
187.9504400000034
 51
269.999989999999
  0
ARC
  5
8FEA
  8
AM_0
 10
83.240001252025621
 20
390.82431432047889
 30
0.0
 40
2.0
 50
188.62962000000411
 51
269.999989999999
  0
ARC
  5
8FEB
  8
AM_0
 10
83.509541252025656
 20
390.82468432047881
 30
0.0
 40
2.000420099999999
 50
188.9268200000015
 51
269.82270999999599
  0
LINE
  5
8FEC
  8
AM_0
 10
80.253371252025659
 20
399.86426432047881
 30
0.0
 11
81.493361252025693
 21
393.30426432047892
 31
0.0
  0
ARC
  5
8FED
  8
AM_0
 10
105.5860214506924
 20
387.32431432047878
 30
0.0
 40
1.5
 50
1.499738863867264
 51
90.0
1001
GENIUS_GENODEF_13
1002
{
1000
HIER
1070
     0
1002
}
1002
{
1000
MANEDIT
1070
     0
1002
}
1002
{
1000
NOSEL
1070
     0
1002
}
1002
{
1000
BEHIND
1070
     0
1002
}
1002
{
1000
REACTOR
1002
}
1001
GENIUS_GENOBJ-N-FIL_13
1002
{
1000
OWNER
1000
GEN
1002
}
  0
POLYLINE
  5
8FEE
  8
AM_0
 66
     1
 10
0.0
 20
0.0
 30
0.0
  0
VERTEX
  5
8FEF
  8
AM_0
 10
84.114271252025645
 20
421.47128432047862
 30
0.0
 42
0.00068900015
  0
VERTEX
  5
8FF0
  8
AM_0
 10
84.185151252025548
 20
420.89653432047851
 30
0.0
 42
0.00070644648
  0
VERTEX
  5
8FF1
  8
AM_0
 10
84.257651252025639
 20
420.32185432047879
 30
0.0
 42
0.00069245587
  0
VERTEX
  5
8FF2
  8
AM_0
 10
84.33174125202558
 20
419.74753432047879
 30
0.0
 42
0.00069587802
  0
VERTEX
  5
8FF3
  8
AM_0
 10
84.407421252025628
 20
419.17339432047879
 30
0.0
 42
0.00068980012
  0
VERTEX
  5
8FF4
  8
AM_0
 10
84.484721252025565
 20
418.59939432047878
 30
0.0
 42
0.00072079193
  0
VERTEX
  5
8FF5
  8
AM_0
 10
84.563611252025652
 20
418.02561432047889
 30
0.0
 42
0.00071003147
  0
VERTEX
  5
8FF6
  8
AM_0
 10
84.644151252025594
 20
417.45213432047871
 30
0.0
 42
0.00072658712
  0
VERTEX
  5
8FF7
  8
AM_0
 10
84.726311252025667
 20
416.87904432047873
 30
0.0
 42
0.00069571059
  0
VERTEX
  5
8FF8
  8
AM_0
 10
84.810131252025599
 20
416.30600432047851
 30
0.0
 42
0.0007126617
  0
VERTEX
  5
8FF9
  8
AM_0
 10
84.895561252025686
 20
415.7332443204786
 30
0.0
 42
0.00071614574
  0
VERTEX
  5
8FFA
  8
AM_0
 10
84.9825912520256
 20
415.1608943204788
 30
0.0
 42
0.00072290803
  0
VERTEX
  5
8FFB
  8
AM_0
 10
85.071301252025563
 20
414.58859432047871
 30
0.0
  0
SEQEND
  5
8FFC
  8
AM_0
  0
ARC
  5
8FFD
  8
AM_0
 10
81.926531252025569
 20
412.9092743204788
 30
0.0
 40
1.675014
 50
89.766498999996756
 51
270.2335099999994
  0
ARC
  5
8FFE
  8
AM_0
 10
82.797991252025653
 20
412.95432432047858
 30
0.0
 40
1.000013899999999
 50
89.691659999999231
 51
270.30834000000078
  0
ARC
  5
8FFF
  8
AM_0
 10
81.713391252025616
 20
422.92929432047879
 30
0.0
 40
1.465004
 50
90.00000299999769
 51
270.0
  0
ARC
  5
9000
  8
AM_0
 10
82.797991252025653
 20
422.9543243204788
 30
0.0
 40
1.000013899999999
 50
89.691659999999231
 51
270.30834000000078
  0
LINE
  5
9001
  8
AM_0
 10
81.583391252025621
 20
431.61435432047881
 30
0.0
 11
117.92464125202549
 21
431.61435432047881
 31
0.0
  0
LINE
  5
9002
  8
AM_0
 10
81.583391252025621
 20
434.27426432047889
 30
0.0
 11
117.91206125202559
 21
434.27426432047889
 31
0.0
  0
LINE
  5
9003
  8
AM_0
 10
116.69209125202561
 20
431.9543243204788
 30
0.0
 11
82.613361252025697
 21
431.9543243204788
 31
0.0
  0
LINE
  5
9004
  8
AM_0
 10
116.69209125202561
 20
433.95432432047858
 30
0.0
 11
82.613361252025697
 21
433.95432432047858
 31
0.0
  0
LINE
  5
9005
  8
AM_0
 10
81.583391252025621
 20
461.63437432047863
 30
0.0
 11
117.91206125202559
 21
461.63437432047863
 31
0.0
  0
LINE
  5
9006
  8
AM_0
 10
81.583391252025621
 20
464.29428432047882
 30
0.0
 11
117.91206125202559
 21
464.29428432047882
 31
0.0
  0
LINE
  5
9007
  8
AM_0
 10
81.523391252025576
 20
451.69431432047878
 30
0.0
 11
117.9720612520257
 21
451.69431432047878
 31
0.0
  0
LINE
  5
9008
  8
AM_0
 10
81.523391252025576
 20
454.22434432047851
 30
0.0
 11
117.9720612520257
 21
454.22434432047851
 31
0.0
  0
LINE
  5
9009
  8
AM_0
 10
81.523391252025576
 20
441.68430432047887
 30
0.0
 11
117.9720612520257
 21
441.68430432047887
 31
0.0
  0
LINE
  5
900A
  8
AM_0
 10
81.523391252025576
 20
444.22434432047862
 30
0.0
 11
117.9720612520257
 21
444.22434432047862
 31
0.0
  0
LINE
  5
900B
  8
AM_0
 10
116.69209125202561
 20
461.9543243204788
 30
0.0
 11
82.613361252025697
 21
461.9543243204788
 31
0.0
  0
LINE
  5
900C
  8
AM_0
 10
116.69209125202561
 20
463.9543243204788
 30
0.0
 11
82.613361252025697
 21
463.9543243204788
 31
0.0
  0
LINE
  5
900D
  8
AM_0
 10
116.69209125202561
 20
451.9543243204788
 30
0.0
 11
82.613361252025697
 21
451.9543243204788
 31
0.0
  0
LINE
  5
900E
  8
AM_0
 10
116.69209125202561
 20
453.95432432047858
 30
0.0
 11
82.613361252025697
 21
453.95432432047858
 31
0.0
  0
LINE
  5
900F
  8
AM_0
 10
116.69209125202561
 20
441.95432432047858
 30
0.0
 11
82.613361252025697
 21
441.95432432047858
 31
0.0
  0
LINE
  5
9010
  8
AM_0
 10
116.69209125202561
 20
443.9543243204788
 30
0.0
 11
82.613361252025697
 21
443.9543243204788
 31
0.0
  0
POLYLINE
  5
9011
  8
AM_0
 66
     1
 10
0.0
 20
0.0
 30
0.0
  0
VERTEX
  5
9012
  8
AM_0
 10
82.613361252025697
 20
447.9543243204788
 30
0.0
 42
0.00039106589
  0
VERTEX
  5
9013
  8
AM_0
 10
82.611001252025616
 20
447.64318432047872
 30
0.0
 42
0.00035488584
  0
VERTEX
  5
9014
  8
AM_0
 10
82.609111252025627
 20
447.33207432047851
 30
0.0
 42
0.00039705232
  0
VERTEX
  5
9015
  8
AM_0
 10
82.607681252025586
 20
447.02097432047879
 30
0.0
 42
0.0003876649
  0
VERTEX
  5
9016
  8
AM_0
 10
82.60675125202556
 20
446.70983432047882
 30
0.0
 42
0.00040613779
  0
VERTEX
  5
9017
  8
AM_0
 10
82.60630125202556
 20
446.39872432047889
 30
0.0
 42
0.00035571855
  0
VERTEX
  5
9018
  8
AM_0
 10
82.606341252025686
 20
446.08762432047871
 30
0.0
 42
0.00038547358
  0
VERTEX
  5
9019
  8
AM_0
 10
82.606831252025572
 20
445.77648432047857
 30
0.0
 42
0.000355015
  0
VERTEX
  5
901A
  8
AM_0
 10
82.607791252025649
 20
445.46538432047879
 30
0.0
 42
0.00040118616
  0
VERTEX
  5
901B
  8
AM_0
 10
82.609211252025588
 20
445.15415432047882
 30
0.0
 42
0.00038319867
  0
VERTEX
  5
901C
  8
AM_0
 10
82.611121252025697
 20
444.84301432047852
 30
0.0
 42
0.00035656356
  0
VERTEX
  5
901D
  8
AM_0
 10
82.613501252025571
 20
444.53178432047872
 30
0.0
 42
0.00040140992
  0
VERTEX
  5
901E
  8
AM_0
 10
82.616351252025623
 20
444.22067432047879
 30
0.0
  0
SEQEND
  5
901F
  8
AM_0
  0
POLYLINE
  5
9020
  8
AM_0
 66
     1
 10
0.0
 20
0.0
 30
0.0
  0
VERTEX
  5
9021
  8
AM_0
 10
82.657421252025614
 20
441.68393432047873
 30
0.0
 42
0.00076695235
  0
VERTEX
  5
9022
  8
AM_0
 10
82.672221252025565
 20
441.06617432047881
 30
0.0
 42
0.00073263043
  0
VERTEX
  5
9023
  8
AM_0
 10
82.688861252025589
 20
440.44857432047871
 30
0.0
 42
0.00076525988
  0
VERTEX
  5
9024
  8
AM_0
 10
82.707351252025546
 20
439.83090432047879
 30
0.0
 42
0.00075144488
  0
VERTEX
  5
9025
  8
AM_0
 10
82.727721252025617
 20
439.21330432047881
 30
0.0
 42
0.00076035096
  0
VERTEX
  5
9026
  8
AM_0
 10
82.749961252025614
 20
438.59587432047869
 30
0.0
 42
0.00075543154
  0
VERTEX
  5
9027
  8
AM_0
 10
82.774061252025575
 20
437.97849432047872
 30
0.0
 42
0.0007577325
  0
VERTEX
  5
9028
  8
AM_0
 10
82.800041252025594
 20
437.3610943204788
 30
0.0
 42
0.00076034585
  0
VERTEX
  5
9029
  8
AM_0
 10
82.827891252025651
 20
436.74370432047863
 30
0.0
 42
0.00074823143
  0
VERTEX
  5
902A
  8
AM_0
 10
82.857621252025623
 20
436.12631432047868
 30
0.0
 42
0.00074896605
  0
VERTEX
  5
902B
  8
AM_0
 10
82.889181252025537
 20
435.50918432047871
 30
0.0
 42
0.00076039763
  0
VERTEX
  5
902C
  8
AM_0
 10
82.922601252025629
 20
434.89215432047882
 30
0.0
 42
0.00075616127
  0
VERTEX
  5
902D
  8
AM_0
 10
82.957901252025636
 20
434.27512432047871
 30
0.0
  0
SEQEND
  5
902E
  8
AM_0
  0
ARC
  5
902F
  8
AM_0
 10
81.583391252025621
 20
432.94431432047878
 30
0.0
 40
1.3300049999999981
 50
90.00000299999769
 51
270.0
  0
ARC
  5
9030
  8
AM_0
 10
82.797991252025653
 20
432.9543243204788
 30
0.0
 40
1.000013899999999
 50
89.691659999999231
 51
270.30834000000078
  0
ARC
  5
9031
  8
AM_0
 10
82.797991252025653
 20
442.9543243204788
 30
0.0
 40
1.000013899999999
 50
89.691659999999231
 51
270.30834000000078
  0
ARC
  5
9032
  8
AM_0
 10
81.517531252025577
 20
442.9543243204788
 30
0.0
 40
1.2700129999999981
 50
89.736617000001587
 51
270.2633699999991
  0
POLYLINE
  5
9033
  8
AM_0
 66
     1
 10
0.0
 20
0.0
 30
0.0
  0
VERTEX
  5
9034
  8
AM_0
 10
82.657421252025614
 20
454.22470432047862
 30
0.0
 42
-0.00076691992
  0
VERTEX
  5
9035
  8
AM_0
 10
82.672221252025565
 20
454.8424743204788
 30
0.0
 42
-0.00073262792
  0
VERTEX
  5
9036
  8
AM_0
 10
82.688861252025589
 20
455.46006432047869
 30
0.0
 42
-0.00076529537
  0
VERTEX
  5
9037
  8
AM_0
 10
82.707351252025546
 20
456.07773432047873
 30
0.0
 42
-0.00075141097
  0
VERTEX
  5
9038
  8
AM_0
 10
82.727721252025617
 20
456.69533432047871
 30
0.0
 42
-0.00075841687
  0
VERTEX
  5
9039
  8
AM_0
 10
82.749951252025653
 20
457.31276432047872
 30
0.0
 42
-0.00075711788
  0
VERTEX
  5
903A
  8
AM_0
 10
82.774061252025575
 20
457.93027432047882
 30
0.0
 42
-0.00075976003
  0
VERTEX
  5
903B
  8
AM_0
 10
82.800051252025582
 20
458.54766432047859
 30
0.0
 42
-0.00075797311
  0
VERTEX
  5
903C
  8
AM_0
 10
82.827891252025651
 20
459.1649443204787
 30
0.0
 42
-0.0007482613
  0
VERTEX
  5
903D
  8
AM_0
 10
82.857621252025623
 20
459.78232432047861
 30
0.0
 42
-0.00074893561
  0
VERTEX
  5
903E
  8
AM_0
 10
82.889181252025537
 20
460.3994543204787
 30
0.0
 42
-0.00076039839
  0
VERTEX
  5
903F
  8
AM_0
 10
82.922601252025629
 20
461.0164843204787
 30
0.0
 42
-0.00075618786
  0
VERTEX
  5
9040
  8
AM_0
 10
82.957901252025636
 20
461.63352432047878
 30
0.0
  0
SEQEND
  5
9041
  8
AM_0
  0
ARC
  5
9042
  8
AM_0
 10
82.797991252025653
 20
452.9543243204788
 30
0.0
 40
1.000013899999999
 50
89.691659999999231
 51
270.30834000000078
  0
ARC
  5
9043
  8
AM_0
 10
81.517531252025577
 20
452.9593243204788
 30
0.0
 40
1.2650129999999991
 50
89.735579000001735
 51
270.26441000000239
  0
POLYLINE
  5
9044
  8
AM_0
 66
     1
 10
0.0
 20
0.0
 30
0.0
  0
VERTEX
  5
9045
  8
AM_0
 10
82.613361252025697
 20
447.9543243204788
 30
0.0
 42
-0.00039106649
  0
VERTEX
  5
9046
  8
AM_0
 10
82.611001252025616
 20
448.26545432047868
 30
0.0
 42
-0.00035488198
  0
VERTEX
  5
9047
  8
AM_0
 10
82.609111252025627
 20
448.57656432047861
 30
0.0
 42
-0.00039706113
  0
VERTEX
  5
9048
  8
AM_0
 10
82.607681252025586
 20
448.88767432047882
 30
0.0
 42
-0.00038765718
  0
VERTEX
  5
9049
  8
AM_0
 10
82.60675125202556
 20
449.19881432047879
 30
0.0
 42
-0.00040613432
  0
VERTEX
  5
904A
  8
AM_0
 10
82.60630125202556
 20
449.50991432047852
 30
0.0
 42
-0.00035573434
  0
VERTEX
  5
904B
  8
AM_0
 10
82.606341252025686
 20
449.82102432047878
 30
0.0
 42
-0.00038545884
  0
VERTEX
  5
904C
  8
AM_0
 10
82.606831252025572
 20
450.13215432047872
 30
0.0
 42
-0.00035501205
  0
VERTEX
  5
904D
  8
AM_0
 10
82.607791252025649
 20
450.44326432047859
 30
0.0
 42
-0.00040120779
  0
VERTEX
  5
904E
  8
AM_0
 10
82.609211252025588
 20
450.75449432047878
 30
0.0
 42
-0.00038317817
  0
VERTEX
  5
904F
  8
AM_0
 10
82.611121252025697
 20
451.06562432047878
 30
0.0
 42
-0.00035656084
  0
VERTEX
  5
9050
  8
AM_0
 10
82.613501252025571
 20
451.37686432047877
 30
0.0
 42
-0.00040143615
  0
VERTEX
  5
9051
  8
AM_0
 10
82.616351252025623
 20
451.68796432047873
 30
0.0
  0
SEQEND
  5
9052
  8
AM_0
  0
ARC
  5
9053
  8
AM_0
 10
81.583391252025621
 20
462.96433432047871
 30
0.0
 40
1.3300049999999981
 50
90.00000299999769
 51
270.0
  0
ARC
  5
9054
  8
AM_0
 10
82.797991252025653
 20
462.95432432047858
 30
0.0
 40
1.000013899999999
 50
89.691659999999231
 51
270.30834000000078
  0
ARC
  5
9055
  8
AM_0
 10
117.9183512520255
 20
432.94431432047878
 30
0.0
 40
1.3300148000000001
 50
269.72941999999853
 51
90.270567000000995
  0
ARC
  5
9056
  8
AM_0
 10
116.69209125202561
 20
432.9543243204788
 30
0.0
 40
1.0000056999999991
 50
269.999989999999
 51
90.00000299999769
  0
ARC
  5
9057
  8
AM_0
 10
117.9803012520255
 20
442.9543243204788
 30
0.0
 40
1.2700266
 50
269.62931999999989
 51
90.370670000004694
  0
ARC
  5
9058
  8
AM_0
 10
116.69209125202561
 20
442.9543243204788
 30
0.0
 40
1.0000056999999991
 50
269.999989999999
 51
90.00000299999769
  0
ARC
  5
9059
  8
AM_0
 10
117.9803012520255
 20
452.96433432047883
 30
0.0
 40
1.2700266
 50
269.62931999999989
 51
90.370670000004694
  0
ARC
  5
905A
  8
AM_0
 10
116.69209125202561
 20
452.9543243204788
 30
0.0
 40
1.0000056999999991
 50
269.999989999999
 51
90.00000299999769
  0
ARC
  5
905B
  8
AM_0
 10
117.9183512520255
 20
462.96933432047871
 30
0.0
 40
1.3350147999999991
 50
269.73042999999973
 51
90.269556000001344
  0
ARC
  5
905C
  8
AM_0
 10
116.69209125202561
 20
462.95432432047858
 30
0.0
 40
1.0000056999999991
 50
269.999989999999
 51
90.00000299999769
  0
LINE
  5
905D
  8
AM_0
 10
167.2533712520254
 20
421.47434432047862
 30
0.0
 11
185.28761125202561
 21
421.47434432047862
 31
0.0
  0
LINE
  5
905E
  8
AM_0
 10
181.5862012520256
 20
421.95432432047852
 30
0.0
 11
167.2533712520254
 21
421.95432432047852
 31
0.0
  0
LINE
  5
905F
  8
AM_0
 10
185.07338125202551
 20
414.5843243204788
 30
0.0
 11
167.23335125202561
 21
414.5843243204788
 31
0.0
  0
LINE
  5
9060
  8
AM_0
 10
168.83245193781059
 20
385.45432432047858
 30
0.0
 11
180.26955125202559
 21
385.45432432047858
 31
0.0
  0
ARC
  5
9061
  8
AM_0
 10
168.83245193781059
 20
383.9543243204788
 30
0.0
 40
1.5
 50
90.0
 51
178.4998650936468
1001
GENIUS_GENODEF_13
1002
{
1000
HIER
1070
     0
1002
}
1002
{
1000
MANEDIT
1070
     0
1002
}
1002
{
1000
NOSEL
1070
     0
1002
}
1002
{
1000
BEHIND
1070
     0
1002
}
1002
{
1000
REACTOR
1002
}
1001
GENIUS_GENOBJ-N-FIL_13
1002
{
1000
OWNER
1000
GEN
1002
}
  0
ARC
  5
9062
  8
AM_0
 10
149.2533712520256
 20
415.4543243204788
 30
0.0
 40
1.5
 50
269.999989999999
 51
0.0000006832495047
  0
ARC
  5
9063
  8
AM_0
 10
149.27339125202559
 20
415.59433432047871
 30
0.0
 40
1.0
 50
269.999989999999
 51
0.0000006832495047
  0
LINE
  5
9064
  8
AM_0
 10
150.27339125202559
 20
420.4543243204788
 30
0.0
 11
150.27339125202559
 21
415.59433432047871
 31
0.0
  0
LINE
  5
9065
  8
AM_0
 10
150.75337125202549
 20
420.4543243204788
 30
0.0
 11
150.75337125202549
 21
415.4543243204788
 31
0.0
  0
CIRCLE
  5
9066
  8
AM_0
 10
155.7533712520254
 20
419.4543243204788
 30
0.0
 40
1.1000000000000001
  0
CIRCLE
  5
9067
  8
AM_0
 10
155.7533712520254
 20
419.4543243204788
 30
0.0
 40
1.149999999999999
  0
ARC
  5
9068
  8
AM_0
 10
149.2533712520256
 20
420.4543243204788
 30
0.0
 40
1.5
 50
0.0
 51
90.00000299999769
  0
ARC
  5
9069
  8
AM_0
 10
149.2533712520256
 20
420.4543243204788
 30
0.0
 40
1.02
 50
0.0
 51
90.00000299999769
  0
ARC
  5
906A
  8
AM_0
 10
167.2533712520254
 20
415.4543243204788
 30
0.0
 40
1.5
 50
179.99998999999889
 51
270.0
  0
ARC
  5
906B
  8
AM_0
 10
167.23335125202561
 20
415.59433432047871
 30
0.0
 40
1.0
 50
179.99998999999889
 51
270.0
  0
CIRCLE
  5
906C
  8
AM_0
 10
160.7533712520256
 20
419.4543243204788
 30
0.0
 40
1.0
  0
LINE
  5
906D
  8
AM_0
 10
165.7533712520256
 20
420.4543243204788
 30
0.0
 11
165.7533712520256
 21
415.4543243204788
 31
0.0
  0
LINE
  5
906E
  8
AM_0
 10
166.23335125202561
 20
420.4543243204788
 30
0.0
 11
166.23335125202561
 21
415.59433432047871
 31
0.0
  0
ARC
  5
906F
  8
AM_0
 10
167.2533712520254
 20
420.4543243204788
 30
0.0
 40
1.5
 50
90.00000299999769
 51
180.00001000000091
  0
ARC
  5
9070
  8
AM_0
 10
167.2533712520254
 20
420.4543243204788
 30
0.0
 40
1.02
 50
90.00000299999769
 51
180.00001000000091
  0
LINE
  5
9071
  8
AM_0
 10
186.45906125202561
 20
408.63538432047881
 30
0.0
 11
182.31331125202561
 21
393.15427432047858
 31
0.0
  0
LINE
  5
9072
  8
AM_0
 10
188.2533712520256
 20
391.9543243204788
 30
0.0
 11
196.2533712520254
 21
391.9543243204788
 31
0.0
  0
LINE
  5
9073
  8
AM_0
 10
188.2533712520256
 20
401.9543243204788
 30
0.0
 11
196.2533712520254
 21
401.9543243204788
 31
0.0
  0
ARC
  5
9074
  8
AM_0
 10
180.3785512520254
 20
393.67905432047883
 30
0.0
 40
2.0047290000000002
 50
270.13832000000423
 51
344.82650000000177
  0
LINE
  5
9075
  8
AM_0
 10
187.2533712520256
 20
394.95429432047882
 30
0.0
 11
181.52757125202561
 21
386.13733432047877
 31
0.0
  0
ARC
  5
9076
  8
AM_0
 10
180.26955125202559
 20
386.9543243204788
 30
0.0
 40
1.5
 50
269.999989999999
 51
326.99999999999801
  0
LINE
  5
9077
  8
AM_0
 10
182.79542125202559
 20
394.9543243204788
 30
0.0
 11
188.2533712520256
 21
394.9543243204788
 31
0.0
  0
LINE
  5
9078
  8
AM_0
 10
188.2533712520256
 20
416.01438432047883
 30
0.0
 11
196.2533712520254
 21
416.01438432047883
 31
0.0
  0
ARC
  5
9079
  8
AM_0
 10
181.59340125202559
 20
412.95432432047858
 30
0.0
 40
1.0
 50
269.999989999999
 51
90.00000299999769
  0
ARC
  5
907A
  8
AM_0
 10
187.9065712520256
 20
408.23154432047858
 30
0.0
 40
1.502775999999999
 50
90.122413000001615
 51
165.2435700000006
  0
ARC
  5
907B
  8
AM_0
 10
185.07338125202551
 20
412.9092743204788
 30
0.0
 40
1.6750020000000001
 50
269.999989999999
 51
90.00000299999769
  0
ARC
  5
907C
  8
AM_0
 10
181.5933412520256
 20
422.9543243204788
 30
0.0
 40
1.0000255999999981
 50
269.58947000000319
 51
90.410530999997775
  0
ARC
  5
907D
  8
AM_0
 10
185.29335125202559
 20
422.92429432047879
 30
0.0
 40
1.460011199999999
 50
269.77524999999662
 51
90.224749999996845
  0
LINE
  5
907E
  8
AM_0
 10
81.713391252025616
 20
471.51438432047883
 30
0.0
 11
185.28761125202561
 21
471.51438432047883
 31
0.0
  0
LINE
  5
907F
  8
AM_0
 10
81.713391252025616
 20
474.44431432047878
 30
0.0
 11
149.2533712520256
 21
474.44431432047878
 31
0.0
  0
LINE
  5
9080
  8
AM_0
 10
81.933361252025605
 20
484.67429432047868
 30
0.0
 11
185.07338125202551
 21
484.67429432047868
 31
0.0
  0
LINE
  5
9081
  8
AM_0
 10
181.5862012520256
 20
471.9543243204788
 30
0.0
 11
82.613361252025697
 21
471.9543243204788
 31
0.0
  0
LINE
  5
9082
  8
AM_0
 10
149.2533712520256
 20
473.9543243204788
 30
0.0
 11
82.613361252025697
 21
473.9543243204788
 31
0.0
  0
LINE
  5
9083
  8
AM_0
 10
181.59340125202559
 20
481.9543243204788
 30
0.0
 11
82.613361252025697
 21
481.9543243204788
 31
0.0
  0
LINE
  5
9084
  8
AM_0
 10
181.59340125202559
 20
483.95432432047858
 30
0.0
 11
82.613361252025697
 21
483.95432432047858
 31
0.0
  0
LINE
  5
9085
  8
AM_0
 10
83.543351252025559
 20
509.84433432047871
 30
0.0
 11
180.38344125202559
 21
509.84433432047871
 31
0.0
  0
LINE
  5
9086
  8
AM_0
 10
83.523391252025604
 20
508.93430432047882
 30
0.0
 11
180.3833812520254
 21
508.93430432047882
 31
0.0
  0
LINE
  5
9087
  8
AM_0
 10
83.503371252025659
 20
507.08432432047857
 30
0.0
 11
180.3833812520254
 21
507.08432432047857
 31
0.0
  0
LINE
  5
9088
  8
AM_0
 10
83.46339125202563
 20
504.23435432047847
 30
0.0
 11
180.3833812520254
 21
504.23435432047847
 31
0.0
  0
LINE
  5
9089
  8
AM_0
 10
81.933361252025605
 20
481.32431432047872
 30
0.0
 11
149.27339125202559
 21
481.32431432047872
 31
0.0
  0
LINE
  5
908A
  8
AM_0
 10
85.613361252025697
 20
484.60431432047852
 30
0.0
 11
80.253371252025659
 21
496.05429432047879
 31
0.0
  0
POLYLINE
  5
908B
  8
AM_0
 66
     1
 10
0.0
 20
0.0
 30
0.0
  0
VERTEX
  5
908C
  8
AM_0
 10
84.114271252025645
 20
474.43735432047879
 30
0.0
 42
-0.00068898288
  0
VERTEX
  5
908D
  8
AM_0
 10
84.185151252025548
 20
475.01210432047878
 30
0.0
 42
-0.00070644354
  0
VERTEX
  5
908E
  8
AM_0
 10
84.257651252025639
 20
475.58679432047882
 30
0.0
 42
-0.00069248071
  0
VERTEX
  5
908F
  8
AM_0
 10
84.33174125202558
 20
476.16110432047873
 30
0.0
 42
-0.00069585665
  0
VERTEX
  5
9090
  8
AM_0
 10
84.407421252025628
 20
476.73524432047878
 30
0.0
 42
-0.00068980191
  0
VERTEX
  5
9091
  8
AM_0
 10
84.484721252025565
 20
477.30924432047851
 30
0.0
 42
-0.00072080104
  0
VERTEX
  5
9092
  8
AM_0
 10
84.563611252025652
 20
477.88303432047871
 30
0.0
 42
-0.00071002307
  0
VERTEX
  5
9093
  8
AM_0
 10
84.644151252025594
 20
478.45650432047859
 30
0.0
 42
-0.00072659056
  0
VERTEX
  5
9094
  8
AM_0
 10
84.726311252025667
 20
479.02960432047882
 30
0.0
 42
-0.00069570481
  0
VERTEX
  5
9095
  8
AM_0
 10
84.810131252025599
 20
479.60263432047878
 30
0.0
 42
-0.00071266935
  0
VERTEX
  5
9096
  8
AM_0
 10
84.895561252025686
 20
480.17540432047878
 30
0.0
 42
-0.00071614426
  0
VERTEX
  5
9097
  8
AM_0
 10
84.9825912520256
 20
480.74774432047872
 30
0.0
 42
-0.00072288975
  0
VERTEX
  5
9098
  8
AM_0
 10
85.071301252025563
 20
481.32004432047881
 30
0.0
  0
SEQEND
  5
9099
  8
AM_0
  0
ARC
  5
909A
  8
AM_0
 10
81.713391252025616
 20
472.97934432047879
 30
0.0
 40
1.465004
 50
90.00000299999769
 51
270.0
  0
ARC
  5
909B
  8
AM_0
 10
82.797991252025653
 20
472.9543243204788
 30
0.0
 40
1.000013899999999
 50
89.691659999999231
 51
270.30834000000078
  0
ARC
  5
909C
  8
AM_0
 10
81.925981252025636
 20
482.99936432047878
 30
0.0
 40
1.6750160000000001
 50
89.746145000004447
 51
270.25387000000092
  0
ARC
  5
909D
  8
AM_0
 10
82.797991252025653
 20
482.9543243204788
 30
0.0
 40
1.000013899999999
 50
89.691659999999231
 51
270.30834000000078
  0
ARC
  5
909E
  8
AM_0
 10
83.452101252025614
 20
502.24021432047851
 30
0.0
 40
1.994108999999999
 50
89.675548000002749
 51
169.18776999999869
  0
LINE
  5
909F
  8
AM_0
 10
80.253371252025659
 20
498.74433432047857
 30
0.0
 11
81.563371252025604
 21
508.12436432047861
 31
0.0
  0
LINE
  5
90A0
  8
AM_0
 10
80.253371252025659
 20
498.74433432047857
 30
0.0
 11
81.543351252025545
 21
507.23429432047868
 31
0.0
  0
LINE
  5
90A1
  8
AM_0
 10
80.253371252025659
 20
497.39435432047878
 30
0.0
 11
81.533341252025579
 21
505.40430432047879
 31
0.0
  0
LINE
  5
90A2
  8
AM_0
 10
80.253371252025659
 20
496.05435432047892
 30
0.0
 11
81.493361252025693
 21
502.61432432047889
 31
0.0
  0
ARC
  5
90A3
  8
AM_0
 10
83.517961252025657
 20
506.93759432047881
 30
0.0
 40
1.9967330000000001
 50
89.843966999998912
 51
171.45387999999721
  0
ARC
  5
90A4
  8
AM_0
 10
83.539871252025577
 20
507.8487343204788
 30
0.0
 40
1.995633
 50
89.899708000002292
 51
172.06112999999959
  0
ARC
  5
90A5
  8
AM_0
 10
83.503621252025582
 20
505.08908432047872
 30
0.0
 40
1.995282999999999
 50
90.006203999996856
 51
170.90835000000069
  0
LINE
  5
90A6
  8
AM_0
 10
167.23335125202561
 20
481.31430432047858
 30
0.0
 11
185.07338125202551
 21
481.31430432047858
 31
0.0
  0
LINE
  5
90A7
  8
AM_0
 10
167.2533712520254
 20
474.44431432047878
 30
0.0
 11
185.2990312520256
 21
474.44431432047878
 31
0.0
  0
LINE
  5
90A8
  8
AM_0
 10
181.60054125202561
 20
473.9543243204788
 30
0.0
 11
167.2533712520254
 21
473.9543243204788
 31
0.0
  0
ARC
  5
90A9
  8
AM_0
 10
149.27339125202559
 20
480.31430432047858
 30
0.0
 40
1.0
 50
0.0
 51
90.00000299999769
  0
ARC
  5
90AA
  8
AM_0
 10
149.2533712520256
 20
480.4543243204788
 30
0.0
 40
1.5
 50
0.0
 51
90.00000299999769
  0
LINE
  5
90AB
  8
AM_0
 10
150.27339125202559
 20
475.45432432047858
 30
0.0
 11
150.27339125202559
 21
480.31430432047858
 31
0.0
  0
LINE
  5
90AC
  8
AM_0
 10
150.75337125202549
 20
475.45432432047858
 30
0.0
 11
150.75337125202549
 21
480.4543243204788
 31
0.0
  0
CIRCLE
  5
90AD
  8
AM_0
 10
155.7533712520254
 20
476.4543243204788
 30
0.0
 40
1.149999999999999
  0
CIRCLE
  5
90AE
  8
AM_0
 10
155.7533712520254
 20
476.4543243204788
 30
0.0
 40
1.1000000000000001
  0
ARC
  5
90AF
  8
AM_0
 10
149.2533712520256
 20
475.45432432047858
 30
0.0
 40
1.02
 50
269.999989999999
 51
0.0000006832429909
  0
ARC
  5
90B0
  8
AM_0
 10
149.2533712520256
 20
475.45432432047858
 30
0.0
 40
1.5
 50
269.999989999999
 51
0.0000006832495047
  0
ARC
  5
90B1
  8
AM_0
 10
167.23335125202561
 20
480.31430432047858
 30
0.0
 40
1.0
 50
90.00000299999769
 51
180.00001000000091
  0
ARC
  5
90B2
  8
AM_0
 10
167.2533712520254
 20
480.4543243204788
 30
0.0
 40
1.5
 50
90.00000299999769
 51
180.00001000000091
  0
CIRCLE
  5
90B3
  8
AM_0
 10
160.7533712520256
 20
476.4543243204788
 30
0.0
 40
1.0
  0
LINE
  5
90B4
  8
AM_0
 10
165.7533712520256
 20
475.45432432047858
 30
0.0
 11
165.7533712520256
 21
480.4543243204788
 31
0.0
  0
LINE
  5
90B5
  8
AM_0
 10
166.23335125202561
 20
475.45432432047858
 30
0.0
 11
166.23335125202561
 21
480.31430432047858
 31
0.0
  0
ARC
  5
90B6
  8
AM_0
 10
167.2533712520254
 20
475.45432432047858
 30
0.0
 40
1.5
 50
179.99998999999889
 51
270.0
  0
ARC
  5
90B7
  8
AM_0
 10
167.2533712520254
 20
475.45432432047858
 30
0.0
 40
1.02
 50
179.99998999999889
 51
270.0
  0
ARC
  5
90B8
  8
AM_0
 10
187.9065712520256
 20
493.28708432047881
 30
0.0
 40
1.502775999999999
 50
194.7564299999992
 51
269.8775799999986
  0
LINE
  5
90B9
  8
AM_0
 10
186.45909125202559
 20
491.97315432047878
 30
0.0
 11
182.3133712520256
 21
507.45426432047873
 31
0.0
  0
LINE
  5
90BA
  8
AM_0
 10
186.45909125202559
 20
490.12317432047882
 30
0.0
 11
182.3133712520256
 21
505.60431432047852
 31
0.0
  0
LINE
  5
90BB
  8
AM_0
 10
186.45338125202551
 20
487.29425432047861
 30
0.0
 11
182.3133712520256
 21
502.75427432047883
 31
0.0
  0
LINE
  5
90BC
  8
AM_0
 10
188.2533712520256
 20
479.89426432047878
 30
0.0
 11
196.2533712520254
 21
479.89426432047878
 31
0.0
  0
ARC
  5
90BD
  8
AM_0
 10
181.5933412520256
 20
472.9543243204788
 30
0.0
 40
1.0000255999999981
 50
269.58947000000319
 51
90.410530999997775
  0
ARC
  5
90BE
  8
AM_0
 10
185.29335125202559
 20
472.98435432047847
 30
0.0
 40
1.460011199999999
 50
269.77524999999662
 51
90.224749999996845
  0
ARC
  5
90BF
  8
AM_0
 10
181.59340125202559
 20
482.9543243204788
 30
0.0
 40
1.0
 50
269.999989999999
 51
90.00000299999769
  0
ARC
  5
90C0
  8
AM_0
 10
187.9065712520256
 20
487.67710432047869
 30
0.0
 40
1.502775999999999
 50
194.7564299999992
 51
269.8775799999986
  0
ARC
  5
90C1
  8
AM_0
 10
185.07338125202551
 20
482.99936432047878
 30
0.0
 40
1.6750020000000001
 50
269.999989999999
 51
90.00000299999769
  0
ARC
  5
90C2
  8
AM_0
 10
187.9065712520256
 20
492.37705432047881
 30
0.0
 40
1.502775999999999
 50
194.7564299999992
 51
269.8775799999986
  0
ARC
  5
90C3
  8
AM_0
 10
187.9065712520256
 20
490.52707432047879
 30
0.0
 40
1.502775999999999
 50
194.7564299999992
 51
269.8775799999986
  0
LINE
  5
90C4
  8
AM_0
 10
188.2533712520256
 20
503.95432432047858
 30
0.0
 11
196.2533712520254
 21
503.95432432047858
 31
0.0
  0
LINE
  5
90C5
  8
AM_0
 10
188.2533712520256
 20
493.9543243204788
 30
0.0
 11
196.2533712520254
 21
493.9543243204788
 31
0.0
  0
ARC
  5
90C6
  8
AM_0
 10
180.38344125202559
 20
502.23606432047859
 30
0.0
 40
1.9982919999999991
 50
15.032547999996
 51
90.002632000001341
  0
LINE
  5
90C7
  8
AM_0
 10
186.4591212520256
 20
492.88315432047881
 30
0.0
 11
182.31340125202561
 21
508.36426432047881
 31
0.0
  0
LINE
  5
90C8
  8
AM_0
 10
182.79335125202559
 20
500.95432432047852
 30
0.0
 11
188.2533712520256
 21
500.95432432047852
 31
0.0
  0
ARC
  5
90C9
  8
AM_0
 10
180.3785512520254
 20
506.92954432047878
 30
0.0
 40
2.0047290000000002
 50
15.173495999996319
 51
89.861678000000197
  0
ARC
  5
90CA
  8
AM_0
 10
180.3785512520254
 20
505.07956432047882
 30
0.0
 40
2.0047290000000002
 50
15.173495999996319
 51
89.861678000000197
  0
ARC
  5
90CB
  8
AM_0
 10
180.3785512520254
 20
507.83957432047879
 30
0.0
 40
2.0047290000000002
 50
15.173495999996319
 51
89.861678000000197
  0
LINE
  5
90E4
  8
ﾁｭｳｼﾝｾﾝ
 10
594.7386323128884
 20
220.79691752373409
 30
0.0
 11
573.5254300323279
 21
242.01012211434821
 31
0.0
  0
ARC
  5
90E5
  8
ﾁｭｳｼﾝｾﾝ
 10
679.59145895956578
 20
135.94412360599779
 30
0.0
 40
135.00000299999991
 50
128.63052648311179
 51
141.36948071941879
  0
LINE
  5
90E6
  8
ﾁｭｳｼﾝｾﾝ
 10
594.73866504182945
 20
51.091296959320232
 30
0.0
 11
573.52546045121517
 21
29.87809467875973
 31
0.0
  0
ARC
  5
90E7
  8
ﾁｭｳｼﾝｾﾝ
 10
679.59145895956556
 20
135.94412360599759
 30
0.0
 40
135.00000299999991
 50
218.63052648311171
 51
231.36948071941879
  0
LINE
  5
90E8
  8
ﾁｭｳｼﾝｾﾝ
 10
764.44428560624328
 20
51.091329688261233
 30
0.0
 11
785.65748788680344
 21
29.87812509764705
 31
0.0
  0
ARC
  5
90E9
  8
ﾁｭｳｼﾝｾﾝ
 10
679.59145895956578
 20
135.9441236059975
 30
0.0
 40
135.00000299999991
 50
308.63052648311168
 51
321.36948071941868
  0
TEXT
  5
9598
  8
0
  6
CONTINUOUS
 62
     0
 10
583.36253624020935
 20
438.75041797039631
 30
0.0
 40
10.0
  1
VX01-800BF~VX01-K20BF
  0
VIEWPORT
  5
89
 67
     1
  8
0
 10
210.0
 20
148.5
 30
0.0
 40
420.0
 41
297.0
 68
    -1
 69
     1
1001
ACAD
1000
MVIEW
1002
{
1070
    16
1010
0.0
1020
0.0
1030
0.0
1010
0.0
1020
0.0
1030
1.0
1040
0.0
1040
297.0
1040
221.70154043645701
1040
148.5
1040
50.0
1040
0.0
1040
0.0
1070
     0
1070
   100
1070
     1
1070
     1
1070
     0
1070
     0
1070
     0
1070
     0
1040
0.0
1040
0.0
1040
0.0
1040
10.0
1040
10.0
1040
10.0
1040
10.0
1070
     0
1002
{
1002
}
1002
}
1001
GENIUS_GENOREF_13
1005
1B94
1001
GENIUS_GENSCREG_15
1000
PF
1040
1.0
1000
DF
1040
1.0
1000
MIN
1011
0.0
1021
0.0
1031
0.0
1021
0.0
1031
0.0
1000
MAX
1011
420.0
1021
0.0
1031
0.0
1021
297.0
1031
0.0
1000
FLAGS
1070
     4
  0
ENDSEC
  0
EOF
