  0
SECTION
  2
HEADER
  9
$ACADVER
  1
AC1009
  9
$INSBASE
 10
0.0
 20
0.0
 30
0.0
  9
$EXTMIN
 10
2.1420253983342259
 20
1.7895553304803109
 30
-0.0000000000112498
  9
$EXTMAX
 10
639.03393881150805
 20
455.99060460992803
 30
0.0000000000002956
  9
$LIMMIN
 10
0.0
 20
0.0
  9
$LIMMAX
 10
408.0
 20
284.0
  9
$ORTHOMODE
 70
     0
  9
$REGENMODE
 70
     1
  9
$FILLMODE
 70
     1
  9
$QTEXTMODE
 70
     0
  9
$MIRRTEXT
 70
     1
  9
$DRAGMODE
 70
     2
  9
$LTSCALE
 40
1.0
  9
$OSMODE
 70
   551
  9
$ATTMODE
 70
     1
  9
$TEXTSIZE
 40
2.5
  9
$TRACEWID
 40
1.0
  9
$TEXTSTYLE
  7
STANDARD
  9
$CLAYER
  8
AM_0
  9
$CELTYPE
  6
BYLAYER
  9
$CECOLOR
 62
   256
  9
$DIMSCALE
 40
1.0
  9
$DIMASZ
 40
2.5
  9
$DIMEXO
 40
1.0
  9
$DIMDLI
 40
7.0
  9
$DIMRND
 40
0.0
  9
$DIMDLE
 40
0.0
  9
$DIMEXE
 40
1.0
  9
$DIMTP
 40
0.1
  9
$DIMTM
 40
0.1000000001
  9
$DIMTXT
 40
2.5
  9
$DIMCEN
 40
0.0
  9
$DIMTSZ
 40
0.0
  9
$DIMTOL
 70
     0
  9
$DIMLIM
 70
     0
  9
$DIMTIH
 70
     0
  9
$DIMTOH
 70
     0
  9
$DIMSE1
 70
     0
  9
$DIMSE2
 70
     0
  9
$DIMTAD
 70
     3
  9
$DIMZIN
 70
     8
  9
$DIMBLK
  1

  9
$DIMASO
 70
     1
  9
$DIMSHO
 70
     1
  9
$DIMPOST
  1

  9
$DIMAPOST
  1
"
  9
$DIMALT
 70
     0
  9
$DIMALTD
 70
     2
  9
$DIMALTF
 40
0.0393701
  9
$DIMLFAC
 40
1.0
  9
$DIMTOFL
 70
     1
  9
$DIMTVP
 40
0.0
  9
$DIMTIX
 70
     0
  9
$DIMSOXD
 70
     0
  9
$DIMSAH
 70
     0
  9
$DIMBLK1
  1

  9
$DIMBLK2
  1

  9
$DIMSTYLE
  2
AM_JIS
  9
$DIMCLRD
 70
   256
  9
$DIMCLRE
 70
   256
  9
$DIMCLRT
 70
     4
  9
$DIMTFAC
 40
0.71
  9
$DIMGAP
 40
1.0
  9
$LUNITS
 70
     2
  9
$LUPREC
 70
     2
  9
$SKETCHINC
 40
1.0
  9
$FILLETRAD
 40
2.5
  9
$AUNITS
 70
     0
  9
$AUPREC
 70
     3
  9
$MENU
  1
.
  9
$ELEVATION
 40
0.0
  9
$PELEVATION
 40
0.0
  9
$THICKNESS
 40
0.0
  9
$LIMCHECK
 70
     0
  9
$BLIPMODE
 70
     0
  9
$CHAMFERA
 40
2.5
  9
$CHAMFERB
 40
2.5
  9
$SKPOLY
 70
     0
  9
$TDCREATE
 40
2453062.4706591782
  9
$TDUPDATE
 40
2458541.3615391441
  9
$TDINDWG
 40
0.0523771412
  9
$TDUSRTIMER
 40
0.0523769444
  9
$USRTIMER
 70
     1
  9
$ANGBASE
 50
0.0
  9
$ANGDIR
 70
     0
  9
$PDMODE
 70
     0
  9
$PDSIZE
 40
0.0
  9
$PLINEWID
 40
0.0
  9
$COORDS
 70
     1
  9
$SPLFRAME
 70
     0
  9
$SPLINETYPE
 70
     6
  9
$SPLINESEGS
 70
     8
  9
$ATTDIA
 70
     1
  9
$ATTREQ
 70
     1
  9
$HANDLING
 70
     1
  9
$HANDSEED
  5
A0B6
  9
$SURFTAB1
 70
     6
  9
$SURFTAB2
 70
     6
  9
$SURFTYPE
 70
     6
  9
$SURFU
 70
     6
  9
$SURFV
 70
     6
  9
$UCSNAME
  2

  9
$UCSORG
 10
0.0
 20
0.0
 30
0.0
  9
$UCSXDIR
 10
1.0
 20
0.0
 30
0.0
  9
$UCSYDIR
 10
0.0
 20
1.0
 30
0.0
  9
$PUCSNAME
  2

  9
$PUCSORG
 10
0.0
 20
0.0
 30
0.0
  9
$PUCSXDIR
 10
1.0
 20
0.0
 30
0.0
  9
$PUCSYDIR
 10
0.0
 20
1.0
 30
0.0
  9
$USERI1
 70
     0
  9
$USERI2
 70
     0
  9
$USERI3
 70
     0
  9
$USERI4
 70
     0
  9
$USERI5
 70
     0
  9
$USERR1
 40
0.0
  9
$USERR2
 40
0.0
  9
$USERR3
 40
0.0
  9
$USERR4
 40
0.0
  9
$USERR5
 40
0.0
  9
$WORLDVIEW
 70
     1
  9
$SHADEDGE
 70
     3
  9
$SHADEDIF
 70
    70
  9
$TILEMODE
 70
     1
  9
$MAXACTVP
 70
    48
  9
$PLIMCHECK
 70
     0
  9
$PEXTMIN
 10
1.0000000000000000E+020
 20
1.0000000000000000E+020
 30
1.0000000000000000E+020
  9
$PEXTMAX
 10
-1.0000000000000000E+020
 20
-1.0000000000000000E+020
 30
-1.0000000000000000E+020
  9
$PLIMMIN
 10
0.0
 20
0.0
  9
$PLIMMAX
 10
420.0
 20
297.0
  9
$UNITMODE
 70
     0
  9
$VISRETAIN
 70
     1
  9
$PLINEGEN
 70
     0
  9
$PSLTSCALE
 70
     1
  0
ENDSEC
  0
SECTION
  2
TABLES
  0
TABLE
  2
VPORT
 70
     1
  0
VPORT
  2
*ACTIVE
 70
     0
 10
0.0
 20
0.0
 11
1.0
 21
1.0
 12
320.58798210492108
 22
228.8900799702042
 13
0.0
 23
0.0
 14
1.0
 24
1.0
 15
10.0
 25
10.0
 16
0.0
 26
0.0
 36
1.0
 17
0.0
 27
0.0
 37
0.0
 40
457.31913428594282
 41
1.7571592210767459
 42
50.0
 43
0.0
 44
0.0
 50
0.0
 51
0.0
 71
     0
 72
   100
 73
     1
 74
     1
 75
     0
 76
     0
 77
     0
 78
     0
  0
ENDTAB
  0
TABLE
  2
LTYPE
 70
    25
  0
LTYPE
  2
CONTINUOUS
 70
     0
  3
Solid line
 72
    65
 73
     0
 40
0.0
  0
LTYPE
  2
PHANTOM2
 70
     0
  3
Phantom (.5x) ___ _ _ ___ _ _ ___ _ _ ___ _ _
 72
    65
 73
     6
 40
31.75
 49
15.875
 49
-3.174999999999998
 49
3.174999999999998
 49
-3.174999999999998
 49
3.174999999999998
 49
-3.174999999999998
  0
LTYPE
  2
CENTER
 70
     0
  3
Center ____ _ ____ _ ____ _ ____ _ ____ _ ____
 72
    65
 73
     4
 40
50.799999999999997
 49
31.75
 49
-6.3499999999999979
 49
6.3499999999999979
 49
-6.3499999999999979
  0
LTYPE
  2
ACANSTGBM
 70
     0
  3
__ . . __ . .
 72
    65
 73
     6
 40
9.0
 49
4.0
 49
-1.0
 49
1.0
 49
-1.0
 49
1.0
 49
-1.0
  0
LTYPE
  2
ACANSTGLM
 70
     0
  3
_ _ _ _ _
 72
    65
 73
     2
 40
3.0
 49
2.0
 49
-1.0
  0
LTYPE
  2
GEN7
 70
     0
  3
____ . ____ . ____ . ____ . ____ . ____ . ____
 72
    65
 73
     4
 40
14.25
 49
9.75
 49
-1.5
 49
1.5
 49
-1.5
  0
LTYPE
  2
AM_ISO02W050
 70
     0
  3
__ __ __ __ __ __ __ __ __ __ __ __ __ __ __
 72
    65
 73
     2
 40
7.5
 49
6.0
 49
-1.5
  0
LTYPE
  2
AM_ISO08W050
 70
     0
  3
____ . ____ . ____ . ____ . ____ . ____ . ____
 72
    65
 73
     4
 40
18.0
 49
12.0
 49
-1.5
 49
3.0
 49
-1.5
  0
LTYPE
  2
AM_ISO09W050
 70
     0
  3
_____ . . _____ . . _____ . . ____ .. ____
 72
    65
 73
     6
 40
22.5
 49
12.0
 49
-1.5
 49
3.0
 49
-1.5
 49
3.0
 49
-1.5
  0
LTYPE
  2
AMCONSTR
 70
     0
  3
_______________________
 72
    65
 73
     2
 40
9999.0
 49
9999.0
 49
0.0
  0
LTYPE
  2
AM_ISO02W050X2
 70
     0
  3
 _ _ _ _ _ _ _ _ _ _ _ _
 72
    65
 73
     2
 40
3.75
 49
3.0
 49
-0.75
  0
LTYPE
  2
AM_ISO08W050X2
 70
     0
  3
__ . __ . __ . __ . __ . __
 72
    65
 73
     4
 40
9.0
 49
6.0
 49
-0.75
 49
1.5
 49
-0.75
  0
LTYPE
  2
AMZIGZAG
 70
     0
  3
/\/-/\/-/\/-/\/-/\/-/\/
 72
    65
 73
     2
 40
11.000099999999991
 49
0.0001
 49
-11.0
  0
LTYPE
  2
ACJISTGB
 70
     0
  3
__ . . __ . .
 72
    65
 73
     6
 40
9.0
 49
4.0
 49
-1.0
 49
1.0
 49
-1.0
 49
1.0
 49
-1.0
  0
LTYPE
  2
ACJISTGL
 70
     0
  3
_ _ _ _ _
 72
    65
 73
     2
 40
3.0
 49
2.0
 49
-1.0
  0
LTYPE
  2
ACISOWELD
 70
     0
  3
_ _ _ _ _
 72
    65
 73
     2
 40
2.0
 49
2.0
 49
-1.0
  0
LTYPE
  2
ACISOTGB
 70
     0
  3
__ . . __ . .
 72
    65
 73
     6
 40
9.0
 49
4.0
 49
-1.0
 49
1.0
 49
-1.0
 49
1.0
 49
-1.0
  0
LTYPE
  2
ACISOTGL
 70
     0
  3
_ _ _ _ _
 72
    65
 73
     2
 40
3.0
 49
2.0
 49
-1.0
  0
LTYPE
  2
HIDDEN
 70
     0
  3
Hidden __ __ __ __ __ __ __ __ __ __ __ __ __ _
 72
    65
 73
     2
 40
0.375
 49
0.25
 49
-0.125
  0
LTYPE
  2
CENTER2
 70
     0
  3
Center (.5x) ___ _ ___ _ ___ _ ___ _ ___ _ ___
 72
    65
 73
     4
 40
1.125
 49
0.75
 49
-0.125
 49
0.125
 49
-0.125
  0
LTYPE
  2
HIDDEN2
 70
     0
  3
Hidden (.5x) _ _ _ _ _ _ _ _ _ _ _ _ _ _ _ _ _
 72
    65
 73
     2
 40
0.1875
 49
0.125
 49
-0.0625
  0
LTYPE
  2
AMZIGZAG2
 70
     0
  3
/\/-/\/-/\/-/\/-/\/-/\/
 72
    65
 73
     2
 40
0.4401
 49
0.0001
 49
-0.4400000000000001
  0
LTYPE
  2
ACANSTGB
 70
     0
  3
__ . . __ . .
 72
    65
 73
     6
 40
0.35433070866
 49
0.15748031496
 49
-0.03937007874
 49
0.03937007874
 49
-0.03937007874
 49
0.03937007874
 49
-0.03937007874
  0
LTYPE
  2
ACANSTGL
 70
     0
  3
_ _ _ _ _
 72
    65
 73
     2
 40
0.11811023622
 49
0.07874015748
 49
-0.03937007874
  0
ENDTAB
  0
TABLE
  2
LAYER
 70
     6
  0
LAYER
  2
0
 70
     0
 62
     7
  6
CONTINUOUS
  0
LAYER
  2
AM_0
 70
     0
 62
     7
  6
CONTINUOUS
  0
LAYER
  2
DEFPOINTS
 70
     0
 62
     7
  6
CONTINUOUS
  0
LAYER
  2
ﾁｭｳｼﾝｾﾝ
 70
     0
 62
     1
  6
GEN7
  0
LAYER
  2
AM_0N
 70
     0
 62
     7
  6
CONTINUOUS
  0
LAYER
  2
AM_5
 70
     0
 62
     2
  6
CONTINUOUS
  0
ENDTAB
  0
TABLE
  2
STYLE
 70
    10
  0
STYLE
  2
STANDARD
 70
     0
 40
0.0
 41
0.8299999999999999
 50
0.0
 71
     0
 42
2.5
  3
txt.shx
  4
bigfont.shx
  0
STYLE
  2
ANNOTATIVE
 70
     0
 40
0.0
 41
1.0
 50
0.0
 71
     0
 42
0.2
  3
txt
  4

  0
STYLE
  2
ACANSTS
 70
     0
 40
1.0
 41
1.0
 50
0.0
 71
     0
 42
2.5
  3
romans.shx
  4
bigfont.shx
  0
STYLE
  2
ACANSGDT
 70
     0
 40
0.0
 41
1.0
 50
0.0
 71
     0
 42
2.5
  3
amgdt.shx
  4

  0
STYLE
  2

 70
     1
 40
0.0
 41
1.0
 50
0.0
 71
     0
 42
2.5
  3
ltypeshp.shx
  4

  0
STYLE
  2
ACJISTS
 70
     0
 40
1.0
 41
0.8299999999999999
 50
0.0
 71
     0
 42
2.5
  3
txt.shx
  4
bigfont.shx
  0
STYLE
  2
ACJISGDT
 70
     0
 40
0.0
 41
1.0
 50
0.0
 71
     0
 42
2.5
  3
amgdt.shx
  4

  0
STYLE
  2
ACISOTS
 70
     0
 40
1.0
 41
1.0
 50
0.0
 71
     0
 42
2.5
  3
isocp.shx
  4
extfont.shx
  0
STYLE
  2
ACISOGDT
 70
     0
 40
0.0
 41
1.0
 50
0.0
 71
     0
 42
2.5
  3
amgdt.shx
  4

  0
STYLE
  2

 70
     1
 40
0.0
 41
1.0
 50
0.0
 71
     0
 42
2.5
  3
genltshp.shx
  4

  0
ENDTAB
  0
TABLE
  2
VIEW
 70
    12
  0
VIEW
  2
GEN1
 70
     0
 40
95.824742268041234
 10
71.5
 20
137.08762886597941
 41
143.0
 11
0.0
 21
0.0
 31
1.0
 12
0.0
 22
0.0
 32
0.0
 42
50.0
 43
0.0
 44
0.0
 50
0.0
 71
     0
  0
VIEW
  2
GEN2
 70
     0
 40
95.824742268041234
 10
214.5
 20
137.08762886597941
 41
143.0
 11
0.0
 21
0.0
 31
1.0
 12
0.0
 22
0.0
 32
0.0
 42
50.0
 43
0.0
 44
0.0
 50
0.0
 71
     0
  0
VIEW
  2
GEN3
 70
     0
 40
95.824742268041234
 10
71.5
 20
47.912371134020603
 41
143.0
 11
0.0
 21
0.0
 31
1.0
 12
0.0
 22
0.0
 32
0.0
 42
50.0
 43
0.0
 44
0.0
 50
0.0
 71
     0
  0
VIEW
  2
GEN4
 70
     0
 40
95.824742268041234
 10
214.5
 20
47.912371134020603
 41
143.0
 11
0.0
 21
0.0
 31
1.0
 12
0.0
 22
0.0
 32
0.0
 42
50.0
 43
0.0
 44
0.0
 50
0.0
 71
     0
  0
VIEW
  2
GEN5
 70
     0
 40
95.824742268041234
 10
143.0
 20
92.500000000000057
 41
143.0
 11
0.0
 21
0.0
 31
1.0
 12
0.0
 22
0.0
 32
0.0
 42
50.0
 43
0.0
 44
0.0
 50
0.0
 71
     0
  0
VIEW
  2
GEN6
 70
     0
 40
191.64756804123709
 10
143.0
 20
92.5
 41
285.99713999999989
 11
0.0
 21
0.0
 31
1.0
 12
0.0
 22
0.0
 32
0.0
 42
50.0
 43
0.0
 44
0.0
 50
0.0
 71
     0
  0
VIEW
  2
AM_VIEW1
 70
     0
 40
142.0
 10
119.7777777777777
 20
213.0
 41
239.55555555555549
 11
0.0
 21
0.0
 31
1.0
 12
0.0
 22
0.0
 32
0.0
 42
50.0
 43
0.0
 44
0.0
 50
0.0
 71
     0
  0
VIEW
  2
AM_VIEW2
 70
     0
 40
142.0
 10
288.22222222222211
 20
213.0
 41
239.55555555555549
 11
0.0
 21
0.0
 31
1.0
 12
0.0
 22
0.0
 32
0.0
 42
50.0
 43
0.0
 44
0.0
 50
0.0
 71
     0
  0
VIEW
  2
AM_VIEW3
 70
     0
 40
142.0
 10
119.7777777777777
 20
71.0
 41
239.55555555555549
 11
0.0
 21
0.0
 31
1.0
 12
0.0
 22
0.0
 32
0.0
 42
50.0
 43
0.0
 44
0.0
 50
0.0
 71
     0
  0
VIEW
  2
AM_VIEW4
 70
     0
 40
142.0
 10
288.22222222222211
 20
71.0
 41
239.55555555555549
 11
0.0
 21
0.0
 31
1.0
 12
0.0
 22
0.0
 32
0.0
 42
50.0
 43
0.0
 44
0.0
 50
0.0
 71
     0
  0
VIEW
  2
AM_VIEW5
 70
     0
 40
142.0
 10
204.0
 20
142.0
 41
239.55555555555549
 11
0.0
 21
0.0
 31
1.0
 12
0.0
 22
0.0
 32
0.0
 42
50.0
 43
0.0
 44
0.0
 50
0.0
 71
     0
  0
VIEW
  2
AM_VIEW6
 70
     0
 40
283.99716000000001
 10
204.0
 20
142.0
 41
479.10631999999993
 11
0.0
 21
0.0
 31
1.0
 12
0.0
 22
0.0
 32
0.0
 42
50.0
 43
0.0
 44
0.0
 50
0.0
 71
     0
  0
ENDTAB
  0
TABLE
  2
UCS
 70
     0
  0
ENDTAB
  0
TABLE
  2
APPID
 70
   106
  0
APPID
  2
ACAD
 70
     0
  0
APPID
  2
ACADANNOTATIVE
 70
     0
  0
APPID
  2
MCAD_NO_VIS
 70
     0
  0
APPID
  2
ACAD_TEMP_GRAPHIC
 70
     0
  0
APPID
  2
AD_DRAW
 70
     0
  0
APPID
  2
DESIGNERASSEMBLIES
 70
     0
  0
APPID
  2
ASURF_PCURVE_APPNAME
 70
     0
  0
APPID
  2
GENIUS_GE3SECT_13
 70
     0
  0
APPID
  2
GENIUS_GENCFG_13
 70
     0
  0
APPID
  2
GENIUS_GE3CFG0_13
 70
     0
  0
APPID
  2
GENIUS_GENCFG0_13
 70
     0
  0
APPID
  2
GENIUS_GENCFG1_13
 70
     0
  0
APPID
  2
GENIUS_GENCFG2_13
 70
     0
  0
APPID
  2
GENIUS_GENCFG3_13
 70
     0
  0
APPID
  2
GENIUS_GENCFG4_13
 70
     0
  0
APPID
  2
GENIUS_GEVCFG0_13
 70
     0
  0
APPID
  2
GENIUS_GENOENT_13
 70
     0
  0
APPID
  2
GENIUS_GENREC_14
 70
     0
  0
APPID
  2
GENIUS_GENODEF_13
 70
     0
  0
APPID
  2
GENIUS_GENOBJ-N-REC_13
 70
     0
  0
APPID
  2
GENIUS_GENHINW_13
 70
     0
  0
APPID
  2
GENIUS_FIRSTVISTXT_14
 70
     0
  0
APPID
  2
GENIUS_GENOBJ-N-LEADER_13
 70
     0
  0
APPID
  2
GENIUS_GENOREF_13
 70
     0
  0
APPID
  2
GENIUS_GENOLIS_13
 70
     0
  0
APPID
  2
GEV_VCCNULL_SWITCH_OFF
 70
     0
  0
APPID
  2
GENIUS_GENDTOL_13
 70
     0
  0
APPID
  2
GENIUS_GEFCFG0_13
 70
     0
  0
APPID
  2
GENIUS_GENOBJ-N-TIT_13
 70
     0
  0
APPID
  2
GENIUS_GENTITLE_13
 70
     0
  0
APPID
  2
GENIUS_GENZVEED_13
 70
     0
  0
APPID
  2
GENIUS_GENOBJ-N-SDF_13
 70
     0
  0
APPID
  2
GENIUS_GENSCREG_13
 70
     0
  0
APPID
  2
GENIUS_DUMCFG0_13
 70
     0
  0
APPID
  2
GEVID936201362
 70
     0
  0
APPID
  2
GEVDC
 70
     0
  0
APPID
  2
GEVCON
 70
     0
  0
APPID
  2
VCC
 70
     0
  0
APPID
  2
GEVPT
 70
     0
  0
APPID
  2
GEVIT
 70
     0
  0
APPID
  2
GENBH
 70
     0
  0
APPID
  2
GEVMK
 70
     0
  0
APPID
  2
GENIUS_GENBH_13
 70
     0
  0
APPID
  2
GENIUS_GENOBJ-NBEHI-BHF_13
 70
     0
  0
APPID
  2
GENIUS_GENOBJ-NBEHI-BHB_13
 70
     0
  0
APPID
  2
GENIUS_GENOBJ-F-DESC_13
 70
     0
  0
APPID
  2
GENIUS_GEFDESC_14
 70
     0
  0
APPID
  2
GENIUS_GENOBJ-F-PART_13
 70
     0
  0
APPID
  2
GENIUS_GEFSTDP_13
 70
     0
  0
APPID
  2
GENIUS_GEFPARTINS_13
 70
     0
  0
APPID
  2
GENIUS_GENTRA_14
 70
     0
  0
APPID
  2
GENIUS_GENINF13_13
 70
     0
  0
APPID
  2
GENIUS_GENOBJ-N-INFOPT_13
 70
     0
  0
APPID
  2
GENIUS_GENOBJ-N-RSSYM_13
 70
     0
  0
APPID
  2
GENIUS_GENSYMENT_13
 70
     0
  0
APPID
  2
GENIUS_GENSCSYM_13
 70
     0
  0
APPID
  2
GENIUS_GEFINFNAM_13
 70
     0
  0
APPID
  2
GENIUS_GENSCREG_15
 70
     0
  0
APPID
  2
GENIUS_GENOBJ-N-CEN_13
 70
     0
  0
APPID
  2
GENIUS_GENOBJ-N-CRS_13
 70
     0
  0
APPID
  2
GENIUS_GENOBJ-N-CRC_13
 70
     0
  0
APPID
  2
GENIUS_GENCRC_14
 70
     0
  0
APPID
  2
GEVID942827039
 70
     0
  0
APPID
  2
GEVID942827040
 70
     0
  0
APPID
  2
GEVID942827041
 70
     0
  0
APPID
  2
GENIUS_GENOBJ-F-SCPASSM_13
 70
     0
  0
APPID
  2
GENIUS_GENDIMSH_14
 70
     0
  0
APPID
  2
GENIUS_GENFIL_13
 70
     0
  0
APPID
  2
GENIUS_GENOBJ-N-CHA_13
 70
     0
  0
APPID
  2
GENIUS_GENOBJ-N-FIL_13
 70
     0
  0
APPID
  2
GEVID942827042
 70
     0
  0
APPID
  2
GEVID946020473
 70
     0
  0
APPID
  2
GEVID946020474
 70
     0
  0
APPID
  2
GEVID946020475
 70
     0
  0
APPID
  2
GENIUS_GENOBJ-N-HTC_13
 70
     0
  0
APPID
  2
GENIUS_GENHATCH_13
 70
     0
  0
APPID
  2
GEVID948854295
 70
     0
  0
APPID
  2
GEVID939402019
 70
     0
  0
APPID
  2
GEVID952919491
 70
     0
  0
APPID
  2
GEVID952919492
 70
     0
  0
APPID
  2
GENIUS_GEFWELD_13
 70
     0
  0
APPID
  2
GENIUS_GENOBJ-F-WELS_13
 70
     0
  0
APPID
  2
GEVID952919493
 70
     0
  0
APPID
  2
GENIUS_GENOBJ-N-RSBK_13
 70
     0
  0
APPID
  2
GENIUS_GENOBJ-N-LIB_13
 70
     0
  0
APPID
  2
GENIUS_GENSCALE_13
 70
     0
  0
APPID
  2
GEVID986376691
 70
     0
  0
APPID
  2
ACATTRIBSERVICES
 70
     0
  0
APPID
  2
ACADM_DIM_EDIT
 70
     0
  0
APPID
  2
AMDT_DM_ADJ
 70
     0
  0
APPID
  2
GEVID1057795304
 70
     0
  0
APPID
  2
GENIUS_GEFSH_13
 70
     0
  0
APPID
  2
GENIUS_GENOBJ-F-SHS_13
 70
     0
  0
APPID
  2
GENIUS_GENOBJ-N-ADDLEAD_13
 70
     0
  0
APPID
  2
GENIUS_GENMAINADDLEADER_14
 70
     0
  0
APPID
  2
GENIUS_GENADDLEADER_14
 70
     0
  0
APPID
  2
GENIUS_GENDREL_13
 70
     0
  0
APPID
  2
GEVID1121934822
 70
     0
  0
APPID
  2
GEVID1121934823
 70
     0
  0
APPID
  2
GEVID1121934824
 70
     0
  0
APPID
  2
ACAD_DSTYLE_DIMJAG
 70
     0
  0
APPID
  2
ACAD_DSTYLE_DIMBREAK
 70
     0
  0
APPID
  2
ACAD_NAV_VCDISPLAY
 70
     0
  0
APPID
  2
ACADANNOPO
 70
     0
  0
APPID
  2
ACAD_EXEMPT_FROM_CAD_STANDARDS
 70
     0
  0
APPID
  2
ACAD_MLEADERVER
 70
     0
  0
ENDTAB
  0
TABLE
  2
DIMSTYLE
 70
    29
  0
DIMSTYLE
  2
STANDARD
 70
     0
  3

  4

  5

  6

  7

 40
1.0
 41
0.18
 42
0.0625
 43
0.38
 44
0.18
 45
0.0
 46
0.0
 47
0.0
 48
0.0
140
0.18
141
0.09
142
0.0
143
25.399999999999999
144
1.0
145
0.0
146
1.0
147
0.09
 71
     0
 72
     0
 73
     1
 74
     1
 75
     0
 76
     0
 77
     0
 78
     0
170
     0
171
     2
172
     0
173
     0
174
     0
175
     0
176
     0
177
     0
178
     0
  0
DIMSTYLE
  2
ANNOTATIVE
 70
     0
  3

  4

  5

  6

  7

 40
1.0
 41
0.18
 42
0.0625
 43
0.38
 44
0.18
 45
0.0
 46
0.0
 47
0.0
 48
0.0
140
0.18
141
0.09
142
0.0
143
25.399999999999999
144
1.0
145
0.0
146
1.0
147
0.09
 71
     0
 72
     0
 73
     1
 74
     1
 75
     0
 76
     0
 77
     0
 78
     0
170
     0
171
     2
172
     0
173
     0
174
     0
175
     0
176
     0
177
     0
178
     0
  0
DIMSTYLE
  2
AM_JIS
 70
     0
  3

  4
"
  5

  6

  7

 40
1.0
 41
2.0
 42
1.0
 43
8.0
 44
1.0
 45
0.0
 46
0.0
 47
0.1
 48
0.1
140
2.5
141
0.0
142
0.0
143
0.0393701
144
1.0
145
0.0
146
0.71
147
1.5
 71
     0
 72
     0
 73
     0
 74
     0
 75
     0
 76
     0
 77
     3
 78
     8
170
     0
171
     2
172
     1
173
     0
174
     0
175
     0
176
   256
177
   256
178
     4
  0
DIMSTYLE
  2
AM_JIS$3
 70
     0
  3

  4
"
  5

  6

  7

 40
1.0
 41
2.0
 42
1.0
 43
10.0
 44
1.0
 45
0.0
 46
0.0
 47
0.1
 48
0.1
140
2.5
141
0.0
142
0.0
143
0.0393701
144
1.0
145
0.0
146
0.71
147
1.5
 71
     0
 72
     0
 73
     0
 74
     1
 75
     0
 76
     0
 77
     3
 78
     8
170
     0
171
     2
172
     0
173
     0
174
     0
175
     0
176
   256
177
   256
178
     4
  0
DIMSTYLE
  2
AM_JIS$4
 70
     0
  3

  4
"
  5

  6

  7

 40
1.0
 41
2.0
 42
1.0
 43
10.0
 44
1.0
 45
0.0
 46
0.0
 47
0.1
 48
0.1
140
2.5
141
0.0
142
0.0
143
0.0393701
144
1.0
145
0.0
146
0.71
147
1.5
 71
     0
 72
     0
 73
     0
 74
     0
 75
     0
 76
     0
 77
     3
 78
     8
170
     0
171
     2
172
     0
173
     0
174
     0
175
     0
176
   256
177
   256
178
     4
  0
DIMSTYLE
  2
AM_JIS$6
 70
     0
  3

  4
"
  5

  6

  7

 40
1.0
 41
2.0
 42
1.0
 43
10.0
 44
1.0
 45
0.0
 46
0.0
 47
0.1
 48
0.1
140
2.5
141
0.0
142
0.0
143
0.0393701
144
1.0
145
0.0
146
0.71
147
1.5
 71
     0
 72
     0
 73
     0
 74
     0
 75
     0
 76
     0
 77
     0
 78
     8
170
     0
171
     2
172
     1
173
     0
174
     0
175
     0
176
   256
177
   256
178
     4
  0
DIMSTYLE
  2
AM_JIS$7
 70
     0
  3

  4
"
  5

  6

  7

 40
1.0
 41
2.0
 42
1.0
 43
10.0
 44
1.0
 45
0.0
 46
0.0
 47
0.1
 48
0.1
140
2.5
141
0.0
142
0.0
143
0.0393701
144
1.0
145
0.0
146
0.71
147
1.5
 71
     0
 72
     0
 73
     0
 74
     0
 75
     0
 76
     0
 77
     3
 78
     8
170
     0
171
     2
172
     1
173
     0
174
     0
175
     0
176
   256
177
   256
178
     4
  0
DIMSTYLE
  2
AM_JIS$SF
 70
     0
  3

  4
"
  5

  6

  7

 40
1.0
 41
2.0
 42
1.0
 43
10.0
 44
1.0
 45
0.0
 46
0.0
 47
0.1
 48
0.1
140
2.5
141
0.0
142
0.0
143
0.0393701
144
1.0
145
0.0
146
0.71
147
1.5
 71
     0
 72
     0
 73
     0
 74
     0
 75
     1
 76
     1
 77
     3
 78
     8
170
     0
171
     2
172
     1
173
     0
174
     0
175
     0
176
   256
177
   256
178
     4
  0
DIMSTYLE
  2
AM_JIS$SH
 70
     0
  3

  4
"
  5

  6

  7

 40
1.0
 41
2.0
 42
1.0
 43
10.0
 44
1.0
 45
0.0
 46
0.0
 47
0.1
 48
0.1
140
2.5
141
0.0
142
0.0
143
0.0393701
144
2.0
145
0.0
146
0.71
147
1.5
 71
     0
 72
     0
 73
     0
 74
     0
 75
     1
 76
     1
 77
     3
 78
     8
170
     0
171
     2
172
     1
173
     1
174
     0
175
     0
176
   256
177
   256
178
     4
  0
DIMSTYLE
  2
AM_ISO
 70
     0
  3

  4
"
  5

  6

  7

 40
1.0
 41
2.5
 42
1.0
 43
10.0
 44
1.0
 45
0.0
 46
0.0
 47
0.1
 48
0.1
140
3.5
141
0.0
142
0.0
143
0.0393701
144
1.0
145
0.0
146
0.71
147
1.5
 71
     0
 72
     0
 73
     0
 74
     0
 75
     0
 76
     0
 77
     1
 78
     8
170
     0
171
     2
172
     1
173
     0
174
     0
175
     0
176
   256
177
   256
178
     2
  0
DIMSTYLE
  2
AM_ISO$3
 70
     0
  3

  4
"
  5

  6

  7

 40
1.0
 41
2.5
 42
1.0
 43
10.0
 44
1.0
 45
0.0
 46
0.0
 47
0.1
 48
0.1
140
3.5
141
0.0
142
0.0
143
0.0393701
144
1.0
145
0.0
146
0.71
147
1.5
 71
     0
 72
     0
 73
     0
 74
     1
 75
     0
 76
     0
 77
     1
 78
     8
170
     0
171
     2
172
     0
173
     0
174
     0
175
     0
176
   256
177
   256
178
     2
  0
DIMSTYLE
  2
AM_ISO$4
 70
     0
  3

  4
"
  5

  6

  7

 40
1.0
 41
2.5
 42
1.0
 43
10.0
 44
1.0
 45
0.0
 46
0.0
 47
0.1
 48
0.1
140
3.5
141
0.0
142
0.0
143
0.0393701
144
1.0
145
0.0
146
0.71
147
1.5
 71
     0
 72
     0
 73
     0
 74
     1
 75
     0
 76
     0
 77
     1
 78
     8
170
     0
171
     2
172
     0
173
     0
174
     0
175
     0
176
   256
177
   256
178
     2
  0
DIMSTYLE
  2
AM_ISO$6
 70
     0
  3

  4
"
  5

  6

  7

 40
1.0
 41
2.5
 42
1.0
 43
10.0
 44
1.0
 45
0.0
 46
0.0
 47
0.1
 48
0.1
140
3.5
141
0.0
142
0.0
143
0.0393701
144
1.0
145
0.0
146
0.71
147
1.5
 71
     0
 72
     0
 73
     0
 74
     0
 75
     0
 76
     0
 77
     0
 78
     8
170
     0
171
     2
172
     1
173
     0
174
     0
175
     0
176
   256
177
   256
178
     2
  0
DIMSTYLE
  2
AM_ISO$7
 70
     0
  3

  4
"
  5

  6

  7

 40
1.0
 41
2.5
 42
1.0
 43
10.0
 44
1.0
 45
0.0
 46
0.0
 47
0.1
 48
0.1
140
5.0
141
0.0
142
0.0
143
0.0393701
144
1.0
145
0.0
146
0.71
147
1.5
 71
     0
 72
     0
 73
     0
 74
     0
 75
     0
 76
     0
 77
     1
 78
     8
170
     0
171
     2
172
     1
173
     0
174
     0
175
     0
176
   256
177
   256
178
     2
  0
DIMSTYLE
  2
AM_ISO$SF
 70
     0
  3

  4
"
  5

  6

  7

 40
1.0
 41
2.5
 42
1.0
 43
10.0
 44
1.0
 45
0.0
 46
0.0
 47
0.1
 48
0.1
140
3.5
141
0.0
142
0.0
143
0.0393701
144
1.0
145
0.0
146
0.71
147
1.5
 71
     0
 72
     0
 73
     0
 74
     0
 75
     1
 76
     1
 77
     1
 78
     8
170
     0
171
     2
172
     1
173
     0
174
     0
175
     0
176
   256
177
   256
178
     2
  0
DIMSTYLE
  2
AM_ISO$SH
 70
     0
  3

  4
"
  5

  6

  7

 40
1.0
 41
2.5
 42
1.0
 43
10.0
 44
1.0
 45
0.0
 46
0.0
 47
0.1
 48
0.1
140
3.5
141
0.0
142
0.0
143
0.0393701
144
2.0
145
0.0
146
0.71
147
1.5
 71
     0
 72
     0
 73
     0
 74
     0
 75
     1
 76
     1
 77
     1
 78
     8
170
     0
171
     2
172
     1
173
     1
174
     0
175
     0
176
   256
177
   256
178
     2
  0
DIMSTYLE
  2
GEN-ANSI
 70
     0
  3

  4
"
  5

  6

  7

 40
1.0
 41
2.0
 42
0.5
 43
10.0
 44
0.5
 45
0.0
 46
0.0
 47
0.1
 48
0.1
140
2.5
141
0.0
142
0.0
143
0.0393701
144
1.0
145
0.0
146
0.71
147
1.5
 71
     0
 72
     0
 73
     1
 74
     1
 75
     0
 76
     0
 77
     0
 78
     8
170
     0
171
     2
172
     0
173
     0
174
     0
175
     0
176
   256
177
   256
178
     4
  0
DIMSTYLE
  2
GEN-ANSI$3
 70
     0
  3

  4
"
  5

  6

  7

 40
1.0
 41
2.0
 42
0.5
 43
10.0
 44
0.5
 45
0.0
 46
0.0
 47
0.1
 48
0.1
140
2.5
141
0.0
142
0.0
143
0.0393701
144
1.0
145
0.0
146
0.71
147
1.5
 71
     0
 72
     0
 73
     1
 74
     1
 75
     0
 76
     0
 77
     0
 78
     8
170
     0
171
     2
172
     0
173
     0
174
     0
175
     0
176
   256
177
   256
178
     4
  0
DIMSTYLE
  2
GEN-ANSI$4
 70
     0
  3

  4
"
  5

  6

  7

 40
1.0
 41
2.0
 42
0.5
 43
10.0
 44
0.5
 45
0.0
 46
0.0
 47
0.1
 48
0.1
140
2.5
141
0.0
142
0.0
143
0.0393701
144
1.0
145
0.0
146
0.71
147
1.5
 71
     0
 72
     0
 73
     1
 74
     1
 75
     0
 76
     0
 77
     0
 78
     8
170
     0
171
     2
172
     0
173
     0
174
     0
175
     0
176
   256
177
   256
178
     4
  0
DIMSTYLE
  2
GEN-ANSI$6
 70
     0
  3

  4
"
  5

  6

  7

 40
1.0
 41
2.0
 42
0.5
 43
10.0
 44
0.5
 45
0.0
 46
0.0
 47
0.1
 48
0.1
140
2.5
141
0.0
142
0.0
143
0.0393701
144
1.0
145
0.0
146
0.71
147
1.5
 71
     0
 72
     0
 73
     1
 74
     1
 75
     0
 76
     0
 77
     0
 78
     8
170
     0
171
     2
172
     0
173
     0
174
     0
175
     0
176
   256
177
   256
178
     4
  0
DIMSTYLE
  2
GEN-ANSI-POS
 70
     0
  3

  4
"
  5

  6

  7

 40
1.0
 41
2.5
 42
0.5
 43
10.0
 44
0.5
 45
0.0
 46
0.0
 47
0.1
 48
0.1
140
5.0
141
0.0
142
0.0
143
0.0393701
144
1.0
145
0.0
146
0.71
147
1.5
 71
     0
 72
     0
 73
     0
 74
     0
 75
     0
 76
     0
 77
     0
 78
     8
170
     0
171
     2
172
     0
173
     0
174
     0
175
     0
176
   256
177
   256
178
     4
  0
DIMSTYLE
  2
GEN-ANSI-AXE-F
 70
     0
  3

  4
"
  5

  6

  7

 40
1.0
 41
2.0
 42
0.5
 43
10.0
 44
0.5
 45
0.0
 46
0.0
 47
0.1
 48
0.1
140
2.5
141
0.0
142
0.0
143
0.0393701
144
1.0
145
0.0
146
0.71
147
1.5
 71
     0
 72
     0
 73
     1
 74
     1
 75
     1
 76
     1
 77
     0
 78
     8
170
     0
171
     2
172
     0
173
     1
174
     0
175
     0
176
   256
177
   256
178
     4
  0
DIMSTYLE
  2
GEN-ANSI-AXE-H
 70
     0
  3

  4
"
  5

  6

  7

 40
1.0
 41
2.0
 42
0.5
 43
10.0
 44
0.5
 45
0.0
 46
0.0
 47
0.1
 48
0.1
140
2.5
141
0.0
142
0.0
143
0.0393701
144
2.0
145
0.0
146
0.71
147
1.5
 71
     0
 72
     0
 73
     0
 74
     0
 75
     1
 76
     1
 77
     0
 78
     8
170
     0
171
     2
172
     1
173
     1
174
     0
175
     0
176
   256
177
   256
178
     4
  0
DIMSTYLE
  2
AM_ANSI
 70
     0
  3

  4
mm
  5

  6

  7

 40
1.0
 41
0.12
 42
0.05
 43
0.5
 44
0.1
 45
0.0
 46
0.0
 47
0.1
 48
0.1
140
0.12
141
0.0
142
0.0
143
25.399999999999999
144
1.0
145
0.0
146
0.71
147
0.06
 71
     0
 72
     0
 73
     1
 74
     1
 75
     0
 76
     0
 77
     0
 78
     7
170
     0
171
     2
172
     0
173
     0
174
     0
175
     0
176
   256
177
   256
178
     2
  0
DIMSTYLE
  2
AM_ANSI$3
 70
     0
  3

  4
mm
  5

  6

  7

 40
1.0
 41
0.12
 42
0.05
 43
0.5
 44
0.1
 45
0.0
 46
0.0
 47
0.1
 48
0.1
140
0.12
141
0.0
142
0.0
143
25.399999999999999
144
1.0
145
0.0
146
0.71
147
0.06
 71
     0
 72
     0
 73
     1
 74
     1
 75
     0
 76
     0
 77
     0
 78
     7
170
     0
171
     2
172
     0
173
     0
174
     0
175
     0
176
   256
177
   256
178
     2
  0
DIMSTYLE
  2
AM_ANSI$4
 70
     0
  3

  4
mm
  5

  6

  7

 40
1.0
 41
0.12
 42
0.05
 43
0.5
 44
0.1
 45
0.0
 46
0.0
 47
0.1
 48
0.1
140
0.12
141
0.0
142
0.0
143
25.399999999999999
144
1.0
145
0.0
146
0.71
147
0.06
 71
     0
 72
     0
 73
     1
 74
     1
 75
     0
 76
     0
 77
     0
 78
     7
170
     0
171
     2
172
     0
173
     0
174
     0
175
     0
176
   256
177
   256
178
     2
  0
DIMSTYLE
  2
AM_ANSI$7
 70
     0
  3

  4
mm
  5

  6

  7

 40
1.0
 41
0.12
 42
0.05
 43
0.5
 44
0.1
 45
0.0
 46
0.0
 47
0.1
 48
0.1
140
0.12
141
0.0
142
0.0
143
25.399999999999999
144
1.0
145
0.0
146
0.71
147
0.06
 71
     0
 72
     0
 73
     1
 74
     1
 75
     0
 76
     0
 77
     0
 78
     7
170
     0
171
     2
172
     0
173
     0
174
     0
175
     0
176
   256
177
   256
178
     2
  0
DIMSTYLE
  2
AM_ANSI$SF
 70
     0
  3

  4
mm
  5

  6

  7

 40
1.0
 41
0.12
 42
0.05
 43
0.5
 44
0.1
 45
0.0
 46
0.0
 47
0.1
 48
0.1
140
0.12
141
0.0
142
0.0
143
25.399999999999999
144
1.0
145
0.0
146
0.71
147
0.06
 71
     0
 72
     0
 73
     1
 74
     1
 75
     1
 76
     1
 77
     0
 78
     7
170
     0
171
     2
172
     0
173
     0
174
     0
175
     0
176
   256
177
   256
178
     2
  0
DIMSTYLE
  2
AM_ANSI$SH
 70
     0
  3

  4
mm
  5

  6
GENAXEH
  7

 40
1.0
 41
0.12
 42
0.05
 43
0.5
 44
0.1
 45
0.0
 46
0.0
 47
0.1
 48
0.1
140
0.12
141
0.0
142
0.0
143
25.399999999999999
144
1.0
145
0.0
146
0.71
147
0.06
 71
     0
 72
     0
 73
     1
 74
     1
 75
     1
 76
     1
 77
     0
 78
     7
170
     0
171
     2
172
     0
173
     1
174
     0
175
     0
176
   256
177
   256
178
     2
  0
ENDTAB
  0
ENDSEC
  0
SECTION
  2
BLOCKS
  0
BLOCK
  8
0
  2
$MODEL_SPACE
 70
     0
 10
0.0
 20
0.0
 30
0.0
  3
$MODEL_SPACE
  1

  0
ENDBLK
  5
9F13
  8
0
  0
BLOCK
 67
     1
  8
0
  2
$PAPER_SPACE
 70
     0
 10
0.0
 20
0.0
 30
0.0
  3
$PAPER_SPACE
  1

  0
ENDBLK
  5
9F0F
 67
     1
  8
0
  0
BLOCK
  8
0
  2
GENAXEH
 70
     0
 10
0.0
 20
0.0
 30
0.0
  3
GENAXEH
  1

  0
LINE
  5
9E5D
  8
0
 10
-1.0
 20
0.0
 30
0.0
 11
1.0
 21
0.0
 31
0.0
  0
ENDBLK
  5
9E5F
  8
0
  0
BLOCK
  8
0
  2
_ACMFILLEDHALF
 70
     0
 10
0.0
 20
0.0
 30
0.0
  3
_ACMFILLEDHALF
  1

  0
TRACE
  5
A020
  8
AM_0
 62
     0
 10
-0.8
 20
0.0
 30
0.0
 11
-1.0
 21
0.166666666
 31
0.0
 12
0.0
 22
0.0
 32
0.0
 13
0.0
 23
0.0
 33
0.0
  0
LINE
  5
A021
  8
AM_0
 62
     0
 10
-1.0
 20
0.0
 30
0.0
 11
-0.8
 21
0.0
 31
0.0
  0
ENDBLK
  5
A01F
  8
0
  0
ENDSEC
  0
SECTION
  2
ENTITIES
  0
POINT
  5
1B94
  8
0
 10
0.0
 20
0.0
 30
0.0
1001
GENIUS_GENODEF_13
1002
{
1000
HIER
1070
     1
1002
}
1002
{
1000
MANEDIT
1070
     0
1002
}
1002
{
1000
NOSEL
1070
     0
1002
}
1002
{
1000
BEHIND
1070
     0
1002
}
1002
{
1000
REACTOR
1002
}
1001
GENIUS_GENOBJ-N-SDF_13
1002
{
1000
OWNER
1000
GEN
1002
}
1001
GENIUS_GENOENT_13
1002
{
1000
MYREF
1005
1B94
1002
}
1002
{
1000
GRP
1005
0
1002
}
1001
GENIUS_GENOLIS_13
1002
{
1000
ENT
1005
89
1002
}
  0
LINE
  5
8C02
  8
AM_0
 10
319.46531935424321
 20
128.33276183901521
 30
0.0
 11
351.46532935424329
 21
128.33276183901521
 31
0.0
  0
LINE
  5
8C03
  8
ﾁｭｳｼﾝｾﾝ
 10
198.1312036640669
 20
111.3327458390162
 30
0.0
 11
356.66899909466542
 21
111.3327458390162
 31
0.0
  0
LINE
  5
8C04
  8
AM_0
 10
309.46532935424318
 20
97.332762839015246
 30
0.0
 11
351.46532935424329
 21
97.332762839015246
 31
0.0
  0
LINE
  5
8C05
  8
AM_0
 10
309.46532935424318
 20
125.3327618390153
 30
0.0
 11
351.46532935424329
 21
125.3327618390153
 31
0.0
  0
ARC
  5
8C06
  8
AM_0
 10
269.63312935424341
 20
134.38278083901531
 30
0.0
 40
24.832211399999991
 50
349.38168000000343
 51
47.544066000004463
  0
LINE
  5
8C07
  8
AM_0
 10
305.46536935424342
 20
111.3327458390162
 30
0.0
 11
305.46536935424342
 21
203.8327598390153
 31
0.0
  0
LINE
  5
8C08
  8
AM_0
 10
299.46536935424342
 20
40.832760839015222
 30
0.0
 11
299.46536935424342
 21
181.5050798390152
 31
0.0
  0
LINE
  5
8C09
  8
AM_0
 10
295.46531935424332
 20
87.422406839015352
 30
0.0
 11
295.46531935424332
 21
162.45797783901509
 31
0.0
  0
LINE
  5
8C0A
  8
AM_0
 10
223.46531935424329
 20
166.9569398390162
 30
0.0
 11
223.46531935424329
 21
144.4668578390162
 31
0.0
  0
LINE
  5
8C0B
  8
AM_0
 10
216.46532935424321
 20
160.99124183901631
 30
0.0
 11
216.46532935424321
 21
9.5530358390153634
 31
0.0
  0
LINE
  5
8C0C
  8
AM_0
 10
207.87365935424339
 20
145.92352283901641
 30
0.0
 11
214.67924935424341
 21
151.63409483901631
 31
0.0
  0
LINE
  5
8C0D
  8
AM_0
 10
230.46539935424329
 20
169.13275283901521
 30
0.0
 11
230.46539935424329
 21
7.132761839015302
 31
0.0
  0
LINE
  5
8C0E
  8
AM_0
 10
309.46532935424318
 20
196.33275983901621
 30
0.0
 11
309.46532935424318
 21
26.33277383901531
 31
0.0
  0
LINE
  5
8C0F
  8
ﾁｭｳｼﾝｾﾝ
 10
9.3047680487495654
 20
88.132764839015394
 30
0.0
 11
214.5401598379587
 21
88.132764839015394
 31
0.0
  0
LINE
  5
8C10
  8
AM_0
 10
178.96538935424331
 20
134.1327518390153
 30
0.0
 11
186.96539935424329
 21
134.1327518390153
 31
0.0
  0
LINE
  5
8C11
  8
AM_0
 10
178.96538935424331
 20
120.0727688390152
 30
0.0
 11
186.96539935424329
 21
120.0727688390152
 31
0.0
  0
LINE
  5
8C12
  8
AM_0
 10
178.96538935424331
 20
144.13275083901519
 30
0.0
 11
186.96539935424329
 21
144.13275083901519
 31
0.0
  0
LINE
  5
8C13
  8
AM_0
 10
178.96538935424331
 20
42.132747839015337
 30
0.0
 11
186.96539935424329
 21
42.132747839015337
 31
0.0
  0
LINE
  5
8C14
  8
AM_0
 10
178.96538935424331
 20
32.132748839015207
 30
0.0
 11
186.96539935424329
 21
32.132748839015207
 31
0.0
  0
LINE
  5
8C15
  8
AM_0
 10
178.96538935424331
 20
56.192760839015349
 30
0.0
 11
186.96539935424329
 21
56.192760839015349
 31
0.0
  0
LINE
  5
8C16
  8
AM_0
 10
305.46536935424342
 20
18.832743839015379
 30
0.0
 11
305.46536935424342
 21
111.3327458390162
 31
0.0
  0
LINE
  5
8C17
  8
AM_0
 10
186.96539935424329
 20
32.132778839015373
 30
0.0
 11
186.96539935424329
 21
144.13278083901619
 31
0.0
  0
LINE
  5
8C18
  8
AM_0
 10
206.55479935424341
 20
56.195751839015202
 30
0.0
 11
206.55479935424341
 21
120.06979283901519
 31
0.0
  0
LINE
  5
8C19
  8
AM_0
 10
223.46531935424329
 20
119.2819808390152
 30
0.0
 11
223.46531935424329
 21
28.588785839015369
 31
0.0
  0
ARC
  5
8C1A
  8
AM_0
 10
255.46697935424339
 20
42.196650839015312
 30
0.0
 40
7.331659199999998
 50
90.00000299999769
 51
270.0
  0
LINE
  5
8C1B
  8
AM_0
 10
230.46539935424329
 20
22.02254783901526
 30
0.0
 11
295.46531935424332
 21
22.02254783901526
 31
0.0
  0
LINE
  5
8C1C
  8
AM_0
 10
230.4653393542435
 20
7.132761839015302
 30
0.0
 11
273.21923935424343
 21
5.6397668390152358
 31
0.0
  0
LINE
  5
8C1D
  8
AM_0
 10
230.4653393542435
 20
7.132761839015302
 30
0.0
 11
218.3955593542434
 21
7.554255839015239
 31
0.0
  0
ARC
  5
8C1E
  8
AM_0
 10
218.46539935424329
 20
9.5530358390153634
 30
0.0
 40
2.00000007
 50
179.99998999999889
 51
268.00001000000532
  0
LINE
  5
8C1F
  8
AM_0
 10
218.46539935424329
 20
26.58878783901627
 30
0.0
 11
221.46539935424241
 21
26.58878783901627
 31
0.0
  0
LINE
  5
8C20
  8
AM_0
 10
206.55479935424341
 20
31.448694839016291
 30
0.0
 11
206.55479935424341
 21
42.132777839015262
 31
0.0
  0
LINE
  5
8C21
  8
AM_0
 10
186.96539935424329
 20
32.132778839015373
 30
0.0
 11
204.83423935424341
 21
31.508784839016471
 31
0.0
  0
LINE
  5
8C22
  8
AM_0
 10
207.87365935424339
 20
30.34203683901524
 30
0.0
 11
214.67924935424341
 21
24.6314498390152
 31
0.0
  0
ARC
  5
8C23
  8
AM_0
 10
218.46539935424329
 20
24.588801839015328
 30
0.0
 40
2.00000007
 50
90.00000299999769
 51
180.00001000000091
  0
ARC
  5
8C24
  8
AM_0
 10
211.46531935424329
 20
20.801235839015359
 30
0.0
 40
5.0000000999999967
 50
0.0
 51
49.999999999997392
  0
ARC
  5
8C25
  8
AM_0
 10
204.6597293542433
 20
26.511822839015391
 30
0.0
 40
5.0000000999999967
 50
49.999999999997392
 51
87.999999999996476
  0
LINE
  5
8C26
  8
AM_0
 10
186.96539935424329
 20
56.195751839015202
 30
0.0
 11
206.55479935424341
 21
56.195751839015202
 31
0.0
  0
LINE
  5
8C27
  8
AM_0
 10
186.96539935424329
 20
42.132777839015262
 30
0.0
 11
212.6091293542413
 21
42.132777839015262
 31
0.0
  0
LINE
  5
8C28
  8
AM_0
 10
206.55479935424341
 20
56.195736839015353
 30
0.0
 11
214.24394935424331
 21
45.28483283901528
 31
0.0
  0
ARC
  5
8C29
  8
AM_0
 10
212.6091293542413
 20
44.132778839016282
 30
0.0
 40
2.00000007
 50
270.0
 51
35.173271000002799
  0
ARC
  5
8C2A
  8
AM_0
 10
221.46539935424241
 20
28.588785839015369
 30
0.0
 40
2.00000007
 50
270.0
 51
0.0
  0
ARC
  5
8C2B
  8
AM_0
 10
298.46531935424241
 20
21.59013083901527
 30
0.0
 40
3.0
 50
179.99998999999889
 51
271.99998999999463
  0
LINE
  5
8C2C
  8
AM_0
 10
273.21926935424239
 20
5.6397668390152358
 30
0.0
 11
295.46534935424341
 21
18.483561839015231
 31
0.0
  0
LINE
  5
8C2D
  8
AM_0
 10
295.46534935424341
 20
18.483546839016292
 30
0.0
 11
305.46539935424317
 21
18.832758839015231
 31
0.0
  0
LINE
  5
8C2E
  8
AM_0
 10
255.4653293542423
 20
34.865001839015349
 30
0.0
 11
295.46531935424332
 21
34.865001839015349
 31
0.0
  0
LINE
  5
8C2F
  8
AM_0
 10
255.4653293542423
 20
49.528302839016291
 30
0.0
 11
295.46531935424332
 21
49.528302839016291
 31
0.0
  0
LINE
  5
8C30
  8
AM_0
 10
255.4653293542423
 20
36.047985839015368
 30
0.0
 11
255.4653293542423
 21
48.367977839017378
 31
0.0
  0
LINE
  5
8C31
  8
AM_0
 10
295.46531935424332
 20
21.59013083901527
 30
0.0
 11
295.46531935424332
 21
56.962125839015243
 31
0.0
  0
ARC
  5
8C32
  8
AM_0
 10
296.46536935424342
 20
40.832760839015222
 30
0.0
 40
3.0
 50
270.0
 51
0.0
  0
LINE
  5
8C33
  8
AM_0
 10
305.46536935424342
 20
26.33277383901531
 30
0.0
 11
309.46532935424318
 21
26.33277383901531
 31
0.0
  0
ARC
  5
8C34
  8
AM_0
 10
298.46531935424241
 20
56.962125839015243
 30
0.0
 40
3.0
 50
90.00000299999769
 51
180.00001000000091
  0
LINE
  5
8C35
  8
AM_0
 10
230.46539935424329
 20
134.38278083901531
 30
0.0
 11
292.41065935424228
 21
134.38278083901531
 31
0.0
  0
LINE
  5
8C36
  8
AM_0
 10
216.46532935424321
 20
114.8048378390162
 30
0.0
 11
221.46539935424241
 21
114.8048378390162
 31
0.0
  0
LINE
  5
8C37
  8
AM_0
 10
218.46539935424329
 20
121.2819668390152
 30
0.0
 11
221.46539935424241
 21
121.2819668390152
 31
0.0
  0
LINE
  5
8C38
  8
AM_0
 10
218.46539935424329
 20
142.46685683901521
 30
0.0
 11
221.46539935424241
 21
142.46685683901521
 31
0.0
  0
LINE
  5
8C39
  8
AM_0
 10
214.24400935424251
 20
130.9806668390153
 30
0.0
 11
206.55479935424341
 21
120.0697778390162
 31
0.0
  0
LINE
  5
8C3A
  8
AM_0
 10
186.96539935424329
 20
120.06979283901519
 30
0.0
 11
206.55479935424341
 21
120.06979283901519
 31
0.0
  0
ARC
  5
8C3B
  8
AM_0
 10
218.46539935424329
 20
123.28197983901531
 30
0.0
 40
2.00000007
 50
179.99998999999889
 51
270.0
  0
LINE
  5
8C3C
  8
AM_0
 10
186.96539935424329
 20
134.1327518390153
 30
0.0
 11
212.6091293542413
 21
134.1327518390153
 31
0.0
  0
LINE
  5
8C3D
  8
AM_0
 10
186.9653393542435
 20
144.13275083901519
 30
0.0
 11
204.83429935424331
 21
144.75674483901511
 31
0.0
  0
LINE
  5
8C3E
  8
AM_0
 10
206.55479935424341
 20
134.1327518390153
 30
0.0
 11
206.55479935424341
 21
144.8168648390153
 31
0.0
  0
ARC
  5
8C3F
  8
AM_0
 10
212.6091293542413
 20
132.13278083901531
 30
0.0
 40
2.00000007
 50
324.82672999999778
 51
90.00000299999769
  0
ARC
  5
8C40
  8
AM_0
 10
204.6597293542433
 20
149.75372183901521
 30
0.0
 40
5.0000000999999967
 50
271.99999999999051
 51
310.00000000000261
  0
ARC
  5
8C41
  8
AM_0
 10
218.46539935424329
 20
140.46682583901509
 30
0.0
 40
2.00000007
 50
90.00000299999769
 51
180.00001000000091
  0
ARC
  5
8C42
  8
AM_0
 10
221.46539935424241
 20
112.80485483901521
 30
0.0
 40
2.00000007
 50
0.0
 51
90.00000299999769
  0
ARC
  5
8C43
  8
AM_0
 10
221.46539935424241
 20
119.2819808390152
 30
0.0
 40
2.00000007
 50
0.0
 51
90.00000299999769
  0
ARC
  5
8C44
  8
AM_0
 10
221.46539935424241
 20
144.4668578390162
 30
0.0
 40
2.00000007
 50
270.0
 51
0.0
  0
ARC
  5
8C45
  8
AM_0
 10
314.1106193542434
 20
102.1005218390173
 30
0.0
 40
24.832211399999991
 50
169.3816800000034
 51
218.7932099999922
  0
ARC
  5
8C46
  8
AM_0
 10
297.09434935424332
 20
88.422405839015255
 30
0.0
 40
3.0
 50
218.7932199999963
 51
270.0
  0
LINE
  5
8C47
  8
AM_0
 10
297.09434935424332
 20
85.422405839015241
 30
0.0
 11
299.46536935424342
 21
85.422405839015241
 31
0.0
  0
LINE
  5
8C48
  8
AM_0
 10
294.04010935424338
 20
129.8070518390152
 30
0.0
 11
289.70363935424348
 21
106.67626883901529
 31
0.0
  0
LINE
  5
8C49
  8
AM_0
 10
319.46531935424321
 20
128.33276183901521
 30
0.0
 11
319.46531935424321
 21
125.3327618390153
 31
0.0
  0
LINE
  5
8C4A
  8
AM_0
 10
230.46539935424329
 20
169.13275283901521
 30
0.0
 11
265.86167935424231
 21
170.36880383901519
 31
0.0
  0
LINE
  5
8C4B
  8
AM_0
 10
219.36065935424239
 20
163.98941183901519
 30
0.0
 11
220.57007935424349
 21
164.03164583901511
 31
0.0
  0
ARC
  5
8C4C
  8
AM_0
 10
211.46531935424329
 20
155.46429383901511
 30
0.0
 40
5.0000000999999967
 50
310.00000000000261
 51
0.0
  0
ARC
  5
8C4D
  8
AM_0
 10
219.4653293542423
 20
160.99124183901631
 30
0.0
 40
3.0
 50
91.999997999994264
 51
180.00001000000091
  0
LINE
  5
8C4E
  8
AM_0
 10
225.3955793542425
 20
168.95571983901519
 30
0.0
 11
230.46539935424329
 21
169.13275283901521
 31
0.0
  0
ARC
  5
8C4F
  8
AM_0
 10
220.46531935424241
 20
167.02984583901511
 30
0.0
 40
3.0
 50
271.99999999999051
 51
0.0
  0
ARC
  5
8C50
  8
AM_0
 10
225.4653293542423
 20
166.9569398390162
 30
0.0
 40
2.00000007
 50
91.999997999994264
 51
180.00001000000091
  0
LINE
  5
8C51
  8
AM_0
 10
223.46531935424329
 20
166.9569398390162
 30
0.0
 11
223.46531935424329
 21
167.02984583901511
 31
0.0
  0
LINE
  5
8C52
  8
AM_0
 10
295.46531935424332
 20
162.45797783901509
 30
0.0
 11
295.46531935424332
 21
201.5521598390153
 31
0.0
  0
LINE
  5
8C53
  8
AM_0
 10
267.87830935424239
 20
171.24566783901531
 30
0.0
 11
295.46534935424341
 21
198.8327198390152
 31
0.0
  0
ARC
  5
8C54
  8
AM_0
 10
265.75694935424337
 20
173.3670038390153
 30
0.0
 40
3.0
 50
271.99999999999051
 51
315.0
  0
LINE
  5
8C55
  8
AM_0
 10
267.04268935424238
 20
170.41003583901531
 30
0.0
 11
286.3954193542433
 21
152.70388883901509
 31
0.0
  0
LINE
  5
8C56
  8
AM_0
 10
286.39544935424141
 20
152.7038558390152
 30
0.0
 11
286.39544935424141
 21
152.7038558390152
 31
0.0
  0
ARC
  5
8C57
  8
AM_0
 10
298.46531935424241
 20
162.45797783901509
 30
0.0
 40
3.0
 50
179.99998999999889
 51
270.0
  0
ARC
  5
8C58
  8
AM_0
 10
296.46536935424342
 20
181.5050798390152
 30
0.0
 40
3.0
 50
0.0
 51
91.999997999994264
  0
LINE
  5
8C59
  8
AM_0
 10
297.39557935424341
 20
203.5509398390152
 30
0.0
 11
305.46536935424342
 21
203.83272983901509
 31
0.0
  0
ARC
  5
8C5A
  8
AM_0
 10
297.46532935424148
 20
201.5521598390153
 30
0.0
 40
2.00000007
 50
91.999997999994264
 51
180.00001000000091
  0
LINE
  5
8C5B
  8
AM_0
 10
305.46536935424342
 20
196.33275983901621
 30
0.0
 11
309.46532935424318
 21
196.33275983901621
 31
0.0
  0
LINE
  5
8C5E
  8
AM_0
 10
351.46532935424329
 20
128.33276183901521
 30
0.0
 11
351.46532935424329
 21
97.332762839015246
 31
0.0
  0
CIRCLE
  5
8C61
  8
AM_0
 10
532.61306550898632
 20
111.3327458390162
 30
0.0
 40
85.000001999999981
  0
ARC
  5
8C62
  8
AM_0
 10
532.61306550898632
 20
88.132764839015394
 30
0.0
 40
81.000003000000035
 50
24.588775000004379
 51
54.525830000004298
  0
CIRCLE
  5
8C63
  8
AM_0
 10
532.61306550898632
 20
111.3327458390162
 30
0.0
 40
80.000000999999983
  0
ARC
  5
8C64
  8
AM_0
 10
532.61306550898632
 20
111.3327458390162
 30
0.0
 40
39.000011999999998
 50
53.213207999994808
 51
126.78678999999759
  0
ARC
  5
8C65
  8
AM_0
 10
532.61306550898632
 20
88.132764839015394
 30
0.0
 40
81.000003000000035
 50
125.47416999999569
 51
155.41122999999669
  0
LINE
  5
8C66
  8
AM_0
 10
559.88560350898706
 20
142.84799183901521
 30
0.0
 11
584.77340550898805
 21
167.73577883901521
 31
0.0
  0
LINE
  5
8C67
  8
AM_0
 10
564.12824850898801
 20
138.60534683901639
 30
0.0
 11
589.01603550898813
 21
163.4931338390154
 31
0.0
  0
LINE
  5
8C68
  8
ﾁｭｳｼﾝｾﾝ
 10
532.61306550898632
 20
1.7980388390153641
 30
0.0
 11
532.61306550898632
 21
208.51497635534091
 31
0.0
  0
LINE
  5
8C69
  8
AM_0
 10
501.09786750898701
 20
138.60531683901621
 30
0.0
 11
476.21011050898801
 21
163.4930738390153
 31
0.0
  0
LINE
  5
8C6A
  8
AM_0
 10
505.34049750898822
 20
142.8479618390154
 30
0.0
 11
480.4527405089861
 21
167.73571883901619
 31
0.0
  0
LINE
  5
8C6B
  8
AM_0
 10
625.11307650898812
 20
141.3327638390162
 30
0.0
 11
622.70755050898811
 21
187.23282983901521
 31
0.0
  0
LINE
  5
8C6C
  8
AM_0
 10
440.1130785089872
 20
141.3327638390162
 30
0.0
 11
442.51859550898712
 21
187.23285983901511
 31
0.0
  0
ARC
  5
8C6D
  8
AM_0
 10
574.36305150898716
 20
15.819651839015251
 30
0.0
 40
8.0000000999999976
 50
216.73874000000669
 51
23.261257999995632
  0
ARC
  5
8C6E
  8
AM_0
 10
532.61306550898632
 20
111.3327458390162
 30
0.0
 40
39.000011999999998
 50
0.0
 51
36.786791000006609
  0
LINE
  5
8C6F
  8
ﾁｭｳｼﾝｾﾝ
 10
435.75926137777799
 20
111.3327458390162
 30
0.0
 11
629.4668696401942
 21
111.3327458390162
 31
0.0
  0
LINE
  5
8C70
  8
AM_0
 10
562.61306550898792
 20
18.832743839015379
 30
0.0
 11
608.51315250898597
 21
21.23827583901539
 31
0.0
  0
LINE
  5
8C71
  8
AM_0
 10
440.11304850898688
 20
81.332745839015374
 30
0.0
 11
442.51856550898799
 21
35.432673839015251
 31
0.0
  0
ARC
  5
8C72
  8
AM_0
 10
501.28089450898699
 20
8.0434688390164411
 30
0.0
 40
5.0000000999999967
 50
68.633797999995252
 51
143.2612599999932
  0
LINE
  5
8C73
  8
AM_0
 10
502.6130805089872
 20
18.832758839015231
 30
0.0
 11
456.71299350898801
 21
21.23827583901539
 31
0.0
  0
ARC
  5
8C74
  8
AM_0
 10
457.49802750898709
 20
36.217722839015323
 30
0.0
 40
15.000000299999989
 50
183.00000999999341
 51
266.9999999999946
  0
ARC
  5
8C75
  8
AM_0
 10
457.49802750898709
 20
36.217722839015323
 30
0.0
 40
15.000000299999989
 50
183.00000999999341
 51
266.9999999999946
  0
ARC
  5
8C76
  8
AM_0
 10
490.86306450898797
 20
15.819651839015251
 30
0.0
 40
8.0000000999999976
 50
156.7387399999954
 51
323.26126999999951
  0
CIRCLE
  5
8C77
  8
AM_0
 10
456.599071508988
 20
35.318781839015401
 30
0.0
 40
6.0000002999999991
  0
ARC
  5
8C7A
  8
AM_0
 10
532.61306550898632
 20
88.132764839015394
 30
0.0
 40
81.000003000000035
 50
270.0
 51
291.36619999999698
  0
LINE
  5
8C7B
  8
AM_0
 10
532.61306550898632
 20
18.832758839015231
 30
0.0
 11
562.61308050898788
 21
18.832758839015231
 31
0.0
  0
ARC
  5
8C7C
  8
AM_0
 10
532.61306550898632
 20
88.132764839015394
 30
0.0
 40
81.000003000000035
 50
248.63380000000279
 51
270.0
  0
LINE
  5
8C7D
  8
AM_0
 10
532.61306550898632
 20
18.832758839015231
 30
0.0
 11
502.61306550898797
 21
18.832758839015231
 31
0.0
  0
ARC
  5
8C7E
  8
AM_0
 10
563.94523350898805
 20
8.0434688390164411
 30
0.0
 40
5.0000000999999967
 50
36.738737000001208
 51
111.3662099999938
  0
ARC
  5
8C7F
  8
AM_0
 10
498.97654350898711
 20
136.48400783901519
 30
0.0
 40
3.0
 50
323.21321000000228
 51
45.000000999994569
  0
ARC
  5
8C80
  8
AM_0
 10
532.61306550898632
 20
111.3327458390162
 30
0.0
 40
74.400002999999998
 50
171.8834500000049
 51
184.94542000000189
  0
LINE
  5
8C81
  8
AM_0
 10
493.61303250898789
 20
111.3327458390162
 30
0.0
 11
493.61303250898789
 21
88.132764839015394
 31
0.0
  0
LINE
  5
8C82
  8
AM_0
 10
457.74811950898709
 20
83.132763839015297
 30
0.0
 11
488.61304950898699
 21
83.132763839015297
 31
0.0
  0
ARC
  5
8C83
  8
AM_0
 10
532.61306550898632
 20
88.132764839015394
 30
0.0
 40
76.000001999999981
 50
167.23979999999921
 51
181.3935400000023
  0
ARC
  5
8C84
  8
AM_0
 10
488.61304950898699
 20
88.132764839015394
 30
0.0
 40
5.0000000999999967
 50
270.0
 51
0.0
  0
LINE
  5
8C85
  8
AM_0
 10
440.11304850898688
 20
81.332745839009249
 30
0.0
 11
440.11304850898688
 21
141.33273383901511
 31
0.0
  0
ARC
  5
8C86
  8
AM_0
 10
532.61306550898632
 20
111.3327458390162
 30
0.0
 40
39.000011999999998
 50
143.21321000000231
 51
180.00001000000091
  0
CIRCLE
  5
8C87
  8
AM_0
 10
532.61306550898632
 20
111.33277883901521
 30
0.0
 40
29.000001000000001
  0
ARC
  5
8C88
  8
AM_0
 10
532.61306550898632
 20
111.3327458390162
 30
0.0
 40
14.000001299999999
 50
106.601539999997
 51
73.398452000004042
  0
CIRCLE
  5
8C89
  8
AM_0
 10
532.61306550898632
 20
111.3327458390162
 30
0.0
 40
3.0
  0
CIRCLE
  5
8C8A
  8
AM_5
 10
532.61306550898632
 20
111.3327458390162
 30
0.0
 40
4.000000199999997
  0
LINE
  5
8C8B
  8
AM_0
 10
528.613048508985
 20
121.3327628390152
 30
0.0
 11
536.61304950898807
 21
121.3327628390152
 31
0.0
  0
LINE
  5
8C8C
  8
AM_0
 10
528.613048508985
 20
128.33276183901521
 30
0.0
 11
536.61304950898807
 21
128.33276183901521
 31
0.0
  0
LINE
  5
8C8D
  8
AM_0
 10
528.613048508985
 20
121.3327628390152
 30
0.0
 11
528.613048508985
 21
128.33276183901521
 31
0.0
  0
ARC
  5
8C8F
  8
AM_0
 10
507.46180350898823
 20
144.96929783901641
 30
0.0
 40
3.0
 50
225.0
 51
306.78678999999761
  0
LINE
  5
8C90
  8
AM_0
 10
536.61304950898807
 20
121.3327628390152
 30
0.0
 11
536.61304950898807
 21
128.33276183901521
 31
0.0
  0
ARC
  5
8C91
  8
AM_0
 10
566.24960250898812
 20
136.48400783901519
 30
0.0
 40
3.0
 50
135.0
 51
216.78678999999761
  0
ARC
  5
8C92
  8
AM_0
 10
557.76432750898789
 20
144.96929783901641
 30
0.0
 40
3.0
 50
233.21321000000231
 51
315.0
  0
LINE
  5
8C93
  8
AM_0
 10
625.11307650898812
 20
81.332760839015236
 30
0.0
 11
622.70755650898798
 21
35.432673839015251
 31
0.0
  0
ARC
  5
8C94
  8
AM_0
 10
607.72809450898808
 20
36.217722839015323
 30
0.0
 40
15.000000299999989
 50
273.0000000000054
 51
356.9999999999946
  0
ARC
  5
8C95
  8
AM_0
 10
607.72809450898808
 20
36.217722839015323
 30
0.0
 40
15.000000299999989
 50
273.0000000000054
 51
356.9999999999946
  0
CIRCLE
  5
8C97
  8
AM_0
 10
608.6270445089873
 20
35.318781839015401
 30
0.0
 40
6.0000002999999991
  0
ARC
  5
8C99
  8
AM_0
 10
532.61306550898632
 20
111.3327458390162
 30
0.0
 40
74.400002999999998
 50
355.054579999998
 51
8.116549400005665
  0
LINE
  5
8C9A
  8
AM_0
 10
571.61308050898811
 20
111.3327458390162
 30
0.0
 11
571.61308050898811
 21
88.132764839015394
 31
0.0
  0
LINE
  5
8C9B
  8
AM_0
 10
625.11306750898802
 20
111.3327458390162
 30
0.0
 11
625.11306750898802
 21
81.332745839015374
 31
0.0
  0
LINE
  5
8C9C
  8
AM_0
 10
607.47801150898795
 20
83.132763839015297
 30
0.0
 11
576.61308150898606
 21
83.132763839015297
 31
0.0
  0
ARC
  5
8C9D
  8
AM_0
 10
576.61308150898606
 20
88.132764839015394
 30
0.0
 40
5.0000000999999967
 50
179.99998999999889
 51
270.0
  0
ARC
  5
8C9E
  8
AM_0
 10
532.61306550898632
 20
88.132764839015394
 30
0.0
 40
76.000001999999981
 50
358.60644999999602
 51
12.76020199999623
  0
LINE
  5
8C9F
  8
AM_0
 10
625.11306750898802
 20
111.3327458390162
 30
0.0
 11
625.11306750898802
 21
141.33273383901511
 31
0.0
  0
ARC
  5
8CA0
  8
AM_0
 10
532.61306550898632
 20
88.132764839015394
 30
0.0
 40
81.000003000000035
 50
58.8609450000028
 51
86.245802999997153
  0
LINE
  5
8CA1
  8
AM_0
 10
562.61308050898788
 20
203.8327598390153
 30
0.0
 11
608.51315250898597
 21
201.4272398390153
 31
0.0
  0
LINE
  5
8CA2
  8
AM_0
 10
502.6130805089872
 20
203.8327598390153
 30
0.0
 11
456.71299350898801
 21
201.4272398390153
 31
0.0
  0
ARC
  5
8CA3
  8
AM_0
 10
457.49802750898709
 20
186.4477898390152
 30
0.0
 40
15.000000299999989
 50
92.999998999995157
 51
176.99999000000639
  0
CIRCLE
  5
8CA5
  8
AM_0
 10
456.599071508988
 20
187.34673983901729
 30
0.0
 40
6.0000002999999991
  0
ARC
  5
8CA6
  8
AM_0
 10
457.49802750898709
 20
186.4477898390152
 30
0.0
 40
15.000000299999989
 50
92.999998999995157
 51
176.99999000000639
  0
ARC
  5
8CA8
  8
AM_0
 10
482.57401650898811
 20
169.85708783901521
 30
0.0
 40
3.0
 50
130.53086000000161
 51
225.0
  0
ARC
  5
8CA9
  8
AM_0
 10
474.08875650898722
 20
161.37179483901531
 30
0.0
 40
3.0
 50
45.000000999994569
 51
139.4691399999983
  0
ARC
  5
8CAA
  8
AM_0
 10
538.11306450898815
 20
182.52060983901521
 30
0.0
 40
3.0
 50
85.582086000002562
 51
180.00001000000091
  0
ARC
  5
8CAB
  8
AM_0
 10
538.11306450898815
 20
171.95251583901631
 30
0.0
 40
3.0
 50
180.00001000000091
 51
266.24579999999742
  0
ARC
  5
8CAC
  8
AM_0
 10
527.11304850898705
 20
171.95251583901631
 30
0.0
 40
3.0
 50
273.75420000000253
 51
0.0
  0
ARC
  5
8CAD
  8
AM_0
 10
532.61306550898632
 20
88.13270483901735
 30
0.0
 40
81.000003000000035
 50
93.754195000007357
 51
121.1390260567055
  0
LINE
  5
8CAE
  8
AM_0
 10
530.11304850898603
 20
171.95251583901631
 30
0.0
 11
530.11304850898603
 21
182.52060983901521
 31
0.0
  0
ARC
  5
8CAF
  8
AM_0
 10
527.11304850898705
 20
182.52060983901521
 30
0.0
 40
3.0
 50
0.0
 51
94.417919000003351
  0
LINE
  5
8CB0
  8
AM_0
 10
535.11306450898815
 20
171.95251583901631
 30
0.0
 11
535.11306450898815
 21
182.52060983901521
 31
0.0
  0
LINE
  5
8CB1
  8
AM_0
 10
532.61306550898632
 20
203.8327598390153
 30
0.0
 11
562.61308050898788
 21
203.8327598390153
 31
0.0
  0
LINE
  5
8CB2
  8
AM_0
 10
532.61306550898632
 20
203.8327598390153
 30
0.0
 11
502.61306550898797
 21
203.8327598390153
 31
0.0
  0
CIRCLE
  5
8CB3
  8
AM_0
 10
608.6270445089873
 20
187.34673983901729
 30
0.0
 40
6.0000002999999991
  0
ARC
  5
8CB4
  8
ﾁｭｳｼﾝｾﾝ
 10
532.61306550898632
 20
111.3327458390162
 30
0.0
 40
107.50001099999869
 50
38.600872987747699
 51
51.399138318549177
  0
ARC
  5
8CB5
  8
AM_0
 10
607.72809450898808
 20
186.4477898390152
 30
0.0
 40
15.000000299999989
 50
3.0000000999988461
 51
86.999998999996649
  0
ARC
  5
8CB6
  8
AM_0
 10
607.72809450898808
 20
186.4477898390152
 30
0.0
 40
15.000000299999989
 50
3.0000000999988461
 51
86.999998999996649
  0
LINE
  5
8CB7
  8
ﾁｭｳｼﾝｾﾝ
 10
600.1417482104041
 20
178.86147338914941
 30
0.0
 11
617.11231228751421
 21
195.83203480894559
 31
0.0
  0
ARC
  5
8CB8
  8
AM_0
 10
582.65209950898804
 20
169.85708783901521
 30
0.0
 40
3.0
 50
315.0
 51
49.469136999994006
  0
ARC
  5
8CB9
  8
AM_0
 10
591.13738950898778
 20
161.37179483901531
 30
0.0
 40
3.0
 50
40.530864999996624
 51
135.0
  0
ARC
  5
8CBB
  8
AM_0
 10
72.289199354243451
 20
103.1427758390152
 30
0.0
 40
1.335016049999999
 50
89.732355000008525
 51
270.26762999999562
  0
LINE
  5
8CBC
  8
ﾁｭｳｼﾝｾﾝ
 10
127.9653893542424
 20
128.75777933901591
 30
0.0
 11
127.9653893542424
 21
47.507750339014819
 31
0.0
  0
LINE
  5
8CBD
  8
AM_0
 10
168.73541935424231
 20
118.12776083901529
 30
0.0
 11
168.73541935424231
 21
58.12775783901521
 31
0.0
  0
LINE
  5
8CBE
  8
AM_0
 10
70.965389354242447
 20
141.12774983901511
 30
0.0
 11
70.965389354242447
 21
38.687769839015338
 31
0.0
  0
LINE
  5
8CBF
  8
AM_0
 10
178.96541935424321
 20
144.1327598390173
 30
0.0
 11
178.96541935424321
 21
32.132748839015207
 31
0.0
  0
LINE
  5
8CC1
  8
AM_0
 10
172.20545391025641
 20
52.132764839015408
 30
0.0
 11
73.607893511164548
 21
52.132764839015408
 31
0.0
  0
LINE
  5
8CC2
  8
AM_0
 10
127.9653893542424
 20
51.407757839015389
 30
0.0
 11
175.7854193542434
 21
51.407757839015389
 31
0.0
  0
LINE
  5
8CC3
  8
AM_0
 10
74.165399354242481
 20
31.847742839015378
 30
0.0
 11
171.08540935424341
 21
31.847742839015378
 31
0.0
  0
LINE
  5
8CC4
  8
AM_0
 10
96.465389354243385
 20
49.907757839016313
 30
0.0
 11
178.96541935424321
 21
49.907757839016313
 31
0.0
  0
ARC
  5
8CC5
  8
AM_0
 10
278.01658256149648
 20
89.820338778938293
 30
0.0
 40
204.69842337270771
 50
178.02572260412751
 51
178.71785518950381
  0
ARC
  5
8CC6
  8
AM_0
 10
277.93933067333342
 20
86.440794912989304
 30
0.0
 40
204.6212004872653
 50
181.2834998158383
 51
181.97561674815381
  0
ARC
  5
8CC7
  8
AM_0
 10
73.507649354240584
 20
53.127759839015198
 30
0.0
 40
1.0000319699999971
 50
89.552707000007004
 51
270.44730000000112
  0
ARC
  5
8CC8
  8
AM_0
 10
73.507649354240584
 20
103.12776083901529
 30
0.0
 40
1.0000319699999971
 50
89.552707000007004
 51
270.44730000000112
  0
ARC
  5
8CC9
  8
AM_0
 10
73.507649354240584
 20
93.127758839017346
 30
0.0
 40
1.0000319699999971
 50
89.552707000007004
 51
270.44730000000112
  0
ARC
  5
8CCA
  8
AM_0
 10
73.507649354240584
 20
83.127759839015226
 30
0.0
 40
1.0000319699999971
 50
89.552707000007004
 51
270.44730000000112
  0
ARC
  5
8CCB
  8
AM_0
 10
73.507649354240584
 20
73.127757839015203
 30
0.0
 40
1.0000319699999971
 50
89.552707000007004
 51
270.44730000000112
  0
ARC
  5
8CCC
  8
AM_0
 10
73.507649354240584
 20
63.127743839015238
 30
0.0
 40
1.0000319699999971
 50
89.552707000007004
 51
270.44730000000112
  0
ARC
  5
8CCD
  8
AM_0
 10
72.227189354242455
 20
93.137739839015239
 30
0.0
 40
1.270028039999999
 50
89.627211000000742
 51
270.37279000000228
  0
ARC
  5
8CCE
  8
AM_0
 10
72.227189354242455
 20
83.127759839015226
 30
0.0
 40
1.270028039999999
 50
89.627211000000742
 51
270.37279000000228
  0
ARC
  5
8CCF
  8
AM_0
 10
72.289199354243451
 20
73.117749839015232
 30
0.0
 40
1.3300160699999981
 50
89.731344000004384
 51
270.26864999999918
  0
ARC
  5
8CD0
  8
AM_0
 10
72.419819354243373
 20
63.107769839015191
 30
0.0
 40
1.460012009999998
 50
89.778814000009305
 51
270.22118999999998
  0
ARC
  5
8CD1
  8
AM_0
 10
74.257529354243388
 20
28.238232839016291
 30
0.0
 40
2.000475929999999
 50
187.77046000000681
 51
269.93969000000249
  0
ARC
  5
8CD2
  8
AM_0
 10
74.170049354243474
 20
33.846750839015371
 30
0.0
 40
1.999007999999999
 50
190.63740999999681
 51
269.86655000000292
  0
ARC
  5
8CD3
  8
AM_0
 10
74.221379354242586
 20
30.997935839015319
 30
0.0
 40
2.0001841200000001
 50
188.9209999999957
 51
269.8285299999992
  0
ARC
  5
8CD4
  8
AM_0
 10
74.228939354243494
 20
29.155086839015208
 30
0.0
 40
1.997348129999998
 50
188.85146999999321
 51
270.18467999999763
  0
LINE
  5
8CD5
  8
AM_0
 10
76.965389354242447
 20
104.1277598390152
 30
0.0
 11
73.325459354242426
 21
104.1277598390152
 31
0.0
  0
LINE
  5
8CD6
  8
AM_0
 10
76.965389354242447
 20
102.1277588390153
 30
0.0
 11
73.325459354242426
 21
102.1277588390153
 31
0.0
  0
LINE
  5
8CD7
  8
AM_0
 10
76.965389354242447
 20
94.127760839015309
 30
0.0
 11
73.325459354242426
 21
94.127760839015309
 31
0.0
  0
LINE
  5
8CD8
  8
AM_0
 10
76.965389354242447
 20
92.127759839015198
 30
0.0
 11
73.325459354242426
 21
92.127759839015198
 31
0.0
  0
LINE
  5
8CD9
  8
AM_0
 10
72.295409354243475
 20
101.8077518390152
 30
0.0
 11
76.965389354242447
 21
101.8077518390152
 31
0.0
  0
LINE
  5
8CDA
  8
AM_0
 10
72.235409354242378
 20
94.407759839015412
 30
0.0
 11
76.965389354242447
 21
94.407759839015412
 31
0.0
  0
LINE
  5
8CDB
  8
AM_0
 10
72.235409354242378
 20
91.867749839015232
 30
0.0
 11
76.965389354242447
 21
91.867749839015232
 31
0.0
  0
LINE
  5
8CDC
  8
AM_0
 10
72.235409354242378
 20
84.397749839015205
 30
0.0
 11
76.965389354242447
 21
84.397749839015205
 31
0.0
  0
LINE
  5
8CDD
  8
AM_0
 10
76.965389354242447
 20
84.127758839015314
 30
0.0
 11
73.325459354242426
 21
84.127758839015314
 31
0.0
  0
LINE
  5
8CDE
  8
AM_0
 10
76.965389354242447
 20
82.127760839017355
 30
0.0
 11
73.325459354242426
 21
82.127760839017355
 31
0.0
  0
LINE
  5
8CDF
  8
AM_0
 10
72.235409354242378
 20
81.857769839015191
 30
0.0
 11
76.965389354242447
 21
81.857769839015191
 31
0.0
  0
LINE
  5
8CE0
  8
AM_0
 10
72.295409354243475
 20
74.44776683901523
 30
0.0
 11
76.965389354242447
 21
74.44776683901523
 31
0.0
  0
LINE
  5
8CE1
  8
AM_0
 10
76.965389354242447
 20
74.127759839015212
 30
0.0
 11
73.325459354242426
 21
74.127759839015212
 31
0.0
  0
LINE
  5
8CE2
  8
AM_0
 10
76.965389354242447
 20
72.127743839015238
 30
0.0
 11
73.325459354242426
 21
72.127743839015238
 31
0.0
  0
LINE
  5
8CE3
  8
AM_0
 10
72.295409354243475
 20
71.787762839016295
 30
0.0
 11
76.965389354242447
 21
71.787762839016295
 31
0.0
  0
LINE
  5
8CE4
  8
AM_0
 10
76.965389354242447
 20
64.127757839015203
 30
0.0
 11
73.325459354242426
 21
64.127757839015203
 31
0.0
  0
LINE
  5
8CE5
  8
AM_0
 10
72.425429354242354
 20
64.567761839015233
 30
0.0
 11
76.965389354242447
 21
64.567761839015233
 31
0.0
  0
LINE
  5
8CE6
  8
AM_0
 10
76.965389354242447
 20
62.127759839015191
 30
0.0
 11
73.325459354242426
 21
62.127759839015191
 31
0.0
  0
LINE
  5
8CE7
  8
AM_0
 10
72.425429354242354
 20
61.64774783901521
 30
0.0
 11
76.965389354242447
 21
61.64774783901521
 31
0.0
  0
LINE
  5
8CE8
  8
AM_0
 10
72.635399354243418
 20
51.407757839015389
 30
0.0
 11
127.9653893542424
 21
51.407757839015389
 31
0.0
  0
LINE
  5
8CE9
  8
AM_0
 10
72.635399354243418
 20
54.767772839015379
 30
0.0
 11
77.072293382657321
 21
54.767772839015379
 31
0.0
  0
LINE
  5
8CEA
  8
AM_0
 10
77.302758515348373
 20
54.127743839015238
 30
0.0
 11
73.325459354242426
 21
54.127743839015238
 31
0.0
  0
LINE
  5
8CEB
  8
AM_0
 10
76.325399354242563
 20
51.477765839015312
 30
0.0
 11
70.965389354242447
 21
40.037760839016279
 31
0.0
  0
LINE
  5
8CEC
  8
AM_0
 10
70.965389354242447
 20
40.037745839015301
 30
0.0
 11
72.205379354242496
 21
33.477747839015358
 31
0.0
  0
LINE
  5
8CED
  8
AM_0
 10
70.965389354242447
 20
37.347774839016431
 30
0.0
 11
72.275399354241472
 21
27.967770839015198
 31
0.0
  0
LINE
  5
8CEE
  8
AM_0
 10
62.96540935424332
 20
35.132748839015221
 30
0.0
 11
70.965389354242447
 21
35.132748839015221
 31
0.0
  0
LINE
  5
8CEF
  8
AM_0
 10
62.96540935424332
 20
35.127756839016449
 30
0.0
 11
70.965389354242447
 21
35.127756839016449
 31
0.0
  0
LINE
  5
8CF0
  8
AM_0
 10
70.965389354242447
 20
38.687754839015277
 30
0.0
 11
72.245369354243394
 21
30.687756839015261
 31
0.0
  0
LINE
  5
8CF1
  8
AM_0
 10
70.965389354242447
 20
37.347744839016279
 30
0.0
 11
72.255449354243396
 21
28.84775783901636
 31
0.0
  0
LINE
  5
8CF2
  8
AM_0
 10
63.655409354242451
 20
44.93775683901525
 30
0.0
 11
69.885449354243292
 21
44.93775683901525
 31
0.0
  0
ARC
  5
8CF3
  8
AM_0
 10
72.635399354243418
 20
53.087748839015383
 30
0.0
 40
1.679999999999999
 50
90.00000299999769
 51
270.0
  0
ARC
  5
8CF4
  8
AM_0
 10
274.92911399562138
 20
89.840605404539247
 30
0.0
 40
201.61085738285439
 50
179.42527489174191
 51
180.13294661221761
  0
ARC
  5
8CF5
  8
AM_0
 10
277.95903327375549
 20
89.839988182655347
 30
0.0
 40
204.64076721509861
 50
180.130805390495
 51
180.47940135319399
  0
ARC
  5
8CF6
  8
AM_0
 10
276.21236732460841
 20
86.415016102023159
 30
0.0
 40
202.89403267033549
 50
180.21919094446361
 51
180.57069649462861
  0
ARC
  5
8CF7
  8
AM_0
 10
277.2490068864135
 20
86.423259434545344
 30
0.0
 40
203.93069622692141
 50
179.87077327206001
 51
180.22039274125001
  0
ARC
  5
8CF8
  8
AM_0
 10
276.87101239584439
 20
86.426029052540343
 30
0.0
 40
203.55269646012371
 50
179.52099544220221
 51
179.87131288695369
  0
ARC
  5
8CF9
  8
AM_0
 10
278.28448115902643
 20
86.427557348079304
 30
0.0
 40
204.96200297080929
 50
186.94488316606041
 51
187.59240971813529
  0
LINE
  5
8CFA
  8
AM_0
 10
74.215409354241501
 20
28.99775183901647
 30
0.0
 11
107.9654093542424
 21
28.99775183901647
 31
0.0
  0
LINE
  5
8CFB
  8
AM_0
 10
74.235419354241472
 20
27.157755839015412
 30
0.0
 11
107.9654093542424
 21
27.157755839015412
 31
0.0
  0
LINE
  5
8CFC
  8
AM_0
 10
74.255429354242551
 20
26.23775783901646
 30
0.0
 11
107.9654093542424
 21
26.23775783901646
 31
0.0
  0
LINE
  5
8CFD
  8
AM_0
 10
96.465389354243385
 20
49.907757839016313
 30
0.0
 11
76.292609354243481
 21
51.407757839015389
 31
0.0
  0
ARC
  5
8CFE
  8
AM_0
 10
278.76671652177242
 20
86.497873808918285
 30
0.0
 40
205.44930125633391
 50
187.5940787099814
 51
188.8860675939199
  0
ARC
  5
8CFF
  8
AM_0
 10
107.9621093542434
 20
29.161038839015202
 30
0.0
 40
2.003279969999999
 50
270.09378999999711
 51
359.90621000000289
  0
LINE
  5
8D00
  8
AM_0
 10
109.9653893542433
 20
28.237758839015211
 30
0.0
 11
109.9653893542433
 21
31.847742839015378
 31
0.0
  0
ARC
  5
8D01
  8
AM_0
 10
107.95739935424329
 20
28.245768839015231
 30
0.0
 40
2.0080361999999989
 50
270.22878999999938
 51
359.77121000000051
  0
ARC
  5
8D02
  8
AM_0
 10
107.95820935424049
 20
31.004940839015259
 30
0.0
 40
2.007180029999998
 50
270.20461999999111
 51
359.79537999999582
  0
ARC
  5
8D04
  8
AM_0
 10
277.8717472265684
 20
86.436151370606225
 30
0.0
 40
204.55326957220879
 50
185.46031399634921
 51
186.13700085447161
  0
ARC
  5
8D05
  8
AM_0
 10
278.52511612033049
 20
86.495356418996352
 30
0.0
 40
205.2093074617344
 50
184.78473638767409
 51
185.45941055423961
  0
ARC
  5
8D06
  8
AM_0
 10
277.95475238563853
 20
86.445432968383344
 30
0.0
 40
204.63676715666841
 50
184.10764570184199
 51
184.7841276720458
  0
ARC
  5
8D07
  8
AM_0
 10
277.69610903775828
 20
86.433691345872376
 30
0.0
 40
204.37787853975311
 50
181.97597713469739
 51
183.3618692197046
  0
ARC
  5
8D08
  8
AM_0
 10
278.02493226348361
 20
89.817687865205244
 30
0.0
 40
204.70684984457009
 50
176.64084313943511
 51
177.3330192692051
  0
ARC
  5
8D09
  8
AM_0
 10
279.34179793646229
 20
89.763512855983436
 30
0.0
 40
206.0248100930055
 50
177.3350100486478
 51
178.02262526942431
  0
LINE
  5
8D0A
  8
AM_0
 10
175.7854193542434
 20
54.767772839015379
 30
0.0
 11
165.96538935424331
 21
54.767772839015379
 31
0.0
  0
LINE
  5
8D0B
  8
AM_0
 10
177.46541935424321
 20
49.907757839016313
 30
0.0
 11
173.0153993542414
 21
33.327753839015251
 31
0.0
  0
ARC
  5
8D0C
  8
AM_0
 10
171.08252935424341
 20
33.849894839015398
 30
0.0
 40
2.0021281800000001
 50
270.0815199999999
 51
344.88329999999792
  0
LINE
  5
8D0D
  8
AM_0
 10
172.3054193542425
 20
54.127743839015238
 30
0.0
 11
165.96538935424331
 21
54.127743839015238
 31
0.0
  0
LINE
  5
8D0E
  8
AM_0
 10
165.96538935424331
 20
58.050052754688288
 30
0.0
 11
168.73541935424231
 21
58.127742839015362
 31
0.0
  0
ARC
  5
8D0F
  8
AM_0
 10
172.3054193542425
 20
53.127759839015198
 30
0.0
 40
1.000004069999999
 50
270.0
 51
90.00000299999769
  0
LINE
  5
8D10
  8
AM_0
 10
173.50538935424331
 20
35.127756839016449
 30
0.0
 11
178.96541935424321
 21
35.127756839016449
 31
0.0
  0
ARC
  5
8D11
  8
AM_0
 10
175.7854193542434
 20
53.087748839015383
 30
0.0
 40
1.680008099999998
 50
270.0
 51
90.00000299999769
  0
ARC
  5
8D12
  8
AM_0
 10
175.7854193542434
 20
53.087748839015383
 30
0.0
 40
1.675004159999999
 50
270.0
 51
90.00000299999769
  0
LINE
  5
8D14
  8
AM_0
 10
73.515456260096457
 20
124.12776333563529
 30
0.0
 11
172.30541930188329
 21
124.1277659090162
 31
0.0
  0
LINE
  5
8D15
  8
AM_0
 10
72.635399354243418
 20
124.8577298390164
 30
0.0
 11
175.7854193542434
 21
124.8577298390164
 31
0.0
  0
LINE
  5
8D16
  8
AM_0
 10
74.165399354242481
 20
144.4177598390163
 30
0.0
 11
171.08540935424341
 21
144.4177598390163
 31
0.0
  0
LINE
  5
8D17
  8
AM_0
 10
96.465389354243385
 20
126.35772983901521
 30
0.0
 11
178.96541935424321
 21
126.35772983901521
 31
0.0
  0
ARC
  5
8D18
  8
AM_0
 10
73.507649354240584
 20
123.12776183901509
 30
0.0
 40
1.0000319699999971
 50
89.552707000007004
 51
270.44730000000112
  0
ARC
  5
8D19
  8
AM_0
 10
73.507649354240584
 20
113.1277598390151
 30
0.0
 40
1.0000319699999971
 50
89.552707000007004
 51
270.44730000000112
  0
ARC
  5
8D1A
  8
AM_0
 10
72.419759354241464
 20
113.1577598390153
 30
0.0
 40
1.460012009999998
 50
89.777016999992441
 51
270.22298999999867
  0
ARC
  5
8D1B
  8
AM_0
 10
74.168279354243396
 20
142.4208398390162
 30
0.0
 40
1.996904069999998
 50
90.083473999999597
 51
169.41255999999379
  0
ARC
  5
8D1C
  8
AM_0
 10
74.213819354243469
 20
145.26462983901521
 30
0.0
 40
1.9931281199999991
 50
89.953373000007019
 51
170.96118000000021
  0
ARC
  5
8D1D
  8
AM_0
 10
74.228159354243402
 20
147.11316983901509
 30
0.0
 40
1.994588069999998
 50
89.790753000002425
 51
171.507089999995
  0
ARC
  5
8D1E
  8
AM_0
 10
74.250059354242453
 20
148.02426983901509
 30
0.0
 40
1.9934921999999999
 50
89.846090999994857
 51
172.1147400000026
  0
LINE
  5
8D1F
  8
AM_0
 10
77.300915475275573
 20
122.1277598390152
 30
0.0
 11
73.325459354242426
 21
122.1277598390152
 31
0.0
  0
LINE
  5
8D20
  8
AM_0
 10
76.965389354242447
 20
114.12776183901499
 30
0.0
 11
73.325459354242426
 21
114.12776183901499
 31
0.0
  0
LINE
  5
8D21
  8
AM_0
 10
76.965389354242447
 20
112.12776083901529
 30
0.0
 11
73.325459354242426
 21
112.12776083901529
 31
0.0
  0
LINE
  5
8D22
  8
AM_0
 10
72.635399354243418
 20
121.4977568390152
 30
0.0
 11
77.074061958195443
 21
121.4977568390152
 31
0.0
  0
LINE
  5
8D23
  8
AM_0
 10
72.425429354242354
 20
114.6177518390152
 30
0.0
 11
76.965389354242447
 21
114.6177518390152
 31
0.0
  0
LINE
  5
8D24
  8
AM_0
 10
72.425429354242354
 20
111.6977378390151
 30
0.0
 11
76.965389354242447
 21
111.6977378390151
 31
0.0
  0
LINE
  5
8D25
  8
AM_0
 10
72.295409354243475
 20
104.4777668390151
 30
0.0
 11
76.965389354242447
 21
104.4777668390151
 31
0.0
  0
LINE
  5
8D26
  8
AM_0
 10
76.325399354242563
 20
124.7777498390153
 30
0.0
 11
70.965389354242447
 21
136.2277298390151
 31
0.0
  0
LINE
  5
8D27
  8
AM_0
 10
70.965389354242447
 20
138.91773983901521
 30
0.0
 11
72.275399354241472
 21
148.29774983901521
 31
0.0
  0
ARC
  5
8D28
  8
AM_0
 10
72.635399354243418
 20
123.1777478390151
 30
0.0
 40
1.679999999999999
 50
90.00000299999769
 51
270.0
  0
LINE
  5
8D29
  8
AM_0
 10
70.965389354242447
 20
136.2277598390173
 30
0.0
 11
72.205379354242496
 21
142.78776983901511
 31
0.0
  0
LINE
  5
8D2A
  8
AM_0
 10
63.655409354242451
 20
131.31774983901519
 30
0.0
 11
69.885449354243292
 21
131.31774983901519
 31
0.0
  0
LINE
  5
8D2B
  8
AM_0
 10
62.96540935424332
 20
141.13275983901531
 30
0.0
 11
70.965389354242447
 21
141.13275983901531
 31
0.0
  0
LINE
  5
8D2C
  8
AM_0
 10
62.96540935424332
 20
141.12774983901511
 30
0.0
 11
70.965389354242447
 21
141.12774983901511
 31
0.0
  0
LINE
  5
8D2D
  8
AM_0
 10
70.965389354242447
 20
137.5677698390152
 30
0.0
 11
72.245369354243394
 21
145.57773983901529
 31
0.0
  0
LINE
  5
8D2E
  8
AM_0
 10
70.965389354242447
 20
138.91776983901619
 30
0.0
 11
72.255449354243396
 21
147.40776983901529
 31
0.0
  0
ARC
  5
8D2F
  8
AM_0
 10
107.9638793542405
 20
147.10620983901521
 30
0.0
 40
2.0015440500000001
 50
0.0442139990073985
 51
89.955783999999085
  0
LINE
  5
8D30
  8
AM_0
 10
109.9653893542433
 20
148.0177598390153
 30
0.0
 11
109.9653893542433
 21
144.4177598390163
 31
0.0
  0
LINE
  5
8D31
  8
AM_0
 10
74.215409354241501
 20
147.2577398390161
 30
0.0
 11
107.9654093542424
 21
147.2577398390161
 31
0.0
  0
LINE
  5
8D32
  8
AM_0
 10
96.465389354243385
 20
126.35772983901521
 30
0.0
 11
76.287959354243384
 21
124.8577598390152
 31
0.0
  0
ARC
  5
8D33
  8
AM_0
 10
277.74639886205841
 20
89.876834658820385
 30
0.0
 40
204.4231110527293
 50
172.39935376233689
 51
173.0480406134273
  0
ARC
  5
8D34
  8
AM_0
 10
278.40268099986548
 20
89.778161664834442
 30
0.0
 40
205.086602105558
 50
173.86479656848519
 51
175.2153393800678
  0
ARC
  5
8D35
  8
AM_0
 10
277.79691733975551
 20
89.835690251135219
 30
0.0
 40
204.47815098782999
 50
175.2172449765846
 51
175.89452073851339
  0
ARC
  5
8D36
  8
AM_0
 10
278.07723574269647
 20
89.827545046448193
 30
0.0
 40
204.75756069728581
 50
171.10266677355949
 51
172.3979273485289
  0
ARC
  5
8D37
  8
AM_0
 10
107.9649893542434
 20
145.2573398390152
 30
0.0
 40
2.0004079799999981
 50
0.0116490000072104
 51
89.98834999999788
  0
LINE
  5
8D38
  8
AM_0
 10
74.235419354241472
 20
149.10774983901521
 30
0.0
 11
107.9654093542424
 21
149.10774983901521
 31
0.0
  0
LINE
  5
8D39
  8
AM_0
 10
74.255429354242551
 20
150.0177698390151
 30
0.0
 11
107.9654093542424
 21
150.0177698390151
 31
0.0
  0
ARC
  5
8D3A
  8
AM_0
 10
107.96411935424329
 20
148.0164698390162
 30
0.0
 40
2.0012880000000002
 50
0.0368719990021931
 51
89.963126000004479
  0
LINE
  5
8D3B
  8
AM_0
 10
175.7854193542434
 20
121.4977568390152
 30
0.0
 11
165.96538935424331
 21
121.4977568390152
 31
0.0
  0
LINE
  5
8D3C
  8
AM_0
 10
177.16541935424129
 20
127.4677598390153
 30
0.0
 11
173.01545935424241
 21
142.92774983901629
 31
0.0
  0
LINE
  5
8D3D
  8
AM_0
 10
165.96538935424331
 20
118.2154619233433
 30
0.0
 11
168.73541935424231
 21
118.1377718390153
 31
0.0
  0
ARC
  5
8D3E
  8
AM_0
 10
172.3054193542425
 20
123.12776183901509
 30
0.0
 40
1.000004069999999
 50
270.0
 51
90.00000299999769
  0
ARC
  5
8D3F
  8
AM_0
 10
171.08258935424141
 20
142.41915983901521
 30
0.0
 40
1.99860411
 50
14.742716000005739
 51
89.919516000001124
  0
ARC
  5
8D40
  8
AM_0
 10
175.7854193542434
 20
123.1777478390151
 30
0.0
 40
1.680008099999998
 50
270.0
 51
90.00000299999769
  0
ARC
  5
8D41
  8
AM_0
 10
175.7854193542434
 20
123.1777478390151
 30
0.0
 40
1.675004159999999
 50
270.0
 51
90.00000299999769
  0
ARC
  5
8D42
  8
AM_0
 10
178.61858935424331
 20
127.8555098390152
 30
0.0
 40
1.502776079999999
 50
194.75643000000039
 51
269.8775900000029
  0
LINE
  5
8D43
  8
AM_0
 10
173.50538935424331
 20
141.12774983901511
 30
0.0
 11
178.96541935424321
 21
141.12774983901511
 31
0.0
  0
LINE
  5
8D44
  8
AM_0
 10
161.46538935424331
 20
110.63276483901539
 30
0.0
 11
161.46538935424331
 21
65.632764839016289
 31
0.0
  0
LINE
  5
8D45
  8
AM_0
 10
159.3653893542425
 20
111.1830173707103
 30
0.0
 11
159.3653893542425
 21
65.082512307321181
 31
0.0
  0
LINE
  5
8D46
  8
AM_0
 10
76.465389354243371
 20
70.132764839015408
 30
0.0
 11
76.465389354243371
 21
60.132754839015199
 31
0.0
  0
LINE
  5
8D47
  8
AM_0
 10
76.965389354242447
 20
55.632758839015189
 30
0.0
 11
76.965389354242447
 21
120.63275483901521
 31
0.0
  0
LINE
  5
8D48
  8
AM_0
 10
148.51563388593641
 20
54.23275683901533
 30
0.0
 11
81.385369354243494
 21
54.23275683901533
 31
0.0
  0
LINE
  5
8D49
  8
AM_0
 10
81.385369354243494
 20
54.23275683901533
 30
0.0
 11
81.385369354243494
 21
52.132765839016422
 31
0.0
  0
ARC
  5
8D4A
  8
AM_0
 10
80.458009354243359
 20
55.625411839016351
 30
0.0
 40
3.492651899999998
 50
179.8793300000022
 51
270.12067999999482
  0
ARC
  5
8D4B
  8
AM_0
 10
76.95806935424342
 20
60.12541483901736
 30
0.0
 40
0.4927000100000001
 50
179.14455999999711
 51
270.8554400000026
  0
ARC
  5
8D4C
  8
AM_0
 10
163.4653893542424
 20
65.632764839016289
 30
0.0
 40
2.0
 50
180.0
 51
270.0
  0
LINE
  5
8D4D
  8
AM_0
 10
158.9553388479043
 20
64.092562813659242
 30
0.0
 11
149.5055833795995
 21
54.642807345354171
 31
0.0
  0
LINE
  5
8D4E
  8
AM_0
 10
149.5055913795984
 20
54.642815345353249
 30
0.0
 11
158.9553388479043
 21
64.092562813659242
 31
0.0
  0
ARC
  5
8D4F
  8
AM_0
 10
148.51563388593641
 20
55.632756839015208
 30
0.0
 40
1.399999999999999
 50
270.0
 51
315.00000000000921
1001
GENIUS_GENODEF_13
1002
{
1000
HIER
1070
     0
1002
}
1002
{
1000
MANEDIT
1070
     0
1002
}
1002
{
1000
NOSEL
1070
     0
1002
}
1002
{
1000
BEHIND
1070
     0
1002
}
1002
{
1000
OTHER
1070
     0
1002
}
1002
{
1000
REACTOR
1002
}
1001
GENIUS_GENOBJ-N-FIL_13
1002
{
1000
OWNER
1000
GEN
1002
}
  0
ARC
  5
8D50
  8
AM_0
 10
157.96538935424331
 20
65.082512307321181
 30
0.0
 40
1.4000000000006301
 50
314.99999999997232
 51
0.0
  0
ARC
  5
8D51
  8
AM_0
 10
163.9653893542424
 20
54.132764839015401
 30
0.0
 40
2.0
 50
270.0
 51
0.0
  0
ARC
  5
8D52
  8
AM_0
 10
163.9653893542424
 20
61.632764839016332
 30
0.0
 40
2.0
 50
0.0
 51
90.0
  0
LINE
  5
8D53
  8
AM_0
 10
163.9653893542424
 20
63.632764839015401
 30
0.0
 11
163.4653893542424
 21
63.632764839015401
 31
0.0
  0
LINE
  5
8D54
  8
AM_0
 10
165.96538935424331
 20
54.132764839015401
 30
0.0
 11
165.96538935424331
 21
61.632764839016332
 31
0.0
  0
LINE
  5
8D55
  8
AM_0
 10
81.385369354243494
 20
122.03274483901519
 30
0.0
 11
148.52312517411829
 21
122.03274483901519
 31
0.0
  0
ARC
  5
8D56
  8
AM_0
 10
76.965939354242437
 20
70.132214839015205
 30
0.0
 40
0.5005480100000002
 50
90.062622000000005
 51
179.9373699999839
  0
ARC
  5
8D57
  8
AM_0
 10
76.965939354242437
 20
116.1322148390163
 30
0.0
 40
0.5005480100000002
 50
90.062622000000005
 51
179.9373699999839
  0
ARC
  5
8D58
  8
AM_0
 10
76.957879354243445
 20
106.1252548390152
 30
0.0
 40
0.49254802
 50
179.1265600000018
 51
270.87345000000141
  0
LINE
  5
8D59
  8
AM_0
 10
76.465389354243371
 20
116.13275483901521
 30
0.0
 11
76.465389354243371
 21
106.1327648390163
 31
0.0
  0
LINE
  5
8D5A
  8
AM_0
 10
81.385369354243494
 20
122.03274483901519
 30
0.0
 11
81.385369354243494
 21
124.12774483901531
 31
0.0
  0
ARC
  5
8D5B
  8
AM_0
 10
80.465879354243484
 20
120.63226483901531
 30
0.0
 40
3.5005001999999981
 50
90.008164999989489
 51
179.99183999999781
  0
LINE
  5
8D5C
  8
AM_0
 10
163.4653893542424
 20
93.632764839016303
 30
0.0
 11
161.46538935424331
 21
93.632764839016303
 31
0.0
  0
LINE
  5
8D5D
  8
AM_0
 10
161.46538935424331
 20
82.632764839016318
 30
0.0
 11
163.4653893542424
 21
82.632764839016318
 31
0.0
  0
LINE
  5
8D5E
  8
AM_0
 10
163.4653893542424
 20
82.632764839016318
 30
0.0
 11
163.4653893542424
 21
93.632764839016303
 31
0.0
  0
ARC
  5
8D5F
  8
AM_0
 10
163.4653893542424
 20
110.63276483901539
 30
0.0
 40
2.0
 50
90.0
 51
180.0
  0
CIRCLE
  5
8D60
  8
AM_0
 10
160.4653893542413
 20
119.1327648390163
 30
0.0
 40
3.4999999999999631
  0
LINE
  5
8D61
  8
AM_0
 10
149.50559137959951
 20
121.6227143326764
 30
0.0
 11
158.9553388479043
 21
112.1729668643713
 31
0.0
  0
LINE
  5
8D62
  8
AM_0
 10
157.3653893542425
 20
113.7629163580322
 30
0.0
 11
158.9553388479043
 21
112.1729668643713
 31
0.0
  0
ARC
  5
8D63
  8
AM_0
 10
157.96538935424331
 20
111.1830173707103
 30
0.0
 40
1.400000000000118
 50
0.0
 51
45.000000000027619
  0
ARC
  5
8D64
  8
AM_0
 10
148.51564188593639
 20
120.63276483901539
 30
0.0
 40
1.40000000000077
 50
44.999999999972353
 51
89.99999999996092
  0
LINE
  5
8D65
  8
AM_0
 10
165.96538935424331
 20
114.6327648390163
 30
0.0
 11
165.96538935424331
 21
122.1327648390163
 31
0.0
  0
LINE
  5
8D66
  8
AM_0
 10
165.96538935424331
 20
114.6327648390163
 30
0.0
 11
165.96538935424331
 21
122.1327648390163
 31
0.0
  0
ARC
  5
8D67
  8
AM_0
 10
163.9653893542424
 20
114.6327648390163
 30
0.0
 40
2.0
 50
270.0
 51
0.0
  0
LINE
  5
8D68
  8
AM_0
 10
163.4653893542424
 20
112.63276483901539
 30
0.0
 11
163.9653893542424
 21
112.63276483901539
 31
0.0
  0
ARC
  5
8D69
  8
AM_0
 10
163.9653893542424
 20
122.1327648390163
 30
0.0
 40
2.0
 50
0.0
 51
90.0
  0
LINE
  5
8D6A
  8
AM_0
 10
157.8268176730364
 20
119.1327648390172
 30
0.0
 11
163.10396103544929
 21
119.1327648390172
 31
0.0
  0
LINE
  5
8D6B
  8
AM_0
 10
160.4653893542413
 20
121.7713365202214
 30
0.0
 11
160.4653893542413
 21
116.4941931578082
 31
0.0
  0
CIRCLE
  5
8D6C
  8
AM_0
 10
160.4653893542413
 20
57.132764839015408
 30
0.0
 40
3.4999999999999631
  0
LINE
  5
8D6D
  8
AM_0
 10
157.8268176730364
 20
57.132764839016332
 30
0.0
 11
163.10396103544929
 21
57.132764839016332
 31
0.0
  0
LINE
  5
8D6E
  8
AM_0
 10
160.4653893542413
 20
59.771336520221432
 30
0.0
 11
160.4653893542413
 21
54.494193157808247
 31
0.0
  0
LINE
  5
8D6F
  8
AM_0
 10
172.3054193542425
 20
122.1377858390162
 30
0.0
 11
165.96538935424331
 21
122.1377858390162
 31
0.0
  0
LINE
  5
8DA3
  8
AM_0
 10
440.11304850898688
 20
124.1327048390132
 30
0.0
 11
429.11306550898712
 21
124.1327048390132
 31
0.0
  0
LINE
  5
8DA4
  8
AM_0
 10
429.11306550898712
 20
52.132704839013293
 30
0.0
 11
441.64335536833681
 21
52.132704839013293
 31
0.0
  0
LINE
  5
8DA5
  8
AM_0
 10
441.61306550898632
 20
52.132704839013293
 30
0.0
 11
441.61306550898632
 21
52.710670708706388
 31
0.0
  0
ARC
  5
8DA6
  8
AM_0
 10
431.11306550898797
 20
119.5327048390151
 30
0.0
 40
2.5
 50
90.0
 51
180.0
  0
ARC
  5
8DA7
  8
AM_0
 10
429.11306550898712
 20
123.63270483901719
 30
0.0
 40
0.5
 50
90.0
 51
180.0
  0
LINE
  5
8DA8
  8
AM_0
 10
440.11304850898688
 20
122.0327048390152
 30
0.0
 11
431.11306550898797
 21
122.0327048390152
 31
0.0
  0
LINE
  5
8DA9
  8
AM_0
 10
440.11304850898688
 20
111.7628563580333
 30
0.0
 11
431.11306550898399
 21
111.7628563580333
 31
0.0
  0
LINE
  5
8DAA
  8
AM_0
 10
441.20105927842218
 20
60.572230467964339
 30
0.0
 11
440.148065508988
 21
54.232704839015248
 31
0.0
  0
LINE
  5
8DAB
  8
AM_0
 10
440.99508011490298
 20
64.502553319998242
 30
0.0
 11
431.11306550898797
 21
64.502553319998242
 31
0.0
  0
ARC
  5
8DAC
  8
AM_0
 10
431.11306550898797
 20
56.732704839015248
 30
0.0
 40
2.5
 50
180.0
 51
270.0
  0
LINE
  5
8DAD
  8
AM_0
 10
428.61306550898712
 20
52.632704839016469
 30
0.0
 11
428.61306550898712
 21
123.63270483901719
 31
0.0
  0
ARC
  5
8DAE
  8
AM_0
 10
429.11306550898712
 20
52.632704839016469
 30
0.0
 40
0.5
 50
180.0
 51
270.0
  0
LINE
  5
8DAF
  8
AM_0
 10
431.11306550898797
 20
54.232704839015248
 30
0.0
 11
440.148065508988
 21
54.232704839015248
 31
0.0
  0
LINE
  5
8DB0
  8
AM_0
 10
428.62301844391112
 20
65.642519642059355
 30
0.0
 11
428.624018443914
 21
65.638319642059287
 31
0.0
  0
LINE
  5
8DB1
  8
AM_0
 10
428.624018443914
 20
65.638319642059287
 30
0.0
 11
428.6250184439142
 21
65.634019642059215
 31
0.0
  0
LINE
  5
8DB2
  8
AM_0
 10
428.6250184439142
 20
65.634019642059215
 30
0.0
 11
428.62601844391412
 21
65.629819642059374
 31
0.0
  0
LINE
  5
8DB3
  8
AM_0
 10
428.62601844391412
 20
65.629819642059374
 30
0.0
 11
428.62701844391432
 21
65.625519642058407
 31
0.0
  0
LINE
  5
8DB4
  8
AM_0
 10
428.62701844391432
 20
65.625519642058407
 30
0.0
 11
428.62801844391407
 21
65.621319642058324
 31
0.0
  0
LINE
  5
8DB5
  8
AM_0
 10
428.62801844391407
 20
65.621319642058324
 30
0.0
 11
428.62901844391428
 21
65.617019642058253
 31
0.0
  0
LINE
  5
8DB6
  8
AM_0
 10
428.62901844391428
 20
65.617019642058253
 30
0.0
 11
428.63001844391403
 21
65.612819642060217
 31
0.0
  0
LINE
  5
8DB7
  8
AM_0
 10
428.63001844391403
 20
65.612819642060217
 30
0.0
 11
428.63101844391298
 21
65.608619642057192
 31
0.0
  0
LINE
  5
8DB8
  8
AM_0
 10
428.63101844391298
 20
65.608619642057192
 30
0.0
 11
428.63201844391398
 21
65.604319642058272
 31
0.0
  0
LINE
  5
8DB9
  8
AM_0
 10
428.63201844391398
 20
65.604319642058272
 30
0.0
 11
428.6330184439139
 21
65.600119642059326
 31
0.0
  0
LINE
  5
8DBA
  8
AM_0
 10
428.6330184439139
 20
65.600119642059326
 30
0.0
 11
428.63401844391427
 21
65.595919642059243
 31
0.0
  0
LINE
  5
8DBB
  8
AM_0
 10
428.63401844391427
 20
65.595919642059243
 30
0.0
 11
428.63501844391408
 21
65.591619642058276
 31
0.0
  0
LINE
  5
8DBC
  8
AM_0
 10
428.63501844391408
 20
65.591619642058276
 30
0.0
 11
428.63601844391428
 21
65.587419642057284
 31
0.0
  0
LINE
  5
8DBD
  8
AM_0
 10
428.63601844391428
 20
65.587419642057284
 30
0.0
 11
428.63701844391409
 21
65.583219642059248
 31
0.0
  0
LINE
  5
8DBE
  8
AM_0
 10
428.63701844391409
 20
65.583219642059248
 30
0.0
 11
428.63801844391412
 21
65.579019642058256
 31
0.0
  0
LINE
  5
8DBF
  8
AM_0
 10
428.63801844391412
 20
65.579019642058256
 30
0.0
 11
428.63901844391421
 21
65.57481964205931
 31
0.0
  0
LINE
  5
8DC0
  8
AM_0
 10
428.63901844391421
 20
65.57481964205931
 30
0.0
 11
428.64101844391399
 21
65.570619642058318
 31
0.0
  0
LINE
  5
8DC1
  8
AM_0
 10
428.64101844391399
 20
65.570619642058318
 30
0.0
 11
428.64201844391403
 21
65.566419642058463
 31
0.0
  0
LINE
  5
8DC2
  8
AM_0
 10
428.64201844391403
 20
65.566419642058463
 30
0.0
 11
428.643018443914
 21
65.562319642059265
 31
0.0
  0
LINE
  5
8DC3
  8
AM_0
 10
428.643018443914
 20
65.562319642059265
 30
0.0
 11
428.64401844391421
 21
65.558119642058273
 31
0.0
  0
LINE
  5
8DC4
  8
AM_0
 10
428.64401844391421
 20
65.558119642058273
 30
0.0
 11
428.6450184439143
 21
65.553919642058418
 31
0.0
  0
LINE
  5
8DC5
  8
AM_0
 10
428.6450184439143
 20
65.553919642058418
 30
0.0
 11
428.64701844391408
 21
65.54981964205831
 31
0.0
  0
LINE
  5
8DC6
  8
AM_0
 10
428.64701844391408
 20
65.54981964205831
 30
0.0
 11
428.64801844391428
 21
65.545619642057289
 31
0.0
  0
LINE
  5
8DC7
  8
AM_0
 10
428.64801844391428
 20
65.545619642057289
 30
0.0
 11
428.64901844391397
 21
65.541519642059257
 31
0.0
  0
LINE
  5
8DC8
  8
AM_0
 10
428.64901844391397
 20
65.541519642059257
 30
0.0
 11
428.65101844391421
 21
65.53741964205939
 31
0.0
  0
LINE
  5
8DC9
  8
AM_0
 10
428.65101844391421
 20
65.53741964205939
 30
0.0
 11
428.6520184439139
 21
65.533319642057222
 31
0.0
  0
LINE
  5
8DCA
  8
AM_0
 10
428.6520184439139
 20
65.533319642057222
 30
0.0
 11
428.65301844391399
 21
65.529119642058276
 31
0.0
  0
LINE
  5
8DCB
  8
AM_0
 10
428.65301844391399
 20
65.529119642058276
 30
0.0
 11
428.65501844391429
 21
65.525119642058357
 31
0.0
  0
LINE
  5
8DCC
  8
AM_0
 10
428.65501844391429
 20
65.525119642058357
 30
0.0
 11
428.65601844391421
 21
65.521019642058263
 31
0.0
  0
LINE
  5
8DCD
  8
AM_0
 10
428.65601844391421
 20
65.521019642058263
 30
0.0
 11
428.65801844391422
 21
65.516919642059293
 31
0.0
  0
LINE
  5
8DCE
  8
AM_0
 10
428.65801844391422
 20
65.516919642059293
 30
0.0
 11
428.65901844391402
 21
65.512819642058275
 31
0.0
  0
LINE
  5
8DCF
  8
AM_0
 10
428.65901844391402
 20
65.512819642058275
 30
0.0
 11
428.66101844391392
 21
65.508819642059265
 31
0.0
  0
LINE
  5
8DD0
  8
AM_0
 10
428.66101844391392
 20
65.508819642059265
 30
0.0
 11
428.66201844391401
 21
65.504719642058262
 31
0.0
  0
LINE
  5
8DD1
  8
AM_0
 10
428.66201844391401
 20
65.504719642058262
 30
0.0
 11
428.6640184439143
 21
65.500719642058357
 31
0.0
  0
LINE
  5
8DD2
  8
AM_0
 10
428.6640184439143
 20
65.500719642058357
 30
0.0
 11
428.66601844391408
 21
65.496719642059361
 31
0.0
  0
LINE
  5
8DD3
  8
AM_0
 10
428.66601844391408
 20
65.496719642059361
 30
0.0
 11
428.66701844391417
 21
65.492719642058319
 31
0.0
  0
LINE
  5
8DD4
  8
AM_0
 10
428.66701844391417
 20
65.492719642058319
 30
0.0
 11
428.66901844391418
 21
65.488719642059323
 31
0.0
  0
LINE
  5
8DD5
  8
AM_0
 10
428.66901844391418
 20
65.488719642059323
 30
0.0
 11
428.67101844391402
 21
65.48471964205828
 31
0.0
  0
LINE
  5
8DD6
  8
AM_0
 10
428.67101844391402
 20
65.48471964205828
 30
0.0
 11
428.67301844391432
 21
65.480719642059285
 31
0.0
  0
LINE
  5
8DD7
  8
AM_0
 10
428.67301844391432
 20
65.480719642059285
 30
0.0
 11
428.67401844391429
 21
65.476819642058445
 31
0.0
  0
LINE
  5
8DD8
  8
AM_0
 10
428.67401844391429
 20
65.476819642058445
 30
0.0
 11
428.67601844391419
 21
65.472819642058312
 31
0.0
  0
LINE
  5
8DD9
  8
AM_0
 10
428.67601844391419
 20
65.472819642058312
 30
0.0
 11
428.6780184439142
 21
65.468919642059291
 31
0.0
  0
LINE
  5
8DDA
  8
AM_0
 10
428.6780184439142
 20
65.468919642059291
 30
0.0
 11
428.68001844391398
 21
65.464919642057339
 31
0.0
  0
LINE
  5
8DDB
  8
AM_0
 10
428.68001844391398
 20
65.464919642057339
 30
0.0
 11
428.68201844391427
 21
65.461019642059227
 31
0.0
  0
LINE
  5
8DDC
  8
AM_0
 10
428.68201844391427
 20
65.461019642059227
 30
0.0
 11
428.68401844391423
 21
65.457119642058387
 31
0.0
  0
LINE
  5
8DDD
  8
AM_0
 10
428.68401844391423
 20
65.457119642058387
 30
0.0
 11
428.68601844391418
 21
65.45321964205732
 31
0.0
  0
LINE
  5
8DDE
  8
AM_0
 10
428.68601844391418
 20
65.45321964205732
 30
0.0
 11
428.68801844391419
 21
65.449319642058285
 31
0.0
  0
LINE
  5
8DDF
  8
AM_0
 10
428.68801844391419
 20
65.449319642058285
 30
0.0
 11
428.69001844391403
 21
65.445419642059278
 31
0.0
  0
LINE
  5
8DE0
  8
AM_0
 10
428.69001844391403
 20
65.445419642059278
 30
0.0
 11
428.69201844391432
 21
65.441519642057301
 31
0.0
  0
LINE
  5
8DE1
  8
AM_0
 10
428.69201844391432
 20
65.441519642057301
 30
0.0
 11
428.69401844391422
 21
65.437719642058255
 31
0.0
  0
LINE
  5
8DE2
  8
AM_0
 10
428.69401844391422
 20
65.437719642058255
 30
0.0
 11
428.69601844391423
 21
65.433819642058324
 31
0.0
  0
LINE
  5
8DE3
  8
AM_0
 10
428.69601844391423
 20
65.433819642058324
 30
0.0
 11
428.69801844391401
 21
65.430019642058369
 31
0.0
  0
LINE
  5
8DE4
  8
AM_0
 10
428.69801844391401
 20
65.430019642058369
 30
0.0
 11
428.70001844391402
 21
65.426219642059323
 31
0.0
  0
LINE
  5
8DE5
  8
AM_0
 10
428.70001844391402
 20
65.426219642059323
 30
0.0
 11
428.70201844391431
 21
65.422319642058255
 31
0.0
  0
LINE
  5
8DE6
  8
AM_0
 10
428.70201844391431
 20
65.422319642058255
 30
0.0
 11
428.70401844391421
 21
65.4185196420583
 31
0.0
  0
LINE
  5
8DE7
  8
AM_0
 10
428.70401844391421
 20
65.4185196420583
 30
0.0
 11
428.70601844391422
 21
65.414719642059254
 31
0.0
  0
LINE
  5
8DE8
  8
AM_0
 10
428.70601844391422
 20
65.414719642059254
 30
0.0
 11
428.708018443914
 21
65.411019642058363
 31
0.0
  0
LINE
  5
8DE9
  8
AM_0
 10
428.708018443914
 20
65.411019642058363
 30
0.0
 11
428.71001844391401
 21
65.407219642058394
 31
0.0
  0
LINE
  5
8DEA
  8
AM_0
 10
428.71001844391401
 20
65.407219642058394
 30
0.0
 11
428.71301844391422
 21
65.403419642058452
 31
0.0
  0
LINE
  5
8DEB
  8
AM_0
 10
428.71301844391422
 20
65.403419642058452
 30
0.0
 11
428.71501844391412
 21
65.399719642057349
 31
0.0
  0
LINE
  5
8DEC
  8
AM_0
 10
428.71501844391412
 20
65.399719642057349
 30
0.0
 11
428.71701844391401
 21
65.395919642058288
 31
0.0
  0
LINE
  5
8DED
  8
AM_0
 10
428.71701844391401
 20
65.395919642058288
 30
0.0
 11
428.71901844391402
 21
65.392219642059203
 31
0.0
  0
LINE
  5
8DEE
  8
AM_0
 10
428.71901844391402
 20
65.392219642059203
 30
0.0
 11
428.72201844391412
 21
65.388519642058327
 31
0.0
  0
LINE
  5
8DEF
  8
AM_0
 10
428.72201844391412
 20
65.388519642058327
 30
0.0
 11
428.72401844391408
 21
65.384719642058357
 31
0.0
  0
LINE
  5
8DF0
  8
AM_0
 10
428.72401844391408
 20
65.384719642058357
 30
0.0
 11
428.7260184439142
 21
65.3810196420593
 31
0.0
  0
LINE
  5
8DF1
  8
AM_0
 10
428.7260184439142
 20
65.3810196420593
 30
0.0
 11
428.7280184439141
 21
65.377419642060431
 31
0.0
  0
LINE
  5
8DF2
  8
AM_0
 10
428.7280184439141
 20
65.377419642060431
 30
0.0
 11
428.73101844391408
 21
65.373719642058404
 31
0.0
  0
LINE
  5
8DF3
  8
AM_0
 10
428.73101844391408
 20
65.373719642058404
 30
0.0
 11
428.7330184439142
 21
65.370019642057287
 31
0.0
  0
LINE
  5
8DF4
  8
AM_0
 10
428.7330184439142
 20
65.370019642057287
 30
0.0
 11
428.73501844391433
 21
65.366419642058403
 31
0.0
  0
LINE
  5
8DF5
  8
AM_0
 10
428.73501844391433
 20
65.366419642058403
 30
0.0
 11
428.73801844391397
 21
65.362719642058437
 31
0.0
  0
LINE
  5
8DF6
  8
AM_0
 10
428.73801844391397
 20
65.362719642058437
 30
0.0
 11
428.74001844391421
 21
65.359119642059341
 31
0.0
  0
LINE
  5
8DF7
  8
AM_0
 10
428.74001844391421
 20
65.359119642059341
 30
0.0
 11
428.74301844391408
 21
65.35541964205845
 31
0.0
  0
LINE
  5
8DF8
  8
AM_0
 10
428.74301844391408
 20
65.35541964205845
 30
0.0
 11
428.74501844391398
 21
65.351819642059354
 31
0.0
  0
LINE
  5
8DF9
  8
AM_0
 10
428.74501844391398
 20
65.351819642059354
 30
0.0
 11
428.74701844391421
 21
65.348219642058439
 31
0.0
  0
LINE
  5
8DFA
  8
AM_0
 10
428.74701844391421
 20
65.348219642058439
 30
0.0
 11
428.75001844391431
 21
65.344619642059342
 31
0.0
  0
LINE
  5
8DFB
  8
AM_0
 10
428.75001844391431
 20
65.344619642059342
 30
0.0
 11
428.75201844391421
 21
65.341119642059311
 31
0.0
  0
LINE
  5
8DFC
  8
AM_0
 10
428.75201844391421
 20
65.341119642059311
 30
0.0
 11
428.75501844391391
 21
65.337519642060442
 31
0.0
  0
LINE
  5
8DFD
  8
AM_0
 10
428.75501844391391
 20
65.337519642060442
 30
0.0
 11
428.75701844391398
 21
65.3339196420593
 31
0.0
  0
LINE
  5
8DFE
  8
AM_0
 10
428.75701844391398
 20
65.3339196420593
 30
0.0
 11
428.7600184439143
 21
65.330419642058345
 31
0.0
  0
LINE
  5
8DFF
  8
AM_0
 10
428.7600184439143
 20
65.330419642058345
 30
0.0
 11
428.76201844391409
 21
65.326919642058328
 31
0.0
  0
LINE
  5
8E00
  8
AM_0
 10
428.76201844391409
 20
65.326919642058328
 30
0.0
 11
428.76501844391419
 21
65.323419642058298
 31
0.0
  0
LINE
  5
8E01
  8
AM_0
 10
428.76501844391419
 20
65.323419642058298
 30
0.0
 11
428.768018443914
 21
65.319819642058292
 31
0.0
  0
LINE
  5
8E02
  8
AM_0
 10
428.768018443914
 20
65.319819642058292
 30
0.0
 11
428.77001844391441
 21
65.316419642059358
 31
0.0
  0
LINE
  5
8E03
  8
AM_0
 10
428.77001844391441
 20
65.316419642059358
 30
0.0
 11
428.77301844391422
 21
65.312919642058432
 31
0.0
  0
LINE
  5
8E04
  8
AM_0
 10
428.77301844391422
 20
65.312919642058432
 30
0.0
 11
428.77501844391418
 21
65.309419642058401
 31
0.0
  0
LINE
  5
8E05
  8
AM_0
 10
428.77501844391418
 20
65.309419642058401
 30
0.0
 11
428.77801844391399
 21
65.305919642058356
 31
0.0
  0
LINE
  5
8E06
  8
AM_0
 10
428.77801844391399
 20
65.305919642058356
 30
0.0
 11
428.78101844391421
 21
65.302519642058328
 31
0.0
  0
LINE
  5
8E07
  8
AM_0
 10
428.78101844391421
 20
65.302519642058328
 30
0.0
 11
428.78301844391422
 21
65.299019642058283
 31
0.0
  0
LINE
  5
8E08
  8
AM_0
 10
428.78301844391422
 20
65.299019642058283
 30
0.0
 11
428.78601844391397
 21
65.295619642057318
 31
0.0
  0
LINE
  5
8E09
  8
AM_0
 10
428.78601844391397
 20
65.295619642057318
 30
0.0
 11
428.7890184439143
 21
65.292219642060445
 31
0.0
  0
LINE
  5
8E0A
  8
AM_0
 10
428.7890184439143
 20
65.292219642060445
 30
0.0
 11
428.7910184439142
 21
65.288819642058343
 31
0.0
  0
LINE
  5
8E0B
  8
AM_0
 10
428.7910184439142
 20
65.288819642058343
 30
0.0
 11
428.79401844391418
 21
65.285419642058287
 31
0.0
  0
LINE
  5
8E0C
  8
AM_0
 10
428.79401844391418
 20
65.285419642058287
 30
0.0
 11
428.797018443914
 21
65.282019642058444
 31
0.0
  0
LINE
  5
8E0D
  8
AM_0
 10
428.797018443914
 20
65.282019642058444
 30
0.0
 11
428.80001844391421
 21
65.278719642059286
 31
0.0
  0
LINE
  5
8E0E
  8
AM_0
 10
428.80001844391421
 20
65.278719642059286
 30
0.0
 11
428.80201844391422
 21
65.275319642058321
 31
0.0
  0
LINE
  5
8E0F
  8
AM_0
 10
428.80201844391422
 20
65.275319642058321
 30
0.0
 11
428.80501844391398
 21
65.272019642059377
 31
0.0
  0
LINE
  5
8E10
  8
AM_0
 10
428.80501844391398
 20
65.272019642059377
 30
0.0
 11
428.80801844391419
 21
65.268619642059321
 31
0.0
  0
LINE
  5
8E11
  8
AM_0
 10
428.80801844391419
 20
65.268619642059321
 30
0.0
 11
428.81101844391412
 21
65.26531964205833
 31
0.0
  0
LINE
  5
8E12
  8
AM_0
 10
428.81101844391412
 20
65.26531964205833
 30
0.0
 11
428.81301844391402
 21
65.262019642058235
 31
0.0
  0
LINE
  5
8E13
  8
AM_0
 10
428.81301844391402
 20
65.262019642058235
 30
0.0
 11
428.81601844391389
 21
65.258719642059305
 31
0.0
  0
LINE
  5
8E14
  8
AM_0
 10
428.81601844391389
 20
65.258719642059305
 30
0.0
 11
428.81901844391427
 21
65.255419642058314
 31
0.0
  0
LINE
  5
8E15
  8
AM_0
 10
428.81901844391427
 20
65.255419642058314
 30
0.0
 11
428.8220184439142
 21
65.252119642059355
 31
0.0
  0
LINE
  5
8E16
  8
AM_0
 10
428.8220184439142
 20
65.252119642059355
 30
0.0
 11
428.82501844391402
 21
65.248819642059289
 31
0.0
  0
LINE
  5
8E17
  8
AM_0
 10
428.82501844391402
 20
65.248819642059289
 30
0.0
 11
428.82801844391429
 21
65.245619642058273
 31
0.0
  0
LINE
  5
8E18
  8
AM_0
 10
428.82801844391429
 20
65.245619642058273
 30
0.0
 11
428.83101844391427
 21
65.242319642059329
 31
0.0
  0
LINE
  5
8E19
  8
AM_0
 10
428.83101844391427
 20
65.242319642059329
 30
0.0
 11
428.83401844391398
 21
65.239119642058313
 31
0.0
  0
LINE
  5
8E1A
  8
AM_0
 10
428.83401844391398
 20
65.239119642058313
 30
0.0
 11
428.8370184439143
 21
65.235919642059343
 31
0.0
  0
LINE
  5
8E1B
  8
AM_0
 10
428.8370184439143
 20
65.235919642059343
 30
0.0
 11
428.83901844391409
 21
65.232719642059237
 31
0.0
  0
LINE
  5
8E1C
  8
AM_0
 10
428.83901844391409
 20
65.232719642059237
 30
0.0
 11
428.8420184439139
 21
65.229519642057312
 31
0.0
  0
LINE
  5
8E1D
  8
AM_0
 10
428.8420184439139
 20
65.229519642057312
 30
0.0
 11
428.845018443914
 21
65.226319642059252
 31
0.0
  0
LINE
  5
8E1E
  8
AM_0
 10
428.845018443914
 20
65.226319642059252
 30
0.0
 11
428.84801844391421
 21
65.223119642058464
 31
0.0
  0
LINE
  5
8E1F
  8
AM_0
 10
428.84801844391421
 20
65.223119642058464
 30
0.0
 11
428.85101844391397
 21
65.219919642059267
 31
0.0
  0
LINE
  5
8E20
  8
AM_0
 10
428.85101844391397
 20
65.219919642059267
 30
0.0
 11
428.85401844391401
 21
65.216819642059349
 31
0.0
  0
LINE
  5
8E21
  8
AM_0
 10
428.85401844391401
 20
65.216819642059349
 30
0.0
 11
428.85701844391428
 21
65.213619642058319
 31
0.0
  0
LINE
  5
8E22
  8
AM_0
 10
428.85701844391428
 20
65.213619642058319
 30
0.0
 11
428.8600184439141
 21
65.210519642059353
 31
0.0
  0
LINE
  5
8E23
  8
AM_0
 10
428.8600184439141
 20
65.210519642059353
 30
0.0
 11
428.86301844391397
 21
65.207419642058312
 31
0.0
  0
LINE
  5
8E24
  8
AM_0
 10
428.86301844391397
 20
65.207419642058312
 30
0.0
 11
428.86601844391441
 21
65.204219642059343
 31
0.0
  0
LINE
  5
8E25
  8
AM_0
 10
428.86601844391441
 20
65.204219642059343
 30
0.0
 11
428.86901844391417
 21
65.201119642058302
 31
0.0
  0
LINE
  5
8E26
  8
AM_0
 10
428.86901844391417
 20
65.201119642058302
 30
0.0
 11
428.87201844391399
 21
65.198019642058384
 31
0.0
  0
LINE
  5
8E27
  8
AM_0
 10
428.87201844391399
 20
65.198019642058384
 30
0.0
 11
428.87501844391431
 21
65.195019642059378
 31
0.0
  0
LINE
  5
8E28
  8
AM_0
 10
428.87501844391431
 20
65.195019642059378
 30
0.0
 11
428.87901844391422
 21
65.191919642058338
 31
0.0
  0
LINE
  5
8E29
  8
AM_0
 10
428.87901844391422
 20
65.191919642058338
 30
0.0
 11
428.88201844391398
 21
65.188819642057297
 31
0.0
  0
LINE
  5
8E2A
  8
AM_0
 10
428.88201844391398
 20
65.188819642057297
 30
0.0
 11
428.88501844391442
 21
65.185819642058277
 31
0.0
  0
LINE
  5
8E2B
  8
AM_0
 10
428.88501844391442
 20
65.185819642058277
 30
0.0
 11
428.88801844391412
 21
65.182719642058359
 31
0.0
  0
LINE
  5
8E2C
  8
AM_0
 10
428.88801844391412
 20
65.182719642058359
 30
0.0
 11
428.89101844391399
 21
65.179719642058444
 31
0.0
  0
LINE
  5
8E2D
  8
AM_0
 10
428.89101844391399
 20
65.179719642058444
 30
0.0
 11
428.89401844391432
 21
65.176719642058274
 31
0.0
  0
LINE
  5
8E2E
  8
AM_0
 10
428.89401844391432
 20
65.176719642058274
 30
0.0
 11
428.89701844391431
 21
65.173719642058344
 31
0.0
  0
LINE
  5
8E2F
  8
AM_0
 10
428.89701844391431
 20
65.173719642058344
 30
0.0
 11
428.90001844391401
 21
65.170719642059339
 31
0.0
  0
LINE
  5
8E30
  8
AM_0
 10
428.90001844391401
 20
65.170719642059339
 30
0.0
 11
428.90401844391431
 21
65.167719642058273
 31
0.0
  0
LINE
  5
8E31
  8
AM_0
 10
428.90401844391431
 20
65.167719642058273
 30
0.0
 11
428.90701844391413
 21
65.164719642058344
 31
0.0
  0
LINE
  5
8E32
  8
AM_0
 10
428.90701844391413
 20
65.164719642058344
 30
0.0
 11
428.910018443914
 21
65.161719642059325
 31
0.0
  0
LINE
  5
8E33
  8
AM_0
 10
428.910018443914
 20
65.161719642059325
 30
0.0
 11
428.91301844391432
 21
65.158819642058461
 31
0.0
  0
LINE
  5
8E34
  8
AM_0
 10
428.91301844391432
 20
65.158819642058461
 30
0.0
 11
428.9160184439142
 21
65.15581964205829
 31
0.0
  0
LINE
  5
8E35
  8
AM_0
 10
428.9160184439142
 20
65.15581964205829
 30
0.0
 11
428.91901844391401
 21
65.15291964205926
 31
0.0
  0
LINE
  5
8E36
  8
AM_0
 10
428.91901844391401
 20
65.15291964205926
 30
0.0
 11
428.9230184439142
 21
65.149919642058421
 31
0.0
  0
LINE
  5
8E37
  8
AM_0
 10
428.9230184439142
 20
65.149919642058421
 30
0.0
 11
428.92601844391407
 21
65.147019642058467
 31
0.0
  0
LINE
  5
8E38
  8
AM_0
 10
428.92601844391407
 20
65.147019642058467
 30
0.0
 11
428.929018443914
 21
65.144119642058286
 31
0.0
  0
LINE
  5
8E39
  8
AM_0
 10
428.929018443914
 20
65.144119642058286
 30
0.0
 11
428.93201844391427
 21
65.141219642057195
 31
0.0
  0
LINE
  5
8E3A
  8
AM_0
 10
428.93201844391427
 20
65.141219642057195
 30
0.0
 11
428.93601844391412
 21
65.138319642058377
 31
0.0
  0
LINE
  5
8E3B
  8
AM_0
 10
428.93601844391412
 20
65.138319642058377
 30
0.0
 11
428.93901844391399
 21
65.135419642059333
 31
0.0
  0
LINE
  5
8E3C
  8
AM_0
 10
428.93901844391399
 20
65.135419642059333
 30
0.0
 11
428.94201844391432
 21
65.132619642057293
 31
0.0
  0
LINE
  5
8E3D
  8
AM_0
 10
428.94201844391432
 20
65.132619642057293
 30
0.0
 11
428.94501844391408
 21
65.129719642059172
 31
0.0
  0
LINE
  5
8E3E
  8
AM_0
 10
428.94501844391408
 20
65.129719642059172
 30
0.0
 11
428.9490184439141
 21
65.126919642058283
 31
0.0
  0
LINE
  5
8E3F
  8
AM_0
 10
428.9490184439141
 20
65.126919642058283
 30
0.0
 11
428.95201844391431
 21
65.124019642059238
 31
0.0
  0
LINE
  5
8E40
  8
AM_0
 10
428.95201844391431
 20
65.124019642059238
 30
0.0
 11
428.95501844391418
 21
65.12121964205835
 31
0.0
  0
LINE
  5
8E41
  8
AM_0
 10
428.95501844391418
 20
65.12121964205835
 30
0.0
 11
428.95901844391398
 21
65.118419642059266
 31
0.0
  0
LINE
  5
8E42
  8
AM_0
 10
428.95901844391398
 20
65.118419642059266
 30
0.0
 11
428.9620184439143
 21
65.115619642059301
 31
0.0
  0
LINE
  5
8E43
  8
AM_0
 10
428.9620184439143
 20
65.115619642059301
 30
0.0
 11
428.96501844391418
 21
65.112819642058412
 31
0.0
  0
LINE
  5
8E44
  8
AM_0
 10
428.96501844391418
 20
65.112819642058412
 30
0.0
 11
428.96901844391402
 21
65.110019642058433
 31
0.0
  0
LINE
  5
8E45
  8
AM_0
 10
428.96901844391402
 20
65.110019642058433
 30
0.0
 11
428.97201844391429
 21
65.107219642059334
 31
0.0
  0
LINE
  5
8E46
  8
AM_0
 10
428.97201844391429
 20
65.107219642059334
 30
0.0
 11
428.97501844391411
 21
65.104419642058247
 31
0.0
  0
LINE
  5
8E47
  8
AM_0
 10
428.97501844391411
 20
65.104419642058247
 30
0.0
 11
428.97901844391191
 21
65.101719642058242
 31
0.0
  0
LINE
  5
8E48
  8
AM_0
 10
428.97901844391191
 20
65.101719642058242
 30
0.0
 11
428.98201844391423
 21
65.098919642059172
 31
0.0
  0
LINE
  5
8E49
  8
AM_0
 10
428.98201844391423
 20
65.098919642059172
 30
0.0
 11
428.98501844391421
 21
65.096219642057335
 31
0.0
  0
LINE
  5
8E4A
  8
AM_0
 10
428.98501844391421
 20
65.096219642057335
 30
0.0
 11
428.98901844391401
 21
65.093419642058279
 31
0.0
  0
LINE
  5
8E4B
  8
AM_0
 10
428.98901844391401
 20
65.093419642058279
 30
0.0
 11
428.99201844391422
 21
65.090719642058275
 31
0.0
  0
LINE
  5
8E4C
  8
AM_0
 10
428.99201844391422
 20
65.090719642058275
 30
0.0
 11
428.99601844391401
 21
65.088019642058271
 31
0.0
  0
LINE
  5
8E4D
  8
AM_0
 10
428.99601844391401
 20
65.088019642058271
 30
0.0
 11
428.99901844391297
 21
65.085319642058252
 31
0.0
  0
LINE
  5
8E4E
  8
AM_0
 10
428.99901844391297
 20
65.085319642058252
 30
0.0
 11
429.00201844391421
 21
65.082619642058262
 31
0.0
  0
LINE
  5
8E4F
  8
AM_0
 10
429.00201844391421
 20
65.082619642058262
 30
0.0
 11
429.006018443914
 21
65.079919642059167
 31
0.0
  0
LINE
  5
8E50
  8
AM_0
 10
429.006018443914
 20
65.079919642059167
 30
0.0
 11
429.00901844391427
 21
65.077219642058253
 31
0.0
  0
LINE
  5
8E51
  8
AM_0
 10
429.00901844391427
 20
65.077219642058253
 30
0.0
 11
429.01301844391412
 21
65.074619642057314
 31
0.0
  0
LINE
  5
8E52
  8
AM_0
 10
429.01301844391412
 20
65.074619642057314
 30
0.0
 11
429.01601844391399
 21
65.071919642057296
 31
0.0
  0
LINE
  5
8E53
  8
AM_0
 10
429.01601844391399
 20
65.071919642057296
 30
0.0
 11
429.02001844391413
 21
65.069219642057291
 31
0.0
  0
LINE
  5
8E54
  8
AM_0
 10
429.02001844391413
 20
65.069219642057291
 30
0.0
 11
429.02301844391428
 21
65.066619642059322
 31
0.0
  0
LINE
  5
8E55
  8
AM_0
 10
429.02301844391428
 20
65.066619642059322
 30
0.0
 11
429.0260184439141
 21
65.064019642058383
 31
0.0
  0
LINE
  5
8E56
  8
AM_0
 10
429.0260184439141
 20
65.064019642058383
 30
0.0
 11
429.03001844391429
 21
65.061419642057217
 31
0.0
  0
LINE
  5
8E57
  8
AM_0
 10
429.03001844391429
 20
65.061419642057217
 30
0.0
 11
429.03301844391427
 21
65.058719642059259
 31
0.0
  0
LINE
  5
8E58
  8
AM_0
 10
429.03301844391427
 20
65.058719642059259
 30
0.0
 11
429.03701844391389
 21
65.05611964205832
 31
0.0
  0
LINE
  5
8E59
  8
AM_0
 10
429.03701844391389
 20
65.05611964205832
 30
0.0
 11
429.04001844391428
 21
65.053519642058291
 31
0.0
  0
LINE
  5
8E5A
  8
AM_0
 10
429.04001844391428
 20
65.053519642058291
 30
0.0
 11
429.04401844391299
 21
65.051019642059359
 31
0.0
  0
LINE
  5
8E5B
  8
AM_0
 10
429.04401844391299
 20
65.051019642059359
 30
0.0
 11
429.047018443914
 21
65.048419642059343
 31
0.0
  0
LINE
  5
8E5C
  8
AM_0
 10
429.047018443914
 20
65.048419642059343
 30
0.0
 11
429.05101844391407
 21
65.045819642060451
 31
0.0
  0
LINE
  5
8E5D
  8
AM_0
 10
429.05101844391407
 20
65.045819642060451
 30
0.0
 11
429.05401844391417
 21
65.043319642059259
 31
0.0
  0
LINE
  5
8E5E
  8
AM_0
 10
429.05401844391417
 20
65.043319642059259
 30
0.0
 11
429.05801844391431
 21
65.04071964205923
 31
0.0
  0
LINE
  5
8E5F
  8
AM_0
 10
429.05801844391431
 20
65.04071964205923
 30
0.0
 11
429.06101844391418
 21
65.038219642058252
 31
0.0
  0
LINE
  5
8E60
  8
AM_0
 10
429.06101844391418
 20
65.038219642058252
 30
0.0
 11
429.06501844391403
 21
65.035619642058464
 31
0.0
  0
LINE
  5
8E61
  8
AM_0
 10
429.06501844391403
 20
65.035619642058464
 30
0.0
 11
429.06801844391441
 21
65.033119642059319
 31
0.0
  0
LINE
  5
8E62
  8
AM_0
 10
429.06801844391441
 20
65.033119642059319
 30
0.0
 11
429.0720184439142
 21
65.030619642059264
 31
0.0
  0
LINE
  5
8E63
  8
AM_0
 10
429.0720184439142
 20
65.030619642059264
 30
0.0
 11
429.07601844391399
 21
65.0281196420583
 31
0.0
  0
LINE
  5
8E64
  8
AM_0
 10
429.07601844391399
 20
65.0281196420583
 30
0.0
 11
429.07901844391421
 21
65.025619642058246
 31
0.0
  0
LINE
  5
8E65
  8
AM_0
 10
429.07901844391421
 20
65.025619642058246
 30
0.0
 11
429.083018443914
 21
65.023119642058418
 31
0.0
  0
LINE
  5
8E66
  8
AM_0
 10
429.083018443914
 20
65.023119642058418
 30
0.0
 11
429.08601844391433
 21
65.020619642058364
 31
0.0
  0
LINE
  5
8E67
  8
AM_0
 10
429.08601844391433
 20
65.020619642058364
 30
0.0
 11
429.09001844391412
 21
65.018219642059194
 31
0.0
  0
LINE
  5
8E68
  8
AM_0
 10
429.09001844391412
 20
65.018219642059194
 30
0.0
 11
429.09301844391399
 21
65.015719642059366
 31
0.0
  0
LINE
  5
8E69
  8
AM_0
 10
429.09301844391399
 20
65.015719642059366
 30
0.0
 11
429.09701844391412
 21
65.013319642058377
 31
0.0
  0
LINE
  5
8E6A
  8
AM_0
 10
429.09701844391412
 20
65.013319642058377
 30
0.0
 11
429.1010184439142
 21
65.010819642058323
 31
0.0
  0
LINE
  5
8E6B
  8
AM_0
 10
429.1010184439142
 20
65.010819642058323
 30
0.0
 11
429.10401844391401
 21
65.008419642058243
 31
0.0
  0
LINE
  5
8E6C
  8
AM_0
 10
429.10401844391401
 20
65.008419642058243
 30
0.0
 11
429.10801844391432
 21
65.006019642058391
 31
0.0
  0
LINE
  5
8E6D
  8
AM_0
 10
429.10801844391432
 20
65.006019642058391
 30
0.0
 11
429.11101844391402
 21
65.00351964205835
 31
0.0
  0
LINE
  5
8E6E
  8
AM_0
 10
429.11101844391402
 20
65.00351964205835
 30
0.0
 11
429.11501844391432
 21
65.001119642058256
 31
0.0
  0
LINE
  5
8E6F
  8
AM_0
 10
429.11501844391432
 20
65.001119642058256
 30
0.0
 11
429.11901844391411
 21
64.998719642058404
 31
0.0
  0
LINE
  5
8E70
  8
AM_0
 10
429.11901844391411
 20
64.998719642058404
 30
0.0
 11
429.1220184439141
 21
64.996319642059234
 31
0.0
  0
LINE
  5
8E71
  8
AM_0
 10
429.1220184439141
 20
64.996319642059234
 30
0.0
 11
429.12601844391429
 21
64.993919642057335
 31
0.0
  0
LINE
  5
8E72
  8
AM_0
 10
429.12601844391429
 20
64.993919642057335
 30
0.0
 11
429.13001844391403
 21
64.991619642059277
 31
0.0
  0
LINE
  5
8E73
  8
AM_0
 10
429.13001844391403
 20
64.991619642059277
 30
0.0
 11
429.13301844391299
 21
64.989219642058288
 31
0.0
  0
LINE
  5
8E74
  8
AM_0
 10
429.13301844391299
 20
64.989219642058288
 30
0.0
 11
429.13701844391409
 21
64.986819642058435
 31
0.0
  0
LINE
  5
8E75
  8
AM_0
 10
429.13701844391409
 20
64.986819642058435
 30
0.0
 11
429.14101844391428
 21
64.984519642057194
 31
0.0
  0
LINE
  5
8E76
  8
AM_0
 10
429.14101844391428
 20
64.984519642057194
 30
0.0
 11
429.14401844391432
 21
64.982119642058251
 31
0.0
  0
LINE
  5
8E77
  8
AM_0
 10
429.14401844391432
 20
64.982119642058251
 30
0.0
 11
429.14801844391428
 21
64.979819642058359
 31
0.0
  0
LINE
  5
8E78
  8
AM_0
 10
429.14801844391428
 20
64.979819642058359
 30
0.0
 11
429.15201844391288
 21
64.977519642058255
 31
0.0
  0
LINE
  5
8E79
  8
AM_0
 10
429.15201844391288
 20
64.977519642058255
 30
0.0
 11
429.15501844391429
 21
64.975219642058391
 31
0.0
  0
LINE
  5
8E7A
  8
AM_0
 10
429.15501844391429
 20
64.975219642058391
 30
0.0
 11
429.15901844391419
 21
64.972919642058287
 31
0.0
  0
LINE
  5
8E7B
  8
AM_0
 10
429.15901844391419
 20
64.972919642058287
 30
0.0
 11
429.16301844391432
 21
64.970519642057297
 31
0.0
  0
LINE
  5
8E7C
  8
AM_0
 10
429.16301844391432
 20
64.970519642057297
 30
0.0
 11
429.1660184439142
 21
64.96831964205829
 31
0.0
  0
LINE
  5
8E7D
  8
AM_0
 10
429.1660184439142
 20
64.96831964205829
 30
0.0
 11
429.17001844391399
 21
64.96601964205729
 31
0.0
  0
LINE
  5
8E7E
  8
AM_0
 10
429.17001844391399
 20
64.96601964205729
 30
0.0
 11
429.17401844391418
 21
64.963719642058322
 31
0.0
  0
LINE
  5
8E7F
  8
AM_0
 10
429.17401844391418
 20
64.963719642058322
 30
0.0
 11
429.17701844391422
 21
64.961419642058445
 31
0.0
  0
LINE
  5
8E80
  8
AM_0
 10
429.17701844391422
 20
64.961419642058445
 30
0.0
 11
429.18101844391401
 21
64.95911964205834
 31
0.0
  0
LINE
  5
8E81
  8
AM_0
 10
429.18101844391401
 20
64.95911964205834
 30
0.0
 11
429.1850184439142
 21
64.956919642058423
 31
0.0
  0
LINE
  5
8E82
  8
AM_0
 10
429.1850184439142
 20
64.956919642058423
 30
0.0
 11
429.18901844391399
 21
64.954619642058319
 31
0.0
  0
LINE
  5
8E83
  8
AM_0
 10
429.18901844391399
 20
64.954619642058319
 30
0.0
 11
429.19201844391432
 21
64.95241964205934
 31
0.0
  0
LINE
  5
8E84
  8
AM_0
 10
429.19201844391432
 20
64.95241964205934
 30
0.0
 11
429.19601844391423
 21
64.9502196420583
 31
0.0
  0
LINE
  5
8E85
  8
AM_0
 10
429.19601844391423
 20
64.9502196420583
 30
0.0
 11
429.20001844391402
 21
64.947919642059333
 31
0.0
  0
LINE
  5
8E86
  8
AM_0
 10
429.20001844391402
 20
64.947919642059333
 30
0.0
 11
429.20301844391412
 21
64.945719642058293
 31
0.0
  0
LINE
  5
8E87
  8
AM_0
 10
429.20301844391412
 20
64.945719642058293
 30
0.0
 11
429.20701844391419
 21
64.943519642060437
 31
0.0
  0
LINE
  5
8E88
  8
AM_0
 10
429.20701844391419
 20
64.943519642060437
 30
0.0
 11
429.21101844391433
 21
64.941319642058261
 31
0.0
  0
LINE
  5
8E89
  8
AM_0
 10
429.21101844391433
 20
64.941319642058261
 30
0.0
 11
429.21501844391412
 21
64.939119642059268
 31
0.0
  0
LINE
  5
8E8A
  8
AM_0
 10
429.21501844391412
 20
64.939119642059268
 30
0.0
 11
429.2180184439141
 21
64.936919642059365
 31
0.0
  0
LINE
  5
8E8B
  8
AM_0
 10
429.2180184439141
 20
64.936919642059365
 30
0.0
 11
429.22201844391429
 21
64.934819642058301
 31
0.0
  0
LINE
  5
8E8C
  8
AM_0
 10
429.22201844391429
 20
64.934819642058301
 30
0.0
 11
429.22601844391397
 21
64.932619642058398
 31
0.0
  0
LINE
  5
8E8D
  8
AM_0
 10
429.22601844391397
 20
64.932619642058398
 30
0.0
 11
429.2300184439141
 21
64.930419642058254
 31
0.0
  0
LINE
  5
8E8E
  8
AM_0
 10
429.2300184439141
 20
64.930419642058254
 30
0.0
 11
429.23401844391412
 21
64.928319642058341
 31
0.0
  0
LINE
  5
8E8F
  8
AM_0
 10
429.23401844391412
 20
64.928319642058341
 30
0.0
 11
429.23701844391428
 21
64.926119642058438
 31
0.0
  0
LINE
  5
8E90
  8
AM_0
 10
429.23701844391428
 20
64.926119642058438
 30
0.0
 11
429.2410184439143
 21
64.924019642058283
 31
0.0
  0
LINE
  5
8E91
  8
AM_0
 10
429.2410184439143
 20
64.924019642058283
 30
0.0
 11
429.24501844391398
 21
64.921819642057244
 31
0.0
  0
LINE
  5
8E92
  8
AM_0
 10
429.24501844391398
 20
64.921819642057244
 30
0.0
 11
429.249018443914
 21
64.919719642057316
 31
0.0
  0
LINE
  5
8E93
  8
AM_0
 10
429.249018443914
 20
64.919719642057316
 30
0.0
 11
429.25201844391421
 21
64.917619642058298
 31
0.0
  0
LINE
  5
8E94
  8
AM_0
 10
429.25201844391421
 20
64.917619642058298
 30
0.0
 11
429.25601844391417
 21
64.915519642058356
 31
0.0
  0
LINE
  5
8E95
  8
AM_0
 10
429.25601844391417
 20
64.915519642058356
 30
0.0
 11
429.26001844391442
 21
64.913419642057292
 31
0.0
  0
LINE
  5
8E96
  8
AM_0
 10
429.26001844391442
 20
64.913419642057292
 30
0.0
 11
429.26401844391421
 21
64.911319642058288
 31
0.0
  0
LINE
  5
8E97
  8
AM_0
 10
429.26401844391421
 20
64.911319642058288
 30
0.0
 11
429.26801844391412
 21
64.90921964205927
 31
0.0
  0
LINE
  5
8E98
  8
AM_0
 10
429.26801844391412
 20
64.90921964205927
 30
0.0
 11
429.27201844391419
 21
64.907119642057296
 31
0.0
  0
LINE
  5
8E99
  8
AM_0
 10
429.27201844391419
 20
64.907119642057296
 30
0.0
 11
429.27501844391418
 21
64.905019642058278
 31
0.0
  0
LINE
  5
8E9A
  8
AM_0
 10
429.27501844391418
 20
64.905019642058278
 30
0.0
 11
429.27901844391431
 21
64.903019642058325
 31
0.0
  0
LINE
  5
8E9B
  8
AM_0
 10
429.27901844391431
 20
64.903019642058325
 30
0.0
 11
429.28301844391422
 21
64.900919642058398
 31
0.0
  0
LINE
  5
8E9C
  8
AM_0
 10
429.28301844391422
 20
64.900919642058398
 30
0.0
 11
429.28701844391401
 21
64.898819642058243
 31
0.0
  0
LINE
  5
8E9D
  8
AM_0
 10
429.28701844391401
 20
64.898819642058243
 30
0.0
 11
429.29101844391431
 21
64.896819642058276
 31
0.0
  0
LINE
  5
8E9E
  8
AM_0
 10
429.29101844391431
 20
64.896819642058276
 30
0.0
 11
429.29401844391401
 21
64.894719642059272
 31
0.0
  0
LINE
  5
8E9F
  8
AM_0
 10
429.29401844391401
 20
64.894719642059272
 30
0.0
 11
429.29801844391432
 21
64.892719642059319
 31
0.0
  0
LINE
  5
8EA0
  8
AM_0
 10
429.29801844391432
 20
64.892719642059319
 30
0.0
 11
429.30201844391422
 21
64.890719642058457
 31
0.0
  0
LINE
  5
8EA1
  8
AM_0
 10
429.30201844391422
 20
64.890719642058457
 30
0.0
 11
429.30601844391401
 21
64.888719642058277
 31
0.0
  0
LINE
  5
8EA2
  8
AM_0
 10
429.30601844391401
 20
64.888719642058277
 30
0.0
 11
429.3100184439142
 21
64.886719642059234
 31
0.0
  0
LINE
  5
8EA3
  8
AM_0
 10
429.3100184439142
 20
64.886719642059234
 30
0.0
 11
429.31401844391399
 21
64.884719642058343
 31
0.0
  0
LINE
  5
8EA4
  8
AM_0
 10
429.31401844391399
 20
64.884719642058343
 30
0.0
 11
429.3180184439143
 21
64.882719642058419
 31
0.0
  0
LINE
  5
8EA5
  8
AM_0
 10
429.3180184439143
 20
64.882719642058419
 30
0.0
 11
429.32101844391428
 21
64.880719642058466
 31
0.0
  0
LINE
  5
8EA6
  8
AM_0
 10
429.32101844391428
 20
64.880719642058466
 30
0.0
 11
429.3250184439139
 21
64.878719642058286
 31
0.0
  0
LINE
  5
8EA7
  8
AM_0
 10
429.3250184439139
 20
64.878719642058286
 30
0.0
 11
429.32901844391421
 21
64.876719642058319
 31
0.0
  0
LINE
  5
8EA8
  8
AM_0
 10
429.32901844391421
 20
64.876719642058319
 30
0.0
 11
429.333018443914
 21
64.87471964205929
 31
0.0
  0
LINE
  5
8EA9
  8
AM_0
 10
429.333018443914
 20
64.87471964205929
 30
0.0
 11
429.3370184439143
 21
64.872819642059312
 31
0.0
  0
LINE
  5
8EAA
  8
AM_0
 10
429.3370184439143
 20
64.872819642059312
 30
0.0
 11
429.34101844391398
 21
64.870819642059359
 31
0.0
  0
LINE
  5
8EAB
  8
AM_0
 10
429.34101844391398
 20
64.870819642059359
 30
0.0
 11
429.345018443914
 21
64.868919642058245
 31
0.0
  0
LINE
  5
8EAC
  8
AM_0
 10
429.345018443914
 20
64.868919642058245
 30
0.0
 11
429.34901844391419
 21
64.866919642057383
 31
0.0
  0
LINE
  5
8EAD
  8
AM_0
 10
429.34901844391419
 20
64.866919642057383
 30
0.0
 11
429.35301844391398
 21
64.865019642059224
 31
0.0
  0
LINE
  5
8EAE
  8
AM_0
 10
429.35301844391398
 20
64.865019642059224
 30
0.0
 11
429.35601844391431
 21
64.863119642059246
 31
0.0
  0
LINE
  5
8EAF
  8
AM_0
 10
429.35601844391431
 20
64.863119642059246
 30
0.0
 11
429.36001844391399
 21
64.861119642059293
 31
0.0
  0
LINE
  5
8EB0
  8
AM_0
 10
429.36001844391399
 20
64.861119642059293
 30
0.0
 11
429.36401844391401
 21
64.859219642059315
 31
0.0
  0
LINE
  5
8EB1
  8
AM_0
 10
429.36401844391401
 20
64.859219642059315
 30
0.0
 11
429.3680184439142
 21
64.857319642058414
 31
0.0
  0
LINE
  5
8EB2
  8
AM_0
 10
429.3680184439142
 20
64.857319642058414
 30
0.0
 11
429.37201844391399
 21
64.85541964205845
 31
0.0
  0
LINE
  5
8EB3
  8
AM_0
 10
429.37201844391399
 20
64.85541964205845
 30
0.0
 11
429.37601844391412
 21
64.853519642058245
 31
0.0
  0
LINE
  5
8EB4
  8
AM_0
 10
429.37601844391412
 20
64.853519642058245
 30
0.0
 11
429.3800184439142
 21
64.851619642058253
 31
0.0
  0
LINE
  5
8EB5
  8
AM_0
 10
429.3800184439142
 20
64.851619642058253
 30
0.0
 11
429.38401844391427
 21
64.849819642057355
 31
0.0
  0
LINE
  5
8EB6
  8
AM_0
 10
429.38401844391427
 20
64.849819642057355
 30
0.0
 11
429.38801844391412
 21
64.847919642058287
 31
0.0
  0
LINE
  5
8EB7
  8
AM_0
 10
429.38801844391412
 20
64.847919642058287
 30
0.0
 11
429.39201844391192
 21
64.846019642059204
 31
0.0
  0
LINE
  5
8EB8
  8
AM_0
 10
429.39201844391192
 20
64.846019642059204
 30
0.0
 11
429.39601844391422
 21
64.84421964205832
 31
0.0
  0
LINE
  5
8EB9
  8
AM_0
 10
429.39601844391422
 20
64.84421964205832
 30
0.0
 11
429.3990184439142
 21
64.842319642058314
 31
0.0
  0
LINE
  5
8EBA
  8
AM_0
 10
429.3990184439142
 20
64.842319642058314
 30
0.0
 11
429.40301844391399
 21
64.840519642058325
 31
0.0
  0
LINE
  5
8EBB
  8
AM_0
 10
429.40301844391399
 20
64.840519642058325
 30
0.0
 11
429.40701844391413
 21
64.838619642059257
 31
0.0
  0
LINE
  5
8EBC
  8
AM_0
 10
429.40701844391413
 20
64.838619642059257
 30
0.0
 11
429.41101844391108
 21
64.836819642059254
 31
0.0
  0
LINE
  5
8EBD
  8
AM_0
 10
429.41101844391108
 20
64.836819642059254
 30
0.0
 11
429.41501844391428
 21
64.835019642057205
 31
0.0
  0
LINE
  5
8EBE
  8
AM_0
 10
429.41501844391428
 20
64.835019642057205
 30
0.0
 11
429.4190184439139
 21
64.833119642058364
 31
0.0
  0
LINE
  5
8EBF
  8
AM_0
 10
429.4190184439139
 20
64.833119642058364
 30
0.0
 11
429.42301844391409
 21
64.83131964205927
 31
0.0
  0
LINE
  5
8EC0
  8
AM_0
 10
429.42301844391409
 20
64.83131964205927
 30
0.0
 11
429.42701844391428
 21
64.829519642058344
 31
0.0
  0
LINE
  5
8EC1
  8
AM_0
 10
429.42701844391428
 20
64.829519642058344
 30
0.0
 11
429.4310184439139
 21
64.827719642058369
 31
0.0
  0
LINE
  5
8EC2
  8
AM_0
 10
429.4310184439139
 20
64.827719642058369
 30
0.0
 11
429.43501844391409
 21
64.825919642059262
 31
0.0
  0
LINE
  5
8EC3
  8
AM_0
 10
429.43501844391409
 20
64.825919642059262
 30
0.0
 11
429.43901844391422
 21
64.824119642058349
 31
0.0
  0
LINE
  5
8EC4
  8
AM_0
 10
429.43901844391422
 20
64.824119642058349
 30
0.0
 11
429.4430184439143
 21
64.822419642059231
 31
0.0
  0
LINE
  5
8EC5
  8
AM_0
 10
429.4430184439143
 20
64.822419642059231
 30
0.0
 11
429.44701844391398
 21
64.820619642057181
 31
0.0
  0
LINE
  5
8EC6
  8
AM_0
 10
429.44701844391398
 20
64.820619642057181
 30
0.0
 11
429.45101844391399
 21
64.818819642058315
 31
0.0
  0
LINE
  5
8EC7
  8
AM_0
 10
429.45101844391399
 20
64.818819642058315
 30
0.0
 11
429.45501844391418
 21
64.817019642058312
 31
0.0
  0
LINE
  5
8EC8
  8
AM_0
 10
429.45501844391418
 20
64.817019642058312
 30
0.0
 11
429.45901844391398
 21
64.815319642058284
 31
0.0
  0
LINE
  5
8EC9
  8
AM_0
 10
429.45901844391398
 20
64.815319642058284
 30
0.0
 11
429.46301844391422
 21
64.813519642058282
 31
0.0
  0
LINE
  5
8ECA
  8
AM_0
 10
429.46301844391422
 20
64.813519642058282
 30
0.0
 11
429.46701844391418
 21
64.811819642058254
 31
0.0
  0
LINE
  5
8ECB
  8
AM_0
 10
429.46701844391418
 20
64.811819642058254
 30
0.0
 11
429.47101844391432
 21
64.810119642058453
 31
0.0
  0
LINE
  5
8ECC
  8
AM_0
 10
429.47101844391432
 20
64.810119642058453
 30
0.0
 11
429.47501844391422
 21
64.808319642059359
 31
0.0
  0
LINE
  5
8ECD
  8
AM_0
 10
429.47501844391422
 20
64.808319642059359
 30
0.0
 11
429.47901844391401
 21
64.806619642057285
 31
0.0
  0
LINE
  5
8ECE
  8
AM_0
 10
429.47901844391401
 20
64.806619642057285
 30
0.0
 11
429.4830184439142
 21
64.804919642059303
 31
0.0
  0
LINE
  5
8ECF
  8
AM_0
 10
429.4830184439142
 20
64.804919642059303
 30
0.0
 11
429.487018443914
 21
64.803219642059275
 31
0.0
  0
LINE
  5
8ED0
  8
AM_0
 10
429.487018443914
 20
64.803219642059275
 30
0.0
 11
429.49101844391407
 21
64.801519642059247
 31
0.0
  0
LINE
  5
8ED1
  8
AM_0
 10
429.49101844391407
 20
64.801519642059247
 30
0.0
 11
429.4950184439142
 21
64.79981964205831
 31
0.0
  0
LINE
  5
8ED2
  8
AM_0
 10
429.4950184439142
 20
64.79981964205831
 30
0.0
 11
429.499018443914
 21
64.798119642057372
 31
0.0
  0
LINE
  5
8ED3
  8
AM_0
 10
429.499018443914
 20
64.798119642057372
 30
0.0
 11
429.50301844391407
 21
64.796419642058254
 31
0.0
  0
LINE
  5
8ED4
  8
AM_0
 10
429.50301844391407
 20
64.796419642058254
 30
0.0
 11
429.50701844391398
 21
64.794719642059334
 31
0.0
  0
LINE
  5
8ED5
  8
AM_0
 10
429.50701844391398
 20
64.794719642059334
 30
0.0
 11
429.51101844391428
 21
64.793019642058425
 31
0.0
  0
LINE
  5
8ED6
  8
AM_0
 10
429.51101844391428
 20
64.793019642058425
 30
0.0
 11
429.5150184439139
 21
64.791319642059293
 31
0.0
  0
LINE
  5
8ED7
  8
AM_0
 10
429.5150184439139
 20
64.791319642059293
 30
0.0
 11
429.51901844391421
 21
64.789719642059254
 31
0.0
  0
LINE
  5
8ED8
  8
AM_0
 10
429.51901844391421
 20
64.789719642059254
 30
0.0
 11
429.52301844391428
 21
64.78801964205833
 31
0.0
  0
LINE
  5
8ED9
  8
AM_0
 10
429.52301844391428
 20
64.78801964205833
 30
0.0
 11
429.52701844391288
 21
64.786419642058263
 31
0.0
  0
LINE
  5
8EDA
  8
AM_0
 10
429.52701844391288
 20
64.786419642058263
 30
0.0
 11
429.53101844391421
 21
64.784719642059358
 31
0.0
  0
LINE
  5
8EDB
  8
AM_0
 10
429.53101844391421
 20
64.784719642059358
 30
0.0
 11
429.53501844391428
 21
64.783119642058409
 31
0.0
  0
LINE
  5
8EDC
  8
AM_0
 10
429.53501844391428
 20
64.783119642058409
 30
0.0
 11
429.5390184439143
 21
64.781419642059291
 31
0.0
  0
LINE
  5
8EDD
  8
AM_0
 10
429.5390184439143
 20
64.781419642059291
 30
0.0
 11
429.54301844391398
 21
64.779819642058328
 31
0.0
  0
LINE
  5
8EDE
  8
AM_0
 10
429.54301844391398
 20
64.779819642058328
 30
0.0
 11
429.547018443914
 21
64.778219642058275
 31
0.0
  0
LINE
  5
8EDF
  8
AM_0
 10
429.547018443914
 20
64.778219642058275
 30
0.0
 11
429.55101844391419
 21
64.776619642059345
 31
0.0
  0
LINE
  5
8EE0
  8
AM_0
 10
429.55101844391419
 20
64.776619642059345
 30
0.0
 11
429.55501844391398
 21
64.774919642058421
 31
0.0
  0
LINE
  5
8EE1
  8
AM_0
 10
429.55501844391398
 20
64.774919642058421
 30
0.0
 11
429.55901844391423
 21
64.773319642058368
 31
0.0
  0
LINE
  5
8EE2
  8
AM_0
 10
429.55901844391423
 20
64.773319642058368
 30
0.0
 11
429.56301844391419
 21
64.771719642058329
 31
0.0
  0
LINE
  5
8EE3
  8
AM_0
 10
429.56301844391419
 20
64.771719642058329
 30
0.0
 11
429.56701844391432
 21
64.770119642058262
 31
0.0
  0
LINE
  5
8EE4
  8
AM_0
 10
429.56701844391432
 20
64.770119642058262
 30
0.0
 11
429.57101844391423
 21
64.768619642059321
 31
0.0
  0
LINE
  5
8EE5
  8
AM_0
 10
429.57101844391423
 20
64.768619642059321
 30
0.0
 11
429.57501844391402
 21
64.767019642059253
 31
0.0
  0
LINE
  5
8EE6
  8
AM_0
 10
429.57501844391402
 20
64.767019642059253
 30
0.0
 11
429.57901844391421
 21
64.765419642059214
 31
0.0
  0
LINE
  5
8EE7
  8
AM_0
 10
429.57901844391421
 20
64.765419642059214
 30
0.0
 11
429.583018443914
 21
64.763819642058252
 31
0.0
  0
LINE
  5
8EE8
  8
AM_0
 10
429.583018443914
 20
64.763819642058252
 30
0.0
 11
429.58701844391419
 21
64.76231964205931
 31
0.0
  0
LINE
  5
8EE9
  8
AM_0
 10
429.58701844391419
 20
64.76231964205931
 30
0.0
 11
429.59101844391432
 21
64.760719642058348
 31
0.0
  0
LINE
  5
8EEA
  8
AM_0
 10
429.59101844391432
 20
64.760719642058348
 30
0.0
 11
429.59601844391432
 21
64.759119642058295
 31
0.0
  0
LINE
  5
8EEB
  8
AM_0
 10
429.59601844391432
 20
64.759119642058295
 30
0.0
 11
429.60001844391428
 21
64.757619642057293
 31
0.0
  0
LINE
  5
8EEC
  8
AM_0
 10
429.60001844391428
 20
64.757619642057293
 30
0.0
 11
429.60401844391401
 21
64.756119642058366
 31
0.0
  0
LINE
  5
8EED
  8
AM_0
 10
429.60401844391401
 20
64.756119642058366
 30
0.0
 11
429.6080184439142
 21
64.754519642058312
 31
0.0
  0
LINE
  5
8EEE
  8
AM_0
 10
429.6080184439142
 20
64.754519642058312
 30
0.0
 11
429.612018443914
 21
64.753019642058462
 31
0.0
  0
LINE
  5
8EEF
  8
AM_0
 10
429.612018443914
 20
64.753019642058462
 30
0.0
 11
429.6160184439143
 21
64.751519642059293
 31
0.0
  0
LINE
  5
8EF0
  8
AM_0
 10
429.6160184439143
 20
64.751519642059293
 30
0.0
 11
429.62001844391398
 21
64.74991964205924
 31
0.0
  0
LINE
  5
8EF1
  8
AM_0
 10
429.62001844391398
 20
64.74991964205924
 30
0.0
 11
429.624018443914
 21
64.748419642058252
 31
0.0
  0
LINE
  5
8EF2
  8
AM_0
 10
429.624018443914
 20
64.748419642058252
 30
0.0
 11
429.62801844391407
 21
64.746919642059311
 31
0.0
  0
LINE
  5
8EF3
  8
AM_0
 10
429.62801844391407
 20
64.746919642059311
 30
0.0
 11
429.63201844391398
 21
64.745419642058323
 31
0.0
  0
LINE
  5
8EF4
  8
AM_0
 10
429.63201844391398
 20
64.745419642058323
 30
0.0
 11
429.63601844391428
 21
64.743919642058245
 31
0.0
  0
LINE
  5
8EF5
  8
AM_0
 10
429.63601844391428
 20
64.743919642058245
 30
0.0
 11
429.64001844391419
 21
64.742419642059303
 31
0.0
  0
LINE
  5
8EF6
  8
AM_0
 10
429.64001844391419
 20
64.742419642059303
 30
0.0
 11
429.64401844391432
 21
64.740919642058316
 31
0.0
  0
LINE
  5
8EF7
  8
AM_0
 10
429.64401844391432
 20
64.740919642058316
 30
0.0
 11
429.64801844391422
 21
64.739519642059349
 31
0.0
  0
LINE
  5
8EF8
  8
AM_0
 10
429.64801844391422
 20
64.739519642059349
 30
0.0
 11
429.65301844391411
 21
64.738019642059271
 31
0.0
  0
LINE
  5
8EF9
  8
AM_0
 10
429.65301844391411
 20
64.738019642059271
 30
0.0
 11
429.65701844391418
 21
64.736519642058283
 31
0.0
  0
LINE
  5
8EFA
  8
AM_0
 10
429.65701844391418
 20
64.736519642058283
 30
0.0
 11
429.66101844391397
 21
64.735019642058433
 31
0.0
  0
LINE
  5
8EFB
  8
AM_0
 10
429.66101844391397
 20
64.735019642058433
 30
0.0
 11
429.66501844391422
 21
64.733619642058329
 31
0.0
  0
LINE
  5
8EFC
  8
AM_0
 10
429.66501844391422
 20
64.733619642058329
 30
0.0
 11
429.66901844391418
 21
64.732119642058251
 31
0.0
  0
LINE
  5
8EFD
  8
AM_0
 10
429.66901844391418
 20
64.732119642058251
 30
0.0
 11
429.67301844391432
 21
64.730719642059285
 31
0.0
  0
LINE
  5
8EFE
  8
AM_0
 10
429.67301844391432
 20
64.730719642059285
 30
0.0
 11
429.67701844391422
 21
64.729219642058297
 31
0.0
  0
LINE
  5
8EFF
  8
AM_0
 10
429.67701844391422
 20
64.729219642058297
 30
0.0
 11
429.68101844391401
 21
64.72781964205933
 31
0.0
  0
LINE
  5
8F00
  8
AM_0
 10
429.68101844391401
 20
64.72781964205933
 30
0.0
 11
429.68501844391432
 21
64.726419642058289
 31
0.0
  0
LINE
  5
8F01
  8
AM_0
 10
429.68501844391432
 20
64.726419642058289
 30
0.0
 11
429.68901844391399
 21
64.725019642059351
 31
0.0
  0
LINE
  5
8F02
  8
AM_0
 10
429.68901844391399
 20
64.725019642059351
 30
0.0
 11
429.69401844391427
 21
64.723519642058363
 31
0.0
  0
LINE
  5
8F03
  8
AM_0
 10
429.69401844391427
 20
64.723519642058363
 30
0.0
 11
429.6980184439139
 21
64.72211964205826
 31
0.0
  0
LINE
  5
8F04
  8
AM_0
 10
429.6980184439139
 20
64.72211964205826
 30
0.0
 11
429.7020184439142
 21
64.720719642058384
 31
0.0
  0
LINE
  5
8F05
  8
AM_0
 10
429.7020184439142
 20
64.720719642058384
 30
0.0
 11
429.70601844391427
 21
64.719319642058281
 31
0.0
  0
LINE
  5
8F06
  8
AM_0
 10
429.70601844391427
 20
64.719319642058281
 30
0.0
 11
429.71001844391208
 21
64.717919642059314
 31
0.0
  0
LINE
  5
8F07
  8
AM_0
 10
429.71001844391208
 20
64.717919642059314
 30
0.0
 11
429.71401844391409
 21
64.716519642058302
 31
0.0
  0
LINE
  5
8F08
  8
AM_0
 10
429.71401844391409
 20
64.716519642058302
 30
0.0
 11
429.7180184439141
 21
64.715119642059349
 31
0.0
  0
LINE
  5
8F09
  8
AM_0
 10
429.7180184439141
 20
64.715119642059349
 30
0.0
 11
429.72201844391429
 21
64.713719642058322
 31
0.0
  0
LINE
  5
8F0A
  8
AM_0
 10
429.72201844391429
 20
64.713719642058322
 30
0.0
 11
429.72601844391397
 21
64.712419642058421
 31
0.0
  0
LINE
  5
8F0B
  8
AM_0
 10
429.72601844391397
 20
64.712419642058421
 30
0.0
 11
429.73101844391431
 21
64.711019642059227
 31
0.0
  0
LINE
  5
8F0C
  8
AM_0
 10
429.73101844391431
 20
64.711019642059227
 30
0.0
 11
429.7350184439141
 21
64.709619642058442
 31
0.0
  0
LINE
  5
8F0D
  8
AM_0
 10
429.7350184439141
 20
64.709619642058442
 30
0.0
 11
429.73901844391401
 21
64.708319642058314
 31
0.0
  0
LINE
  5
8F0E
  8
AM_0
 10
429.73901844391401
 20
64.708319642058314
 30
0.0
 11
429.7430184439142
 21
64.706919642059361
 31
0.0
  0
LINE
  5
8F0F
  8
AM_0
 10
429.7430184439142
 20
64.706919642059361
 30
0.0
 11
429.74701844391399
 21
64.705619642059219
 31
0.0
  0
LINE
  5
8F10
  8
AM_0
 10
429.74701844391399
 20
64.705619642059219
 30
0.0
 11
429.75101844391429
 21
64.704219642059343
 31
0.0
  0
LINE
  5
8F11
  8
AM_0
 10
429.75101844391429
 20
64.704219642059343
 30
0.0
 11
429.7550184439142
 21
64.702919642058319
 31
0.0
  0
LINE
  5
8F12
  8
AM_0
 10
429.7550184439142
 20
64.702919642058319
 30
0.0
 11
429.76001844391442
 21
64.70161964206136
 31
0.0
  0
LINE
  5
8F13
  8
AM_0
 10
429.76001844391442
 20
64.70161964206136
 30
0.0
 11
429.76401844391421
 21
64.7002196420583
 31
0.0
  0
LINE
  5
8F14
  8
AM_0
 10
429.76401844391421
 20
64.7002196420583
 30
0.0
 11
429.76801844391281
 21
64.698919642059295
 31
0.0
  0
LINE
  5
8F15
  8
AM_0
 10
429.76801844391281
 20
64.698919642059295
 30
0.0
 11
429.77201844391419
 21
64.697619642058271
 31
0.0
  0
LINE
  5
8F16
  8
AM_0
 10
429.77201844391419
 20
64.697619642058271
 30
0.0
 11
429.77601844391398
 21
64.696319642057233
 31
0.0
  0
LINE
  5
8F17
  8
AM_0
 10
429.77601844391398
 20
64.696319642057233
 30
0.0
 11
429.78001844391412
 21
64.695019642059378
 31
0.0
  0
LINE
  5
8F18
  8
AM_0
 10
429.78001844391412
 20
64.695019642059378
 30
0.0
 11
429.78401844391419
 21
64.69371964205834
 31
0.0
  0
LINE
  5
8F19
  8
AM_0
 10
429.78401844391419
 20
64.69371964205834
 30
0.0
 11
429.78901844391407
 21
64.692419642059335
 31
0.0
  0
LINE
  5
8F1A
  8
AM_0
 10
429.78901844391407
 20
64.692419642059335
 30
0.0
 11
429.79301844391432
 21
64.691119642058311
 31
0.0
  0
LINE
  5
8F1B
  8
AM_0
 10
429.79301844391432
 20
64.691119642058311
 30
0.0
 11
429.797018443914
 21
64.689819642059319
 31
0.0
  0
LINE
  5
8F1C
  8
AM_0
 10
429.797018443914
 20
64.689819642059319
 30
0.0
 11
429.80101844391407
 21
64.688519642059177
 31
0.0
  0
LINE
  5
8F1D
  8
AM_0
 10
429.80101844391407
 20
64.688519642059177
 30
0.0
 11
429.80501844391188
 21
64.68721964205929
 31
0.0
  0
LINE
  5
8F1E
  8
AM_0
 10
429.80501844391188
 20
64.68721964205929
 30
0.0
 11
429.80901844391428
 21
64.68601964205935
 31
0.0
  0
LINE
  5
8F1F
  8
AM_0
 10
429.80901844391428
 20
64.68601964205935
 30
0.0
 11
429.8130184439139
 21
64.684719642059235
 31
0.0
  0
LINE
  5
8F20
  8
AM_0
 10
429.8130184439139
 20
64.684719642059235
 30
0.0
 11
429.8180184439143
 21
64.683419642058425
 31
0.0
  0
LINE
  5
8F21
  8
AM_0
 10
429.8180184439143
 20
64.683419642058425
 30
0.0
 11
429.82201844391398
 21
64.682219642058271
 31
0.0
  0
LINE
  5
8F22
  8
AM_0
 10
429.82201844391398
 20
64.682219642058271
 30
0.0
 11
429.82601844391399
 21
64.68091964205928
 31
0.0
  0
LINE
  5
8F23
  8
AM_0
 10
429.82601844391399
 20
64.68091964205928
 30
0.0
 11
429.83001844391413
 21
64.679719642058444
 31
0.0
  0
LINE
  5
8F24
  8
AM_0
 10
429.83001844391413
 20
64.679719642058444
 30
0.0
 11
429.83401844391398
 21
64.67841964205833
 31
0.0
  0
LINE
  5
8F25
  8
AM_0
 10
429.83401844391398
 20
64.67841964205833
 30
0.0
 11
429.83801844391422
 21
64.677219642059299
 31
0.0
  0
LINE
  5
8F26
  8
AM_0
 10
429.83801844391422
 20
64.677219642059299
 30
0.0
 11
429.8430184439141
 21
64.676019642057327
 31
0.0
  0
LINE
  5
8F27
  8
AM_0
 10
429.8430184439141
 20
64.676019642057327
 30
0.0
 11
429.84701844391429
 21
64.674719642058335
 31
0.0
  0
LINE
  5
8F28
  8
AM_0
 10
429.84701844391429
 20
64.674719642058335
 30
0.0
 11
429.8510184439142
 21
64.673519642058409
 31
0.0
  0
LINE
  5
8F29
  8
AM_0
 10
429.8510184439142
 20
64.673519642058409
 30
0.0
 11
429.85501844391399
 21
64.672319642058255
 31
0.0
  0
LINE
  5
8F2A
  8
AM_0
 10
429.85501844391399
 20
64.672319642058255
 30
0.0
 11
429.85901844391418
 21
64.671119642059239
 31
0.0
  0
LINE
  5
8F2B
  8
AM_0
 10
429.85901844391418
 20
64.671119642059239
 30
0.0
 11
429.86301844391397
 21
64.669919642059313
 31
0.0
  0
LINE
  5
8F2C
  8
AM_0
 10
429.86301844391397
 20
64.669919642059313
 30
0.0
 11
429.8680184439142
 21
64.66871964205825
 31
0.0
  0
LINE
  5
8F2D
  8
AM_0
 10
429.8680184439142
 20
64.66871964205825
 30
0.0
 11
429.87201844391399
 21
64.667519642058323
 31
0.0
  0
LINE
  5
8F2E
  8
AM_0
 10
429.87201844391399
 20
64.667519642058323
 30
0.0
 11
429.87601844391412
 21
64.666319642059293
 31
0.0
  0
LINE
  5
8F2F
  8
AM_0
 10
429.87601844391412
 20
64.666319642059293
 30
0.0
 11
429.8800184439142
 21
64.665119642058244
 31
0.0
  0
LINE
  5
8F30
  8
AM_0
 10
429.8800184439142
 20
64.665119642058244
 30
0.0
 11
429.88401844391427
 21
64.663919642057181
 31
0.0
  0
LINE
  5
8F31
  8
AM_0
 10
429.88401844391427
 20
64.663919642057181
 30
0.0
 11
429.88901844391432
 21
64.662719642059301
 31
0.0
  0
LINE
  5
8F32
  8
AM_0
 10
429.88901844391432
 20
64.662719642059301
 30
0.0
 11
429.893018443914
 21
64.661619642057289
 31
0.0
  0
LINE
  5
8F33
  8
AM_0
 10
429.893018443914
 20
64.661619642057289
 30
0.0
 11
429.89701844391408
 21
64.660419642058287
 31
0.0
  0
LINE
  5
8F34
  8
AM_0
 10
429.89701844391408
 20
64.660419642058287
 30
0.0
 11
429.9010184439141
 21
64.65921964205927
 31
0.0
  0
LINE
  5
8F35
  8
AM_0
 10
429.9010184439141
 20
64.65921964205927
 30
0.0
 11
429.90501844391429
 21
64.658119642059319
 31
0.0
  0
LINE
  5
8F36
  8
AM_0
 10
429.90501844391429
 20
64.658119642059319
 30
0.0
 11
429.90901844391402
 21
64.656919642058256
 31
0.0
  0
LINE
  5
8F37
  8
AM_0
 10
429.90901844391402
 20
64.656919642058256
 30
0.0
 11
429.9140184439143
 21
64.65581964205829
 31
0.0
  0
LINE
  5
8F38
  8
AM_0
 10
429.9140184439143
 20
64.65581964205829
 30
0.0
 11
429.91801844391398
 21
64.654619642059274
 31
0.0
  0
LINE
  5
8F39
  8
AM_0
 10
429.91801844391398
 20
64.654619642059274
 30
0.0
 11
429.922018443914
 21
64.65351964205729
 31
0.0
  0
LINE
  5
8F3A
  8
AM_0
 10
429.922018443914
 20
64.65351964205729
 30
0.0
 11
429.92601844391407
 21
64.652319642058274
 31
0.0
  0
LINE
  5
8F3B
  8
AM_0
 10
429.92601844391407
 20
64.652319642058274
 30
0.0
 11
429.93001844391398
 21
64.651219642059232
 31
0.0
  0
LINE
  5
8F3C
  8
AM_0
 10
429.93001844391398
 20
64.651219642059232
 30
0.0
 11
429.93501844391409
 21
64.650119642058357
 31
0.0
  0
LINE
  5
8F3D
  8
AM_0
 10
429.93501844391409
 20
64.650119642058357
 30
0.0
 11
429.93901844391422
 21
64.649019642059329
 31
0.0
  0
LINE
  5
8F3E
  8
AM_0
 10
429.93901844391422
 20
64.649019642059329
 30
0.0
 11
429.94301844391441
 21
64.647819642058252
 31
0.0
  0
LINE
  5
8F3F
  8
AM_0
 10
429.94301844391441
 20
64.647819642058252
 30
0.0
 11
429.9470184439142
 21
64.646719642059224
 31
0.0
  0
LINE
  5
8F40
  8
AM_0
 10
429.9470184439142
 20
64.646719642059224
 30
0.0
 11
429.9510184439111
 21
64.645619642059273
 31
0.0
  0
LINE
  5
8F41
  8
AM_0
 10
429.9510184439111
 20
64.645619642059273
 30
0.0
 11
429.95601844391422
 21
64.644519642059322
 31
0.0
  0
LINE
  5
8F42
  8
AM_0
 10
429.95601844391422
 20
64.644519642059322
 30
0.0
 11
429.96001844391401
 21
64.643419642059371
 31
0.0
  0
LINE
  5
8F43
  8
AM_0
 10
429.96001844391401
 20
64.643419642059371
 30
0.0
 11
429.9640184439142
 21
64.642319642058283
 31
0.0
  0
LINE
  5
8F44
  8
AM_0
 10
429.9640184439142
 20
64.642319642058283
 30
0.0
 11
429.96801844391399
 21
64.641219642058331
 31
0.0
  0
LINE
  5
8F45
  8
AM_0
 10
429.96801844391399
 20
64.641219642058331
 30
0.0
 11
429.97301844391421
 21
64.640219642058369
 31
0.0
  0
LINE
  5
8F46
  8
AM_0
 10
429.97301844391421
 20
64.640219642058369
 30
0.0
 11
429.97701844391401
 21
64.639119642059313
 31
0.0
  0
LINE
  5
8F47
  8
AM_0
 10
429.97701844391401
 20
64.639119642059313
 30
0.0
 11
429.98101844391419
 21
64.638019642059334
 31
0.0
  0
LINE
  5
8F48
  8
AM_0
 10
429.98101844391419
 20
64.638019642059334
 30
0.0
 11
429.98501844391433
 21
64.636919642057364
 31
0.0
  0
LINE
  5
8F49
  8
AM_0
 10
429.98501844391433
 20
64.636919642057364
 30
0.0
 11
429.98901844391389
 21
64.635919642058283
 31
0.0
  0
LINE
  5
8F4A
  8
AM_0
 10
429.98901844391389
 20
64.635919642058283
 30
0.0
 11
429.99401844391411
 21
64.634819642058346
 31
0.0
  0
LINE
  5
8F4B
  8
AM_0
 10
429.99401844391411
 20
64.634819642058346
 30
0.0
 11
429.99801844391402
 21
64.633819642059279
 31
0.0
  0
LINE
  5
8F4C
  8
AM_0
 10
429.99801844391402
 20
64.633819642059279
 30
0.0
 11
430.00201844391432
 21
64.632719642058419
 31
0.0
  0
LINE
  5
8F4D
  8
AM_0
 10
430.00201844391432
 20
64.632719642058419
 30
0.0
 11
430.006018443914
 21
64.631719642058442
 31
0.0
  0
LINE
  5
8F4E
  8
AM_0
 10
430.006018443914
 20
64.631719642058442
 30
0.0
 11
430.0100184439143
 21
64.630619642058264
 31
0.0
  0
LINE
  5
8F4F
  8
AM_0
 10
430.0100184439143
 20
64.630619642058264
 30
0.0
 11
430.01501844391203
 21
64.629619642059197
 31
0.0
  0
LINE
  5
8F50
  8
AM_0
 10
430.01501844391203
 20
64.629619642059197
 30
0.0
 11
430.01901844391432
 21
64.62861964205922
 31
0.0
  0
LINE
  5
8F51
  8
AM_0
 10
430.01901844391432
 20
64.62861964205922
 30
0.0
 11
430.02301844391428
 21
64.627519642058346
 31
0.0
  0
LINE
  5
8F52
  8
AM_0
 10
430.02301844391428
 20
64.627519642058346
 30
0.0
 11
430.02701844391402
 21
64.626519642059293
 31
0.0
  0
LINE
  5
8F53
  8
AM_0
 10
430.02701844391402
 20
64.626519642059293
 30
0.0
 11
430.03201844391418
 21
64.625519642059317
 31
0.0
  0
LINE
  5
8F54
  8
AM_0
 10
430.03201844391418
 20
64.625519642059317
 30
0.0
 11
430.03601844391397
 21
64.624519642058431
 31
0.0
  0
LINE
  5
8F55
  8
AM_0
 10
430.03601844391397
 20
64.624519642058431
 30
0.0
 11
430.04001844391422
 21
64.62351964205935
 31
0.0
  0
LINE
  5
8F56
  8
AM_0
 10
430.04001844391422
 20
64.62351964205935
 30
0.0
 11
430.04401844391418
 21
64.622519642057341
 31
0.0
  0
LINE
  5
8F57
  8
AM_0
 10
430.04401844391418
 20
64.622519642057341
 30
0.0
 11
430.04801844391432
 21
64.621519642058274
 31
0.0
  0
LINE
  5
8F58
  8
AM_0
 10
430.04801844391432
 20
64.621519642058274
 30
0.0
 11
430.0530184439142
 21
64.620519642058298
 31
0.0
  0
LINE
  5
8F59
  8
AM_0
 10
430.0530184439142
 20
64.620519642058298
 30
0.0
 11
430.05701844391427
 21
64.619519642058322
 31
0.0
  0
LINE
  5
8F5A
  8
AM_0
 10
430.05701844391427
 20
64.619519642058322
 30
0.0
 11
430.06101844391418
 21
64.618519642059255
 31
0.0
  0
LINE
  5
8F5B
  8
AM_0
 10
430.06101844391418
 20
64.618519642059255
 30
0.0
 11
430.06501844391403
 21
64.617619642058344
 31
0.0
  0
LINE
  5
8F5C
  8
AM_0
 10
430.06501844391403
 20
64.617619642058344
 30
0.0
 11
430.07001844391431
 21
64.616619642059277
 31
0.0
  0
LINE
  5
8F5D
  8
AM_0
 10
430.07001844391431
 20
64.616619642059277
 30
0.0
 11
430.0740184439141
 21
64.615619642059301
 31
0.0
  0
LINE
  5
8F5E
  8
AM_0
 10
430.0740184439141
 20
64.615619642059301
 30
0.0
 11
430.07801844391412
 21
64.614719642059299
 31
0.0
  0
LINE
  5
8F5F
  8
AM_0
 10
430.07801844391412
 20
64.614719642059299
 30
0.0
 11
430.08201844391419
 21
64.613719642059323
 31
0.0
  0
LINE
  5
8F60
  8
AM_0
 10
430.08201844391419
 20
64.613719642059323
 30
0.0
 11
430.08701844391408
 21
64.612719642058437
 31
0.0
  0
LINE
  5
8F61
  8
AM_0
 10
430.08701844391408
 20
64.612719642058437
 30
0.0
 11
430.09101844391432
 21
64.611819642058435
 31
0.0
  0
LINE
  5
8F62
  8
AM_0
 10
430.09101844391432
 20
64.611819642058435
 30
0.0
 11
430.095018443914
 21
64.610819642058445
 31
0.0
  0
LINE
  5
8F63
  8
AM_0
 10
430.095018443914
 20
64.610819642058445
 30
0.0
 11
430.09901844391408
 21
64.609919642057321
 31
0.0
  0
LINE
  5
8F64
  8
AM_0
 10
430.09901844391408
 20
64.609919642057321
 30
0.0
 11
430.1040184439139
 21
64.609019642057291
 31
0.0
  0
LINE
  5
8F65
  8
AM_0
 10
430.1040184439139
 20
64.609019642057291
 30
0.0
 11
430.10801844391409
 21
64.608019642058252
 31
0.0
  0
LINE
  5
8F66
  8
AM_0
 10
430.10801844391409
 20
64.608019642058252
 30
0.0
 11
430.112018443914
 21
64.607119642058251
 31
0.0
  0
LINE
  5
8F67
  8
AM_0
 10
430.112018443914
 20
64.607119642058251
 30
0.0
 11
430.1160184439143
 21
64.60621964205825
 31
0.0
  0
LINE
  5
8F68
  8
AM_0
 10
430.1160184439143
 20
64.60621964205825
 30
0.0
 11
430.12101844391401
 21
64.605319642058234
 31
0.0
  0
LINE
  5
8F69
  8
AM_0
 10
430.12101844391401
 20
64.605319642058234
 30
0.0
 11
430.12501844391431
 21
64.604419642058247
 31
0.0
  0
LINE
  5
8F6A
  8
AM_0
 10
430.12501844391431
 20
64.604419642058247
 30
0.0
 11
430.12901844391422
 21
64.603519642058245
 31
0.0
  0
LINE
  5
8F6B
  8
AM_0
 10
430.12901844391422
 20
64.603519642058245
 30
0.0
 11
430.13301844391401
 21
64.602619642059381
 31
0.0
  0
LINE
  5
8F6C
  8
AM_0
 10
430.13301844391401
 20
64.602619642059381
 30
0.0
 11
430.13801844391418
 21
64.601719642058242
 31
0.0
  0
LINE
  5
8F6D
  8
AM_0
 10
430.13801844391418
 20
64.601719642058242
 30
0.0
 11
430.14201844391198
 21
64.600819642059349
 31
0.0
  0
LINE
  5
8F6E
  8
AM_0
 10
430.14201844391198
 20
64.600819642059349
 30
0.0
 11
430.14601844391422
 21
64.59991964205939
 31
0.0
  0
LINE
  5
8F6F
  8
AM_0
 10
430.14601844391422
 20
64.59991964205939
 30
0.0
 11
430.15001844391418
 21
64.599019642058465
 31
0.0
  0
LINE
  5
8F70
  8
AM_0
 10
430.15001844391418
 20
64.599019642058465
 30
0.0
 11
430.15501844391412
 21
64.598119642059359
 31
0.0
  0
LINE
  5
8F71
  8
AM_0
 10
430.15501844391412
 20
64.598119642059359
 30
0.0
 11
430.15901844391419
 21
64.597219642059358
 31
0.0
  0
LINE
  5
8F72
  8
AM_0
 10
430.15901844391419
 20
64.597219642059358
 30
0.0
 11
430.16301844391432
 21
64.596419642057285
 31
0.0
  0
LINE
  5
8F73
  8
AM_0
 10
430.16301844391432
 20
64.596419642057285
 30
0.0
 11
430.16701844391412
 21
64.595519642057283
 31
0.0
  0
LINE
  5
8F74
  8
AM_0
 10
430.16701844391412
 20
64.595519642057283
 30
0.0
 11
430.172018443914
 21
64.594619642057296
 31
0.0
  0
LINE
  5
8F75
  8
AM_0
 10
430.172018443914
 20
64.594619642057296
 30
0.0
 11
430.17601844391407
 21
64.593819642059316
 31
0.0
  0
LINE
  5
8F76
  8
AM_0
 10
430.17601844391407
 20
64.593819642059316
 30
0.0
 11
430.18001844391199
 21
64.592919642060451
 31
0.0
  0
LINE
  5
8F77
  8
AM_0
 10
430.18001844391199
 20
64.592919642060451
 30
0.0
 11
430.18401844391423
 21
64.592119642058378
 31
0.0
  0
LINE
  5
8F78
  8
AM_0
 10
430.18401844391423
 20
64.592119642058378
 30
0.0
 11
430.18901844391399
 21
64.591219642059286
 31
0.0
  0
LINE
  5
8F79
  8
AM_0
 10
430.18901844391399
 20
64.591219642059286
 30
0.0
 11
430.19301844391413
 21
64.59041964205926
 31
0.0
  0
LINE
  5
8F7A
  8
AM_0
 10
430.19301844391413
 20
64.59041964205926
 30
0.0
 11
430.1970184439142
 21
64.589519642058349
 31
0.0
  0
LINE
  5
8F7B
  8
AM_0
 10
430.1970184439142
 20
64.589519642058349
 30
0.0
 11
430.20101844391399
 21
64.588719642059232
 31
0.0
  0
LINE
  5
8F7C
  8
AM_0
 10
430.20101844391399
 20
64.588719642059232
 30
0.0
 11
430.20601844391427
 21
64.587919642058296
 31
0.0
  0
LINE
  5
8F7D
  8
AM_0
 10
430.20601844391427
 20
64.587919642058296
 30
0.0
 11
430.2100184439139
 21
64.587119642059164
 31
0.0
  0
LINE
  5
8F7E
  8
AM_0
 10
430.2100184439139
 20
64.587119642059164
 30
0.0
 11
430.21401844391409
 21
64.586219642058253
 31
0.0
  0
LINE
  5
8F7F
  8
AM_0
 10
430.21401844391409
 20
64.586219642058253
 30
0.0
 11
430.21901844391391
 21
64.585419642058469
 31
0.0
  0
LINE
  5
8F80
  8
AM_0
 10
430.21901844391391
 20
64.585419642058469
 30
0.0
 11
430.22301844391421
 21
64.584619642058442
 31
0.0
  0
LINE
  5
8F81
  8
AM_0
 10
430.22301844391421
 20
64.584619642058442
 30
0.0
 11
430.22701844391418
 21
64.583819642058415
 31
0.0
  0
LINE
  5
8F82
  8
AM_0
 10
430.22701844391418
 20
64.583819642058415
 30
0.0
 11
430.23101844391431
 21
64.583019642059284
 31
0.0
  0
LINE
  5
8F83
  8
AM_0
 10
430.23101844391431
 20
64.583019642059284
 30
0.0
 11
430.23601844391419
 21
64.582219642058362
 31
0.0
  0
LINE
  5
8F84
  8
AM_0
 10
430.23601844391419
 20
64.582219642058362
 30
0.0
 11
430.24001844391432
 21
64.581419642059245
 31
0.0
  0
LINE
  5
8F85
  8
AM_0
 10
430.24001844391432
 20
64.581419642059245
 30
0.0
 11
430.24401844391417
 21
64.580619642058309
 31
0.0
  0
LINE
  5
8F86
  8
AM_0
 10
430.24401844391417
 20
64.580619642058309
 30
0.0
 11
430.24801844391402
 21
64.579819642059164
 31
0.0
  0
LINE
  5
8F87
  8
AM_0
 10
430.24801844391402
 20
64.579819642059164
 30
0.0
 11
430.25301844391419
 21
64.579019642058256
 31
0.0
  0
LINE
  5
8F88
  8
AM_0
 10
430.25301844391419
 20
64.579019642058256
 30
0.0
 11
430.25701844391398
 21
64.578319642059341
 31
0.0
  0
LINE
  5
8F89
  8
AM_0
 10
430.25701844391398
 20
64.578319642059341
 30
0.0
 11
430.26101844391422
 21
64.577519642059315
 31
0.0
  0
LINE
  5
8F8A
  8
AM_0
 10
430.26101844391422
 20
64.577519642059315
 30
0.0
 11
430.26601844391399
 21
64.576719642059274
 31
0.0
  0
LINE
  5
8F8B
  8
AM_0
 10
430.26601844391399
 20
64.576719642059274
 30
0.0
 11
430.27001844391413
 21
64.575919642058352
 31
0.0
  0
LINE
  5
8F8C
  8
AM_0
 10
430.27001844391413
 20
64.575919642058352
 30
0.0
 11
430.2740184439142
 21
64.5752196420583
 31
0.0
  0
LINE
  5
8F8D
  8
AM_0
 10
430.2740184439142
 20
64.5752196420583
 30
0.0
 11
430.27801844391399
 21
64.574419642058274
 31
0.0
  0
LINE
  5
8F8E
  8
AM_0
 10
430.27801844391399
 20
64.574419642058274
 30
0.0
 11
430.28301844391427
 21
64.573719642059359
 31
0.0
  0
LINE
  5
8F8F
  8
AM_0
 10
430.28301844391427
 20
64.573719642059359
 30
0.0
 11
430.28701844391389
 21
64.572919642059333
 31
0.0
  0
LINE
  5
8F90
  8
AM_0
 10
430.28701844391389
 20
64.572919642059333
 30
0.0
 11
430.29101844391408
 21
64.572219642059281
 31
0.0
  0
LINE
  5
8F91
  8
AM_0
 10
430.29101844391408
 20
64.572219642059281
 30
0.0
 11
430.29601844391402
 21
64.571419642059254
 31
0.0
  0
LINE
  5
8F92
  8
AM_0
 10
430.29601844391402
 20
64.571419642059254
 30
0.0
 11
430.30001844391433
 21
64.570719642059203
 31
0.0
  0
LINE
  5
8F93
  8
AM_0
 10
430.30001844391433
 20
64.570719642059203
 30
0.0
 11
430.304018443914
 21
64.570019642058469
 31
0.0
  0
LINE
  5
8F94
  8
AM_0
 10
430.304018443914
 20
64.570019642058469
 30
0.0
 11
430.30801844391431
 21
64.569219642059352
 31
0.0
  0
LINE
  5
8F95
  8
AM_0
 10
430.30801844391431
 20
64.569219642059352
 30
0.0
 11
430.3130184439139
 21
64.568519642060437
 31
0.0
  0
LINE
  5
8F96
  8
AM_0
 10
430.3130184439139
 20
64.568519642060437
 30
0.0
 11
430.31701844391432
 21
64.567819642059249
 31
0.0
  0
LINE
  5
8F97
  8
AM_0
 10
430.31701844391432
 20
64.567819642059249
 30
0.0
 11
430.32101844391428
 21
64.567119642058287
 31
0.0
  0
LINE
  5
8F98
  8
AM_0
 10
430.32101844391428
 20
64.567119642058287
 30
0.0
 11
430.3260184439111
 21
64.566319642058261
 31
0.0
  0
LINE
  5
8F99
  8
AM_0
 10
430.3260184439111
 20
64.566319642058261
 30
0.0
 11
430.33001844391418
 21
64.565619642058437
 31
0.0
  0
LINE
  5
8F9A
  8
AM_0
 10
430.33001844391418
 20
64.565619642058437
 30
0.0
 11
430.33401844391398
 21
64.564919642058385
 31
0.0
  0
LINE
  5
8F9B
  8
AM_0
 10
430.33401844391398
 20
64.564919642058385
 30
0.0
 11
430.33801844391422
 21
64.564219642058319
 31
0.0
  0
LINE
  5
8F9C
  8
AM_0
 10
430.33801844391422
 20
64.564219642058319
 30
0.0
 11
430.34301844391399
 21
64.563519642058282
 31
0.0
  0
LINE
  5
8F9D
  8
AM_0
 10
430.34301844391399
 20
64.563519642058282
 30
0.0
 11
430.34701844391418
 21
64.562819642059367
 31
0.0
  0
LINE
  5
8F9E
  8
AM_0
 10
430.34701844391418
 20
64.562819642059367
 30
0.0
 11
430.3510184439142
 21
64.562119642059315
 31
0.0
  0
LINE
  5
8F9F
  8
AM_0
 10
430.3510184439142
 20
64.562119642059315
 30
0.0
 11
430.35601844391442
 21
64.561519642059238
 31
0.0
  0
LINE
  5
8FA0
  8
AM_0
 10
430.35601844391442
 20
64.561519642059238
 30
0.0
 11
430.36001844391421
 21
64.560819642059187
 31
0.0
  0
LINE
  5
8FA1
  8
AM_0
 10
430.36001844391421
 20
64.560819642059187
 30
0.0
 11
430.36401844391099
 21
64.560119642059334
 31
0.0
  0
LINE
  5
8FA2
  8
AM_0
 10
430.36401844391099
 20
64.560119642059334
 30
0.0
 11
430.36801844391431
 21
64.55941964205725
 31
0.0
  0
LINE
  5
8FA3
  8
AM_0
 10
430.36801844391431
 20
64.55941964205725
 30
0.0
 11
430.37301844391402
 21
64.55871964205835
 31
0.0
  0
LINE
  5
8FA4
  8
AM_0
 10
430.37301844391402
 20
64.55871964205835
 30
0.0
 11
430.37701844391432
 21
64.558119642058273
 31
0.0
  0
LINE
  5
8FA5
  8
AM_0
 10
430.37701844391432
 20
64.558119642058273
 30
0.0
 11
430.381018443914
 21
64.557419642059358
 31
0.0
  0
LINE
  5
8FA6
  8
AM_0
 10
430.381018443914
 20
64.557419642059358
 30
0.0
 11
430.38601844391428
 21
64.556819642058358
 31
0.0
  0
LINE
  5
8FA7
  8
AM_0
 10
430.38601844391428
 20
64.556819642058358
 30
0.0
 11
430.39001844391402
 21
64.55611964205832
 31
0.0
  0
LINE
  5
8FA8
  8
AM_0
 10
430.39001844391402
 20
64.55611964205832
 30
0.0
 11
430.39401844391421
 21
64.555419642058254
 31
0.0
  0
LINE
  5
8FA9
  8
AM_0
 10
430.39401844391421
 20
64.555419642058254
 30
0.0
 11
430.39801844391428
 21
64.554819642058419
 31
0.0
  0
LINE
  5
8FAA
  8
AM_0
 10
430.39801844391428
 20
64.554819642058419
 30
0.0
 11
430.40301844391399
 21
64.554219642058342
 31
0.0
  0
LINE
  5
8FAB
  8
AM_0
 10
430.40301844391399
 20
64.554219642058342
 30
0.0
 11
430.40701844391413
 21
64.553519642058291
 31
0.0
  0
LINE
  5
8FAC
  8
AM_0
 10
430.40701844391413
 20
64.553519642058291
 30
0.0
 11
430.41101844391397
 21
64.552919642058441
 31
0.0
  0
LINE
  5
8FAD
  8
AM_0
 10
430.41101844391397
 20
64.552919642058441
 30
0.0
 11
430.41601844391408
 21
64.55221964205839
 31
0.0
  0
LINE
  5
8FAE
  8
AM_0
 10
430.41601844391408
 20
64.55221964205839
 30
0.0
 11
430.4200184439141
 21
64.551619642058313
 31
0.0
  0
LINE
  5
8FAF
  8
AM_0
 10
430.4200184439141
 20
64.551619642058313
 30
0.0
 11
430.42401844391441
 21
64.551019642058463
 31
0.0
  0
LINE
  5
8FB0
  8
AM_0
 10
430.42401844391441
 20
64.551019642058463
 30
0.0
 11
430.42901844391417
 21
64.550419642059296
 31
0.0
  0
LINE
  5
8FB1
  8
AM_0
 10
430.42901844391417
 20
64.550419642059296
 30
0.0
 11
430.43301844391442
 21
64.549819642059219
 31
0.0
  0
LINE
  5
8FB2
  8
AM_0
 10
430.43301844391442
 20
64.549819642059219
 30
0.0
 11
430.43701844391421
 21
64.549119642058258
 31
0.0
  0
LINE
  5
8FB3
  8
AM_0
 10
430.43701844391421
 20
64.549119642058258
 30
0.0
 11
430.44201844391432
 21
64.548519642059318
 31
0.0
  0
LINE
  5
8FB4
  8
AM_0
 10
430.44201844391432
 20
64.548519642059318
 30
0.0
 11
430.44601844391423
 21
64.547919642059242
 31
0.0
  0
LINE
  5
8FB5
  8
AM_0
 10
430.44601844391423
 20
64.547919642059242
 30
0.0
 11
430.45001844391402
 21
64.547319642058255
 31
0.0
  0
LINE
  5
8FB6
  8
AM_0
 10
430.45001844391402
 20
64.547319642058255
 30
0.0
 11
430.45401844391421
 21
64.546719642059315
 31
0.0
  0
LINE
  5
8FB7
  8
AM_0
 10
430.45401844391421
 20
64.546719642059315
 30
0.0
 11
430.45901844391398
 21
64.546119642058329
 31
0.0
  0
LINE
  5
8FB8
  8
AM_0
 10
430.45901844391398
 20
64.546119642058329
 30
0.0
 11
430.46301844391422
 21
64.545519642058252
 31
0.0
  0
LINE
  5
8FB9
  8
AM_0
 10
430.46301844391422
 20
64.545519642058252
 30
0.0
 11
430.46701844391401
 21
64.544919642058403
 31
0.0
  0
LINE
  5
8FBA
  8
AM_0
 10
430.46701844391401
 20
64.544919642058403
 30
0.0
 11
430.47201844391412
 21
64.544419642059211
 31
0.0
  0
LINE
  5
8FBB
  8
AM_0
 10
430.47201844391412
 20
64.544419642059211
 30
0.0
 11
430.4760184439142
 21
64.543819642059361
 31
0.0
  0
LINE
  5
8FBC
  8
AM_0
 10
430.4760184439142
 20
64.543819642059361
 30
0.0
 11
430.48001844391291
 21
64.543219642059285
 31
0.0
  0
LINE
  5
8FBD
  8
AM_0
 10
430.48001844391291
 20
64.543219642059285
 30
0.0
 11
430.48501844391433
 21
64.542619642058298
 31
0.0
  0
LINE
  5
8FBE
  8
AM_0
 10
430.48501844391433
 20
64.542619642058298
 30
0.0
 11
430.48901844391389
 21
64.542119642059333
 31
0.0
  0
LINE
  5
8FBF
  8
AM_0
 10
430.48901844391389
 20
64.542119642059333
 30
0.0
 11
430.49301844391408
 21
64.541519642059257
 31
0.0
  0
LINE
  5
8FC0
  8
AM_0
 10
430.49301844391408
 20
64.541519642059257
 30
0.0
 11
430.4970184439141
 21
64.54091964205827
 31
0.0
  0
LINE
  5
8FC1
  8
AM_0
 10
430.4970184439141
 20
64.54091964205827
 30
0.0
 11
430.50201844391421
 21
64.540419642058396
 31
0.0
  0
LINE
  5
8FC2
  8
AM_0
 10
430.50201844391421
 20
64.540419642058396
 30
0.0
 11
430.506018443914
 21
64.539819642058319
 31
0.0
  0
LINE
  5
8FC3
  8
AM_0
 10
430.506018443914
 20
64.539819642058319
 30
0.0
 11
430.5100184439143
 21
64.539319642058445
 31
0.0
  0
LINE
  5
8FC4
  8
AM_0
 10
430.5100184439143
 20
64.539319642058445
 30
0.0
 11
430.51501844391402
 21
64.538719642059263
 31
0.0
  0
LINE
  5
8FC5
  8
AM_0
 10
430.51501844391402
 20
64.538719642059263
 30
0.0
 11
430.51901844391432
 21
64.538219642057356
 31
0.0
  0
LINE
  5
8FC6
  8
AM_0
 10
430.51901844391432
 20
64.538219642057356
 30
0.0
 11
430.52301844391422
 21
64.537719642059301
 31
0.0
  0
LINE
  5
8FC7
  8
AM_0
 10
430.52301844391422
 20
64.537719642059301
 30
0.0
 11
430.52801844391399
 21
64.537119642058329
 31
0.0
  0
LINE
  5
8FC8
  8
AM_0
 10
430.52801844391399
 20
64.537119642058329
 30
0.0
 11
430.53201844391418
 21
64.53661964205844
 31
0.0
  0
LINE
  5
8FC9
  8
AM_0
 10
430.53201844391418
 20
64.53661964205844
 30
0.0
 11
430.5360184439121
 21
64.536119642059248
 31
0.0
  0
LINE
  5
8FCA
  8
AM_0
 10
430.5360184439121
 20
64.536119642059248
 30
0.0
 11
430.5410184439142
 21
64.535519642058262
 31
0.0
  0
LINE
  5
8FCB
  8
AM_0
 10
430.5410184439142
 20
64.535519642058262
 30
0.0
 11
430.54501844391399
 21
64.535019642059297
 31
0.0
  0
LINE
  5
8FCC
  8
AM_0
 10
430.54501844391399
 20
64.535019642059297
 30
0.0
 11
430.54901844391412
 21
64.534519642058285
 31
0.0
  0
LINE
  5
8FCD
  8
AM_0
 10
430.54901844391412
 20
64.534519642058285
 30
0.0
 11
430.554018443914
 21
64.53401964205932
 31
0.0
  0
LINE
  5
8FCE
  8
AM_0
 10
430.554018443914
 20
64.53401964205932
 30
0.0
 11
430.55801844391431
 21
64.533519642058309
 31
0.0
  0
LINE
  5
8FCF
  8
AM_0
 10
430.55801844391431
 20
64.533519642058309
 30
0.0
 11
430.56201844391421
 21
64.533019642059344
 31
0.0
  0
LINE
  5
8FD0
  8
AM_0
 10
430.56201844391421
 20
64.533019642059344
 30
0.0
 11
430.56701844391432
 21
64.532519642058318
 31
0.0
  0
LINE
  5
8FD1
  8
AM_0
 10
430.56701844391432
 20
64.532519642058318
 30
0.0
 11
430.57101844391423
 21
64.532019642058444
 31
0.0
  0
LINE
  5
8FD2
  8
AM_0
 10
430.57101844391423
 20
64.532019642058444
 30
0.0
 11
430.57501844391288
 21
64.531519642059266
 31
0.0
  0
LINE
  5
8FD3
  8
AM_0
 10
430.57501844391288
 20
64.531519642059266
 30
0.0
 11
430.57901844391432
 21
64.531019642058254
 31
0.0
  0
LINE
  5
8FD4
  8
AM_0
 10
430.57901844391432
 20
64.531019642058254
 30
0.0
 11
430.58401844391398
 21
64.530519642060426
 31
0.0
  0
LINE
  5
8FD5
  8
AM_0
 10
430.58401844391398
 20
64.530519642060426
 30
0.0
 11
430.58801844391428
 21
64.530119642058253
 31
0.0
  0
LINE
  5
8FD6
  8
AM_0
 10
430.58801844391428
 20
64.530119642058253
 30
0.0
 11
430.5920184439139
 21
64.529619642059288
 31
0.0
  0
LINE
  5
8FD7
  8
AM_0
 10
430.5920184439139
 20
64.529619642059288
 30
0.0
 11
430.59701844391429
 21
64.529119642058276
 31
0.0
  0
LINE
  5
8FD8
  8
AM_0
 10
430.59701844391429
 20
64.529119642058276
 30
0.0
 11
430.60101844391397
 21
64.528719642058377
 31
0.0
  0
LINE
  5
8FD9
  8
AM_0
 10
430.60101844391397
 20
64.528719642058377
 30
0.0
 11
430.6050184439141
 21
64.528219642058275
 31
0.0
  0
LINE
  5
8FDA
  8
AM_0
 10
430.6050184439141
 20
64.528219642058275
 30
0.0
 11
430.6100184439141
 21
64.52771964205931
 31
0.0
  0
LINE
  5
8FDB
  8
AM_0
 10
430.6100184439141
 20
64.52771964205931
 30
0.0
 11
430.61401844391401
 21
64.527319642059183
 31
0.0
  0
LINE
  5
8FDC
  8
AM_0
 10
430.61401844391401
 20
64.527319642059183
 30
0.0
 11
430.61801844391408
 21
64.52691964205836
 31
0.0
  0
LINE
  5
8FDD
  8
AM_0
 10
430.61801844391408
 20
64.52691964205836
 30
0.0
 11
430.62301844391402
 21
64.526419642058272
 31
0.0
  0
LINE
  5
8FDE
  8
AM_0
 10
430.62301844391402
 20
64.526419642058272
 30
0.0
 11
430.62701844391421
 21
64.526019642059282
 31
0.0
  0
LINE
  5
8FDF
  8
AM_0
 10
430.62701844391421
 20
64.526019642059282
 30
0.0
 11
430.63101844391417
 21
64.525519642058271
 31
0.0
  0
LINE
  5
8FE0
  8
AM_0
 10
430.63101844391417
 20
64.525519642058271
 30
0.0
 11
430.63601844391422
 21
64.525119642059281
 31
0.0
  0
LINE
  5
8FE1
  8
AM_0
 10
430.63601844391422
 20
64.525119642059281
 30
0.0
 11
430.64001844391419
 21
64.524719642057335
 31
0.0
  0
LINE
  5
8FE2
  8
AM_0
 10
430.64001844391419
 20
64.524719642057335
 30
0.0
 11
430.64401844391432
 21
64.524319642057208
 31
0.0
  0
LINE
  5
8FE3
  8
AM_0
 10
430.64401844391432
 20
64.524319642057208
 30
0.0
 11
430.6490184439142
 21
64.523819642058243
 31
0.0
  0
LINE
  5
8FE4
  8
AM_0
 10
430.6490184439142
 20
64.523819642058243
 30
0.0
 11
430.65301844391399
 21
64.523419642058343
 31
0.0
  0
LINE
  5
8FE5
  8
AM_0
 10
430.65301844391399
 20
64.523419642058343
 30
0.0
 11
430.65701844391413
 21
64.523019642058443
 31
0.0
  0
LINE
  5
8FE6
  8
AM_0
 10
430.65701844391413
 20
64.523019642058443
 30
0.0
 11
430.66201844391401
 21
64.522619642058331
 31
0.0
  0
LINE
  5
8FE7
  8
AM_0
 10
430.66201844391401
 20
64.522619642058331
 30
0.0
 11
430.66601844391431
 21
64.522219642058417
 31
0.0
  0
LINE
  5
8FE8
  8
AM_0
 10
430.66601844391431
 20
64.522219642058417
 30
0.0
 11
430.6700184439141
 21
64.52181964205829
 31
0.0
  0
LINE
  5
8FE9
  8
AM_0
 10
430.6700184439141
 20
64.52181964205829
 30
0.0
 11
430.67501844391433
 21
64.52141964205839
 31
0.0
  0
LINE
  5
8FEA
  8
AM_0
 10
430.67501844391433
 20
64.52141964205839
 30
0.0
 11
430.679018443914
 21
64.521119642057329
 31
0.0
  0
LINE
  5
8FEB
  8
AM_0
 10
430.679018443914
 20
64.521119642057329
 30
0.0
 11
430.68301844391408
 21
64.520719642058339
 31
0.0
  0
LINE
  5
8FEC
  8
AM_0
 10
430.68301844391408
 20
64.520719642058339
 30
0.0
 11
430.68801844391402
 21
64.520319642058425
 31
0.0
  0
LINE
  5
8FED
  8
AM_0
 10
430.68801844391402
 20
64.520319642058425
 30
0.0
 11
430.69201844391421
 21
64.519919642058312
 31
0.0
  0
LINE
  5
8FEE
  8
AM_0
 10
430.69201844391421
 20
64.519919642058312
 30
0.0
 11
430.69601844391428
 21
64.519619642058387
 31
0.0
  0
LINE
  5
8FEF
  8
AM_0
 10
430.69601844391428
 20
64.519619642058387
 30
0.0
 11
430.70101844391189
 21
64.51921964205826
 31
0.0
  0
LINE
  5
8FF0
  8
AM_0
 10
430.70101844391189
 20
64.51921964205826
 30
0.0
 11
430.70501844391413
 21
64.518819642058361
 31
0.0
  0
LINE
  5
8FF1
  8
AM_0
 10
430.70501844391413
 20
64.518819642058361
 30
0.0
 11
430.70901844391398
 21
64.518519642059346
 31
0.0
  0
LINE
  5
8FF2
  8
AM_0
 10
430.70901844391398
 20
64.518519642059346
 30
0.0
 11
430.71401844391409
 21
64.518119642059219
 31
0.0
  0
LINE
  5
8FF3
  8
AM_0
 10
430.71401844391409
 20
64.518119642059219
 30
0.0
 11
430.7180184439141
 21
64.517819642059294
 31
0.0
  0
LINE
  5
8FF4
  8
AM_0
 10
430.7180184439141
 20
64.517819642059294
 30
0.0
 11
430.72201844391441
 21
64.517519642057323
 31
0.0
  0
LINE
  5
8FF5
  8
AM_0
 10
430.72201844391441
 20
64.517519642057323
 30
0.0
 11
430.72701844391418
 21
64.517119642059242
 31
0.0
  0
LINE
  5
8FF6
  8
AM_0
 10
430.72701844391418
 20
64.517119642059242
 30
0.0
 11
430.73101844391442
 21
64.516819642059303
 31
0.0
  0
LINE
  5
8FF7
  8
AM_0
 10
430.73101844391442
 20
64.516819642059303
 30
0.0
 11
430.73501844391421
 21
64.516519642058256
 31
0.0
  0
LINE
  5
8FF8
  8
AM_0
 10
430.73501844391421
 20
64.516519642058256
 30
0.0
 11
430.74001844391432
 21
64.516219642059241
 31
0.0
  0
LINE
  5
8FF9
  8
AM_0
 10
430.74001844391432
 20
64.516219642059241
 30
0.0
 11
430.74401844391411
 21
64.515819642058432
 31
0.0
  0
LINE
  5
8FFA
  8
AM_0
 10
430.74401844391411
 20
64.515819642058432
 30
0.0
 11
430.74801844391402
 21
64.515519642059175
 31
0.0
  0
LINE
  5
8FFB
  8
AM_0
 10
430.74801844391402
 20
64.515519642059175
 30
0.0
 11
430.75301844391419
 21
64.515219642059265
 31
0.0
  0
LINE
  5
8FFC
  8
AM_0
 10
430.75301844391419
 20
64.515219642059265
 30
0.0
 11
430.75701844391398
 21
64.51491964205843
 31
0.0
  0
LINE
  5
8FFD
  8
AM_0
 10
430.75701844391398
 20
64.51491964205843
 30
0.0
 11
430.76101844391422
 21
64.514619642058278
 31
0.0
  0
LINE
  5
8FFE
  8
AM_0
 10
430.76101844391422
 20
64.514619642058278
 30
0.0
 11
430.76601844391303
 21
64.514319642059263
 31
0.0
  0
LINE
  5
8FFF
  8
AM_0
 10
430.76601844391303
 20
64.514319642059263
 30
0.0
 11
430.77001844391413
 21
64.514019642059338
 31
0.0
  0
LINE
  5
9000
  8
AM_0
 10
430.77001844391413
 20
64.514019642059338
 30
0.0
 11
430.7740184439142
 21
64.513719642058277
 31
0.0
  0
LINE
  5
9001
  8
AM_0
 10
430.7740184439142
 20
64.513719642058277
 30
0.0
 11
430.77901844391408
 21
64.513419642058352
 31
0.0
  0
LINE
  5
9002
  8
AM_0
 10
430.77901844391408
 20
64.513419642058352
 30
0.0
 11
430.78301844391427
 21
64.513219642059312
 31
0.0
  0
LINE
  5
9003
  8
AM_0
 10
430.78301844391427
 20
64.513219642059312
 30
0.0
 11
430.78701844391389
 21
64.51291964205825
 31
0.0
  0
LINE
  5
9004
  8
AM_0
 10
430.78701844391389
 20
64.51291964205825
 30
0.0
 11
430.79201844391412
 21
64.512619642057189
 31
0.0
  0
LINE
  5
9005
  8
AM_0
 10
430.79201844391412
 20
64.512619642057189
 30
0.0
 11
430.79601844391391
 21
64.512319642058401
 31
0.0
  0
LINE
  5
9006
  8
AM_0
 10
430.79601844391391
 20
64.512319642058401
 30
0.0
 11
430.80001844391421
 21
64.512119642057314
 31
0.0
  0
LINE
  5
9007
  8
AM_0
 10
430.80001844391421
 20
64.512119642057314
 30
0.0
 11
430.80501844391398
 21
64.511819642058285
 31
0.0
  0
LINE
  5
9008
  8
AM_0
 10
430.80501844391398
 20
64.511819642058285
 30
0.0
 11
430.80901844391428
 21
64.511619642058349
 31
0.0
  0
LINE
  5
9009
  8
AM_0
 10
430.80901844391428
 20
64.511619642058349
 30
0.0
 11
430.81301844391419
 21
64.51131964205932
 31
0.0
  0
LINE
  5
900A
  8
AM_0
 10
430.81301844391419
 20
64.51131964205932
 30
0.0
 11
430.81801844391441
 21
64.511119642058247
 31
0.0
  0
LINE
  5
900B
  8
AM_0
 10
430.81801844391441
 20
64.511119642058247
 30
0.0
 11
430.8220184439142
 21
64.510819642058323
 31
0.0
  0
LINE
  5
900C
  8
AM_0
 10
430.8220184439142
 20
64.510819642058323
 30
0.0
 11
430.82601844391411
 21
64.510619642059282
 31
0.0
  0
LINE
  5
900D
  8
AM_0
 10
430.82601844391411
 20
64.510619642059282
 30
0.0
 11
430.83101844391422
 21
64.510319642057311
 31
0.0
  0
LINE
  5
900E
  8
AM_0
 10
430.83101844391422
 20
64.510319642057311
 30
0.0
 11
430.83501844391401
 21
64.510119642058271
 31
0.0
  0
LINE
  5
900F
  8
AM_0
 10
430.83501844391401
 20
64.510119642058271
 30
0.0
 11
430.8390184439142
 21
64.509919642057184
 31
0.0
  0
LINE
  5
9010
  8
AM_0
 10
430.8390184439142
 20
64.509919642057184
 30
0.0
 11
430.84401844391402
 21
64.509719642058357
 31
0.0
  0
LINE
  5
9011
  8
AM_0
 10
430.84401844391402
 20
64.509719642058357
 30
0.0
 11
430.84801844391421
 21
64.50941964205731
 31
0.0
  0
LINE
  5
9012
  8
AM_0
 10
430.84801844391421
 20
64.50941964205731
 30
0.0
 11
430.85201844391401
 21
64.509219642058284
 31
0.0
  0
LINE
  5
9013
  8
AM_0
 10
430.85201844391401
 20
64.509219642058284
 30
0.0
 11
430.85701844391423
 21
64.50901964205832
 31
0.0
  0
LINE
  5
9014
  8
AM_0
 10
430.85701844391423
 20
64.50901964205832
 30
0.0
 11
430.86101844391419
 21
64.50881964205837
 31
0.0
  0
LINE
  5
9015
  8
AM_0
 10
430.86101844391419
 20
64.50881964205837
 30
0.0
 11
430.86501844391432
 21
64.50861964205933
 31
0.0
  0
LINE
  5
9016
  8
AM_0
 10
430.86501844391432
 20
64.50861964205933
 30
0.0
 11
430.8700184439142
 21
64.508419642058243
 31
0.0
  0
LINE
  5
9017
  8
AM_0
 10
430.8700184439142
 20
64.508419642058243
 30
0.0
 11
430.87401844391292
 21
64.508219642058293
 31
0.0
  0
LINE
  5
9018
  8
AM_0
 10
430.87401844391292
 20
64.508219642058293
 30
0.0
 11
430.87801844391407
 21
64.508019642059253
 31
0.0
  0
LINE
  5
9019
  8
AM_0
 10
430.87801844391407
 20
64.508019642059253
 30
0.0
 11
430.8830184439139
 21
64.507819642058408
 31
0.0
  0
LINE
  5
901A
  8
AM_0
 10
430.8830184439139
 20
64.507819642058408
 30
0.0
 11
430.88701844391409
 21
64.507619642057293
 31
0.0
  0
LINE
  5
901B
  8
AM_0
 10
430.88701844391409
 20
64.507619642057293
 30
0.0
 11
430.89101844391399
 21
64.507419642058252
 31
0.0
  0
LINE
  5
901C
  8
AM_0
 10
430.89101844391399
 20
64.507419642058252
 30
0.0
 11
430.89601844391422
 21
64.50721964205718
 31
0.0
  0
LINE
  5
901D
  8
AM_0
 10
430.89601844391422
 20
64.50721964205718
 30
0.0
 11
430.90001844391401
 21
64.507019642059277
 31
0.0
  0
LINE
  5
901E
  8
AM_0
 10
430.90001844391401
 20
64.507019642059277
 30
0.0
 11
430.90401844391431
 21
64.506919642058392
 31
0.0
  0
LINE
  5
901F
  8
AM_0
 10
430.90401844391431
 20
64.506919642058392
 30
0.0
 11
430.90901844391402
 21
64.506719642057291
 31
0.0
  0
LINE
  5
9020
  8
AM_0
 10
430.90901844391402
 20
64.506719642057291
 30
0.0
 11
430.91301844391432
 21
64.506519642058251
 31
0.0
  0
LINE
  5
9021
  8
AM_0
 10
430.91301844391432
 20
64.506519642058251
 30
0.0
 11
430.91801844391398
 21
64.5064196420592
 31
0.0
  0
LINE
  5
9022
  8
AM_0
 10
430.91801844391398
 20
64.5064196420592
 30
0.0
 11
430.922018443914
 21
64.50621964205834
 31
0.0
  0
LINE
  5
9023
  8
AM_0
 10
430.922018443914
 20
64.50621964205834
 30
0.0
 11
430.92601844391419
 21
64.5060196420593
 31
0.0
  0
LINE
  5
9024
  8
AM_0
 10
430.92601844391419
 20
64.5060196420593
 30
0.0
 11
430.93101844391282
 21
64.505919642058416
 31
0.0
  0
LINE
  5
9025
  8
AM_0
 10
430.93101844391282
 20
64.505919642058416
 30
0.0
 11
430.9350184439142
 21
64.505719642058466
 31
0.0
  0
LINE
  5
9026
  8
AM_0
 10
430.9350184439142
 20
64.505719642058466
 30
0.0
 11
430.93901844391399
 21
64.505619642058264
 31
0.0
  0
LINE
  5
9027
  8
AM_0
 10
430.93901844391399
 20
64.505619642058264
 30
0.0
 11
430.94401844391422
 21
64.505419642057177
 31
0.0
  0
LINE
  5
9028
  8
AM_0
 10
430.94401844391422
 20
64.505419642057177
 30
0.0
 11
430.94801844391401
 21
64.505319642058339
 31
0.0
  0
LINE
  5
9029
  8
AM_0
 10
430.94801844391401
 20
64.505319642058339
 30
0.0
 11
430.95201844391431
 21
64.505219642059274
 31
0.0
  0
LINE
  5
902A
  8
AM_0
 10
430.95201844391431
 20
64.505219642059274
 30
0.0
 11
430.95701844391419
 21
64.505019642058414
 31
0.0
  0
LINE
  5
902B
  8
AM_0
 10
430.95701844391419
 20
64.505019642058414
 30
0.0
 11
430.96101844391433
 21
64.504919642057288
 31
0.0
  0
LINE
  5
902C
  8
AM_0
 10
430.96101844391433
 20
64.504919642057288
 30
0.0
 11
430.96501844391412
 21
64.504819642059388
 31
0.0
  0
LINE
  5
902D
  8
AM_0
 10
430.96501844391412
 20
64.504819642059388
 30
0.0
 11
430.970018443914
 21
64.504719642058262
 31
0.0
  0
LINE
  5
902E
  8
AM_0
 10
430.970018443914
 20
64.504719642058262
 30
0.0
 11
430.97401844391408
 21
64.504619642058273
 31
0.0
  0
LINE
  5
902F
  8
AM_0
 10
430.97401844391408
 20
64.504619642058273
 30
0.0
 11
430.9780184439141
 21
64.504519642059222
 31
0.0
  0
LINE
  5
9030
  8
AM_0
 10
430.9780184439141
 20
64.504519642059222
 30
0.0
 11
430.9830184439142
 21
64.504319642058363
 31
0.0
  0
LINE
  5
9031
  8
AM_0
 10
430.9830184439142
 20
64.504319642058363
 30
0.0
 11
430.98701844391189
 21
64.504219642059283
 31
0.0
  0
LINE
  5
9032
  8
AM_0
 10
430.98701844391189
 20
64.504219642059283
 30
0.0
 11
430.9910184439143
 21
64.504119642059322
 31
0.0
  0
LINE
  5
9033
  8
AM_0
 10
430.9910184439143
 20
64.504119642059322
 30
0.0
 11
430.99601844391401
 21
64.504019642057301
 31
0.0
  0
LINE
  5
9034
  8
AM_0
 10
430.99601844391401
 20
64.504019642057301
 30
0.0
 11
431.00001844391431
 21
64.504019642057301
 31
0.0
  0
LINE
  5
9035
  8
AM_0
 10
431.00001844391431
 20
64.504019642057301
 30
0.0
 11
431.00401844391422
 21
64.503919642059358
 31
0.0
  0
LINE
  5
9036
  8
AM_0
 10
431.00401844391422
 20
64.503919642059358
 30
0.0
 11
431.00901844391427
 21
64.50381964205917
 31
0.0
  0
LINE
  5
9037
  8
AM_0
 10
431.00901844391427
 20
64.50381964205917
 30
0.0
 11
431.01301844391418
 21
64.503719642058286
 31
0.0
  0
LINE
  5
9038
  8
AM_0
 10
431.01301844391418
 20
64.503719642058286
 30
0.0
 11
431.01701844391403
 21
64.503619642058311
 31
0.0
  0
LINE
  5
9039
  8
AM_0
 10
431.01701844391403
 20
64.503619642058311
 30
0.0
 11
431.02201844391419
 21
64.503619642058311
 31
0.0
  0
LINE
  5
903A
  8
AM_0
 10
431.02201844391419
 20
64.503619642058311
 30
0.0
 11
431.02601844391398
 21
64.503519642059246
 31
0.0
  0
LINE
  5
903B
  8
AM_0
 10
431.02601844391398
 20
64.503519642059246
 30
0.0
 11
431.03001844391412
 21
64.503419642058361
 31
0.0
  0
LINE
  5
903C
  8
AM_0
 10
431.03001844391412
 20
64.503419642058361
 30
0.0
 11
431.035018443914
 21
64.503419642058361
 31
0.0
  0
LINE
  5
903D
  8
AM_0
 10
431.035018443914
 20
64.503419642058361
 30
0.0
 11
431.0390184439143
 21
64.503319642059296
 31
0.0
  0
LINE
  5
903E
  8
AM_0
 10
431.0390184439143
 20
64.503319642059296
 30
0.0
 11
431.04401844391418
 21
64.503219642059321
 31
0.0
  0
LINE
  5
903F
  8
AM_0
 10
431.04401844391418
 20
64.503219642059321
 30
0.0
 11
431.04801844391432
 21
64.503219642059321
 31
0.0
  0
LINE
  5
9040
  8
AM_0
 10
431.04801844391432
 20
64.503219642059321
 30
0.0
 11
431.05201844391422
 21
64.5031196420573
 31
0.0
  0
LINE
  5
9041
  8
AM_0
 10
431.05201844391422
 20
64.5031196420573
 30
0.0
 11
431.05701844391427
 21
64.5031196420573
 31
0.0
  0
LINE
  5
9042
  8
AM_0
 10
431.05701844391427
 20
64.5031196420573
 30
0.0
 11
431.06101844391412
 21
64.503019642059371
 31
0.0
  0
LINE
  5
9043
  8
AM_0
 10
431.06101844391412
 20
64.503019642059371
 30
0.0
 11
431.06501844391403
 21
64.503019642059371
 31
0.0
  0
LINE
  5
9044
  8
AM_0
 10
431.06501844391403
 20
64.503019642059371
 30
0.0
 11
431.07001844391408
 21
64.502919642058259
 31
0.0
  0
LINE
  5
9045
  8
AM_0
 10
431.07001844391408
 20
64.502919642058259
 30
0.0
 11
431.0740184439141
 21
64.502919642058259
 31
0.0
  0
LINE
  5
9046
  8
AM_0
 10
431.0740184439141
 20
64.502919642058259
 30
0.0
 11
431.07801844391429
 21
64.502819642058284
 31
0.0
  0
LINE
  5
9047
  8
AM_0
 10
431.07801844391429
 20
64.502819642058284
 30
0.0
 11
431.083018443914
 21
64.502819642058284
 31
0.0
  0
LINE
  5
9048
  8
AM_0
 10
431.083018443914
 20
64.502819642058284
 30
0.0
 11
431.0870184439143
 21
64.502819642058284
 31
0.0
  0
LINE
  5
9049
  8
AM_0
 10
431.0870184439143
 20
64.502819642058284
 30
0.0
 11
431.09101844391398
 21
64.50271964205831
 31
0.0
  0
LINE
  5
904A
  8
AM_0
 10
431.09101844391398
 20
64.50271964205831
 30
0.0
 11
431.09601844391432
 21
64.50271964205831
 31
0.0
  0
LINE
  5
904B
  8
AM_0
 10
431.09601844391432
 20
64.50271964205831
 30
0.0
 11
431.10001844391428
 21
64.502619642059244
 31
0.0
  0
LINE
  5
904C
  8
AM_0
 10
431.10001844391428
 20
64.502619642059244
 30
0.0
 11
431.10401844391401
 21
64.502619642059244
 31
0.0
  0
LINE
  5
904D
  8
AM_0
 10
431.10401844391401
 20
64.502619642059244
 30
0.0
 11
431.10901844391418
 21
64.502619642059244
 31
0.0
  0
LINE
  5
904E
  8
AM_0
 10
431.10901844391418
 20
64.502619642059244
 30
0.0
 11
431.11301844391397
 21
64.50251964205836
 31
0.0
  0
LINE
  5
904F
  8
AM_0
 10
431.11301844391397
 20
111.7631196420584
 30
0.0
 11
431.10901844391418
 21
111.7631196420584
 31
0.0
  0
LINE
  5
9050
  8
AM_0
 10
431.10901844391418
 20
111.7631196420584
 30
0.0
 11
431.1050184439141
 21
111.7631196420584
 31
0.0
  0
LINE
  5
9051
  8
AM_0
 10
431.1050184439141
 20
111.7631196420584
 30
0.0
 11
431.10001844391428
 21
111.7631196420584
 31
0.0
  0
LINE
  5
9052
  8
AM_0
 10
431.10001844391428
 20
111.7631196420584
 30
0.0
 11
431.09601844391432
 21
111.7631196420584
 31
0.0
  0
LINE
  5
9053
  8
AM_0
 10
431.09601844391432
 20
111.7631196420584
 30
0.0
 11
431.0920184439139
 21
111.7631196420584
 31
0.0
  0
LINE
  5
9054
  8
AM_0
 10
431.0920184439139
 20
111.7631196420584
 30
0.0
 11
431.0870184439143
 21
111.7631196420584
 31
0.0
  0
LINE
  5
9055
  8
AM_0
 10
431.0870184439143
 20
111.7631196420584
 30
0.0
 11
431.083018443914
 21
111.7621196420593
 31
0.0
  0
LINE
  5
9056
  8
AM_0
 10
431.083018443914
 20
111.7621196420593
 30
0.0
 11
431.07901844391421
 21
111.7621196420593
 31
0.0
  0
LINE
  5
9057
  8
AM_0
 10
431.07901844391421
 20
111.7621196420593
 30
0.0
 11
431.07501844391402
 21
111.7621196420593
 31
0.0
  0
LINE
  5
9058
  8
AM_0
 10
431.07501844391402
 20
111.7621196420593
 30
0.0
 11
431.07001844391408
 21
111.7621196420593
 31
0.0
  0
LINE
  5
9059
  8
AM_0
 10
431.07001844391408
 20
111.7621196420593
 30
0.0
 11
431.06601844391389
 21
111.7621196420593
 31
0.0
  0
LINE
  5
905A
  8
AM_0
 10
431.06601844391389
 20
111.7621196420593
 30
0.0
 11
431.06201844391433
 21
111.7621196420593
 31
0.0
  0
LINE
  5
905B
  8
AM_0
 10
431.06201844391433
 20
111.7621196420593
 30
0.0
 11
431.05801844391419
 21
111.7621196420593
 31
0.0
  0
LINE
  5
905C
  8
AM_0
 10
431.05801844391419
 20
111.7621196420593
 30
0.0
 11
431.0530184439142
 21
111.7621196420593
 31
0.0
  0
LINE
  5
905D
  8
AM_0
 10
431.0530184439142
 20
111.7621196420593
 30
0.0
 11
431.04901844391412
 21
111.7621196420593
 31
0.0
  0
LINE
  5
905E
  8
AM_0
 10
431.04901844391412
 20
111.7621196420593
 30
0.0
 11
431.04501844391399
 21
111.7621196420593
 31
0.0
  0
LINE
  5
905F
  8
AM_0
 10
431.04501844391399
 20
111.7621196420593
 30
0.0
 11
431.04001844391422
 21
111.7621196420593
 31
0.0
  0
LINE
  5
9060
  8
AM_0
 10
431.04001844391422
 20
111.7621196420593
 30
0.0
 11
431.03601844391397
 21
111.7621196420593
 31
0.0
  0
LINE
  5
9061
  8
AM_0
 10
431.03601844391397
 20
111.7621196420593
 30
0.0
 11
431.03201844391418
 21
111.7621196420593
 31
0.0
  0
LINE
  5
9062
  8
AM_0
 10
431.03201844391418
 20
111.7621196420593
 30
0.0
 11
431.02801844391399
 21
111.7621196420593
 31
0.0
  0
LINE
  5
9063
  8
AM_0
 10
431.02801844391399
 20
111.7621196420593
 30
0.0
 11
431.02301844391411
 21
111.7621196420593
 31
0.0
  0
LINE
  5
9064
  8
AM_0
 10
431.02301844391411
 20
111.7621196420593
 30
0.0
 11
431.01901844391432
 21
111.7621196420593
 31
0.0
  0
LINE
  5
9065
  8
AM_0
 10
431.01901844391432
 20
111.7621196420593
 30
0.0
 11
431.01501844391419
 21
111.7621196420593
 31
0.0
  0
LINE
  5
9066
  8
AM_0
 10
431.01501844391419
 20
111.7621196420593
 30
0.0
 11
431.01101844391422
 21
111.7621196420593
 31
0.0
  0
LINE
  5
9067
  8
AM_0
 10
431.01101844391422
 20
111.7621196420593
 30
0.0
 11
431.00601844391417
 21
111.7611196420582
 31
0.0
  0
LINE
  5
9068
  8
AM_0
 10
431.00601844391417
 20
111.7611196420582
 30
0.0
 11
431.00201844391421
 21
111.7611196420582
 31
0.0
  0
LINE
  5
9069
  8
AM_0
 10
431.00201844391421
 20
111.7611196420582
 30
0.0
 11
430.99801844391391
 21
111.7611196420582
 31
0.0
  0
LINE
  5
906A
  8
AM_0
 10
430.99801844391391
 20
111.7611196420582
 30
0.0
 11
430.99401844391411
 21
111.7611196420582
 31
0.0
  0
LINE
  5
906B
  8
AM_0
 10
430.99401844391411
 20
111.7611196420582
 30
0.0
 11
430.98901844391389
 21
111.7611196420582
 31
0.0
  0
LINE
  5
906C
  8
AM_0
 10
430.98901844391389
 20
111.7611196420582
 30
0.0
 11
430.98501844391433
 21
111.7611196420582
 31
0.0
  0
LINE
  5
906D
  8
AM_0
 10
430.98501844391433
 20
111.7611196420582
 30
0.0
 11
430.98101844391408
 21
111.7611196420582
 31
0.0
  0
LINE
  5
906E
  8
AM_0
 10
430.98101844391408
 20
111.7611196420582
 30
0.0
 11
430.97601844391397
 21
111.7611196420582
 31
0.0
  0
LINE
  5
906F
  8
AM_0
 10
430.97601844391397
 20
111.7611196420582
 30
0.0
 11
430.97201844391412
 21
111.7611196420582
 31
0.0
  0
LINE
  5
9070
  8
AM_0
 10
430.97201844391412
 20
111.7611196420582
 30
0.0
 11
430.96801844391211
 21
111.7611196420582
 31
0.0
  0
LINE
  5
9071
  8
AM_0
 10
430.96801844391211
 20
111.7611196420582
 30
0.0
 11
430.9640184439142
 21
111.7601196420591
 31
0.0
  0
LINE
  5
9072
  8
AM_0
 10
430.9640184439142
 20
111.7601196420591
 30
0.0
 11
430.95901844391398
 21
111.7601196420591
 31
0.0
  0
LINE
  5
9073
  8
AM_0
 10
430.95901844391398
 20
111.7601196420591
 30
0.0
 11
430.95501844391413
 21
111.7601196420591
 31
0.0
  0
LINE
  5
9074
  8
AM_0
 10
430.95501844391413
 20
111.7601196420591
 30
0.0
 11
430.95101844391399
 21
111.7601196420591
 31
0.0
  0
LINE
  5
9075
  8
AM_0
 10
430.95101844391399
 20
111.7601196420591
 30
0.0
 11
430.9470184439142
 21
111.7601196420591
 31
0.0
  0
LINE
  5
9076
  8
AM_0
 10
430.9470184439142
 20
111.7601196420591
 30
0.0
 11
430.94201844391432
 21
111.7601196420591
 31
0.0
  0
LINE
  5
9077
  8
AM_0
 10
430.94201844391432
 20
111.7601196420591
 30
0.0
 11
430.93801844391419
 21
111.7601196420591
 31
0.0
  0
LINE
  5
9078
  8
AM_0
 10
430.93801844391419
 20
111.7601196420591
 30
0.0
 11
430.93401844391423
 21
111.7591196420582
 31
0.0
  0
LINE
  5
9079
  8
AM_0
 10
430.93401844391423
 20
111.7591196420582
 30
0.0
 11
430.9300184439121
 21
111.7591196420582
 31
0.0
  0
LINE
  5
907A
  8
AM_0
 10
430.9300184439121
 20
111.7591196420582
 30
0.0
 11
430.92501844391421
 21
111.7591196420582
 31
0.0
  0
LINE
  5
907B
  8
AM_0
 10
430.92501844391421
 20
111.7591196420582
 30
0.0
 11
430.92101844391402
 21
111.7591196420582
 31
0.0
  0
LINE
  5
907C
  8
AM_0
 10
430.92101844391402
 20
111.7591196420582
 30
0.0
 11
430.91701844391417
 21
111.7591196420582
 31
0.0
  0
LINE
  5
907D
  8
AM_0
 10
430.91701844391417
 20
111.7591196420582
 30
0.0
 11
430.91201844391281
 21
111.7591196420582
 31
0.0
  0
LINE
  5
907E
  8
AM_0
 10
430.91201844391281
 20
111.7591196420582
 30
0.0
 11
430.9080184439141
 21
111.7591196420582
 31
0.0
  0
LINE
  5
907F
  8
AM_0
 10
430.9080184439141
 20
111.7591196420582
 30
0.0
 11
430.90401844391431
 21
111.7581196420583
 31
0.0
  0
LINE
  5
9080
  8
AM_0
 10
430.90401844391431
 20
111.7581196420583
 30
0.0
 11
430.90001844391401
 21
111.7581196420583
 31
0.0
  0
LINE
  5
9081
  8
AM_0
 10
430.90001844391401
 20
111.7581196420583
 30
0.0
 11
430.8950184439143
 21
111.7581196420583
 31
0.0
  0
LINE
  5
9082
  8
AM_0
 10
430.8950184439143
 20
111.7581196420583
 30
0.0
 11
430.89101844391399
 21
111.7581196420583
 31
0.0
  0
LINE
  5
9083
  8
AM_0
 10
430.89101844391399
 20
111.7581196420583
 30
0.0
 11
430.88701844391409
 21
111.7581196420583
 31
0.0
  0
LINE
  5
9084
  8
AM_0
 10
430.88701844391409
 20
111.7581196420583
 30
0.0
 11
430.8830184439139
 21
111.75711964205919
 31
0.0
  0
LINE
  5
9085
  8
AM_0
 10
430.8830184439139
 20
111.75711964205919
 30
0.0
 11
430.87801844391407
 21
111.75711964205919
 31
0.0
  0
LINE
  5
9086
  8
AM_0
 10
430.87801844391407
 20
111.75711964205919
 30
0.0
 11
430.87401844391292
 21
111.75711964205919
 31
0.0
  0
LINE
  5
9087
  8
AM_0
 10
430.87401844391292
 20
111.75711964205919
 30
0.0
 11
430.8700184439142
 21
111.75711964205919
 31
0.0
  0
LINE
  5
9088
  8
AM_0
 10
430.8700184439142
 20
111.75711964205919
 30
0.0
 11
430.86601844391407
 21
111.75711964205919
 31
0.0
  0
LINE
  5
9089
  8
AM_0
 10
430.86601844391407
 20
111.75711964205919
 30
0.0
 11
430.86101844391419
 21
111.75711964205919
 31
0.0
  0
LINE
  5
908A
  8
AM_0
 10
430.86101844391419
 20
111.75711964205919
 30
0.0
 11
430.85701844391423
 21
111.75611964206129
 31
0.0
  0
LINE
  5
908B
  8
AM_0
 10
430.85701844391423
 20
111.75611964206129
 30
0.0
 11
430.8530184439141
 21
111.75611964206129
 31
0.0
  0
LINE
  5
908C
  8
AM_0
 10
430.8530184439141
 20
111.75611964206129
 30
0.0
 11
430.8490184439143
 21
111.75611964206129
 31
0.0
  0
LINE
  5
908D
  8
AM_0
 10
430.8490184439143
 20
111.75611964206129
 30
0.0
 11
430.84401844391402
 21
111.75611964206129
 31
0.0
  0
LINE
  5
908E
  8
AM_0
 10
430.84401844391402
 20
111.75611964206129
 30
0.0
 11
430.84001844391412
 21
111.75511964206039
 31
0.0
  0
LINE
  5
908F
  8
AM_0
 10
430.84001844391412
 20
111.75511964206039
 30
0.0
 11
430.83601844391433
 21
111.75511964206039
 31
0.0
  0
LINE
  5
9090
  8
AM_0
 10
430.83601844391433
 20
111.75511964206039
 30
0.0
 11
430.83101844391422
 21
111.75511964206039
 31
0.0
  0
LINE
  5
9091
  8
AM_0
 10
430.83101844391422
 20
111.75511964206039
 30
0.0
 11
430.82701844391431
 21
111.75511964206039
 31
0.0
  0
LINE
  5
9092
  8
AM_0
 10
430.82701844391431
 20
111.75511964206039
 30
0.0
 11
430.82301844391418
 21
111.75511964206039
 31
0.0
  0
LINE
  5
9093
  8
AM_0
 10
430.82301844391418
 20
111.75511964206039
 30
0.0
 11
430.81901844391422
 21
111.75411964205929
 31
0.0
  0
LINE
  5
9094
  8
AM_0
 10
430.81901844391422
 20
111.75411964205929
 30
0.0
 11
430.81401844391422
 21
111.75411964205929
 31
0.0
  0
LINE
  5
9095
  8
AM_0
 10
430.81401844391422
 20
111.75411964205929
 30
0.0
 11
430.81001844391409
 21
111.75411964205929
 31
0.0
  0
LINE
  5
9096
  8
AM_0
 10
430.81001844391409
 20
111.75411964205929
 30
0.0
 11
430.80601844391401
 21
111.75411964205929
 31
0.0
  0
LINE
  5
9097
  8
AM_0
 10
430.80601844391401
 20
111.75411964205929
 30
0.0
 11
430.80201844391428
 21
111.75311964205839
 31
0.0
  0
LINE
  5
9098
  8
AM_0
 10
430.80201844391428
 20
111.75311964205839
 30
0.0
 11
430.797018443914
 21
111.75311964205839
 31
0.0
  0
LINE
  5
9099
  8
AM_0
 10
430.797018443914
 20
111.75311964205839
 30
0.0
 11
430.79301844391398
 21
111.75311964205839
 31
0.0
  0
LINE
  5
909A
  8
AM_0
 10
430.79301844391398
 20
111.75311964205839
 30
0.0
 11
430.7890184439143
 21
111.7521196420593
 31
0.0
  0
LINE
  5
909B
  8
AM_0
 10
430.7890184439143
 20
111.7521196420593
 30
0.0
 11
430.78501844391292
 21
111.7521196420593
 31
0.0
  0
LINE
  5
909C
  8
AM_0
 10
430.78501844391292
 20
111.7521196420593
 30
0.0
 11
430.78001844391429
 21
111.7521196420593
 31
0.0
  0
LINE
  5
909D
  8
AM_0
 10
430.78001844391429
 20
111.7521196420593
 30
0.0
 11
430.7760184439141
 21
111.7521196420593
 31
0.0
  0
LINE
  5
909E
  8
AM_0
 10
430.7760184439141
 20
111.7521196420593
 30
0.0
 11
430.77201844391408
 21
111.7511196420582
 31
0.0
  0
LINE
  5
909F
  8
AM_0
 10
430.77201844391408
 20
111.7511196420582
 30
0.0
 11
430.768018443914
 21
111.7511196420582
 31
0.0
  0
LINE
  5
90A0
  8
AM_0
 10
430.768018443914
 20
111.7511196420582
 30
0.0
 11
430.76301844391412
 21
111.7511196420582
 31
0.0
  0
LINE
  5
90A1
  8
AM_0
 10
430.76301844391412
 20
111.7511196420582
 30
0.0
 11
430.75901844391427
 21
111.7511196420582
 31
0.0
  0
LINE
  5
90A2
  8
AM_0
 10
430.75901844391427
 20
111.7511196420582
 30
0.0
 11
430.7550184439142
 21
111.75011964205819
 31
0.0
  0
LINE
  5
90A3
  8
AM_0
 10
430.7550184439142
 20
111.75011964205819
 30
0.0
 11
430.75101844391412
 21
111.75011964205819
 31
0.0
  0
LINE
  5
90A4
  8
AM_0
 10
430.75101844391412
 20
111.75011964205819
 30
0.0
 11
430.74601844391418
 21
111.75011964205819
 31
0.0
  0
LINE
  5
90A5
  8
AM_0
 10
430.74601844391418
 20
111.75011964205819
 30
0.0
 11
430.74201844391422
 21
111.7491196420592
 31
0.0
  0
LINE
  5
90A6
  8
AM_0
 10
430.74201844391422
 20
111.7491196420592
 30
0.0
 11
430.73801844391397
 21
111.7491196420592
 31
0.0
  0
LINE
  5
90A7
  8
AM_0
 10
430.73801844391397
 20
111.7491196420592
 30
0.0
 11
430.7330184439142
 21
111.7491196420592
 31
0.0
  0
LINE
  5
90A8
  8
AM_0
 10
430.7330184439142
 20
111.7491196420592
 30
0.0
 11
430.72901844391401
 21
111.74811964205919
 31
0.0
  0
LINE
  5
90A9
  8
AM_0
 10
430.72901844391401
 20
111.74811964205919
 30
0.0
 11
430.725018443914
 21
111.74811964205919
 31
0.0
  0
LINE
  5
90AA
  8
AM_0
 10
430.725018443914
 20
111.74811964205919
 30
0.0
 11
430.72101844391432
 21
111.74811964205919
 31
0.0
  0
LINE
  5
90AB
  8
AM_0
 10
430.72101844391432
 20
111.74811964205919
 30
0.0
 11
430.71601844391398
 21
111.74711964205829
 31
0.0
  0
LINE
  5
90AC
  8
AM_0
 10
430.71601844391398
 20
111.74711964205829
 30
0.0
 11
430.7120184439143
 21
111.74711964205829
 31
0.0
  0
LINE
  5
90AD
  8
AM_0
 10
430.7120184439143
 20
111.74711964205829
 30
0.0
 11
430.70801844391428
 21
111.74711964205829
 31
0.0
  0
LINE
  5
90AE
  8
AM_0
 10
430.70801844391428
 20
111.74711964205829
 30
0.0
 11
430.70401844391421
 21
111.7461196420592
 31
0.0
  0
LINE
  5
90AF
  8
AM_0
 10
430.70401844391421
 20
111.7461196420592
 30
0.0
 11
430.69901844391421
 21
111.7461196420592
 31
0.0
  0
LINE
  5
90B0
  8
AM_0
 10
430.69901844391421
 20
111.7461196420592
 30
0.0
 11
430.69501844391408
 21
111.7461196420592
 31
0.0
  0
LINE
  5
90B1
  8
AM_0
 10
430.69501844391408
 20
111.7461196420592
 30
0.0
 11
430.69101844391389
 21
111.7451196420572
 31
0.0
  0
LINE
  5
90B2
  8
AM_0
 10
430.69101844391389
 20
111.7451196420572
 30
0.0
 11
430.68701844391433
 21
111.7451196420572
 31
0.0
  0
LINE
  5
90B3
  8
AM_0
 10
430.68701844391433
 20
111.7451196420572
 30
0.0
 11
430.68201844391427
 21
111.7451196420572
 31
0.0
  0
LINE
  5
90B4
  8
AM_0
 10
430.68201844391427
 20
111.7451196420572
 30
0.0
 11
430.6780184439142
 21
111.74411964205839
 31
0.0
  0
LINE
  5
90B5
  8
AM_0
 10
430.6780184439142
 20
111.74411964205839
 30
0.0
 11
430.67401844391412
 21
111.74411964205839
 31
0.0
  0
LINE
  5
90B6
  8
AM_0
 10
430.67401844391412
 20
111.74411964205839
 30
0.0
 11
430.6700184439141
 21
111.7431196420593
 31
0.0
  0
LINE
  5
90B7
  8
AM_0
 10
430.6700184439141
 20
111.7431196420593
 30
0.0
 11
430.66501844391422
 21
111.7431196420593
 31
0.0
  0
LINE
  5
90B8
  8
AM_0
 10
430.66501844391422
 20
111.7431196420593
 30
0.0
 11
430.66101844391397
 21
111.7431196420593
 31
0.0
  0
LINE
  5
90B9
  8
AM_0
 10
430.66101844391397
 20
111.7431196420593
 30
0.0
 11
430.65701844391413
 21
111.74211964205929
 31
0.0
  0
LINE
  5
90BA
  8
AM_0
 10
430.65701844391413
 20
111.74211964205929
 30
0.0
 11
430.65301844391399
 21
111.74211964205929
 31
0.0
  0
LINE
  5
90BB
  8
AM_0
 10
430.65301844391399
 20
111.74211964205929
 30
0.0
 11
430.64801844391422
 21
111.7411196420591
 31
0.0
  0
LINE
  5
90BC
  8
AM_0
 10
430.64801844391422
 20
111.7411196420591
 30
0.0
 11
430.64401844391432
 21
111.7411196420591
 31
0.0
  0
LINE
  5
90BD
  8
AM_0
 10
430.64401844391432
 20
111.7411196420591
 30
0.0
 11
430.64001844391419
 21
111.7411196420591
 31
0.0
  0
LINE
  5
90BE
  8
AM_0
 10
430.64001844391419
 20
111.7411196420591
 30
0.0
 11
430.63601844391422
 21
111.74011964205729
 31
0.0
  0
LINE
  5
90BF
  8
AM_0
 10
430.63601844391422
 20
111.74011964205729
 30
0.0
 11
430.63101844391417
 21
111.74011964205729
 31
0.0
  0
LINE
  5
90C0
  8
AM_0
 10
430.63101844391417
 20
111.74011964205729
 30
0.0
 11
430.62701844391421
 21
111.7391196420583
 31
0.0
  0
LINE
  5
90C1
  8
AM_0
 10
430.62701844391421
 20
111.7391196420583
 30
0.0
 11
430.62301844391402
 21
111.7391196420583
 31
0.0
  0
LINE
  5
90C2
  8
AM_0
 10
430.62301844391402
 20
111.7391196420583
 30
0.0
 11
430.61901844391417
 21
111.7381196420592
 31
0.0
  0
LINE
  5
90C3
  8
AM_0
 10
430.61901844391417
 20
111.7381196420592
 30
0.0
 11
430.61401844391401
 21
111.7381196420592
 31
0.0
  0
LINE
  5
90C4
  8
AM_0
 10
430.61401844391401
 20
111.7381196420592
 30
0.0
 11
430.6100184439141
 21
111.7381196420592
 31
0.0
  0
LINE
  5
90C5
  8
AM_0
 10
430.6100184439141
 20
111.7381196420592
 30
0.0
 11
430.60601844391431
 21
111.7371196420613
 31
0.0
  0
LINE
  5
90C6
  8
AM_0
 10
430.60601844391431
 20
111.7371196420613
 30
0.0
 11
430.60201844391401
 21
111.7371196420613
 31
0.0
  0
LINE
  5
90C7
  8
AM_0
 10
430.60201844391401
 20
111.7371196420613
 30
0.0
 11
430.59701844391429
 21
111.73611964205919
 31
0.0
  0
LINE
  5
90C8
  8
AM_0
 10
430.59701844391429
 20
111.73611964205919
 30
0.0
 11
430.59301844391189
 21
111.73611964205919
 31
0.0
  0
LINE
  5
90C9
  8
AM_0
 10
430.59301844391189
 20
111.73611964205919
 30
0.0
 11
430.58901844391409
 21
111.7351196420593
 31
0.0
  0
LINE
  5
90CA
  8
AM_0
 10
430.58901844391409
 20
111.7351196420593
 30
0.0
 11
430.5850184439139
 21
111.7351196420593
 31
0.0
  0
LINE
  5
90CB
  8
AM_0
 10
430.5850184439139
 20
111.7351196420593
 30
0.0
 11
430.58101844391427
 21
111.7341196420584
 31
0.0
  0
LINE
  5
90CC
  8
AM_0
 10
430.58101844391427
 20
111.7341196420584
 30
0.0
 11
430.57601844391399
 21
111.7341196420584
 31
0.0
  0
LINE
  5
90CD
  8
AM_0
 10
430.57601844391399
 20
111.7341196420584
 30
0.0
 11
430.5720184439142
 21
111.73311964205929
 31
0.0
  0
LINE
  5
90CE
  8
AM_0
 10
430.5720184439142
 20
111.73311964205929
 30
0.0
 11
430.56801844391413
 21
111.73311964205929
 31
0.0
  0
LINE
  5
90CF
  8
AM_0
 10
430.56801844391413
 20
111.73311964205929
 30
0.0
 11
430.56401844391399
 21
111.73211964205819
 31
0.0
  0
LINE
  5
90D0
  8
AM_0
 10
430.56401844391399
 20
111.73211964205819
 30
0.0
 11
430.55901844391423
 21
111.73211964205819
 31
0.0
  0
LINE
  5
90D1
  8
AM_0
 10
430.55901844391423
 20
111.73211964205819
 30
0.0
 11
430.5550184439121
 21
111.7311196420582
 31
0.0
  0
LINE
  5
90D2
  8
AM_0
 10
430.5550184439121
 20
111.7311196420582
 30
0.0
 11
430.55101844391419
 21
111.7311196420582
 31
0.0
  0
LINE
  5
90D3
  8
AM_0
 10
430.55101844391419
 20
111.7311196420582
 30
0.0
 11
430.547018443914
 21
111.73011964205919
 31
0.0
  0
LINE
  5
90D4
  8
AM_0
 10
430.547018443914
 20
111.73011964205919
 30
0.0
 11
430.54201844391412
 21
111.73011964205919
 31
0.0
  0
LINE
  5
90D5
  8
AM_0
 10
430.54201844391412
 20
111.73011964205919
 30
0.0
 11
430.53801844391432
 21
111.7291196420603
 31
0.0
  0
LINE
  5
90D6
  8
AM_0
 10
430.53801844391432
 20
111.7291196420603
 30
0.0
 11
430.53401844391419
 21
111.7291196420603
 31
0.0
  0
LINE
  5
90D7
  8
AM_0
 10
430.53401844391419
 20
111.7291196420603
 30
0.0
 11
430.53001844391417
 21
111.7281196420583
 31
0.0
  0
LINE
  5
90D8
  8
AM_0
 10
430.53001844391417
 20
111.7281196420583
 30
0.0
 11
430.52501844391418
 21
111.7281196420583
 31
0.0
  0
LINE
  5
90D9
  8
AM_0
 10
430.52501844391418
 20
111.7281196420583
 30
0.0
 11
430.52101844391422
 21
111.7271196420572
 31
0.0
  0
LINE
  5
90DA
  8
AM_0
 10
430.52101844391422
 20
111.7271196420572
 30
0.0
 11
430.51701844391403
 21
111.7271196420572
 31
0.0
  0
LINE
  5
90DB
  8
AM_0
 10
430.51701844391403
 20
111.7271196420572
 30
0.0
 11
430.51301844391418
 21
111.72611964205819
 31
0.0
  0
LINE
  5
90DC
  8
AM_0
 10
430.51301844391418
 20
111.72611964205819
 30
0.0
 11
430.50801844391401
 21
111.72611964205819
 31
0.0
  0
LINE
  5
90DD
  8
AM_0
 10
430.50801844391401
 20
111.72611964205819
 30
0.0
 11
430.50401844391428
 21
111.7251196420593
 31
0.0
  0
LINE
  5
90DE
  8
AM_0
 10
430.50401844391428
 20
111.7251196420593
 30
0.0
 11
430.50001844391431
 21
111.7251196420593
 31
0.0
  0
LINE
  5
90DF
  8
AM_0
 10
430.50001844391431
 20
111.7251196420593
 30
0.0
 11
430.4960184439139
 21
111.72411964205931
 31
0.0
  0
LINE
  5
90E0
  8
AM_0
 10
430.4960184439139
 20
111.72411964205931
 30
0.0
 11
430.49201844391428
 21
111.72411964205931
 31
0.0
  0
LINE
  5
90E1
  8
AM_0
 10
430.49201844391428
 20
111.72411964205931
 30
0.0
 11
430.487018443914
 21
111.7231196420593
 31
0.0
  0
LINE
  5
90E2
  8
AM_0
 10
430.487018443914
 20
111.7231196420593
 30
0.0
 11
430.48301844391432
 21
111.7221196420591
 31
0.0
  0
LINE
  5
90E3
  8
AM_0
 10
430.48301844391432
 20
111.7221196420591
 30
0.0
 11
430.47901844391401
 21
111.7221196420591
 31
0.0
  0
LINE
  5
90E4
  8
AM_0
 10
430.47901844391401
 20
111.7221196420591
 30
0.0
 11
430.47501844391422
 21
111.7211196420582
 31
0.0
  0
LINE
  5
90E5
  8
AM_0
 10
430.47501844391422
 20
111.7211196420582
 30
0.0
 11
430.470018443914
 21
111.7211196420582
 31
0.0
  0
LINE
  5
90E6
  8
AM_0
 10
430.470018443914
 20
111.7211196420582
 30
0.0
 11
430.46601844391421
 21
111.72011964205829
 31
0.0
  0
LINE
  5
90E7
  8
AM_0
 10
430.46601844391421
 20
111.72011964205829
 30
0.0
 11
430.46201844391419
 21
111.72011964205829
 31
0.0
  0
LINE
  5
90E8
  8
AM_0
 10
430.46201844391419
 20
111.72011964205829
 30
0.0
 11
430.458018443914
 21
111.7191196420592
 31
0.0
  0
LINE
  5
90E9
  8
AM_0
 10
430.458018443914
 20
111.7191196420592
 30
0.0
 11
430.45301844391412
 21
111.7181196420572
 31
0.0
  0
LINE
  5
90EA
  8
AM_0
 10
430.45301844391412
 20
111.7181196420572
 30
0.0
 11
430.44901844391399
 21
111.7181196420572
 31
0.0
  0
LINE
  5
90EB
  8
AM_0
 10
430.44901844391399
 20
111.7181196420572
 30
0.0
 11
430.44501844391419
 21
111.71711964205829
 31
0.0
  0
LINE
  5
90EC
  8
AM_0
 10
430.44501844391419
 20
111.71711964205829
 30
0.0
 11
430.441018443914
 21
111.71711964205829
 31
0.0
  0
LINE
  5
90ED
  8
AM_0
 10
430.441018443914
 20
111.71711964205829
 30
0.0
 11
430.43701844391421
 21
111.7161196420592
 31
0.0
  0
LINE
  5
90EE
  8
AM_0
 10
430.43701844391421
 20
111.7161196420592
 30
0.0
 11
430.43201844391427
 21
111.7151196420584
 31
0.0
  0
LINE
  5
90EF
  8
AM_0
 10
430.43201844391427
 20
111.7151196420584
 30
0.0
 11
430.4280184439142
 21
111.7151196420584
 31
0.0
  0
LINE
  5
90F0
  8
AM_0
 10
430.4280184439142
 20
111.7151196420584
 30
0.0
 11
430.42401844391441
 21
111.7141196420593
 31
0.0
  0
LINE
  5
90F1
  8
AM_0
 10
430.42401844391441
 20
111.7141196420593
 30
0.0
 11
430.4200184439141
 21
111.7141196420593
 31
0.0
  0
LINE
  5
90F2
  8
AM_0
 10
430.4200184439141
 20
111.7141196420593
 30
0.0
 11
430.41501844391422
 21
111.71311964205729
 31
0.0
  0
LINE
  5
90F3
  8
AM_0
 10
430.41501844391422
 20
111.71311964205729
 30
0.0
 11
430.41101844391397
 21
111.7121196420582
 31
0.0
  0
LINE
  5
90F4
  8
AM_0
 10
430.41101844391397
 20
111.7121196420582
 30
0.0
 11
430.40701844391413
 21
111.7121196420582
 31
0.0
  0
LINE
  5
90F5
  8
AM_0
 10
430.40701844391413
 20
111.7121196420582
 30
0.0
 11
430.40301844391399
 21
111.7111196420591
 31
0.0
  0
LINE
  5
90F6
  8
AM_0
 10
430.40301844391399
 20
111.7111196420591
 30
0.0
 11
430.39901844391397
 21
111.71011964206031
 31
0.0
  0
LINE
  5
90F7
  8
AM_0
 10
430.39901844391397
 20
111.71011964206031
 30
0.0
 11
430.39401844391421
 21
111.71011964206031
 31
0.0
  0
LINE
  5
90F8
  8
AM_0
 10
430.39401844391421
 20
111.71011964206031
 30
0.0
 11
430.39001844391402
 21
111.7091196420583
 31
0.0
  0
LINE
  5
90F9
  8
AM_0
 10
430.39001844391402
 20
111.7091196420583
 30
0.0
 11
430.38601844391428
 21
111.7091196420583
 31
0.0
  0
LINE
  5
90FA
  8
AM_0
 10
430.38601844391428
 20
111.7091196420583
 30
0.0
 11
430.38201844391398
 21
111.70811964205831
 31
0.0
  0
LINE
  5
90FB
  8
AM_0
 10
430.38201844391398
 20
111.70811964205831
 30
0.0
 11
430.37701844391432
 21
111.7071196420583
 31
0.0
  0
LINE
  5
90FC
  8
AM_0
 10
430.37701844391432
 20
111.7071196420583
 30
0.0
 11
430.37301844391402
 21
111.7071196420583
 31
0.0
  0
LINE
  5
90FD
  8
AM_0
 10
430.37301844391402
 20
111.7071196420583
 30
0.0
 11
430.36901844391411
 21
111.70611964205931
 31
0.0
  0
LINE
  5
90FE
  8
AM_0
 10
430.36901844391411
 20
111.70611964205931
 30
0.0
 11
430.36501844391432
 21
111.7051196420593
 31
0.0
  0
LINE
  5
90FF
  8
AM_0
 10
430.36501844391432
 20
111.7051196420593
 30
0.0
 11
430.36101844391419
 21
111.7051196420593
 31
0.0
  0
LINE
  5
9100
  8
AM_0
 10
430.36101844391419
 20
111.7051196420593
 30
0.0
 11
430.35601844391442
 21
111.7041196420593
 31
0.0
  0
LINE
  5
9101
  8
AM_0
 10
430.35601844391442
 20
111.7041196420593
 30
0.0
 11
430.35201844391401
 21
111.70311964205909
 31
0.0
  0
LINE
  5
9102
  8
AM_0
 10
430.35201844391401
 20
111.70311964205909
 30
0.0
 11
430.34801844391421
 21
111.70311964205909
 31
0.0
  0
LINE
  5
9103
  8
AM_0
 10
430.34801844391421
 20
111.70311964205909
 30
0.0
 11
430.34401844391402
 21
111.70211964205819
 31
0.0
  0
LINE
  5
9104
  8
AM_0
 10
430.34401844391402
 20
111.70211964205819
 30
0.0
 11
430.3390184439142
 21
111.7011196420583
 31
0.0
  0
LINE
  5
9105
  8
AM_0
 10
430.3390184439142
 20
111.7011196420583
 30
0.0
 11
430.33501844391401
 21
111.7011196420583
 31
0.0
  0
LINE
  5
9106
  8
AM_0
 10
430.33501844391401
 20
111.7011196420583
 30
0.0
 11
430.3310184439141
 21
111.7001196420571
 31
0.0
  0
LINE
  5
9107
  8
AM_0
 10
430.3310184439141
 20
111.7001196420571
 30
0.0
 11
430.32701844391431
 21
111.69911964205831
 31
0.0
  0
LINE
  5
9108
  8
AM_0
 10
430.32701844391431
 20
111.69911964205831
 30
0.0
 11
430.32301844391418
 21
111.6981196420592
 31
0.0
  0
LINE
  5
9109
  8
AM_0
 10
430.32301844391418
 20
111.6981196420592
 30
0.0
 11
430.3180184439143
 21
111.6981196420592
 31
0.0
  0
LINE
  5
910A
  8
AM_0
 10
430.3180184439143
 20
111.6981196420592
 30
0.0
 11
430.31401844391428
 21
111.69711964205931
 31
0.0
  0
LINE
  5
910B
  8
AM_0
 10
430.31401844391428
 20
111.69711964205931
 30
0.0
 11
430.31001844391409
 21
111.69611964205841
 31
0.0
  0
LINE
  5
910C
  8
AM_0
 10
430.31001844391409
 20
111.69611964205841
 30
0.0
 11
430.3060184439139
 21
111.69611964205841
 31
0.0
  0
LINE
  5
910D
  8
AM_0
 10
430.3060184439139
 20
111.69611964205841
 30
0.0
 11
430.30201844391428
 21
111.69511964205731
 31
0.0
  0
LINE
  5
910E
  8
AM_0
 10
430.30201844391428
 20
111.69511964205731
 30
0.0
 11
430.297018443914
 21
111.69411964205931
 31
0.0
  0
LINE
  5
910F
  8
AM_0
 10
430.297018443914
 20
111.69411964205931
 30
0.0
 11
430.29301844391421
 21
111.69311964205821
 31
0.0
  0
LINE
  5
9110
  8
AM_0
 10
430.29301844391421
 20
111.69311964205821
 30
0.0
 11
430.28901844391407
 21
111.69311964205821
 31
0.0
  0
LINE
  5
9111
  8
AM_0
 10
430.28901844391407
 20
111.69311964205821
 30
0.0
 11
430.285018443914
 21
111.6921196420592
 31
0.0
  0
LINE
  5
9112
  8
AM_0
 10
430.285018443914
 20
111.6921196420592
 30
0.0
 11
430.28101844391432
 21
111.6911196420571
 31
0.0
  0
LINE
  5
9113
  8
AM_0
 10
430.28101844391432
 20
111.6911196420571
 30
0.0
 11
430.2760184439141
 21
111.69011964205831
 31
0.0
  0
LINE
  5
9114
  8
AM_0
 10
430.2760184439141
 20
111.69011964205831
 30
0.0
 11
430.27201844391419
 21
111.69011964205831
 31
0.0
  0
LINE
  5
9115
  8
AM_0
 10
430.27201844391419
 20
111.69011964205831
 30
0.0
 11
430.268018443914
 21
111.6891196420583
 31
0.0
  0
LINE
  5
9116
  8
AM_0
 10
430.268018443914
 20
111.6891196420583
 30
0.0
 11
430.26401844391421
 21
111.6881196420583
 31
0.0
  0
LINE
  5
9117
  8
AM_0
 10
430.26401844391421
 20
111.6881196420583
 30
0.0
 11
430.2600184439143
 21
111.6871196420593
 31
0.0
  0
LINE
  5
9118
  8
AM_0
 10
430.2600184439143
 20
111.6871196420593
 30
0.0
 11
430.2550184439142
 21
111.6871196420593
 31
0.0
  0
LINE
  5
9119
  8
AM_0
 10
430.2550184439142
 20
111.6871196420593
 30
0.0
 11
430.25101844391418
 21
111.6861196420593
 31
0.0
  0
LINE
  5
911A
  8
AM_0
 10
430.25101844391418
 20
111.6861196420593
 30
0.0
 11
430.24701844391399
 21
111.68511964205931
 31
0.0
  0
LINE
  5
911B
  8
AM_0
 10
430.24701844391399
 20
111.68511964205931
 30
0.0
 11
430.2430184439142
 21
111.6841196420591
 31
0.0
  0
LINE
  5
911C
  8
AM_0
 10
430.2430184439142
 20
111.6841196420591
 30
0.0
 11
430.23901844391401
 21
111.6841196420591
 31
0.0
  0
LINE
  5
911D
  8
AM_0
 10
430.23901844391401
 20
111.6841196420591
 30
0.0
 11
430.23401844391418
 21
111.6831196420582
 31
0.0
  0
LINE
  5
911E
  8
AM_0
 10
430.23401844391418
 20
111.6831196420582
 30
0.0
 11
430.2300184439141
 21
111.6821196420573
 31
0.0
  0
LINE
  5
911F
  8
AM_0
 10
430.2300184439141
 20
111.6821196420573
 30
0.0
 11
430.22601844391397
 21
111.68111964205831
 31
0.0
  0
LINE
  5
9120
  8
AM_0
 10
430.22601844391397
 20
111.68111964205831
 30
0.0
 11
430.22201844391429
 21
111.6801196420583
 31
0.0
  0
LINE
  5
9121
  8
AM_0
 10
430.22201844391429
 20
111.6801196420583
 30
0.0
 11
430.21801844391422
 21
111.6801196420583
 31
0.0
  0
LINE
  5
9122
  8
AM_0
 10
430.21801844391422
 20
111.6801196420583
 30
0.0
 11
430.21301844391428
 21
111.67911964205921
 31
0.0
  0
LINE
  5
9123
  8
AM_0
 10
430.21301844391428
 20
111.67911964205921
 30
0.0
 11
430.20901844391398
 21
111.6781196420592
 31
0.0
  0
LINE
  5
9124
  8
AM_0
 10
430.20901844391398
 20
111.6781196420592
 30
0.0
 11
430.20501844391413
 21
111.6771196420584
 31
0.0
  0
LINE
  5
9125
  8
AM_0
 10
430.20501844391413
 20
111.6771196420584
 30
0.0
 11
430.20101844391399
 21
111.67611964205931
 31
0.0
  0
LINE
  5
9126
  8
AM_0
 10
430.20101844391399
 20
111.67611964205931
 30
0.0
 11
430.1970184439142
 21
111.67611964205931
 31
0.0
  0
LINE
  5
9127
  8
AM_0
 10
430.1970184439142
 20
111.67611964205931
 30
0.0
 11
430.19201844391432
 21
111.6751196420593
 31
0.0
  0
LINE
  5
9128
  8
AM_0
 10
430.19201844391432
 20
111.6751196420593
 30
0.0
 11
430.18801844391402
 21
111.6741196420582
 31
0.0
  0
LINE
  5
9129
  8
AM_0
 10
430.18801844391402
 20
111.6741196420582
 30
0.0
 11
430.18401844391423
 21
111.6731196420573
 31
0.0
  0
LINE
  5
912A
  8
AM_0
 10
430.18401844391423
 20
111.6731196420573
 30
0.0
 11
430.18001844391199
 21
111.67211964205821
 31
0.0
  0
LINE
  5
912B
  8
AM_0
 10
430.18001844391199
 20
111.67211964205821
 30
0.0
 11
430.17601844391407
 21
111.6711196420592
 31
0.0
  0
LINE
  5
912C
  8
AM_0
 10
430.17601844391407
 20
111.6711196420592
 30
0.0
 11
430.172018443914
 21
111.6711196420592
 31
0.0
  0
LINE
  5
912D
  8
AM_0
 10
430.172018443914
 20
111.6711196420592
 30
0.0
 11
430.16701844391412
 21
111.6701196420583
 31
0.0
  0
LINE
  5
912E
  8
AM_0
 10
430.16701844391412
 20
111.6701196420583
 30
0.0
 11
430.16301844391432
 21
111.66911964205831
 31
0.0
  0
LINE
  5
912F
  8
AM_0
 10
430.16301844391432
 20
111.66911964205831
 30
0.0
 11
430.15901844391419
 21
111.6681196420593
 31
0.0
  0
LINE
  5
9130
  8
AM_0
 10
430.15901844391419
 20
111.6681196420593
 30
0.0
 11
430.15501844391412
 21
111.6671196420593
 31
0.0
  0
LINE
  5
9131
  8
AM_0
 10
430.15501844391412
 20
111.6671196420593
 30
0.0
 11
430.15101844391398
 21
111.6661196420593
 31
0.0
  0
LINE
  5
9132
  8
AM_0
 10
430.15101844391398
 20
111.6661196420593
 30
0.0
 11
430.14601844391422
 21
111.6651196420592
 31
0.0
  0
LINE
  5
9133
  8
AM_0
 10
430.14601844391422
 20
111.6651196420592
 30
0.0
 11
430.14201844391198
 21
111.6651196420592
 31
0.0
  0
LINE
  5
9134
  8
AM_0
 10
430.14201844391198
 20
111.6651196420592
 30
0.0
 11
430.13801844391418
 21
111.6641196420582
 31
0.0
  0
LINE
  5
9135
  8
AM_0
 10
430.13801844391418
 20
111.6641196420582
 30
0.0
 11
430.13401844391427
 21
111.66311964205821
 31
0.0
  0
LINE
  5
9136
  8
AM_0
 10
430.13401844391427
 20
111.66311964205821
 30
0.0
 11
430.13001844391403
 21
111.6621196420583
 31
0.0
  0
LINE
  5
9137
  8
AM_0
 10
430.13001844391403
 20
111.6621196420583
 30
0.0
 11
430.12601844391429
 21
111.6611196420583
 31
0.0
  0
LINE
  5
9138
  8
AM_0
 10
430.12601844391429
 20
111.6611196420583
 30
0.0
 11
430.12101844391401
 21
111.6601196420592
 31
0.0
  0
LINE
  5
9139
  8
AM_0
 10
430.12101844391401
 20
111.6601196420592
 30
0.0
 11
430.11701844391428
 21
111.6591196420593
 31
0.0
  0
LINE
  5
913A
  8
AM_0
 10
430.11701844391428
 20
111.6591196420593
 30
0.0
 11
430.11301844391397
 21
111.6581196420584
 31
0.0
  0
LINE
  5
913B
  8
AM_0
 10
430.11301844391397
 20
111.6581196420584
 30
0.0
 11
430.10901844391412
 21
111.6571196420593
 31
0.0
  0
LINE
  5
913C
  8
AM_0
 10
430.10901844391412
 20
111.6571196420593
 30
0.0
 11
430.1050184439128
 21
111.6571196420593
 31
0.0
  0
LINE
  5
913D
  8
AM_0
 10
430.1050184439128
 20
111.6571196420593
 30
0.0
 11
430.10101844391397
 21
111.65611964205929
 31
0.0
  0
LINE
  5
913E
  8
AM_0
 10
430.10101844391397
 20
111.65611964205929
 30
0.0
 11
430.0960184439142
 21
111.6551196420573
 31
0.0
  0
LINE
  5
913F
  8
AM_0
 10
430.0960184439142
 20
111.6551196420573
 30
0.0
 11
430.09201844391401
 21
111.65411964205821
 31
0.0
  0
LINE
  5
9140
  8
AM_0
 10
430.09201844391401
 20
111.65411964205821
 30
0.0
 11
430.08801844391428
 21
111.6531196420583
 31
0.0
  0
LINE
  5
9141
  8
AM_0
 10
430.08801844391428
 20
111.6531196420583
 30
0.0
 11
430.08401844391398
 21
111.6521196420592
 31
0.0
  0
LINE
  5
9142
  8
AM_0
 10
430.08401844391398
 20
111.6521196420592
 30
0.0
 11
430.08001844391413
 21
111.6511196420583
 31
0.0
  0
LINE
  5
9143
  8
AM_0
 10
430.08001844391413
 20
111.6511196420583
 30
0.0
 11
430.07601844391399
 21
111.6501196420583
 31
0.0
  0
LINE
  5
9144
  8
AM_0
 10
430.07601844391399
 20
111.6501196420583
 30
0.0
 11
430.07101844391423
 21
111.6491196420593
 31
0.0
  0
LINE
  5
9145
  8
AM_0
 10
430.07101844391423
 20
111.6491196420593
 30
0.0
 11
430.06701844391432
 21
111.6481196420593
 31
0.0
  0
LINE
  5
9146
  8
AM_0
 10
430.06701844391432
 20
111.6481196420593
 30
0.0
 11
430.06301844391419
 21
111.64711964205929
 31
0.0
  0
LINE
  5
9147
  8
AM_0
 10
430.06301844391419
 20
111.64711964205929
 30
0.0
 11
430.05901844391423
 21
111.6461196420573
 31
0.0
  0
LINE
  5
9148
  8
AM_0
 10
430.05901844391423
 20
111.6461196420573
 30
0.0
 11
430.05501844391398
 21
111.64511964205821
 31
0.0
  0
LINE
  5
9149
  8
AM_0
 10
430.05501844391398
 20
111.64511964205821
 30
0.0
 11
430.05101844391419
 21
111.6441196420582
 31
0.0
  0
LINE
  5
914A
  8
AM_0
 10
430.05101844391419
 20
111.6441196420582
 30
0.0
 11
430.04601844391402
 21
111.64311964205829
 31
0.0
  0
LINE
  5
914B
  8
AM_0
 10
430.04601844391402
 20
111.64311964205829
 30
0.0
 11
430.04201844391417
 21
111.6421196420583
 31
0.0
  0
LINE
  5
914C
  8
AM_0
 10
430.04201844391417
 20
111.6421196420583
 30
0.0
 11
430.03801844391432
 21
111.64111964205919
 31
0.0
  0
LINE
  5
914D
  8
AM_0
 10
430.03801844391432
 20
111.64111964205919
 30
0.0
 11
430.03401844391419
 21
111.6401196420592
 31
0.0
  0
LINE
  5
914E
  8
AM_0
 10
430.03401844391419
 20
111.6401196420592
 30
0.0
 11
430.03001844391429
 21
111.6391196420584
 31
0.0
  0
LINE
  5
914F
  8
AM_0
 10
430.03001844391429
 20
111.6391196420584
 30
0.0
 11
430.0260184439141
 21
111.63811964205929
 31
0.0
  0
LINE
  5
9150
  8
AM_0
 10
430.0260184439141
 20
111.63811964205929
 30
0.0
 11
430.02201844391408
 21
111.6371196420573
 31
0.0
  0
LINE
  5
9151
  8
AM_0
 10
430.02201844391408
 20
111.6371196420573
 30
0.0
 11
430.01701844391403
 21
111.6361196420582
 31
0.0
  0
LINE
  5
9152
  8
AM_0
 10
430.01701844391403
 20
111.6361196420582
 30
0.0
 11
430.01301844391412
 21
111.6351196420582
 31
0.0
  0
LINE
  5
9153
  8
AM_0
 10
430.01301844391412
 20
111.6351196420582
 30
0.0
 11
430.00901844391427
 21
111.6341196420582
 31
0.0
  0
LINE
  5
9154
  8
AM_0
 10
430.00901844391427
 20
111.6341196420582
 30
0.0
 11
430.00501844391403
 21
111.6331196420592
 31
0.0
  0
LINE
  5
9155
  8
AM_0
 10
430.00501844391403
 20
111.6331196420592
 30
0.0
 11
430.00101844391429
 21
111.6321196420583
 31
0.0
  0
LINE
  5
9156
  8
AM_0
 10
430.00101844391429
 20
111.6321196420583
 30
0.0
 11
429.99701844391291
 21
111.6311196420582
 31
0.0
  0
LINE
  5
9157
  8
AM_0
 10
429.99701844391291
 20
111.6311196420582
 30
0.0
 11
429.99201844391428
 21
111.6301196420593
 31
0.0
  0
LINE
  5
9158
  8
AM_0
 10
429.99201844391428
 20
111.6301196420593
 30
0.0
 11
429.98801844391397
 21
111.6291196420602
 31
0.0
  0
LINE
  5
9159
  8
AM_0
 10
429.98801844391397
 20
111.6291196420602
 30
0.0
 11
429.98401844391412
 21
111.6281196420593
 31
0.0
  0
LINE
  5
915A
  8
AM_0
 10
429.98401844391412
 20
111.6281196420593
 30
0.0
 11
429.9800184439141
 21
111.6271196420593
 31
0.0
  0
LINE
  5
915B
  8
AM_0
 10
429.9800184439141
 20
111.6271196420593
 30
0.0
 11
429.9760184439142
 21
111.6261196420582
 31
0.0
  0
LINE
  5
915C
  8
AM_0
 10
429.9760184439142
 20
111.6261196420582
 30
0.0
 11
429.97201844391412
 21
111.62511964205819
 31
0.0
  0
LINE
  5
915D
  8
AM_0
 10
429.97201844391412
 20
111.62511964205819
 30
0.0
 11
429.96801844391399
 21
111.6241196420583
 31
0.0
  0
LINE
  5
915E
  8
AM_0
 10
429.96801844391399
 20
111.6241196420583
 30
0.0
 11
429.9640184439142
 21
111.6231196420583
 31
0.0
  0
LINE
  5
915F
  8
AM_0
 10
429.9640184439142
 20
111.6231196420583
 30
0.0
 11
429.9590184439129
 21
111.6221196420592
 31
0.0
  0
LINE
  5
9160
  8
AM_0
 10
429.9590184439129
 20
111.6221196420592
 30
0.0
 11
429.95501844391418
 21
111.62111964206041
 31
0.0
  0
LINE
  5
9161
  8
AM_0
 10
429.95501844391418
 20
111.62111964206041
 30
0.0
 11
429.9510184439111
 21
111.6201196420584
 31
0.0
  0
LINE
  5
9162
  8
AM_0
 10
429.9510184439111
 20
111.6201196420584
 30
0.0
 11
429.9470184439142
 21
111.6181196420592
 31
0.0
  0
LINE
  5
9163
  8
AM_0
 10
429.9470184439142
 20
111.6181196420592
 30
0.0
 11
429.94301844391441
 21
111.61711964205929
 31
0.0
  0
LINE
  5
9164
  8
AM_0
 10
429.94301844391441
 20
111.61711964205929
 30
0.0
 11
429.93901844391422
 21
111.61611964205819
 31
0.0
  0
LINE
  5
9165
  8
AM_0
 10
429.93901844391422
 20
111.61611964205819
 30
0.0
 11
429.93501844391409
 21
111.6151196420583
 31
0.0
  0
LINE
  5
9166
  8
AM_0
 10
429.93501844391409
 20
111.6151196420583
 30
0.0
 11
429.93101844391401
 21
111.61411964205919
 31
0.0
  0
LINE
  5
9167
  8
AM_0
 10
429.93101844391401
 20
111.61411964205919
 30
0.0
 11
429.92601844391407
 21
111.6131196420572
 31
0.0
  0
LINE
  5
9168
  8
AM_0
 10
429.92601844391407
 20
111.6131196420572
 30
0.0
 11
429.922018443914
 21
111.6121196420583
 31
0.0
  0
LINE
  5
9169
  8
AM_0
 10
429.922018443914
 20
111.6121196420583
 30
0.0
 11
429.91801844391398
 21
111.61111964205919
 31
0.0
  0
LINE
  5
916A
  8
AM_0
 10
429.91801844391398
 20
111.61111964205919
 30
0.0
 11
429.9140184439143
 21
111.6101196420602
 31
0.0
  0
LINE
  5
916B
  8
AM_0
 10
429.9140184439143
 20
111.6101196420602
 30
0.0
 11
429.910018443914
 21
111.60811964205929
 31
0.0
  0
LINE
  5
916C
  8
AM_0
 10
429.910018443914
 20
111.60811964205929
 30
0.0
 11
429.90601844391421
 21
111.60711964205819
 31
0.0
  0
LINE
  5
916D
  8
AM_0
 10
429.90601844391421
 20
111.60711964205819
 30
0.0
 11
429.90201844391402
 21
111.6061196420582
 31
0.0
  0
LINE
  5
916E
  8
AM_0
 10
429.90201844391402
 20
111.6061196420582
 30
0.0
 11
429.89801844391428
 21
111.6051196420583
 31
0.0
  0
LINE
  5
916F
  8
AM_0
 10
429.89801844391428
 20
111.6051196420583
 30
0.0
 11
429.893018443914
 21
111.60411964205819
 31
0.0
  0
LINE
  5
9170
  8
AM_0
 10
429.893018443914
 20
111.60411964205819
 30
0.0
 11
429.88901844391432
 21
111.6031196420592
 31
0.0
  0
LINE
  5
9171
  8
AM_0
 10
429.88901844391432
 20
111.6031196420592
 30
0.0
 11
429.88501844391419
 21
111.6021196420604
 31
0.0
  0
LINE
  5
9172
  8
AM_0
 10
429.88501844391419
 20
111.6021196420604
 30
0.0
 11
429.881018443914
 21
111.6001196420593
 31
0.0
  0
LINE
  5
9173
  8
AM_0
 10
429.881018443914
 20
111.6001196420593
 30
0.0
 11
429.87701844391421
 21
111.5991196420584
 31
0.0
  0
LINE
  5
9174
  8
AM_0
 10
429.87701844391421
 20
111.5991196420584
 30
0.0
 11
429.87301844391402
 21
111.5981196420593
 31
0.0
  0
LINE
  5
9175
  8
AM_0
 10
429.87301844391402
 20
111.5981196420593
 30
0.0
 11
429.86901844391411
 21
111.5971196420582
 31
0.0
  0
LINE
  5
9176
  8
AM_0
 10
429.86901844391411
 20
111.5971196420582
 30
0.0
 11
429.86501844391432
 21
111.5961196420582
 31
0.0
  0
LINE
  5
9177
  8
AM_0
 10
429.86501844391432
 20
111.5961196420582
 30
0.0
 11
429.86101844391419
 21
111.5951196420592
 31
0.0
  0
LINE
  5
9178
  8
AM_0
 10
429.86101844391419
 20
111.5951196420592
 30
0.0
 11
429.85701844391423
 21
111.5931196420583
 31
0.0
  0
LINE
  5
9179
  8
AM_0
 10
429.85701844391423
 20
111.5931196420583
 30
0.0
 11
429.85201844391418
 21
111.5921196420592
 31
0.0
  0
LINE
  5
917A
  8
AM_0
 10
429.85201844391418
 20
111.5921196420592
 30
0.0
 11
429.84801844391421
 21
111.5911196420613
 31
0.0
  0
LINE
  5
917B
  8
AM_0
 10
429.84801844391421
 20
111.5911196420613
 30
0.0
 11
429.84401844391402
 21
111.59011964205931
 31
0.0
  0
LINE
  5
917C
  8
AM_0
 10
429.84401844391402
 20
111.59011964205931
 30
0.0
 11
429.84001844391418
 21
111.5891196420593
 31
0.0
  0
LINE
  5
917D
  8
AM_0
 10
429.84001844391418
 20
111.5891196420593
 30
0.0
 11
429.83601844391433
 21
111.5871196420582
 31
0.0
  0
LINE
  5
917E
  8
AM_0
 10
429.83601844391433
 20
111.5871196420582
 30
0.0
 11
429.83201844391289
 21
111.58611964205819
 31
0.0
  0
LINE
  5
917F
  8
AM_0
 10
429.83201844391289
 20
111.58611964205819
 30
0.0
 11
429.82801844391429
 21
111.5851196420583
 31
0.0
  0
LINE
  5
9180
  8
AM_0
 10
429.82801844391429
 20
111.5851196420583
 30
0.0
 11
429.82401844391421
 21
111.58411964205921
 31
0.0
  0
LINE
  5
9181
  8
AM_0
 10
429.82401844391421
 20
111.58411964205921
 30
0.0
 11
429.82001844391408
 21
111.5821196420583
 31
0.0
  0
LINE
  5
9182
  8
AM_0
 10
429.82001844391408
 20
111.5821196420583
 30
0.0
 11
429.81601844391389
 21
111.58111964205931
 31
0.0
  0
LINE
  5
9183
  8
AM_0
 10
429.81601844391389
 20
111.58111964205931
 30
0.0
 11
429.81201844391433
 21
111.58011964205841
 31
0.0
  0
LINE
  5
9184
  8
AM_0
 10
429.81201844391433
 20
111.58011964205841
 30
0.0
 11
429.80701844391427
 21
111.5791196420593
 31
0.0
  0
LINE
  5
9185
  8
AM_0
 10
429.80701844391427
 20
111.5791196420593
 30
0.0
 11
429.80301844391403
 21
111.57711964205819
 31
0.0
  0
LINE
  5
9186
  8
AM_0
 10
429.80301844391403
 20
111.57711964205819
 30
0.0
 11
429.79901844391412
 21
111.5761196420592
 31
0.0
  0
LINE
  5
9187
  8
AM_0
 10
429.79901844391412
 20
111.5761196420592
 30
0.0
 11
429.7950184439141
 21
111.5751196420583
 31
0.0
  0
LINE
  5
9188
  8
AM_0
 10
429.7950184439141
 20
111.5751196420583
 30
0.0
 11
429.7910184439142
 21
111.57411964205831
 31
0.0
  0
LINE
  5
9189
  8
AM_0
 10
429.7910184439142
 20
111.57411964205831
 30
0.0
 11
429.78701844391298
 21
111.5721196420613
 31
0.0
  0
LINE
  5
918A
  8
AM_0
 10
429.78701844391298
 20
111.5721196420613
 30
0.0
 11
429.78301844391422
 21
111.5711196420593
 31
0.0
  0
LINE
  5
918B
  8
AM_0
 10
429.78301844391422
 20
111.5711196420593
 30
0.0
 11
429.77901844391431
 21
111.5701196420593
 31
0.0
  0
LINE
  5
918C
  8
AM_0
 10
429.77901844391431
 20
111.5701196420593
 30
0.0
 11
429.77501844391401
 21
111.5691196420584
 31
0.0
  0
LINE
  5
918D
  8
AM_0
 10
429.77501844391401
 20
111.5691196420584
 30
0.0
 11
429.77101844391422
 21
111.5671196420582
 31
0.0
  0
LINE
  5
918E
  8
AM_0
 10
429.77101844391422
 20
111.5671196420582
 30
0.0
 11
429.76701844391198
 21
111.5661196420583
 31
0.0
  0
LINE
  5
918F
  8
AM_0
 10
429.76701844391198
 20
111.5661196420583
 30
0.0
 11
429.76301844391418
 21
111.5651196420592
 31
0.0
  0
LINE
  5
9190
  8
AM_0
 10
429.76301844391418
 20
111.5651196420592
 30
0.0
 11
429.75901844391427
 21
111.56311964205921
 31
0.0
  0
LINE
  5
9191
  8
AM_0
 10
429.75901844391427
 20
111.56311964205921
 30
0.0
 11
429.75401844391399
 21
111.5621196420593
 31
0.0
  0
LINE
  5
9192
  8
AM_0
 10
429.75401844391399
 20
111.5621196420593
 30
0.0
 11
429.75001844391431
 21
111.5611196420584
 31
0.0
  0
LINE
  5
9193
  8
AM_0
 10
429.75001844391431
 20
111.5611196420584
 30
0.0
 11
429.74601844391418
 21
111.55911964205821
 31
0.0
  0
LINE
  5
9194
  8
AM_0
 10
429.74601844391418
 20
111.55911964205821
 30
0.0
 11
429.74201844391422
 21
111.5581196420582
 31
0.0
  0
LINE
  5
9195
  8
AM_0
 10
429.74201844391422
 20
111.5581196420582
 30
0.0
 11
429.73801844391397
 21
111.55711964205921
 31
0.0
  0
LINE
  5
9196
  8
AM_0
 10
429.73801844391397
 20
111.55711964205921
 30
0.0
 11
429.73401844391418
 21
111.5551196420583
 31
0.0
  0
LINE
  5
9197
  8
AM_0
 10
429.73401844391418
 20
111.5551196420583
 30
0.0
 11
429.73001844391291
 21
111.55411964205921
 31
0.0
  0
LINE
  5
9198
  8
AM_0
 10
429.73001844391291
 20
111.55411964205921
 30
0.0
 11
429.72601844391397
 21
111.5531196420592
 31
0.0
  0
LINE
  5
9199
  8
AM_0
 10
429.72601844391397
 20
111.5531196420592
 30
0.0
 11
429.72201844391429
 21
111.55111964205931
 31
0.0
  0
LINE
  5
919A
  8
AM_0
 10
429.72201844391429
 20
111.55111964205931
 30
0.0
 11
429.7180184439141
 21
111.55011964205841
 31
0.0
  0
LINE
  5
919B
  8
AM_0
 10
429.7180184439141
 20
111.55011964205841
 30
0.0
 11
429.71401844391409
 21
111.5491196420582
 31
0.0
  0
LINE
  5
919C
  8
AM_0
 10
429.71401844391409
 20
111.5491196420582
 30
0.0
 11
429.71001844391208
 21
111.54711964205831
 31
0.0
  0
LINE
  5
919D
  8
AM_0
 10
429.71001844391208
 20
111.54711964205831
 30
0.0
 11
429.70601844391427
 21
111.5461196420592
 31
0.0
  0
LINE
  5
919E
  8
AM_0
 10
429.70601844391427
 20
111.5461196420592
 30
0.0
 11
429.7020184439142
 21
111.5451196420603
 31
0.0
  0
LINE
  5
919F
  8
AM_0
 10
429.7020184439142
 20
111.5451196420603
 30
0.0
 11
429.6980184439139
 21
111.5431196420592
 31
0.0
  0
LINE
  5
91A0
  8
AM_0
 10
429.6980184439139
 20
111.5431196420592
 30
0.0
 11
429.69401844391427
 21
111.5421196420584
 31
0.0
  0
LINE
  5
91A1
  8
AM_0
 10
429.69401844391427
 20
111.5421196420584
 30
0.0
 11
429.69001844391403
 21
111.5401196420582
 31
0.0
  0
LINE
  5
91A2
  8
AM_0
 10
429.69001844391403
 20
111.5401196420582
 30
0.0
 11
429.68601844391412
 21
111.5391196420582
 31
0.0
  0
LINE
  5
91A3
  8
AM_0
 10
429.68601844391412
 20
111.5391196420582
 30
0.0
 11
429.68201844391427
 21
111.5381196420591
 31
0.0
  0
LINE
  5
91A4
  8
AM_0
 10
429.68201844391427
 20
111.5381196420591
 30
0.0
 11
429.6780184439142
 21
111.5361196420583
 31
0.0
  0
LINE
  5
91A5
  8
AM_0
 10
429.6780184439142
 20
111.5361196420583
 30
0.0
 11
429.67401844391412
 21
111.5351196420592
 31
0.0
  0
LINE
  5
91A6
  8
AM_0
 10
429.67401844391412
 20
111.5351196420592
 30
0.0
 11
429.67001844391399
 21
111.5331196420593
 31
0.0
  0
LINE
  5
91A7
  8
AM_0
 10
429.67001844391399
 20
111.5331196420593
 30
0.0
 11
429.6660184439142
 21
111.5321196420593
 31
0.0
  0
LINE
  5
91A8
  8
AM_0
 10
429.6660184439142
 20
111.5321196420593
 30
0.0
 11
429.66201844391401
 21
111.5311196420584
 31
0.0
  0
LINE
  5
91A9
  8
AM_0
 10
429.66201844391401
 20
111.5311196420584
 30
0.0
 11
429.65801844391422
 21
111.52911964205821
 31
0.0
  0
LINE
  5
91AA
  8
AM_0
 10
429.65801844391422
 20
111.52911964205821
 30
0.0
 11
429.65401844391431
 21
111.5281196420583
 31
0.0
  0
LINE
  5
91AB
  8
AM_0
 10
429.65401844391431
 20
111.5281196420583
 30
0.0
 11
429.6490184439142
 21
111.5261196420592
 31
0.0
  0
LINE
  5
91AC
  8
AM_0
 10
429.6490184439142
 20
111.5261196420592
 30
0.0
 11
429.64501844391441
 21
111.5251196420592
 31
0.0
  0
LINE
  5
91AD
  8
AM_0
 10
429.64501844391441
 20
111.5251196420592
 30
0.0
 11
429.64101844391422
 21
111.5231196420584
 31
0.0
  0
LINE
  5
91AE
  8
AM_0
 10
429.64101844391422
 20
111.5231196420584
 30
0.0
 11
429.63701844391409
 21
111.52211964205929
 31
0.0
  0
LINE
  5
91AF
  8
AM_0
 10
429.63701844391409
 20
111.52211964205929
 30
0.0
 11
429.63301844391401
 21
111.52011964205821
 31
0.0
  0
LINE
  5
91B0
  8
AM_0
 10
429.63301844391401
 20
111.52011964205821
 30
0.0
 11
429.62901844391428
 21
111.5191196420592
 31
0.0
  0
LINE
  5
91B1
  8
AM_0
 10
429.62901844391428
 20
111.5191196420592
 30
0.0
 11
429.62501844391431
 21
111.5171196420583
 31
0.0
  0
LINE
  5
91B2
  8
AM_0
 10
429.62501844391431
 20
111.5171196420583
 30
0.0
 11
429.62101844391202
 21
111.51611964205919
 31
0.0
  0
LINE
  5
91B3
  8
AM_0
 10
429.62101844391202
 20
111.51611964205919
 30
0.0
 11
429.61701844391428
 21
111.5141196420593
 31
0.0
  0
LINE
  5
91B4
  8
AM_0
 10
429.61701844391428
 20
111.5141196420593
 30
0.0
 11
429.61301844391397
 21
111.51311964205929
 31
0.0
  0
LINE
  5
91B5
  8
AM_0
 10
429.61301844391397
 20
111.51311964205929
 30
0.0
 11
429.60901844391412
 21
111.5111196420582
 31
0.0
  0
LINE
  5
91B6
  8
AM_0
 10
429.60901844391412
 20
111.5111196420582
 30
0.0
 11
429.6050184439141
 21
111.5101196420582
 31
0.0
  0
LINE
  5
91B7
  8
AM_0
 10
429.6050184439141
 20
111.5101196420582
 30
0.0
 11
429.6010184439142
 21
111.5081196420592
 31
0.0
  0
LINE
  5
91B8
  8
AM_0
 10
429.6010184439142
 20
111.5081196420592
 30
0.0
 11
429.59701844391412
 21
111.50711964205919
 31
0.0
  0
LINE
  5
91B9
  8
AM_0
 10
429.59701844391412
 20
111.50711964205919
 30
0.0
 11
429.5930184439141
 21
111.5051196420583
 31
0.0
  0
LINE
  5
91BA
  8
AM_0
 10
429.5930184439141
 20
111.5051196420583
 30
0.0
 11
429.58901844391431
 21
111.5041196420584
 31
0.0
  0
LINE
  5
91BB
  8
AM_0
 10
429.58901844391431
 20
111.5041196420584
 30
0.0
 11
429.58601844391433
 21
111.5021196420593
 31
0.0
  0
LINE
  5
91BC
  8
AM_0
 10
429.58601844391433
 20
111.5021196420593
 30
0.0
 11
429.58201844391419
 21
111.50111964205909
 31
0.0
  0
LINE
  5
91BD
  8
AM_0
 10
429.58201844391419
 20
111.50111964205909
 30
0.0
 11
429.57801844391412
 21
111.4991196420582
 31
0.0
  0
LINE
  5
91BE
  8
AM_0
 10
429.57801844391412
 20
111.4991196420582
 30
0.0
 11
429.57401844391399
 21
111.4981196420583
 31
0.0
  0
LINE
  5
91BF
  8
AM_0
 10
429.57401844391399
 20
111.4981196420583
 30
0.0
 11
429.57001844391419
 21
111.4961196420583
 31
0.0
  0
LINE
  5
91C0
  8
AM_0
 10
429.57001844391419
 20
111.4961196420583
 30
0.0
 11
429.566018443914
 21
111.49511964205929
 31
0.0
  0
LINE
  5
91C1
  8
AM_0
 10
429.566018443914
 20
111.49511964205929
 30
0.0
 11
429.56201844391421
 21
111.4931196420584
 31
0.0
  0
LINE
  5
91C2
  8
AM_0
 10
429.56201844391421
 20
111.4931196420584
 30
0.0
 11
429.55801844391442
 21
111.49111964205819
 31
0.0
  0
LINE
  5
91C3
  8
AM_0
 10
429.55801844391442
 20
111.49111964205819
 30
0.0
 11
429.55401844391417
 21
111.4901196420582
 31
0.0
  0
LINE
  5
91C4
  8
AM_0
 10
429.55401844391417
 20
111.4901196420582
 30
0.0
 11
429.55001844391421
 21
111.48811964205829
 31
0.0
  0
LINE
  5
91C5
  8
AM_0
 10
429.55001844391421
 20
111.48811964205829
 30
0.0
 11
429.54601844391289
 21
111.4871196420592
 31
0.0
  0
LINE
  5
91C6
  8
AM_0
 10
429.54601844391289
 20
111.4871196420592
 30
0.0
 11
429.54201844391417
 21
111.48511964205839
 31
0.0
  0
LINE
  5
91C7
  8
AM_0
 10
429.54201844391417
 20
111.48511964205839
 30
0.0
 11
429.53801844391432
 21
111.48311964205929
 31
0.0
  0
LINE
  5
91C8
  8
AM_0
 10
429.53801844391432
 20
111.48311964205929
 30
0.0
 11
429.53401844391391
 21
111.48211964205819
 31
0.0
  0
LINE
  5
91C9
  8
AM_0
 10
429.53401844391391
 20
111.48211964205819
 30
0.0
 11
429.53001844391429
 21
111.4801196420583
 31
0.0
  0
LINE
  5
91CA
  8
AM_0
 10
429.53001844391429
 20
111.4801196420583
 30
0.0
 11
429.52601844391421
 21
111.47911964205819
 31
0.0
  0
LINE
  5
91CB
  8
AM_0
 10
429.52601844391421
 20
111.47911964205819
 30
0.0
 11
429.52201844391408
 21
111.4771196420583
 31
0.0
  0
LINE
  5
91CC
  8
AM_0
 10
429.52201844391408
 20
111.4771196420583
 30
0.0
 11
429.518018443914
 21
111.4751196420593
 31
0.0
  0
LINE
  5
91CD
  8
AM_0
 10
429.518018443914
 20
111.4751196420593
 30
0.0
 11
429.51401844391432
 21
111.47411964205931
 31
0.0
  0
LINE
  5
91CE
  8
AM_0
 10
429.51401844391432
 20
111.47411964205931
 30
0.0
 11
429.51001844391408
 21
111.4721196420582
 31
0.0
  0
LINE
  5
91CF
  8
AM_0
 10
429.51001844391408
 20
111.4721196420582
 30
0.0
 11
429.506018443914
 21
111.47011964205829
 31
0.0
  0
LINE
  5
91D0
  8
AM_0
 10
429.506018443914
 20
111.47011964205829
 30
0.0
 11
429.50201844391432
 21
111.4691196420583
 31
0.0
  0
LINE
  5
91D1
  8
AM_0
 10
429.50201844391432
 20
111.4691196420583
 30
0.0
 11
429.49801844391402
 21
111.46711964205829
 31
0.0
  0
LINE
  5
91D2
  8
AM_0
 10
429.49801844391402
 20
111.46711964205829
 30
0.0
 11
429.4950184439142
 21
111.46511964205931
 31
0.0
  0
LINE
  5
91D3
  8
AM_0
 10
429.4950184439142
 20
111.46511964205931
 30
0.0
 11
429.49101844391407
 21
111.4641196420593
 31
0.0
  0
LINE
  5
91D4
  8
AM_0
 10
429.49101844391407
 20
111.4641196420593
 30
0.0
 11
429.487018443914
 21
111.46211964205899
 31
0.0
  0
LINE
  5
91D5
  8
AM_0
 10
429.487018443914
 20
111.46211964205899
 30
0.0
 11
429.4830184439142
 21
111.4601196420583
 31
0.0
  0
LINE
  5
91D6
  8
AM_0
 10
429.4830184439142
 20
111.4601196420583
 30
0.0
 11
429.47901844391401
 21
111.4591196420572
 31
0.0
  0
LINE
  5
91D7
  8
AM_0
 10
429.47901844391401
 20
111.4591196420572
 30
0.0
 11
429.47501844391422
 21
111.4571196420593
 31
0.0
  0
LINE
  5
91D8
  8
AM_0
 10
429.47501844391422
 20
111.4571196420593
 30
0.0
 11
429.47101844391432
 21
111.4551196420593
 31
0.0
  0
LINE
  5
91D9
  8
AM_0
 10
429.47101844391432
 20
111.4551196420593
 30
0.0
 11
429.46701844391418
 21
111.4541196420593
 31
0.0
  0
LINE
  5
91DA
  8
AM_0
 10
429.46701844391418
 20
111.4541196420593
 30
0.0
 11
429.46301844391422
 21
111.45211964205819
 31
0.0
  0
LINE
  5
91DB
  8
AM_0
 10
429.46301844391422
 20
111.45211964205819
 30
0.0
 11
429.45901844391398
 21
111.4501196420583
 31
0.0
  0
LINE
  5
91DC
  8
AM_0
 10
429.45901844391398
 20
111.4501196420583
 30
0.0
 11
429.45501844391418
 21
111.4481196420583
 31
0.0
  0
LINE
  5
91DD
  8
AM_0
 10
429.45501844391418
 20
111.4481196420583
 30
0.0
 11
429.45101844391399
 21
111.44711964205931
 31
0.0
  0
LINE
  5
91DE
  8
AM_0
 10
429.45101844391399
 20
111.44711964205931
 30
0.0
 11
429.44801844391418
 21
111.4451196420592
 31
0.0
  0
LINE
  5
91DF
  8
AM_0
 10
429.44801844391418
 20
111.4451196420592
 30
0.0
 11
429.44401844391422
 21
111.44311964205821
 31
0.0
  0
LINE
  5
91E0
  8
AM_0
 10
429.44401844391422
 20
111.44311964205821
 30
0.0
 11
429.44001844391391
 21
111.4411196420571
 31
0.0
  0
LINE
  5
91E1
  8
AM_0
 10
429.44001844391391
 20
111.4411196420571
 30
0.0
 11
429.43601844391412
 21
111.44011964205831
 31
0.0
  0
LINE
  5
91E2
  8
AM_0
 10
429.43601844391412
 20
111.44011964205831
 30
0.0
 11
429.43201844391422
 21
111.43811964205921
 31
0.0
  0
LINE
  5
91E3
  8
AM_0
 10
429.43201844391422
 20
111.43811964205921
 30
0.0
 11
429.42801844391403
 21
111.4361196420593
 31
0.0
  0
LINE
  5
91E4
  8
AM_0
 10
429.42801844391403
 20
111.4361196420593
 30
0.0
 11
429.42401844391429
 21
111.43411964205821
 31
0.0
  0
LINE
  5
91E5
  8
AM_0
 10
429.42401844391429
 20
111.43411964205821
 30
0.0
 11
429.4200184439141
 21
111.4331196420582
 31
0.0
  0
LINE
  5
91E6
  8
AM_0
 10
429.4200184439141
 20
111.4331196420582
 30
0.0
 11
429.41601844391408
 21
111.43111964205831
 31
0.0
  0
LINE
  5
91E7
  8
AM_0
 10
429.41601844391408
 20
111.43111964205831
 30
0.0
 11
429.41301844391432
 21
111.4291196420583
 31
0.0
  0
LINE
  5
91E8
  8
AM_0
 10
429.41301844391432
 20
111.4291196420583
 30
0.0
 11
429.40901844391402
 21
111.4271196420593
 31
0.0
  0
LINE
  5
91E9
  8
AM_0
 10
429.40901844391402
 20
111.4271196420593
 30
0.0
 11
429.40501844391412
 21
111.4251196420593
 31
0.0
  0
LINE
  5
91EA
  8
AM_0
 10
429.40501844391412
 20
111.4251196420593
 30
0.0
 11
429.4010184439141
 21
111.4241196420582
 31
0.0
  0
LINE
  5
91EB
  8
AM_0
 10
429.4010184439141
 20
111.4241196420582
 30
0.0
 11
429.39701844391419
 21
111.42211964205831
 31
0.0
  0
LINE
  5
91EC
  8
AM_0
 10
429.39701844391419
 20
111.42211964205831
 30
0.0
 11
429.39301844391298
 21
111.42011964205921
 31
0.0
  0
LINE
  5
91ED
  8
AM_0
 10
429.39301844391298
 20
111.42011964205921
 30
0.0
 11
429.38901844391421
 21
111.4181196420604
 31
0.0
  0
LINE
  5
91EE
  8
AM_0
 10
429.38901844391421
 20
111.4181196420604
 30
0.0
 11
429.38601844391422
 21
111.4161196420584
 31
0.0
  0
LINE
  5
91EF
  8
AM_0
 10
429.38601844391422
 20
111.4161196420584
 30
0.0
 11
429.38201844391398
 21
111.4151196420582
 31
0.0
  0
LINE
  5
91F0
  8
AM_0
 10
429.38201844391398
 20
111.4151196420582
 30
0.0
 11
429.37801844391419
 21
111.41311964205821
 31
0.0
  0
LINE
  5
91F1
  8
AM_0
 10
429.37801844391419
 20
111.41311964205821
 30
0.0
 11
429.3740184439128
 21
111.41111964205921
 31
0.0
  0
LINE
  5
91F2
  8
AM_0
 10
429.3740184439128
 20
111.41111964205921
 30
0.0
 11
429.3700184439142
 21
111.4091196420593
 31
0.0
  0
LINE
  5
91F3
  8
AM_0
 10
429.3700184439142
 20
111.4091196420593
 30
0.0
 11
429.3660184439143
 21
111.4071196420584
 31
0.0
  0
LINE
  5
91F4
  8
AM_0
 10
429.3660184439143
 20
111.4071196420584
 30
0.0
 11
429.36201844391411
 21
111.4051196420582
 31
0.0
  0
LINE
  5
91F5
  8
AM_0
 10
429.36201844391411
 20
111.4051196420582
 30
0.0
 11
429.35901844391418
 21
111.4031196420583
 31
0.0
  0
LINE
  5
91F6
  8
AM_0
 10
429.35901844391418
 20
111.4031196420583
 30
0.0
 11
429.35501844391291
 21
111.4011196420592
 31
0.0
  0
LINE
  5
91F7
  8
AM_0
 10
429.35501844391291
 20
111.4011196420592
 30
0.0
 11
429.35101844391397
 21
111.4001196420592
 31
0.0
  0
LINE
  5
91F8
  8
AM_0
 10
429.35101844391397
 20
111.4001196420592
 30
0.0
 11
429.34701844391429
 21
111.3981196420593
 31
0.0
  0
LINE
  5
91F9
  8
AM_0
 10
429.34701844391429
 20
111.3981196420593
 30
0.0
 11
429.34301844391422
 21
111.3961196420573
 31
0.0
  0
LINE
  5
91FA
  8
AM_0
 10
429.34301844391422
 20
111.3961196420573
 30
0.0
 11
429.34001844391418
 21
111.3941196420582
 31
0.0
  0
LINE
  5
91FB
  8
AM_0
 10
429.34001844391418
 20
111.3941196420582
 30
0.0
 11
429.33601844391433
 21
111.3921196420592
 31
0.0
  0
LINE
  5
91FC
  8
AM_0
 10
429.33601844391433
 20
111.3921196420592
 30
0.0
 11
429.33201844391391
 21
111.3901196420592
 31
0.0
  0
LINE
  5
91FD
  8
AM_0
 10
429.33201844391391
 20
111.3901196420592
 30
0.0
 11
429.32801844391429
 21
111.3881196420584
 31
0.0
  0
LINE
  5
91FE
  8
AM_0
 10
429.32801844391429
 20
111.3881196420584
 30
0.0
 11
429.3240184439141
 21
111.3861196420582
 31
0.0
  0
LINE
  5
91FF
  8
AM_0
 10
429.3240184439141
 20
111.3861196420582
 30
0.0
 11
429.32101844391428
 21
111.3841196420582
 31
0.0
  0
LINE
  5
9200
  8
AM_0
 10
429.32101844391428
 20
111.3841196420582
 30
0.0
 11
429.31701844391432
 21
111.38211964205919
 31
0.0
  0
LINE
  5
9201
  8
AM_0
 10
429.31701844391432
 20
111.38211964205919
 30
0.0
 11
429.31301844391402
 21
111.38011964206039
 31
0.0
  0
LINE
  5
9202
  8
AM_0
 10
429.31301844391402
 20
111.38011964206039
 30
0.0
 11
429.30901844391428
 21
111.37811964205839
 31
0.0
  0
LINE
  5
9203
  8
AM_0
 10
429.30901844391428
 20
111.37811964205839
 30
0.0
 11
429.30501844391398
 21
111.3761196420582
 31
0.0
  0
LINE
  5
9204
  8
AM_0
 10
429.30501844391398
 20
111.3761196420582
 30
0.0
 11
429.30201844391422
 21
111.3741196420592
 31
0.0
  0
LINE
  5
9205
  8
AM_0
 10
429.30201844391422
 20
111.3741196420592
 30
0.0
 11
429.29801844391432
 21
111.37211964205829
 31
0.0
  0
LINE
  5
9206
  8
AM_0
 10
429.29801844391432
 20
111.37211964205829
 30
0.0
 11
429.29401844391401
 21
111.3701196420613
 31
0.0
  0
LINE
  5
9207
  8
AM_0
 10
429.29401844391401
 20
111.3701196420613
 30
0.0
 11
429.29001844391422
 21
111.3681196420593
 31
0.0
  0
LINE
  5
9208
  8
AM_0
 10
429.29001844391422
 20
111.3681196420593
 30
0.0
 11
429.28601844391397
 21
111.3661196420591
 31
0.0
  0
LINE
  5
9209
  8
AM_0
 10
429.28601844391397
 20
111.3661196420591
 30
0.0
 11
429.28301844391422
 21
111.3641196420583
 31
0.0
  0
LINE
  5
920A
  8
AM_0
 10
429.28301844391422
 20
111.3641196420583
 30
0.0
 11
429.27901844391431
 21
111.3621196420592
 31
0.0
  0
LINE
  5
920B
  8
AM_0
 10
429.27901844391431
 20
111.3621196420592
 30
0.0
 11
429.27501844391418
 21
111.3601196420593
 31
0.0
  0
LINE
  5
920C
  8
AM_0
 10
429.27501844391418
 20
111.3601196420593
 30
0.0
 11
429.27101844391422
 21
111.3581196420584
 31
0.0
  0
LINE
  5
920D
  8
AM_0
 10
429.27101844391422
 20
111.3581196420584
 30
0.0
 11
429.26801844391412
 21
111.3561196420582
 31
0.0
  0
LINE
  5
920E
  8
AM_0
 10
429.26801844391412
 20
111.3561196420582
 30
0.0
 11
429.26401844391421
 21
111.3541196420592
 31
0.0
  0
LINE
  5
920F
  8
AM_0
 10
429.26401844391421
 20
111.3541196420592
 30
0.0
 11
429.26001844391442
 21
111.35211964205919
 31
0.0
  0
LINE
  5
9210
  8
AM_0
 10
429.26001844391442
 20
111.35211964205919
 30
0.0
 11
429.25601844391417
 21
111.3501196420584
 31
0.0
  0
LINE
  5
9211
  8
AM_0
 10
429.25601844391417
 20
111.3501196420584
 30
0.0
 11
429.25301844391419
 21
111.3481196420593
 31
0.0
  0
LINE
  5
9212
  8
AM_0
 10
429.25301844391419
 20
111.3481196420593
 30
0.0
 11
429.249018443914
 21
111.3461196420582
 31
0.0
  0
LINE
  5
9213
  8
AM_0
 10
429.249018443914
 20
111.3461196420582
 30
0.0
 11
429.24501844391398
 21
111.3441196420592
 31
0.0
  0
LINE
  5
9214
  8
AM_0
 10
429.24501844391398
 20
111.3441196420592
 30
0.0
 11
429.24201844391422
 21
111.3421196420592
 31
0.0
  0
LINE
  5
9215
  8
AM_0
 10
429.24201844391422
 20
111.3421196420592
 30
0.0
 11
429.23801844391397
 21
111.3391196420593
 31
0.0
  0
LINE
  5
9216
  8
AM_0
 10
429.23801844391397
 20
111.3391196420593
 30
0.0
 11
429.23401844391412
 21
111.3371196420582
 31
0.0
  0
LINE
  5
9217
  8
AM_0
 10
429.23401844391412
 20
111.3371196420582
 30
0.0
 11
429.2300184439141
 21
111.3351196420592
 31
0.0
  0
LINE
  5
9218
  8
AM_0
 10
429.2300184439141
 20
111.3351196420592
 30
0.0
 11
429.22701844391207
 21
111.3331196420592
 31
0.0
  0
LINE
  5
9219
  8
AM_0
 10
429.22701844391207
 20
111.3331196420592
 30
0.0
 11
429.22301844391433
 21
111.3311196420584
 31
0.0
  0
LINE
  5
921A
  8
AM_0
 10
429.22301844391433
 20
111.3311196420584
 30
0.0
 11
429.21901844391402
 21
111.3291196420593
 31
0.0
  0
LINE
  5
921B
  8
AM_0
 10
429.21901844391402
 20
111.3291196420593
 30
0.0
 11
429.21601844391432
 21
111.32711964205819
 31
0.0
  0
LINE
  5
921C
  8
AM_0
 10
429.21601844391432
 20
111.32711964205819
 30
0.0
 11
429.21201844391408
 21
111.32511964205921
 31
0.0
  0
LINE
  5
921D
  8
AM_0
 10
429.21201844391408
 20
111.32511964205921
 30
0.0
 11
429.20801844391212
 21
111.32211964205931
 31
0.0
  0
LINE
  5
921E
  8
AM_0
 10
429.20801844391212
 20
111.32211964205931
 30
0.0
 11
429.20501844391413
 21
111.32011964205731
 31
0.0
  0
LINE
  5
921F
  8
AM_0
 10
429.20501844391413
 20
111.32011964205731
 30
0.0
 11
429.20101844391399
 21
111.31811964205821
 31
0.0
  0
LINE
  5
9220
  8
AM_0
 10
429.20101844391399
 20
111.31811964205821
 30
0.0
 11
429.1970184439142
 21
111.3161196420603
 31
0.0
  0
LINE
  5
9221
  8
AM_0
 10
429.1970184439142
 20
111.3161196420603
 30
0.0
 11
429.19401844391422
 21
111.31411964205719
 31
0.0
  0
LINE
  5
9222
  8
AM_0
 10
429.19401844391422
 20
111.31411964205719
 30
0.0
 11
429.19001844391278
 21
111.3111196420593
 31
0.0
  0
LINE
  5
9223
  8
AM_0
 10
429.19001844391278
 20
111.3111196420593
 30
0.0
 11
429.18601844391412
 21
111.3091196420591
 31
0.0
  0
LINE
  5
9224
  8
AM_0
 10
429.18601844391412
 20
111.3091196420591
 30
0.0
 11
429.18301844391431
 21
111.3071196420583
 31
0.0
  0
LINE
  5
9225
  8
AM_0
 10
429.18301844391431
 20
111.3071196420583
 30
0.0
 11
429.17901844391412
 21
111.30511964205721
 31
0.0
  0
LINE
  5
9226
  8
AM_0
 10
429.17901844391412
 20
111.30511964205721
 30
0.0
 11
429.17501844391421
 21
111.3031196420593
 31
0.0
  0
LINE
  5
9227
  8
AM_0
 10
429.17501844391421
 20
111.3031196420593
 30
0.0
 11
429.17201844391411
 21
111.3001196420593
 31
0.0
  0
LINE
  5
9228
  8
AM_0
 10
429.17201844391411
 20
111.3001196420593
 30
0.0
 11
429.16801844391421
 21
111.29811964205921
 31
0.0
  0
LINE
  5
9229
  8
AM_0
 10
429.16801844391421
 20
111.29811964205921
 30
0.0
 11
429.16401844391442
 21
111.2961196420583
 31
0.0
  0
LINE
  5
922A
  8
AM_0
 10
429.16401844391442
 20
111.2961196420583
 30
0.0
 11
429.16101844391397
 21
111.29411964205831
 31
0.0
  0
LINE
  5
922B
  8
AM_0
 10
429.16101844391397
 20
111.29411964205831
 30
0.0
 11
429.15701844391418
 21
111.2911196420593
 31
0.0
  0
LINE
  5
922C
  8
AM_0
 10
429.15701844391418
 20
111.2911196420593
 30
0.0
 11
429.15401844391431
 21
111.2891196420582
 31
0.0
  0
LINE
  5
922D
  8
AM_0
 10
429.15401844391431
 20
111.2891196420582
 30
0.0
 11
429.15001844391418
 21
111.28711964205711
 31
0.0
  0
LINE
  5
922E
  8
AM_0
 10
429.15001844391418
 20
111.28711964205711
 30
0.0
 11
429.14601844391422
 21
111.2851196420592
 31
0.0
  0
LINE
  5
922F
  8
AM_0
 10
429.14601844391422
 20
111.2851196420592
 30
0.0
 11
429.143018443914
 21
111.2821196420593
 31
0.0
  0
LINE
  5
9230
  8
AM_0
 10
429.143018443914
 20
111.2821196420593
 30
0.0
 11
429.1390184439141
 21
111.2801196420582
 31
0.0
  0
LINE
  5
9231
  8
AM_0
 10
429.1390184439141
 20
111.2801196420582
 30
0.0
 11
429.13601844391428
 21
111.2781196420582
 31
0.0
  0
LINE
  5
9232
  8
AM_0
 10
429.13601844391428
 20
111.2781196420582
 30
0.0
 11
429.13201844391398
 21
111.2751196420583
 31
0.0
  0
LINE
  5
9233
  8
AM_0
 10
429.13201844391398
 20
111.2751196420583
 30
0.0
 11
429.12801844391407
 21
111.2731196420593
 31
0.0
  0
LINE
  5
9234
  8
AM_0
 10
429.12801844391407
 20
111.2731196420593
 30
0.0
 11
429.12501844391409
 21
111.2711196420593
 31
0.0
  0
LINE
  5
9235
  8
AM_0
 10
429.12501844391409
 20
111.2711196420593
 30
0.0
 11
429.1210184439139
 21
111.26811964205829
 31
0.0
  0
LINE
  5
9236
  8
AM_0
 10
429.1210184439139
 20
111.26811964205829
 30
0.0
 11
429.11801844391408
 21
111.26611964205919
 31
0.0
  0
LINE
  5
9237
  8
AM_0
 10
429.11801844391408
 20
111.26611964205919
 30
0.0
 11
429.11401844391389
 21
111.2641196420584
 31
0.0
  0
LINE
  5
9238
  8
AM_0
 10
429.11401844391389
 20
111.2641196420584
 30
0.0
 11
429.11101844391402
 21
111.2611196420582
 31
0.0
  0
LINE
  5
9239
  8
AM_0
 10
429.11101844391402
 20
111.2611196420582
 30
0.0
 11
429.10701844391423
 21
111.25911964205829
 31
0.0
  0
LINE
  5
923A
  8
AM_0
 10
429.10701844391423
 20
111.25911964205829
 30
0.0
 11
429.10401844391401
 21
111.25611964205829
 31
0.0
  0
LINE
  5
923B
  8
AM_0
 10
429.10401844391401
 20
111.25611964205829
 30
0.0
 11
429.10001844391422
 21
111.2541196420602
 31
0.0
  0
LINE
  5
923C
  8
AM_0
 10
429.10001844391422
 20
111.2541196420602
 30
0.0
 11
429.09601844391432
 21
111.2521196420592
 31
0.0
  0
LINE
  5
923D
  8
AM_0
 10
429.09601844391432
 20
111.2521196420592
 30
0.0
 11
429.09301844391399
 21
111.2491196420583
 31
0.0
  0
LINE
  5
923E
  8
AM_0
 10
429.09301844391399
 20
111.2491196420583
 30
0.0
 11
429.0890184439142
 21
111.2471196420592
 31
0.0
  0
LINE
  5
923F
  8
AM_0
 10
429.0890184439142
 20
111.2471196420592
 30
0.0
 11
429.08601844391433
 21
111.2441196420593
 31
0.0
  0
LINE
  5
9240
  8
AM_0
 10
429.08601844391433
 20
111.2441196420593
 30
0.0
 11
429.08201844391419
 21
111.2421196420573
 31
0.0
  0
LINE
  5
9241
  8
AM_0
 10
429.08201844391419
 20
111.2421196420573
 30
0.0
 11
429.07901844391421
 21
111.23911964205919
 31
0.0
  0
LINE
  5
9242
  8
AM_0
 10
429.07901844391421
 20
111.23911964205919
 30
0.0
 11
429.07501844391402
 21
111.2371196420583
 31
0.0
  0
LINE
  5
9243
  8
AM_0
 10
429.07501844391402
 20
111.2371196420583
 30
0.0
 11
429.0720184439142
 21
111.2351196420602
 31
0.0
  0
LINE
  5
9244
  8
AM_0
 10
429.0720184439142
 20
111.2351196420602
 30
0.0
 11
429.06801844391441
 21
111.23211964205819
 31
0.0
  0
LINE
  5
9245
  8
AM_0
 10
429.06801844391441
 20
111.23211964205819
 30
0.0
 11
429.06501844391403
 21
111.2301196420583
 31
0.0
  0
LINE
  5
9246
  8
AM_0
 10
429.06501844391403
 20
111.2301196420583
 30
0.0
 11
429.06101844391418
 21
111.2271196420604
 31
0.0
  0
LINE
  5
9247
  8
AM_0
 10
429.06101844391418
 20
111.2271196420604
 30
0.0
 11
429.05801844391431
 21
111.2251196420593
 31
0.0
  0
LINE
  5
9248
  8
AM_0
 10
429.05801844391431
 20
111.2251196420593
 30
0.0
 11
429.05501844391398
 21
111.2221196420582
 31
0.0
  0
LINE
  5
9249
  8
AM_0
 10
429.05501844391398
 20
111.2221196420582
 30
0.0
 11
429.05101844391407
 21
111.2201196420592
 31
0.0
  0
LINE
  5
924A
  8
AM_0
 10
429.05101844391407
 20
111.2201196420592
 30
0.0
 11
429.04801844391432
 21
111.2171196420592
 31
0.0
  0
LINE
  5
924B
  8
AM_0
 10
429.04801844391432
 20
111.2171196420592
 30
0.0
 11
429.04401844391299
 21
111.21511964205931
 31
0.0
  0
LINE
  5
924C
  8
AM_0
 10
429.04401844391299
 20
111.21511964205931
 30
0.0
 11
429.04101844391408
 21
111.2121196420582
 31
0.0
  0
LINE
  5
924D
  8
AM_0
 10
429.04101844391408
 20
111.2121196420582
 30
0.0
 11
429.03701844391389
 21
111.2101196420583
 31
0.0
  0
LINE
  5
924E
  8
AM_0
 10
429.03701844391389
 20
111.2101196420583
 30
0.0
 11
429.03401844391402
 21
111.2071196420583
 31
0.0
  0
LINE
  5
924F
  8
AM_0
 10
429.03401844391402
 20
111.2071196420583
 30
0.0
 11
429.03101844391421
 21
111.2041196420593
 31
0.0
  0
LINE
  5
9250
  8
AM_0
 10
429.03101844391421
 20
111.2041196420593
 30
0.0
 11
429.0270184439139
 21
111.20211964205819
 31
0.0
  0
LINE
  5
9251
  8
AM_0
 10
429.0270184439139
 20
111.20211964205819
 30
0.0
 11
429.0240184439142
 21
111.19911964205831
 31
0.0
  0
LINE
  5
9252
  8
AM_0
 10
429.0240184439142
 20
111.19911964205831
 30
0.0
 11
429.02001844391413
 21
111.1971196420613
 31
0.0
  0
LINE
  5
9253
  8
AM_0
 10
429.02001844391413
 20
111.1971196420613
 30
0.0
 11
429.01701844391113
 21
111.1941196420584
 31
0.0
  0
LINE
  5
9254
  8
AM_0
 10
429.01701844391113
 20
111.1941196420584
 30
0.0
 11
429.01401844391432
 21
111.1911196420583
 31
0.0
  0
LINE
  5
9255
  8
AM_0
 10
429.01401844391432
 20
111.1911196420583
 30
0.0
 11
429.01001844391408
 21
111.18911964206031
 31
0.0
  0
LINE
  5
9256
  8
AM_0
 10
429.01001844391408
 20
111.18911964206031
 30
0.0
 11
429.00701844391398
 21
111.1861196420584
 31
0.0
  0
LINE
  5
9257
  8
AM_0
 10
429.00701844391398
 20
111.1861196420584
 30
0.0
 11
429.00301844391407
 21
111.1841196420573
 31
0.0
  0
LINE
  5
9258
  8
AM_0
 10
429.00301844391407
 20
111.1841196420573
 30
0.0
 11
429.00001844391431
 21
111.18111964205831
 31
0.0
  0
LINE
  5
9259
  8
AM_0
 10
429.00001844391431
 20
111.18111964205831
 30
0.0
 11
428.99701844391399
 21
111.1781196420613
 31
0.0
  0
LINE
  5
925A
  8
AM_0
 10
428.99701844391399
 20
111.1781196420613
 30
0.0
 11
428.9930184439142
 21
111.17611964205931
 31
0.0
  0
LINE
  5
925B
  8
AM_0
 10
428.9930184439142
 20
111.17611964205931
 30
0.0
 11
428.99001844391432
 21
111.1731196420582
 31
0.0
  0
LINE
  5
925C
  8
AM_0
 10
428.99001844391432
 20
111.1731196420582
 30
0.0
 11
428.987018443914
 21
111.1701196420604
 31
0.0
  0
LINE
  5
925D
  8
AM_0
 10
428.987018443914
 20
111.1701196420604
 30
0.0
 11
428.9830184439142
 21
111.1681196420593
 31
0.0
  0
LINE
  5
925E
  8
AM_0
 10
428.9830184439142
 20
111.1681196420593
 30
0.0
 11
428.98001844391291
 21
111.1651196420582
 31
0.0
  0
LINE
  5
925F
  8
AM_0
 10
428.98001844391291
 20
111.1651196420582
 30
0.0
 11
428.97701844391418
 21
111.1621196420583
 31
0.0
  0
LINE
  5
9260
  8
AM_0
 10
428.97701844391418
 20
111.1621196420583
 30
0.0
 11
428.97401844391419
 21
111.1591196420592
 31
0.0
  0
LINE
  5
9261
  8
AM_0
 10
428.97401844391419
 20
111.1591196420592
 30
0.0
 11
428.970018443914
 21
111.1571196420593
 31
0.0
  0
LINE
  5
9262
  8
AM_0
 10
428.970018443914
 20
111.1571196420593
 30
0.0
 11
428.96701844391418
 21
111.15411964205821
 31
0.0
  0
LINE
  5
9263
  8
AM_0
 10
428.96701844391418
 20
111.15411964205821
 30
0.0
 11
428.9640184439142
 21
111.15111964206029
 31
0.0
  0
LINE
  5
9264
  8
AM_0
 10
428.9640184439142
 20
111.15111964206029
 30
0.0
 11
428.96001844391202
 21
111.1481196420584
 31
0.0
  0
LINE
  5
9265
  8
AM_0
 10
428.96001844391202
 20
111.1481196420584
 30
0.0
 11
428.95701844391402
 21
111.1461196420593
 31
0.0
  0
LINE
  5
9266
  8
AM_0
 10
428.95701844391402
 20
111.1461196420593
 30
0.0
 11
428.95401844391421
 21
111.1431196420582
 31
0.0
  0
LINE
  5
9267
  8
AM_0
 10
428.95401844391421
 20
111.1431196420582
 30
0.0
 11
428.95101844391399
 21
111.1401196420592
 31
0.0
  0
LINE
  5
9268
  8
AM_0
 10
428.95101844391399
 20
111.1401196420592
 30
0.0
 11
428.94701844391398
 21
111.13711964205839
 31
0.0
  0
LINE
  5
9269
  8
AM_0
 10
428.94701844391398
 20
111.13711964205839
 30
0.0
 11
428.94401844391422
 21
111.1351196420582
 31
0.0
  0
LINE
  5
926A
  8
AM_0
 10
428.94401844391422
 20
111.1351196420582
 30
0.0
 11
428.94101844391213
 21
111.13211964205919
 31
0.0
  0
LINE
  5
926B
  8
AM_0
 10
428.94101844391213
 20
111.13211964205919
 30
0.0
 11
428.9380184439139
 21
111.1291196420584
 31
0.0
  0
LINE
  5
926C
  8
AM_0
 10
428.9380184439139
 20
111.1291196420584
 30
0.0
 11
428.93501844391409
 21
111.1261196420582
 31
0.0
  0
LINE
  5
926D
  8
AM_0
 10
428.93501844391409
 20
111.1261196420582
 30
0.0
 11
428.9310184439139
 21
111.1231196420583
 31
0.0
  0
LINE
  5
926E
  8
AM_0
 10
428.9310184439139
 20
111.1231196420583
 30
0.0
 11
428.92801844391403
 21
111.12011964205929
 31
0.0
  0
LINE
  5
926F
  8
AM_0
 10
428.92801844391403
 20
111.12011964205929
 30
0.0
 11
428.92501844391433
 21
111.1181196420584
 31
0.0
  0
LINE
  5
9270
  8
AM_0
 10
428.92501844391433
 20
111.1181196420584
 30
0.0
 11
428.92201844391212
 21
111.1151196420582
 31
0.0
  0
LINE
  5
9271
  8
AM_0
 10
428.92201844391212
 20
111.1151196420582
 30
0.0
 11
428.91901844391401
 21
111.1121196420592
 31
0.0
  0
LINE
  5
9272
  8
AM_0
 10
428.91901844391401
 20
111.1121196420592
 30
0.0
 11
428.9160184439142
 21
111.1091196420593
 31
0.0
  0
LINE
  5
9273
  8
AM_0
 10
428.9160184439142
 20
111.1091196420593
 30
0.0
 11
428.91301844391432
 21
111.1061196420591
 31
0.0
  0
LINE
  5
9274
  8
AM_0
 10
428.91301844391432
 20
111.1061196420591
 30
0.0
 11
428.90901844391419
 21
111.1031196420583
 31
0.0
  0
LINE
  5
9275
  8
AM_0
 10
428.90901844391419
 20
111.1031196420583
 30
0.0
 11
428.90601844391432
 21
111.1001196420593
 31
0.0
  0
LINE
  5
9276
  8
AM_0
 10
428.90601844391432
 20
111.1001196420593
 30
0.0
 11
428.90301844391189
 21
111.0971196420582
 31
0.0
  0
LINE
  5
9277
  8
AM_0
 10
428.90301844391189
 20
111.0971196420582
 30
0.0
 11
428.90001844391401
 21
111.0941196420583
 31
0.0
  0
LINE
  5
9278
  8
AM_0
 10
428.90001844391401
 20
111.0941196420583
 30
0.0
 11
428.89701844391431
 21
111.0911196420584
 31
0.0
  0
LINE
  5
9279
  8
AM_0
 10
428.89701844391431
 20
111.0911196420584
 30
0.0
 11
428.89401844391432
 21
111.0881196420582
 31
0.0
  0
LINE
  5
927A
  8
AM_0
 10
428.89401844391432
 20
111.0881196420582
 30
0.0
 11
428.89101844391399
 21
111.0851196420583
 31
0.0
  0
LINE
  5
927B
  8
AM_0
 10
428.89101844391399
 20
111.0851196420583
 30
0.0
 11
428.88801844391412
 21
111.0821196420592
 31
0.0
  0
LINE
  5
927C
  8
AM_0
 10
428.88801844391412
 20
111.0821196420592
 30
0.0
 11
428.88501844391442
 21
111.07911964205729
 31
0.0
  0
LINE
  5
927D
  8
AM_0
 10
428.88501844391442
 20
111.07911964205729
 30
0.0
 11
428.88201844391398
 21
111.0761196420583
 31
0.0
  0
LINE
  5
927E
  8
AM_0
 10
428.88201844391398
 20
111.0761196420583
 30
0.0
 11
428.87901844391422
 21
111.0731196420583
 31
0.0
  0
LINE
  5
927F
  8
AM_0
 10
428.87901844391422
 20
111.0731196420583
 30
0.0
 11
428.87601844391418
 21
111.0701196420593
 31
0.0
  0
LINE
  5
9280
  8
AM_0
 10
428.87601844391418
 20
111.0701196420593
 30
0.0
 11
428.87301844391402
 21
111.0671196420582
 31
0.0
  0
LINE
  5
9281
  8
AM_0
 10
428.87301844391402
 20
111.0671196420582
 30
0.0
 11
428.8700184439142
 21
111.0641196420583
 31
0.0
  0
LINE
  5
9282
  8
AM_0
 10
428.8700184439142
 20
111.0641196420583
 30
0.0
 11
428.86701844391422
 21
111.0611196420593
 31
0.0
  0
LINE
  5
9283
  8
AM_0
 10
428.86701844391422
 20
111.0611196420593
 30
0.0
 11
428.86401844391401
 21
111.0581196420582
 31
0.0
  0
LINE
  5
9284
  8
AM_0
 10
428.86401844391401
 20
111.0581196420582
 30
0.0
 11
428.86101844391419
 21
111.0551196420592
 31
0.0
  0
LINE
  5
9285
  8
AM_0
 10
428.86101844391419
 20
111.0551196420592
 30
0.0
 11
428.85801844391409
 21
111.0521196420592
 31
0.0
  0
LINE
  5
9286
  8
AM_0
 10
428.85801844391409
 20
111.0521196420592
 30
0.0
 11
428.8550184439141
 21
111.0491196420582
 31
0.0
  0
LINE
  5
9287
  8
AM_0
 10
428.8550184439141
 20
111.0491196420582
 30
0.0
 11
428.85201844391418
 21
111.0461196420583
 31
0.0
  0
LINE
  5
9288
  8
AM_0
 10
428.85201844391418
 20
111.0461196420583
 30
0.0
 11
428.84901844391408
 21
111.0431196420604
 31
0.0
  0
LINE
  5
9289
  8
AM_0
 10
428.84901844391408
 20
111.0431196420604
 30
0.0
 11
428.84601844391432
 21
111.0401196420582
 31
0.0
  0
LINE
  5
928A
  8
AM_0
 10
428.84601844391432
 20
111.0401196420582
 30
0.0
 11
428.84301844391427
 21
111.0371196420583
 31
0.0
  0
LINE
  5
928B
  8
AM_0
 10
428.84301844391427
 20
111.0371196420583
 30
0.0
 11
428.84001844391412
 21
111.0331196420593
 31
0.0
  0
LINE
  5
928C
  8
AM_0
 10
428.84001844391412
 20
111.0331196420593
 30
0.0
 11
428.8370184439143
 21
111.0301196420582
 31
0.0
  0
LINE
  5
928D
  8
AM_0
 10
428.8370184439143
 20
111.0301196420582
 30
0.0
 11
428.83401844391398
 21
111.0271196420583
 31
0.0
  0
LINE
  5
928E
  8
AM_0
 10
428.83401844391398
 20
111.0271196420583
 30
0.0
 11
428.83201844391402
 21
111.0241196420604
 31
0.0
  0
LINE
  5
928F
  8
AM_0
 10
428.83201844391402
 20
111.0241196420604
 30
0.0
 11
428.82901844391432
 21
111.0211196420573
 31
0.0
  0
LINE
  5
9290
  8
AM_0
 10
428.82901844391432
 20
111.0211196420573
 30
0.0
 11
428.82601844391399
 21
111.0181196420582
 31
0.0
  0
LINE
  5
9291
  8
AM_0
 10
428.82601844391399
 20
111.0181196420582
 30
0.0
 11
428.8230184439139
 21
111.0141196420593
 31
0.0
  0
LINE
  5
9292
  8
AM_0
 10
428.8230184439139
 20
111.0141196420593
 30
0.0
 11
428.82001844391408
 21
111.0111196420582
 31
0.0
  0
LINE
  5
9293
  8
AM_0
 10
428.82001844391408
 20
111.0111196420582
 30
0.0
 11
428.81701844391432
 21
111.0081196420583
 31
0.0
  0
LINE
  5
9294
  8
AM_0
 10
428.81701844391432
 20
111.0081196420583
 30
0.0
 11
428.81501844391289
 21
111.00511964206039
 31
0.0
  0
LINE
  5
9295
  8
AM_0
 10
428.81501844391289
 20
111.00511964206039
 30
0.0
 11
428.81201844391433
 21
111.0011196420582
 31
0.0
  0
LINE
  5
9296
  8
AM_0
 10
428.81201844391433
 20
111.0011196420582
 30
0.0
 11
428.80901844391423
 21
110.99811964205919
 31
0.0
  0
LINE
  5
9297
  8
AM_0
 10
428.80901844391423
 20
110.99811964205919
 30
0.0
 11
428.80601844391401
 21
110.99511964205929
 31
0.0
  0
LINE
  5
9298
  8
AM_0
 10
428.80601844391401
 20
110.99511964205929
 30
0.0
 11
428.804018443914
 21
110.99211964205929
 31
0.0
  0
LINE
  5
9299
  8
AM_0
 10
428.804018443914
 20
110.99211964205929
 30
0.0
 11
428.80101844391419
 21
110.9881196420592
 31
0.0
  0
LINE
  5
929A
  8
AM_0
 10
428.80101844391419
 20
110.9881196420592
 30
0.0
 11
428.79801844391432
 21
110.9851196420593
 31
0.0
  0
LINE
  5
929B
  8
AM_0
 10
428.79801844391432
 20
110.9851196420593
 30
0.0
 11
428.79601844391283
 21
110.98211964205819
 31
0.0
  0
LINE
  5
929C
  8
AM_0
 10
428.79601844391283
 20
110.98211964205819
 30
0.0
 11
428.79301844391421
 21
110.9781196420583
 31
0.0
  0
LINE
  5
929D
  8
AM_0
 10
428.79301844391421
 20
110.9781196420583
 30
0.0
 11
428.79001844391422
 21
110.9751196420584
 31
0.0
  0
LINE
  5
929E
  8
AM_0
 10
428.79001844391422
 20
110.9751196420584
 30
0.0
 11
428.78801844391432
 21
110.9721196420582
 31
0.0
  0
LINE
  5
929F
  8
AM_0
 10
428.78801844391432
 20
110.9721196420582
 30
0.0
 11
428.78501844391411
 21
110.96811964205919
 31
0.0
  0
LINE
  5
92A0
  8
AM_0
 10
428.78501844391411
 20
110.96811964205919
 30
0.0
 11
428.78201844391418
 21
110.9651196420584
 31
0.0
  0
LINE
  5
92A1
  8
AM_0
 10
428.78201844391418
 20
110.9651196420584
 30
0.0
 11
428.78001844391417
 21
110.9621196420582
 31
0.0
  0
LINE
  5
92A2
  8
AM_0
 10
428.78001844391417
 20
110.9621196420582
 30
0.0
 11
428.77701844391282
 21
110.9581196420592
 31
0.0
  0
LINE
  5
92A3
  8
AM_0
 10
428.77701844391282
 20
110.9581196420592
 30
0.0
 11
428.77501844391418
 21
110.9551196420593
 31
0.0
  0
LINE
  5
92A4
  8
AM_0
 10
428.77501844391418
 20
110.9551196420593
 30
0.0
 11
428.77201844391419
 21
110.9511196420583
 31
0.0
  0
LINE
  5
92A5
  8
AM_0
 10
428.77201844391419
 20
110.9511196420583
 30
0.0
 11
428.76901844391432
 21
110.9481196420592
 31
0.0
  0
LINE
  5
92A6
  8
AM_0
 10
428.76901844391432
 20
110.9481196420592
 30
0.0
 11
428.76701844391403
 21
110.9451196420584
 31
0.0
  0
LINE
  5
92A7
  8
AM_0
 10
428.76701844391403
 20
110.9451196420584
 30
0.0
 11
428.76401844391398
 21
110.94111964205921
 31
0.0
  0
LINE
  5
92A8
  8
AM_0
 10
428.76401844391398
 20
110.94111964205921
 30
0.0
 11
428.76201844391409
 21
110.9381196420583
 31
0.0
  0
LINE
  5
92A9
  8
AM_0
 10
428.76201844391409
 20
110.9381196420583
 30
0.0
 11
428.75901844391427
 21
110.9341196420591
 31
0.0
  0
LINE
  5
92AA
  8
AM_0
 10
428.75901844391427
 20
110.9341196420591
 30
0.0
 11
428.75701844391398
 21
110.9311196420592
 31
0.0
  0
LINE
  5
92AB
  8
AM_0
 10
428.75701844391398
 20
110.9311196420592
 30
0.0
 11
428.75401844391422
 21
110.9271196420584
 31
0.0
  0
LINE
  5
92AC
  8
AM_0
 10
428.75401844391422
 20
110.9271196420584
 30
0.0
 11
428.75201844391421
 21
110.9241196420582
 31
0.0
  0
LINE
  5
92AD
  8
AM_0
 10
428.75201844391421
 20
110.9241196420582
 30
0.0
 11
428.75001844391431
 21
110.9201196420583
 31
0.0
  0
LINE
  5
92AE
  8
AM_0
 10
428.75001844391431
 20
110.9201196420583
 30
0.0
 11
428.74701844391421
 21
110.9171196420593
 31
0.0
  0
LINE
  5
92AF
  8
AM_0
 10
428.74701844391421
 20
110.9171196420593
 30
0.0
 11
428.74501844391398
 21
110.91311964205821
 31
0.0
  0
LINE
  5
92B0
  8
AM_0
 10
428.74501844391398
 20
110.91311964205821
 30
0.0
 11
428.74201844391428
 21
110.91011964205831
 31
0.0
  0
LINE
  5
92B1
  8
AM_0
 10
428.74201844391428
 20
110.91011964205831
 30
0.0
 11
428.74001844391421
 21
110.90611964205929
 31
0.0
  0
LINE
  5
92B2
  8
AM_0
 10
428.74001844391421
 20
110.90611964205929
 30
0.0
 11
428.73801844391397
 21
110.9021196420583
 31
0.0
  0
LINE
  5
92B3
  8
AM_0
 10
428.73801844391397
 20
110.9021196420583
 30
0.0
 11
428.73501844391433
 21
110.8991196420592
 31
0.0
  0
LINE
  5
92B4
  8
AM_0
 10
428.73501844391433
 20
110.8991196420592
 30
0.0
 11
428.7330184439142
 21
110.89511964205821
 31
0.0
  0
LINE
  5
92B5
  8
AM_0
 10
428.7330184439142
 20
110.89511964205821
 30
0.0
 11
428.73101844391408
 21
110.8921196420583
 31
0.0
  0
LINE
  5
92B6
  8
AM_0
 10
428.73101844391408
 20
110.8921196420583
 30
0.0
 11
428.7280184439141
 21
110.88811964205929
 31
0.0
  0
LINE
  5
92B7
  8
AM_0
 10
428.7280184439141
 20
110.88811964205929
 30
0.0
 11
428.7260184439142
 21
110.8841196420582
 31
0.0
  0
LINE
  5
92B8
  8
AM_0
 10
428.7260184439142
 20
110.8841196420582
 30
0.0
 11
428.72401844391408
 21
110.88111964205829
 31
0.0
  0
LINE
  5
92B9
  8
AM_0
 10
428.72401844391408
 20
110.88111964205829
 30
0.0
 11
428.72201844391412
 21
110.8771196420593
 31
0.0
  0
LINE
  5
92BA
  8
AM_0
 10
428.72201844391412
 20
110.8771196420593
 30
0.0
 11
428.71901844391402
 21
110.8731196420583
 31
0.0
  0
LINE
  5
92BB
  8
AM_0
 10
428.71901844391402
 20
110.8731196420583
 30
0.0
 11
428.71701844391401
 21
110.8701196420583
 31
0.0
  0
LINE
  5
92BC
  8
AM_0
 10
428.71701844391401
 20
110.8701196420583
 30
0.0
 11
428.71501844391412
 21
110.86611964205819
 31
0.0
  0
LINE
  5
92BD
  8
AM_0
 10
428.71501844391412
 20
110.86611964205819
 30
0.0
 11
428.71301844391422
 21
110.8621196420583
 31
0.0
  0
LINE
  5
92BE
  8
AM_0
 10
428.71301844391422
 20
110.8621196420583
 30
0.0
 11
428.71101844391433
 21
110.8591196420593
 31
0.0
  0
LINE
  5
92BF
  8
AM_0
 10
428.71101844391433
 20
110.8591196420593
 30
0.0
 11
428.70901844391398
 21
110.8551196420582
 31
0.0
  0
LINE
  5
92C0
  8
AM_0
 10
428.70901844391398
 20
110.8551196420582
 30
0.0
 11
428.70701844391419
 21
110.85111964205841
 31
0.0
  0
LINE
  5
92C1
  8
AM_0
 10
428.70701844391419
 20
110.85111964205841
 30
0.0
 11
428.70401844391421
 21
110.8481196420593
 31
0.0
  0
LINE
  5
92C2
  8
AM_0
 10
428.70401844391421
 20
110.8481196420593
 30
0.0
 11
428.70201844391431
 21
110.8441196420583
 31
0.0
  0
LINE
  5
92C3
  8
AM_0
 10
428.70201844391431
 20
110.8441196420583
 30
0.0
 11
428.70001844391402
 21
110.84011964205931
 31
0.0
  0
LINE
  5
92C4
  8
AM_0
 10
428.70001844391402
 20
110.84011964205931
 30
0.0
 11
428.69801844391401
 21
110.83611964205831
 31
0.0
  0
LINE
  5
92C5
  8
AM_0
 10
428.69801844391401
 20
110.83611964205831
 30
0.0
 11
428.69601844391423
 21
110.8331196420592
 31
0.0
  0
LINE
  5
92C6
  8
AM_0
 10
428.69601844391423
 20
110.8331196420592
 30
0.0
 11
428.69401844391422
 21
110.8291196420584
 31
0.0
  0
LINE
  5
92C7
  8
AM_0
 10
428.69401844391422
 20
110.8291196420584
 30
0.0
 11
428.69201844391432
 21
110.8251196420571
 31
0.0
  0
LINE
  5
92C8
  8
AM_0
 10
428.69201844391432
 20
110.8251196420571
 30
0.0
 11
428.69001844391403
 21
110.8211196420593
 31
0.0
  0
LINE
  5
92C9
  8
AM_0
 10
428.69001844391403
 20
110.8211196420593
 30
0.0
 11
428.68801844391419
 21
110.8171196420582
 31
0.0
  0
LINE
  5
92CA
  8
AM_0
 10
428.68801844391419
 20
110.8171196420582
 30
0.0
 11
428.68701844391421
 21
110.8141196420604
 31
0.0
  0
LINE
  5
92CB
  8
AM_0
 10
428.68701844391421
 20
110.8141196420604
 30
0.0
 11
428.6850184439142
 21
110.81011964205931
 31
0.0
  0
LINE
  5
92CC
  8
AM_0
 10
428.6850184439142
 20
110.81011964205931
 30
0.0
 11
428.68301844391442
 21
110.80611964205831
 31
0.0
  0
LINE
  5
92CD
  8
AM_0
 10
428.68301844391442
 20
110.80611964205831
 30
0.0
 11
428.68101844391401
 21
110.80211964206021
 31
0.0
  0
LINE
  5
92CE
  8
AM_0
 10
428.68101844391401
 20
110.80211964206021
 30
0.0
 11
428.67901844391417
 21
110.7981196420573
 31
0.0
  0
LINE
  5
92CF
  8
AM_0
 10
428.67901844391417
 20
110.7981196420573
 30
0.0
 11
428.67701844391411
 21
110.79411964205831
 31
0.0
  0
LINE
  5
92D0
  8
AM_0
 10
428.67701844391411
 20
110.79411964205831
 30
0.0
 11
428.67601844391419
 21
110.7901196420582
 31
0.0
  0
LINE
  5
92D1
  8
AM_0
 10
428.67601844391419
 20
110.7901196420582
 30
0.0
 11
428.67401844391429
 21
110.7871196420583
 31
0.0
  0
LINE
  5
92D2
  8
AM_0
 10
428.67401844391429
 20
110.7871196420583
 30
0.0
 11
428.672018443914
 21
110.7831196420593
 31
0.0
  0
LINE
  5
92D3
  8
AM_0
 10
428.672018443914
 20
110.7831196420593
 30
0.0
 11
428.6700184439141
 21
110.77911964205821
 31
0.0
  0
LINE
  5
92D4
  8
AM_0
 10
428.6700184439141
 20
110.77911964205821
 30
0.0
 11
428.66901844391418
 21
110.7751196420583
 31
0.0
  0
LINE
  5
92D5
  8
AM_0
 10
428.66901844391418
 20
110.7751196420583
 30
0.0
 11
428.66701844391417
 21
110.7711196420573
 31
0.0
  0
LINE
  5
92D6
  8
AM_0
 10
428.66701844391417
 20
110.7711196420573
 30
0.0
 11
428.66501844391422
 21
110.7671196420583
 31
0.0
  0
LINE
  5
92D7
  8
AM_0
 10
428.66501844391422
 20
110.7671196420583
 30
0.0
 11
428.6640184439143
 21
110.76311964205929
 31
0.0
  0
LINE
  5
92D8
  8
AM_0
 10
428.6640184439143
 20
110.76311964205929
 30
0.0
 11
428.66201844391401
 21
110.7591196420582
 31
0.0
  0
LINE
  5
92D9
  8
AM_0
 10
428.66201844391401
 20
110.7591196420582
 30
0.0
 11
428.66001844391428
 21
110.7551196420593
 31
0.0
  0
LINE
  5
92DA
  8
AM_0
 10
428.66001844391428
 20
110.7551196420593
 30
0.0
 11
428.65901844391402
 21
110.7511196420582
 31
0.0
  0
LINE
  5
92DB
  8
AM_0
 10
428.65901844391402
 20
110.7511196420582
 30
0.0
 11
428.65701844391413
 21
110.7471196420592
 31
0.0
  0
LINE
  5
92DC
  8
AM_0
 10
428.65701844391413
 20
110.7471196420592
 30
0.0
 11
428.65601844391421
 21
110.7431196420584
 31
0.0
  0
LINE
  5
92DD
  8
AM_0
 10
428.65601844391421
 20
110.7431196420584
 30
0.0
 11
428.65401844391431
 21
110.73911964205919
 31
0.0
  0
LINE
  5
92DE
  8
AM_0
 10
428.65401844391431
 20
110.73911964205919
 30
0.0
 11
428.65301844391399
 21
110.73511964205829
 31
0.0
  0
LINE
  5
92DF
  8
AM_0
 10
428.65301844391399
 20
110.73511964205829
 30
0.0
 11
428.65101844391421
 21
110.7311196420591
 31
0.0
  0
LINE
  5
92E0
  8
AM_0
 10
428.65101844391421
 20
110.7311196420591
 30
0.0
 11
428.65001844391293
 21
110.7271196420583
 31
0.0
  0
LINE
  5
92E1
  8
AM_0
 10
428.65001844391293
 20
110.7271196420583
 30
0.0
 11
428.64901844391397
 21
110.7231196420593
 31
0.0
  0
LINE
  5
92E2
  8
AM_0
 10
428.64901844391397
 20
110.7231196420593
 30
0.0
 11
428.64701844391408
 21
110.7191196420592
 31
0.0
  0
LINE
  5
92E3
  8
AM_0
 10
428.64701844391408
 20
110.7191196420592
 30
0.0
 11
428.64601844391427
 21
110.71511964205931
 31
0.0
  0
LINE
  5
92E4
  8
AM_0
 10
428.64601844391427
 20
110.71511964205931
 30
0.0
 11
428.6450184439143
 21
110.71111964205819
 31
0.0
  0
LINE
  5
92E5
  8
AM_0
 10
428.6450184439143
 20
110.71111964205819
 30
0.0
 11
428.643018443914
 21
110.7071196420593
 31
0.0
  0
LINE
  5
92E6
  8
AM_0
 10
428.643018443914
 20
110.7071196420593
 30
0.0
 11
428.64201844391403
 21
110.7031196420582
 31
0.0
  0
LINE
  5
92E7
  8
AM_0
 10
428.64201844391403
 20
110.7031196420582
 30
0.0
 11
428.64101844391399
 21
110.6991196420592
 31
0.0
  0
LINE
  5
92E8
  8
AM_0
 10
428.64101844391399
 20
110.6991196420592
 30
0.0
 11
428.6400184439139
 21
110.69411964205931
 31
0.0
  0
LINE
  5
92E9
  8
AM_0
 10
428.6400184439139
 20
110.69411964205931
 30
0.0
 11
428.63901844391421
 21
110.69011964205831
 31
0.0
  0
LINE
  5
92EA
  8
AM_0
 10
428.63901844391421
 20
110.69011964205831
 30
0.0
 11
428.63701844391409
 21
110.6861196420584
 31
0.0
  0
LINE
  5
92EB
  8
AM_0
 10
428.63701844391409
 20
110.6861196420584
 30
0.0
 11
428.63601844391428
 21
110.6821196420582
 31
0.0
  0
LINE
  5
92EC
  8
AM_0
 10
428.63601844391428
 20
110.6821196420582
 30
0.0
 11
428.63501844391408
 21
110.67811964205841
 31
0.0
  0
LINE
  5
92ED
  8
AM_0
 10
428.63501844391408
 20
110.67811964205841
 30
0.0
 11
428.63401844391427
 21
110.6741196420591
 31
0.0
  0
LINE
  5
92EE
  8
AM_0
 10
428.63401844391427
 20
110.6741196420591
 30
0.0
 11
428.6330184439139
 21
110.6701196420583
 31
0.0
  0
LINE
  5
92EF
  8
AM_0
 10
428.6330184439139
 20
110.6701196420583
 30
0.0
 11
428.63201844391398
 21
110.6661196420593
 31
0.0
  0
LINE
  5
92F0
  8
AM_0
 10
428.63201844391398
 20
110.6661196420593
 30
0.0
 11
428.63101844391298
 21
110.66111964205921
 31
0.0
  0
LINE
  5
92F1
  8
AM_0
 10
428.63101844391298
 20
110.66111964205921
 30
0.0
 11
428.63001844391403
 21
110.6571196420593
 31
0.0
  0
LINE
  5
92F2
  8
AM_0
 10
428.63001844391403
 20
110.6571196420593
 30
0.0
 11
428.62901844391428
 21
110.65311964205731
 31
0.0
  0
LINE
  5
92F3
  8
AM_0
 10
428.62901844391428
 20
110.65311964205731
 30
0.0
 11
428.62801844391407
 21
110.6491196420604
 31
0.0
  0
LINE
  5
92F4
  8
AM_0
 10
428.62801844391407
 20
110.6491196420604
 30
0.0
 11
428.62701844391432
 21
110.64511964205821
 31
0.0
  0
LINE
  5
92F5
  8
AM_0
 10
428.62701844391432
 20
110.64511964205821
 30
0.0
 11
428.62601844391412
 21
110.6411196420583
 31
0.0
  0
LINE
  5
92F6
  8
AM_0
 10
428.62601844391412
 20
110.6411196420583
 30
0.0
 11
428.62601844391412
 21
110.6361196420582
 31
0.0
  0
LINE
  5
92F7
  8
AM_0
 10
428.62601844391412
 20
110.6361196420582
 30
0.0
 11
428.6250184439142
 21
110.6321196420583
 31
0.0
  0
LINE
  5
92F8
  8
AM_0
 10
428.6250184439142
 20
110.6321196420583
 30
0.0
 11
428.624018443914
 21
110.62811964205839
 31
0.0
  0
LINE
  5
92F9
  8
AM_0
 10
428.624018443914
 20
110.62811964205839
 30
0.0
 11
428.62301844391112
 21
110.6241196420583
 31
0.0
  0
LINE
  5
92FA
  8
AM_0
 10
428.62301844391112
 20
110.6241196420583
 30
0.0
 11
428.6220184439141
 21
110.62011964205929
 31
0.0
  0
LINE
  5
92FB
  8
AM_0
 10
428.6220184439141
 20
110.62011964205929
 30
0.0
 11
428.6220184439141
 21
110.6151196420583
 31
0.0
  0
LINE
  5
92FC
  8
AM_0
 10
428.6220184439141
 20
110.6151196420583
 30
0.0
 11
428.62101844391401
 21
110.6111196420604
 31
0.0
  0
LINE
  5
92FD
  8
AM_0
 10
428.62101844391401
 20
110.6111196420604
 30
0.0
 11
428.6200184439142
 21
110.60711964205819
 31
0.0
  0
LINE
  5
92FE
  8
AM_0
 10
428.6200184439142
 20
110.60711964205819
 30
0.0
 11
428.6200184439142
 21
110.6031196420583
 31
0.0
  0
LINE
  5
92FF
  8
AM_0
 10
428.6200184439142
 20
110.6031196420583
 30
0.0
 11
428.61901844391411
 21
110.5981196420593
 31
0.0
  0
LINE
  5
9300
  8
AM_0
 10
428.61901844391411
 20
110.5981196420593
 30
0.0
 11
428.6180184439142
 21
110.5941196420592
 31
0.0
  0
LINE
  5
9301
  8
AM_0
 10
428.6180184439142
 20
110.5941196420592
 30
0.0
 11
428.6180184439142
 21
110.5901196420584
 31
0.0
  0
LINE
  5
9302
  8
AM_0
 10
428.6180184439142
 20
110.5901196420584
 30
0.0
 11
428.61701844391422
 21
110.5861196420591
 31
0.0
  0
LINE
  5
9303
  8
AM_0
 10
428.61701844391422
 20
110.5861196420591
 30
0.0
 11
428.61701844391422
 21
110.58111964205931
 31
0.0
  0
LINE
  5
9304
  8
AM_0
 10
428.61701844391422
 20
110.58111964205931
 30
0.0
 11
428.61601844391407
 21
110.5771196420573
 31
0.0
  0
LINE
  5
9305
  8
AM_0
 10
428.61601844391407
 20
110.5771196420573
 30
0.0
 11
428.61601844391407
 21
110.5731196420604
 31
0.0
  0
LINE
  5
9306
  8
AM_0
 10
428.61601844391407
 20
110.5731196420604
 30
0.0
 11
428.61501844391432
 21
110.56911964205931
 31
0.0
  0
LINE
  5
9307
  8
AM_0
 10
428.61501844391432
 20
110.56911964205931
 30
0.0
 11
428.61501844391432
 21
110.5641196420583
 31
0.0
  0
LINE
  5
9308
  8
AM_0
 10
428.61501844391432
 20
110.5641196420583
 30
0.0
 11
428.61501844391432
 21
110.56011964205931
 31
0.0
  0
LINE
  5
9309
  8
AM_0
 10
428.61501844391432
 20
110.56011964205931
 30
0.0
 11
428.61401844391401
 21
110.55611964205831
 31
0.0
  0
LINE
  5
930A
  8
AM_0
 10
428.61401844391401
 20
110.55611964205831
 30
0.0
 11
428.61401844391401
 21
110.5521196420584
 31
0.0
  0
LINE
  5
930B
  8
AM_0
 10
428.61401844391401
 20
110.5521196420584
 30
0.0
 11
428.61401844391401
 21
110.5471196420592
 31
0.0
  0
LINE
  5
930C
  8
AM_0
 10
428.61401844391401
 20
110.5471196420592
 30
0.0
 11
428.61401844391401
 21
110.5431196420584
 31
0.0
  0
LINE
  5
930D
  8
AM_0
 10
428.61401844391401
 20
110.5431196420584
 30
0.0
 11
428.61301844391397
 21
110.5391196420582
 31
0.0
  0
LINE
  5
930E
  8
AM_0
 10
428.61301844391397
 20
110.5391196420582
 30
0.0
 11
428.61301844391397
 21
110.53511964205831
 31
0.0
  0
LINE
  5
930F
  8
AM_0
 10
428.61301844391397
 20
110.53511964205831
 30
0.0
 11
428.61301844391397
 21
110.5301196420582
 31
0.0
  0
LINE
  5
9310
  8
AM_0
 10
428.61301844391397
 20
110.5301196420582
 30
0.0
 11
428.61301844391397
 21
110.5261196420572
 31
0.0
  0
LINE
  5
9311
  8
AM_0
 10
428.61301844391397
 20
110.5261196420572
 30
0.0
 11
428.61301844391397
 21
110.52211964205929
 31
0.0
  0
LINE
  5
9312
  8
AM_0
 10
428.61301844391397
 20
110.52211964205929
 30
0.0
 11
428.61301844391397
 21
110.5171196420571
 31
0.0
  0
LINE
  5
9313
  8
AM_0
 10
428.61301844391397
 20
110.5171196420571
 30
0.0
 11
428.61301844391397
 21
110.51311964205929
 31
0.0
  0
LINE
  5
9314
  8
AM_0
 10
428.61301844391397
 20
110.51311964205929
 30
0.0
 11
428.61301844391397
 21
110.5091196420592
 31
0.0
  0
LINE
  5
9315
  8
AM_0
 10
428.61301844391397
 20
110.5091196420592
 30
0.0
 11
428.61301844391397
 21
110.5051196420592
 31
0.0
  0
LINE
  5
9316
  8
AM_0
 10
428.61301844391397
 20
110.5051196420592
 30
0.0
 11
428.61301844391397
 21
110.50011964205819
 31
0.0
  0
LINE
  5
9317
  8
AM_0
 10
428.61301844391397
 20
110.50011964205819
 30
0.0
 11
428.61401844391401
 21
110.4961196420592
 31
0.0
  0
LINE
  5
9318
  8
AM_0
 10
428.61401844391401
 20
110.4961196420592
 30
0.0
 11
428.61401844391401
 21
110.49211964205929
 31
0.0
  0
LINE
  5
9319
  8
AM_0
 10
428.61401844391401
 20
110.49211964205929
 30
0.0
 11
428.61401844391401
 21
110.48811964205829
 31
0.0
  0
LINE
  5
931A
  8
AM_0
 10
428.61401844391401
 20
110.48811964205829
 30
0.0
 11
428.61401844391401
 21
110.48311964205929
 31
0.0
  0
LINE
  5
931B
  8
AM_0
 10
428.61401844391401
 20
110.48311964205929
 30
0.0
 11
428.61501844391432
 21
110.47911964205819
 31
0.0
  0
LINE
  5
931C
  8
AM_0
 10
428.61501844391432
 20
110.47911964205819
 30
0.0
 11
428.61501844391432
 21
110.4751196420593
 31
0.0
  0
LINE
  5
931D
  8
AM_0
 10
428.61501844391432
 20
110.4751196420593
 30
0.0
 11
428.61501844391432
 21
110.4711196420582
 31
0.0
  0
LINE
  5
931E
  8
AM_0
 10
428.61501844391432
 20
110.4711196420582
 30
0.0
 11
428.61601844391407
 21
110.4661196420593
 31
0.0
  0
LINE
  5
931F
  8
AM_0
 10
428.61601844391407
 20
110.4661196420593
 30
0.0
 11
428.61601844391407
 21
110.4621196420582
 31
0.0
  0
LINE
  5
9320
  8
AM_0
 10
428.61601844391407
 20
110.4621196420582
 30
0.0
 11
428.61601844391407
 21
110.4581196420592
 31
0.0
  0
LINE
  5
9321
  8
AM_0
 10
428.61601844391407
 20
110.4581196420592
 30
0.0
 11
428.61701844391422
 21
110.45411964205729
 31
0.0
  0
LINE
  5
9322
  8
AM_0
 10
428.61701844391422
 20
110.45411964205729
 30
0.0
 11
428.61701844391422
 21
110.44911964205831
 31
0.0
  0
LINE
  5
9323
  8
AM_0
 10
428.61701844391422
 20
110.44911964205831
 30
0.0
 11
428.6180184439142
 21
110.4451196420592
 31
0.0
  0
LINE
  5
9324
  8
AM_0
 10
428.6180184439142
 20
110.4451196420592
 30
0.0
 11
428.6180184439142
 21
110.4411196420583
 31
0.0
  0
LINE
  5
9325
  8
AM_0
 10
428.6180184439142
 20
110.4411196420583
 30
0.0
 11
428.61901844391411
 21
110.4371196420593
 31
0.0
  0
LINE
  5
9326
  8
AM_0
 10
428.61901844391411
 20
110.4371196420593
 30
0.0
 11
428.61901844391411
 21
110.43211964205921
 31
0.0
  0
LINE
  5
9327
  8
AM_0
 10
428.61901844391411
 20
110.43211964205921
 30
0.0
 11
428.6200184439142
 21
110.4281196420613
 31
0.0
  0
LINE
  5
9328
  8
AM_0
 10
428.6200184439142
 20
110.4281196420613
 30
0.0
 11
428.6200184439142
 21
110.4241196420582
 31
0.0
  0
LINE
  5
9329
  8
AM_0
 10
428.6200184439142
 20
110.4241196420582
 30
0.0
 11
428.62101844391401
 21
110.4201196420603
 31
0.0
  0
LINE
  5
932A
  8
AM_0
 10
428.62101844391401
 20
110.4201196420603
 30
0.0
 11
428.62101844391401
 21
110.4151196420582
 31
0.0
  0
LINE
  5
932B
  8
AM_0
 10
428.62101844391401
 20
110.4151196420582
 30
0.0
 11
428.6220184439141
 21
110.4111196420583
 31
0.0
  0
LINE
  5
932C
  8
AM_0
 10
428.6220184439141
 20
110.4111196420583
 30
0.0
 11
428.6220184439141
 21
110.4071196420593
 31
0.0
  0
LINE
  5
932D
  8
AM_0
 10
428.6220184439141
 20
110.4071196420593
 30
0.0
 11
428.62301844391112
 21
110.4031196420583
 31
0.0
  0
LINE
  5
9334
  8
AM_0
 10
12.965399354240381
 20
56.462748839015362
 30
0.0
 11
12.965399354240381
 21
122.6627348390152
 31
0.0
  0
LINE
  5
9335
  8
AM_0
 10
15.465389354243371
 20
64.15275383901529
 30
0.0
 11
15.465389354243371
 21
145.1327798390152
 31
0.0
  0
LINE
  5
9336
  8
AM_0
 10
62.96540935424332
 20
145.1327798390152
 30
0.0
 11
62.96540935424332
 21
31.132761839015298
 31
0.0
  0
ARC
  5
9337
  8
AM_0
 10
6.675779354243331
 20
38.831706839016299
 30
0.0
 40
0.30119199
 50
5.9148297999953741
 51
88.175986999993896
  0
ARC
  5
9338
  8
AM_0
 10
6.677249354243485
 20
38.830410839015258
 30
0.0
 40
0.8023920299999998
 50
5.890834999993567
 51
89.417558000000042
  0
LINE
  5
9339
  8
AM_0
 10
6.4653893542424612
 20
39.632748839015207
 30
0.0
 11
6.4653893542424612
 21
39.132762839015172
 31
0.0
  0
LINE
  5
933A
  8
AM_0
 10
6.4653893542424612
 20
39.632748839015207
 30
0.0
 11
6.6854393542423614
 21
39.632748839015207
 31
0.0
  0
LINE
  5
933B
  8
AM_0
 10
22.045409354242562
 20
84.412761839016369
 30
0.0
 11
7.5854093542425272
 21
39.902751839016439
 31
0.0
  0
LINE
  5
933C
  8
AM_0
 10
26.805359354242452
 20
82.872753839015331
 30
0.0
 11
12.345419354241351
 21
38.362758839015207
 31
0.0
  0
LINE
  5
933D
  8
AM_0
 10
15.465389354243371
 20
44.242749839015218
 30
0.0
 11
62.96540935424332
 21
44.242749839015218
 31
0.0
  0
LINE
  5
933E
  8
AM_0
 10
14.96540935424332
 20
31.132761839015298
 30
0.0
 11
62.96540935424332
 21
31.132761839015298
 31
0.0
  0
ARC
  5
933F
  8
AM_0
 10
9.9653993542424342
 20
39.132762839015172
 30
0.0
 40
2.5014601500000002
 50
162.0720800000052
 51
342.07206999999983
  0
LINE
  5
9340
  8
AM_0
 10
12.965399354240381
 20
40.282755839015408
 30
0.0
 11
12.965399354240381
 21
33.132762839015172
 31
0.0
  0
ARC
  5
9341
  8
AM_0
 10
9.9643493542423585
 20
39.131220839015221
 30
0.0
 40
3.001016099999998
 50
185.13260000000469
 51
0.0291460010064207
  0
ARC
  5
9342
  8
AM_0
 10
14.963129354241341
 20
33.130443839015243
 30
0.0
 40
1.9976960999999991
 50
179.9338299999965
 51
270.06616999999039
  0
ARC
  5
9343
  8
AM_0
 10
13.01411935424243
 20
50.632671839015302
 30
0.0
 40
4.0507442999999981
 50
99.071790999992402
 51
224.91233999999801
  0
LINE
  5
9344
  8
AM_0
 10
15.465389354243371
 20
47.972745839015253
 30
0.0
 11
15.465389354243371
 21
31.132761839015298
 31
0.0
  0
LINE
  5
9345
  8
AM_0
 10
57.965399354242422
 20
44.242749839015218
 30
0.0
 11
57.965399354242422
 21
31.132761839015298
 31
0.0
  0
ARC
  5
9346
  8
AM_0
 10
45.964919354241367
 20
88.132551839015349
 30
0.0
 40
8.000195699999999
 50
89.996300999997729
 51
161.78902999999599
  0
ARC
  5
9347
  8
AM_0
 10
45.962969354240379
 20
88.130322839015179
 30
0.0
 40
7.9975721999999978
 50
198.1973500000002
 51
270.0173099999991
  0
LINE
  5
9348
  8
AM_0
 10
30.615359354241491
 20
90.632733839016296
 30
0.0
 11
40.465409354241487
 21
90.632733839016296
 31
0.0
  0
LINE
  5
9349
  8
AM_0
 10
30.615359354241491
 20
85.632765839015292
 30
0.0
 11
40.465409354241487
 21
85.632765839015292
 31
0.0
  0
ARC
  5
934A
  8
AM_0
 10
30.613169354243379
 20
81.635664839015362
 30
0.0
 40
8.9970875999999986
 50
89.985774999998554
 51
162.0211999999965
  0
ARC
  5
934B
  8
AM_0
 10
30.608639354242541
 20
81.632367839015359
 30
0.0
 40
4.0003919999999971
 50
89.903055000004429
 51
161.93678999999389
  0
LINE
  5
934C
  8
ﾁｭｳｼﾝｾﾝ
 10
45.965399354242408
 20
75.922766839014344
 30
0.0
 11
45.965399354242408
 21
100.3427628390164
 31
0.0
  0
LINE
  5
934D
  8
AM_0
 10
45.965399354242408
 20
80.132733839015373
 30
0.0
 11
62.96540935424332
 21
80.132733839015373
 31
0.0
  0
LINE
  5
934E
  8
AM_0
 10
45.965399354242408
 20
96.132765839015306
 30
0.0
 11
62.96540935424332
 21
96.132765839015306
 31
0.0
  0
ARC
  5
934F
  8
AM_0
 10
45.965399354242408
 20
88.130751839015375
 30
0.0
 40
4.998440399999998
 50
23.610999000005759
 51
156.3889999999968
  0
ARC
  5
9350
  8
AM_0
 10
45.965399354242408
 20
88.130751839015375
 30
0.0
 40
4.9968401999999967
 50
203.56898000000169
 51
336.43101999999811
  0
LINE
  5
9351
  8
AM_0
 10
40.465409354241487
 20
90.132765839015264
 30
0.0
 11
51.465389354240401
 21
90.132765839015264
 31
0.0
  0
LINE
  5
9352
  8
AM_0
 10
40.465409354241487
 20
86.132733839016311
 30
0.0
 11
51.465389354240401
 21
86.132733839016311
 31
0.0
  0
LINE
  5
9353
  8
AM_0
 10
40.465409354241487
 20
85.632765839015292
 30
0.0
 11
40.465409354241487
 21
90.632733839016296
 31
0.0
  0
LINE
  5
9354
  8
AM_0
 10
53.965409354242411
 20
85.632765839015292
 30
0.0
 11
53.965409354242411
 21
90.632733839016296
 31
0.0
  0
LINE
  5
9355
  8
AM_0
 10
51.465389354240401
 20
85.632765839015292
 30
0.0
 11
51.465389354240401
 21
90.632733839016296
 31
0.0
  0
LINE
  5
9356
  8
AM_0
 10
51.465389354240401
 20
90.632733839016296
 30
0.0
 11
53.965409354242411
 21
90.632733839016296
 31
0.0
  0
LINE
  5
9357
  8
AM_0
 10
51.465389354240401
 20
85.632765839015292
 30
0.0
 11
53.965409354242411
 21
85.632765839015292
 31
0.0
  0
LINE
  5
9358
  8
AM_0
 10
15.465389354243371
 20
132.0227498390152
 30
0.0
 11
62.96540935424332
 21
132.0227498390152
 31
0.0
  0
LINE
  5
9359
  8
AM_0
 10
15.465389354243371
 20
121.77274883901531
 30
0.0
 11
57.965399354242422
 21
121.77274883901531
 31
0.0
  0
LINE
  5
935A
  8
AM_0
 10
14.96540935424332
 20
145.1327798390152
 30
0.0
 11
62.96540935424332
 21
145.1327798390152
 31
0.0
  0
LINE
  5
935B
  8
AM_0
 10
14.16539935424248
 20
122.4227738390163
 30
0.0
 11
14.16539935424248
 21
131.62275983901529
 31
0.0
  0
LINE
  5
935C
  8
AM_0
 10
10.86542935424244
 20
125.5227398390152
 30
0.0
 11
10.86542935424244
 21
128.5227398390152
 31
0.0
  0
LINE
  5
935D
  8
AM_0
 10
14.16539935424248
 20
122.4227738390163
 30
0.0
 11
15.465389354243371
 21
122.4227738390163
 31
0.0
  0
ARC
  5
935E
  8
AM_0
 10
13.86107935424252
 20
125.5229198390152
 30
0.0
 40
2.9956880400000001
 50
180.00364000000391
 51
275.83036999999598
  0
LINE
  5
935F
  8
AM_0
 10
12.965399354240381
 20
131.39274983901521
 30
0.0
 11
12.965399354240381
 21
143.13273983901621
 31
0.0
  0
LINE
  5
9360
  8
AM_0
 10
14.16539935424248
 20
131.62275983901529
 30
0.0
 11
15.465389354243371
 21
131.62275983901529
 31
0.0
  0
ARC
  5
9361
  8
AM_0
 10
13.86707935424055
 20
128.52594983901531
 30
0.0
 40
3.0016479
 50
84.295612999996621
 51
180.06134999999779
  0
ARC
  5
9362
  8
AM_0
 10
14.96489935424256
 20
143.13324983901521
 30
0.0
 40
1.9994960399999999
 50
89.98554300000437
 51
180.01446000000641
  0
LINE
  5
9363
  8
AM_0
 10
57.965399354242422
 20
96.132765839015306
 30
0.0
 11
57.965399354242422
 21
145.1327798390152
 31
0.0
  0
LINE
  5
9366
  8
ﾁｭｳｼﾝｾﾝ
 10
484.18616344338221
 20
88.132764839015394
 30
0.0
 11
581.03996757459026
 21
88.132764839015394
 31
0.0
  0
LINE
  5
9368
  8
ﾁｭｳｼﾝｾﾝ
 10
465.0843379588531
 20
178.86142854043419
 30
0.0
 11
448.11377653905691
 21
195.8319926175443
 31
0.0
  0
ARC
  5
9369
  8
ﾁｭｳｼﾝｾﾝ
 10
532.61306550898632
 20
111.3327458390163
 30
0.0
 40
107.50001099999869
 50
128.60087298774761
 51
141.39913831854909
  0
LINE
  5
936A
  8
ﾁｭｳｼﾝｾﾝ
 10
465.08438280756798
 20
43.804018288883171
 30
0.0
 11
448.11381873045809
 21
26.83345686908703
 31
0.0
  0
ARC
  5
936B
  8
ﾁｭｳｼﾝｾﾝ
 10
532.6130655089861
 20
111.3327458390163
 30
0.0
 40
107.50001099999869
 50
218.60087298774761
 51
231.39913831854909
  0
LINE
  5
936C
  8
ﾁｭｳｼﾝｾﾝ
 10
600.14179305911921
 20
43.80406313759817
 30
0.0
 11
617.11235447891545
 21
26.83349906048818
 31
0.0
  0
ARC
  5
936D
  8
ﾁｭｳｼﾝｾﾝ
 10
532.61306550898632
 20
111.3327458390162
 30
0.0
 40
107.50001099999869
 50
308.60087298774761
 51
321.39913831854892
  0
LINE
  5
9599
  8
AM_0
 10
319.46532935424318
 20
367.48526186974328
 30
0.0
 11
351.46532935424329
 21
367.48526186974328
 31
0.0
  0
LINE
  5
959A
  8
AM_0
 10
309.46535935424322
 20
349.4852618697434
 30
0.0
 11
351.46532935424329
 21
349.4852618697434
 31
0.0
  0
LINE
  5
959B
  8
AM_0
 10
309.46535935424322
 20
377.48526186974328
 30
0.0
 11
351.46532935424329
 21
377.48526186974328
 31
0.0
  0
LINE
  5
959C
  8
AM_0
 10
319.46532935424318
 20
359.4852618697434
 30
0.0
 11
351.46532935424329
 21
359.4852618697434
 31
0.0
  0
LINE
  5
959D
  8
ﾁｭｳｼﾝｾﾝ
 10
2.1591179023109799
 20
363.48526186974328
 30
0.0
 11
356.59959912292737
 21
363.48526186974328
 31
0.0
  0
POLYLINE
  5
96ED
  8
AM_0
 66
     1
 10
0.0
 20
0.0
 30
0.0
  0
VERTEX
  5
96EE
  8
AM_0
 10
292.37840935424322
 20
447.89825186974332
 30
0.0
 42
0.081985852
  0
VERTEX
  5
96EF
  8
AM_0
 10
270.26252935424333
 20
392.98657186974322
 30
0.0
 42
0.10914194
  0
VERTEX
  5
96F0
  8
AM_0
 10
270.26260935424352
 20
333.98356186974331
 30
0.0
 42
0.081985219
  0
VERTEX
  5
96F1
  8
AM_0
 10
292.37840935424322
 20
279.07227186974342
 30
0.0
  0
SEQEND
  5
96F2
  8
AM_0
  0
ARC
  5
96F3
  8
AM_0
 10
319.46532935424318
 20
363.48526186974328
 30
0.0
 40
3.9999962
 50
90.000003000000945
 51
270.0
  0
LINE
  5
96F4
  8
AM_0
 10
319.46532935424318
 20
367.48526186974328
 30
0.0
 11
319.46532935424318
 21
359.4852618697434
 31
0.0
  0
LINE
  5
96F5
  8
AM_0
 10
305.46535935424322
 20
270.98526186974351
 30
0.0
 11
305.46535935424322
 21
455.98526186974328
 31
0.0
  0
LINE
  5
96F6
  8
AM_0
 10
299.46535935424322
 20
292.9852618697434
 30
0.0
 11
299.46535935424322
 21
433.65756186974318
 31
0.0
  0
LINE
  5
96F7
  8
AM_0
 10
295.46535935424322
 20
273.26587186974342
 30
0.0
 11
295.46535935424322
 21
453.7046518697432
 31
0.0
  0
LINE
  5
96F8
  8
AM_0
 10
309.46538935424331
 20
448.48526186974328
 30
0.0
 11
309.46538935424331
 21
278.4852618697434
 31
0.0
  0
LINE
  5
96FB
  8
AM_0
 10
186.9653593542433
 20
307.4852618697434
 30
0.0
 11
186.9653593542433
 21
419.48526186974328
 31
0.0
  0
LINE
  5
96FC
  8
AM_0
 10
223.46532935424349
 20
292.39511186974318
 30
0.0
 11
223.46532935424349
 21
434.57541186974322
 31
0.0
  0
LINE
  5
96FD
  8
AM_0
 10
216.4653593542433
 20
284.62027186974319
 30
0.0
 11
216.4653593542433
 21
442.3502518697432
 31
0.0
  0
LINE
  5
96FE
  8
AM_0
 10
230.4653593542433
 20
281.23431186974329
 30
0.0
 11
230.4653593542433
 21
445.73621186974322
 31
0.0
  0
LINE
  5
96FF
  8
AM_0
 10
206.5548093542433
 20
331.54825186974341
 30
0.0
 11
206.5548093542433
 21
395.42227186974333
 31
0.0
  0
LINE
  5
9700
  8
AM_0
 10
290.4100593542434
 20
279.14099186974329
 30
0.0
 11
230.4653593542433
 21
281.23431186974329
 31
0.0
  0
ARC
  5
9701
  8
AM_0
 10
219.46535935424339
 20
284.62027186974319
 30
0.0
 40
3.0
 50
180.00001000000091
 51
267.9999999999996
  0
LINE
  5
9728
  8
AM_0
 10
230.4653593542433
 20
281.23431186974329
 30
0.0
 11
219.36064935424329
 21
281.62210186974329
 31
0.0
  0
LINE
  5
9768
  8
AM_0
 10
206.5548093542433
 20
331.54822186974337
 30
0.0
 11
214.24397935424329
 21
320.6373018697434
 31
0.0
  0
LINE
  5
9769
  8
AM_0
 10
207.87361935424329
 20
305.69455186974341
 30
0.0
 11
214.67928935424331
 21
299.98392186974309
 31
0.0
  0
LINE
  5
976A
  8
AM_0
 10
186.9653593542433
 20
317.4852618697434
 30
0.0
 11
212.60915935424339
 21
317.4852618697434
 31
0.0
  0
LINE
  5
976B
  8
AM_0
 10
204.83422935424349
 20
306.86127186974329
 30
0.0
 11
186.9653593542433
 21
307.4852618697434
 31
0.0
  0
LINE
  5
976C
  8
AM_0
 10
206.5548093542433
 20
306.49124186974342
 30
0.0
 11
206.5548093542433
 21
317.4852618697434
 31
0.0
  0
ARC
  5
976D
  8
AM_0
 10
204.6597293542433
 20
301.86432186974338
 30
0.0
 40
5.0
 50
49.99999699999762
 51
87.999999999999659
  0
ARC
  5
976E
  8
AM_0
 10
211.46532935424341
 20
296.15372186974338
 30
0.0
 40
5.0
 50
0.0
 51
49.999999999999908
  0
LINE
  5
976F
  8
AM_0
 10
216.4653593542433
 20
304.17676186974342
 30
0.0
 11
223.46532935424349
 21
304.17676186974342
 31
0.0
  0
ARC
  5
9770
  8
AM_0
 10
212.60915935424339
 20
319.4852618697434
 30
0.0
 40
2.0
 50
269.999989999999
 51
35.173260999998369
  0
LINE
  5
9771
  8
AM_0
 10
186.9653593542433
 20
331.54825186974341
 30
0.0
 11
206.5548093542433
 21
331.54825186974341
 31
0.0
  0
LINE
  5
9772
  8
AM_0
 10
297.39556935424321
 20
271.26706186974337
 30
0.0
 11
305.46532935424329
 21
270.98526186974351
 31
0.0
  0
ARC
  5
9773
  8
AM_0
 10
297.4653893542432
 20
273.26587186974342
 30
0.0
 40
2.0
 50
179.99998999999889
 51
268.00000999999861
  0
ARC
  5
9774
  8
AM_0
 10
290.23555935424321
 20
274.14404186974338
 30
0.0
 40
5.0
 50
45.000000999999187
 51
87.999999999999659
  0
LINE
  5
9775
  8
AM_0
 10
293.77107935424323
 20
277.67960186974329
 30
0.0
 11
295.4653893542432
 21
275.98529186974332
 31
0.0
  0
LINE
  5
9776
  8
AM_0
 10
305.46535935424322
 20
278.4852618697434
 30
0.0
 11
309.46538935424331
 21
278.4852618697434
 31
0.0
  0
ARC
  5
9778
  8
AM_0
 10
296.46535935424339
 20
293.31296186974339
 30
0.0
 40
3.0
 50
267.9999999999996
 51
0.0
  0
ARC
  5
9779
  8
AM_0
 10
298.46535935424339
 20
312.36002186974321
 30
0.0
 40
3.0
 50
90.000003000000945
 51
180.00001000000091
  0
LINE
  5
977A
  8
AM_0
 10
290.4100593542434
 20
447.8295018697433
 30
0.0
 11
230.4653593542433
 21
445.73621186974322
 31
0.0
  0
LINE
  5
97A1
  8
AM_0
 10
214.24397935424329
 20
406.33316186974321
 30
0.0
 11
206.5548093542433
 21
395.42227186974333
 31
0.0
  0
LINE
  5
97A2
  8
AM_0
 10
186.9653593542433
 20
395.42227186974333
 30
0.0
 11
206.5548093542433
 21
395.42227186974333
 31
0.0
  0
LINE
  5
97A3
  8
AM_0
 10
207.8736493542435
 20
421.27597186974327
 30
0.0
 11
214.6792593542433
 21
426.98657186974327
 31
0.0
  0
LINE
  5
97A4
  8
AM_0
 10
186.9653593542433
 20
409.48526186974328
 30
0.0
 11
212.60915935424339
 21
409.48526186974328
 31
0.0
  0
ARC
  5
97A5
  8
AM_0
 10
204.6596993542432
 20
425.1062018697433
 30
0.0
 40
5.0
 50
272.0000000000004
 51
310.0
  0
LINE
  5
97A6
  8
AM_0
 10
204.83418935424339
 20
420.10925186974328
 30
0.0
 11
186.9653593542433
 21
419.48526186974328
 31
0.0
  0
LINE
  5
97A7
  8
AM_0
 10
206.5548093542433
 20
409.48526186974328
 30
0.0
 11
206.5548093542433
 21
420.47928186974332
 31
0.0
  0
ARC
  5
97A8
  8
AM_0
 10
212.60915935424339
 20
407.48526186974323
 30
0.0
 40
2.0
 50
324.82673000000062
 51
90.000003000000945
  0
ARC
  5
97A9
  8
AM_0
 10
211.46532935424341
 20
430.81680186974341
 30
0.0
 40
5.0
 50
310.0
 51
0.0
  0
LINE
  5
97AA
  8
AM_0
 10
216.4653593542433
 20
422.79376186974321
 30
0.0
 11
223.46532935424349
 21
422.79376186974321
 31
0.0
  0
LINE
  5
97AB
  8
AM_0
 10
230.46532935424349
 20
445.73621186974322
 30
0.0
 11
219.36064935424329
 21
445.34842186974328
 31
0.0
  0
ARC
  5
97AC
  8
AM_0
 10
219.46535935424339
 20
442.3502518697432
 30
0.0
 40
3.0
 50
91.999998000000545
 51
180.00001000000091
  0
ARC
  5
97AD
  8
AM_0
 10
298.46535935424339
 20
414.6105018697433
 30
0.0
 40
3.0
 50
179.99998999999889
 51
270.0
  0
ARC
  5
97AF
  8
AM_0
 10
296.46535935424339
 20
433.65756186974318
 30
0.0
 40
3.0
 50
0.0
 51
91.999998000000545
  0
LINE
  5
97B0
  8
AM_0
 10
297.39559935424319
 20
455.70346186974319
 30
0.0
 11
305.46535935424322
 21
455.98526186974328
 31
0.0
  0
LINE
  5
97B1
  8
AM_0
 10
293.77107935424323
 20
449.2909518697432
 30
0.0
 11
295.4653893542432
 21
450.9852318697433
 31
0.0
  0
ARC
  5
97B2
  8
AM_0
 10
290.23555935424321
 20
452.8264818697433
 30
0.0
 40
5.0
 50
272.0000000000004
 51
315.0
  0
ARC
  5
97B3
  8
AM_0
 10
297.4653893542432
 20
453.7046518697432
 30
0.0
 40
2.0
 50
91.999998000000545
 51
180.00001000000091
  0
LINE
  5
97B4
  8
AM_0
 10
305.46535935424322
 20
448.48526186974328
 30
0.0
 11
309.46538935424331
 21
448.48526186974328
 31
0.0
  0
LINE
  5
97B5
  8
AM_0
 10
351.46532935424329
 20
377.48526186974328
 30
0.0
 11
351.46532935424329
 21
349.4852618697434
 31
0.0
  0
LINE
  5
9980
  8
AM_0
 10
101.8675217858223
 20
293.98526186974351
 30
0.0
 11
102.8675217858223
 21
293.98526186974351
 31
0.0
  0
LINE
  5
9981
  8
AM_0
 10
161.4653593542433
 20
296.48526186974351
 30
0.0
 11
94.465359354243404
 21
296.48526186974351
 31
0.0
  0
LINE
  5
9982
  8
AM_0
 10
72.425379354243375
 20
387.04532186974342
 30
0.0
 11
175.9995993542434
 21
387.04532186974342
 31
0.0
  0
LINE
  5
9983
  8
AM_0
 10
72.645349354243351
 20
400.20523186974361
 30
0.0
 11
175.7853693542433
 21
400.20523186974361
 31
0.0
  0
LINE
  5
9984
  8
AM_0
 10
72.425379354243375
 20
339.92520186974338
 30
0.0
 11
175.9995993542434
 21
339.92520186974338
 31
0.0
  0
LINE
  5
9985
  8
AM_0
 10
157.6932169226632
 20
272.98526186974351
 30
0.0
 11
81.393216922663328
 21
259.98526186974351
 31
0.0
  0
LINE
  5
9986
  8
AM_0
 10
156.8675217858233
 20
259.98526186974351
 30
0.0
 11
81.393216922663328
 21
259.98526186974351
 31
0.0
  0
LINE
  5
9987
  8
AM_0
 10
81.06752178582235
 20
263.98526186974351
 30
0.0
 11
157.3675217858223
 21
276.98526186974351
 31
0.0
  0
LINE
  5
9988
  8
AM_0
 10
81.06752178582235
 20
263.98526186974351
 30
0.0
 11
157.3675217858223
 21
276.98526186974351
 31
0.0
  0
LINE
  5
9989
  8
AM_0
 10
80.986098001611253
 20
264.98526186974351
 30
0.0
 11
112.9641677403433
 21
270.43368790648759
 31
0.0
  0
ARC
  5
998A
  8
AM_0
 10
93.56752178582235
 20
276.98526186974351
 30
0.0
 40
9.3000000000000007
 50
180.0
 51
0.0
  0
LINE
  5
998B
  8
ﾁｭｳｼﾝｾﾝ
 10
81.567521785831744
 20
276.98526186974351
 30
0.0
 11
105.5675217858129
 21
276.98526186974351
 31
0.0
  0
LINE
  5
998C
  8
AM_0
 10
172.29818935424331
 20
387.48526186974351
 30
0.0
 11
73.325349354243428
 21
387.48526186974351
 31
0.0
  0
LINE
  5
998D
  8
AM_0
 10
139.9653593542433
 20
389.48526186974351
 30
0.0
 11
73.325349354243428
 21
389.48526186974351
 31
0.0
  0
LINE
  5
998E
  8
AM_0
 10
172.29818935424331
 20
339.48526186974351
 30
0.0
 11
73.325349354243428
 21
339.48526186974351
 31
0.0
  0
LINE
  5
998F
  8
AM_0
 10
127.9653593542433
 20
327.48526186974351
 30
0.0
 11
73.325349354243428
 21
327.48526186974351
 31
0.0
  0
LINE
  5
9990
  8
AM_0
 10
127.9653593542433
 20
329.48526186974351
 30
0.0
 11
73.325349354243428
 21
329.48526186974351
 31
0.0
  0
LINE
  5
9991
  8
AM_0
 10
72.645349354243351
 20
330.11526186974351
 30
0.0
 11
139.98537935424329
 21
330.11526186974351
 31
0.0
  0
LINE
  5
9992
  8
AM_0
 10
72.645349354243351
 20
326.76529186974341
 30
0.0
 11
127.9653593542433
 21
326.76529186974341
 31
0.0
  0
LINE
  5
9993
  8
AM_0
 10
72.425379354243375
 20
336.99527186974342
 30
0.0
 11
139.9653593542433
 21
336.99527186974342
 31
0.0
  0
LINE
  5
9994
  8
AM_0
 10
139.9653593542433
 20
337.48526186974351
 30
0.0
 11
73.325349354243428
 21
337.48526186974351
 31
0.0
  0
LINE
  5
9995
  8
AM_0
 10
74.175379354243375
 20
307.20523186974339
 30
0.0
 11
171.0953693542433
 21
307.20523186974339
 31
0.0
  0
LINE
  5
9996
  8
AM_0
 10
72.29537935424338
 20
377.16531186974328
 30
0.0
 11
108.6240493542433
 21
377.16531186974328
 31
0.0
  0
LINE
  5
9997
  8
AM_0
 10
107.40407935424319
 20
377.48526186974351
 30
0.0
 11
73.325349354243428
 21
377.48526186974351
 31
0.0
  0
LINE
  5
9998
  8
AM_0
 10
72.29537935424338
 20
379.82522186974342
 30
0.0
 11
108.6240493542433
 21
379.82522186974342
 31
0.0
  0
LINE
  5
9999
  8
AM_0
 10
107.40407935424319
 20
379.48526186974351
 30
0.0
 11
73.325349354243428
 21
379.48526186974351
 31
0.0
  0
LINE
  5
999A
  8
AM_0
 10
72.235379354243321
 20
367.22525186974337
 30
0.0
 11
108.6840493542434
 21
367.22525186974337
 31
0.0
  0
LINE
  5
999B
  8
AM_0
 10
72.235379354243321
 20
369.75528186974333
 30
0.0
 11
108.6840493542434
 21
369.75528186974333
 31
0.0
  0
LINE
  5
999C
  8
AM_0
 10
107.40407935424319
 20
367.48526186974351
 30
0.0
 11
73.325349354243428
 21
367.48526186974351
 31
0.0
  0
LINE
  5
999D
  8
AM_0
 10
107.40407935424319
 20
369.48526186974351
 30
0.0
 11
73.325349354243428
 21
369.48526186974351
 31
0.0
  0
LINE
  5
999E
  8
AM_0
 10
107.40407935424319
 20
347.48526186974351
 30
0.0
 11
73.325349354243428
 21
347.48526186974351
 31
0.0
  0
LINE
  5
999F
  8
AM_0
 10
107.40407935424319
 20
349.48526186974351
 30
0.0
 11
73.325349354243428
 21
349.48526186974351
 31
0.0
  0
LINE
  5
99A0
  8
AM_0
 10
72.29537935424338
 20
349.80520186974348
 30
0.0
 11
108.6240493542433
 21
349.80520186974348
 31
0.0
  0
LINE
  5
99A1
  8
AM_0
 10
72.235379354243321
 20
357.21524186974352
 30
0.0
 11
108.6840493542434
 21
357.21524186974352
 31
0.0
  0
LINE
  5
99A2
  8
AM_0
 10
107.40407935424319
 20
357.4852618697434
 30
0.0
 11
73.325349354243428
 21
357.4852618697434
 31
0.0
  0
LINE
  5
99A3
  8
AM_0
 10
107.40407935424319
 20
359.4852618697434
 30
0.0
 11
73.325349354243428
 21
359.4852618697434
 31
0.0
  0
LINE
  5
99A4
  8
AM_0
 10
72.235379354243321
 20
359.75528186974333
 30
0.0
 11
108.6840493542434
 21
359.75528186974333
 31
0.0
  0
LINE
  5
99A5
  8
AM_0
 10
72.29537935424338
 20
347.14529186974352
 30
0.0
 11
108.6366293542433
 21
347.14529186974352
 31
0.0
  0
LINE
  5
99A6
  8
AM_0
 10
172.30538935424329
 20
397.48526186974351
 30
0.0
 11
73.325349354243428
 21
397.48526186974351
 31
0.0
  0
LINE
  5
99A7
  8
AM_0
 10
172.30538935424329
 20
399.48526186974351
 30
0.0
 11
73.325349354243428
 21
399.48526186974351
 31
0.0
  0
LINE
  5
99A8
  8
AM_0
 10
74.255339354243304
 20
425.3752718697433
 30
0.0
 11
171.09542935424321
 21
425.3752718697433
 31
0.0
  0
LINE
  5
99A9
  8
AM_0
 10
74.235379354243321
 20
424.46524186974358
 30
0.0
 11
171.0953693542433
 21
424.46524186974358
 31
0.0
  0
LINE
  5
99AA
  8
AM_0
 10
74.21535935424339
 20
422.61526186974351
 30
0.0
 11
171.0953693542433
 21
422.61526186974351
 31
0.0
  0
LINE
  5
99AB
  8
AM_0
 10
74.175379354243375
 20
419.76529186974329
 30
0.0
 11
171.0953693542433
 21
419.76529186974329
 31
0.0
  0
LINE
  5
99AC
  8
AM_0
 10
72.425379354243375
 20
389.97525186974337
 30
0.0
 11
139.9653593542433
 21
389.97525186974337
 31
0.0
  0
LINE
  5
99AD
  8
AM_0
 10
72.645349354243351
 20
396.85525186974343
 30
0.0
 11
139.98537935424329
 21
396.85525186974343
 31
0.0
  0
ARC
  5
99AE
  8
AM_0
 10
73.509979354243399
 20
358.48526186974351
 30
0.0
 40
1.000013899999999
 50
89.691659999999231
 51
270.30834000000078
  0
ARC
  5
99AF
  8
AM_0
 10
72.229519354243322
 20
358.48526186974351
 30
0.0
 40
1.2700129999999981
 50
89.736617000001587
 51
270.2633699999991
  0
LINE
  5
99B0
  8
AM_0
 10
15.46535935424339
 20
310.7032718697435
 30
0.0
 11
15.46535935424339
 21
416.23526186974328
 31
0.0
  0
LINE
  5
99B1
  8
AM_0
 10
12.463929254243331
 20
398.22372296545058
 30
0.0
 11
12.463929254243331
 21
328.74680077403622
 31
0.0
  0
LINE
  5
99B2
  8
AM_0
 10
12.96535935424339
 20
328.95620186974338
 30
0.0
 11
12.96535935424339
 21
398.01431186974372
 31
0.0
  0
LINE
  5
99B3
  8
AM_0
 10
7.4639292542433369
 20
419.48526186974351
 30
0.0
 11
7.4639292542433369
 21
307.4852618697434
 31
0.0
  0
LINE
  5
99B4
  8
AM_0
 10
57.96535935424339
 20
326.30020186974338
 30
0.0
 11
57.96535935424339
 21
400.6712918697433
 31
0.0
  0
LINE
  5
99B5
  8
AM_0
 10
70.96535935424339
 20
416.48526186974351
 30
0.0
 11
70.96535935424339
 21
310.48526186974351
 31
0.0
  0
LINE
  5
99B6
  8
AM_0
 10
62.96535935424339
 20
422.23526186974351
 30
0.0
 11
62.96535935424339
 21
304.73526186974351
 31
0.0
  0
ARC
  5
99B7
  8
AM_0
 10
13.865389354243289
 20
326.09427186974341
 30
0.0
 40
3.0
 50
89.999988999997569
 51
179.99997999999781
  0
ARC
  5
99B8
  8
AM_0
 10
13.865389354243289
 20
323.09427186974341
 30
0.0
 40
3.0
 50
179.99997999999781
 51
269.99995000000138
  0
ARC
  5
99B9
  8
AM_0
 10
14.96535935424339
 20
312.73526186974351
 30
0.0
 40
2.0
 50
179.99997999999781
 51
269.99995000000138
  0
ARC
  5
99BA
  8
AM_0
 10
17.463929254243329
 20
308.48526186974351
 30
0.0
 40
5.0
 50
179.99997999999781
 51
269.99995000000138
  0
ARC
  5
99BB
  8
AM_0
 10
16.46392925424334
 20
307.4852618697434
 30
0.0
 40
9.0
 50
179.99997999999781
 51
269.99995000000138
  0
LINE
  5
99BC
  8
AM_0
 10
10.865389354243289
 20
326.09427186974341
 30
0.0
 11
10.865389354243289
 21
323.09427186974341
 31
0.0
  0
LINE
  5
99BD
  8
AM_0
 10
12.463929254243331
 20
320.44174296545083
 30
0.0
 11
12.463929254243331
 21
308.48526186974351
 31
0.0
  0
LINE
  5
99BE
  8
AM_0
 10
12.96535935424339
 20
320.23233186974352
 30
0.0
 11
12.96535935424339
 21
312.73526186974351
 31
0.0
  0
LINE
  5
99BF
  8
AM_0
 10
84.267521785822254
 20
293.98526186974351
 30
0.0
 11
84.267521785822254
 21
276.98526186974351
 31
0.0
  0
LINE
  5
99C0
  8
AM_0
 10
78.467521785822299
 20
292.9852618697434
 30
0.0
 11
78.467521785822299
 21
269.98526186974362
 31
0.0
  0
LINE
  5
99C1
  8
AM_0
 10
80.986098001611253
 20
264.98526186974351
 30
0.0
 11
77.267521785822268
 21
264.98526186974351
 31
0.0
  0
LINE
  5
99C2
  8
AM_0
 10
77.267521785822268
 20
263.98526186974351
 30
0.0
 11
81.06752178582235
 21
263.98526186974351
 31
0.0
  0
LINE
  5
99C3
  8
AM_0
 10
76.967521785822342
 20
263.98526186974351
 30
0.0
 11
81.06752178582235
 21
263.98526186974351
 31
0.0
  0
LINE
  5
99C4
  8
AM_0
 10
78.467521785822299
 20
259.98526186974351
 30
0.0
 11
81.393216922663328
 21
259.98526186974351
 31
0.0
  0
LINE
  5
99C5
  8
AM_0
 10
78.167521785822274
 20
265.9809045504594
 30
0.0
 11
78.167521785822274
 21
267.18090455045939
 31
0.0
  0
LINE
  5
99C6
  8
AM_0
 10
76.467521785823351
 20
268.68526186974441
 30
0.0
 11
76.467521785823351
 21
261.48526186974362
 31
0.0
  0
LINE
  5
99C7
  8
AM_0
 10
77.967521785822342
 20
264.98526186974351
 30
0.0
 11
77.967521785822342
 21
268.68526186974441
 31
0.0
  0
LINE
  5
99C8
  8
AM_0
 10
78.467521785822299
 20
269.98526186974362
 30
0.0
 11
78.46752178582129
 21
264.98526186974351
 31
0.0
  0
LINE
  5
99C9
  8
AM_0
 10
78.167521785822274
 20
265.9809045504594
 30
0.0
 11
77.967521785822342
 21
265.9809045504594
 31
0.0
  0
ARC
  5
99CA
  8
AM_0
 10
78.467521785822299
 20
261.48526186974362
 30
0.0
 40
1.5
 50
180.0
 51
270.0
  0
ARC
  5
99CB
  8
AM_0
 10
77.967521785823351
 20
261.48526186974459
 30
0.0
 40
1.5
 50
180.00000000000659
 51
269.99999999999341
  0
LINE
  5
99CC
  8
AM_0
 10
76.967521785822342
 20
263.68526186974452
 30
0.0
 11
76.967521785822342
 21
261.48526186974362
 31
0.0
  0
ARC
  5
99CD
  8
AM_0
 10
77.267521785822268
 20
264.68526186974441
 30
0.0
 40
0.3
 50
90.0
 51
180.0
  0
ARC
  5
99CE
  8
AM_0
 10
77.267521785822268
 20
263.68526186974452
 30
0.0
 40
0.3
 50
90.0
 51
180.0
  0
LINE
  5
99CF
  8
AM_0
 10
76.967521785822342
 20
264.68526186974441
 30
0.0
 11
76.967521785822342
 21
263.98526186974351
 31
0.0
  0
LINE
  5
99D0
  8
AM_0
 10
77.967521785823351
 20
259.98526186974351
 30
0.0
 11
78.266007681980341
 21
259.98526186974459
 31
0.0
  0
LINE
  5
99D1
  8
AM_0
 10
78.167521785822274
 20
264.98526186974351
 30
0.0
 11
78.167521785822274
 21
265.9809045504594
 31
0.0
  0
LINE
  5
99D2
  8
AM_0
 10
77.667521785822274
 20
268.98526186974351
 30
0.0
 11
77.267521785822268
 21
268.98526186974351
 31
0.0
  0
LINE
  5
99D3
  8
AM_0
 10
77.267521785822268
 20
268.98526186974351
 30
0.0
 11
76.767521785823291
 21
268.98526186974351
 31
0.0
  0
ARC
  5
99D4
  8
AM_0
 10
76.767521785823291
 20
268.68526186974441
 30
0.0
 40
0.3
 50
90.0
 51
180.0
  0
LINE
  5
99D5
  8
AM_0
 10
78.167521785822274
 20
267.18090455045939
 30
0.0
 11
78.167521785822274
 21
269.78526186974437
 31
0.0
  0
LINE
  5
99D6
  8
AM_0
 10
77.967521785822342
 20
267.18090455045939
 30
0.0
 11
78.167521785822274
 21
267.18090455045939
 31
0.0
  0
LINE
  5
99D7
  8
AM_0
 10
78.167521785822274
 20
269.78526186974437
 30
0.0
 11
78.367521785822291
 21
269.98526186974362
 31
0.0
  0
LINE
  5
99D8
  8
AM_0
 10
78.367521785822291
 20
269.98526186974362
 30
0.0
 11
78.467521785822299
 21
269.98526186974362
 31
0.0
  0
ARC
  5
99D9
  8
AM_0
 10
77.667521785822274
 20
268.68526186974441
 30
0.0
 40
0.3
 50
0.0
 51
90.0
  0
CIRCLE
  5
99DA
  8
AM_0
 10
93.56752178582235
 20
276.98526186974351
 30
0.0
 40
6.299999999999998
  0
LINE
  5
99DB
  8
ﾁｭｳｼﾝｾﾝ
 10
93.56752178582235
 20
288.98527686974347
 30
0.0
 11
93.56752178582235
 21
264.98527686974347
 31
0.0
  0
LINE
  5
99DC
  8
AM_0
 10
37.96535935424339
 20
304.73526186974351
 30
0.0
 11
62.96535935424339
 21
304.73526186974351
 31
0.0
  0
LINE
  5
99DD
  8
AM_0
 10
14.96535935424339
 20
310.73526186974351
 30
0.0
 11
62.96535935424339
 21
310.73526186974351
 31
0.0
  0
LINE
  5
99DE
  8
AM_0
 10
14.165369354243291
 20
329.19424186974351
 30
0.0
 11
14.165369354243291
 21
319.99429186974339
 31
0.0
  0
LINE
  5
99DF
  8
AM_0
 10
17.463929254243329
 20
303.48526186974351
 30
0.0
 11
40.96535935424339
 21
303.48526186974351
 31
0.0
  0
LINE
  5
99E0
  8
AM_0
 10
16.46392925424334
 20
298.48526186974351
 30
0.0
 11
53.965359354243382
 21
298.48526186974351
 31
0.0
  0
LINE
  5
99E1
  8
AM_0
 10
15.46535935424339
 20
319.59427186974341
 30
0.0
 11
57.96535935424339
 21
319.59427186974341
 31
0.0
  0
LINE
  5
99E2
  8
AM_0
 10
13.865389354243289
 20
320.0942718697433
 30
0.0
 11
14.165369354243291
 21
320.0942718697433
 31
0.0
  0
LINE
  5
99E3
  8
AM_0
 10
14.165369354243291
 20
319.99429186974339
 30
0.0
 11
15.46535935424339
 21
319.99429186974339
 31
0.0
  0
LINE
  5
99E4
  8
AM_0
 10
37.96535935424339
 20
304.73526186974351
 30
0.0
 11
37.96535935424339
 21
310.73526186974351
 31
0.0
  0
LINE
  5
99E5
  8
AM_0
 10
40.96535935424339
 20
304.73526186974351
 30
0.0
 11
40.96535935424339
 21
298.48526186974351
 31
0.0
  0
LINE
  5
99E6
  8
AM_0
 10
53.965359354243382
 20
303.48526186974351
 30
0.0
 11
53.965359354243382
 21
298.48526186974351
 31
0.0
  0
LINE
  5
99E7
  8
AM_0
 10
50.96535935424339
 20
304.73526186974351
 30
0.0
 11
50.96535935424339
 21
298.48526186974351
 31
0.0
  0
LINE
  5
99E8
  8
AM_0
 10
50.96535935424339
 20
303.48526186974351
 30
0.0
 11
53.965359354243382
 21
303.48526186974351
 31
0.0
  0
LINE
  5
99E9
  8
AM_0
 10
57.96535935424339
 20
319.59427186974341
 30
0.0
 11
57.96535935424339
 21
310.73526186974351
 31
0.0
  0
LINE
  5
99EA
  8
AM_0
 10
15.46535935424339
 20
329.84427186974341
 30
0.0
 11
57.96535935424339
 21
329.84427186974341
 31
0.0
  0
LINE
  5
99EB
  8
AM_0
 10
13.865389354243289
 20
329.09427186974341
 30
0.0
 11
14.165369354243291
 21
329.09427186974341
 31
0.0
  0
LINE
  5
99EC
  8
AM_0
 10
14.165369354243291
 20
329.19424186974351
 30
0.0
 11
15.46535935424339
 21
329.19424186974351
 31
0.0
  0
LINE
  5
99ED
  8
AM_0
 10
76.325349354243428
 20
326.83526186974348
 30
0.0
 11
70.96535935424339
 21
315.39526186974348
 31
0.0
  0
LINE
  5
99EE
  8
AM_0
 10
79.467521785822342
 20
293.98526186974351
 30
0.0
 11
84.267521785822254
 21
293.98526186974351
 31
0.0
  0
LINE
  5
99EF
  8
AM_0
 10
73.87160935424339
 20
304.35525186974348
 30
0.0
 11
96.298009552910173
 21
304.35525186974348
 31
0.0
  0
LINE
  5
99F0
  8
AM_0
 10
70.96535935424339
 20
312.70526186974348
 30
0.0
 11
71.890839354243369
 21
306.07864186974348
 31
0.0
  0
LINE
  5
99F1
  8
AM_0
 10
70.96535935424339
 20
312.70520186974341
 30
0.0
 11
71.974579354243417
 21
306.05517186974339
 31
0.0
  0
LINE
  5
99F2
  8
AM_0
 10
70.96535935424339
 20
314.04519186974352
 30
0.0
 11
72.245329354243324
 21
306.04525186974342
 31
0.0
  0
ARC
  5
99F3
  8
AM_0
 10
74.17019935424338
 20
309.20450186974352
 30
0.0
 40
1.9992490000000001
 50
190.643100000001
 51
270.14743000000129
  0
ARC
  5
99F4
  8
AM_0
 10
79.467521785822342
 20
292.9852618697434
 30
0.0
 40
1.0
 50
90.0
 51
180.0
  0
ARC
  5
99F5
  8
AM_0
 10
73.87160935424339
 20
306.35525186974348
 30
0.0
 40
2.0
 50
187.9504400000034
 51
269.999989999999
  0
ARC
  5
99F6
  8
AM_0
 10
73.951989354243381
 20
306.35525186974348
 30
0.0
 40
2.0
 50
188.62962000000411
 51
269.999989999999
  0
ARC
  5
99F7
  8
AM_0
 10
74.221529354243373
 20
306.35562186974352
 30
0.0
 40
2.000420099999999
 50
188.9268200000015
 51
269.82270999999599
  0
LINE
  5
99F8
  8
AM_0
 10
63.665369354243289
 20
320.29532186974347
 30
0.0
 11
69.895349354243365
 21
320.29532186974347
 31
0.0
  0
LINE
  5
99F9
  8
AM_0
 10
62.96535935424339
 20
310.48526186974351
 30
0.0
 11
70.96535935424339
 21
310.48526186974351
 31
0.0
  0
LINE
  5
99FA
  8
AM_0
 10
70.96535935424339
 20
315.39520186974352
 30
0.0
 11
72.205349354243424
 21
308.83520186974351
 31
0.0
  0
LINE
  5
99FB
  8
AM_0
 10
84.267521785822254
 20
293.98526186974351
 30
0.0
 11
101.8675217858223
 21
293.98526186974351
 31
0.0
  0
LINE
  5
99FC
  8
AM_0
 10
97.965299354243427
 20
296.48523186974342
 30
0.0
 11
97.684635166904414
 21
307.20523186974339
 31
0.0
  0
LINE
  5
99FD
  8
AM_0
 10
94.465359354243404
 20
293.98526186974351
 30
0.0
 11
94.465359354243404
 21
296.48526186974351
 31
0.0
  0
ARC
  5
99FE
  8
AM_0
 10
96.298009552910173
 20
302.85525186974348
 30
0.0
 40
1.5
 50
1.499738863867264
 51
90.0
1001
GENIUS_GENODEF_13
1002
{
1000
HIER
1070
     0
1002
}
1002
{
1000
MANEDIT
1070
     0
1002
}
1002
{
1000
NOSEL
1070
     0
1002
}
1002
{
1000
BEHIND
1070
     0
1002
}
1002
{
1000
REACTOR
1002
}
1001
GENIUS_GENOBJ-N-FIL_13
1002
{
1000
OWNER
1000
GEN
1002
}
  0
POLYLINE
  5
99FF
  8
AM_0
 66
     1
 10
0.0
 20
0.0
 30
0.0
  0
VERTEX
  5
9A00
  8
AM_0
 10
73.843599354243395
 20
347.14468186974341
 30
0.0
 42
0.00073721992
  0
VERTEX
  5
9A01
  8
AM_0
 10
73.88774935424334
 20
346.5422718697435
 30
0.0
 42
0.00074398496
  0
VERTEX
  5
9A02
  8
AM_0
 10
73.933679354243324
 20
345.94000186974358
 30
0.0
 42
0.00073322625
  0
VERTEX
  5
9A03
  8
AM_0
 10
73.98140935424334
 20
345.33767186974342
 30
0.0
 42
0.00073594289
  0
VERTEX
  5
9A04
  8
AM_0
 10
74.030889354243342
 20
344.73568186974342
 30
0.0
 42
0.00074742568
  0
VERTEX
  5
9A05
  8
AM_0
 10
74.082159354243387
 20
344.13382186974337
 30
0.0
 42
0.00073216749
  0
VERTEX
  5
9A06
  8
AM_0
 10
74.135219354243361
 20
343.53201186974343
 30
0.0
 42
0.00074184065
  0
VERTEX
  5
9A07
  8
AM_0
 10
74.190039354243311
 20
342.93048186974352
 30
0.0
 42
0.00072077528
  0
VERTEX
  5
9A08
  8
AM_0
 10
74.24661935424335
 20
342.32925186974359
 30
0.0
 42
0.00074978179
  0
VERTEX
  5
9A09
  8
AM_0
 10
74.304959354243294
 20
341.72805186974352
 30
0.0
 42
0.00074288888
  0
VERTEX
  5
9A0A
  8
AM_0
 10
74.365109354243316
 20
341.1270318697434
 30
0.0
 42
0.00072503679
  0
VERTEX
  5
9A0B
  8
AM_0
 10
74.427019354243328
 20
340.52629186974349
 30
0.0
 42
0.00074640584
  0
VERTEX
  5
9A0C
  8
AM_0
 10
74.490689354243344
 20
339.9256918697435
 30
0.0
  0
SEQEND
  5
9A0D
  8
AM_0
  0
POLYLINE
  5
9A0E
  8
AM_0
 66
     1
 10
0.0
 20
0.0
 30
0.0
  0
VERTEX
  5
9A0F
  8
AM_0
 10
74.82625935424339
 20
337.00222186974338
 30
0.0
 42
0.00068900015
  0
VERTEX
  5
9A10
  8
AM_0
 10
74.897139354243279
 20
336.42747186974339
 30
0.0
 42
0.00070644648
  0
VERTEX
  5
9A11
  8
AM_0
 10
74.96963935424337
 20
335.8527918697435
 30
0.0
 42
0.00069245587
  0
VERTEX
  5
9A12
  8
AM_0
 10
75.043729354243339
 20
335.2784718697435
 30
0.0
 42
0.00069587802
  0
VERTEX
  5
9A13
  8
AM_0
 10
75.119409354243373
 20
334.70433186974338
 30
0.0
 42
0.00068980012
  0
VERTEX
  5
9A14
  8
AM_0
 10
75.196709354243296
 20
334.13033186974349
 30
0.0
 42
0.00072079193
  0
VERTEX
  5
9A15
  8
AM_0
 10
75.275599354243397
 20
333.5565518697436
 30
0.0
 42
0.00071003147
  0
VERTEX
  5
9A16
  8
AM_0
 10
75.356139354243339
 20
332.98307186974341
 30
0.0
 42
0.00072658712
  0
VERTEX
  5
9A17
  8
AM_0
 10
75.43829935424337
 20
332.40998186974349
 30
0.0
 42
0.00069571059
  0
VERTEX
  5
9A18
  8
AM_0
 10
75.52211935424333
 20
331.8369418697435
 30
0.0
 42
0.0007126617
  0
VERTEX
  5
9A19
  8
AM_0
 10
75.607549354243389
 20
331.26418186974342
 30
0.0
 42
0.00071614574
  0
VERTEX
  5
9A1A
  8
AM_0
 10
75.694579354243331
 20
330.69183186974351
 30
0.0
 42
0.00072290803
  0
VERTEX
  5
9A1B
  8
AM_0
 10
75.783289354243323
 20
330.11953186974358
 30
0.0
  0
SEQEND
  5
9A1C
  8
AM_0
  0
ARC
  5
9A1D
  8
AM_0
 10
73.509979354243399
 20
328.48526186974351
 30
0.0
 40
1.000013899999999
 50
89.691659999999231
 51
270.30834000000078
  0
ARC
  5
9A1E
  8
AM_0
 10
72.638519354243343
 20
328.44021186974351
 30
0.0
 40
1.675014
 50
89.766498999996756
 51
270.2335099999994
  0
ARC
  5
9A1F
  8
AM_0
 10
72.425379354243375
 20
338.4602318697435
 30
0.0
 40
1.465004
 50
90.00000299999769
 51
270.0
  0
ARC
  5
9A20
  8
AM_0
 10
73.509979354243399
 20
338.48526186974351
 30
0.0
 40
1.000013899999999
 50
89.691659999999231
 51
270.30834000000078
  0
POLYLINE
  5
9A21
  8
AM_0
 66
     1
 10
0.0
 20
0.0
 30
0.0
  0
VERTEX
  5
9A22
  8
AM_0
 10
73.369409354243373
 20
357.21487186974332
 30
0.0
 42
0.00076695235
  0
VERTEX
  5
9A23
  8
AM_0
 10
73.384209354243296
 20
356.59711186974351
 30
0.0
 42
0.00073263043
  0
VERTEX
  5
9A24
  8
AM_0
 10
73.400849354243348
 20
355.97951186974342
 30
0.0
 42
0.00076525988
  0
VERTEX
  5
9A25
  8
AM_0
 10
73.419339354243263
 20
355.3618418697435
 30
0.0
 42
0.00075144488
  0
VERTEX
  5
9A26
  8
AM_0
 10
73.43970935424332
 20
354.74424186974358
 30
0.0
 42
0.00076035096
  0
VERTEX
  5
9A27
  8
AM_0
 10
73.461949354243345
 20
354.12681186974351
 30
0.0
 42
0.00075543154
  0
VERTEX
  5
9A28
  8
AM_0
 10
73.48604935424332
 20
353.50943186974342
 30
0.0
 42
0.0007577325
  0
VERTEX
  5
9A29
  8
AM_0
 10
73.512029354243339
 20
352.89203186974351
 30
0.0
 42
0.00076034585
  0
VERTEX
  5
9A2A
  8
AM_0
 10
73.539879354243396
 20
352.27464186974328
 30
0.0
 42
0.00074823143
  0
VERTEX
  5
9A2B
  8
AM_0
 10
73.569609354243369
 20
351.6572518697435
 30
0.0
 42
0.00074896605
  0
VERTEX
  5
9A2C
  8
AM_0
 10
73.601169354243254
 20
351.04012186974342
 30
0.0
 42
0.00076039763
  0
VERTEX
  5
9A2D
  8
AM_0
 10
73.63458935424336
 20
350.42309186974359
 30
0.0
 42
0.00075616127
  0
VERTEX
  5
9A2E
  8
AM_0
 10
73.669889354243352
 20
349.80606186974342
 30
0.0
  0
SEQEND
  5
9A2F
  8
AM_0
  0
ARC
  5
9A30
  8
AM_0
 10
73.509979354243399
 20
348.48526186974351
 30
0.0
 40
1.000013899999999
 50
89.691659999999231
 51
270.30834000000078
  0
ARC
  5
9A31
  8
AM_0
 10
72.29537935424338
 20
348.47525186974349
 30
0.0
 40
1.3300049999999981
 50
90.00000299999769
 51
270.0
  0
ARC
  5
9A32
  8
AM_0
 10
14.96535935424339
 20
414.23526186974328
 30
0.0
 40
2.0
 50
90.000049999998538
 51
180.00002000000191
  0
ARC
  5
9A33
  8
AM_0
 10
13.865389354243289
 20
403.8762518697435
 30
0.0
 40
3.0
 50
90.000049999998538
 51
180.00002000000191
  0
ARC
  5
9A34
  8
AM_0
 10
13.865389354243289
 20
400.8762518697435
 30
0.0
 40
3.0
 50
180.00002000000191
 51
270.00001100000242
  0
ARC
  5
9A35
  8
AM_0
 10
16.46392925424334
 20
419.48526186974351
 30
0.0
 40
9.0
 50
89.999988999997569
 51
179.99997999999781
  0
ARC
  5
9A36
  8
AM_0
 10
17.463929254243329
 20
418.48526186974328
 30
0.0
 40
5.0
 50
89.999988999997569
 51
180.0
  0
LINE
  5
9A37
  8
AM_0
 10
6.4653893542433689
 20
358.48526186974351
 30
0.0
 11
6.4653893542433689
 21
368.48526186974351
 31
0.0
  0
LINE
  5
9A38
  8
AM_0
 10
7.4639292542433369
 20
358.48526186974351
 30
0.0
 11
6.4653893542433689
 21
358.48526186974351
 31
0.0
  0
LINE
  5
9A39
  8
AM_0
 10
12.96535935424339
 20
358.48526186974351
 30
0.0
 11
12.463929254243331
 21
358.48526186974351
 31
0.0
  0
LINE
  5
9A3A
  8
AM_0
 10
7.4639292542433369
 20
368.48526186974351
 30
0.0
 11
6.4653893542433689
 21
368.48526186974351
 31
0.0
  0
LINE
  5
9A3B
  8
AM_0
 10
12.96535935424339
 20
368.48526186974351
 30
0.0
 11
12.463929254243331
 21
368.48526186974351
 31
0.0
  0
LINE
  5
9A3C
  8
AM_0
 10
12.463929254243331
 20
406.52878077403619
 30
0.0
 11
12.463929254243331
 21
418.48526186974328
 31
0.0
  0
LINE
  5
9A3D
  8
AM_0
 10
12.96535935424339
 20
406.73819186974322
 30
0.0
 11
12.96535935424339
 21
414.23526186974328
 31
0.0
  0
LINE
  5
9A3E
  8
AM_0
 10
10.865389354243289
 20
400.8762518697435
 30
0.0
 11
10.865389354243289
 21
403.8762518697435
 31
0.0
  0
ARC
  5
9A3F
  8
AM_0
 10
74.251859354243322
 20
423.37967186974328
 30
0.0
 40
1.995633
 50
89.899708000002292
 51
172.06112999999959
  0
LINE
  5
9A40
  8
AM_0
 10
53.965359354243382
 20
423.48526186974351
 30
0.0
 11
53.965359354243382
 21
428.48526186974351
 31
0.0
  0
LINE
  5
9A41
  8
AM_0
 10
50.96535935424339
 20
422.23526186974351
 30
0.0
 11
50.96535935424339
 21
428.48526186974351
 31
0.0
  0
LINE
  5
9A42
  8
AM_0
 10
40.96535935424339
 20
422.23526186974351
 30
0.0
 11
40.96535935424339
 21
428.48526186974351
 31
0.0
  0
LINE
  5
9A43
  8
AM_0
 10
37.96535935424339
 20
422.23526186974323
 30
0.0
 11
62.96535935424339
 21
422.23526186974323
 31
0.0
  0
LINE
  5
9A44
  8
AM_0
 10
14.96535935424339
 20
416.23526186974328
 30
0.0
 11
62.96535935424339
 21
416.23526186974328
 31
0.0
  0
LINE
  5
9A45
  8
AM_0
 10
17.463929254243329
 20
423.48526186974351
 30
0.0
 11
40.96535935424339
 21
423.48526186974351
 31
0.0
  0
LINE
  5
9A46
  8
AM_0
 10
15.46535935424339
 20
397.12625186974333
 30
0.0
 11
57.96535935424339
 21
397.12625186974333
 31
0.0
  0
LINE
  5
9A47
  8
AM_0
 10
15.46535935424339
 20
407.37625186974333
 30
0.0
 11
57.96535935424339
 21
407.37625186974333
 31
0.0
  0
LINE
  5
9A48
  8
AM_0
 10
14.165369354243291
 20
397.77628186974329
 30
0.0
 11
14.165369354243291
 21
406.97623186974329
 31
0.0
  0
LINE
  5
9A49
  8
AM_0
 10
13.865389354243289
 20
397.87625186974338
 30
0.0
 11
14.165369354243291
 21
397.87625186974338
 31
0.0
  0
LINE
  5
9A4A
  8
AM_0
 10
14.165369354243291
 20
397.77628186974329
 30
0.0
 11
15.46535935424339
 21
397.77628186974329
 31
0.0
  0
LINE
  5
9A4B
  8
AM_0
 10
13.865389354243289
 20
406.87625186974321
 30
0.0
 11
14.165369354243291
 21
406.87625186974321
 31
0.0
  0
LINE
  5
9A4C
  8
AM_0
 10
14.165369354243291
 20
406.97623186974329
 30
0.0
 11
15.46535935424339
 21
406.97623186974329
 31
0.0
  0
LINE
  5
9A4D
  8
AM_0
 10
57.96535935424339
 20
407.37625186974333
 30
0.0
 11
57.96535935424339
 21
416.23526186974328
 31
0.0
  0
LINE
  5
9A4E
  8
AM_0
 10
37.96535935424339
 20
422.23526186974323
 30
0.0
 11
37.96535935424339
 21
416.23526186974328
 31
0.0
  0
LINE
  5
9A4F
  8
AM_0
 10
50.96535935424339
 20
423.48526186974351
 30
0.0
 11
53.965359354243382
 21
423.48526186974351
 31
0.0
  0
POLYLINE
  5
9A50
  8
AM_0
 66
     1
 10
0.0
 20
0.0
 30
0.0
  0
VERTEX
  5
9A51
  8
AM_0
 10
74.82625935424339
 20
389.96829186974333
 30
0.0
 42
-0.00068898288
  0
VERTEX
  5
9A52
  8
AM_0
 10
74.897139354243279
 20
390.54304186974332
 30
0.0
 42
-0.00070644354
  0
VERTEX
  5
9A53
  8
AM_0
 10
74.96963935424337
 20
391.11773186974352
 30
0.0
 42
-0.00069248071
  0
VERTEX
  5
9A54
  8
AM_0
 10
75.043729354243339
 20
391.69204186974338
 30
0.0
 42
-0.00069585665
  0
VERTEX
  5
9A55
  8
AM_0
 10
75.119409354243373
 20
392.26618186974338
 30
0.0
 42
-0.00068980191
  0
VERTEX
  5
9A56
  8
AM_0
 10
75.196709354243296
 20
392.8401818697435
 30
0.0
 42
-0.00072080104
  0
VERTEX
  5
9A57
  8
AM_0
 10
75.275599354243397
 20
393.41397186974342
 30
0.0
 42
-0.00071002307
  0
VERTEX
  5
9A58
  8
AM_0
 10
75.356139354243339
 20
393.98744186974341
 30
0.0
 42
-0.00072659056
  0
VERTEX
  5
9A59
  8
AM_0
 10
75.43829935424337
 20
394.56054186974342
 30
0.0
 42
-0.00069570481
  0
VERTEX
  5
9A5A
  8
AM_0
 10
75.52211935424333
 20
395.13357186974338
 30
0.0
 42
-0.00071266935
  0
VERTEX
  5
9A5B
  8
AM_0
 10
75.607549354243389
 20
395.70634186974343
 30
0.0
 42
-0.00071614426
  0
VERTEX
  5
9A5C
  8
AM_0
 10
75.694579354243331
 20
396.27868186974342
 30
0.0
 42
-0.00072288975
  0
VERTEX
  5
9A5D
  8
AM_0
 10
75.783289354243323
 20
396.85098186974352
 30
0.0
  0
SEQEND
  5
9A5E
  8
AM_0
  0
POLYLINE
  5
9A5F
  8
AM_0
 66
     1
 10
0.0
 20
0.0
 30
0.0
  0
VERTEX
  5
9A60
  8
AM_0
 10
73.369409354243373
 20
369.75564186974327
 30
0.0
 42
-0.00076691992
  0
VERTEX
  5
9A61
  8
AM_0
 10
73.384209354243296
 20
370.37341186974351
 30
0.0
 42
-0.00073262792
  0
VERTEX
  5
9A62
  8
AM_0
 10
73.400849354243348
 20
370.99100186974351
 30
0.0
 42
-0.00076529537
  0
VERTEX
  5
9A63
  8
AM_0
 10
73.419339354243263
 20
371.60867186974338
 30
0.0
 42
-0.00075141097
  0
VERTEX
  5
9A64
  8
AM_0
 10
73.43970935424332
 20
372.22627186974341
 30
0.0
 42
-0.00075841687
  0
VERTEX
  5
9A65
  8
AM_0
 10
73.46193935424337
 20
372.84370186974343
 30
0.0
 42
-0.00075711788
  0
VERTEX
  5
9A66
  8
AM_0
 10
73.48604935424332
 20
373.46121186974352
 30
0.0
 42
-0.00075976003
  0
VERTEX
  5
9A67
  8
AM_0
 10
73.512039354243313
 20
374.07860186974352
 30
0.0
 42
-0.00075797311
  0
VERTEX
  5
9A68
  8
AM_0
 10
73.539879354243396
 20
374.69588186974352
 30
0.0
 42
-0.0007482613
  0
VERTEX
  5
9A69
  8
AM_0
 10
73.569609354243369
 20
375.31326186974343
 30
0.0
 42
-0.00074893561
  0
VERTEX
  5
9A6A
  8
AM_0
 10
73.601169354243254
 20
375.93039186974352
 30
0.0
 42
-0.00076039839
  0
VERTEX
  5
9A6B
  8
AM_0
 10
73.63458935424336
 20
376.5474218697434
 30
0.0
 42
-0.00075618786
  0
VERTEX
  5
9A6C
  8
AM_0
 10
73.669889354243352
 20
377.16446186974338
 30
0.0
  0
SEQEND
  5
9A6D
  8
AM_0
  0
POLYLINE
  5
9A6E
  8
AM_0
 66
     1
 10
0.0
 20
0.0
 30
0.0
  0
VERTEX
  5
9A6F
  8
AM_0
 10
73.325349354243428
 20
363.48526186974351
 30
0.0
 42
-0.00039106649
  0
VERTEX
  5
9A70
  8
AM_0
 10
73.322989354243362
 20
363.7963918697435
 30
0.0
 42
-0.00035488198
  0
VERTEX
  5
9A71
  8
AM_0
 10
73.321099354243358
 20
364.10750186974337
 30
0.0
 42
-0.00039706113
  0
VERTEX
  5
9A72
  8
AM_0
 10
73.319669354243331
 20
364.41861186974342
 30
0.0
 42
-0.00038765718
  0
VERTEX
  5
9A73
  8
AM_0
 10
73.318739354243291
 20
364.7297518697435
 30
0.0
 42
-0.00040613432
  0
VERTEX
  5
9A74
  8
AM_0
 10
73.318289354243291
 20
365.04085186974328
 30
0.0
 42
-0.00035573434
  0
VERTEX
  5
9A75
  8
AM_0
 10
73.318329354243389
 20
365.35196186974338
 30
0.0
 42
-0.00038545884
  0
VERTEX
  5
9A76
  8
AM_0
 10
73.318819354243317
 20
365.66309186974343
 30
0.0
 42
-0.00035501205
  0
VERTEX
  5
9A77
  8
AM_0
 10
73.319779354243394
 20
365.9742018697433
 30
0.0
 42
-0.00040120779
  0
VERTEX
  5
9A78
  8
AM_0
 10
73.321199354243319
 20
366.28543186974332
 30
0.0
 42
-0.00038317817
  0
VERTEX
  5
9A79
  8
AM_0
 10
73.3231093542434
 20
366.59656186974343
 30
0.0
 42
-0.00035656084
  0
VERTEX
  5
9A7A
  8
AM_0
 10
73.325489354243302
 20
366.90780186974342
 30
0.0
 42
-0.00040143615
  0
VERTEX
  5
9A7B
  8
AM_0
 10
73.328339354243369
 20
367.21890186974332
 30
0.0
  0
SEQEND
  5
9A7C
  8
AM_0
  0
POLYLINE
  5
9A7D
  8
AM_0
 66
     1
 10
0.0
 20
0.0
 30
0.0
  0
VERTEX
  5
9A7E
  8
AM_0
 10
73.325349354243428
 20
363.48526186974351
 30
0.0
 42
0.00039106589
  0
VERTEX
  5
9A7F
  8
AM_0
 10
73.322989354243362
 20
363.17412186974337
 30
0.0
 42
0.00035488584
  0
VERTEX
  5
9A80
  8
AM_0
 10
73.321099354243358
 20
362.8630118697435
 30
0.0
 42
0.00039705232
  0
VERTEX
  5
9A81
  8
AM_0
 10
73.319669354243331
 20
362.55191186974338
 30
0.0
 42
0.0003876649
  0
VERTEX
  5
9A82
  8
AM_0
 10
73.318739354243291
 20
362.2407718697433
 30
0.0
 42
0.00040613779
  0
VERTEX
  5
9A83
  8
AM_0
 10
73.318289354243291
 20
361.92966186974371
 30
0.0
 42
0.00035571855
  0
VERTEX
  5
9A84
  8
AM_0
 10
73.318329354243389
 20
361.6185618697433
 30
0.0
 42
0.00038547358
  0
VERTEX
  5
9A85
  8
AM_0
 10
73.318819354243317
 20
361.30742186974339
 30
0.0
 42
0.000355015
  0
VERTEX
  5
9A86
  8
AM_0
 10
73.319779354243394
 20
360.9963218697435
 30
0.0
 42
0.00040118616
  0
VERTEX
  5
9A87
  8
AM_0
 10
73.321199354243319
 20
360.68509186974342
 30
0.0
 42
0.00038319867
  0
VERTEX
  5
9A88
  8
AM_0
 10
73.3231093542434
 20
360.37395186974351
 30
0.0
 42
0.00035656356
  0
VERTEX
  5
9A89
  8
AM_0
 10
73.325489354243302
 20
360.06272186974348
 30
0.0
 42
0.00040140992
  0
VERTEX
  5
9A8A
  8
AM_0
 10
73.328339354243369
 20
359.7516118697435
 30
0.0
  0
SEQEND
  5
9A8B
  8
AM_0
  0
ARC
  5
9A8C
  8
AM_0
 10
72.229519354243322
 20
368.49026186974351
 30
0.0
 40
1.2650129999999991
 50
89.735579000001735
 51
270.26441000000239
  0
ARC
  5
9A8D
  8
AM_0
 10
73.509979354243399
 20
368.48526186974351
 30
0.0
 40
1.000013899999999
 50
89.691659999999231
 51
270.30834000000078
  0
POLYLINE
  5
9A8E
  8
AM_0
 66
     1
 10
0.0
 20
0.0
 30
0.0
  0
VERTEX
  5
9A8F
  8
AM_0
 10
73.843599354243395
 20
379.82583186974352
 30
0.0
 42
-0.0007337051
  0
VERTEX
  5
9A90
  8
AM_0
 10
73.887739354243351
 20
380.42825186974352
 30
0.0
 42
-0.00075211323
  0
VERTEX
  5
9A91
  8
AM_0
 10
73.933679354243324
 20
381.03064186974342
 30
0.0
 42
-0.0007297491
  0
VERTEX
  5
9A92
  8
AM_0
 10
73.98140935424334
 20
381.63284186974352
 30
0.0
 42
-0.00073593041
  0
VERTEX
  5
9A93
  8
AM_0
 10
74.030889354243342
 20
382.2348318697434
 30
0.0
 42
-0.00074742739
  0
VERTEX
  5
9A94
  8
AM_0
 10
74.082159354243387
 20
382.83670186974342
 30
0.0
 42
-0.00073217363
  0
VERTEX
  5
9A95
  8
AM_0
 10
74.135219354243361
 20
383.43850186974328
 30
0.0
 42
-0.00073754168
  0
VERTEX
  5
9A96
  8
AM_0
 10
74.190039354243311
 20
384.04004186974328
 30
0.0
 42
-0.00073075073
  0
VERTEX
  5
9A97
  8
AM_0
 10
74.24661935424335
 20
384.64140186974339
 30
0.0
 42
-0.00074550816
  0
VERTEX
  5
9A98
  8
AM_0
 10
74.304959354243294
 20
385.24246186974352
 30
0.0
 42
-0.00074288416
  0
VERTEX
  5
9A99
  8
AM_0
 10
74.365109354243316
 20
385.84348186974353
 30
0.0
 42
-0.00072504001
  0
VERTEX
  5
9A9A
  8
AM_0
 10
74.427019354243328
 20
386.44423186974342
 30
0.0
 42
-0.00074640667
  0
VERTEX
  5
9A9B
  8
AM_0
 10
74.490689354243344
 20
387.04483186974352
 30
0.0
  0
SEQEND
  5
9A9C
  8
AM_0
  0
ARC
  5
9A9D
  8
AM_0
 10
73.509979354243399
 20
378.48526186974351
 30
0.0
 40
1.000013899999999
 50
89.691659999999231
 51
270.30834000000078
  0
ARC
  5
9A9E
  8
AM_0
 10
72.29537935424338
 20
378.49527186974342
 30
0.0
 40
1.3300049999999981
 50
90.00000299999769
 51
270.0
  0
ARC
  5
9A9F
  8
AM_0
 10
72.425379354243375
 20
388.51028186974349
 30
0.0
 40
1.465004
 50
90.00000299999769
 51
270.0
  0
ARC
  5
9AA0
  8
AM_0
 10
73.509979354243399
 20
388.48526186974351
 30
0.0
 40
1.000013899999999
 50
89.691659999999231
 51
270.30834000000078
  0
LINE
  5
9AA1
  8
AM_0
 10
76.325349354243428
 20
400.13525186974329
 30
0.0
 11
70.96535935424339
 21
411.58523186974332
 31
0.0
  0
LINE
  5
9AA2
  8
AM_0
 10
63.665369354243289
 20
406.67520186974332
 30
0.0
 11
69.895349354243365
 21
406.67520186974332
 31
0.0
  0
ARC
  5
9AA3
  8
AM_0
 10
72.637969354243339
 20
398.53030186974343
 30
0.0
 40
1.6750160000000001
 50
89.746145000004447
 51
270.25387000000092
  0
ARC
  5
9AA4
  8
AM_0
 10
73.509979354243399
 20
398.48526186974351
 30
0.0
 40
1.000013899999999
 50
89.691659999999231
 51
270.30834000000078
  0
LINE
  5
9AA5
  8
AM_0
 10
62.96535935424339
 20
416.48526186974351
 30
0.0
 11
70.96535935424339
 21
416.48526186974351
 31
0.0
  0
LINE
  5
9AA6
  8
AM_0
 10
70.96535935424339
 20
411.5852918697434
 30
0.0
 11
72.205349354243424
 21
418.14526186974331
 31
0.0
  0
LINE
  5
9AA7
  8
AM_0
 10
70.96535935424339
 20
414.27527186974328
 30
0.0
 11
72.275359354243321
 21
423.65530186974331
 31
0.0
  0
LINE
  5
9AA8
  8
AM_0
 10
70.96535935424339
 20
412.92529186974321
 30
0.0
 11
72.245329354243324
 21
420.93524186974332
 31
0.0
  0
LINE
  5
9AA9
  8
AM_0
 10
70.96535935424339
 20
414.27527186974328
 30
0.0
 11
72.255339354243304
 21
422.7652318697435
 31
0.0
  0
ARC
  5
9AAA
  8
AM_0
 10
74.229949354243374
 20
422.46853186974329
 30
0.0
 40
1.9967330000000001
 50
89.843966999998912
 51
171.45387999999721
  0
ARC
  5
9AAB
  8
AM_0
 10
74.215609354243327
 20
420.62002186974331
 30
0.0
 40
1.995282999999999
 50
90.006203999996856
 51
170.90835000000069
  0
ARC
  5
9AAC
  8
AM_0
 10
74.164089354243345
 20
417.77115186974322
 30
0.0
 40
1.994108999999999
 50
89.675548000002749
 51
169.18776999999869
  0
LINE
  5
9AAD
  8
AM_0
 10
16.46392925424334
 20
428.48526186974351
 30
0.0
 11
53.965359354243382
 21
428.48526186974351
 31
0.0
  0
ARC
  5
9AAE
  8
AM_0
 10
107.40407935424319
 20
358.48526186974351
 30
0.0
 40
1.0000056999999991
 50
269.999989999999
 51
90.00000299999769
  0
ARC
  5
9AAF
  8
AM_0
 10
108.6922893542433
 20
358.48526186974351
 30
0.0
 40
1.2700266
 50
269.62931999999989
 51
90.370670000004694
  0
LINE
  5
9AB0
  8
AM_0
 10
178.9653593542433
 20
419.48526186974351
 30
0.0
 11
178.9653593542433
 21
307.4852618697434
 31
0.0
  0
LINE
  5
9AB1
  8
AM_0
 10
102.8675217858223
 20
293.98526186974351
 30
0.0
 11
102.8675217858223
 21
276.98526186974351
 31
0.0
  0
LINE
  5
9AB2
  8
AM_0
 10
165.74264805166931
 20
276.98526186974351
 30
0.0
 11
165.74264805166931
 21
292.9852618697434
 31
0.0
  0
LINE
  5
9AB3
  8
AM_0
 10
150.74264805166931
 20
276.87038835271539
 30
0.0
 11
150.74264805166931
 21
293.98526186974351
 31
0.0
  0
LINE
  5
9AB4
  8
AM_0
 10
140.88093796773009
 20
275.19014941311929
 30
0.0
 11
150.74264805166931
 21
276.87038835271539
 31
0.0
  0
LINE
  5
9AB5
  8
AM_0
 10
122.36416774034331
 20
272.0352606456745
 30
0.0
 11
124.5675217858213
 21
272.41066828120859
 31
0.0
  0
LINE
  5
9AB6
  8
AM_0
 10
112.9641677403433
 20
286.27388569054551
 30
0.0
 11
112.9641677403433
 21
270.43368790648759
 31
0.0
  0
LINE
  5
9AB7
  8
AM_0
 10
120.86416774034321
 20
288.98526186974351
 30
0.0
 11
120.86416774034321
 21
271.77969052771948
 31
0.0
  0
LINE
  5
9AB8
  8
AM_0
 10
118.6641677403432
 20
271.40485435471851
 30
0.0
 11
118.6641677403432
 21
288.98526186974351
 31
0.0
  0
LINE
  5
9AB9
  8
AM_0
 10
117.1641677403432
 20
288.98526186974351
 30
0.0
 11
117.1641677403442
 21
271.14928423676253
 31
0.0
  0
LINE
  5
9ABA
  8
AM_0
 10
114.9641677403433
 20
270.7744480637615
 30
0.0
 11
114.9641677403433
 21
288.98526186974459
 31
0.0
  0
LINE
  5
9ABB
  8
AM_0
 10
122.36416774034331
 20
272.0352606456745
 30
0.0
 11
122.36416774034331
 21
288.98526186974351
 31
0.0
  0
LINE
  5
9ABC
  8
AM_0
 10
118.6641677403432
 20
271.40485435471851
 30
0.0
 11
120.86416774034321
 21
271.77969052771948
 31
0.0
  0
LINE
  5
9ABD
  8
AM_0
 10
114.9641677403433
 20
270.7744480637615
 30
0.0
 11
117.1641677403442
 21
271.14928423676253
 31
0.0
  0
LINE
  5
9ABE
  8
AM_0
 10
113.6641677403432
 20
286.94123774714961
 30
0.0
 11
112.9641677403433
 21
286.27388569054551
 31
0.0
  0
LINE
  5
9ABF
  8
AM_0
 10
114.9641677403433
 20
284.98526186974351
 30
0.0
 11
112.9641677403433
 21
284.98526186974351
 31
0.0
  0
CIRCLE
  5
9AC0
  8
AM_0
 10
108.06752178582229
 20
276.98526186974351
 30
0.0
 40
0.75
  0
LINE
  5
9AC1
  8
AM_0
 10
118.6641677403432
 20
288.98526186974351
 30
0.0
 11
117.1641677403432
 21
288.98526186974351
 31
0.0
  0
LINE
  5
9AC2
  8
AM_0
 10
118.6641677403432
 20
284.98526186974351
 30
0.0
 11
117.1641677403432
 21
284.98526186974351
 31
0.0
  0
LINE
  5
9AC3
  8
AM_0
 10
114.9641677403433
 20
288.98526186974459
 30
0.0
 11
113.6641677403432
 21
288.98526186974351
 31
0.0
  0
LINE
  5
9AC4
  8
AM_0
 10
113.6641677403432
 20
288.98526186974351
 30
0.0
 11
113.6641677403432
 21
286.94123774714961
 31
0.0
  0
LINE
  5
9AC5
  8
AM_0
 10
122.36416774034331
 20
288.98526186974351
 30
0.0
 11
120.86416774034321
 21
288.98526186974351
 31
0.0
  0
LINE
  5
9AC6
  8
AM_0
 10
122.36416774034331
 20
284.98526186974351
 30
0.0
 11
120.86416774034321
 21
284.98526186974351
 31
0.0
  0
LINE
  5
9AC7
  8
AM_0
 10
137.17758392225329
 20
274.55917165963052
 30
0.0
 11
139.3809379677302
 21
274.93457929516342
 31
0.0
  0
LINE
  5
9AC8
  8
AM_0
 10
126.5675217858242
 20
272.75142843848238
 30
0.0
 11
126.5675217858242
 21
286.27388569054551
 31
0.0
  0
LINE
  5
9AC9
  8
AM_0
 10
124.5675217858213
 20
288.98526186974351
 30
0.0
 11
124.5675217858213
 21
272.41066828120859
 31
0.0
  0
LINE
  5
9ACA
  8
AM_0
 10
137.17758392225329
 20
274.55917165963052
 30
0.0
 11
137.17758392225329
 21
288.98526186974351
 31
0.0
  0
LINE
  5
9ACB
  8
AM_0
 10
135.67758392225329
 20
288.98526186974351
 30
0.0
 11
135.67758392225329
 21
274.30360154167442
 31
0.0
  0
LINE
  5
9ACC
  8
AM_0
 10
133.47422987677621
 20
273.92819390614142
 30
0.0
 11
133.47422987677621
 21
288.98526186974351
 31
0.0
  0
LINE
  5
9ACD
  8
AM_0
 10
131.97422987677621
 20
288.98526186974351
 30
0.0
 11
131.97422987677621
 21
273.6726237881864
 31
0.0
  0
LINE
  5
9ACE
  8
AM_0
 10
129.7708758312983
 20
273.29721615265248
 30
0.0
 11
129.7708758312983
 21
288.98526186974351
 31
0.0
  0
LINE
  5
9ACF
  8
AM_0
 10
128.2708758312983
 20
288.98526186974351
 30
0.0
 11
128.2708758312983
 21
273.04164603469758
 31
0.0
  0
LINE
  5
9AD0
  8
AM_0
 10
133.47422987677621
 20
273.92819390614142
 30
0.0
 11
135.67758392225329
 21
274.30360154167442
 31
0.0
  0
LINE
  5
9AD1
  8
AM_0
 10
129.7708758312983
 20
273.29721615265248
 30
0.0
 11
131.97422987677621
 21
273.6726237881864
 31
0.0
  0
LINE
  5
9AD2
  8
AM_0
 10
126.5675217858242
 20
272.75142843848238
 30
0.0
 11
128.2708758312983
 21
273.04164603469758
 31
0.0
  0
LINE
  5
9AD3
  8
AM_0
 10
129.7708758312983
 20
288.98526186974351
 30
0.0
 11
128.2708758312983
 21
288.98526186974351
 31
0.0
  0
LINE
  5
9AD4
  8
AM_0
 10
129.7708758312983
 20
284.98526186974351
 30
0.0
 11
128.2708758312983
 21
284.98526186974351
 31
0.0
  0
LINE
  5
9AD5
  8
AM_0
 10
125.8675217858212
 20
288.98526186974351
 30
0.0
 11
124.5675217858213
 21
288.98526186974351
 31
0.0
  0
LINE
  5
9AD6
  8
AM_0
 10
125.8675217858212
 20
286.94123774714961
 30
0.0
 11
125.8675217858212
 21
288.98526186974351
 31
0.0
  0
LINE
  5
9AD7
  8
AM_0
 10
126.5675217858242
 20
284.98526186974351
 30
0.0
 11
124.5675217858213
 21
284.98526186974351
 31
0.0
  0
LINE
  5
9AD8
  8
AM_0
 10
126.5675217858242
 20
286.27388569054551
 30
0.0
 11
125.8675217858212
 21
286.94123774714961
 31
0.0
  0
LINE
  5
9AD9
  8
AM_0
 10
133.47422987677621
 20
288.98526186974351
 30
0.0
 11
131.97422987677621
 21
288.98526186974351
 31
0.0
  0
LINE
  5
9ADA
  8
AM_0
 10
133.47422987677621
 20
284.98526186974351
 30
0.0
 11
131.97422987677621
 21
284.98526186974351
 31
0.0
  0
LINE
  5
9ADB
  8
AM_0
 10
140.88093796773009
 20
275.19014941311929
 30
0.0
 11
140.88093796773009
 21
288.98526186974351
 31
0.0
  0
LINE
  5
9ADC
  8
AM_0
 10
139.3809379677302
 20
288.98526186974351
 30
0.0
 11
139.3809379677302
 21
274.93457929516342
 31
0.0
  0
CIRCLE
  5
9ADD
  8
AM_0
 10
142.56752178582221
 20
276.98526186974351
 30
0.0
 40
0.75
  0
LINE
  5
9ADE
  8
AM_0
 10
140.88093796773009
 20
288.98526186974351
 30
0.0
 11
139.3809379677302
 21
288.98526186974351
 31
0.0
  0
LINE
  5
9ADF
  8
AM_0
 10
140.88093796773009
 20
284.98526186974351
 30
0.0
 11
139.3809379677302
 21
284.98526186974351
 31
0.0
  0
LINE
  5
9AE0
  8
AM_0
 10
137.17758392225329
 20
288.98526186974351
 30
0.0
 11
135.67758392225329
 21
288.98526186974351
 31
0.0
  0
LINE
  5
9AE1
  8
AM_0
 10
137.17758392225329
 20
284.98526186974351
 30
0.0
 11
135.67758392225329
 21
284.98526186974351
 31
0.0
  0
LINE
  5
9AE2
  8
AM_0
 10
165.74264805166931
 20
276.98526186974351
 30
0.0
 11
165.74264805166931
 21
273.48526186974351
 31
0.0
  0
LINE
  5
9AE3
  8
AM_0
 10
149.96752178582329
 20
271.6710566424465
 30
0.0
 11
149.96752178582329
 21
275.72444928783028
 31
0.0
  0
ARC
  5
9AE4
  8
AM_0
 10
156.8675217858233
 20
262.48526186974351
 30
0.0
 40
2.5
 50
270.0
 51
0.0
  0
LINE
  5
9AE5
  8
AM_0
 10
149.0976733048403
 20
259.98526186974351
 30
0.0
 11
149.0976733048403
 21
271.5207524722116
 31
0.0
  0
LINE
  5
9AE6
  8
AM_0
 10
159.3675217858233
 20
272.48526186974351
 30
0.0
 11
159.3675217858233
 21
262.48526186974351
 31
0.0
  0
LINE
  5
9AE7
  8
AM_0
 10
159.8675217858233
 20
272.98526186974351
 30
0.0
 11
165.24264805166931
 21
272.98526186974351
 31
0.0
  0
LINE
  5
9AE8
  8
AM_0
 10
159.8675217858233
 20
272.98526186974351
 30
0.0
 11
157.6932169226632
 21
272.98526186974351
 31
0.0
  0
ARC
  5
9AE9
  8
AM_0
 10
159.8675217858233
 20
272.48526186974351
 30
0.0
 40
0.5
 50
90.0
 51
180.0
  0
ARC
  5
9AEA
  8
AM_0
 10
165.24264805166931
 20
273.48526186974351
 30
0.0
 40
0.5
 50
270.0
 51
0.0
  0
LINE
  5
9AEB
  8
AM_0
 10
165.74264805166931
 20
276.98526186974351
 30
0.0
 11
157.3675217858223
 21
276.98526186974351
 31
0.0
  0
CIRCLE
  5
9AEC
  8
AM_0
 10
146.4653593542433
 20
334.98526186974351
 30
0.0
 40
1.1000000000000001
  0
CIRCLE
  5
9AED
  8
AM_0
 10
146.4653593542433
 20
334.98526186974351
 30
0.0
 40
1.149999999999999
  0
LINE
  5
9AEE
  8
AM_0
 10
127.9653593542433
 20
326.76529186974341
 30
0.0
 11
175.7853693542433
 21
326.76529186974341
 31
0.0
  0
LINE
  5
9AEF
  8
AM_0
 10
146.8675217858223
 20
293.98526186974351
 30
0.0
 11
109.06752178582229
 21
293.98526186974351
 31
0.0
  0
LINE
  5
9AF0
  8
AM_0
 10
172.30538935424329
 20
327.48526186974351
 30
0.0
 11
127.9653593542433
 21
327.48526186974351
 31
0.0
  0
LINE
  5
9AF1
  8
AM_0
 10
172.30538935424329
 20
329.48526186974351
 30
0.0
 11
127.9653593542433
 21
329.48526186974351
 31
0.0
  0
LINE
  5
9AF2
  8
AM_0
 10
109.06752178582229
 20
293.98526186974351
 30
0.0
 11
102.8675217858223
 21
293.98526186974351
 31
0.0
  0
ARC
  5
9AF3
  8
AM_0
 10
107.40407935424319
 20
348.48526186974351
 30
0.0
 40
1.0000056999999991
 50
269.999989999999
 51
90.00000299999769
  0
ARC
  5
9AF4
  8
AM_0
 10
108.6303393542432
 20
348.47525186974349
 30
0.0
 40
1.3300148000000001
 50
269.72941999999853
 51
90.270567000000995
  0
LINE
  5
9AF5
  8
AM_0
 10
140.98537935424329
 20
335.98526186974351
 30
0.0
 11
140.98537935424329
 21
331.12527186974341
 31
0.0
  0
LINE
  5
9AF6
  8
AM_0
 10
141.4653593542433
 20
335.98526186974351
 30
0.0
 11
141.4653593542433
 21
330.98526186974351
 31
0.0
  0
ARC
  5
9AF7
  8
AM_0
 10
139.9653593542433
 20
330.98526186974351
 30
0.0
 40
1.5
 50
269.999989999999
 51
0.0000006832495047
  0
ARC
  5
9AF8
  8
AM_0
 10
139.98537935424329
 20
331.12527186974341
 30
0.0
 40
1.0
 50
269.999989999999
 51
0.0000006832495047
  0
ARC
  5
9AF9
  8
AM_0
 10
139.9653593542433
 20
335.98526186974351
 30
0.0
 40
1.5
 50
0.0
 51
90.00000299999769
  0
ARC
  5
9AFA
  8
AM_0
 10
139.9653593542433
 20
335.98526186974351
 30
0.0
 40
1.02
 50
0.0
 51
90.00000299999769
  0
ARC
  5
9AFB
  8
AM_0
 10
178.6185593542433
 20
323.7624818697434
 30
0.0
 40
1.502775999999999
 50
90.122413000001615
 51
165.2435700000006
  0
LINE
  5
9AFC
  8
AM_0
 10
159.54444004002841
 20
300.98526186974351
 30
0.0
 11
170.9815393542433
 21
300.98526186974351
 31
0.0
  0
LINE
  5
9AFD
  8
AM_0
 10
164.74264805166931
 20
293.98526186974351
 30
0.0
 11
154.06752178582221
 21
293.98526186974351
 31
0.0
  0
LINE
  5
9AFE
  8
AM_0
 10
154.06752178582221
 20
293.98526186974351
 30
0.0
 11
146.8675217858223
 21
293.98526186974351
 31
0.0
  0
ARC
  5
9AFF
  8
AM_0
 10
159.54444004002841
 20
299.48526186974351
 30
0.0
 40
1.5
 50
90.0
 51
178.4998650936468
1001
GENIUS_GENODEF_13
1002
{
1000
HIER
1070
     0
1002
}
1002
{
1000
MANEDIT
1070
     0
1002
}
1002
{
1000
NOSEL
1070
     0
1002
}
1002
{
1000
BEHIND
1070
     0
1002
}
1002
{
1000
REACTOR
1002
}
1001
GENIUS_GENOBJ-N-FIL_13
1002
{
1000
OWNER
1000
GEN
1002
}
  0
LINE
  5
9B00
  8
AM_0
 10
157.9653593542433
 20
296.48520186974338
 30
0.0
 11
158.2460984773065
 21
307.20523186974339
 31
0.0
  0
LINE
  5
9B01
  8
AM_0
 10
161.4653593542433
 20
293.98526186974351
 30
0.0
 11
161.4653593542433
 21
296.48526186974351
 31
0.0
  0
ARC
  5
9B02
  8
AM_0
 10
164.74264805166931
 20
292.9852618697434
 30
0.0
 40
1.0
 50
0.0
 51
90.0
  0
ARC
  5
9B03
  8
AM_0
 10
171.0905393542433
 20
309.20999186974348
 30
0.0
 40
2.0047290000000002
 50
270.13832000000423
 51
344.82650000000177
  0
LINE
  5
9B04
  8
AM_0
 10
177.9653593542433
 20
310.48523186974342
 30
0.0
 11
172.23955935424331
 21
301.66827186974342
 31
0.0
  0
LINE
  5
9B05
  8
AM_0
 10
178.9653593542433
 20
307.4852618697434
 30
0.0
 11
186.9653593542433
 21
307.4852618697434
 31
0.0
  0
ARC
  5
9B06
  8
AM_0
 10
170.9815393542433
 20
302.48526186974351
 30
0.0
 40
1.5
 50
269.999989999999
 51
326.99999999999801
  0
LINE
  5
9B07
  8
AM_0
 10
178.9653593542433
 20
317.48526186974351
 30
0.0
 11
186.9653593542433
 21
317.48526186974351
 31
0.0
  0
LINE
  5
9B08
  8
AM_0
 10
177.17104935424331
 20
324.16632186974351
 30
0.0
 11
173.02529935424329
 21
308.6852118697434
 31
0.0
  0
LINE
  5
9B09
  8
AM_0
 10
173.50740935424321
 20
310.48526186974351
 30
0.0
 11
178.9653593542433
 21
310.48526186974351
 31
0.0
  0
LINE
  5
9B0A
  8
AM_0
 10
157.9653593542433
 20
337.00528186974338
 30
0.0
 11
175.9995993542434
 21
337.00528186974338
 31
0.0
  0
LINE
  5
9B0B
  8
AM_0
 10
172.29818935424331
 20
337.48526186974351
 30
0.0
 11
157.9653593542433
 21
337.48526186974351
 31
0.0
  0
LINE
  5
9B0C
  8
AM_0
 10
175.7853693542433
 20
330.11526186974351
 30
0.0
 11
157.94533935424329
 21
330.11526186974351
 31
0.0
  0
ARC
  5
9B0D
  8
AM_0
 10
157.9653593542433
 20
335.98526186974351
 30
0.0
 40
1.02
 50
90.00000299999769
 51
180.00001000000091
  0
ARC
  5
9B0E
  8
AM_0
 10
157.9653593542433
 20
335.98526186974351
 30
0.0
 40
1.5
 50
90.00000299999769
 51
180.00001000000091
  0
ARC
  5
9B0F
  8
AM_0
 10
157.9653593542433
 20
330.98526186974351
 30
0.0
 40
1.5
 50
179.99998999999889
 51
270.0
  0
ARC
  5
9B10
  8
AM_0
 10
157.94533935424329
 20
331.12527186974341
 30
0.0
 40
1.0
 50
179.99998999999889
 51
270.0
  0
LINE
  5
9B11
  8
AM_0
 10
156.4653593542433
 20
335.98526186974351
 30
0.0
 11
156.4653593542433
 21
330.98526186974351
 31
0.0
  0
LINE
  5
9B12
  8
AM_0
 10
156.94533935424329
 20
335.98526186974351
 30
0.0
 11
156.94533935424329
 21
331.12527186974341
 31
0.0
  0
CIRCLE
  5
9B13
  8
AM_0
 10
151.4653593542433
 20
334.98526186974351
 30
0.0
 40
1.0
  0
LINE
  5
9B14
  8
AM_0
 10
178.9653593542433
 20
331.54532186974347
 30
0.0
 11
186.9653593542433
 21
331.54532186974347
 31
0.0
  0
ARC
  5
9B15
  8
AM_0
 10
172.30538935424329
 20
328.48526186974351
 30
0.0
 40
1.0
 50
269.999989999999
 51
90.00000299999769
  0
ARC
  5
9B16
  8
AM_0
 10
175.7853693542433
 20
328.44021186974351
 30
0.0
 40
1.6750020000000001
 50
269.999989999999
 51
90.00000299999769
  0
ARC
  5
9B17
  8
AM_0
 10
172.3053293542433
 20
338.48526186974351
 30
0.0
 40
1.0000255999999981
 50
269.58947000000319
 51
90.410530999997775
  0
ARC
  5
9B18
  8
AM_0
 10
176.00533935424329
 20
338.45523186974339
 30
0.0
 40
1.460011199999999
 50
269.77524999999662
 51
90.224749999996845
  0
ARC
  5
9B19
  8
AM_0
 10
171.0905393542433
 20
423.37051186974338
 30
0.0
 40
2.0047290000000002
 50
15.173495999996319
 51
89.861678000000197
  0
CIRCLE
  5
9B1A
  8
AM_0
 10
146.4653593542433
 20
391.98526186974351
 30
0.0
 40
1.149999999999999
  0
CIRCLE
  5
9B1B
  8
AM_0
 10
146.4653593542433
 20
391.98526186974351
 30
0.0
 40
1.1000000000000001
  0
LINE
  5
9B1C
  8
AM_0
 10
140.98537935424329
 20
390.98526186974351
 30
0.0
 11
140.98537935424329
 21
395.84524186974329
 31
0.0
  0
LINE
  5
9B1D
  8
AM_0
 10
141.4653593542433
 20
390.98526186974351
 30
0.0
 11
141.4653593542433
 21
395.98526186974351
 31
0.0
  0
ARC
  5
9B1E
  8
AM_0
 10
107.40407935424319
 20
368.48526186974351
 30
0.0
 40
1.0000056999999991
 50
269.999989999999
 51
90.00000299999769
  0
ARC
  5
9B1F
  8
AM_0
 10
108.6922893542433
 20
368.49527186974342
 30
0.0
 40
1.2700266
 50
269.62931999999989
 51
90.370670000004694
  0
ARC
  5
9B20
  8
AM_0
 10
107.40407935424319
 20
378.48526186974351
 30
0.0
 40
1.0000056999999991
 50
269.999989999999
 51
90.00000299999769
  0
ARC
  5
9B21
  8
AM_0
 10
108.6303393542432
 20
378.5002718697433
 30
0.0
 40
1.3350147999999991
 50
269.73042999999973
 51
90.269556000001344
  0
ARC
  5
9B22
  8
AM_0
 10
139.9653593542433
 20
390.98526186974351
 30
0.0
 40
1.02
 50
269.999989999999
 51
0.0000006832429909
  0
ARC
  5
9B23
  8
AM_0
 10
139.9653593542433
 20
390.98526186974351
 30
0.0
 40
1.5
 50
269.999989999999
 51
0.0000006832495047
  0
ARC
  5
9B24
  8
AM_0
 10
139.9653593542433
 20
395.98526186974351
 30
0.0
 40
1.5
 50
0.0
 51
90.00000299999769
  0
ARC
  5
9B25
  8
AM_0
 10
139.98537935424329
 20
395.84524186974329
 30
0.0
 40
1.0
 50
0.0
 51
90.00000299999769
  0
LINE
  5
9B26
  8
AM_0
 10
156.4653593542433
 20
390.98526186974351
 30
0.0
 11
156.4653593542433
 21
395.98526186974351
 31
0.0
  0
LINE
  5
9B27
  8
AM_0
 10
156.94533935424329
 20
390.98526186974351
 30
0.0
 11
156.94533935424329
 21
395.84524186974329
 31
0.0
  0
CIRCLE
  5
9B28
  8
AM_0
 10
151.4653593542433
 20
391.98526186974351
 30
0.0
 40
1.0
  0
LINE
  5
9B29
  8
AM_0
 10
157.9653593542433
 20
389.97525186974337
 30
0.0
 11
176.0110193542433
 21
389.97525186974337
 31
0.0
  0
LINE
  5
9B2A
  8
AM_0
 10
172.31252935424331
 20
389.48526186974351
 30
0.0
 11
157.9653593542433
 21
389.48526186974351
 31
0.0
  0
ARC
  5
9B2B
  8
AM_0
 10
157.9653593542433
 20
390.98526186974351
 30
0.0
 40
1.02
 50
179.99998999999889
 51
270.0
  0
ARC
  5
9B2C
  8
AM_0
 10
157.9653593542433
 20
390.98526186974351
 30
0.0
 40
1.5
 50
179.99998999999889
 51
270.0
  0
ARC
  5
9B2D
  8
AM_0
 10
172.3053293542433
 20
388.48526186974351
 30
0.0
 40
1.0000255999999981
 50
269.58947000000319
 51
90.410530999997775
  0
ARC
  5
9B2E
  8
AM_0
 10
176.00533935424329
 20
388.51529186974329
 30
0.0
 40
1.460011199999999
 50
269.77524999999662
 51
90.224749999996845
  0
LINE
  5
9B2F
  8
AM_0
 10
157.94533935424329
 20
396.8452418697434
 30
0.0
 11
175.7853693542433
 21
396.8452418697434
 31
0.0
  0
ARC
  5
9B30
  8
AM_0
 10
157.94533935424329
 20
395.84524186974329
 30
0.0
 40
1.0
 50
90.00000299999769
 51
180.00001000000091
  0
ARC
  5
9B31
  8
AM_0
 10
157.9653593542433
 20
395.98526186974351
 30
0.0
 40
1.5
 50
90.00000299999769
 51
180.00001000000091
  0
LINE
  5
9B32
  8
AM_0
 10
177.16536935424321
 20
402.82519186974332
 30
0.0
 11
173.02535935424331
 21
418.28521186974359
 31
0.0
  0
LINE
  5
9B33
  8
AM_0
 10
177.17107935424329
 20
407.50409186974338
 30
0.0
 11
173.02535935424331
 21
422.98520186974332
 31
0.0
  0
LINE
  5
9B34
  8
AM_0
 10
177.1711093542433
 20
408.41409186974357
 30
0.0
 11
173.02538935424329
 21
423.89520186974329
 31
0.0
  0
LINE
  5
9B35
  8
AM_0
 10
177.17107935424329
 20
405.65411186974342
 30
0.0
 11
173.02535935424331
 21
421.13525186974329
 31
0.0
  0
LINE
  5
9B36
  8
AM_0
 10
178.9653593542433
 20
395.42520186974349
 30
0.0
 11
186.9653593542433
 21
395.42520186974349
 31
0.0
  0
ARC
  5
9B37
  8
AM_0
 10
175.7853693542433
 20
398.53030186974343
 30
0.0
 40
1.6750020000000001
 50
269.999989999999
 51
90.00000299999769
  0
ARC
  5
9B38
  8
AM_0
 10
172.30538935424329
 20
398.48526186974351
 30
0.0
 40
1.0
 50
269.999989999999
 51
90.00000299999769
  0
ARC
  5
9B39
  8
AM_0
 10
178.6185593542433
 20
407.90799186974351
 30
0.0
 40
1.502775999999999
 50
194.7564299999992
 51
269.8775799999986
  0
ARC
  5
9B3A
  8
AM_0
 10
178.6185593542433
 20
403.20804186974351
 30
0.0
 40
1.502775999999999
 50
194.7564299999992
 51
269.8775799999986
  0
ARC
  5
9B3B
  8
AM_0
 10
178.6185593542433
 20
406.05801186974338
 30
0.0
 40
1.502775999999999
 50
194.7564299999992
 51
269.8775799999986
  0
ARC
  5
9B3C
  8
AM_0
 10
178.6185593542433
 20
408.81802186974352
 30
0.0
 40
1.502775999999999
 50
194.7564299999992
 51
269.8775799999986
  0
LINE
  5
9B3D
  8
AM_0
 10
178.9653593542433
 20
419.48526186974351
 30
0.0
 11
186.9653593542433
 21
419.48526186974351
 31
0.0
  0
LINE
  5
9B3E
  8
AM_0
 10
178.9653593542433
 20
409.48526186974328
 30
0.0
 11
186.9653593542433
 21
409.48526186974328
 31
0.0
  0
LINE
  5
9B3F
  8
AM_0
 10
173.50533935424329
 20
416.48526186974351
 30
0.0
 11
178.9653593542433
 21
416.48526186974351
 31
0.0
  0
ARC
  5
9B40
  8
AM_0
 10
171.0905393542433
 20
422.46048186974338
 30
0.0
 40
2.0047290000000002
 50
15.173495999996319
 51
89.861678000000197
  0
ARC
  5
9B41
  8
AM_0
 10
171.0905393542433
 20
420.6105018697433
 30
0.0
 40
2.0047290000000002
 50
15.173495999996319
 51
89.861678000000197
  0
ARC
  5
9B42
  8
AM_0
 10
171.09542935424321
 20
417.7670018697433
 30
0.0
 40
1.9982919999999991
 50
15.032547999996
 51
90.002632000001341
  0
TEXT
  5
A045
  8
0
  6
CONTINUOUS
 62
     0
 10
437.35375973360982
 20
357.80235778235038
 30
0.0
 40
10.0
  1
VX02-120BF~VX02-200BF
  0
VIEWPORT
  5
89
 67
     1
  8
0
 10
210.0
 20
148.5
 30
0.0
 40
420.0
 41
297.0
 68
    -1
 69
     1
1001
ACAD
1000
MVIEW
1002
{
1070
    16
1010
0.0
1020
0.0
1030
0.0
1010
0.0
1020
0.0
1030
1.0
1040
0.0
1040
297.0
1040
221.70154043645701
1040
148.5
1040
50.0
1040
0.0
1040
0.0
1070
     0
1070
   100
1070
     1
1070
     1
1070
     0
1070
     0
1070
     0
1070
     0
1040
0.0
1040
0.0
1040
0.0
1040
10.0
1040
10.0
1040
10.0
1040
10.0
1070
     0
1002
{
1002
}
1002
}
1001
GENIUS_GENOREF_13
1005
1B94
1001
GENIUS_GENSCREG_15
1000
PF
1040
1.0
1000
DF
1040
1.0
1000
MIN
1011
0.0
1021
0.0
1031
0.0
1021
0.0
1031
0.0
1000
MAX
1011
420.0
1021
0.0
1031
0.0
1021
297.0
1031
0.0
1000
FLAGS
1070
     4
  0
ENDSEC
  0
EOF
