  0
SECTION
  2
HEADER
  9
$ACADVER
  1
AC1009
  9
$INSBASE
 10
0.0
 20
0.0
 30
0.0
  9
$EXTMIN
 10
3.6497379046072629
 20
5.0121221577721817
 30
-0.0015258207003583
  9
$EXTMAX
 10
876.32515498851524
 20
563.68368729792371
 30
0.0000000349246037
  9
$LIMMIN
 10
0.0
 20
0.0
  9
$LIMMAX
 10
408.0
 20
284.0
  9
$ORTHOMODE
 70
     0
  9
$REGENMODE
 70
     1
  9
$FILLMODE
 70
     1
  9
$QTEXTMODE
 70
     0
  9
$MIRRTEXT
 70
     1
  9
$DRAGMODE
 70
     2
  9
$LTSCALE
 40
1.0
  9
$OSMODE
 70
   551
  9
$ATTMODE
 70
     1
  9
$TEXTSIZE
 40
2.5
  9
$TRACEWID
 40
1.0
  9
$TEXTSTYLE
  7
STANDARD
  9
$CLAYER
  8
AM_0
  9
$CELTYPE
  6
BYLAYER
  9
$CECOLOR
 62
   256
  9
$DIMSCALE
 40
1.0
  9
$DIMASZ
 40
2.5
  9
$DIMEXO
 40
1.0
  9
$DIMDLI
 40
7.0
  9
$DIMRND
 40
0.0
  9
$DIMDLE
 40
0.0
  9
$DIMEXE
 40
1.0
  9
$DIMTP
 40
0.1
  9
$DIMTM
 40
0.1000000001
  9
$DIMTXT
 40
2.5
  9
$DIMCEN
 40
0.0
  9
$DIMTSZ
 40
0.0
  9
$DIMTOL
 70
     0
  9
$DIMLIM
 70
     0
  9
$DIMTIH
 70
     0
  9
$DIMTOH
 70
     0
  9
$DIMSE1
 70
     0
  9
$DIMSE2
 70
     0
  9
$DIMTAD
 70
     3
  9
$DIMZIN
 70
     8
  9
$DIMBLK
  1

  9
$DIMASO
 70
     1
  9
$DIMSHO
 70
     1
  9
$DIMPOST
  1

  9
$DIMAPOST
  1
"
  9
$DIMALT
 70
     0
  9
$DIMALTD
 70
     2
  9
$DIMALTF
 40
0.0393701
  9
$DIMLFAC
 40
1.0
  9
$DIMTOFL
 70
     1
  9
$DIMTVP
 40
0.0
  9
$DIMTIX
 70
     0
  9
$DIMSOXD
 70
     0
  9
$DIMSAH
 70
     0
  9
$DIMBLK1
  1

  9
$DIMBLK2
  1

  9
$DIMSTYLE
  2
AM_JIS
  9
$DIMCLRD
 70
   256
  9
$DIMCLRE
 70
   256
  9
$DIMCLRT
 70
     4
  9
$DIMTFAC
 40
0.71
  9
$DIMGAP
 40
1.0
  9
$LUNITS
 70
     2
  9
$LUPREC
 70
     2
  9
$SKETCHINC
 40
1.0
  9
$FILLETRAD
 40
2.5
  9
$AUNITS
 70
     0
  9
$AUPREC
 70
     3
  9
$MENU
  1
.
  9
$ELEVATION
 40
0.0
  9
$PELEVATION
 40
0.0
  9
$THICKNESS
 40
0.0
  9
$LIMCHECK
 70
     0
  9
$BLIPMODE
 70
     0
  9
$CHAMFERA
 40
2.5
  9
$CHAMFERB
 40
2.5
  9
$SKPOLY
 70
     0
  9
$TDCREATE
 40
2453062.4833908342
  9
$TDUPDATE
 40
2458541.3621876389
  9
$TDINDWG
 40
0.0393734954
  9
$TDUSRTIMER
 40
0.0393733102
  9
$USRTIMER
 70
     1
  9
$ANGBASE
 50
0.0
  9
$ANGDIR
 70
     0
  9
$PDMODE
 70
     0
  9
$PDSIZE
 40
0.0
  9
$PLINEWID
 40
0.0
  9
$COORDS
 70
     1
  9
$SPLFRAME
 70
     0
  9
$SPLINETYPE
 70
     6
  9
$SPLINESEGS
 70
     8
  9
$ATTDIA
 70
     1
  9
$ATTREQ
 70
     1
  9
$HANDLING
 70
     1
  9
$HANDSEED
  5
9648
  9
$SURFTAB1
 70
     6
  9
$SURFTAB2
 70
     6
  9
$SURFTYPE
 70
     6
  9
$SURFU
 70
     6
  9
$SURFV
 70
     6
  9
$UCSNAME
  2

  9
$UCSORG
 10
0.0
 20
0.0
 30
0.0
  9
$UCSXDIR
 10
1.0
 20
0.0
 30
0.0
  9
$UCSYDIR
 10
0.0
 20
1.0
 30
0.0
  9
$PUCSNAME
  2

  9
$PUCSORG
 10
0.0
 20
0.0
 30
0.0
  9
$PUCSXDIR
 10
1.0
 20
0.0
 30
0.0
  9
$PUCSYDIR
 10
0.0
 20
1.0
 30
0.0
  9
$USERI1
 70
     0
  9
$USERI2
 70
     0
  9
$USERI3
 70
     0
  9
$USERI4
 70
     0
  9
$USERI5
 70
     0
  9
$USERR1
 40
0.0
  9
$USERR2
 40
0.0
  9
$USERR3
 40
0.0
  9
$USERR4
 40
0.0
  9
$USERR5
 40
0.0
  9
$WORLDVIEW
 70
     1
  9
$SHADEDGE
 70
     3
  9
$SHADEDIF
 70
    70
  9
$TILEMODE
 70
     1
  9
$MAXACTVP
 70
    48
  9
$PLIMCHECK
 70
     0
  9
$PEXTMIN
 10
1.0000000000000000E+020
 20
1.0000000000000000E+020
 30
1.0000000000000000E+020
  9
$PEXTMAX
 10
-1.0000000000000000E+020
 20
-1.0000000000000000E+020
 30
-1.0000000000000000E+020
  9
$PLIMMIN
 10
0.0
 20
0.0
  9
$PLIMMAX
 10
420.0
 20
297.0
  9
$UNITMODE
 70
     0
  9
$VISRETAIN
 70
     1
  9
$PLINEGEN
 70
     0
  9
$PSLTSCALE
 70
     1
  0
ENDSEC
  0
SECTION
  2
TABLES
  0
TABLE
  2
VPORT
 70
     1
  0
VPORT
  2
*ACTIVE
 70
     0
 10
0.0
 20
0.0
 11
1.0
 21
1.0
 12
439.98744644656142
 22
284.347904727848
 13
0.0
 23
0.0
 14
1.0
 24
1.0
 15
10.0
 25
10.0
 16
0.0
 26
0.0
 36
1.0
 17
0.0
 27
0.0
 37
0.0
 40
562.50683904271568
 41
1.7571592210767459
 42
50.0
 43
0.0
 44
0.0
 50
0.0
 51
0.0
 71
     0
 72
   100
 73
     1
 74
     1
 75
     0
 76
     0
 77
     0
 78
     0
  0
ENDTAB
  0
TABLE
  2
LTYPE
 70
    25
  0
LTYPE
  2
CONTINUOUS
 70
     0
  3
Solid line
 72
    65
 73
     0
 40
0.0
  0
LTYPE
  2
PHANTOM2
 70
     0
  3
Phantom (.5x) ___ _ _ ___ _ _ ___ _ _ ___ _ _
 72
    65
 73
     6
 40
31.75
 49
15.875
 49
-3.174999999999998
 49
3.174999999999998
 49
-3.174999999999998
 49
3.174999999999998
 49
-3.174999999999998
  0
LTYPE
  2
CENTER
 70
     0
  3
Center ____ _ ____ _ ____ _ ____ _ ____ _ ____
 72
    65
 73
     4
 40
50.799999999999997
 49
31.75
 49
-6.3499999999999979
 49
6.3499999999999979
 49
-6.3499999999999979
  0
LTYPE
  2
ACANSTGBM
 70
     0
  3
__ . . __ . .
 72
    65
 73
     6
 40
9.0
 49
4.0
 49
-1.0
 49
1.0
 49
-1.0
 49
1.0
 49
-1.0
  0
LTYPE
  2
ACANSTGLM
 70
     0
  3
_ _ _ _ _
 72
    65
 73
     2
 40
3.0
 49
2.0
 49
-1.0
  0
LTYPE
  2
GEN7
 70
     0
  3
____ . ____ . ____ . ____ . ____ . ____ . ____
 72
    65
 73
     4
 40
14.25
 49
9.75
 49
-1.5
 49
1.5
 49
-1.5
  0
LTYPE
  2
AM_ISO02W050
 70
     0
  3
__ __ __ __ __ __ __ __ __ __ __ __ __ __ __
 72
    65
 73
     2
 40
7.5
 49
6.0
 49
-1.5
  0
LTYPE
  2
AM_ISO08W050
 70
     0
  3
____ . ____ . ____ . ____ . ____ . ____ . ____
 72
    65
 73
     4
 40
18.0
 49
12.0
 49
-1.5
 49
3.0
 49
-1.5
  0
LTYPE
  2
AM_ISO09W050
 70
     0
  3
_____ . . _____ . . _____ . . ____ .. ____
 72
    65
 73
     6
 40
22.5
 49
12.0
 49
-1.5
 49
3.0
 49
-1.5
 49
3.0
 49
-1.5
  0
LTYPE
  2
AMCONSTR
 70
     0
  3
_______________________
 72
    65
 73
     2
 40
9999.0
 49
9999.0
 49
0.0
  0
LTYPE
  2
AM_ISO02W050X2
 70
     0
  3
 _ _ _ _ _ _ _ _ _ _ _ _
 72
    65
 73
     2
 40
3.75
 49
3.0
 49
-0.75
  0
LTYPE
  2
AM_ISO08W050X2
 70
     0
  3
__ . __ . __ . __ . __ . __
 72
    65
 73
     4
 40
9.0
 49
6.0
 49
-0.75
 49
1.5
 49
-0.75
  0
LTYPE
  2
AMZIGZAG
 70
     0
  3
/\/-/\/-/\/-/\/-/\/-/\/
 72
    65
 73
     2
 40
11.000099999999991
 49
0.0001
 49
-11.0
  0
LTYPE
  2
ACJISTGB
 70
     0
  3
__ . . __ . .
 72
    65
 73
     6
 40
9.0
 49
4.0
 49
-1.0
 49
1.0
 49
-1.0
 49
1.0
 49
-1.0
  0
LTYPE
  2
ACJISTGL
 70
     0
  3
_ _ _ _ _
 72
    65
 73
     2
 40
3.0
 49
2.0
 49
-1.0
  0
LTYPE
  2
ACISOWELD
 70
     0
  3
_ _ _ _ _
 72
    65
 73
     2
 40
2.0
 49
2.0
 49
-1.0
  0
LTYPE
  2
ACISOTGB
 70
     0
  3
__ . . __ . .
 72
    65
 73
     6
 40
9.0
 49
4.0
 49
-1.0
 49
1.0
 49
-1.0
 49
1.0
 49
-1.0
  0
LTYPE
  2
ACISOTGL
 70
     0
  3
_ _ _ _ _
 72
    65
 73
     2
 40
3.0
 49
2.0
 49
-1.0
  0
LTYPE
  2
HIDDEN
 70
     0
  3
Hidden __ __ __ __ __ __ __ __ __ __ __ __ __ _
 72
    65
 73
     2
 40
0.375
 49
0.25
 49
-0.125
  0
LTYPE
  2
CENTER2
 70
     0
  3
Center (.5x) ___ _ ___ _ ___ _ ___ _ ___ _ ___
 72
    65
 73
     4
 40
1.125
 49
0.75
 49
-0.125
 49
0.125
 49
-0.125
  0
LTYPE
  2
HIDDEN2
 70
     0
  3
Hidden (.5x) _ _ _ _ _ _ _ _ _ _ _ _ _ _ _ _ _
 72
    65
 73
     2
 40
0.1875
 49
0.125
 49
-0.0625
  0
LTYPE
  2
AMZIGZAG2
 70
     0
  3
/\/-/\/-/\/-/\/-/\/-/\/
 72
    65
 73
     2
 40
0.4401
 49
0.0001
 49
-0.4400000000000001
  0
LTYPE
  2
ACANSTGB
 70
     0
  3
__ . . __ . .
 72
    65
 73
     6
 40
0.35433070866
 49
0.15748031496
 49
-0.03937007874
 49
0.03937007874
 49
-0.03937007874
 49
0.03937007874
 49
-0.03937007874
  0
LTYPE
  2
ACANSTGL
 70
     0
  3
_ _ _ _ _
 72
    65
 73
     2
 40
0.11811023622
 49
0.07874015748
 49
-0.03937007874
  0
ENDTAB
  0
TABLE
  2
LAYER
 70
     6
  0
LAYER
  2
0
 70
     0
 62
     7
  6
CONTINUOUS
  0
LAYER
  2
AM_0
 70
     0
 62
     7
  6
CONTINUOUS
  0
LAYER
  2
DEFPOINTS
 70
     0
 62
     7
  6
CONTINUOUS
  0
LAYER
  2
ﾁｭｳｼﾝｾﾝ
 70
     0
 62
     1
  6
GEN7
  0
LAYER
  2
AM_0N
 70
     0
 62
     7
  6
CONTINUOUS
  0
LAYER
  2
AM_5
 70
     0
 62
     2
  6
CONTINUOUS
  0
ENDTAB
  0
TABLE
  2
STYLE
 70
    10
  0
STYLE
  2
STANDARD
 70
     0
 40
0.0
 41
0.8299999999999999
 50
0.0
 71
     0
 42
2.5
  3
txt.shx
  4
bigfont.shx
  0
STYLE
  2
ANNOTATIVE
 70
     0
 40
0.0
 41
1.0
 50
0.0
 71
     0
 42
0.2
  3
txt
  4

  0
STYLE
  2
ACANSTS
 70
     0
 40
1.0
 41
1.0
 50
0.0
 71
     0
 42
2.5
  3
romans.shx
  4
bigfont.shx
  0
STYLE
  2
ACANSGDT
 70
     0
 40
0.0
 41
1.0
 50
0.0
 71
     0
 42
2.5
  3
amgdt.shx
  4

  0
STYLE
  2

 70
     1
 40
0.0
 41
1.0
 50
0.0
 71
     0
 42
2.5
  3
ltypeshp.shx
  4

  0
STYLE
  2
ACJISTS
 70
     0
 40
1.0
 41
0.8299999999999999
 50
0.0
 71
     0
 42
2.5
  3
txt.shx
  4
bigfont.shx
  0
STYLE
  2
ACJISGDT
 70
     0
 40
0.0
 41
1.0
 50
0.0
 71
     0
 42
2.5
  3
amgdt.shx
  4

  0
STYLE
  2
ACISOTS
 70
     0
 40
1.0
 41
1.0
 50
0.0
 71
     0
 42
2.5
  3
isocp.shx
  4
extfont.shx
  0
STYLE
  2
ACISOGDT
 70
     0
 40
0.0
 41
1.0
 50
0.0
 71
     0
 42
2.5
  3
amgdt.shx
  4

  0
STYLE
  2

 70
     1
 40
0.0
 41
1.0
 50
0.0
 71
     0
 42
2.5
  3
genltshp.shx
  4

  0
ENDTAB
  0
TABLE
  2
VIEW
 70
    12
  0
VIEW
  2
GEN1
 70
     0
 40
95.824742268041234
 10
71.5
 20
137.08762886597941
 41
143.0
 11
0.0
 21
0.0
 31
1.0
 12
0.0
 22
0.0
 32
0.0
 42
50.0
 43
0.0
 44
0.0
 50
0.0
 71
     0
  0
VIEW
  2
GEN2
 70
     0
 40
95.824742268041234
 10
214.5
 20
137.08762886597941
 41
143.0
 11
0.0
 21
0.0
 31
1.0
 12
0.0
 22
0.0
 32
0.0
 42
50.0
 43
0.0
 44
0.0
 50
0.0
 71
     0
  0
VIEW
  2
GEN3
 70
     0
 40
95.824742268041234
 10
71.5
 20
47.912371134020603
 41
143.0
 11
0.0
 21
0.0
 31
1.0
 12
0.0
 22
0.0
 32
0.0
 42
50.0
 43
0.0
 44
0.0
 50
0.0
 71
     0
  0
VIEW
  2
GEN4
 70
     0
 40
95.824742268041234
 10
214.5
 20
47.912371134020603
 41
143.0
 11
0.0
 21
0.0
 31
1.0
 12
0.0
 22
0.0
 32
0.0
 42
50.0
 43
0.0
 44
0.0
 50
0.0
 71
     0
  0
VIEW
  2
GEN5
 70
     0
 40
95.824742268041234
 10
143.0
 20
92.500000000000057
 41
143.0
 11
0.0
 21
0.0
 31
1.0
 12
0.0
 22
0.0
 32
0.0
 42
50.0
 43
0.0
 44
0.0
 50
0.0
 71
     0
  0
VIEW
  2
GEN6
 70
     0
 40
191.64756804123709
 10
143.0
 20
92.5
 41
285.99713999999989
 11
0.0
 21
0.0
 31
1.0
 12
0.0
 22
0.0
 32
0.0
 42
50.0
 43
0.0
 44
0.0
 50
0.0
 71
     0
  0
VIEW
  2
AM_VIEW1
 70
     0
 40
142.0
 10
119.7777777777777
 20
213.0
 41
239.55555555555549
 11
0.0
 21
0.0
 31
1.0
 12
0.0
 22
0.0
 32
0.0
 42
50.0
 43
0.0
 44
0.0
 50
0.0
 71
     0
  0
VIEW
  2
AM_VIEW2
 70
     0
 40
142.0
 10
288.22222222222211
 20
213.0
 41
239.55555555555549
 11
0.0
 21
0.0
 31
1.0
 12
0.0
 22
0.0
 32
0.0
 42
50.0
 43
0.0
 44
0.0
 50
0.0
 71
     0
  0
VIEW
  2
AM_VIEW3
 70
     0
 40
142.0
 10
119.7777777777777
 20
71.0
 41
239.55555555555549
 11
0.0
 21
0.0
 31
1.0
 12
0.0
 22
0.0
 32
0.0
 42
50.0
 43
0.0
 44
0.0
 50
0.0
 71
     0
  0
VIEW
  2
AM_VIEW4
 70
     0
 40
142.0
 10
288.22222222222211
 20
71.0
 41
239.55555555555549
 11
0.0
 21
0.0
 31
1.0
 12
0.0
 22
0.0
 32
0.0
 42
50.0
 43
0.0
 44
0.0
 50
0.0
 71
     0
  0
VIEW
  2
AM_VIEW5
 70
     0
 40
142.0
 10
204.0
 20
142.0
 41
239.55555555555549
 11
0.0
 21
0.0
 31
1.0
 12
0.0
 22
0.0
 32
0.0
 42
50.0
 43
0.0
 44
0.0
 50
0.0
 71
     0
  0
VIEW
  2
AM_VIEW6
 70
     0
 40
283.99716000000001
 10
204.0
 20
142.0
 41
479.10631999999993
 11
0.0
 21
0.0
 31
1.0
 12
0.0
 22
0.0
 32
0.0
 42
50.0
 43
0.0
 44
0.0
 50
0.0
 71
     0
  0
ENDTAB
  0
TABLE
  2
UCS
 70
     0
  0
ENDTAB
  0
TABLE
  2
APPID
 70
   106
  0
APPID
  2
ACAD
 70
     0
  0
APPID
  2
ACADANNOTATIVE
 70
     0
  0
APPID
  2
MCAD_NO_VIS
 70
     0
  0
APPID
  2
ACAD_TEMP_GRAPHIC
 70
     0
  0
APPID
  2
AD_DRAW
 70
     0
  0
APPID
  2
DESIGNERASSEMBLIES
 70
     0
  0
APPID
  2
ASURF_PCURVE_APPNAME
 70
     0
  0
APPID
  2
GENIUS_GE3SECT_13
 70
     0
  0
APPID
  2
GENIUS_GENCFG_13
 70
     0
  0
APPID
  2
GENIUS_GE3CFG0_13
 70
     0
  0
APPID
  2
GENIUS_GENCFG0_13
 70
     0
  0
APPID
  2
GENIUS_GENCFG1_13
 70
     0
  0
APPID
  2
GENIUS_GENCFG2_13
 70
     0
  0
APPID
  2
GENIUS_GENCFG3_13
 70
     0
  0
APPID
  2
GENIUS_GENCFG4_13
 70
     0
  0
APPID
  2
GENIUS_GEVCFG0_13
 70
     0
  0
APPID
  2
GENIUS_GENOENT_13
 70
     0
  0
APPID
  2
GENIUS_GENREC_14
 70
     0
  0
APPID
  2
GENIUS_GENODEF_13
 70
     0
  0
APPID
  2
GENIUS_GENOBJ-N-REC_13
 70
     0
  0
APPID
  2
GENIUS_GENHINW_13
 70
     0
  0
APPID
  2
GENIUS_FIRSTVISTXT_14
 70
     0
  0
APPID
  2
GENIUS_GENOBJ-N-LEADER_13
 70
     0
  0
APPID
  2
GENIUS_GENOREF_13
 70
     0
  0
APPID
  2
GENIUS_GENOLIS_13
 70
     0
  0
APPID
  2
GEV_VCCNULL_SWITCH_OFF
 70
     0
  0
APPID
  2
GENIUS_GENDTOL_13
 70
     0
  0
APPID
  2
GENIUS_GEFCFG0_13
 70
     0
  0
APPID
  2
GENIUS_GENOBJ-N-TIT_13
 70
     0
  0
APPID
  2
GENIUS_GENTITLE_13
 70
     0
  0
APPID
  2
GENIUS_GENZVEED_13
 70
     0
  0
APPID
  2
GENIUS_GENOBJ-N-SDF_13
 70
     0
  0
APPID
  2
GENIUS_GENSCREG_13
 70
     0
  0
APPID
  2
GENIUS_DUMCFG0_13
 70
     0
  0
APPID
  2
GEVID936201362
 70
     0
  0
APPID
  2
GEVDC
 70
     0
  0
APPID
  2
GEVCON
 70
     0
  0
APPID
  2
VCC
 70
     0
  0
APPID
  2
GEVPT
 70
     0
  0
APPID
  2
GEVIT
 70
     0
  0
APPID
  2
GENBH
 70
     0
  0
APPID
  2
GEVMK
 70
     0
  0
APPID
  2
GENIUS_GENBH_13
 70
     0
  0
APPID
  2
GENIUS_GENOBJ-NBEHI-BHF_13
 70
     0
  0
APPID
  2
GENIUS_GENOBJ-NBEHI-BHB_13
 70
     0
  0
APPID
  2
GENIUS_GENOBJ-F-DESC_13
 70
     0
  0
APPID
  2
GENIUS_GEFDESC_14
 70
     0
  0
APPID
  2
GENIUS_GENOBJ-F-PART_13
 70
     0
  0
APPID
  2
GENIUS_GEFSTDP_13
 70
     0
  0
APPID
  2
GENIUS_GEFPARTINS_13
 70
     0
  0
APPID
  2
GENIUS_GENTRA_14
 70
     0
  0
APPID
  2
GENIUS_GENINF13_13
 70
     0
  0
APPID
  2
GENIUS_GENOBJ-N-INFOPT_13
 70
     0
  0
APPID
  2
GENIUS_GENOBJ-N-RSSYM_13
 70
     0
  0
APPID
  2
GENIUS_GENSYMENT_13
 70
     0
  0
APPID
  2
GENIUS_GENSCSYM_13
 70
     0
  0
APPID
  2
GENIUS_GEFINFNAM_13
 70
     0
  0
APPID
  2
GENIUS_GENSCREG_15
 70
     0
  0
APPID
  2
GENIUS_GENOBJ-N-CEN_13
 70
     0
  0
APPID
  2
GENIUS_GENOBJ-N-CRS_13
 70
     0
  0
APPID
  2
GENIUS_GENOBJ-N-CRC_13
 70
     0
  0
APPID
  2
GENIUS_GENCRC_14
 70
     0
  0
APPID
  2
GEVID942827039
 70
     0
  0
APPID
  2
GEVID942827040
 70
     0
  0
APPID
  2
GEVID942827041
 70
     0
  0
APPID
  2
GENIUS_GENOBJ-F-SCPASSM_13
 70
     0
  0
APPID
  2
GENIUS_GENDIMSH_14
 70
     0
  0
APPID
  2
GENIUS_GENFIL_13
 70
     0
  0
APPID
  2
GENIUS_GENOBJ-N-CHA_13
 70
     0
  0
APPID
  2
GENIUS_GENOBJ-N-FIL_13
 70
     0
  0
APPID
  2
GEVID942827042
 70
     0
  0
APPID
  2
GEVID946020473
 70
     0
  0
APPID
  2
GEVID946020474
 70
     0
  0
APPID
  2
GEVID946020475
 70
     0
  0
APPID
  2
GENIUS_GENOBJ-N-HTC_13
 70
     0
  0
APPID
  2
GENIUS_GENHATCH_13
 70
     0
  0
APPID
  2
GEVID948854295
 70
     0
  0
APPID
  2
GEVID939402019
 70
     0
  0
APPID
  2
GEVID952919491
 70
     0
  0
APPID
  2
GEVID952919492
 70
     0
  0
APPID
  2
GENIUS_GEFWELD_13
 70
     0
  0
APPID
  2
GENIUS_GENOBJ-F-WELS_13
 70
     0
  0
APPID
  2
GEVID952919493
 70
     0
  0
APPID
  2
GENIUS_GENOBJ-N-RSBK_13
 70
     0
  0
APPID
  2
GENIUS_GENOBJ-N-LIB_13
 70
     0
  0
APPID
  2
GENIUS_GENSCALE_13
 70
     0
  0
APPID
  2
GEVID986376691
 70
     0
  0
APPID
  2
ACATTRIBSERVICES
 70
     0
  0
APPID
  2
ACADM_DIM_EDIT
 70
     0
  0
APPID
  2
AMDT_DM_ADJ
 70
     0
  0
APPID
  2
GEVID1057795304
 70
     0
  0
APPID
  2
GENIUS_GEFSH_13
 70
     0
  0
APPID
  2
GENIUS_GENOBJ-F-SHS_13
 70
     0
  0
APPID
  2
GENIUS_GENOBJ-N-ADDLEAD_13
 70
     0
  0
APPID
  2
GENIUS_GENMAINADDLEADER_14
 70
     0
  0
APPID
  2
GENIUS_GENADDLEADER_14
 70
     0
  0
APPID
  2
GENIUS_GENDREL_13
 70
     0
  0
APPID
  2
GEVID1121934822
 70
     0
  0
APPID
  2
GEVID1121934823
 70
     0
  0
APPID
  2
GEVID1121934824
 70
     0
  0
APPID
  2
ACAD_DSTYLE_DIMJAG
 70
     0
  0
APPID
  2
ACAD_DSTYLE_DIMBREAK
 70
     0
  0
APPID
  2
ACAD_NAV_VCDISPLAY
 70
     0
  0
APPID
  2
ACADANNOPO
 70
     0
  0
APPID
  2
ACAD_EXEMPT_FROM_CAD_STANDARDS
 70
     0
  0
APPID
  2
ACAD_MLEADERVER
 70
     0
  0
ENDTAB
  0
TABLE
  2
DIMSTYLE
 70
    29
  0
DIMSTYLE
  2
STANDARD
 70
     0
  3

  4

  5

  6

  7

 40
1.0
 41
0.18
 42
0.0625
 43
0.38
 44
0.18
 45
0.0
 46
0.0
 47
0.0
 48
0.0
140
0.18
141
0.09
142
0.0
143
25.399999999999999
144
1.0
145
0.0
146
1.0
147
0.09
 71
     0
 72
     0
 73
     1
 74
     1
 75
     0
 76
     0
 77
     0
 78
     0
170
     0
171
     2
172
     0
173
     0
174
     0
175
     0
176
     0
177
     0
178
     0
  0
DIMSTYLE
  2
ANNOTATIVE
 70
     0
  3

  4

  5

  6

  7

 40
1.0
 41
0.18
 42
0.0625
 43
0.38
 44
0.18
 45
0.0
 46
0.0
 47
0.0
 48
0.0
140
0.18
141
0.09
142
0.0
143
25.399999999999999
144
1.0
145
0.0
146
1.0
147
0.09
 71
     0
 72
     0
 73
     1
 74
     1
 75
     0
 76
     0
 77
     0
 78
     0
170
     0
171
     2
172
     0
173
     0
174
     0
175
     0
176
     0
177
     0
178
     0
  0
DIMSTYLE
  2
AM_JIS
 70
     0
  3

  4
"
  5

  6

  7

 40
1.0
 41
2.0
 42
1.0
 43
8.0
 44
1.0
 45
0.0
 46
0.0
 47
0.1
 48
0.1
140
2.5
141
0.0
142
0.0
143
0.0393701
144
1.0
145
0.0
146
0.71
147
1.5
 71
     0
 72
     0
 73
     0
 74
     0
 75
     0
 76
     0
 77
     3
 78
     8
170
     0
171
     2
172
     1
173
     0
174
     0
175
     0
176
   256
177
   256
178
     4
  0
DIMSTYLE
  2
AM_JIS$3
 70
     0
  3

  4
"
  5

  6

  7

 40
1.0
 41
2.0
 42
1.0
 43
10.0
 44
1.0
 45
0.0
 46
0.0
 47
0.1
 48
0.1
140
2.5
141
0.0
142
0.0
143
0.0393701
144
1.0
145
0.0
146
0.71
147
1.5
 71
     0
 72
     0
 73
     0
 74
     1
 75
     0
 76
     0
 77
     3
 78
     8
170
     0
171
     2
172
     0
173
     0
174
     0
175
     0
176
   256
177
   256
178
     4
  0
DIMSTYLE
  2
AM_JIS$4
 70
     0
  3

  4
"
  5

  6

  7

 40
1.0
 41
2.0
 42
1.0
 43
10.0
 44
1.0
 45
0.0
 46
0.0
 47
0.1
 48
0.1
140
2.5
141
0.0
142
0.0
143
0.0393701
144
1.0
145
0.0
146
0.71
147
1.5
 71
     0
 72
     0
 73
     0
 74
     0
 75
     0
 76
     0
 77
     3
 78
     8
170
     0
171
     2
172
     0
173
     0
174
     0
175
     0
176
   256
177
   256
178
     4
  0
DIMSTYLE
  2
AM_JIS$6
 70
     0
  3

  4
"
  5

  6

  7

 40
1.0
 41
2.0
 42
1.0
 43
10.0
 44
1.0
 45
0.0
 46
0.0
 47
0.1
 48
0.1
140
2.5
141
0.0
142
0.0
143
0.0393701
144
1.0
145
0.0
146
0.71
147
1.5
 71
     0
 72
     0
 73
     0
 74
     0
 75
     0
 76
     0
 77
     0
 78
     8
170
     0
171
     2
172
     1
173
     0
174
     0
175
     0
176
   256
177
   256
178
     4
  0
DIMSTYLE
  2
AM_JIS$7
 70
     0
  3

  4
"
  5

  6

  7

 40
1.0
 41
2.0
 42
1.0
 43
10.0
 44
1.0
 45
0.0
 46
0.0
 47
0.1
 48
0.1
140
2.5
141
0.0
142
0.0
143
0.0393701
144
1.0
145
0.0
146
0.71
147
1.5
 71
     0
 72
     0
 73
     0
 74
     0
 75
     0
 76
     0
 77
     3
 78
     8
170
     0
171
     2
172
     1
173
     0
174
     0
175
     0
176
   256
177
   256
178
     4
  0
DIMSTYLE
  2
AM_JIS$SF
 70
     0
  3

  4
"
  5

  6

  7

 40
1.0
 41
2.0
 42
1.0
 43
10.0
 44
1.0
 45
0.0
 46
0.0
 47
0.1
 48
0.1
140
2.5
141
0.0
142
0.0
143
0.0393701
144
1.0
145
0.0
146
0.71
147
1.5
 71
     0
 72
     0
 73
     0
 74
     0
 75
     1
 76
     1
 77
     3
 78
     8
170
     0
171
     2
172
     1
173
     0
174
     0
175
     0
176
   256
177
   256
178
     4
  0
DIMSTYLE
  2
AM_JIS$SH
 70
     0
  3

  4
"
  5

  6

  7

 40
1.0
 41
2.0
 42
1.0
 43
10.0
 44
1.0
 45
0.0
 46
0.0
 47
0.1
 48
0.1
140
2.5
141
0.0
142
0.0
143
0.0393701
144
2.0
145
0.0
146
0.71
147
1.5
 71
     0
 72
     0
 73
     0
 74
     0
 75
     1
 76
     1
 77
     3
 78
     8
170
     0
171
     2
172
     1
173
     1
174
     0
175
     0
176
   256
177
   256
178
     4
  0
DIMSTYLE
  2
AM_ISO
 70
     0
  3

  4
"
  5

  6

  7

 40
1.0
 41
2.5
 42
1.0
 43
10.0
 44
1.0
 45
0.0
 46
0.0
 47
0.1
 48
0.1
140
3.5
141
0.0
142
0.0
143
0.0393701
144
1.0
145
0.0
146
0.71
147
1.5
 71
     0
 72
     0
 73
     0
 74
     0
 75
     0
 76
     0
 77
     1
 78
     8
170
     0
171
     2
172
     1
173
     0
174
     0
175
     0
176
   256
177
   256
178
     2
  0
DIMSTYLE
  2
AM_ISO$3
 70
     0
  3

  4
"
  5

  6

  7

 40
1.0
 41
2.5
 42
1.0
 43
10.0
 44
1.0
 45
0.0
 46
0.0
 47
0.1
 48
0.1
140
3.5
141
0.0
142
0.0
143
0.0393701
144
1.0
145
0.0
146
0.71
147
1.5
 71
     0
 72
     0
 73
     0
 74
     1
 75
     0
 76
     0
 77
     1
 78
     8
170
     0
171
     2
172
     0
173
     0
174
     0
175
     0
176
   256
177
   256
178
     2
  0
DIMSTYLE
  2
AM_ISO$4
 70
     0
  3

  4
"
  5

  6

  7

 40
1.0
 41
2.5
 42
1.0
 43
10.0
 44
1.0
 45
0.0
 46
0.0
 47
0.1
 48
0.1
140
3.5
141
0.0
142
0.0
143
0.0393701
144
1.0
145
0.0
146
0.71
147
1.5
 71
     0
 72
     0
 73
     0
 74
     1
 75
     0
 76
     0
 77
     1
 78
     8
170
     0
171
     2
172
     0
173
     0
174
     0
175
     0
176
   256
177
   256
178
     2
  0
DIMSTYLE
  2
AM_ISO$6
 70
     0
  3

  4
"
  5

  6

  7

 40
1.0
 41
2.5
 42
1.0
 43
10.0
 44
1.0
 45
0.0
 46
0.0
 47
0.1
 48
0.1
140
3.5
141
0.0
142
0.0
143
0.0393701
144
1.0
145
0.0
146
0.71
147
1.5
 71
     0
 72
     0
 73
     0
 74
     0
 75
     0
 76
     0
 77
     0
 78
     8
170
     0
171
     2
172
     1
173
     0
174
     0
175
     0
176
   256
177
   256
178
     2
  0
DIMSTYLE
  2
AM_ISO$7
 70
     0
  3

  4
"
  5

  6

  7

 40
1.0
 41
2.5
 42
1.0
 43
10.0
 44
1.0
 45
0.0
 46
0.0
 47
0.1
 48
0.1
140
5.0
141
0.0
142
0.0
143
0.0393701
144
1.0
145
0.0
146
0.71
147
1.5
 71
     0
 72
     0
 73
     0
 74
     0
 75
     0
 76
     0
 77
     1
 78
     8
170
     0
171
     2
172
     1
173
     0
174
     0
175
     0
176
   256
177
   256
178
     2
  0
DIMSTYLE
  2
AM_ISO$SF
 70
     0
  3

  4
"
  5

  6

  7

 40
1.0
 41
2.5
 42
1.0
 43
10.0
 44
1.0
 45
0.0
 46
0.0
 47
0.1
 48
0.1
140
3.5
141
0.0
142
0.0
143
0.0393701
144
1.0
145
0.0
146
0.71
147
1.5
 71
     0
 72
     0
 73
     0
 74
     0
 75
     1
 76
     1
 77
     1
 78
     8
170
     0
171
     2
172
     1
173
     0
174
     0
175
     0
176
   256
177
   256
178
     2
  0
DIMSTYLE
  2
AM_ISO$SH
 70
     0
  3

  4
"
  5

  6

  7

 40
1.0
 41
2.5
 42
1.0
 43
10.0
 44
1.0
 45
0.0
 46
0.0
 47
0.1
 48
0.1
140
3.5
141
0.0
142
0.0
143
0.0393701
144
2.0
145
0.0
146
0.71
147
1.5
 71
     0
 72
     0
 73
     0
 74
     0
 75
     1
 76
     1
 77
     1
 78
     8
170
     0
171
     2
172
     1
173
     1
174
     0
175
     0
176
   256
177
   256
178
     2
  0
DIMSTYLE
  2
GEN-ANSI
 70
     0
  3

  4
"
  5

  6

  7

 40
1.0
 41
2.0
 42
0.5
 43
10.0
 44
0.5
 45
0.0
 46
0.0
 47
0.1
 48
0.1
140
2.5
141
0.0
142
0.0
143
0.0393701
144
1.0
145
0.0
146
0.71
147
1.5
 71
     0
 72
     0
 73
     1
 74
     1
 75
     0
 76
     0
 77
     0
 78
     8
170
     0
171
     2
172
     0
173
     0
174
     0
175
     0
176
   256
177
   256
178
     4
  0
DIMSTYLE
  2
GEN-ANSI$3
 70
     0
  3

  4
"
  5

  6

  7

 40
1.0
 41
2.0
 42
0.5
 43
10.0
 44
0.5
 45
0.0
 46
0.0
 47
0.1
 48
0.1
140
2.5
141
0.0
142
0.0
143
0.0393701
144
1.0
145
0.0
146
0.71
147
1.5
 71
     0
 72
     0
 73
     1
 74
     1
 75
     0
 76
     0
 77
     0
 78
     8
170
     0
171
     2
172
     0
173
     0
174
     0
175
     0
176
   256
177
   256
178
     4
  0
DIMSTYLE
  2
GEN-ANSI$4
 70
     0
  3

  4
"
  5

  6

  7

 40
1.0
 41
2.0
 42
0.5
 43
10.0
 44
0.5
 45
0.0
 46
0.0
 47
0.1
 48
0.1
140
2.5
141
0.0
142
0.0
143
0.0393701
144
1.0
145
0.0
146
0.71
147
1.5
 71
     0
 72
     0
 73
     1
 74
     1
 75
     0
 76
     0
 77
     0
 78
     8
170
     0
171
     2
172
     0
173
     0
174
     0
175
     0
176
   256
177
   256
178
     4
  0
DIMSTYLE
  2
GEN-ANSI$6
 70
     0
  3

  4
"
  5

  6

  7

 40
1.0
 41
2.0
 42
0.5
 43
10.0
 44
0.5
 45
0.0
 46
0.0
 47
0.1
 48
0.1
140
2.5
141
0.0
142
0.0
143
0.0393701
144
1.0
145
0.0
146
0.71
147
1.5
 71
     0
 72
     0
 73
     1
 74
     1
 75
     0
 76
     0
 77
     0
 78
     8
170
     0
171
     2
172
     0
173
     0
174
     0
175
     0
176
   256
177
   256
178
     4
  0
DIMSTYLE
  2
GEN-ANSI-POS
 70
     0
  3

  4
"
  5

  6

  7

 40
1.0
 41
2.5
 42
0.5
 43
10.0
 44
0.5
 45
0.0
 46
0.0
 47
0.1
 48
0.1
140
5.0
141
0.0
142
0.0
143
0.0393701
144
1.0
145
0.0
146
0.71
147
1.5
 71
     0
 72
     0
 73
     0
 74
     0
 75
     0
 76
     0
 77
     0
 78
     8
170
     0
171
     2
172
     0
173
     0
174
     0
175
     0
176
   256
177
   256
178
     4
  0
DIMSTYLE
  2
GEN-ANSI-AXE-F
 70
     0
  3

  4
"
  5

  6

  7

 40
1.0
 41
2.0
 42
0.5
 43
10.0
 44
0.5
 45
0.0
 46
0.0
 47
0.1
 48
0.1
140
2.5
141
0.0
142
0.0
143
0.0393701
144
1.0
145
0.0
146
0.71
147
1.5
 71
     0
 72
     0
 73
     1
 74
     1
 75
     1
 76
     1
 77
     0
 78
     8
170
     0
171
     2
172
     0
173
     1
174
     0
175
     0
176
   256
177
   256
178
     4
  0
DIMSTYLE
  2
GEN-ANSI-AXE-H
 70
     0
  3

  4
"
  5

  6

  7

 40
1.0
 41
2.0
 42
0.5
 43
10.0
 44
0.5
 45
0.0
 46
0.0
 47
0.1
 48
0.1
140
2.5
141
0.0
142
0.0
143
0.0393701
144
2.0
145
0.0
146
0.71
147
1.5
 71
     0
 72
     0
 73
     0
 74
     0
 75
     1
 76
     1
 77
     0
 78
     8
170
     0
171
     2
172
     1
173
     1
174
     0
175
     0
176
   256
177
   256
178
     4
  0
DIMSTYLE
  2
AM_ANSI
 70
     0
  3

  4
mm
  5

  6

  7

 40
1.0
 41
0.12
 42
0.05
 43
0.5
 44
0.1
 45
0.0
 46
0.0
 47
0.1
 48
0.1
140
0.12
141
0.0
142
0.0
143
25.399999999999999
144
1.0
145
0.0
146
0.71
147
0.06
 71
     0
 72
     0
 73
     1
 74
     1
 75
     0
 76
     0
 77
     0
 78
     7
170
     0
171
     2
172
     0
173
     0
174
     0
175
     0
176
   256
177
   256
178
     2
  0
DIMSTYLE
  2
AM_ANSI$3
 70
     0
  3

  4
mm
  5

  6

  7

 40
1.0
 41
0.12
 42
0.05
 43
0.5
 44
0.1
 45
0.0
 46
0.0
 47
0.1
 48
0.1
140
0.12
141
0.0
142
0.0
143
25.399999999999999
144
1.0
145
0.0
146
0.71
147
0.06
 71
     0
 72
     0
 73
     1
 74
     1
 75
     0
 76
     0
 77
     0
 78
     7
170
     0
171
     2
172
     0
173
     0
174
     0
175
     0
176
   256
177
   256
178
     2
  0
DIMSTYLE
  2
AM_ANSI$4
 70
     0
  3

  4
mm
  5

  6

  7

 40
1.0
 41
0.12
 42
0.05
 43
0.5
 44
0.1
 45
0.0
 46
0.0
 47
0.1
 48
0.1
140
0.12
141
0.0
142
0.0
143
25.399999999999999
144
1.0
145
0.0
146
0.71
147
0.06
 71
     0
 72
     0
 73
     1
 74
     1
 75
     0
 76
     0
 77
     0
 78
     7
170
     0
171
     2
172
     0
173
     0
174
     0
175
     0
176
   256
177
   256
178
     2
  0
DIMSTYLE
  2
AM_ANSI$7
 70
     0
  3

  4
mm
  5

  6

  7

 40
1.0
 41
0.12
 42
0.05
 43
0.5
 44
0.1
 45
0.0
 46
0.0
 47
0.1
 48
0.1
140
0.12
141
0.0
142
0.0
143
25.399999999999999
144
1.0
145
0.0
146
0.71
147
0.06
 71
     0
 72
     0
 73
     1
 74
     1
 75
     0
 76
     0
 77
     0
 78
     7
170
     0
171
     2
172
     0
173
     0
174
     0
175
     0
176
   256
177
   256
178
     2
  0
DIMSTYLE
  2
AM_ANSI$SF
 70
     0
  3

  4
mm
  5

  6

  7

 40
1.0
 41
0.12
 42
0.05
 43
0.5
 44
0.1
 45
0.0
 46
0.0
 47
0.1
 48
0.1
140
0.12
141
0.0
142
0.0
143
25.399999999999999
144
1.0
145
0.0
146
0.71
147
0.06
 71
     0
 72
     0
 73
     1
 74
     1
 75
     1
 76
     1
 77
     0
 78
     7
170
     0
171
     2
172
     0
173
     0
174
     0
175
     0
176
   256
177
   256
178
     2
  0
DIMSTYLE
  2
AM_ANSI$SH
 70
     0
  3

  4
mm
  5

  6
GENAXEH
  7

 40
1.0
 41
0.12
 42
0.05
 43
0.5
 44
0.1
 45
0.0
 46
0.0
 47
0.1
 48
0.1
140
0.12
141
0.0
142
0.0
143
25.399999999999999
144
1.0
145
0.0
146
0.71
147
0.06
 71
     0
 72
     0
 73
     1
 74
     1
 75
     1
 76
     1
 77
     0
 78
     7
170
     0
171
     2
172
     0
173
     1
174
     0
175
     0
176
   256
177
   256
178
     2
  0
ENDTAB
  0
ENDSEC
  0
SECTION
  2
BLOCKS
  0
BLOCK
  8
0
  2
$MODEL_SPACE
 70
     0
 10
0.0
 20
0.0
 30
0.0
  3
$MODEL_SPACE
  1

  0
ENDBLK
  5
94A5
  8
0
  0
BLOCK
 67
     1
  8
0
  2
$PAPER_SPACE
 70
     0
 10
0.0
 20
0.0
 30
0.0
  3
$PAPER_SPACE
  1

  0
ENDBLK
  5
94A1
 67
     1
  8
0
  0
BLOCK
  8
0
  2
GENAXEH
 70
     0
 10
0.0
 20
0.0
 30
0.0
  3
GENAXEH
  1

  0
LINE
  5
93EF
  8
0
 10
-1.0
 20
0.0
 30
0.0
 11
1.0
 21
0.0
 31
0.0
  0
ENDBLK
  5
93F1
  8
0
  0
BLOCK
  8
0
  2
_ACMFILLEDHALF
 70
     0
 10
0.0
 20
0.0
 30
0.0
  3
_ACMFILLEDHALF
  1

  0
TRACE
  5
95B2
  8
AM_0
 62
     0
 10
-0.8
 20
0.0
 30
0.0
 11
-1.0
 21
0.166666666
 31
0.0
 12
0.0
 22
0.0
 32
0.0
 13
0.0
 23
0.0
 33
0.0
  0
LINE
  5
95B3
  8
AM_0
 62
     0
 10
-1.0
 20
0.0
 30
0.0
 11
-0.8
 21
0.0
 31
0.0
  0
ENDBLK
  5
95B1
  8
0
  0
ENDSEC
  0
SECTION
  2
ENTITIES
  0
POINT
  5
1B94
  8
0
 10
0.0
 20
0.0
 30
0.0
1001
GENIUS_GENODEF_13
1002
{
1000
HIER
1070
     1
1002
}
1002
{
1000
MANEDIT
1070
     0
1002
}
1002
{
1000
NOSEL
1070
     0
1002
}
1002
{
1000
BEHIND
1070
     0
1002
}
1002
{
1000
REACTOR
1002
}
1001
GENIUS_GENOBJ-N-SDF_13
1002
{
1000
OWNER
1000
GEN
1002
}
1001
GENIUS_GENOENT_13
1002
{
1000
MYREF
1005
1B94
1002
}
1002
{
1000
GRP
1005
0
1002
}
1001
GENIUS_GENOLIS_13
1002
{
1000
ENT
1005
89
1002
}
  0
LINE
  5
8688
  8
ﾁｭｳｼﾝｾﾝ
 10
507.24561560423689
 20
137.82453697349149
 30
0.0
 11
286.6573984169126
 21
137.82453697349149
 31
0.0
  0
LINE
  5
8689
  8
AM_0
 10
498.65658415050569
 20
153.82453897349251
 30
0.0
 11
440.65656415050438
 21
153.82453897349251
 31
0.0
  0
LINE
  5
868A
  8
AM_0
 10
498.65658415050569
 20
156.82453897349171
 30
0.0
 11
453.65655415050469
 21
156.82453897349171
 31
0.0
  0
LINE
  5
868B
  8
AM_0
 10
498.65658415050569
 20
121.8245529734927
 30
0.0
 11
440.65656415050438
 21
121.8245529734927
 31
0.0
  0
ARC
  5
868E
  8
AM_0
 10
219.15663415050349
 20
169.92747397349271
 30
0.0
 40
3.0
 50
91.999997999994008
 51
180.00001000000091
  0
LINE
  5
868F
  8
AM_0
 10
267.15663415050568
 20
35.824563973492559
 30
0.0
 11
267.15663415050568
 21
183.8245389734916
 31
0.0
  0
LINE
  5
8690
  8
AM_0
 10
257.15658415050342
 20
38.712075973491658
 30
0.0
 11
257.15658415050342
 21
179.3904249734916
 31
0.0
  0
LINE
  5
8691
  8
AM_0
 10
219.65724415050451
 20
140.3252079734917
 30
0.0
 11
254.5733741505037
 21
175.2413469734916
 31
0.0
  0
LINE
  5
8692
  8
AM_0
 10
428.65656415050438
 20
137.82453697349149
 30
0.0
 11
428.65656415050438
 21
228.42428497349161
 31
0.0
  0
LINE
  5
8693
  8
AM_0
 10
436.65657415050549
 20
137.82453697349149
 30
0.0
 11
436.65657415050549
 21
255.32453497349169
 31
0.0
  0
LINE
  5
8694
  8
AM_0
 10
421.6566041505057
 20
109.0602849734918
 30
0.0
 11
421.6566041505057
 21
196.73528497349159
 31
0.0
  0
LINE
  5
8695
  8
AM_0
 10
409.54443415050571
 20
186.8615859734916
 30
0.0
 11
405.1236641505032
 21
144.25771897349151
 31
0.0
  0
LINE
  5
8696
  8
AM_0
 10
440.65656415050438
 20
32.824563973491642
 30
0.0
 11
440.65656415050438
 21
242.82455497349261
 31
0.0
  0
LINE
  5
8697
  8
AM_0
 10
313.65660415050428
 20
49.444314973491657
 30
0.0
 11
313.65660415050428
 21
174.1566309734919
 31
0.0
  0
LINE
  5
8698
  8
AM_0
 10
301.65660415050428
 20
200.8485849734916
 30
0.0
 11
301.65660415050428
 21
18.801126973491591
 31
0.0
  0
LINE
  5
8699
  8
AM_0
 10
323.65656415050438
 20
209.3245449734915
 30
0.0
 11
323.65656415050438
 21
10.324554973492861
 31
0.0
  0
LINE
  5
869A
  8
ﾁｭｳｼﾝｾﾝ
 10
296.01864415050431
 20
81.824550973492862
 30
0.0
 11
10.96497415050589
 21
81.824550973492862
 31
0.0
  0
LINE
  5
869B
  8
AM_0
 10
261.01698415050578
 20
36.038949973491917
 30
0.0
 11
267.15657415050458
 21
35.824548973491567
 31
0.0
  0
LINE
  5
869C
  8
AM_0
 10
257.15658415050342
 20
48.24590497349169
 30
0.0
 11
301.65660415050428
 21
48.24590497349169
 31
0.0
  0
LINE
  5
869D
  8
AM_0
 10
257.15658415050342
 20
149.2992069734924
 30
0.0
 11
301.65660415050428
 21
149.2992069734924
 31
0.0
  0
LINE
  5
869E
  8
AM_0
 10
257.15658415050342
 20
70.349895973491513
 30
0.0
 11
301.65660415050428
 21
70.349895973491513
 31
0.0
  0
ARC
  5
869F
  8
AM_0
 10
209.15658415050569
 20
29.885736973492609
 30
0.0
 40
4.000000199999997
 50
272.00000000000352
 51
0.0
  0
LINE
  5
86A0
  8
AM_0
 10
193.1565641505058
 20
25.32454897349157
 30
0.0
 11
193.1565641505058
 21
138.3245529734927
 31
0.0
  0
LINE
  5
86A1
  8
AM_0
 10
193.1565641505058
 20
25.324563973491639
 30
0.0
 11
209.2961441505058
 21
25.888161973491659
 31
0.0
  0
LINE
  5
86A2
  8
AM_0
 10
185.1566441505056
 20
25.824549973492591
 30
0.0
 11
193.1565641505058
 21
25.824549973492591
 31
0.0
  0
LINE
  5
86A3
  8
AM_0
 10
232.30806415050429
 20
114.6304149734918
 30
0.0
 11
257.15658415050342
 21
70.257609973492833
 31
0.0
  0
LINE
  5
86A4
  8
AM_0
 10
193.1565641505058
 20
49.018731973492663
 30
0.0
 11
213.1566341505044
 21
49.018731973492663
 31
0.0
  0
LINE
  5
86A5
  8
AM_0
 10
193.1565641505058
 20
35.824563973492559
 30
0.0
 11
213.1566341505044
 21
35.824563973492559
 31
0.0
  0
LINE
  5
86A6
  8
AM_0
 10
185.1566441505056
 20
35.824548973491567
 30
0.0
 11
193.1565641505058
 21
35.824548973491567
 31
0.0
  0
LINE
  5
86A7
  8
AM_0
 10
185.1566441505056
 20
49.8845619734916
 30
0.0
 11
193.1565641505058
 21
49.8845619734916
 31
0.0
  0
ARC
  5
86A8
  8
AM_0
 10
218.15658415050251
 20
60.329019973491882
 30
0.0
 40
5.0000000999999967
 50
90.000002999984645
 51
180.00001000000091
  0
LINE
  5
86A9
  8
AM_0
 10
217.2962141505036
 20
41.202342973492868
 30
0.0
 11
254.44404415050249
 21
39.905115973491881
 31
0.0
  0
LINE
  5
86AA
  8
AM_0
 10
213.1566341505044
 20
60.329019973491882
 30
0.0
 11
213.1566341505044
 21
29.885736973492609
 31
0.0
  0
ARC
  5
86AB
  8
AM_0
 10
217.15656415050441
 20
37.204782973491881
 30
0.0
 40
4.000000199999997
 50
87.999999999996405
 51
180.00001000000091
  0
ARC
  5
86AC
  8
AM_0
 10
254.3044541505046
 20
35.90755597349267
 30
0.0
 40
4.000000199999997
 50
31.0723409999962
 51
87.999999999996405
  0
ARC
  5
86AD
  8
AM_0
 10
261.15663415050437
 20
40.036509973492791
 30
0.0
 40
4.000000199999997
 50
211.07233999999909
 51
267.99999999999631
  0
LINE
  5
86AE
  8
AM_0
 10
218.15658415050251
 20
65.329020973491652
 30
0.0
 11
257.15658415050342
 21
65.329020973491652
 31
0.0
  0
LINE
  5
86AF
  8
AM_0
 10
193.1565641505058
 20
127.8245529734919
 30
0.0
 11
238.25967415050351
 21
127.8245529734919
 31
0.0
  0
LINE
  5
86B0
  8
AM_0
 10
193.1565641505058
 20
114.6303849734928
 30
0.0
 11
232.30812415050369
 21
114.6303849734928
 31
0.0
  0
LINE
  5
86B1
  8
AM_0
 10
193.1565641505058
 20
138.3245379734926
 30
0.0
 11
211.33680415050591
 21
138.95939497349269
 31
0.0
  0
LINE
  5
86B2
  8
AM_0
 10
185.1566441505056
 20
113.76453997349179
 30
0.0
 11
193.1565641505058
 21
113.76453997349179
 31
0.0
  0
LINE
  5
86B3
  8
AM_0
 10
185.1566441505056
 20
127.8245229734918
 30
0.0
 11
193.1565641505058
 21
127.8245229734918
 31
0.0
  0
LINE
  5
86B4
  8
AM_0
 10
185.1566441505056
 20
137.82453697349149
 30
0.0
 11
193.1565641505058
 21
137.82453697349149
 31
0.0
  0
LINE
  5
86B5
  8
AM_0
 10
218.5430441505045
 20
139.21108897349271
 30
0.0
 11
224.91945415050441
 21
127.8245679734918
 31
0.0
  0
LINE
  5
86B6
  8
AM_0
 10
232.30812415050369
 20
114.63039997349171
 30
0.0
 11
240.38094415050449
 21
122.7032289734925
 31
0.0
  0
ARC
  5
86B7
  8
AM_0
 10
238.25967415050351
 20
124.8245529734928
 30
0.0
 40
3.0
 50
314.99999999998158
 51
90.000002999984645
  0
LINE
  5
86B8
  8
AM_0
 10
216.15663415050579
 20
169.92747397349271
 30
0.0
 11
216.15663415050579
 21
143.28121897349251
 31
0.0
  0
ARC
  5
86B9
  8
AM_0
 10
216.8288141505036
 20
143.15363797349161
 30
0.0
 40
4.000000199999997
 50
272.00000000000352
 51
314.99999999998158
  0
ARC
  5
86BA
  8
AM_0
 10
213.1566341505044
 20
143.28121897349251
 30
0.0
 40
3.0
 50
309.62979000000752
 51
0.0
  0
ARC
  5
86BB
  8
AM_0
 10
211.19721415050569
 20
142.9569849734925
 30
0.0
 40
4.000000199999997
 50
272.00000000000352
 51
309.62979000000752
  0
LINE
  5
86BC
  8
AM_0
 10
215.07009415050561
 20
140.97063997349261
 30
0.0
 11
213.7485641505059
 21
139.87620397349261
 31
0.0
  0
LINE
  5
86BD
  8
AM_0
 10
211.33680415050591
 20
138.95939497349269
 30
0.0
 11
216.9684041505032
 21
139.15606597349171
 31
0.0
  0
LINE
  5
86BE
  8
AM_0
 10
313.65660415050428
 20
29.406777973491678
 30
0.0
 11
313.65660415050428
 21
12.60514297349169
 31
0.0
  0
LINE
  5
86BF
  8
AM_0
 10
436.65657415050549
 20
20.324562973492672
 30
0.0
 11
436.65657415050549
 21
137.82453697349149
 31
0.0
  0
LINE
  5
86C0
  8
AM_0
 10
421.6566041505057
 20
22.907343973491599
 30
0.0
 11
421.6566041505057
 21
73.135281973491544
 31
0.0
  0
LINE
  5
86C1
  8
AM_0
 10
323.65650415050447
 20
10.32454897349157
 30
0.0
 11
408.89346415050409
 21
8.0925399734926486
 31
0.0
  0
LINE
  5
86C2
  8
AM_0
 10
315.58677415050568
 20
10.60634797349257
 30
0.0
 11
323.65659415050362
 21
10.32454897349157
 31
0.0
  0
LINE
  5
86C3
  8
AM_0
 10
304.55187415050432
 20
15.80232397349169
 30
0.0
 11
311.72637415050349
 21
15.551790973491901
 31
0.0
  0
ARC
  5
86C4
  8
AM_0
 10
304.65660415050428
 20
18.801126973491591
 30
0.0
 40
3.0
 50
179.99998999999889
 51
268.00001000001811
  0
ARC
  5
86C5
  8
AM_0
 10
311.65656415050438
 20
13.55302597349265
 30
0.0
 40
2.00000007
 50
0.0
 51
87.999999999996405
  0
ARC
  5
86C6
  8
AM_0
 10
315.65658415050348
 20
12.60514297349169
 30
0.0
 40
2.00000007
 50
179.99998999999889
 51
268.00001000001811
  0
LINE
  5
86C7
  8
AM_0
 10
424.76124415050242
 20
19.909158973491682
 30
0.0
 11
436.65657415050549
 21
20.324547973492649
 31
0.0
  0
LINE
  5
86C8
  8
AM_0
 10
408.89352415050462
 20
8.0925459734926335
 30
0.0
 11
429.6565841505041
 21
20.080101973492681
 31
0.0
  0
ARC
  5
86C9
  8
AM_0
 10
424.65660415050229
 20
22.907343973491599
 30
0.0
 40
3.0
 50
179.99998999999889
 51
271.99998999998178
  0
LINE
  5
86CA
  8
AM_0
 10
301.65660415050428
 20
29.406777973491678
 30
0.0
 11
419.92005415050562
 21
29.406777973491678
 31
0.0
  0
LINE
  5
86CB
  8
AM_0
 10
301.65660415050428
 20
49.444314973491657
 30
0.0
 11
419.92005415050562
 21
49.444314973491657
 31
0.0
  0
LINE
  5
86CC
  8
AM_0
 10
267.15657415050458
 20
36.324549973491678
 30
0.0
 11
299.22633415050359
 21
35.204646973491663
 31
0.0
  0
ARC
  5
86CD
  8
AM_0
 10
298.65663415050568
 20
32.222727973491658
 30
0.0
 40
3.0
 50
0.0
 51
87.999999999996405
  0
LINE
  5
86CE
  8
AM_0
 10
303.1351241505044
 20
167.2071969734917
 30
0.0
 11
312.08565415050577
 21
167.2071969734917
 31
0.0
  0
LINE
  5
86CF
  8
AM_0
 10
323.65656415050438
 20
140.00988697349149
 30
0.0
 11
323.65812415050448
 21
140.00988697349149
 31
0.0
  0
LINE
  5
86D0
  8
AM_0
 10
428.65656415050438
 20
46.456584973493591
 30
0.0
 11
428.65656415050438
 21
137.82453697349149
 31
0.0
  0
ARC
  5
86D1
  8
AM_0
 10
425.6565641505058
 20
46.456584973493591
 30
0.0
 40
3.0
 50
272.00000000000352
 51
0.0
  0
LINE
  5
86D2
  8
AM_0
 10
423.94113415050549
 20
43.394847973492681
 30
0.0
 11
425.76126415050572
 21
43.458414973491927
 31
0.0
  0
ARC
  5
86D3
  8
AM_0
 10
424.65660415050229
 20
73.135281973491544
 30
0.0
 40
3.0
 50
90.000002999984645
 51
180.00001000000091
  0
LINE
  5
86D4
  8
AM_0
 10
424.65660415050229
 20
76.135281973491814
 30
0.0
 11
428.65656415050438
 21
76.135281973491814
 31
0.0
  0
LINE
  5
86D5
  8
AM_0
 10
436.65657415050549
 20
32.824563973491642
 30
0.0
 11
440.65656415050438
 21
32.824563973491642
 31
0.0
  0
ARC
  5
86D6
  8
AM_0
 10
444.91005415050432
 20
140.12930197349161
 30
0.0
 40
40.000001999999967
 50
174.0759800000053
 51
234.4553400000047
  0
ARC
  5
86D7
  8
AM_0
 10
424.65660415050229
 20
109.0602849734918
 30
0.0
 40
3.0
 50
179.99998999999889
 51
270.0
  0
LINE
  5
86D8
  8
AM_0
 10
424.65660415050229
 20
106.0602849734918
 30
0.0
 11
428.65656415050438
 21
106.0602849734918
 31
0.0
  0
LINE
  5
86D9
  8
AM_0
 10
453.65655415050469
 20
153.82453897349251
 30
0.0
 11
453.65655415050469
 21
156.82453897349171
 31
0.0
  0
LINE
  5
86DA
  8
AM_0
 10
261.01698415050578
 20
183.610122973492
 30
0.0
 11
267.15657415050458
 21
183.82450897349261
 31
0.0
  0
LINE
  5
86DB
  8
AM_0
 10
257.15658415050342
 20
171.40318297349191
 30
0.0
 11
301.65660415050428
 21
171.40318297349191
 31
0.0
  0
LINE
  5
86DC
  8
AM_0
 10
219.0519041505035
 20
172.9256439734917
 30
0.0
 11
251.8844741505045
 21
174.07218697349171
 31
0.0
  0
ARC
  5
86DD
  8
AM_0
 10
253.1576741505036
 20
179.48243497349171
 30
0.0
 40
4.000000199999997
 50
314.99999999998158
 51
0.9319899800012325
  0
ARC
  5
86DE
  8
AM_0
 10
251.7449441505027
 20
178.0697469734925
 30
0.0
 40
4.000000199999997
 50
272.00000000000352
 51
314.99999999998158
  0
ARC
  5
86DF
  8
AM_0
 10
261.15663415050437
 20
179.6125929734917
 30
0.0
 40
4.000000199999997
 50
91.999997999994008
 51
180.9319799999931
  0
LINE
  5
86E0
  8
AM_0
 10
254.5733741505037
 20
175.2413469734916
 30
0.0
 11
255.98604415050431
 21
176.65403797349271
 31
0.0
  0
LINE
  5
86E1
  8
AM_0
 10
323.65659415050362
 20
209.3245749734927
 30
0.0
 11
382.7624741505046
 21
210.8723049734927
 31
0.0
  0
LINE
  5
86E2
  8
AM_0
 10
301.65660415050428
 20
189.0289749734915
 30
0.0
 11
408.65007415050462
 21
189.0289749734915
 31
0.0
  0
LINE
  5
86E3
  8
AM_0
 10
315.58677415050568
 20
209.0426949734927
 30
0.0
 11
323.65656415050438
 21
209.3245149734916
 31
0.0
  0
ARC
  5
86E4
  8
AM_0
 10
315.65658415050348
 20
207.04397497349169
 30
0.0
 40
2.00000007
 50
91.999997999994008
 51
180.00001000000091
  0
LINE
  5
86E5
  8
AM_0
 10
267.15657415050458
 20
183.3245079734929
 30
0.0
 11
298.76124415050339
 21
184.4281749734925
 31
0.0
  0
LINE
  5
86E6
  8
AM_0
 10
303.65658415050342
 20
176.15663197349241
 30
0.0
 11
311.65656415050438
 21
176.15663197349241
 31
0.0
  0
ARC
  5
86E7
  8
AM_0
 10
303.65658415050342
 20
178.1566299734915
 30
0.0
 40
2.00000007
 50
179.99998999999889
 51
270.0
  0
ARC
  5
86E8
  8
AM_0
 10
298.65663415050568
 20
187.4263749734917
 30
0.0
 40
3.0
 50
272.00000000000352
 51
0.0
  0
ARC
  5
86E9
  8
AM_0
 10
311.65656415050438
 20
174.1566309734919
 30
0.0
 40
2.00000007
 50
0.0
 51
90.000002999984645
  0
LINE
  5
86EA
  8
AM_0
 10
303.65658415050342
 20
193.12718497349161
 30
0.0
 11
311.65656415050438
 21
193.12718497349161
 31
0.0
  0
LINE
  5
86EB
  8
AM_0
 10
304.55187415050432
 20
203.84675497349269
 30
0.0
 11
311.72637415050349
 21
204.09728497349369
 31
0.0
  0
ARC
  5
86EC
  8
AM_0
 10
303.65658415050342
 20
191.1271749734926
 30
0.0
 40
2.00000007
 50
90.000002999984645
 51
180.00001000000091
  0
ARC
  5
86ED
  8
AM_0
 10
304.65660415050428
 20
200.8485849734916
 30
0.0
 40
3.0
 50
91.999997999994008
 51
180.00001000000091
  0
ARC
  5
86EE
  8
AM_0
 10
311.65656415050438
 20
195.1271949734915
 30
0.0
 40
2.00000007
 50
270.0
 51
0.0
  0
ARC
  5
86EF
  8
AM_0
 10
311.65656415050438
 20
206.09609497349271
 30
0.0
 40
2.00000007
 50
272.00000000000352
 51
0.0
  0
LINE
  5
86F0
  8
AM_0
 10
313.65660415050428
 20
195.1271949734915
 30
0.0
 11
313.65660415050428
 21
207.04397497349169
 31
0.0
  0
LINE
  5
86F1
  8
AM_0
 10
421.6566041505057
 20
196.73528497349159
 30
0.0
 11
421.6566041505057
 21
251.9036349734927
 31
0.0
  0
LINE
  5
86F2
  8
AM_0
 10
386.16708415050482
 20
212.33504497349259
 30
0.0
 11
421.65657415050549
 21
247.82453497349169
 31
0.0
  0
ARC
  5
86F3
  8
AM_0
 10
388.65660415050422
 20
189.0289749734915
 30
0.0
 40
21.000000600000011
 50
354.07598000000542
 51
80.875525000003577
  0
ARC
  5
86F4
  8
AM_0
 10
424.65660415050229
 20
196.73528497349159
 30
0.0
 40
3.0
 50
179.99998999999889
 51
270.0
  0
LINE
  5
86F5
  8
AM_0
 10
424.65660415050229
 20
193.7352849734917
 30
0.0
 11
428.65656415050438
 21
193.7352849734917
 31
0.0
  0
LINE
  5
86F6
  8
AM_0
 10
384.75648415050449
 20
210.92453497349271
 30
0.0
 11
391.98669415050477
 21
209.7632949734917
 31
0.0
  0
ARC
  5
86F7
  8
AM_0
 10
382.6315541505046
 20
215.87057497349261
 30
0.0
 40
5.0000000999999967
 50
271.49999999998971
 51
314.99999999998158
  0
ARC
  5
86F8
  8
AM_0
 10
425.6565641505058
 20
228.42428497349161
 30
0.0
 40
3.0
 50
0.0
 51
91.999997999994008
  0
LINE
  5
86F9
  8
AM_0
 10
425.37201415050549
 20
231.4161549734917
 30
0.0
 11
425.55186415050372
 21
231.42239497349169
 31
0.0
  0
LINE
  5
86FA
  8
AM_0
 10
436.65657415050549
 20
242.82455497349261
 30
0.0
 11
440.65656415050438
 21
242.82455497349261
 31
0.0
  0
LINE
  5
86FB
  8
AM_0
 10
424.55187415050318
 20
254.9018349734917
 30
0.0
 11
436.65657415050549
 21
255.32453497349169
 31
0.0
  0
ARC
  5
86FC
  8
AM_0
 10
424.65660415050229
 20
251.9036349734927
 30
0.0
 40
3.0
 50
91.999997999994008
 51
180.00001000000091
  0
LINE
  5
8701
  8
AM_0
 10
498.65658415050569
 20
121.8245529734927
 30
0.0
 11
498.65658415050569
 21
156.82453897349171
 31
0.0
  0
ARC
  5
8702
  8
AM_0
 10
655.98599221371478
 20
168.39295897349169
 30
0.0
 40
5.0000000999999967
 50
324.7768500000069
 51
45.000000999994569
  0
ARC
  5
8703
  8
AM_0
 10
699.28233421371351
 20
109.8245529734919
 30
0.0
 40
99.500004000000004
 50
125.8636900000146
 51
150.26975999999479
  0
ARC
  5
8704
  8
AM_0
 10
699.28233421371351
 20
109.8245529734919
 30
0.0
 40
99.500004000000004
 50
29.730243000000009
 51
54.136311999993161
  0
CIRCLE
  5
8705
  8
AM_0
 10
699.28233421371351
 20
137.82453697349149
 30
0.0
 40
99.000003000000021
  0
CIRCLE
  5
8706
  8
AM_0
 10
699.28233421371351
 20
137.82453697349149
 30
0.0
 40
105.00000299999979
  0
ARC
  5
8707
  8
AM_0
 10
742.57866721371272
 20
168.39295897349169
 30
0.0
 40
5.0000000999999967
 50
134.9999999999815
 51
215.22314999999051
  0
LINE
  5
8708
  8
AM_0
 10
581.7823452137136
 20
167.82453697349169
 30
0.0
 11
585.19720321371324
 21
232.9838349734917
 31
0.0
  0
LINE
  5
8709
  8
AM_0
 10
816.78234421371485
 20
167.82453697349169
 30
0.0
 11
813.36749221371485
 21
232.98380497349169
 31
0.0
  0
LINE
  5
870A
  8
ﾁｭｳｼﾝｾﾝ
 10
699.28233421371351
 20
5.0538279734926803
 30
0.0
 11
699.28233421371351
 21
260.92196497349261
 31
0.0
  0
CIRCLE
  5
870B
  8
AM_0
 10
603.82290421371499
 20
42.365151973492686
 30
0.0
 40
7.5000002999999982
  0
ARC
  5
870D
  8
AM_0
 10
699.28233421371351
 20
109.8245529734919
 30
0.0
 40
93.500003999999976
 50
162.14678999999899
 51
183.0078800000004
  0
LINE
  5
870E
  8
AM_0
 10
669.28233421371294
 20
20.324547973492649
 30
0.0
 11
604.12307521371349
 21
23.739405973491891
 31
0.0
  0
LINE
  5
8710
  8
ﾁｭｳｼﾝｾﾝ
 10
577.04362021371401
 20
137.82453697349149
 30
0.0
 11
821.5210482137129
 21
137.82453697349149
 31
0.0
  0
ARC
  5
8711
  8
AM_0
 10
605.16979621371502
 20
43.712001973491681
 30
0.0
 40
20.000000700000001
 50
183.0000100000058
 51
266.99999999999432
  0
LINE
  5
8712
  8
AM_0
 10
581.7823452137136
 20
107.8245519734925
 30
0.0
 11
585.19717021371355
 21
42.665262973491899
 31
0.0
  0
LINE
  5
8713
  8
AM_0
 10
581.7823452137136
 20
137.82453697349149
 30
0.0
 11
581.7823452137136
 21
107.8245369734918
 31
0.0
  0
LINE
  5
8714
  8
AM_0
 10
581.7823452137136
 20
137.82453697349149
 30
0.0
 11
581.7823452137136
 21
167.82453697349169
 31
0.0
  0
ARC
  5
8716
  8
AM_0
 10
793.39490221371352
 20
43.712001973491681
 30
0.0
 40
20.000000700000001
 50
273.00000000000563
 51
357.00000000000682
  0
ARC
  5
8717
  8
AM_0
 10
699.28233421371351
 20
109.8245529734919
 30
0.0
 40
99.500004000000004
 50
242.88565999999079
 51
297.11434999999369
  0
LINE
  5
8718
  8
AM_0
 10
699.28233421371351
 20
20.324562973492672
 30
0.0
 11
729.2823342137134
 21
20.324562973492672
 31
0.0
  0
LINE
  5
8719
  8
AM_0
 10
699.28233421371351
 20
20.324562973492672
 30
0.0
 11
669.28233421371294
 21
20.324562973492672
 31
0.0
  0
LINE
  5
871A
  8
AM_0
 10
729.2823342137134
 20
20.324547973492649
 30
0.0
 11
794.44161421371371
 21
23.739390973492672
 31
0.0
  0
CIRCLE
  5
871B
  8
AM_0
 10
699.28233421371351
 20
137.82453697349149
 30
0.0
 40
29.000001000000001
  0
ARC
  5
871C
  8
AM_0
 10
646.28234821371268
 20
99.824535973491905
 30
0.0
 40
5.0000000999999967
 50
270.0
 51
0.0
  0
LINE
  5
871D
  8
AM_0
 10
646.28234821371268
 20
94.824549973491685
 30
0.0
 11
613.30560121371354
 21
94.824549973491685
 31
0.0
  0
ARC
  5
871E
  8
AM_0
 10
613.30560121371354
 20
99.824535973491905
 30
0.0
 40
5.0000000999999967
 50
203.84446999999949
 51
270.0
  0
LINE
  5
871F
  8
AM_0
 10
651.28233121371477
 20
137.82453697349149
 30
0.0
 11
651.28233121371477
 21
99.824535973491905
 31
0.0
  0
ARC
  5
8720
  8
AM_0
 10
699.28233421371351
 20
137.82453697349149
 30
0.0
 40
89.000003999999961
 50
166.1242299999949
 51
179.5717700000003
  0
ARC
  5
8721
  8
AM_0
 10
699.28233421371351
 20
137.82453697349149
 30
0.0
 40
48.0
 50
144.7768399999953
 51
180.00001000000091
  0
CIRCLE
  5
8722
  8
AM_0
 10
699.28233421371351
 20
137.82453697349149
 30
0.0
 40
2.75000007
  0
CIRCLE
  5
8723
  8
AM_0
 10
699.28233421371351
 20
137.82453697349149
 30
0.0
 40
2.75000007
  0
ARC
  5
8724
  8
AM_0
 10
699.28233421371351
 20
137.82453697349149
 30
0.0
 40
16.000000499999999
 50
108.2099599999986
 51
71.790052000018392
  0
CIRCLE
  5
8725
  8
AM_0
 10
699.28233421371351
 20
137.82453697349149
 30
0.0
 40
2.75000007
  0
CIRCLE
  5
8726
  8
AM_5
 10
699.28233421371351
 20
137.82453697349149
 30
0.0
 40
4.000000199999997
  0
ARC
  5
8727
  8
AM_0
 10
699.28233421371351
 20
137.82453697349149
 30
0.0
 40
16.000000499999999
 50
108.2099599999986
 51
71.790052000018392
  0
LINE
  5
8728
  8
AM_0
 10
704.28235021371313
 20
148.82453797349169
 30
0.0
 11
704.28235021371313
 21
156.82453897349171
 31
0.0
  0
LINE
  5
8729
  8
AM_0
 10
694.28233321371511
 20
148.82453797349169
 30
0.0
 11
694.28233321371511
 21
156.82453897349171
 31
0.0
  0
LINE
  5
872A
  8
AM_0
 10
694.28233321371511
 20
148.82453797349169
 30
0.0
 11
704.28235021371313
 21
148.82453797349169
 31
0.0
  0
LINE
  5
872B
  8
AM_0
 10
694.28233321371511
 20
156.82453897349171
 30
0.0
 11
704.28235021371313
 21
156.82453897349171
 31
0.0
  0
ARC
  5
872C
  8
AM_0
 10
752.28234421371371
 20
99.824535973491905
 30
0.0
 40
5.0000000999999967
 50
179.99998999999889
 51
270.0
  0
LINE
  5
872D
  8
AM_0
 10
816.78234421371485
 20
107.8245519734925
 30
0.0
 11
813.36749221371485
 21
42.665262973491899
 31
0.0
  0
LINE
  5
872E
  8
AM_0
 10
752.28234421371371
 20
94.824549973491685
 30
0.0
 11
785.25908221371492
 21
94.824549973491685
 31
0.0
  0
CIRCLE
  5
872F
  8
AM_0
 10
794.74176421371374
 20
42.365151973492686
 30
0.0
 40
7.5000002999999982
  0
ARC
  5
8731
  8
AM_0
 10
785.25908221371492
 20
99.824535973491905
 30
0.0
 40
5.0000000999999967
 50
270.0
 51
336.15553000000051
  0
LINE
  5
8732
  8
AM_0
 10
747.28233421371306
 20
137.82453697349149
 30
0.0
 11
747.28233421371306
 21
99.824535973491905
 31
0.0
  0
ARC
  5
8733
  8
AM_0
 10
699.28233421371351
 20
137.82453697349149
 30
0.0
 40
48.0
 50
0.0
 51
35.223151999998272
  0
ARC
  5
8734
  8
AM_0
 10
699.28233421371351
 20
109.8245529734919
 30
0.0
 40
93.500003999999976
 50
356.9921199999996
 51
17.85321299999984
  0
LINE
  5
8735
  8
AM_0
 10
816.78234121371486
 20
137.82453697349149
 30
0.0
 11
816.78234121371486
 21
107.8245369734918
 31
0.0
  0
ARC
  5
8736
  8
AM_0
 10
699.28233421371351
 20
137.82453697349149
 30
0.0
 40
89.000003999999961
 50
0.4282278599952702
 51
13.87576399999174
  0
LINE
  5
8737
  8
AM_0
 10
816.78234121371486
 20
137.82453697349149
 30
0.0
 11
816.78234121371486
 21
167.82453697349169
 31
0.0
  0
CIRCLE
  5
873A
  8
AM_0
 10
603.82290421371499
 20
233.28395497349271
 30
0.0
 40
7.5000002999999982
  0
LINE
  5
873B
  8
AM_0
 10
669.28234921371313
 20
255.32456497349261
 30
0.0
 11
604.12307521371349
 21
251.90972497349159
 31
0.0
  0
ARC
  5
873D
  8
AM_0
 10
605.16979621371502
 20
231.9370749734928
 30
0.0
 40
20.000000700000001
 50
92.999998999995157
 51
176.999989999994
  0
ARC
  5
873E
  8
AM_0
 10
699.28233421371351
 20
137.82453697349149
 30
0.0
 40
48.0
 50
54.7768500000156
 51
125.2231399999917
  0
ARC
  5
873F
  8
AM_0
 10
699.28233421371351
 20
109.8245529734919
 30
0.0
 40
99.500004000000004
 50
58.838494000008723
 51
86.644179999983592
  0
LINE
  5
8740
  8
AM_0
 10
699.28233421371351
 20
255.32453497349169
 30
0.0
 11
729.2823342137134
 21
255.32453497349169
 31
0.0
  0
LINE
  5
8741
  8
AM_0
 10
665.17840621371352
 20
177.58534297349141
 30
0.0
 11
635.9480892137135
 21
206.81564497349359
 31
0.0
  0
ARC
  5
8742
  8
AM_0
 10
639.48361021371375
 20
210.3511749734925
 30
0.0
 40
5.0000000999999967
 50
129.50582000000111
 51
225.00000000001839
  0
LINE
  5
8743
  8
AM_0
 10
659.52154621371335
 20
171.92847997349159
 30
0.0
 11
630.29122921371277
 21
201.15878497349269
 31
0.0
  0
ARC
  5
8744
  8
AM_0
 10
626.75570521371355
 20
197.62325497349161
 30
0.0
 40
5.0000000999999967
 50
45.000000999994569
 51
140.49418000000711
  0
ARC
  5
8745
  8
AM_0
 10
668.71392721371365
 20
181.1208639734925
 30
0.0
 40
5.0000000999999967
 50
225.00000000001839
 51
305.2231499999844
  0
ARC
  5
8746
  8
AM_0
 10
699.28233421371351
 20
109.8245649734918
 30
0.0
 40
99.500004000000004
 50
93.355818000010416
 51
121.1615138318468
  0
ARC
  5
8747
  8
AM_0
 10
705.28233421371306
 20
212.14877497349181
 30
0.0
 40
3.0
 50
179.99998999999889
 51
266.64418999998747
  0
ARC
  5
8748
  8
AM_0
 10
705.28233421371306
 20
218.3392449734917
 30
0.0
 40
3.0
 50
90.000002999984645
 51
180.00001000000091
  0
ARC
  5
8749
  8
AM_0
 10
693.28233421371306
 20
212.14877497349181
 30
0.0
 40
3.0
 50
273.35582000001631
 51
0.0
  0
ARC
  5
874A
  8
AM_0
 10
693.28233421371306
 20
218.3392449734917
 30
0.0
 40
3.0
 50
0.0
 51
90.000002999984645
  0
LINE
  5
874B
  8
AM_0
 10
696.28233421371328
 20
218.3392449734917
 30
0.0
 11
696.28233421371328
 21
212.14877497349181
 31
0.0
  0
LINE
  5
874C
  8
AM_0
 10
702.28233421371306
 20
218.3392449734917
 30
0.0
 11
702.28233421371306
 21
212.14877497349181
 31
0.0
  0
LINE
  5
874D
  8
AM_0
 10
699.28233421371351
 20
255.32453497349169
 30
0.0
 11
669.28233421371294
 21
255.32453497349169
 31
0.0
  0
ARC
  5
874E
  8
ﾁｭｳｼﾝｾﾝ
 10
699.28233421371351
 20
137.82453697349149
 30
0.0
 40
135.00000299999991
 50
37.780197062758972
 51
52.21979573471161
  0
ARC
  5
874F
  8
AM_0
 10
793.39490221371352
 20
231.9370749734928
 30
0.0
 40
20.000000700000001
 50
3.0000000999981662
 51
86.999998999983973
  0
ARC
  5
8750
  8
AM_0
 10
771.80898421371444
 20
197.62325497349161
 30
0.0
 40
5.0000000999999967
 50
39.505818000008247
 51
134.9999999999815
  0
ARC
  5
8751
  8
AM_0
 10
759.08105821371373
 20
210.3511749734925
 30
0.0
 40
5.0000000999999967
 50
314.99999999998158
 51
50.494181999991731
  0
LINE
  5
8752
  8
AM_0
 10
733.38630721371374
 20
177.58534297349141
 30
0.0
 11
762.61660321371357
 21
206.81564497349359
 31
0.0
  0
LINE
  5
8753
  8
AM_0
 10
739.0431702137131
 20
171.92847997349159
 30
0.0
 11
768.27346921371281
 21
201.15878497349269
 31
0.0
  0
ARC
  5
8754
  8
AM_0
 10
729.85075621371254
 20
181.1208639734925
 30
0.0
 40
5.0000000999999967
 50
234.7768600000081
 51
314.99999999998158
  0
CIRCLE
  5
8755
  8
AM_0
 10
794.74176421371374
 20
233.28395497349271
 30
0.0
 40
7.5000002999999982
  0
LINE
  5
8756
  8
ﾁｭｳｼﾝｾﾝ
 10
782.72095608237726
 20
221.26313254449079
 30
0.0
 11
806.7625787885388
 21
245.3047709590102
 31
0.0
  0
LINE
  5
8757
  8
AM_0
 10
729.28234921371495
 20
255.32453497349169
 30
0.0
 11
794.44161421371371
 21
251.9096949734917
 31
0.0
  0
ARC
  5
8759
  8
AM_0
 10
78.48036415050592
 20
96.834561973492725
 30
0.0
 40
1.335016049999999
 50
89.732354999995479
 51
270.26762999999562
  0
LINE
  5
875A
  8
ﾁｭｳｼﾝｾﾝ
 10
134.1565541505046
 20
122.4495654734929
 30
0.0
 11
134.1565541505046
 21
41.199536473492849
 31
0.0
  0
LINE
  5
875B
  8
AM_0
 10
174.9265841505057
 20
111.81954697349261
 30
0.0
 11
174.9265841505057
 21
51.819543973491591
 31
0.0
  0
LINE
  5
875C
  8
AM_0
 10
77.156554150504689
 20
134.8195359734917
 30
0.0
 11
77.156554150504689
 21
32.37955597349265
 31
0.0
  0
LINE
  5
875D
  8
AM_0
 10
185.15658415050561
 20
137.82454597349181
 30
0.0
 11
185.15658415050561
 21
25.824534973491609
 31
0.0
  0
LINE
  5
875F
  8
AM_0
 10
178.39661870651841
 20
45.824550973492883
 30
0.0
 11
79.799058307428808
 21
45.824550973492883
 31
0.0
  0
LINE
  5
8760
  8
AM_0
 10
134.1565541505046
 20
45.09954397349189
 30
0.0
 11
181.9765841505058
 21
45.09954397349189
 31
0.0
  0
LINE
  5
8761
  8
AM_0
 10
80.35656415050471
 20
25.539528973492679
 30
0.0
 11
177.27657415050581
 21
25.539528973492679
 31
0.0
  0
LINE
  5
8762
  8
AM_0
 10
102.6565541505056
 20
43.599543973491897
 30
0.0
 11
185.15658415050561
 21
43.599543973491897
 31
0.0
  0
ARC
  5
8763
  8
AM_0
 10
284.2077473577574
 20
83.512124913413544
 30
0.0
 40
204.69842337270771
 50
178.02572260412811
 51
178.71785518950361
  0
ARC
  5
8764
  8
AM_0
 10
284.1304954695957
 20
80.132581047466701
 30
0.0
 40
204.6212004872653
 50
181.28349981584481
 51
181.9756167481541
  0
ARC
  5
8765
  8
AM_0
 10
79.698814150505768
 20
46.819545973491579
 30
0.0
 40
1.0000319699999971
 50
89.552707000006976
 51
270.4472999999881
  0
ARC
  5
8766
  8
AM_0
 10
79.698814150505768
 20
96.819546973492621
 30
0.0
 40
1.0000319699999971
 50
89.552707000006976
 51
270.4472999999881
  0
ARC
  5
8767
  8
AM_0
 10
79.698814150505768
 20
86.819544973491858
 30
0.0
 40
1.0000319699999971
 50
89.552707000006976
 51
270.4472999999881
  0
ARC
  5
8768
  8
AM_0
 10
79.698814150505768
 20
76.819545973491543
 30
0.0
 40
1.0000319699999971
 50
89.552707000006976
 51
270.4472999999881
  0
ARC
  5
8769
  8
AM_0
 10
79.698814150505768
 20
66.819543973491648
 30
0.0
 40
1.0000319699999971
 50
89.552707000006976
 51
270.4472999999881
  0
ARC
  5
876A
  8
AM_0
 10
79.698814150505768
 20
56.819529973492592
 30
0.0
 40
1.0000319699999971
 50
89.552707000006976
 51
270.4472999999881
  0
ARC
  5
876B
  8
AM_0
 10
78.418354150505806
 20
86.829525973492679
 30
0.0
 40
1.270028039999999
 50
89.627211000013716
 51
270.37279000000223
  0
ARC
  5
876C
  8
AM_0
 10
78.418354150505806
 20
76.819545973491543
 30
0.0
 40
1.270028039999999
 50
89.627211000013716
 51
270.37279000000223
  0
ARC
  5
876D
  8
AM_0
 10
78.48036415050592
 20
66.809535973491677
 30
0.0
 40
1.3300160699999981
 50
89.731344000004427
 51
270.26864999998628
  0
ARC
  5
876E
  8
AM_0
 10
78.610984150505814
 20
56.799555973492872
 30
0.0
 40
1.460012009999998
 50
89.778814000009305
 51
270.22118999999998
  0
ARC
  5
876F
  8
AM_0
 10
80.448694150505631
 20
21.930018973492668
 30
0.0
 40
2.000475929999999
 50
187.7704600000003
 51
269.93968999998953
  0
ARC
  5
8770
  8
AM_0
 10
80.361214150505901
 20
27.538536973492679
 30
0.0
 40
1.999007999999999
 50
190.63741000000249
 51
269.86654999998967
  0
ARC
  5
8771
  8
AM_0
 10
80.412544150505724
 20
24.689721973492681
 30
0.0
 40
2.0001841200000001
 50
188.92100000000079
 51
269.8285299999992
  0
ARC
  5
8772
  8
AM_0
 10
80.420104150505736
 20
22.846872973491649
 30
0.0
 40
1.997348129999998
 50
188.85146999999759
 51
270.18467999999751
  0
LINE
  5
8773
  8
AM_0
 10
83.156554150505585
 20
97.819545973491685
 30
0.0
 11
79.516624150505777
 21
97.819545973491685
 31
0.0
  0
LINE
  5
8774
  8
AM_0
 10
83.156554150505585
 20
95.81954497349173
 30
0.0
 11
79.516624150505777
 21
95.81954497349173
 31
0.0
  0
LINE
  5
8775
  8
AM_0
 10
83.156554150505585
 20
87.819546973492834
 30
0.0
 11
79.516624150505777
 21
87.819546973492834
 31
0.0
  0
LINE
  5
8776
  8
AM_0
 10
83.156554150505585
 20
85.819545973491515
 30
0.0
 11
79.516624150505777
 21
85.819545973491515
 31
0.0
  0
LINE
  5
8777
  8
AM_0
 10
78.48657415050593
 20
95.499537973492579
 30
0.0
 11
83.156554150505585
 21
95.499537973492579
 31
0.0
  0
LINE
  5
8778
  8
AM_0
 10
78.42657415050553
 20
88.099545973492681
 30
0.0
 11
83.156554150505585
 21
88.099545973492681
 31
0.0
  0
LINE
  5
8779
  8
AM_0
 10
78.42657415050553
 20
85.559535973491833
 30
0.0
 11
83.156554150505585
 21
85.559535973491833
 31
0.0
  0
LINE
  5
877A
  8
AM_0
 10
78.42657415050553
 20
78.08953597349155
 30
0.0
 11
83.156554150505585
 21
78.08953597349155
 31
0.0
  0
LINE
  5
877B
  8
AM_0
 10
83.156554150505585
 20
77.819544973491702
 30
0.0
 11
79.516624150505777
 21
77.819544973491702
 31
0.0
  0
LINE
  5
877C
  8
AM_0
 10
83.156554150505585
 20
75.819546973491924
 30
0.0
 11
79.516624150505777
 21
75.819546973491924
 31
0.0
  0
LINE
  5
877D
  8
AM_0
 10
78.42657415050553
 20
75.549555973492872
 30
0.0
 11
83.156554150505585
 21
75.549555973492872
 31
0.0
  0
LINE
  5
877E
  8
AM_0
 10
78.48657415050593
 20
68.139552973491675
 30
0.0
 11
83.156554150505585
 21
68.139552973491675
 31
0.0
  0
LINE
  5
877F
  8
AM_0
 10
83.156554150505585
 20
67.819545973491586
 30
0.0
 11
79.516624150505777
 21
67.819545973491586
 31
0.0
  0
LINE
  5
8780
  8
AM_0
 10
83.156554150505585
 20
65.819529973491683
 30
0.0
 11
79.516624150505777
 21
65.819529973491683
 31
0.0
  0
LINE
  5
8781
  8
AM_0
 10
78.48657415050593
 20
65.479548973492683
 30
0.0
 11
83.156554150505585
 21
65.479548973492683
 31
0.0
  0
LINE
  5
8782
  8
AM_0
 10
83.156554150505585
 20
57.819543973491591
 30
0.0
 11
79.516624150505777
 21
57.819543973491591
 31
0.0
  0
LINE
  5
8783
  8
AM_0
 10
78.616594150505549
 20
58.259547973491692
 30
0.0
 11
83.156554150505585
 21
58.259547973491692
 31
0.0
  0
LINE
  5
8784
  8
AM_0
 10
83.156554150505585
 20
55.819545973492623
 30
0.0
 11
79.516624150505777
 21
55.819545973492623
 31
0.0
  0
LINE
  5
8785
  8
AM_0
 10
78.616594150505549
 20
55.339533973491648
 30
0.0
 11
83.156554150505585
 21
55.339533973491648
 31
0.0
  0
LINE
  5
8786
  8
AM_0
 10
78.826564150505874
 20
45.09954397349189
 30
0.0
 11
134.1565541505046
 21
45.09954397349189
 31
0.0
  0
LINE
  5
8787
  8
AM_0
 10
78.826564150505874
 20
48.459558973492662
 30
0.0
 11
83.263458178918413
 21
48.459558973492662
 31
0.0
  0
LINE
  5
8788
  8
AM_0
 10
83.493923311609706
 20
47.819529973491782
 30
0.0
 11
79.516624150505777
 21
47.819529973491782
 31
0.0
  0
LINE
  5
8789
  8
AM_0
 10
82.516564150505928
 20
45.169551973492673
 30
0.0
 11
77.156554150504689
 21
33.729546973491892
 31
0.0
  0
LINE
  5
878A
  8
AM_0
 10
77.156554150504689
 20
33.72953197349181
 30
0.0
 11
78.396544150505633
 21
27.169533973492658
 31
0.0
  0
LINE
  5
878B
  8
AM_0
 10
77.156554150504689
 20
31.039560973491682
 30
0.0
 11
78.466564150505732
 21
21.65955697349159
 31
0.0
  0
LINE
  5
878C
  8
AM_0
 10
69.156574150505548
 20
28.824534973491659
 30
0.0
 11
77.156554150504689
 21
28.824534973491659
 31
0.0
  0
LINE
  5
878D
  8
AM_0
 10
69.156574150505548
 20
28.81954297349187
 30
0.0
 11
77.156554150504689
 21
28.81954297349187
 31
0.0
  0
LINE
  5
878E
  8
AM_0
 10
77.156554150504689
 20
32.37954097349165
 30
0.0
 11
78.43653415050585
 21
24.379542973491649
 31
0.0
  0
LINE
  5
878F
  8
AM_0
 10
77.156554150504689
 20
31.039530973491878
 30
0.0
 11
78.446614150505852
 21
22.539543973491678
 31
0.0
  0
LINE
  5
8790
  8
AM_0
 10
69.846574150505603
 20
38.629542973492562
 30
0.0
 11
76.076614150504611
 21
38.629542973492562
 31
0.0
  0
ARC
  5
8791
  8
AM_0
 10
78.826564150505874
 20
46.779534973491877
 30
0.0
 40
1.679999999999999
 50
90.000002999984645
 51
270.0
  0
ARC
  5
8792
  8
AM_0
 10
281.12027879188457
 20
83.532391539014554
 30
0.0
 40
201.61085738285439
 50
179.42527489174179
 51
180.13294661222409
  0
ARC
  5
8793
  8
AM_0
 10
284.15019807001772
 20
83.531774317131578
 30
0.0
 40
204.64076721509861
 50
180.13080539050139
 51
180.47940135318751
  0
ARC
  5
8794
  8
AM_0
 10
282.40353212086831
 20
80.106802236499533
 30
0.0
 40
202.89403267033549
 50
180.21919094446361
 51
180.57069649463509
  0
ARC
  5
8795
  8
AM_0
 10
283.44017168267459
 20
80.115045569021504
 30
0.0
 40
203.93069622692141
 50
179.87077327205679
 51
180.22039274125331
  0
ARC
  5
8796
  8
AM_0
 10
283.06217719210639
 20
80.117815187017726
 30
0.0
 40
203.55269646012371
 50
179.52099544220539
 51
179.87131288696011
  0
ARC
  5
8797
  8
AM_0
 10
284.47564595528632
 20
80.119343482555706
 30
0.0
 40
204.96200297080929
 50
186.94488316605711
 51
187.5924097181304
  0
LINE
  5
8798
  8
AM_0
 10
80.406574150505548
 20
22.689537973491891
 30
0.0
 11
114.15657415050551
 21
22.689537973491891
 31
0.0
  0
LINE
  5
8799
  8
AM_0
 10
80.426584150505718
 20
20.849541973492869
 30
0.0
 11
114.15657415050551
 21
20.849541973492869
 31
0.0
  0
LINE
  5
879A
  8
AM_0
 10
80.446594150505902
 20
19.929543973491882
 30
0.0
 11
114.15657415050551
 21
19.929543973491882
 31
0.0
  0
LINE
  5
879B
  8
AM_0
 10
102.6565541505056
 20
43.599543973491897
 30
0.0
 11
82.483774150505738
 21
45.09954397349189
 31
0.0
  0
ARC
  5
879C
  8
AM_0
 10
284.95788131803232
 20
80.189659943394702
 30
0.0
 40
205.44930125633391
 50
187.59407870997811
 51
188.88606759391871
  0
ARC
  5
879D
  8
AM_0
 10
114.1532741505056
 20
22.852824973491689
 30
0.0
 40
2.003279969999999
 50
270.09378999999711
 51
359.9062099999997
  0
LINE
  5
879E
  8
AM_0
 10
116.1565541505056
 20
21.929544973491598
 30
0.0
 11
116.1565541505056
 21
25.539528973492679
 31
0.0
  0
ARC
  5
879F
  8
AM_0
 10
114.1485641505046
 20
21.937554973491672
 30
0.0
 40
2.0080361999999989
 50
270.22878999998642
 51
359.77121000000051
  0
ARC
  5
87A0
  8
AM_0
 10
114.1493741505046
 20
24.69672697349165
 30
0.0
 40
2.007180029999998
 50
270.20462000000418
 51
359.795379999999
  0
ARC
  5
87A2
  8
AM_0
 10
284.0629120228304
 20
80.127937505082684
 30
0.0
 40
204.55326957220879
 50
185.460313996346
 51
186.1370008544763
  0
ARC
  5
87A3
  8
AM_0
 10
284.71628091659238
 20
80.187142553472512
 30
0.0
 40
205.2093074617344
 50
184.78473638767511
 51
185.45941055423771
  0
ARC
  5
87A4
  8
AM_0
 10
284.14591718190138
 20
80.137219102860669
 30
0.0
 40
204.63676715666841
 50
184.1076457018462
 51
184.78412767205219
  0
ARC
  5
87A5
  8
AM_0
 10
283.8872738340205
 20
80.125477480347868
 30
0.0
 40
204.37787853975311
 50
181.97597713470071
 51
183.3618692197054
  0
ARC
  5
87A6
  8
AM_0
 10
284.21609705974367
 20
83.509473999682683
 30
0.0
 40
204.70684984457009
 50
176.64084313943181
 51
177.33301926919791
  0
ARC
  5
87A7
  8
AM_0
 10
285.53296273272463
 20
83.45529899046079
 30
0.0
 40
206.0248100930055
 50
177.33501004864399
 51
178.022625269428
  0
LINE
  5
87A8
  8
AM_0
 10
181.9765841505058
 20
48.459558973492662
 30
0.0
 11
172.15655415050551
 21
48.459558973492662
 31
0.0
  0
LINE
  5
87A9
  8
AM_0
 10
183.65658415050561
 20
43.599543973491897
 30
0.0
 11
179.20656415050539
 21
27.019539973491639
 31
0.0
  0
ARC
  5
87AA
  8
AM_0
 10
177.2736941505058
 20
27.5416809734919
 30
0.0
 40
2.0021281800000001
 50
270.08151999998688
 51
344.88329999999792
  0
LINE
  5
87AB
  8
AM_0
 10
178.4965841505059
 20
47.819529973491782
 30
0.0
 11
172.15655415050551
 21
47.819529973491782
 31
0.0
  0
LINE
  5
87AC
  8
AM_0
 10
172.15655415050551
 20
51.74183888916582
 30
0.0
 11
174.9265841505057
 21
51.819528973492652
 31
0.0
  0
ARC
  5
87AD
  8
AM_0
 10
178.4965841505059
 20
46.819545973491579
 30
0.0
 40
1.000004069999999
 50
270.0
 51
90.000002999984645
  0
LINE
  5
87AE
  8
AM_0
 10
179.69655415050551
 20
28.81954297349187
 30
0.0
 11
185.15658415050561
 21
28.81954297349187
 31
0.0
  0
ARC
  5
87AF
  8
AM_0
 10
181.9765841505058
 20
46.779534973491877
 30
0.0
 40
1.680008099999998
 50
270.0
 51
90.000002999984645
  0
ARC
  5
87B0
  8
AM_0
 10
181.9765841505058
 20
46.779534973491877
 30
0.0
 40
1.675004159999999
 50
270.0
 51
90.000002999984645
  0
LINE
  5
87B2
  8
AM_0
 10
79.706621056358443
 20
117.81954947011241
 30
0.0
 11
178.49658409814441
 21
117.81955204349281
 31
0.0
  0
LINE
  5
87B3
  8
AM_0
 10
78.826564150505874
 20
118.54951597349159
 30
0.0
 11
181.9765841505058
 21
118.54951597349159
 31
0.0
  0
LINE
  5
87B4
  8
AM_0
 10
80.35656415050471
 20
138.10954597349249
 30
0.0
 11
177.27657415050581
 21
138.10954597349249
 31
0.0
  0
LINE
  5
87B5
  8
AM_0
 10
102.6565541505056
 20
120.04951597349159
 30
0.0
 11
185.15658415050561
 21
120.04951597349159
 31
0.0
  0
ARC
  5
87B6
  8
AM_0
 10
79.698814150505768
 20
116.8195479734915
 30
0.0
 40
1.0000319699999971
 50
89.552707000006976
 51
270.4472999999881
  0
ARC
  5
87B7
  8
AM_0
 10
79.698814150505768
 20
106.8195459734915
 30
0.0
 40
1.0000319699999971
 50
89.552707000006976
 51
270.4472999999881
  0
ARC
  5
87B8
  8
AM_0
 10
78.610924150505511
 20
106.8495459734926
 30
0.0
 40
1.460012009999998
 50
89.777016999992483
 51
270.22298999999867
  0
ARC
  5
87B9
  8
AM_0
 10
80.359444150505624
 20
136.1126259734917
 30
0.0
 40
1.996904069999998
 50
90.083473999999597
 51
169.41256000000021
  0
ARC
  5
87BA
  8
AM_0
 10
80.404984150505683
 20
138.95641597349169
 30
0.0
 40
1.9931281199999991
 50
89.953372999993974
 51
170.96118000000229
  0
ARC
  5
87BB
  8
AM_0
 10
80.419324150505858
 20
140.8049559734917
 30
0.0
 40
1.994588069999998
 50
89.790753000002425
 51
171.50708999999961
  0
ARC
  5
87BC
  8
AM_0
 10
80.44122415050559
 20
141.71605597349171
 30
0.0
 40
1.9934921999999999
 50
89.846091000007917
 51
172.11473999999751
  0
LINE
  5
87BD
  8
AM_0
 10
83.492080271536452
 20
115.8195459734915
 30
0.0
 11
79.516624150505777
 21
115.8195459734915
 31
0.0
  0
LINE
  5
87BE
  8
AM_0
 10
83.156554150505585
 20
107.81954797349159
 30
0.0
 11
79.516624150505777
 21
107.81954797349159
 31
0.0
  0
LINE
  5
87BF
  8
AM_0
 10
83.156554150505585
 20
105.81954697349281
 30
0.0
 11
79.516624150505777
 21
105.81954697349281
 31
0.0
  0
LINE
  5
87C0
  8
AM_0
 10
78.826564150505874
 20
115.18954297349249
 30
0.0
 11
83.265226754456293
 21
115.18954297349249
 31
0.0
  0
LINE
  5
87C1
  8
AM_0
 10
78.616594150505549
 20
108.3095379734925
 30
0.0
 11
83.156554150505585
 21
108.3095379734925
 31
0.0
  0
LINE
  5
87C2
  8
AM_0
 10
78.616594150505549
 20
105.3895239734928
 30
0.0
 11
83.156554150505585
 21
105.3895239734928
 31
0.0
  0
LINE
  5
87C3
  8
AM_0
 10
78.48657415050593
 20
98.169552973491534
 30
0.0
 11
83.156554150505585
 21
98.169552973491534
 31
0.0
  0
LINE
  5
87C4
  8
AM_0
 10
82.516564150505928
 20
118.4695359734918
 30
0.0
 11
77.156554150504689
 21
129.91951597349191
 31
0.0
  0
LINE
  5
87C5
  8
AM_0
 10
77.156554150504689
 20
132.60952597349171
 30
0.0
 11
78.466564150505732
 21
141.9895359734916
 31
0.0
  0
ARC
  5
87C6
  8
AM_0
 10
78.826564150505874
 20
116.8695339734918
 30
0.0
 40
1.679999999999999
 50
90.000002999984645
 51
270.0
  0
LINE
  5
87C7
  8
AM_0
 10
77.156554150504689
 20
129.91954597349181
 30
0.0
 11
78.396544150505633
 21
136.47955597349261
 31
0.0
  0
LINE
  5
87C8
  8
AM_0
 10
69.846574150505603
 20
125.0095359734925
 30
0.0
 11
76.076614150504611
 21
125.0095359734925
 31
0.0
  0
LINE
  5
87C9
  8
AM_0
 10
69.156574150505548
 20
134.82454597349269
 30
0.0
 11
77.156554150504689
 21
134.82454597349269
 31
0.0
  0
LINE
  5
87CA
  8
AM_0
 10
69.156574150505548
 20
134.8195359734917
 30
0.0
 11
77.156554150504689
 21
134.8195359734917
 31
0.0
  0
LINE
  5
87CB
  8
AM_0
 10
77.156554150504689
 20
131.25955597349181
 30
0.0
 11
78.43653415050585
 21
139.2695259734927
 31
0.0
  0
LINE
  5
87CC
  8
AM_0
 10
77.156554150504689
 20
132.60955597349181
 30
0.0
 11
78.446614150505852
 21
141.09955597349261
 31
0.0
  0
ARC
  5
87CD
  8
AM_0
 10
114.1550441505055
 20
140.79799597349171
 30
0.0
 40
2.0015440500000001
 50
0.0442139990008847
 51
89.955783999999085
  0
LINE
  5
87CE
  8
AM_0
 10
116.1565541505056
 20
141.7095459734916
 30
0.0
 11
116.1565541505056
 21
138.10954597349249
 31
0.0
  0
LINE
  5
87CF
  8
AM_0
 10
80.406574150505548
 20
140.94952597349169
 30
0.0
 11
114.15657415050551
 21
140.94952597349169
 31
0.0
  0
LINE
  5
87D0
  8
AM_0
 10
102.6565541505056
 20
120.04951597349159
 30
0.0
 11
82.479124150505854
 21
118.5495459734917
 31
0.0
  0
ARC
  5
87D1
  8
AM_0
 10
283.9375636583186
 20
83.568620793294485
 30
0.0
 40
204.4231110527293
 50
172.3993537623434
 51
173.04804061343049
  0
ARC
  5
87D2
  8
AM_0
 10
284.59384579612652
 20
83.469947799310376
 30
0.0
 40
205.086602105558
 50
173.86479656848201
 51
175.21533938006471
  0
ARC
  5
87D3
  8
AM_0
 10
283.98808213601882
 20
83.527476385611578
 30
0.0
 40
204.47815098782999
 50
175.21724497659221
 51
175.8945207385199
  0
ARC
  5
87D4
  8
AM_0
 10
284.26840053895643
 20
83.519331180924667
 30
0.0
 40
204.75756069728581
 50
171.1026667735583
 51
172.3979273485304
  0
ARC
  5
87D5
  8
AM_0
 10
114.1561541505057
 20
138.9491259734917
 30
0.0
 40
2.0004079799999981
 50
0.0116490000006966
 51
89.98834999999788
  0
LINE
  5
87D6
  8
AM_0
 10
80.426584150505718
 20
142.7995359734916
 30
0.0
 11
114.15657415050551
 21
142.7995359734916
 31
0.0
  0
LINE
  5
87D7
  8
AM_0
 10
80.446594150505902
 20
143.70955597349169
 30
0.0
 11
114.15657415050551
 21
143.70955597349169
 31
0.0
  0
ARC
  5
87D8
  8
AM_0
 10
114.15528415050581
 20
141.70825597349159
 30
0.0
 40
2.0012880000000002
 50
0.0368719989989446
 51
89.963125999991462
  0
LINE
  5
87D9
  8
AM_0
 10
181.9765841505058
 20
115.18954297349249
 30
0.0
 11
172.15655415050551
 21
115.18954297349249
 31
0.0
  0
LINE
  5
87DA
  8
AM_0
 10
183.3565841505046
 20
121.1595459734928
 30
0.0
 11
179.2066241505058
 21
136.6195359734927
 31
0.0
  0
LINE
  5
87DB
  8
AM_0
 10
172.15655415050551
 20
111.90724805781829
 30
0.0
 11
174.9265841505057
 21
111.8295579734926
 31
0.0
  0
ARC
  5
87DC
  8
AM_0
 10
178.4965841505059
 20
116.8195479734915
 30
0.0
 40
1.000004069999999
 50
270.0
 51
90.000002999984645
  0
ARC
  5
87DD
  8
AM_0
 10
177.27375415050571
 20
136.11094597349171
 30
0.0
 40
1.99860411
 50
14.74271599999944
 51
89.919516000001124
  0
ARC
  5
87DE
  8
AM_0
 10
181.9765841505058
 20
116.8695339734918
 30
0.0
 40
1.680008099999998
 50
270.0
 51
90.000002999984645
  0
ARC
  5
87DF
  8
AM_0
 10
181.9765841505058
 20
116.8695339734918
 30
0.0
 40
1.675004159999999
 50
270.0
 51
90.000002999984645
  0
ARC
  5
87E0
  8
AM_0
 10
184.80975415050571
 20
121.5472959734915
 30
0.0
 40
1.502776079999999
 50
194.75643000000039
 51
269.8775900000029
  0
LINE
  5
87E1
  8
AM_0
 10
179.69655415050551
 20
134.8195359734917
 30
0.0
 11
185.15658415050561
 21
134.8195359734917
 31
0.0
  0
LINE
  5
87E2
  8
AM_0
 10
167.6565541505046
 20
104.3245509734928
 30
0.0
 11
167.6565541505046
 21
59.324550973492649
 31
0.0
  0
LINE
  5
87E3
  8
AM_0
 10
165.5565541505056
 20
104.8748035051858
 30
0.0
 11
165.5565541505056
 21
58.774298441797541
 31
0.0
  0
LINE
  5
87E4
  8
AM_0
 10
82.656554150505585
 20
63.824550973492642
 30
0.0
 11
82.656554150505585
 21
53.824540973491587
 31
0.0
  0
LINE
  5
87E5
  8
AM_0
 10
83.156554150505585
 20
49.324544973491591
 30
0.0
 11
83.156554150505585
 21
114.32454097349139
 31
0.0
  0
LINE
  5
87E6
  8
AM_0
 10
154.7067986821985
 20
47.924542973491889
 30
0.0
 11
87.576534150505736
 21
47.924542973491889
 31
0.0
  0
LINE
  5
87E7
  8
AM_0
 10
87.576534150505736
 20
47.924542973491889
 30
0.0
 11
87.576534150505736
 21
45.82455197349168
 31
0.0
  0
ARC
  5
87E8
  8
AM_0
 10
86.649174150505587
 20
49.317197973491602
 30
0.0
 40
3.492651899999998
 50
179.8793300000022
 51
270.12067999999482
  0
ARC
  5
87E9
  8
AM_0
 10
83.14923415050589
 20
53.817200973491651
 30
0.0
 40
0.4927000100000001
 50
179.14455999999711
 51
270.8554399999897
  0
ARC
  5
87EA
  8
AM_0
 10
169.6565541505056
 20
59.324550973492649
 30
0.0
 40
2.0
 50
180.0
 51
270.0
  0
LINE
  5
87EB
  8
AM_0
 10
165.14650364416539
 20
57.784348948135673
 30
0.0
 11
155.69674817586059
 21
48.334593479831831
 31
0.0
  0
LINE
  5
87EC
  8
AM_0
 10
155.69675617586151
 20
48.334601479831861
 30
0.0
 11
165.14650364416721
 21
57.784348948137499
 31
0.0
  0
ARC
  5
87ED
  8
AM_0
 10
154.7067986821985
 20
49.324542973491603
 30
0.0
 40
1.399999999999999
 50
270.0
 51
315.00000000000921
1001
GENIUS_GENODEF_13
1002
{
1000
HIER
1070
     0
1002
}
1002
{
1000
MANEDIT
1070
     0
1002
}
1002
{
1000
NOSEL
1070
     0
1002
}
1002
{
1000
BEHIND
1070
     0
1002
}
1002
{
1000
OTHER
1070
     0
1002
}
1002
{
1000
REACTOR
1002
}
1001
GENIUS_GENOBJ-N-FIL_13
1002
{
1000
OWNER
1000
GEN
1002
}
  0
ARC
  5
87EE
  8
AM_0
 10
164.1565541505056
 20
58.774298441797541
 30
0.0
 40
1.4000000000006301
 50
314.99999999997232
 51
0.0
  0
ARC
  5
87EF
  8
AM_0
 10
170.15655415050469
 20
47.824550973492869
 30
0.0
 40
2.0
 50
270.0
 51
0.0
  0
ARC
  5
87F0
  8
AM_0
 10
170.15655415050469
 20
55.32455097349191
 30
0.0
 40
2.0
 50
0.0
 51
90.0
  0
LINE
  5
87F1
  8
AM_0
 10
170.15655415050469
 20
57.32455097349191
 30
0.0
 11
169.6565541505056
 21
57.32455097349191
 31
0.0
  0
LINE
  5
87F2
  8
AM_0
 10
172.15655415050551
 20
47.824550973492869
 30
0.0
 11
172.15655415050551
 21
55.32455097349191
 31
0.0
  0
LINE
  5
87F3
  8
AM_0
 10
87.576534150505736
 20
115.72453097349251
 30
0.0
 11
154.71428997038109
 21
115.72453097349251
 31
0.0
  0
ARC
  5
87F4
  8
AM_0
 10
83.157104150505788
 20
63.824000973491593
 30
0.0
 40
0.5005480100000002
 50
90.062622000000005
 51
179.93736999999041
  0
ARC
  5
87F5
  8
AM_0
 10
83.157104150505788
 20
109.82400097349139
 30
0.0
 40
0.5005480100000002
 50
90.062622000000005
 51
179.93736999999041
  0
ARC
  5
87F6
  8
AM_0
 10
83.149044150505659
 20
99.817040973492581
 30
0.0
 40
0.49254802
 50
179.12656000000169
 51
270.8734499999884
  0
LINE
  5
87F7
  8
AM_0
 10
82.656554150505585
 20
109.82454097349149
 30
0.0
 11
82.656554150505585
 21
99.82455097349181
 31
0.0
  0
LINE
  5
87F8
  8
AM_0
 10
87.576534150505736
 20
115.72453097349251
 30
0.0
 11
87.576534150505736
 21
117.8195309734927
 31
0.0
  0
ARC
  5
87F9
  8
AM_0
 10
86.657044150505499
 20
114.32405097349159
 30
0.0
 40
3.5005001999999981
 50
90.008164999989489
 51
179.99183999999781
  0
LINE
  5
87FA
  8
AM_0
 10
169.6565541505056
 20
87.324550973491796
 30
0.0
 11
167.6565541505046
 21
87.324550973491796
 31
0.0
  0
LINE
  5
87FB
  8
AM_0
 10
167.6565541505046
 20
76.324550973492705
 30
0.0
 11
169.6565541505056
 21
76.324550973492705
 31
0.0
  0
LINE
  5
87FC
  8
AM_0
 10
169.6565541505056
 20
76.324550973492705
 30
0.0
 11
169.6565541505056
 21
87.324550973491796
 31
0.0
  0
ARC
  5
87FD
  8
AM_0
 10
169.6565541505056
 20
104.3245509734928
 30
0.0
 40
2.0
 50
90.0
 51
180.0
  0
CIRCLE
  5
87FE
  8
AM_0
 10
166.65655415050449
 20
112.8245509734917
 30
0.0
 40
3.4999999999999631
  0
LINE
  5
87FF
  8
AM_0
 10
155.69675617586151
 20
115.3145004671525
 30
0.0
 11
165.14650364416539
 21
105.86475299884749
 31
0.0
  0
LINE
  5
8800
  8
AM_0
 10
163.5565541505056
 20
107.45470249250749
 30
0.0
 11
165.14650364416539
 21
105.86475299884749
 31
0.0
  0
ARC
  5
8801
  8
AM_0
 10
164.1565541505056
 20
104.8748035051858
 30
0.0
 40
1.400000000000118
 50
0.0
 51
45.000000000027619
  0
ARC
  5
8802
  8
AM_0
 10
154.70680668219839
 20
114.3245509734917
 30
0.0
 40
1.40000000000077
 50
44.999999999981569
 51
89.999999999947889
  0
LINE
  5
8803
  8
AM_0
 10
172.15655415050551
 20
108.3245509734928
 30
0.0
 11
172.15655415050551
 21
115.8245509734919
 31
0.0
  0
LINE
  5
8804
  8
AM_0
 10
172.15655415050551
 20
108.3245509734928
 30
0.0
 11
172.15655415050551
 21
115.8245509734919
 31
0.0
  0
ARC
  5
8805
  8
AM_0
 10
170.15655415050469
 20
108.3245509734928
 30
0.0
 40
2.0
 50
270.0
 51
0.0
  0
LINE
  5
8806
  8
AM_0
 10
169.6565541505056
 20
106.3245509734928
 30
0.0
 11
170.15655415050469
 21
106.3245509734928
 31
0.0
  0
ARC
  5
8807
  8
AM_0
 10
170.15655415050469
 20
115.8245509734919
 30
0.0
 40
2.0
 50
0.0
 51
90.0
  0
LINE
  5
8808
  8
AM_0
 10
164.0179824692986
 20
112.8245509734928
 30
0.0
 11
169.2951258317116
 21
112.8245509734928
 31
0.0
  0
LINE
  5
8809
  8
AM_0
 10
166.65655415050449
 20
115.4631226546998
 30
0.0
 11
166.65655415050449
 21
110.1859792922855
 31
0.0
  0
CIRCLE
  5
880A
  8
AM_0
 10
166.65655415050449
 20
50.824550973492649
 30
0.0
 40
3.4999999999999631
  0
LINE
  5
880B
  8
AM_0
 10
164.0179824692986
 20
50.824550973492649
 30
0.0
 11
169.2951258317116
 21
50.824550973492649
 31
0.0
  0
LINE
  5
880C
  8
AM_0
 10
166.65655415050449
 20
53.46312265469885
 30
0.0
 11
166.65655415050449
 21
48.185979292285538
 31
0.0
  0
LINE
  5
880D
  8
AM_0
 10
178.4965841505059
 20
115.8295719734928
 30
0.0
 11
172.15655415050551
 21
115.8295719734928
 31
0.0
  0
LINE
  5
882A
  8
AM_0
 10
440.65656415050438
 20
215.70192904933251
 30
0.0
 11
440.65656415050438
 21
209.3642696117746
 31
0.0
  0
LINE
  5
8840
  8
AM_0
 10
19.156564150505801
 20
50.154534973492673
 30
0.0
 11
19.156564150505801
 21
116.3545209734918
 31
0.0
  0
LINE
  5
8841
  8
AM_0
 10
21.656554150504689
 20
57.844539973492658
 30
0.0
 11
21.656554150504689
 21
138.8245659734917
 31
0.0
  0
LINE
  5
8842
  8
AM_0
 10
69.156574150505548
 20
138.8245659734917
 30
0.0
 11
69.156574150505548
 21
24.824547973492638
 31
0.0
  0
ARC
  5
8843
  8
AM_0
 10
12.86694415050442
 20
32.523492973491891
 30
0.0
 40
0.30119199
 50
5.9148297999972721
 51
88.175987000006714
  0
ARC
  5
8844
  8
AM_0
 10
12.86841415050594
 20
32.522196973492669
 30
0.0
 40
0.8023920299999998
 50
5.890834999998706
 51
89.417558000013145
  0
LINE
  5
8845
  8
AM_0
 10
12.65655415050559
 20
33.324534973492568
 30
0.0
 11
12.65655415050559
 21
32.824548973492881
 31
0.0
  0
LINE
  5
8846
  8
AM_0
 10
12.65655415050559
 20
33.324534973492568
 30
0.0
 11
12.876604150504591
 21
33.324534973492568
 31
0.0
  0
LINE
  5
8847
  8
AM_0
 10
28.23657415050593
 20
78.104547973491805
 30
0.0
 11
13.776574150505891
 21
33.594537973491697
 31
0.0
  0
LINE
  5
8848
  8
AM_0
 10
32.996524150505593
 20
76.564539973492671
 30
0.0
 11
18.536584150503568
 21
32.054544973492561
 31
0.0
  0
LINE
  5
8849
  8
AM_0
 10
21.656554150504689
 20
37.934535973492579
 30
0.0
 11
69.156574150505548
 21
37.934535973492579
 31
0.0
  0
LINE
  5
884A
  8
AM_0
 10
21.156574150505541
 20
24.824547973492638
 30
0.0
 11
69.156574150505548
 21
24.824547973492638
 31
0.0
  0
ARC
  5
884B
  8
AM_0
 10
16.156564150505801
 20
32.824548973492881
 30
0.0
 40
2.5014601500000002
 50
162.0720800000021
 51
342.07206999999983
  0
LINE
  5
884C
  8
AM_0
 10
19.156564150505801
 20
33.974541973491789
 30
0.0
 11
19.156564150505801
 21
26.82454897349265
 31
0.0
  0
ARC
  5
884D
  8
AM_0
 10
16.155514150505489
 20
32.823006973491601
 30
0.0
 40
3.001016099999998
 50
185.13260000000031
 51
0.0291460009999069
  0
ARC
  5
884E
  8
AM_0
 10
21.154294150505841
 20
26.82222997349265
 30
0.0
 40
1.9976960999999991
 50
179.93382999999969
 51
270.06617000000341
  0
ARC
  5
884F
  8
AM_0
 10
19.20528415050557
 20
44.32445797349169
 30
0.0
 40
4.0507442999999981
 50
99.071790999991933
 51
224.91233999999801
  0
LINE
  5
8850
  8
AM_0
 10
21.656554150504689
 20
41.664531973492537
 30
0.0
 11
21.656554150504689
 21
24.824547973492638
 31
0.0
  0
LINE
  5
8851
  8
AM_0
 10
64.156564150505801
 20
37.934535973492579
 30
0.0
 11
64.156564150505801
 21
24.824547973492638
 31
0.0
  0
ARC
  5
8852
  8
AM_0
 10
52.156084150503361
 20
81.824337973492675
 30
0.0
 40
8.000195699999999
 50
89.996300999984683
 51
161.78902999999909
  0
ARC
  5
8853
  8
AM_0
 10
52.154134150505797
 20
81.822108973492504
 30
0.0
 40
7.9975721999999978
 50
198.19734999999611
 51
270.0173099999991
  0
LINE
  5
8854
  8
AM_0
 10
36.806524150505531
 20
84.324519973492826
 30
0.0
 11
46.656574150505541
 21
84.324519973492826
 31
0.0
  0
LINE
  5
8855
  8
AM_0
 10
36.806524150505531
 20
79.324551973491694
 30
0.0
 11
46.656574150505541
 21
79.324551973491694
 31
0.0
  0
ARC
  5
8856
  8
AM_0
 10
36.804334150505831
 20
75.32745097349283
 30
0.0
 40
8.9970875999999986
 50
89.985775000011571
 51
162.02119999999559
  0
ARC
  5
8857
  8
AM_0
 10
36.799804150505679
 20
75.32415397349267
 30
0.0
 40
4.0003919999999971
 50
89.903055000004429
 51
161.93679000000009
  0
LINE
  5
8858
  8
ﾁｭｳｼﾝｾﾝ
 10
52.156564150505801
 20
67.112539973493
 30
0.0
 11
52.156564150505801
 21
96.532535973492315
 31
0.0
  0
LINE
  5
8859
  8
AM_0
 10
52.156564150505801
 20
73.824519973492826
 30
0.0
 11
69.156574150505548
 21
73.824519973492826
 31
0.0
  0
LINE
  5
885A
  8
AM_0
 10
52.156564150505801
 20
89.824551973492575
 30
0.0
 11
69.156574150505548
 21
89.824551973492575
 31
0.0
  0
ARC
  5
885B
  8
AM_0
 10
52.156564150505801
 20
81.822537973492658
 30
0.0
 40
4.998440399999998
 50
23.610999000007979
 51
156.38899999999981
  0
ARC
  5
885C
  8
AM_0
 10
52.156564150505801
 20
81.822537973492658
 30
0.0
 40
4.9968401999999967
 50
203.56898000000169
 51
336.43101999999811
  0
LINE
  5
885D
  8
AM_0
 10
46.656574150505541
 20
83.824551973492817
 30
0.0
 11
57.656554150505592
 21
83.824551973492817
 31
0.0
  0
LINE
  5
885E
  8
AM_0
 10
46.656574150505541
 20
79.824519973492826
 30
0.0
 11
57.656554150505592
 21
79.824519973492826
 31
0.0
  0
LINE
  5
885F
  8
AM_0
 10
46.656574150505541
 20
79.324551973491694
 30
0.0
 11
46.656574150505541
 21
84.324519973492826
 31
0.0
  0
LINE
  5
8860
  8
AM_0
 10
60.156574150504639
 20
79.324551973491694
 30
0.0
 11
60.156574150504639
 21
84.324519973492826
 31
0.0
  0
LINE
  5
8861
  8
AM_0
 10
57.656554150505592
 20
79.324551973491694
 30
0.0
 11
57.656554150505592
 21
84.324519973492826
 31
0.0
  0
LINE
  5
8862
  8
AM_0
 10
57.656554150505592
 20
84.324519973492826
 30
0.0
 11
60.156574150504639
 21
84.324519973492826
 31
0.0
  0
LINE
  5
8863
  8
AM_0
 10
57.656554150505592
 20
79.324551973491694
 30
0.0
 11
60.156574150504639
 21
79.324551973491694
 31
0.0
  0
LINE
  5
8864
  8
AM_0
 10
21.656554150504689
 20
125.7145359734925
 30
0.0
 11
69.156574150505548
 21
125.7145359734925
 31
0.0
  0
LINE
  5
8865
  8
AM_0
 10
21.656554150504689
 20
115.46453497349179
 30
0.0
 11
64.156564150505801
 21
115.46453497349179
 31
0.0
  0
LINE
  5
8866
  8
AM_0
 10
21.156574150505541
 20
138.8245659734917
 30
0.0
 11
69.156574150505548
 21
138.8245659734917
 31
0.0
  0
LINE
  5
8867
  8
AM_0
 10
20.356564150505609
 20
116.1145599734915
 30
0.0
 11
20.356564150505609
 21
125.3145459734916
 31
0.0
  0
LINE
  5
8868
  8
AM_0
 10
17.056594150505589
 20
119.2145259734925
 30
0.0
 11
17.056594150505589
 21
122.2145259734918
 31
0.0
  0
LINE
  5
8869
  8
AM_0
 10
20.356564150505609
 20
116.1145599734915
 30
0.0
 11
21.656554150504689
 21
116.1145599734915
 31
0.0
  0
ARC
  5
886A
  8
AM_0
 10
20.052244150505881
 20
119.2147059734918
 30
0.0
 40
2.9956880400000001
 50
180.0036400000007
 51
275.83036999999661
  0
LINE
  5
886B
  8
AM_0
 10
19.156564150505801
 20
125.0845359734918
 30
0.0
 11
19.156564150505801
 21
136.82452597349271
 31
0.0
  0
LINE
  5
886C
  8
AM_0
 10
20.356564150505609
 20
125.3145459734916
 30
0.0
 11
21.656554150504689
 21
125.3145459734916
 31
0.0
  0
ARC
  5
886D
  8
AM_0
 10
20.05824415050574
 20
122.21773597349259
 30
0.0
 40
3.0016479
 50
84.295612999996621
 51
180.061350000001
  0
ARC
  5
886E
  8
AM_0
 10
21.156064150505699
 20
136.82503597349171
 30
0.0
 40
1.9994960399999999
 50
89.985542999991381
 51
180.0144599999999
  0
LINE
  5
886F
  8
AM_0
 10
64.156564150505801
 20
89.824551973492575
 30
0.0
 11
64.156564150505801
 21
138.8245659734917
 31
0.0
  0
LINE
  5
8871
  8
ﾁｭｳｼﾝｾﾝ
 10
638.16297721371382
 20
81.824550973492862
 30
0.0
 11
760.40169121371321
 21
81.824550973492862
 31
0.0
  0
LINE
  5
8874
  8
ﾁｭｳｼﾝｾﾝ
 10
615.84373864271413
 20
221.2631588421556
 30
0.0
 11
591.80210022819472
 21
245.30478154831721
 31
0.0
  0
ARC
  5
8875
  8
ﾁｭｳｼﾝｾﾝ
 10
699.28233421371306
 20
137.82453697349169
 30
0.0
 40
135.00000299999991
 50
127.7801970627589
 51
142.21979573471151
  0
LINE
  5
8876
  8
ﾁｭｳｼﾝｾﾝ
 10
615.84371234504954
 20
54.385941402492421
 30
0.0
 11
591.80208963888776
 21
30.344302987973009
 31
0.0
  0
ARC
  5
8877
  8
ﾁｭｳｼﾝｾﾝ
 10
699.2823342137134
 20
137.82453697349149
 30
0.0
 40
135.00000299999991
 50
217.7801970627589
 51
232.21979573471151
  0
LINE
  5
8878
  8
ﾁｭｳｼﾝｾﾝ
 10
782.72092978471255
 20
54.385915104827511
 30
0.0
 11
806.76256819923185
 21
30.344292398665971
 31
0.0
  0
ARC
  5
8879
  8
ﾁｭｳｼﾝｾﾝ
 10
699.2823342137134
 20
137.82453697349149
 30
0.0
 40
135.00000299999991
 50
307.78019706275887
 51
322.21979573471151
  0
LINE
  5
8AF1
  8
AM_0
 10
424.5518841505056
 20
563.25492144257635
 30
0.0
 11
436.65658415050569
 21
563.67759144257661
 31
0.0
  0
LINE
  5
8AF2
  8
AM_0
 10
424.5518841505056
 20
329.10032144257661
 30
0.0
 11
436.6565541505056
 21
328.67759144257661
 31
0.0
  0
LINE
  5
8AF3
  8
ﾁｭｳｼﾝｾﾝ
 10
3.7165007232251801
 20
446.17762144257648
 30
0.0
 11
506.56936415050569
 21
446.17762144257648
 31
0.0
  0
POLYLINE
  5
8C87
  8
AM_0
 66
     1
 10
0.0
 20
0.0
 30
0.0
  0
VERTEX
  5
8C88
  8
AM_0
 10
414.32266415050577
 20
548.84372144257679
 30
0.0
 42
0.079826744
  0
VERTEX
  5
8C89
  8
AM_0
 10
388.4808341505057
 20
481.93728144257659
 30
0.0
 42
0.10414854
  0
VERTEX
  5
8C8A
  8
AM_0
 10
388.48090415050569
 20
410.41758144257648
 30
0.0
 42
0.079826277
  0
VERTEX
  5
8C8B
  8
AM_0
 10
414.32266415050577
 20
343.51148144257661
 30
0.0
  0
SEQEND
  5
8C8C
  8
AM_0
  0
LINE
  5
8C8D
  8
AM_0
 10
421.6565541505056
 20
332.0984914425764
 30
0.0
 11
421.6565541505056
 21
560.25675144257616
 31
0.0
  0
LINE
  5
8C8E
  8
AM_0
 10
428.6565541505056
 20
355.5778914425764
 30
0.0
 11
428.6565541505056
 21
536.77738144257626
 31
0.0
  0
LINE
  5
8C91
  8
AM_0
 10
253.45923415050569
 20
435.40915144257667
 30
0.0
 11
253.45923415050569
 21
457.40964144257651
 31
0.0
  0
LINE
  5
8C92
  8
AM_0
 10
216.15649415050589
 20
436.17762144257648
 30
0.0
 11
216.15649415050589
 21
456.17759144257673
 31
0.0
  0
LINE
  5
8C93
  8
AM_0
 10
193.15649415050581
 20
389.67762144257659
 30
0.0
 11
193.15649415050581
 21
502.6775914425765
 31
0.0
  0
LINE
  5
8C94
  8
AM_0
 10
257.15649415050592
 20
376.88956144257662
 30
0.0
 11
257.15649415050592
 21
515.46561144257646
 31
0.0
  0
LINE
  5
8C95
  8
AM_0
 10
323.65649415050581
 20
346.67762144257648
 30
0.0
 11
323.65649415050581
 21
545.67759144257661
 31
0.0
  0
LINE
  5
8C96
  8
AM_0
 10
301.65649415050581
 20
355.2565114425766
 30
0.0
 11
301.65649415050581
 21
537.09873144257665
 31
0.0
  0
LINE
  5
8C97
  8
AM_0
 10
267.15655415050583
 20
372.67762144257659
 30
0.0
 11
267.15655415050583
 21
519.6775914425765
 31
0.0
  0
LINE
  5
8C98
  8
AM_0
 10
313.65649415050581
 20
381.10541144257661
 30
0.0
 11
313.65649415050581
 21
511.2498514425767
 31
0.0
  0
ARC
  5
8C99
  8
AM_0
 10
298.65649415050581
 20
368.57578144257661
 30
0.0
 40
3.0
 50
0.0
 51
87.999999999999659
  0
LINE
  5
8C9A
  8
AM_0
 10
257.15649415050592
 20
384.59897144257661
 30
0.0
 11
301.65649415050581
 21
384.59897144257661
 31
0.0
  0
LINE
  5
8C9B
  8
AM_0
 10
257.15649415050592
 20
406.70295144257648
 30
0.0
 11
301.65649415050581
 21
406.70295144257648
 31
0.0
  0
LINE
  5
8C9C
  8
AM_0
 10
261.01696415050583
 20
372.8920014425766
 30
0.0
 11
299.22638415050568
 21
371.55771144257648
 31
0.0
  0
POLYLINE
  5
8C9F
  8
AM_0
 66
     1
 10
0.0
 20
0.0
 30
0.0
  0
VERTEX
  5
8CA0
  8
AM_0
 10
231.83457415050569
 20
412.7588414425764
 30
0.0
 42
0.0058779435
  0
VERTEX
  5
8CA1
  8
AM_0
 10
233.04419415050589
 20
410.75726144257669
 30
0.0
 42
0.0056588804
  0
VERTEX
  5
8CA2
  8
AM_0
 10
234.29966415050589
 20
408.78411144257649
 30
0.0
 42
0.0054619297
  0
VERTEX
  5
8CA3
  8
AM_0
 10
235.5987041505058
 20
406.83936144257649
 30
0.0
 42
0.0052861412
  0
VERTEX
  5
8CA4
  8
AM_0
 10
236.93923415050551
 20
404.92296144257648
 30
0.0
  0
SEQEND
  5
8CA5
  8
AM_0
  0
LINE
  5
8CA6
  8
AM_0
 10
193.15649415050581
 20
400.17762144257648
 30
0.0
 11
234.4992641505057
 21
400.17762144257648
 31
0.0
  0
LINE
  5
8CA7
  8
AM_0
 10
219.15649415050589
 20
433.17762144257648
 30
0.0
 11
250.45923415050549
 21
433.17762144257648
 31
0.0
  0
LINE
  5
8CA8
  8
AM_0
 10
245.58789415050589
 20
387.84665144257667
 30
0.0
 11
193.15655415050571
 21
389.67759144257661
 31
0.0
  0
LINE
  5
8CD3
  8
AM_0
 10
193.15649415050581
 20
414.23768144257662
 30
0.0
 11
229.24890415050561
 21
414.23768144257662
 31
0.0
  0
POLYLINE
  5
8CDB
  8
AM_0
 66
     1
 10
0.0
 20
0.0
 30
0.0
  0
VERTEX
  5
8CDC
  8
AM_0
 10
220.12610415050551
 20
433.17789144257659
 30
0.0
  0
VERTEX
  5
8CDD
  8
AM_0
 10
227.5533641505057
 20
414.23848144257647
 30
0.0
 42
-1.0
  0
SEQEND
  5
8CDE
  8
AM_0
  0
ARC
  5
8CDF
  8
AM_0
 10
229.24890415050561
 20
411.23768144257667
 30
0.0
 40
3.0
 50
30.468076999999091
 51
90.000003000000945
  0
ARC
  5
8CE0
  8
AM_0
 10
219.15649415050589
 20
436.17762144257648
 30
0.0
 40
3.0
 50
180.00001000000091
 51
270.0
  0
POLYLINE
  5
8CE1
  8
AM_0
 66
     1
 10
0.0
 20
0.0
 30
0.0
  0
VERTEX
  5
8CE2
  8
AM_0
 10
236.27629415050581
 20
400.75950144257649
 30
0.0
 42
0.011693549
  0
VERTEX
  5
8CE3
  8
AM_0
 10
239.8391741505057
 20
396.26313144257648
 30
0.0
 42
0.011216814
  0
VERTEX
  5
8CE4
  8
AM_0
 10
243.6040541505057
 20
391.93437144257661
 30
0.0
 42
0.011000278
  0
VERTEX
  5
8CE5
  8
AM_0
 10
247.55615415050571
 20
387.77793144257629
 30
0.0
  0
SEQEND
  5
8CE6
  8
AM_0
  0
ARC
  5
8CE7
  8
AM_0
 10
261.15649415050592
 20
376.88956144257662
 30
0.0
 40
4.0
 50
180.00001000000091
 51
267.9999999999996
  0
LINE
  5
8CE8
  8
AM_0
 10
255.72955415050569
 20
379.60459144257652
 30
0.0
 11
248.94891415050591
 21
386.3852314425767
 31
0.0
  0
ARC
  5
8CE9
  8
AM_0
 10
245.4133341505057
 20
382.84971144257662
 30
0.0
 40
5.0
 50
44.999998000001611
 51
87.999999999999659
  0
ARC
  5
8CEA
  8
AM_0
 10
252.1939741505058
 20
376.06907144257661
 30
0.0
 40
5.0
 50
5.2307202000000732
 51
44.999998000001611
  0
ARC
  5
8CEB
  8
AM_0
 10
234.4992641505057
 20
403.17762144257648
 30
0.0
 40
3.0
 50
270.0
 51
35.575756999999612
  0
ARC
  5
8CEC
  8
AM_0
 10
250.45923415050549
 20
430.17762144257659
 30
0.0
 40
3.0
 50
0.0
 51
90.000003000000945
  0
ARC
  5
8CED
  8
AM_0
 10
310.69372415050589
 20
349.2565114425766
 30
0.0
 40
3.0
 50
6.3862993999993272
 51
90.000003000000945
  0
LINE
  5
8CEE
  8
AM_0
 10
313.65649415050581
 20
349.92389144257641
 30
0.0
 11
313.65649415050581
 21
360.2876014425766
 31
0.0
  0
LINE
  5
8CEF
  8
AM_0
 10
323.6566141505059
 20
346.67762144257648
 30
0.0
 11
412.35431415050567
 21
343.58024144257672
 31
0.0
  0
ARC
  5
8CF0
  8
AM_0
 10
316.65649415050581
 20
349.92389144257641
 30
0.0
 40
3.0
 50
180.00001000000091
 51
267.9999999999996
  0
LINE
  5
8CF1
  8
AM_0
 10
316.55182415050569
 20
346.92573144257659
 30
0.0
 11
323.65649415050581
 21
346.67762144257648
 31
0.0
  0
ARC
  5
8CF2
  8
AM_0
 10
412.17981415050571
 20
338.58326144257649
 30
0.0
 40
5.0
 50
45.000000999999187
 51
87.999999999999659
  0
LINE
  5
8CF3
  8
AM_0
 10
415.71536415050582
 20
342.1188114425766
 30
0.0
 11
421.65658415050558
 21
336.17759144257661
 31
0.0
  0
ARC
  5
8CF4
  8
AM_0
 10
424.6565541505056
 20
332.0984914425764
 30
0.0
 40
3.0
 50
179.99998999999889
 51
268.00000999999861
  0
ARC
  5
8CF5
  8
AM_0
 10
310.65649415050581
 20
360.2876014425766
 30
0.0
 40
3.0
 50
0.0
 51
90.000003000000945
  0
ARC
  5
8CF6
  8
AM_0
 10
304.65649415050592
 20
366.2876014425766
 30
0.0
 40
3.0
 50
180.00001000000091
 51
270.0
  0
LINE
  5
8CF7
  8
AM_0
 10
304.65649415050592
 20
352.2565114425766
 30
0.0
 11
310.69372415050589
 21
352.2565114425766
 31
0.0
  0
ARC
  5
8CF8
  8
AM_0
 10
304.65649415050592
 20
355.2565114425766
 30
0.0
 40
3.0
 50
180.00001000000091
 51
270.0
  0
LINE
  5
8CF9
  8
AM_0
 10
304.65649415050592
 20
363.2876014425766
 30
0.0
 11
310.65649415050581
 21
363.2876014425766
 31
0.0
  0
LINE
  5
8CFA
  8
AM_0
 10
301.65649415050581
 20
378.10541144257661
 30
0.0
 11
310.65649415050581
 21
378.10541144257661
 31
0.0
  0
ARC
  5
8CFB
  8
AM_0
 10
310.65649415050581
 20
381.10541144257661
 30
0.0
 40
3.0
 50
269.999989999999
 51
0.0000006832462478
  0
LINE
  5
8CFC
  8
AM_0
 10
301.65649415050581
 20
388.86005144257661
 30
0.0
 11
313.65649415050581
 21
388.86005144257661
 31
0.0
  0
ARC
  5
8CFD
  8
AM_0
 10
425.6565541505056
 20
355.5778914425764
 30
0.0
 40
3.0
 50
267.9999999999996
 51
0.0
  0
LINE
  5
8CFE
  8
AM_0
 10
425.37201415050561
 20
352.58600144257667
 30
0.0
 11
425.55188415050571
 21
352.57972144257661
 31
0.0
  0
ARC
  5
8CFF
  8
AM_0
 10
424.6565541505056
 20
387.26688144257662
 30
0.0
 40
3.0
 50
90.000003000000945
 51
180.00001000000091
  0
LINE
  5
8D00
  8
AM_0
 10
424.6565541505056
 20
390.26688144257662
 30
0.0
 11
428.6565541505056
 21
390.26688144257662
 31
0.0
  0
ARC
  5
8D01
  8
AM_0
 10
298.65649415050581
 20
523.7794514425766
 30
0.0
 40
3.0
 50
272.0000000000004
 51
0.0
  0
LINE
  5
8D02
  8
AM_0
 10
257.15649415050592
 20
507.75626144257632
 30
0.0
 11
301.65649415050581
 21
507.75626144257632
 31
0.0
  0
LINE
  5
8D03
  8
AM_0
 10
257.15649415050592
 20
485.65232144257652
 30
0.0
 11
301.65649415050581
 21
485.65232144257652
 31
0.0
  0
POLYLINE
  5
8D04
  8
AM_0
 66
     1
 10
0.0
 20
0.0
 30
0.0
  0
VERTEX
  5
8D05
  8
AM_0
 10
231.83457415050569
 20
479.59639144257648
 30
0.0
 42
-0.0058779435
  0
VERTEX
  5
8D06
  8
AM_0
 10
233.04419415050589
 20
481.59797144257658
 30
0.0
 42
-0.0056588804
  0
VERTEX
  5
8D07
  8
AM_0
 10
234.29966415050589
 20
483.57112144257673
 30
0.0
 42
-0.0054619297
  0
VERTEX
  5
8D08
  8
AM_0
 10
235.5987041505058
 20
485.51588144257681
 30
0.0
 42
-0.0052861412
  0
VERTEX
  5
8D09
  8
AM_0
 10
236.93923415050551
 20
487.43228144257631
 30
0.0
  0
SEQEND
  5
8D0A
  8
AM_0
  0
LINE
  5
8D0B
  8
AM_0
 10
219.15649415050589
 20
459.17759144257627
 30
0.0
 11
250.45923415050549
 21
459.17759144257627
 31
0.0
  0
LINE
  5
8D0C
  8
AM_0
 10
193.15649415050581
 20
502.67765144257652
 30
0.0
 11
245.58789415050589
 21
504.50858144257671
 31
0.0
  0
LINE
  5
8D0D
  8
AM_0
 10
193.15649415050581
 20
492.17765144257669
 30
0.0
 11
234.4992641505057
 21
492.17765144257669
 31
0.0
  0
LINE
  5
8D12
  8
AM_0
 10
193.15649415050581
 20
478.11753144257648
 30
0.0
 11
229.24890415050561
 21
478.11753144257648
 31
0.0
  0
POLYLINE
  5
8D1D
  8
AM_0
 66
     1
 10
0.0
 20
0.0
 30
0.0
  0
VERTEX
  5
8D1E
  8
AM_0
 10
220.12610415050551
 20
459.17734144257662
 30
0.0
  0
VERTEX
  5
8D1F
  8
AM_0
 10
227.5533641505057
 20
478.11676144257632
 30
0.0
 42
-1.0
  0
SEQEND
  5
8D20
  8
AM_0
  0
ARC
  5
8D21
  8
AM_0
 10
219.15649415050589
 20
456.17759144257673
 30
0.0
 40
3.0
 50
90.000003000000945
 51
180.00001000000091
  0
ARC
  5
8D22
  8
AM_0
 10
229.24890415050561
 20
481.11753144257648
 30
0.0
 40
3.0
 50
270.0
 51
329.53192000000132
  0
POLYLINE
  5
8D29
  8
AM_0
 66
     1
 10
0.0
 20
0.0
 30
0.0
  0
VERTEX
  5
8D2A
  8
AM_0
 10
236.27629415050581
 20
491.59573144257661
 30
0.0
 42
-0.011693549
  0
VERTEX
  5
8D2B
  8
AM_0
 10
239.8391741505057
 20
496.09210144257668
 30
0.0
 42
-0.011216814
  0
VERTEX
  5
8D2C
  8
AM_0
 10
243.6040541505057
 20
500.42087144257641
 30
0.0
 42
-0.011000278
  0
VERTEX
  5
8D2D
  8
AM_0
 10
247.55615415050571
 20
504.57731144257667
 30
0.0
  0
SEQEND
  5
8D2E
  8
AM_0
  0
ARC
  5
8D2F
  8
AM_0
 10
250.45923415050549
 20
462.17759144257639
 30
0.0
 40
3.0
 50
270.0
 51
0.0
  0
ARC
  5
8D30
  8
AM_0
 10
234.4992641505057
 20
489.17765144257658
 30
0.0
 40
3.0
 50
324.42424000000028
 51
90.000003000000945
  0
LINE
  5
8D31
  8
AM_0
 10
261.01696415050583
 20
519.46317144257637
 30
0.0
 11
298.76123415050569
 21
520.78122144257645
 31
0.0
  0
LINE
  5
8D32
  8
AM_0
 10
248.94891415050591
 20
505.97001144257661
 30
0.0
 11
255.72955415050569
 21
512.75065144257678
 31
0.0
  0
ARC
  5
8D33
  8
AM_0
 10
245.4133341505057
 20
509.50553144257668
 30
0.0
 40
5.0
 50
272.0000000000004
 51
315.0
  0
ARC
  5
8D34
  8
AM_0
 10
261.15649415050592
 20
515.46561144257646
 30
0.0
 40
4.0
 50
91.999998000000545
 51
180.00001000000091
  0
ARC
  5
8D35
  8
AM_0
 10
252.1939741505058
 20
516.28617144257657
 30
0.0
 40
5.0
 50
315.0
 51
354.76906000000082
  0
ARC
  5
8D36
  8
AM_0
 10
316.65649415050581
 20
542.43137144257662
 30
0.0
 40
3.0
 50
91.999998000000545
 51
180.00001000000091
  0
LINE
  5
8D37
  8
AM_0
 10
301.65649415050581
 20
503.49521144257659
 30
0.0
 11
313.65649415050581
 21
503.49521144257659
 31
0.0
  0
LINE
  5
8D38
  8
AM_0
 10
301.65649415050581
 20
514.24985144257676
 30
0.0
 11
310.65649415050581
 21
514.24985144257676
 31
0.0
  0
ARC
  5
8D39
  8
AM_0
 10
310.65649415050581
 20
511.2498514425767
 30
0.0
 40
3.0
 50
0.0
 51
90.000003000000945
  0
LINE
  5
8D3A
  8
AM_0
 10
313.65649415050581
 20
542.43137144257662
 30
0.0
 11
313.65649415050581
 21
532.06766144257665
 31
0.0
  0
LINE
  5
8D3B
  8
AM_0
 10
304.65649415050592
 20
529.06766144257665
 30
0.0
 11
310.65649415050581
 21
529.06766144257665
 31
0.0
  0
ARC
  5
8D3C
  8
AM_0
 10
304.65649415050592
 20
526.06766144257688
 30
0.0
 40
3.0
 50
90.000003000000945
 51
180.00001000000091
  0
ARC
  5
8D3D
  8
AM_0
 10
310.65649415050581
 20
532.06766144257665
 30
0.0
 40
3.0
 50
269.999989999999
 51
0.0000006832462478
  0
LINE
  5
8D3E
  8
AM_0
 10
304.65649415050592
 20
540.09873144257665
 30
0.0
 11
310.69372415050589
 21
540.09873144257665
 31
0.0
  0
ARC
  5
8D3F
  8
AM_0
 10
304.65649415050592
 20
537.09873144257665
 30
0.0
 40
3.0
 50
90.000003000000945
 51
180.00001000000091
  0
ARC
  5
8D40
  8
AM_0
 10
310.69372415050589
 20
543.09873144257676
 30
0.0
 40
3.0
 50
269.999989999999
 51
353.61369000000099
  0
ARC
  5
8D41
  8
AM_0
 10
424.6565541505056
 20
505.08835144257648
 30
0.0
 40
3.0
 50
179.99998999999889
 51
270.0
  0
LINE
  5
8D42
  8
AM_0
 10
424.6565541505056
 20
502.0883514425762
 30
0.0
 11
428.6565541505056
 21
502.0883514425762
 31
0.0
  0
ARC
  5
8D43
  8
AM_0
 10
425.6565541505056
 20
536.77738144257626
 30
0.0
 40
3.0
 50
0.0
 51
91.999998000000545
  0
LINE
  5
8D44
  8
AM_0
 10
425.37204415050559
 20
539.76920144257645
 30
0.0
 11
425.55185415050568
 21
539.77549144257625
 31
0.0
  0
LINE
  5
8D45
  8
AM_0
 10
323.6565541505056
 20
545.67759144257661
 30
0.0
 11
412.35434415050582
 21
548.77500144257635
 31
0.0
  0
LINE
  5
8D46
  8
AM_0
 10
316.55182415050569
 20
545.42954144257646
 30
0.0
 11
323.65649415050581
 21
545.67765144257635
 31
0.0
  0
ARC
  5
8D47
  8
AM_0
 10
412.17981415050571
 20
553.77195144257666
 30
0.0
 40
5.0
 50
272.0000000000004
 51
315.0
  0
LINE
  5
8D48
  8
AM_0
 10
415.71536415050582
 20
550.23643144257687
 30
0.0
 11
421.65658415050558
 21
556.17765144257692
 31
0.0
  0
ARC
  5
8D49
  8
AM_0
 10
424.6565541505056
 20
560.25675144257616
 30
0.0
 40
3.0
 50
91.999998000000545
 51
180.00001000000091
  0
ARC
  5
8D4A
  8
AM_0
 10
453.6565541505056
 20
446.17762144257648
 30
0.0
 40
5.0
 50
90.000003000000945
 51
270.0
  0
LINE
  5
8D4B
  8
AM_0
 10
453.6565541505056
 20
451.17762144257659
 30
0.0
 11
453.6565541505056
 21
441.17762144257648
 31
0.0
  0
LINE
  5
8D4C
  8
AM_0
 10
436.6565541505056
 20
328.67762144257648
 30
0.0
 11
436.6565541505056
 21
563.67765144257635
 31
0.0
  0
LINE
  5
8D4D
  8
AM_0
 10
440.6565541505056
 20
341.17759144257661
 30
0.0
 11
440.6565541505056
 21
551.17765144257635
 31
0.0
  0
LINE
  5
8D4E
  8
AM_0
 10
498.65658415050569
 20
430.17765144257669
 30
0.0
 11
498.65658415050569
 21
462.17765144257652
 31
0.0
  0
LINE
  5
8D4F
  8
AM_0
 10
436.6565541505056
 20
341.17759144257661
 30
0.0
 11
440.6565541505056
 21
341.17759144257661
 31
0.0
  0
LINE
  5
8D50
  8
AM_0
 10
453.6565541505056
 20
441.17762144257648
 30
0.0
 11
498.65658415050569
 21
441.17762144257648
 31
0.0
  0
LINE
  5
8D51
  8
AM_0
 10
498.65658415050569
 20
430.17765144257669
 30
0.0
 11
440.6565541505056
 21
430.17765144257669
 31
0.0
  0
LINE
  5
8D52
  8
AM_0
 10
453.6565541505056
 20
451.17762144257659
 30
0.0
 11
498.65658415050569
 21
451.17762144257659
 31
0.0
  0
LINE
  5
8D53
  8
AM_0
 10
498.65658415050569
 20
462.17765144257652
 30
0.0
 11
440.6565541505056
 21
462.17765144257652
 31
0.0
  0
LINE
  5
8D54
  8
AM_0
 10
436.6565541505056
 20
551.17765144257635
 30
0.0
 11
440.6565541505056
 21
551.17765144257635
 31
0.0
  0
LINE
  5
8F1F
  8
AM_0
 10
78.836484150505953
 20
479.54759644257649
 30
0.0
 11
146.17651415050591
 21
479.54759644257649
 31
0.0
  0
LINE
  5
8F20
  8
AM_0
 10
80.366514150505949
 20
502.45763644257647
 30
0.0
 11
177.28650415050581
 21
502.45763644257647
 31
0.0
  0
LINE
  5
8F21
  8
AM_0
 10
80.406494150505978
 20
505.30760644257651
 30
0.0
 11
177.28650415050581
 21
505.30760644257651
 31
0.0
  0
LINE
  5
8F22
  8
AM_0
 10
80.426514150505881
 20
507.15758644257659
 30
0.0
 11
177.28650415050581
 21
507.15758644257659
 31
0.0
  0
LINE
  5
8F23
  8
AM_0
 10
80.446474150505878
 20
508.06761644257648
 30
0.0
 11
177.28656415050591
 21
508.06761644257648
 31
0.0
  0
LINE
  5
8F24
  8
AM_0
 10
178.49652415050591
 20
482.17760644257652
 30
0.0
 11
79.516484150506017
 21
482.17760644257652
 31
0.0
  0
LINE
  5
8F25
  8
AM_0
 10
178.49652415050591
 20
480.17760644257652
 30
0.0
 11
79.516484150506017
 21
480.17760644257652
 31
0.0
  0
LINE
  5
8F26
  8
AM_0
 10
146.15649415050581
 20
472.17760644257658
 30
0.0
 11
79.516484150506017
 21
472.17760644257658
 31
0.0
  0
LINE
  5
8F27
  8
AM_0
 10
178.48932415050581
 20
470.17760644257652
 30
0.0
 11
79.516484150506017
 21
470.17760644257652
 31
0.0
  0
LINE
  5
8F28
  8
AM_0
 10
78.836484150505953
 20
482.89757644257668
 30
0.0
 11
181.9765041505058
 21
482.89757644257668
 31
0.0
  0
LINE
  5
8F29
  8
AM_0
 10
78.616514150505935
 20
472.66759644257661
 30
0.0
 11
146.15649415050581
 21
472.66759644257661
 31
0.0
  0
LINE
  5
8F2A
  8
AM_0
 10
78.616514150505935
 20
469.73766644257671
 30
0.0
 11
182.1907341505059
 21
469.73766644257671
 31
0.0
  0
LINE
  5
8F2B
  8
AM_0
 10
78.836484150505953
 20
409.45763644257647
 30
0.0
 11
134.15649415050581
 21
409.45763644257647
 31
0.0
  0
LINE
  5
8F2C
  8
AM_0
 10
134.15649415050581
 20
412.17760644257652
 30
0.0
 11
79.516484150506017
 21
412.17760644257652
 31
0.0
  0
LINE
  5
8F2D
  8
AM_0
 10
134.15649415050581
 20
410.17760644257658
 30
0.0
 11
79.516484150506017
 21
410.17760644257658
 31
0.0
  0
LINE
  5
8F2E
  8
AM_0
 10
87.177232797873828
 20
347.67760644257658
 30
0.0
 11
119.1553025366059
 21
353.12603247932083
 31
0.0
  0
LINE
  5
8F2F
  8
AM_0
 10
80.366514150505949
 20
389.89757644257662
 30
0.0
 11
177.28650415050581
 21
389.89757644257662
 31
0.0
  0
LINE
  5
8F30
  8
AM_0
 10
146.15649415050581
 20
420.17760644257652
 30
0.0
 11
79.516484150506017
 21
420.17760644257652
 31
0.0
  0
LINE
  5
8F31
  8
AM_0
 10
78.836484150505953
 20
412.80760644257663
 30
0.0
 11
146.17651415050591
 21
412.80760644257663
 31
0.0
  0
LINE
  5
8F32
  8
AM_0
 10
178.48932415050581
 20
422.17760644257658
 30
0.0
 11
79.516484150506017
 21
422.17760644257658
 31
0.0
  0
LINE
  5
8F33
  8
AM_0
 10
87.258656582084939
 20
346.67760644257658
 30
0.0
 11
163.55865658208481
 21
359.67760644257658
 31
0.0
  0
LINE
  5
8F34
  8
AM_0
 10
87.258656582084939
 20
346.67760644257658
 30
0.0
 11
163.55865658208481
 21
359.67760644257658
 31
0.0
  0
LINE
  5
8F35
  8
AM_0
 10
167.65649415050581
 20
379.17760644257658
 30
0.0
 11
100.65649415050591
 21
379.17760644257658
 31
0.0
  0
LINE
  5
8F36
  8
AM_0
 10
153.05865658208481
 20
376.67760644257658
 30
0.0
 11
115.2586565820849
 21
376.67760644257658
 31
0.0
  0
LINE
  5
8F37
  8
AM_0
 10
163.05865658208589
 20
342.67760644257658
 30
0.0
 11
87.584351718925916
 21
342.67760644257658
 31
0.0
  0
LINE
  5
8F38
  8
AM_0
 10
163.88435171892581
 20
355.67760644257658
 30
0.0
 11
87.584351718925916
 21
342.67760644257658
 31
0.0
  0
LINE
  5
8F39
  8
AM_0
 10
78.616514150505935
 20
419.68761644257648
 30
0.0
 11
146.15649415050581
 21
419.68761644257648
 31
0.0
  0
LINE
  5
8F3A
  8
AM_0
 10
78.616514150505935
 20
422.61754644257638
 30
0.0
 11
182.1907341505059
 21
422.61754644257638
 31
0.0
  0
POLYLINE
  5
8F3B
  8
AM_0
 66
     1
 10
0.0
 20
0.0
 30
0.0
  0
VERTEX
  5
8F3C
  8
AM_0
 10
79.516484150506017
 20
446.17760644257652
 30
0.0
 42
-0.00039106649
  0
VERTEX
  5
8F3D
  8
AM_0
 10
79.51412415050595
 20
446.48873644257662
 30
0.0
 42
-0.00035488198
  0
VERTEX
  5
8F3E
  8
AM_0
 10
79.512234150505932
 20
446.7998464425765
 30
0.0
 42
-0.00039706113
  0
VERTEX
  5
8F3F
  8
AM_0
 10
79.510804150505919
 20
447.11095644257648
 30
0.0
 42
-0.00038765718
  0
VERTEX
  5
8F40
  8
AM_0
 10
79.50987415050588
 20
447.42209644257662
 30
0.0
 42
-0.00040613432
  0
VERTEX
  5
8F41
  8
AM_0
 10
79.509424150505893
 20
447.73319644257651
 30
0.0
 42
-0.00035573434
  0
VERTEX
  5
8F42
  8
AM_0
 10
79.509464150506005
 20
448.04430644257673
 30
0.0
 42
-0.00038545884
  0
VERTEX
  5
8F43
  8
AM_0
 10
79.509954150505905
 20
448.35543644257649
 30
0.0
 42
-0.00035501205
  0
VERTEX
  5
8F44
  8
AM_0
 10
79.510914150505982
 20
448.66654644257648
 30
0.0
 42
-0.00040120779
  0
VERTEX
  5
8F45
  8
AM_0
 10
79.512334150505922
 20
448.97777644257661
 30
0.0
 42
-0.00038317817
  0
VERTEX
  5
8F46
  8
AM_0
 10
79.514244150505988
 20
449.28890644257649
 30
0.0
 42
-0.00035656084
  0
VERTEX
  5
8F47
  8
AM_0
 10
79.516624150505891
 20
449.60014644257649
 30
0.0
 42
-0.00040143615
  0
VERTEX
  5
8F48
  8
AM_0
 10
79.519474150505971
 20
449.91124644257638
 30
0.0
  0
SEQEND
  5
8F49
  8
AM_0
  0
LINE
  5
8F4A
  8
AM_0
 10
12.65652415050595
 20
441.17760644257652
 30
0.0
 11
12.65652415050595
 21
451.17760644257658
 31
0.0
  0
LINE
  5
8F4B
  8
AM_0
 10
69.156494150505978
 20
504.92760644257652
 30
0.0
 11
69.156494150505978
 21
387.42760644257658
 31
0.0
  0
LINE
  5
8F4C
  8
AM_0
 10
77.156494150505978
 20
499.17760644257652
 30
0.0
 11
77.156494150505978
 21
393.17760644257658
 31
0.0
  0
LINE
  5
8F4D
  8
AM_0
 10
64.156494150505978
 20
408.99254644257661
 30
0.0
 11
64.156494150505978
 21
483.36363644257659
 31
0.0
  0
LINE
  5
8F4E
  8
AM_0
 10
13.655064050505921
 20
502.17760644257658
 30
0.0
 11
13.655064050505921
 21
390.17760644257658
 31
0.0
  0
LINE
  5
8F4F
  8
AM_0
 10
19.156494150505971
 20
411.6485464425765
 30
0.0
 11
19.156494150505971
 21
480.70665644257667
 31
0.0
  0
LINE
  5
8F50
  8
AM_0
 10
18.655064050505921
 20
480.9160675382837
 30
0.0
 11
18.655064050505921
 21
411.43914534686922
 31
0.0
  0
LINE
  5
8F51
  8
AM_0
 10
21.656494150505981
 20
393.39561644257668
 30
0.0
 11
21.656494150505981
 21
498.92760644257629
 31
0.0
  0
LINE
  5
8F52
  8
AM_0
 10
21.156494150505971
 20
393.42760644257658
 30
0.0
 11
69.156494150505978
 21
393.42760644257658
 31
0.0
  0
LINE
  5
8F53
  8
AM_0
 10
21.656494150505981
 20
412.53661644257647
 30
0.0
 11
64.156494150505978
 21
412.53661644257647
 31
0.0
  0
LINE
  5
8F54
  8
AM_0
 10
21.656494150505981
 20
402.28661644257647
 30
0.0
 11
64.156494150505978
 21
402.28661644257647
 31
0.0
  0
LINE
  5
8F55
  8
AM_0
 10
22.655064050505921
 20
381.17760644257658
 30
0.0
 11
60.156494150505971
 21
381.17760644257658
 31
0.0
  0
LINE
  5
8F56
  8
AM_0
 10
23.655064050505921
 20
386.17760644257658
 30
0.0
 11
47.156494150505971
 21
386.17760644257658
 31
0.0
  0
ARC
  5
8F57
  8
AM_0
 10
20.056524150505879
 20
408.78661644257647
 30
0.0
 40
3.0
 50
89.999988999997569
 51
179.99997999999781
  0
ARC
  5
8F58
  8
AM_0
 10
21.156494150505971
 20
395.42760644257658
 30
0.0
 40
2.0
 50
179.99997999999781
 51
269.99995000000138
  0
LINE
  5
8F59
  8
AM_0
 10
18.655064050505921
 20
403.13408753828372
 30
0.0
 11
18.655064050505921
 21
391.17760644257658
 31
0.0
  0
ARC
  5
8F5A
  8
AM_0
 10
22.655064050505921
 20
390.17760644257658
 30
0.0
 40
9.0
 50
179.99997999999781
 51
269.99995000000138
  0
ARC
  5
8F5B
  8
AM_0
 10
23.655064050505921
 20
391.17760644257658
 30
0.0
 40
5.0
 50
179.99997999999781
 51
269.99995000000138
  0
ARC
  5
8F5C
  8
AM_0
 10
20.056524150505879
 20
405.78661644257647
 30
0.0
 40
3.0
 50
179.99997999999781
 51
269.99995000000138
  0
LINE
  5
8F5D
  8
AM_0
 10
20.356504150505881
 20
411.88658644257657
 30
0.0
 11
20.356504150505881
 21
402.68663644257663
 31
0.0
  0
LINE
  5
8F5E
  8
AM_0
 10
20.356504150505881
 20
402.68663644257663
 30
0.0
 11
21.656494150505981
 21
402.68663644257663
 31
0.0
  0
LINE
  5
8F5F
  8
AM_0
 10
20.056524150505879
 20
402.78661644257642
 30
0.0
 11
20.356504150505881
 21
402.78661644257642
 31
0.0
  0
LINE
  5
8F60
  8
AM_0
 10
19.156494150505971
 20
402.92467644257653
 30
0.0
 11
19.156494150505971
 21
395.42760644257658
 31
0.0
  0
LINE
  5
8F61
  8
AM_0
 10
17.056524150505879
 20
408.78661644257647
 30
0.0
 11
17.056524150505879
 21
405.78661644257647
 31
0.0
  0
LINE
  5
8F62
  8
AM_0
 10
20.356504150505881
 20
411.88658644257657
 30
0.0
 11
21.656494150505981
 21
411.88658644257657
 31
0.0
  0
LINE
  5
8F63
  8
AM_0
 10
20.056524150505879
 20
411.78661644257647
 30
0.0
 11
20.356504150505881
 21
411.78661644257647
 31
0.0
  0
LINE
  5
8F64
  8
AM_0
 10
13.655064050505921
 20
441.17760644257652
 30
0.0
 11
12.65652415050595
 21
441.17760644257652
 31
0.0
  0
LINE
  5
8F65
  8
AM_0
 10
19.156494150505971
 20
441.17760644257652
 30
0.0
 11
18.655064050505921
 21
441.17760644257652
 31
0.0
  0
LINE
  5
8F66
  8
AM_0
 10
100.65649415050591
 20
376.67760644257658
 30
0.0
 11
100.65649415050591
 21
379.17760644257658
 31
0.0
  0
LINE
  5
8F67
  8
AM_0
 10
90.45865658208487
 20
376.67760644257658
 30
0.0
 11
108.05865658208479
 21
376.67760644257658
 31
0.0
  0
ARC
  5
8F68
  8
AM_0
 10
99.758656582084939
 20
359.67760644257658
 30
0.0
 40
9.3000000000000007
 50
180.0
 51
0.0
  0
CIRCLE
  5
8F69
  8
AM_0
 10
99.758656582084939
 20
359.67760644257658
 30
0.0
 40
6.299999999999998
  0
LINE
  5
8F6A
  8
ﾁｭｳｼﾝｾﾝ
 10
87.758656582094289
 20
359.67760644257658
 30
0.0
 11
111.7586565820755
 21
359.67760644257658
 31
0.0
  0
LINE
  5
8F6B
  8
AM_0
 10
84.658656582084916
 20
375.67760644257658
 30
0.0
 11
84.658656582084916
 21
352.67760644257669
 31
0.0
  0
LINE
  5
8F6C
  8
AM_0
 10
90.45865658208487
 20
376.67760644257658
 30
0.0
 11
90.45865658208487
 21
359.67760644257658
 31
0.0
  0
ARC
  5
8F6D
  8
AM_0
 10
82.958656582085894
 20
351.37760644257747
 30
0.0
 40
0.3
 50
90.0
 51
180.0
  0
ARC
  5
8F6E
  8
AM_0
 10
84.158656582085925
 20
344.17760644257771
 30
0.0
 40
1.5
 50
180.00000000000659
 51
269.99999999999341
  0
LINE
  5
8F6F
  8
AM_0
 10
82.658656582085939
 20
351.37760644257747
 30
0.0
 11
82.658656582085939
 21
344.17760644257669
 31
0.0
  0
LINE
  5
8F70
  8
AM_0
 10
84.158656582084902
 20
347.67760644257658
 30
0.0
 11
84.158656582084902
 21
351.37760644257747
 31
0.0
  0
LINE
  5
8F71
  8
AM_0
 10
84.658656582084916
 20
352.67760644257669
 30
0.0
 11
84.658656582083893
 21
347.67760644257658
 31
0.0
  0
LINE
  5
8F72
  8
AM_0
 10
84.358656582084819
 20
349.87324912329262
 30
0.0
 11
84.358656582084819
 21
352.4776064425775
 31
0.0
  0
LINE
  5
8F73
  8
AM_0
 10
84.358656582084819
 20
347.67760644257658
 30
0.0
 11
84.358656582084819
 21
348.67324912329241
 31
0.0
  0
LINE
  5
8F74
  8
AM_0
 10
83.158656582084902
 20
347.37760644257747
 30
0.0
 11
83.158656582084902
 21
346.67760644257658
 31
0.0
  0
ARC
  5
8F75
  8
AM_0
 10
83.458656582084842
 20
346.37760644257759
 30
0.0
 40
0.3
 50
90.0
 51
180.0
  0
ARC
  5
8F76
  8
AM_0
 10
83.458656582084842
 20
347.37760644257747
 30
0.0
 40
0.3
 50
90.0
 51
180.0
  0
LINE
  5
8F77
  8
AM_0
 10
84.358656582084819
 20
348.67324912329241
 30
0.0
 11
84.358656582084819
 21
349.87324912329262
 31
0.0
  0
LINE
  5
8F78
  8
AM_0
 10
84.358656582084819
 20
348.67324912329241
 30
0.0
 11
84.158656582084902
 21
348.67324912329241
 31
0.0
  0
LINE
  5
8F79
  8
AM_0
 10
84.158656582084902
 20
349.87324912329262
 30
0.0
 11
84.358656582084819
 21
349.87324912329262
 31
0.0
  0
LINE
  5
8F7A
  8
AM_0
 10
83.158656582084902
 20
346.67760644257658
 30
0.0
 11
87.258656582084939
 21
346.67760644257658
 31
0.0
  0
LINE
  5
8F7B
  8
AM_0
 10
83.458656582084842
 20
346.67760644257658
 30
0.0
 11
87.258656582084939
 21
346.67760644257658
 31
0.0
  0
LINE
  5
8F7C
  8
AM_0
 10
87.177232797873828
 20
347.67760644257658
 30
0.0
 11
83.458656582084842
 21
347.67760644257658
 31
0.0
  0
LINE
  5
8F7D
  8
AM_0
 10
84.158656582085925
 20
342.67760644257658
 30
0.0
 11
84.457142478242943
 21
342.67760644257771
 31
0.0
  0
ARC
  5
8F7E
  8
AM_0
 10
84.658656582084916
 20
344.17760644257669
 30
0.0
 40
1.5
 50
180.0
 51
270.0
  0
LINE
  5
8F7F
  8
AM_0
 10
84.658656582084916
 20
342.67760644257658
 30
0.0
 11
87.584351718925916
 21
342.67760644257658
 31
0.0
  0
LINE
  5
8F80
  8
AM_0
 10
83.158656582084902
 20
346.37760644257759
 30
0.0
 11
83.158656582084902
 21
344.17760644257669
 31
0.0
  0
LINE
  5
8F81
  8
AM_0
 10
84.558656582084907
 20
352.67760644257669
 30
0.0
 11
84.658656582084916
 21
352.67760644257669
 31
0.0
  0
LINE
  5
8F82
  8
AM_0
 10
84.358656582084819
 20
352.4776064425775
 30
0.0
 11
84.558656582084907
 21
352.67760644257669
 31
0.0
  0
ARC
  5
8F83
  8
AM_0
 10
83.858656582084834
 20
351.37760644257747
 30
0.0
 40
0.3
 50
0.0
 51
90.0
  0
LINE
  5
8F84
  8
AM_0
 10
83.458656582084842
 20
351.67760644257658
 30
0.0
 11
82.958656582085894
 21
351.67760644257658
 31
0.0
  0
LINE
  5
8F85
  8
AM_0
 10
83.858656582084834
 20
351.67760644257658
 30
0.0
 11
83.458656582084842
 21
351.67760644257658
 31
0.0
  0
LINE
  5
8F86
  8
AM_0
 10
85.658656582084902
 20
376.67760644257658
 30
0.0
 11
90.45865658208487
 21
376.67760644257658
 31
0.0
  0
ARC
  5
8F87
  8
AM_0
 10
85.658656582084902
 20
375.67760644257658
 30
0.0
 40
1.0
 50
90.0
 51
180.0
  0
CIRCLE
  5
8F88
  8
AM_0
 10
114.2586565820849
 20
359.67760644257658
 30
0.0
 40
0.75
  0
LINE
  5
8F89
  8
ﾁｭｳｼﾝｾﾝ
 10
99.758656582084939
 20
371.67762144257659
 30
0.0
 11
99.758656582084939
 21
347.67762144257659
 31
0.0
  0
LINE
  5
8F8A
  8
AM_0
 10
109.05865658208479
 20
376.67760644257658
 30
0.0
 11
109.05865658208479
 21
359.67760644257658
 31
0.0
  0
LINE
  5
8F8B
  8
AM_0
 10
115.2586565820849
 20
376.67760644257658
 30
0.0
 11
109.05865658208479
 21
376.67760644257658
 31
0.0
  0
LINE
  5
8F8C
  8
AM_0
 10
108.05865658208479
 20
376.67760644257658
 30
0.0
 11
109.05865658208479
 21
376.67760644257658
 31
0.0
  0
LINE
  5
8F8D
  8
AM_0
 10
69.856504150505884
 20
402.98766644257648
 30
0.0
 11
76.086484150505953
 21
402.98766644257648
 31
0.0
  0
LINE
  5
8F8E
  8
AM_0
 10
69.156494150505978
 20
393.17760644257658
 30
0.0
 11
77.156494150505978
 21
393.17760644257658
 31
0.0
  0
LINE
  5
8F8F
  8
AM_0
 10
44.156494150505971
 20
387.42760644257658
 30
0.0
 11
69.156494150505978
 21
387.42760644257658
 31
0.0
  0
LINE
  5
8F90
  8
AM_0
 10
47.156494150505971
 20
387.42760644257658
 30
0.0
 11
47.156494150505971
 21
381.17760644257658
 31
0.0
  0
LINE
  5
8F91
  8
AM_0
 10
44.156494150505971
 20
387.42760644257658
 30
0.0
 11
44.156494150505971
 21
393.42760644257658
 31
0.0
  0
LINE
  5
8F92
  8
AM_0
 10
64.156494150505978
 20
402.28661644257647
 30
0.0
 11
64.156494150505978
 21
393.42760644257658
 31
0.0
  0
LINE
  5
8F93
  8
AM_0
 10
57.156494150505971
 20
386.17760644257658
 30
0.0
 11
60.156494150505971
 21
386.17760644257658
 31
0.0
  0
LINE
  5
8F94
  8
AM_0
 10
57.156494150505971
 20
387.42760644257658
 30
0.0
 11
57.156494150505971
 21
381.17760644257658
 31
0.0
  0
LINE
  5
8F95
  8
AM_0
 10
60.156494150505971
 20
386.17760644257658
 30
0.0
 11
60.156494150505971
 21
381.17760644257658
 31
0.0
  0
ARC
  5
8F96
  8
AM_0
 10
78.829654150505903
 20
411.13255644257669
 30
0.0
 40
1.675014
 50
89.766498999996756
 51
270.2335099999994
  0
LINE
  5
8F97
  8
AM_0
 10
80.062744150505964
 20
387.04759644257661
 30
0.0
 11
102.4891443491727
 21
387.04759644257661
 31
0.0
  0
LINE
  5
8F98
  8
AM_0
 10
77.156494150505978
 20
398.08754644257658
 30
0.0
 11
78.396484150506026
 21
391.52754644257658
 31
0.0
  0
LINE
  5
8F99
  8
AM_0
 10
77.156494150505978
 20
396.73753644257658
 30
0.0
 11
78.436464150505898
 21
388.7375964425766
 31
0.0
  0
LINE
  5
8F9A
  8
AM_0
 10
77.156494150505978
 20
395.39754644257658
 30
0.0
 11
78.165714150506005
 21
388.74751644257651
 31
0.0
  0
LINE
  5
8F9B
  8
AM_0
 10
77.156494150505978
 20
395.3976064425766
 30
0.0
 11
78.081974150505971
 21
388.7709864425766
 31
0.0
  0
ARC
  5
8F9C
  8
AM_0
 10
80.361334150505954
 20
391.89684644257659
 30
0.0
 40
1.9992490000000001
 50
190.643100000001
 51
270.14743000000129
  0
ARC
  5
8F9D
  8
AM_0
 10
80.412664150505975
 20
389.04796644257658
 30
0.0
 40
2.000420099999999
 50
188.9268200000015
 51
269.82270999999599
  0
ARC
  5
8F9E
  8
AM_0
 10
80.143124150505955
 20
389.04759644257661
 30
0.0
 40
2.0
 50
188.62962000000411
 51
269.999989999999
  0
ARC
  5
8F9F
  8
AM_0
 10
80.062744150505964
 20
389.04759644257661
 30
0.0
 40
2.0
 50
187.9504400000034
 51
269.999989999999
  0
LINE
  5
8FA0
  8
AM_0
 10
82.516484150506017
 20
409.5276064425766
 30
0.0
 11
77.156494150505978
 21
398.08760644257683
 31
0.0
  0
ARC
  5
8FA1
  8
AM_0
 10
79.701114150505987
 20
411.17760644257652
 30
0.0
 40
1.000013899999999
 50
89.691659999999231
 51
270.30834000000078
  0
ARC
  5
8FA2
  8
AM_0
 10
102.4891443491727
 20
385.54759644257661
 30
0.0
 40
1.5
 50
1.499738863867264
 51
90.0
1001
GENIUS_GENODEF_13
1002
{
1000
HIER
1070
     0
1002
}
1002
{
1000
MANEDIT
1070
     0
1002
}
1002
{
1000
NOSEL
1070
     0
1002
}
1002
{
1000
BEHIND
1070
     0
1002
}
1002
{
1000
REACTOR
1002
}
1001
GENIUS_GENOBJ-N-FIL_13
1002
{
1000
OWNER
1000
GEN
1002
}
  0
LINE
  5
8FA3
  8
AM_0
 10
104.156434150506
 20
379.17757644257659
 30
0.0
 11
103.8757699631669
 21
389.89757644257651
 31
0.0
  0
LINE
  5
8FA4
  8
AM_0
 10
113.5952141505059
 20
442.17760644257652
 30
0.0
 11
79.516484150506017
 21
442.17760644257652
 31
0.0
  0
LINE
  5
8FA5
  8
AM_0
 10
113.5952141505059
 20
440.17760644257652
 30
0.0
 11
79.516484150506017
 21
440.17760644257652
 31
0.0
  0
LINE
  5
8FA6
  8
AM_0
 10
78.426514150505923
 20
442.44762644257662
 30
0.0
 11
114.875184150506
 21
442.44762644257662
 31
0.0
  0
LINE
  5
8FA7
  8
AM_0
 10
78.426514150505923
 20
439.9075864425767
 30
0.0
 11
114.875184150506
 21
439.9075864425767
 31
0.0
  0
LINE
  5
8FA8
  8
AM_0
 10
113.5952141505059
 20
432.17760644257652
 30
0.0
 11
79.516484150506017
 21
432.17760644257652
 31
0.0
  0
LINE
  5
8FA9
  8
AM_0
 10
113.5952141505059
 20
430.17760644257652
 30
0.0
 11
79.516484150506017
 21
430.17760644257652
 31
0.0
  0
LINE
  5
8FAA
  8
AM_0
 10
78.486514150505954
 20
429.83763644257658
 30
0.0
 11
114.8277641505059
 21
429.83763644257658
 31
0.0
  0
LINE
  5
8FAB
  8
AM_0
 10
78.486514150505954
 20
432.49754644257678
 30
0.0
 11
114.8151841505059
 21
432.49754644257678
 31
0.0
  0
POLYLINE
  5
8FAC
  8
AM_0
 66
     1
 10
0.0
 20
0.0
 30
0.0
  0
VERTEX
  5
8FAD
  8
AM_0
 10
80.034734150505969
 20
429.83702644257647
 30
0.0
 42
0.00073721992
  0
VERTEX
  5
8FAE
  8
AM_0
 10
80.0788841505059
 20
429.23461644257662
 30
0.0
 42
0.00074398496
  0
VERTEX
  5
8FAF
  8
AM_0
 10
80.124814150505927
 20
428.63234644257648
 30
0.0
 42
0.00073322625
  0
VERTEX
  5
8FB0
  8
AM_0
 10
80.1725441505059
 20
428.03001644257648
 30
0.0
 42
0.00073594289
  0
VERTEX
  5
8FB1
  8
AM_0
 10
80.222024150505931
 20
427.42802644257648
 30
0.0
 42
0.00074742568
  0
VERTEX
  5
8FB2
  8
AM_0
 10
80.273294150506004
 20
426.82616644257649
 30
0.0
 42
0.00073216749
  0
VERTEX
  5
8FB3
  8
AM_0
 10
80.326354150505949
 20
426.22435644257661
 30
0.0
 42
0.00074184065
  0
VERTEX
  5
8FB4
  8
AM_0
 10
80.381174150505899
 20
425.62282644257652
 30
0.0
 42
0.00072077528
  0
VERTEX
  5
8FB5
  8
AM_0
 10
80.437754150505938
 20
425.02159644257671
 30
0.0
 42
0.00074978179
  0
VERTEX
  5
8FB6
  8
AM_0
 10
80.496094150505854
 20
424.42039644257648
 30
0.0
 42
0.00074288888
  0
VERTEX
  5
8FB7
  8
AM_0
 10
80.556244150505904
 20
423.81937644257658
 30
0.0
 42
0.00072503679
  0
VERTEX
  5
8FB8
  8
AM_0
 10
80.618154150505902
 20
423.21863644257661
 30
0.0
 42
0.00074640584
  0
VERTEX
  5
8FB9
  8
AM_0
 10
80.681824150505904
 20
422.61803644257662
 30
0.0
  0
SEQEND
  5
8FBA
  8
AM_0
  0
ARC
  5
8FBB
  8
AM_0
 10
78.616514150505935
 20
421.15257644257662
 30
0.0
 40
1.465004
 50
90.00000299999769
 51
270.0
  0
ARC
  5
8FBC
  8
AM_0
 10
79.701114150505987
 20
421.17760644257652
 30
0.0
 40
1.000013899999999
 50
89.691659999999231
 51
270.30834000000078
  0
POLYLINE
  5
8FBD
  8
AM_0
 66
     1
 10
0.0
 20
0.0
 30
0.0
  0
VERTEX
  5
8FBE
  8
AM_0
 10
81.017394150505979
 20
419.6945664425765
 30
0.0
 42
0.00068900015
  0
VERTEX
  5
8FBF
  8
AM_0
 10
81.088274150505853
 20
419.11981644257651
 30
0.0
 42
0.00070644648
  0
VERTEX
  5
8FC0
  8
AM_0
 10
81.160774150505972
 20
418.54513644257662
 30
0.0
 42
0.00069245587
  0
VERTEX
  5
8FC1
  8
AM_0
 10
81.234864150505899
 20
417.97081644257662
 30
0.0
 42
0.00069587802
  0
VERTEX
  5
8FC2
  8
AM_0
 10
81.310544150505976
 20
417.39667644257662
 30
0.0
 42
0.00068980012
  0
VERTEX
  5
8FC3
  8
AM_0
 10
81.387844150505884
 20
416.82267644257661
 30
0.0
 42
0.00072079193
  0
VERTEX
  5
8FC4
  8
AM_0
 10
81.466734150505985
 20
416.24889644257672
 30
0.0
 42
0.00071003147
  0
VERTEX
  5
8FC5
  8
AM_0
 10
81.547274150505899
 20
415.67541644257648
 30
0.0
 42
0.00072658712
  0
VERTEX
  5
8FC6
  8
AM_0
 10
81.629434150505958
 20
415.10232644257661
 30
0.0
 42
0.00069571059
  0
VERTEX
  5
8FC7
  8
AM_0
 10
81.713254150505918
 20
414.52928644257662
 30
0.0
 42
0.0007126617
  0
VERTEX
  5
8FC8
  8
AM_0
 10
81.798684150506006
 20
413.95652644257649
 30
0.0
 42
0.00071614574
  0
VERTEX
  5
8FC9
  8
AM_0
 10
81.885714150505919
 20
413.38417644257652
 30
0.0
 42
0.00072290803
  0
VERTEX
  5
8FCA
  8
AM_0
 10
81.974424150505911
 20
412.81187644257648
 30
0.0
  0
SEQEND
  5
8FCB
  8
AM_0
  0
POLYLINE
  5
8FCC
  8
AM_0
 66
     1
 10
0.0
 20
0.0
 30
0.0
  0
VERTEX
  5
8FCD
  8
AM_0
 10
79.560544150505933
 20
439.90721644257661
 30
0.0
 42
0.00076695235
  0
VERTEX
  5
8FCE
  8
AM_0
 10
79.575344150505884
 20
439.28945644257652
 30
0.0
 42
0.00073263043
  0
VERTEX
  5
8FCF
  8
AM_0
 10
79.591984150505937
 20
438.67185644257648
 30
0.0
 42
0.00076525988
  0
VERTEX
  5
8FD0
  8
AM_0
 10
79.610474150505851
 20
438.05418644257662
 30
0.0
 42
0.00075144488
  0
VERTEX
  5
8FD1
  8
AM_0
 10
79.630844150505936
 20
437.4365864425767
 30
0.0
 42
0.00076035096
  0
VERTEX
  5
8FD2
  8
AM_0
 10
79.653084150505933
 20
436.81915644257663
 30
0.0
 42
0.00075543154
  0
VERTEX
  5
8FD3
  8
AM_0
 10
79.677184150505923
 20
436.20177644257649
 30
0.0
 42
0.0007577325
  0
VERTEX
  5
8FD4
  8
AM_0
 10
79.703164150505927
 20
435.58437644257668
 30
0.0
 42
0.00076034585
  0
VERTEX
  5
8FD5
  8
AM_0
 10
79.731014150505985
 20
434.96698644257663
 30
0.0
 42
0.00074823143
  0
VERTEX
  5
8FD6
  8
AM_0
 10
79.760744150505957
 20
434.34959644257663
 30
0.0
 42
0.00074896605
  0
VERTEX
  5
8FD7
  8
AM_0
 10
79.792304150505856
 20
433.73246644257648
 30
0.0
 42
0.00076039763
  0
VERTEX
  5
8FD8
  8
AM_0
 10
79.825724150505948
 20
433.11543644257671
 30
0.0
 42
0.00075616127
  0
VERTEX
  5
8FD9
  8
AM_0
 10
79.861024150505955
 20
432.49840644257648
 30
0.0
  0
SEQEND
  5
8FDA
  8
AM_0
  0
ARC
  5
8FDB
  8
AM_0
 10
78.486514150505954
 20
431.16759644257661
 30
0.0
 40
1.3300049999999981
 50
90.00000299999769
 51
270.0
  0
ARC
  5
8FDC
  8
AM_0
 10
79.701114150505987
 20
431.17760644257658
 30
0.0
 40
1.000013899999999
 50
89.691659999999231
 51
270.30834000000078
  0
POLYLINE
  5
8FDD
  8
AM_0
 66
     1
 10
0.0
 20
0.0
 30
0.0
  0
VERTEX
  5
8FDE
  8
AM_0
 10
79.516484150506017
 20
446.17760644257652
 30
0.0
 42
0.00039106589
  0
VERTEX
  5
8FDF
  8
AM_0
 10
79.51412415050595
 20
445.86646644257661
 30
0.0
 42
0.00035488584
  0
VERTEX
  5
8FE0
  8
AM_0
 10
79.512234150505932
 20
445.55535644257662
 30
0.0
 42
0.00039705232
  0
VERTEX
  5
8FE1
  8
AM_0
 10
79.510804150505919
 20
445.24425644257661
 30
0.0
 42
0.0003876649
  0
VERTEX
  5
8FE2
  8
AM_0
 10
79.50987415050588
 20
444.93311644257659
 30
0.0
 42
0.00040613779
  0
VERTEX
  5
8FE3
  8
AM_0
 10
79.509424150505893
 20
444.62200644257678
 30
0.0
 42
0.00035571855
  0
VERTEX
  5
8FE4
  8
AM_0
 10
79.509464150506005
 20
444.31090644257648
 30
0.0
 42
0.00038547358
  0
VERTEX
  5
8FE5
  8
AM_0
 10
79.509954150505905
 20
443.99976644257652
 30
0.0
 42
0.000355015
  0
VERTEX
  5
8FE6
  8
AM_0
 10
79.510914150505982
 20
443.68866644257668
 30
0.0
 42
0.00040118616
  0
VERTEX
  5
8FE7
  8
AM_0
 10
79.512334150505922
 20
443.37743644257648
 30
0.0
 42
0.00038319867
  0
VERTEX
  5
8FE8
  8
AM_0
 10
79.514244150505988
 20
443.06629644257652
 30
0.0
 42
0.00035656356
  0
VERTEX
  5
8FE9
  8
AM_0
 10
79.516624150505891
 20
442.75506644257661
 30
0.0
 42
0.00040140992
  0
VERTEX
  5
8FEA
  8
AM_0
 10
79.519474150505971
 20
442.44395644257662
 30
0.0
  0
SEQEND
  5
8FEB
  8
AM_0
  0
ARC
  5
8FEC
  8
AM_0
 10
78.420654150505925
 20
441.17760644257652
 30
0.0
 40
1.2700129999999981
 50
89.736617000001587
 51
270.2633699999991
  0
ARC
  5
8FED
  8
AM_0
 10
79.701114150505987
 20
441.17760644257652
 30
0.0
 40
1.000013899999999
 50
89.691659999999231
 51
270.30834000000078
  0
ARC
  5
8FEE
  8
AM_0
 10
113.5952141505059
 20
431.17760644257658
 30
0.0
 40
1.0000056999999991
 50
269.999989999999
 51
90.00000299999769
  0
ARC
  5
8FEF
  8
AM_0
 10
114.82147415050579
 20
431.16759644257661
 30
0.0
 40
1.3300148000000001
 50
269.72941999999853
 51
90.270567000000995
  0
ARC
  5
8FF0
  8
AM_0
 10
114.8834241505058
 20
441.17760644257652
 30
0.0
 40
1.2700266
 50
269.62931999999989
 51
90.370670000004694
  0
ARC
  5
8FF1
  8
AM_0
 10
113.5952141505059
 20
441.17760644257652
 30
0.0
 40
1.0000056999999991
 50
269.999989999999
 51
90.00000299999769
  0
LINE
  5
8FF2
  8
AM_0
 10
21.656494150505981
 20
490.06859644257662
 30
0.0
 11
64.156494150505978
 21
490.06859644257662
 31
0.0
  0
LINE
  5
8FF3
  8
AM_0
 10
21.656494150505981
 20
479.81859644257662
 30
0.0
 11
64.156494150505978
 21
479.81859644257662
 31
0.0
  0
LINE
  5
8FF4
  8
AM_0
 10
21.156494150505971
 20
498.92760644257629
 30
0.0
 11
69.156494150505978
 21
498.92760644257629
 31
0.0
  0
LINE
  5
8FF5
  8
AM_0
 10
22.655064050505921
 20
511.17760644257652
 30
0.0
 11
60.156494150505971
 21
511.17760644257652
 31
0.0
  0
LINE
  5
8FF6
  8
AM_0
 10
23.655064050505921
 20
506.17760644257658
 30
0.0
 11
47.156494150505971
 21
506.17760644257658
 31
0.0
  0
ARC
  5
8FF7
  8
AM_0
 10
20.056524150505879
 20
483.56859644257662
 30
0.0
 40
3.0
 50
180.00002000000191
 51
270.00001100000242
  0
LINE
  5
8FF8
  8
AM_0
 10
20.356504150505881
 20
480.46862644257652
 30
0.0
 11
20.356504150505881
 21
489.66857644257652
 31
0.0
  0
LINE
  5
8FF9
  8
AM_0
 10
13.655064050505921
 20
451.17760644257658
 30
0.0
 11
12.65652415050595
 21
451.17760644257658
 31
0.0
  0
LINE
  5
8FFA
  8
AM_0
 10
19.156494150505971
 20
451.17760644257658
 30
0.0
 11
18.655064050505921
 21
451.17760644257658
 31
0.0
  0
LINE
  5
8FFB
  8
AM_0
 10
20.356504150505881
 20
480.46862644257652
 30
0.0
 11
21.656494150505981
 21
480.46862644257652
 31
0.0
  0
LINE
  5
8FFC
  8
AM_0
 10
20.056524150505879
 20
480.56859644257662
 30
0.0
 11
20.356504150505881
 21
480.56859644257662
 31
0.0
  0
LINE
  5
8FFD
  8
AM_0
 10
18.655064050505921
 20
489.22112534686909
 30
0.0
 11
18.655064050505921
 21
501.17760644257629
 31
0.0
  0
LINE
  5
8FFE
  8
AM_0
 10
19.156494150505971
 20
489.43053644257662
 30
0.0
 11
19.156494150505971
 21
496.92760644257629
 31
0.0
  0
ARC
  5
8FFF
  8
AM_0
 10
20.056524150505879
 20
486.56859644257651
 30
0.0
 40
3.0
 50
90.000049999998538
 51
180.00002000000191
  0
LINE
  5
9000
  8
AM_0
 10
17.056524150505879
 20
483.56859644257662
 30
0.0
 11
17.056524150505879
 21
486.56859644257651
 31
0.0
  0
LINE
  5
9001
  8
AM_0
 10
20.356504150505881
 20
489.66857644257652
 30
0.0
 11
21.656494150505981
 21
489.66857644257652
 31
0.0
  0
LINE
  5
9002
  8
AM_0
 10
20.056524150505879
 20
489.56859644257651
 30
0.0
 11
20.356504150505881
 21
489.56859644257651
 31
0.0
  0
ARC
  5
9003
  8
AM_0
 10
21.156494150505971
 20
496.92760644257629
 30
0.0
 40
2.0
 50
90.000049999998538
 51
180.00002000000191
  0
ARC
  5
9004
  8
AM_0
 10
22.655064050505921
 20
502.17760644257658
 30
0.0
 40
9.0
 50
89.999988999997569
 51
179.99997999999781
  0
ARC
  5
9005
  8
AM_0
 10
23.655064050505921
 20
501.17760644257669
 30
0.0
 40
5.0
 50
89.999988999997569
 51
180.0
  0
LINE
  5
9006
  8
AM_0
 10
69.156494150505978
 20
499.17760644257652
 30
0.0
 11
77.156494150505978
 21
499.17760644257652
 31
0.0
  0
LINE
  5
9007
  8
AM_0
 10
69.856504150505884
 20
489.36754644257672
 30
0.0
 11
76.086484150505953
 21
489.36754644257672
 31
0.0
  0
LINE
  5
9008
  8
AM_0
 10
44.156494150505971
 20
504.92760644257652
 30
0.0
 11
69.156494150505978
 21
504.92760644257652
 31
0.0
  0
LINE
  5
9009
  8
AM_0
 10
44.156494150505971
 20
504.92760644257652
 30
0.0
 11
44.156494150505971
 21
498.92760644257629
 31
0.0
  0
LINE
  5
900A
  8
AM_0
 10
47.156494150505971
 20
504.92760644257652
 30
0.0
 11
47.156494150505971
 21
511.17760644257652
 31
0.0
  0
LINE
  5
900B
  8
AM_0
 10
64.156494150505978
 20
490.06859644257662
 30
0.0
 11
64.156494150505978
 21
498.92760644257629
 31
0.0
  0
LINE
  5
900C
  8
AM_0
 10
57.156494150505971
 20
506.17760644257658
 30
0.0
 11
60.156494150505971
 21
506.17760644257658
 31
0.0
  0
LINE
  5
900D
  8
AM_0
 10
57.156494150505971
 20
504.92760644257652
 30
0.0
 11
57.156494150505971
 21
511.17760644257652
 31
0.0
  0
LINE
  5
900E
  8
AM_0
 10
60.156494150505971
 20
506.17760644257658
 30
0.0
 11
60.156494150505971
 21
511.17760644257652
 31
0.0
  0
ARC
  5
900F
  8
AM_0
 10
78.829104150505927
 20
481.2226464425766
 30
0.0
 40
1.6750160000000001
 50
89.746145000004447
 51
270.25387000000092
  0
LINE
  5
9010
  8
AM_0
 10
113.5952141505059
 20
452.17760644257658
 30
0.0
 11
79.516484150506017
 21
452.17760644257658
 31
0.0
  0
LINE
  5
9011
  8
AM_0
 10
113.5952141505059
 20
450.17760644257652
 30
0.0
 11
79.516484150506017
 21
450.17760644257652
 31
0.0
  0
LINE
  5
9012
  8
AM_0
 10
113.5952141505059
 20
462.17760644257652
 30
0.0
 11
79.516484150506017
 21
462.17760644257652
 31
0.0
  0
LINE
  5
9013
  8
AM_0
 10
113.5952141505059
 20
460.17760644257658
 30
0.0
 11
79.516484150506017
 21
460.17760644257658
 31
0.0
  0
LINE
  5
9014
  8
AM_0
 10
78.426514150505923
 20
452.44762644257639
 30
0.0
 11
114.875184150506
 21
452.44762644257639
 31
0.0
  0
LINE
  5
9015
  8
AM_0
 10
78.426514150505923
 20
449.91759644257661
 30
0.0
 11
114.875184150506
 21
449.91759644257661
 31
0.0
  0
LINE
  5
9016
  8
AM_0
 10
78.486514150505954
 20
462.51756644257659
 30
0.0
 11
114.8151841505059
 21
462.51756644257659
 31
0.0
  0
LINE
  5
9017
  8
AM_0
 10
78.486514150505954
 20
459.85765644257663
 30
0.0
 11
114.8151841505059
 21
459.85765644257663
 31
0.0
  0
POLYLINE
  5
9018
  8
AM_0
 66
     1
 10
0.0
 20
0.0
 30
0.0
  0
VERTEX
  5
9019
  8
AM_0
 10
80.034734150505969
 20
462.5181764425767
 30
0.0
 42
-0.0007337051
  0
VERTEX
  5
901A
  8
AM_0
 10
80.078874150505939
 20
463.12059644257658
 30
0.0
 42
-0.00075211323
  0
VERTEX
  5
901B
  8
AM_0
 10
80.124814150505927
 20
463.72298644257671
 30
0.0
 42
-0.0007297491
  0
VERTEX
  5
901C
  8
AM_0
 10
80.1725441505059
 20
464.32518644257652
 30
0.0
 42
-0.00073593041
  0
VERTEX
  5
901D
  8
AM_0
 10
80.222024150505931
 20
464.92717644257652
 30
0.0
 42
-0.00074742739
  0
VERTEX
  5
901E
  8
AM_0
 10
80.273294150506004
 20
465.52904644257649
 30
0.0
 42
-0.00073217363
  0
VERTEX
  5
901F
  8
AM_0
 10
80.326354150505949
 20
466.13084644257651
 30
0.0
 42
-0.00073754168
  0
VERTEX
  5
9020
  8
AM_0
 10
80.381174150505899
 20
466.73238644257663
 30
0.0
 42
-0.00073075073
  0
VERTEX
  5
9021
  8
AM_0
 10
80.437754150505938
 20
467.33374644257651
 30
0.0
 42
-0.00074550816
  0
VERTEX
  5
9022
  8
AM_0
 10
80.496094150505854
 20
467.93480644257659
 30
0.0
 42
-0.00074288416
  0
VERTEX
  5
9023
  8
AM_0
 10
80.556244150505904
 20
468.53582644257671
 30
0.0
 42
-0.00072504001
  0
VERTEX
  5
9024
  8
AM_0
 10
80.618154150505902
 20
469.1365764425766
 30
0.0
 42
-0.00074640667
  0
VERTEX
  5
9025
  8
AM_0
 10
80.681824150505904
 20
469.73717644257653
 30
0.0
  0
SEQEND
  5
9026
  8
AM_0
  0
POLYLINE
  5
9027
  8
AM_0
 66
     1
 10
0.0
 20
0.0
 30
0.0
  0
VERTEX
  5
9028
  8
AM_0
 10
79.560544150505933
 20
452.44798644257651
 30
0.0
 42
-0.00076691992
  0
VERTEX
  5
9029
  8
AM_0
 10
79.575344150505884
 20
453.06575644257651
 30
0.0
 42
-0.00073262792
  0
VERTEX
  5
902A
  8
AM_0
 10
79.591984150505937
 20
453.68334644257652
 30
0.0
 42
-0.00076529537
  0
VERTEX
  5
902B
  8
AM_0
 10
79.610474150505851
 20
454.3010164425765
 30
0.0
 42
-0.00075141097
  0
VERTEX
  5
902C
  8
AM_0
 10
79.630844150505936
 20
454.91861644257659
 30
0.0
 42
-0.00075841687
  0
VERTEX
  5
902D
  8
AM_0
 10
79.653074150505972
 20
455.53604644257661
 30
0.0
 42
-0.00075711788
  0
VERTEX
  5
902E
  8
AM_0
 10
79.677184150505923
 20
456.15355644257647
 30
0.0
 42
-0.00075976003
  0
VERTEX
  5
902F
  8
AM_0
 10
79.703174150505902
 20
456.77094644257659
 30
0.0
 42
-0.00075797311
  0
VERTEX
  5
9030
  8
AM_0
 10
79.731014150505985
 20
457.38822644257652
 30
0.0
 42
-0.0007482613
  0
VERTEX
  5
9031
  8
AM_0
 10
79.760744150505957
 20
458.00560644257649
 30
0.0
 42
-0.00074893561
  0
VERTEX
  5
9032
  8
AM_0
 10
79.792304150505856
 20
458.62273644257658
 30
0.0
 42
-0.00076039839
  0
VERTEX
  5
9033
  8
AM_0
 10
79.825724150505948
 20
459.23976644257658
 30
0.0
 42
-0.00075618786
  0
VERTEX
  5
9034
  8
AM_0
 10
79.861024150505955
 20
459.85680644257673
 30
0.0
  0
SEQEND
  5
9035
  8
AM_0
  0
ARC
  5
9036
  8
AM_0
 10
79.701114150505987
 20
451.17760644257658
 30
0.0
 40
1.000013899999999
 50
89.691659999999231
 51
270.30834000000078
  0
ARC
  5
9037
  8
AM_0
 10
78.420654150505925
 20
451.18260644257663
 30
0.0
 40
1.2650129999999991
 50
89.735579000001735
 51
270.26441000000239
  0
ARC
  5
9038
  8
AM_0
 10
78.486514150505954
 20
461.18761644257648
 30
0.0
 40
1.3300049999999981
 50
90.00000299999769
 51
270.0
  0
ARC
  5
9039
  8
AM_0
 10
79.701114150505987
 20
461.17760644257652
 30
0.0
 40
1.000013899999999
 50
89.691659999999231
 51
270.30834000000078
  0
POLYLINE
  5
903A
  8
AM_0
 66
     1
 10
0.0
 20
0.0
 30
0.0
  0
VERTEX
  5
903B
  8
AM_0
 10
81.017394150505979
 20
472.66063644257662
 30
0.0
 42
-0.00068898288
  0
VERTEX
  5
903C
  8
AM_0
 10
81.088274150505853
 20
473.23538644257661
 30
0.0
 42
-0.00070644354
  0
VERTEX
  5
903D
  8
AM_0
 10
81.160774150505972
 20
473.81007644257647
 30
0.0
 42
-0.00069248071
  0
VERTEX
  5
903E
  8
AM_0
 10
81.234864150505899
 20
474.38438644257661
 30
0.0
 42
-0.00069585665
  0
VERTEX
  5
903F
  8
AM_0
 10
81.310544150505976
 20
474.95852644257673
 30
0.0
 42
-0.00068980191
  0
VERTEX
  5
9040
  8
AM_0
 10
81.387844150505884
 20
475.53252644257662
 30
0.0
 42
-0.00072080104
  0
VERTEX
  5
9041
  8
AM_0
 10
81.466734150505985
 20
476.10631644257649
 30
0.0
 42
-0.00071002307
  0
VERTEX
  5
9042
  8
AM_0
 10
81.547274150505899
 20
476.67978644257659
 30
0.0
 42
-0.00072659056
  0
VERTEX
  5
9043
  8
AM_0
 10
81.629434150505958
 20
477.25288644257648
 30
0.0
 42
-0.00069570481
  0
VERTEX
  5
9044
  8
AM_0
 10
81.713254150505918
 20
477.82591644257661
 30
0.0
 42
-0.00071266935
  0
VERTEX
  5
9045
  8
AM_0
 10
81.798684150506006
 20
478.39868644257672
 30
0.0
 42
-0.00071614426
  0
VERTEX
  5
9046
  8
AM_0
 10
81.885714150505919
 20
478.9710264425766
 30
0.0
 42
-0.00072288975
  0
VERTEX
  5
9047
  8
AM_0
 10
81.974424150505911
 20
479.54332644257647
 30
0.0
  0
SEQEND
  5
9048
  8
AM_0
  0
ARC
  5
9049
  8
AM_0
 10
78.616514150505935
 20
471.20262644257662
 30
0.0
 40
1.465004
 50
90.00000299999769
 51
270.0
  0
ARC
  5
904A
  8
AM_0
 10
79.701114150505987
 20
471.17760644257652
 30
0.0
 40
1.000013899999999
 50
89.691659999999231
 51
270.30834000000078
  0
ARC
  5
904B
  8
AM_0
 10
79.701114150505987
 20
481.17760644257658
 30
0.0
 40
1.000013899999999
 50
89.691659999999231
 51
270.30834000000078
  0
ARC
  5
904C
  8
AM_0
 10
114.8834241505058
 20
451.1876164425766
 30
0.0
 40
1.2700266
 50
269.62931999999989
 51
90.370670000004694
  0
ARC
  5
904D
  8
AM_0
 10
113.5952141505059
 20
451.17760644257658
 30
0.0
 40
1.0000056999999991
 50
269.999989999999
 51
90.00000299999769
  0
ARC
  5
904E
  8
AM_0
 10
113.5952141505059
 20
461.17760644257652
 30
0.0
 40
1.0000056999999991
 50
269.999989999999
 51
90.00000299999769
  0
ARC
  5
904F
  8
AM_0
 10
114.82147415050579
 20
461.19261644257648
 30
0.0
 40
1.3350147999999991
 50
269.73042999999973
 51
90.269556000001344
  0
LINE
  5
9050
  8
AM_0
 10
77.156494150505978
 20
494.27763644257669
 30
0.0
 11
78.396484150506026
 21
500.83760644257671
 31
0.0
  0
LINE
  5
9051
  8
AM_0
 10
77.156494150505978
 20
496.96761644257663
 30
0.0
 11
78.446474150505864
 21
505.45757644257668
 31
0.0
  0
LINE
  5
9052
  8
AM_0
 10
77.156494150505978
 20
495.61763644257672
 30
0.0
 11
78.436464150505898
 21
503.6275864425765
 31
0.0
  0
LINE
  5
9053
  8
AM_0
 10
77.156494150505978
 20
496.96761644257663
 30
0.0
 11
78.466494150505923
 21
506.34764644257649
 31
0.0
  0
LINE
  5
9054
  8
AM_0
 10
82.516484150506017
 20
482.82759644257652
 30
0.0
 11
77.156494150505978
 21
494.27757644257667
 31
0.0
  0
ARC
  5
9055
  8
AM_0
 10
80.355224150505933
 20
500.46349644257663
 30
0.0
 40
1.994108999999999
 50
89.675548000002749
 51
169.18776999999869
  0
ARC
  5
9056
  8
AM_0
 10
80.442994150505911
 20
506.07201644257663
 30
0.0
 40
1.995633
 50
89.899708000002292
 51
172.06112999999959
  0
ARC
  5
9057
  8
AM_0
 10
80.406744150505901
 20
503.31236644257649
 30
0.0
 40
1.995282999999999
 50
90.006203999996856
 51
170.90835000000069
  0
ARC
  5
9058
  8
AM_0
 10
80.421084150505976
 20
505.16087644257658
 30
0.0
 40
1.9967330000000001
 50
89.843966999998912
 51
171.45387999999721
  0
LINE
  5
9059
  8
AM_0
 10
185.15649415050581
 20
502.17760644257658
 30
0.0
 11
185.15649415050581
 21
390.17760644257658
 31
0.0
  0
LINE
  5
905A
  8
AM_0
 10
167.65649415050581
 20
376.67760644257658
 30
0.0
 11
167.65649415050581
 21
379.17760644257658
 31
0.0
  0
LINE
  5
905B
  8
AM_0
 10
170.93378284793189
 20
376.67760644257658
 30
0.0
 11
160.25865658208491
 21
376.67760644257658
 31
0.0
  0
LINE
  5
905C
  8
AM_0
 10
171.93378284793181
 20
359.67760644257658
 30
0.0
 11
163.55865658208481
 21
359.67760644257658
 31
0.0
  0
LINE
  5
905D
  8
AM_0
 10
166.05865658208589
 20
355.67760644257658
 30
0.0
 11
163.88435171892581
 21
355.67760644257658
 31
0.0
  0
ARC
  5
905E
  8
AM_0
 10
163.05865658208589
 20
345.17760644257658
 30
0.0
 40
2.5
 50
270.0
 51
0.0
  0
LINE
  5
905F
  8
AM_0
 10
139.66536467303891
 20
356.62053847897448
 30
0.0
 11
141.86871871851591
 21
356.9959461145076
 31
0.0
  0
LINE
  5
9060
  8
AM_0
 10
134.46201062756089
 20
371.67760644257658
 30
0.0
 11
134.46201062756089
 21
355.7339906075307
 31
0.0
  0
LINE
  5
9061
  8
AM_0
 10
135.96201062756089
 20
355.9895607254856
 30
0.0
 11
135.96201062756089
 21
371.67760644257658
 31
0.0
  0
LINE
  5
9062
  8
AM_0
 10
138.16536467303891
 20
371.67760644257658
 30
0.0
 11
138.16536467303891
 21
356.36496836101958
 31
0.0
  0
LINE
  5
9063
  8
AM_0
 10
139.66536467303891
 20
356.62053847897448
 30
0.0
 11
139.66536467303891
 21
371.67760644257658
 31
0.0
  0
LINE
  5
9064
  8
AM_0
 10
128.55530253660581
 20
354.72760521850762
 30
0.0
 11
128.55530253660581
 21
371.67760644257658
 31
0.0
  0
LINE
  5
9065
  8
AM_0
 10
130.75865658208389
 20
371.67760644257658
 30
0.0
 11
130.75865658208389
 21
355.10301285404159
 31
0.0
  0
LINE
  5
9066
  8
AM_0
 10
121.1553025366059
 20
353.46679263659462
 30
0.0
 11
121.1553025366059
 21
371.67760644257771
 31
0.0
  0
LINE
  5
9067
  8
AM_0
 10
123.35530253660581
 20
371.67760644257658
 30
0.0
 11
123.3553025366068
 21
353.8416288095957
 31
0.0
  0
LINE
  5
9068
  8
AM_0
 10
124.85530253660581
 20
354.09719892755157
 30
0.0
 11
124.85530253660581
 21
371.67760644257658
 31
0.0
  0
LINE
  5
9069
  8
AM_0
 10
127.05530253660579
 20
371.67760644257658
 30
0.0
 11
127.05530253660579
 21
354.4720351005526
 31
0.0
  0
LINE
  5
906A
  8
AM_0
 10
119.1553025366059
 20
368.96623026337858
 30
0.0
 11
119.1553025366059
 21
353.12603247932083
 31
0.0
  0
LINE
  5
906B
  8
AM_0
 10
132.75865658208679
 20
355.44377301131561
 30
0.0
 11
132.75865658208679
 21
368.96623026337858
 31
0.0
  0
LINE
  5
906C
  8
AM_0
 10
128.55530253660581
 20
354.72760521850762
 30
0.0
 11
130.75865658208389
 21
355.10301285404159
 31
0.0
  0
LINE
  5
906D
  8
AM_0
 10
121.1553025366059
 20
353.46679263659462
 30
0.0
 11
123.3553025366068
 21
353.8416288095957
 31
0.0
  0
LINE
  5
906E
  8
AM_0
 10
124.85530253660581
 20
354.09719892755157
 30
0.0
 11
127.05530253660579
 21
354.4720351005526
 31
0.0
  0
LINE
  5
906F
  8
AM_0
 10
132.75865658208679
 20
355.44377301131561
 30
0.0
 11
134.46201062756089
 21
355.7339906075307
 31
0.0
  0
LINE
  5
9070
  8
AM_0
 10
135.96201062756089
 20
355.9895607254856
 30
0.0
 11
138.16536467303891
 21
356.36496836101958
 31
0.0
  0
LINE
  5
9071
  8
AM_0
 10
124.85530253660581
 20
367.67760644257658
 30
0.0
 11
123.35530253660581
 21
367.67760644257658
 31
0.0
  0
LINE
  5
9072
  8
AM_0
 10
121.1553025366059
 20
367.67760644257658
 30
0.0
 11
119.1553025366059
 21
367.67760644257658
 31
0.0
  0
LINE
  5
9073
  8
AM_0
 10
128.55530253660581
 20
367.67760644257658
 30
0.0
 11
127.05530253660579
 21
367.67760644257658
 31
0.0
  0
LINE
  5
9074
  8
AM_0
 10
124.85530253660581
 20
371.67760644257658
 30
0.0
 11
123.35530253660581
 21
371.67760644257658
 31
0.0
  0
LINE
  5
9075
  8
AM_0
 10
119.85530253660581
 20
371.67760644257658
 30
0.0
 11
119.85530253660581
 21
369.63358231998262
 31
0.0
  0
LINE
  5
9076
  8
AM_0
 10
121.1553025366059
 20
371.67760644257771
 30
0.0
 11
119.85530253660581
 21
371.67760644257658
 31
0.0
  0
LINE
  5
9077
  8
AM_0
 10
119.85530253660581
 20
369.63358231998262
 30
0.0
 11
119.1553025366059
 21
368.96623026337858
 31
0.0
  0
LINE
  5
9078
  8
AM_0
 10
128.55530253660581
 20
371.67760644257658
 30
0.0
 11
127.05530253660579
 21
371.67760644257658
 31
0.0
  0
LINE
  5
9079
  8
AM_0
 10
135.96201062756089
 20
367.67760644257658
 30
0.0
 11
134.46201062756089
 21
367.67760644257658
 31
0.0
  0
LINE
  5
907A
  8
AM_0
 10
132.75865658208679
 20
367.67760644257658
 30
0.0
 11
130.75865658208389
 21
367.67760644257658
 31
0.0
  0
LINE
  5
907B
  8
AM_0
 10
139.66536467303891
 20
367.67760644257658
 30
0.0
 11
138.16536467303891
 21
367.67760644257658
 31
0.0
  0
LINE
  5
907C
  8
AM_0
 10
135.96201062756089
 20
371.67760644257658
 30
0.0
 11
134.46201062756089
 21
371.67760644257658
 31
0.0
  0
LINE
  5
907D
  8
AM_0
 10
132.75865658208679
 20
368.96623026337858
 30
0.0
 11
132.0586565820837
 21
369.63358231998262
 31
0.0
  0
LINE
  5
907E
  8
AM_0
 10
132.0586565820837
 20
369.63358231998262
 30
0.0
 11
132.0586565820837
 21
371.67760644257658
 31
0.0
  0
LINE
  5
907F
  8
AM_0
 10
132.0586565820837
 20
371.67760644257658
 30
0.0
 11
130.75865658208389
 21
371.67760644257658
 31
0.0
  0
LINE
  5
9080
  8
AM_0
 10
139.66536467303891
 20
371.67760644257658
 30
0.0
 11
138.16536467303891
 21
371.67760644257658
 31
0.0
  0
CIRCLE
  5
9081
  8
AM_0
 10
148.75865658208491
 20
359.67760644257658
 30
0.0
 40
0.75
  0
LINE
  5
9082
  8
AM_0
 10
156.93378284793189
 20
359.56273292554852
 30
0.0
 11
156.93378284793189
 21
376.67760644257658
 31
0.0
  0
LINE
  5
9083
  8
AM_0
 10
145.57207276399279
 20
371.67760644257658
 30
0.0
 11
145.57207276399279
 21
357.62692386799648
 31
0.0
  0
LINE
  5
9084
  8
AM_0
 10
143.36871871851591
 20
357.25151623246359
 30
0.0
 11
143.36871871851591
 21
371.67760644257658
 31
0.0
  0
LINE
  5
9085
  8
AM_0
 10
147.07207276399279
 20
357.88249398595252
 30
0.0
 11
147.07207276399279
 21
371.67760644257658
 31
0.0
  0
LINE
  5
9086
  8
AM_0
 10
141.86871871851591
 20
371.67760644257658
 30
0.0
 11
141.86871871851591
 21
356.9959461145076
 31
0.0
  0
LINE
  5
9087
  8
AM_0
 10
147.07207276399279
 20
357.88249398595252
 30
0.0
 11
156.93378284793189
 21
359.56273292554852
 31
0.0
  0
LINE
  5
9088
  8
AM_0
 10
143.36871871851591
 20
357.25151623246359
 30
0.0
 11
145.57207276399279
 21
357.62692386799648
 31
0.0
  0
LINE
  5
9089
  8
AM_0
 10
155.2888081011028
 20
342.67760644257658
 30
0.0
 11
155.2888081011028
 21
354.21309704504478
 31
0.0
  0
LINE
  5
908A
  8
AM_0
 10
156.15865658208591
 20
354.36340121527962
 30
0.0
 11
156.15865658208591
 21
358.41679386066352
 31
0.0
  0
LINE
  5
908B
  8
AM_0
 10
160.25865658208491
 20
376.67760644257658
 30
0.0
 11
153.05865658208481
 21
376.67760644257658
 31
0.0
  0
LINE
  5
908C
  8
AM_0
 10
147.07207276399279
 20
367.67760644257658
 30
0.0
 11
145.57207276399279
 21
367.67760644257658
 31
0.0
  0
LINE
  5
908D
  8
AM_0
 10
143.36871871851591
 20
367.67760644257658
 30
0.0
 11
141.86871871851591
 21
367.67760644257658
 31
0.0
  0
LINE
  5
908E
  8
AM_0
 10
147.07207276399279
 20
371.67760644257658
 30
0.0
 11
145.57207276399279
 21
371.67760644257658
 31
0.0
  0
LINE
  5
908F
  8
AM_0
 10
143.36871871851591
 20
371.67760644257658
 30
0.0
 11
141.86871871851591
 21
371.67760644257658
 31
0.0
  0
LINE
  5
9090
  8
AM_0
 10
171.93378284793181
 20
359.67760644257658
 30
0.0
 11
171.93378284793181
 21
375.67760644257658
 31
0.0
  0
LINE
  5
9091
  8
AM_0
 10
165.55865658208589
 20
355.17760644257658
 30
0.0
 11
165.55865658208589
 21
345.17760644257658
 31
0.0
  0
LINE
  5
9092
  8
AM_0
 10
166.05865658208589
 20
355.67760644257658
 30
0.0
 11
171.43378284793189
 21
355.67760644257658
 31
0.0
  0
ARC
  5
9093
  8
AM_0
 10
166.05865658208589
 20
355.17760644257658
 30
0.0
 40
0.5
 50
90.0
 51
180.0
  0
ARC
  5
9094
  8
AM_0
 10
171.43378284793189
 20
356.17760644257658
 30
0.0
 40
0.5
 50
270.0
 51
0.0
  0
LINE
  5
9095
  8
AM_0
 10
171.93378284793181
 20
359.67760644257658
 30
0.0
 11
171.93378284793181
 21
356.17760644257658
 31
0.0
  0
ARC
  5
9096
  8
AM_0
 10
170.93378284793189
 20
375.67760644257658
 30
0.0
 40
1.0
 50
0.0
 51
90.0
  0
LINE
  5
9097
  8
AM_0
 10
181.9765041505058
 20
412.80760644257663
 30
0.0
 11
164.1364741505059
 21
412.80760644257663
 31
0.0
  0
LINE
  5
9098
  8
AM_0
 10
178.48932415050581
 20
420.17760644257652
 30
0.0
 11
164.15649415050581
 21
420.17760644257652
 31
0.0
  0
LINE
  5
9099
  8
AM_0
 10
164.15649415050581
 20
419.69762644257651
 30
0.0
 11
182.1907341505059
 21
419.69762644257651
 31
0.0
  0
ARC
  5
909A
  8
AM_0
 10
165.73557483629099
 20
382.17760644257658
 30
0.0
 40
1.5
 50
90.0
 51
178.4998650936468
1001
GENIUS_GENODEF_13
1002
{
1000
HIER
1070
     0
1002
}
1002
{
1000
MANEDIT
1070
     0
1002
}
1002
{
1000
NOSEL
1070
     0
1002
}
1002
{
1000
BEHIND
1070
     0
1002
}
1002
{
1000
REACTOR
1002
}
1001
GENIUS_GENOBJ-N-FIL_13
1002
{
1000
OWNER
1000
GEN
1002
}
  0
LINE
  5
909B
  8
AM_0
 10
178.49652415050591
 20
412.17760644257652
 30
0.0
 11
134.15649415050581
 21
412.17760644257652
 31
0.0
  0
LINE
  5
909C
  8
AM_0
 10
178.49652415050591
 20
410.17760644257658
 30
0.0
 11
134.15649415050581
 21
410.17760644257658
 31
0.0
  0
LINE
  5
909D
  8
AM_0
 10
134.15649415050581
 20
409.45763644257647
 30
0.0
 11
181.9765041505058
 21
409.45763644257647
 31
0.0
  0
ARC
  5
909E
  8
AM_0
 10
146.15649415050581
 20
413.67760644257652
 30
0.0
 40
1.5
 50
269.999989999999
 51
0.0000006832495047
  0
ARC
  5
909F
  8
AM_0
 10
164.15649415050581
 20
413.67760644257652
 30
0.0
 40
1.5
 50
179.99998999999889
 51
270.0
  0
LINE
  5
90A0
  8
AM_0
 10
164.15649415050581
 20
379.1775464425765
 30
0.0
 11
164.43723327356909
 21
389.89757644257662
 31
0.0
  0
CIRCLE
  5
90A1
  8
AM_0
 10
152.65649415050581
 20
417.67760644257652
 30
0.0
 40
1.149999999999999
  0
CIRCLE
  5
90A2
  8
AM_0
 10
152.65649415050581
 20
417.67760644257652
 30
0.0
 40
1.1000000000000001
  0
ARC
  5
90A3
  8
AM_0
 10
146.15649415050581
 20
418.67760644257658
 30
0.0
 40
1.5
 50
0.0
 51
90.00000299999769
  0
ARC
  5
90A4
  8
AM_0
 10
146.15649415050581
 20
418.67760644257658
 30
0.0
 40
1.02
 50
0.0
 51
90.00000299999769
  0
LINE
  5
90A5
  8
AM_0
 10
147.65649415050581
 20
418.67760644257658
 30
0.0
 11
147.65649415050581
 21
413.67760644257652
 31
0.0
  0
LINE
  5
90A6
  8
AM_0
 10
147.17651415050591
 20
418.67760644257658
 30
0.0
 11
147.17651415050591
 21
413.81761644257648
 31
0.0
  0
ARC
  5
90A7
  8
AM_0
 10
146.17651415050591
 20
413.81761644257648
 30
0.0
 40
1.0
 50
269.999989999999
 51
0.0000006832495047
  0
CIRCLE
  5
90A8
  8
AM_0
 10
157.65649415050581
 20
417.67760644257652
 30
0.0
 40
1.0
  0
ARC
  5
90A9
  8
AM_0
 10
164.15649415050581
 20
418.67760644257658
 30
0.0
 40
1.02
 50
90.00000299999769
 51
180.00001000000091
  0
ARC
  5
90AA
  8
AM_0
 10
164.15649415050581
 20
418.67760644257658
 30
0.0
 40
1.5
 50
90.00000299999769
 51
180.00001000000091
  0
LINE
  5
90AB
  8
AM_0
 10
163.1364741505059
 20
418.67760644257658
 30
0.0
 11
163.1364741505059
 21
413.81761644257648
 31
0.0
  0
LINE
  5
90AC
  8
AM_0
 10
162.65649415050581
 20
418.67760644257658
 30
0.0
 11
162.65649415050581
 21
413.67760644257652
 31
0.0
  0
ARC
  5
90AD
  8
AM_0
 10
164.1364741505059
 20
413.81761644257648
 30
0.0
 40
1.0
 50
179.99998999999889
 51
270.0
  0
ARC
  5
90AE
  8
AM_0
 10
181.9765041505058
 20
411.13255644257669
 30
0.0
 40
1.6750020000000001
 50
269.999989999999
 51
90.00000299999769
  0
LINE
  5
90AF
  8
AM_0
 10
185.15649415050581
 20
400.17760644257652
 30
0.0
 11
193.15649415050581
 21
400.17760644257652
 31
0.0
  0
LINE
  5
90B0
  8
AM_0
 10
185.15649415050581
 20
390.17760644257658
 30
0.0
 11
193.15649415050581
 21
390.17760644257658
 31
0.0
  0
LINE
  5
90B1
  8
AM_0
 10
183.3621841505059
 20
406.85866644257652
 30
0.0
 11
179.2164341505059
 21
391.37755644257652
 31
0.0
  0
ARC
  5
90B2
  8
AM_0
 10
177.17267415050591
 20
385.17760644257658
 30
0.0
 40
1.5
 50
269.999989999999
 51
326.99999999999801
  0
LINE
  5
90B3
  8
AM_0
 10
165.73557483629099
 20
383.67760644257658
 30
0.0
 11
177.17267415050591
 21
383.67760644257658
 31
0.0
  0
LINE
  5
90B4
  8
AM_0
 10
184.15649415050581
 20
393.17757644257648
 30
0.0
 11
178.4306941505059
 21
384.3606164425766
 31
0.0
  0
LINE
  5
90B5
  8
AM_0
 10
179.69854415050591
 20
393.17760644257658
 30
0.0
 11
185.15649415050581
 21
393.17760644257658
 31
0.0
  0
ARC
  5
90B6
  8
AM_0
 10
177.28167415050581
 20
391.9023364425766
 30
0.0
 40
2.0047290000000002
 50
270.13832000000423
 51
344.82650000000177
  0
ARC
  5
90B7
  8
AM_0
 10
178.49652415050591
 20
411.17760644257652
 30
0.0
 40
1.0
 50
269.999989999999
 51
90.00000299999769
  0
ARC
  5
90B8
  8
AM_0
 10
184.80969415050581
 20
406.45482644257652
 30
0.0
 40
1.502775999999999
 50
90.122413000001615
 51
165.2435700000006
  0
LINE
  5
90B9
  8
AM_0
 10
185.15649415050581
 20
414.2376664425766
 30
0.0
 11
193.15649415050581
 21
414.2376664425766
 31
0.0
  0
ARC
  5
90BA
  8
AM_0
 10
178.4964641505058
 20
421.17760644257652
 30
0.0
 40
1.0000255999999981
 50
269.58947000000319
 51
90.410530999997775
  0
ARC
  5
90BB
  8
AM_0
 10
182.19647415050591
 20
421.14757644257662
 30
0.0
 40
1.460011199999999
 50
269.77524999999662
 51
90.224749999996845
  0
LINE
  5
90BC
  8
AM_0
 10
164.1364741505059
 20
479.53758644257653
 30
0.0
 11
181.9765041505058
 21
479.53758644257653
 31
0.0
  0
LINE
  5
90BD
  8
AM_0
 10
178.5036641505059
 20
472.17760644257658
 30
0.0
 11
164.15649415050581
 21
472.17760644257658
 31
0.0
  0
LINE
  5
90BE
  8
AM_0
 10
164.15649415050581
 20
472.66759644257661
 30
0.0
 11
182.20215415050581
 21
472.66759644257661
 31
0.0
  0
CIRCLE
  5
90BF
  8
AM_0
 10
152.65649415050581
 20
474.67760644257652
 30
0.0
 40
1.1000000000000001
  0
CIRCLE
  5
90C0
  8
AM_0
 10
152.65649415050581
 20
474.67760644257652
 30
0.0
 40
1.149999999999999
  0
ARC
  5
90C1
  8
AM_0
 10
146.15649415050581
 20
473.67760644257652
 30
0.0
 40
1.5
 50
269.999989999999
 51
0.0000006832495047
  0
ARC
  5
90C2
  8
AM_0
 10
146.15649415050581
 20
473.67760644257652
 30
0.0
 40
1.02
 50
269.999989999999
 51
0.0000006832429909
  0
ARC
  5
90C3
  8
AM_0
 10
146.15649415050581
 20
478.67760644257652
 30
0.0
 40
1.5
 50
0.0
 51
90.00000299999769
  0
LINE
  5
90C4
  8
AM_0
 10
147.65649415050581
 20
473.67760644257652
 30
0.0
 11
147.65649415050581
 21
478.67760644257652
 31
0.0
  0
LINE
  5
90C5
  8
AM_0
 10
147.17651415050591
 20
473.67760644257652
 30
0.0
 11
147.17651415050591
 21
478.53758644257653
 31
0.0
  0
ARC
  5
90C6
  8
AM_0
 10
146.17651415050591
 20
478.53758644257653
 30
0.0
 40
1.0
 50
0.0
 51
90.00000299999769
  0
ARC
  5
90C7
  8
AM_0
 10
164.15649415050581
 20
473.67760644257652
 30
0.0
 40
1.02
 50
179.99998999999889
 51
270.0
  0
ARC
  5
90C8
  8
AM_0
 10
164.15649415050581
 20
473.67760644257652
 30
0.0
 40
1.5
 50
179.99998999999889
 51
270.0
  0
CIRCLE
  5
90C9
  8
AM_0
 10
157.65649415050581
 20
474.67760644257652
 30
0.0
 40
1.0
  0
LINE
  5
90CA
  8
AM_0
 10
163.1364741505059
 20
473.67760644257652
 30
0.0
 11
163.1364741505059
 21
478.53758644257653
 31
0.0
  0
LINE
  5
90CB
  8
AM_0
 10
162.65649415050581
 20
473.67760644257652
 30
0.0
 11
162.65649415050581
 21
478.67760644257652
 31
0.0
  0
ARC
  5
90CC
  8
AM_0
 10
164.15649415050581
 20
478.67760644257652
 30
0.0
 40
1.5
 50
90.00000299999769
 51
180.00001000000091
  0
ARC
  5
90CD
  8
AM_0
 10
164.1364741505059
 20
478.53758644257653
 30
0.0
 40
1.0
 50
90.00000299999769
 51
180.00001000000091
  0
ARC
  5
90CE
  8
AM_0
 10
181.9765041505058
 20
481.2226464425766
 30
0.0
 40
1.6750020000000001
 50
269.999989999999
 51
90.00000299999769
  0
LINE
  5
90CF
  8
AM_0
 10
185.15649415050581
 20
478.11754644257661
 30
0.0
 11
193.15649415050581
 21
478.11754644257661
 31
0.0
  0
ARC
  5
90D0
  8
AM_0
 10
182.19647415050591
 20
471.20763644257647
 30
0.0
 40
1.460011199999999
 50
269.77524999999662
 51
90.224749999996845
  0
ARC
  5
90D1
  8
AM_0
 10
178.4964641505058
 20
471.17760644257652
 30
0.0
 40
1.0000255999999981
 50
269.58947000000319
 51
90.410530999997775
  0
ARC
  5
90D2
  8
AM_0
 10
178.49652415050591
 20
481.17760644257658
 30
0.0
 40
1.0
 50
269.999989999999
 51
90.00000299999769
  0
LINE
  5
90D3
  8
AM_0
 10
185.15649415050581
 20
502.17760644257658
 30
0.0
 11
193.15649415050581
 21
502.17760644257658
 31
0.0
  0
LINE
  5
90D4
  8
AM_0
 10
185.15649415050581
 20
492.17760644257669
 30
0.0
 11
193.15649415050581
 21
492.17760644257669
 31
0.0
  0
LINE
  5
90D5
  8
AM_0
 10
183.3565041505058
 20
485.51753644257661
 30
0.0
 11
179.21649415050581
 21
500.97755644257671
 31
0.0
  0
LINE
  5
90D6
  8
AM_0
 10
183.36221415050591
 20
488.34645644257671
 30
0.0
 11
179.21649415050581
 21
503.82759644257652
 31
0.0
  0
LINE
  5
90D7
  8
AM_0
 10
183.3622441505058
 20
491.10643644257669
 30
0.0
 11
179.2165241505059
 21
506.58754644257669
 31
0.0
  0
LINE
  5
90D8
  8
AM_0
 10
183.36221415050591
 20
490.19643644257661
 30
0.0
 11
179.21649415050581
 21
505.67754644257661
 31
0.0
  0
ARC
  5
90D9
  8
AM_0
 10
184.80969415050581
 20
491.5103664425767
 30
0.0
 40
1.502775999999999
 50
194.7564299999992
 51
269.8775799999986
  0
ARC
  5
90DA
  8
AM_0
 10
184.80969415050581
 20
488.75035644257667
 30
0.0
 40
1.502775999999999
 50
194.7564299999992
 51
269.8775799999986
  0
ARC
  5
90DB
  8
AM_0
 10
184.80969415050581
 20
490.60033644257669
 30
0.0
 40
1.502775999999999
 50
194.7564299999992
 51
269.8775799999986
  0
ARC
  5
90DC
  8
AM_0
 10
184.80969415050581
 20
485.90038644257669
 30
0.0
 40
1.502775999999999
 50
194.7564299999992
 51
269.8775799999986
  0
LINE
  5
90DD
  8
AM_0
 10
179.69647415050591
 20
499.17760644257652
 30
0.0
 11
185.15649415050581
 21
499.17760644257652
 31
0.0
  0
ARC
  5
90DE
  8
AM_0
 10
177.28167415050581
 20
503.30284644257648
 30
0.0
 40
2.0047290000000002
 50
15.173495999996319
 51
89.861678000000197
  0
ARC
  5
90DF
  8
AM_0
 10
177.28167415050581
 20
506.06285644257667
 30
0.0
 40
2.0047290000000002
 50
15.173495999996319
 51
89.861678000000197
  0
ARC
  5
90E0
  8
AM_0
 10
177.28167415050581
 20
505.15282644257672
 30
0.0
 40
2.0047290000000002
 50
15.173495999996319
 51
89.861678000000197
  0
ARC
  5
90E1
  8
AM_0
 10
177.28656415050591
 20
500.45934644257659
 30
0.0
 40
1.9982919999999991
 50
15.032547999996
 51
90.002632000001341
  0
TEXT
  5
95D7
  8
0
  6
CONTINUOUS
 62
     0
 10
568.81435146161346
 20
436.39835143088362
 30
0.0
 40
15.0
  1
VX02-240BF~VX02-600BF
  0
VIEWPORT
  5
89
 67
     1
  8
0
 10
210.0
 20
148.5
 30
0.0
 40
420.0
 41
297.0
 68
    -1
 69
     1
1001
ACAD
1000
MVIEW
1002
{
1070
    16
1010
0.0
1020
0.0
1030
0.0
1010
0.0
1020
0.0
1030
1.0
1040
0.0
1040
297.0
1040
221.70154043645701
1040
148.5
1040
50.0
1040
0.0
1040
0.0
1070
     0
1070
   100
1070
     1
1070
     1
1070
     0
1070
     0
1070
     0
1070
     0
1040
0.0
1040
0.0
1040
0.0
1040
10.0
1040
10.0
1040
10.0
1040
10.0
1070
     0
1002
{
1002
}
1002
}
1001
GENIUS_GENOREF_13
1005
1B94
1001
GENIUS_GENSCREG_15
1000
PF
1040
1.0
1000
DF
1040
1.0
1000
MIN
1011
0.0
1021
0.0
1031
0.0
1021
0.0
1031
0.0
1000
MAX
1011
420.0
1021
0.0
1031
0.0
1021
297.0
1031
0.0
1000
FLAGS
1070
     4
  0
ENDSEC
  0
EOF
