  0
SECTION
  2
HEADER
  9
$ACADVER
  1
AC1009
  9
$INSBASE
 10
0.0
 20
0.0
 30
0.0
  9
$EXTMIN
 10
9.0726106604761299
 20
-5.0908500272812311
 30
0.0
  9
$EXTMAX
 10
912.30335473808009
 20
677.58325924798612
 30
0.0
  9
$LIMMIN
 10
0.0
 20
0.0
  9
$LIMMAX
 10
408.0
 20
284.0
  9
$ORTHOMODE
 70
     0
  9
$REGENMODE
 70
     1
  9
$FILLMODE
 70
     1
  9
$QTEXTMODE
 70
     0
  9
$MIRRTEXT
 70
     1
  9
$DRAGMODE
 70
     2
  9
$LTSCALE
 40
1.0
  9
$OSMODE
 70
   551
  9
$ATTMODE
 70
     1
  9
$TEXTSIZE
 40
2.5
  9
$TRACEWID
 40
1.0
  9
$TEXTSTYLE
  7
STANDARD
  9
$CLAYER
  8
AM_0
  9
$CELTYPE
  6
BYLAYER
  9
$CECOLOR
 62
   256
  9
$DIMSCALE
 40
1.0
  9
$DIMASZ
 40
2.5
  9
$DIMEXO
 40
1.0
  9
$DIMDLI
 40
7.0
  9
$DIMRND
 40
0.0
  9
$DIMDLE
 40
0.0
  9
$DIMEXE
 40
1.0
  9
$DIMTP
 40
0.1
  9
$DIMTM
 40
0.1000000001
  9
$DIMTXT
 40
2.5
  9
$DIMCEN
 40
0.0
  9
$DIMTSZ
 40
0.0
  9
$DIMTOL
 70
     0
  9
$DIMLIM
 70
     0
  9
$DIMTIH
 70
     0
  9
$DIMTOH
 70
     0
  9
$DIMSE1
 70
     0
  9
$DIMSE2
 70
     0
  9
$DIMTAD
 70
     3
  9
$DIMZIN
 70
     8
  9
$DIMBLK
  1

  9
$DIMASO
 70
     1
  9
$DIMSHO
 70
     1
  9
$DIMPOST
  1

  9
$DIMAPOST
  1
"
  9
$DIMALT
 70
     0
  9
$DIMALTD
 70
     2
  9
$DIMALTF
 40
0.0393701
  9
$DIMLFAC
 40
1.0
  9
$DIMTOFL
 70
     1
  9
$DIMTVP
 40
0.0
  9
$DIMTIX
 70
     0
  9
$DIMSOXD
 70
     0
  9
$DIMSAH
 70
     0
  9
$DIMBLK1
  1

  9
$DIMBLK2
  1

  9
$DIMSTYLE
  2
AM_JIS
  9
$DIMCLRD
 70
   256
  9
$DIMCLRE
 70
   256
  9
$DIMCLRT
 70
     4
  9
$DIMTFAC
 40
0.71
  9
$DIMGAP
 40
1.0
  9
$LUNITS
 70
     2
  9
$LUPREC
 70
     2
  9
$SKETCHINC
 40
1.0
  9
$FILLETRAD
 40
2.5
  9
$AUNITS
 70
     0
  9
$AUPREC
 70
     3
  9
$MENU
  1
.
  9
$ELEVATION
 40
0.0
  9
$PELEVATION
 40
0.0
  9
$THICKNESS
 40
0.0
  9
$LIMCHECK
 70
     0
  9
$BLIPMODE
 70
     0
  9
$CHAMFERA
 40
2.5
  9
$CHAMFERB
 40
2.5
  9
$SKPOLY
 70
     0
  9
$TDCREATE
 40
2453062.4904580791
  9
$TDUPDATE
 40
2458541.3627794208
  9
$TDINDWG
 40
0.0320839236
  9
$TDUSRTIMER
 40
0.0320837269
  9
$USRTIMER
 70
     1
  9
$ANGBASE
 50
0.0
  9
$ANGDIR
 70
     0
  9
$PDMODE
 70
     0
  9
$PDSIZE
 40
0.0
  9
$PLINEWID
 40
0.0
  9
$COORDS
 70
     1
  9
$SPLFRAME
 70
     0
  9
$SPLINETYPE
 70
     6
  9
$SPLINESEGS
 70
     8
  9
$ATTDIA
 70
     1
  9
$ATTREQ
 70
     1
  9
$HANDLING
 70
     1
  9
$HANDSEED
  5
966A
  9
$SURFTAB1
 70
     6
  9
$SURFTAB2
 70
     6
  9
$SURFTYPE
 70
     6
  9
$SURFU
 70
     6
  9
$SURFV
 70
     6
  9
$UCSNAME
  2

  9
$UCSORG
 10
0.0
 20
0.0
 30
0.0
  9
$UCSXDIR
 10
1.0
 20
0.0
 30
0.0
  9
$UCSYDIR
 10
0.0
 20
1.0
 30
0.0
  9
$PUCSNAME
  2

  9
$PUCSORG
 10
0.0
 20
0.0
 30
0.0
  9
$PUCSXDIR
 10
1.0
 20
0.0
 30
0.0
  9
$PUCSYDIR
 10
0.0
 20
1.0
 30
0.0
  9
$USERI1
 70
     0
  9
$USERI2
 70
     0
  9
$USERI3
 70
     0
  9
$USERI4
 70
     0
  9
$USERI5
 70
     0
  9
$USERR1
 40
0.0
  9
$USERR2
 40
0.0
  9
$USERR3
 40
0.0
  9
$USERR4
 40
0.0
  9
$USERR5
 40
0.0
  9
$WORLDVIEW
 70
     1
  9
$SHADEDGE
 70
     3
  9
$SHADEDIF
 70
    70
  9
$TILEMODE
 70
     1
  9
$MAXACTVP
 70
    48
  9
$PLIMCHECK
 70
     0
  9
$PEXTMIN
 10
1.0000000000000000E+020
 20
1.0000000000000000E+020
 30
1.0000000000000000E+020
  9
$PEXTMAX
 10
-1.0000000000000000E+020
 20
-1.0000000000000000E+020
 30
-1.0000000000000000E+020
  9
$PLIMMIN
 10
0.0
 20
0.0
  9
$PLIMMAX
 10
420.0
 20
297.0
  9
$UNITMODE
 70
     0
  9
$VISRETAIN
 70
     1
  9
$PLINEGEN
 70
     0
  9
$PSLTSCALE
 70
     1
  0
ENDSEC
  0
SECTION
  2
TABLES
  0
TABLE
  2
VPORT
 70
     1
  0
VPORT
  2
*ACTIVE
 70
     0
 10
0.0
 20
0.0
 11
1.0
 21
1.0
 12
460.687982699278
 22
336.24620461035238
 13
0.0
 23
0.0
 14
1.0
 24
1.0
 15
10.0
 25
10.0
 16
0.0
 26
0.0
 36
1.0
 17
0.0
 27
0.0
 37
0.0
 40
687.36065922452542
 41
1.7571592210767459
 42
50.0
 43
0.0
 44
0.0
 50
0.0
 51
0.0
 71
     0
 72
   100
 73
     1
 74
     1
 75
     0
 76
     0
 77
     0
 78
     0
  0
ENDTAB
  0
TABLE
  2
LTYPE
 70
    25
  0
LTYPE
  2
CONTINUOUS
 70
     0
  3
Solid line
 72
    65
 73
     0
 40
0.0
  0
LTYPE
  2
PHANTOM2
 70
     0
  3
Phantom (.5x) ___ _ _ ___ _ _ ___ _ _ ___ _ _
 72
    65
 73
     6
 40
31.75
 49
15.875
 49
-3.174999999999998
 49
3.174999999999998
 49
-3.174999999999998
 49
3.174999999999998
 49
-3.174999999999998
  0
LTYPE
  2
CENTER
 70
     0
  3
Center ____ _ ____ _ ____ _ ____ _ ____ _ ____
 72
    65
 73
     4
 40
50.799999999999997
 49
31.75
 49
-6.3499999999999979
 49
6.3499999999999979
 49
-6.3499999999999979
  0
LTYPE
  2
ACANSTGBM
 70
     0
  3
__ . . __ . .
 72
    65
 73
     6
 40
9.0
 49
4.0
 49
-1.0
 49
1.0
 49
-1.0
 49
1.0
 49
-1.0
  0
LTYPE
  2
ACANSTGLM
 70
     0
  3
_ _ _ _ _
 72
    65
 73
     2
 40
3.0
 49
2.0
 49
-1.0
  0
LTYPE
  2
GEN7
 70
     0
  3
____ . ____ . ____ . ____ . ____ . ____ . ____
 72
    65
 73
     4
 40
14.25
 49
9.75
 49
-1.5
 49
1.5
 49
-1.5
  0
LTYPE
  2
AM_ISO02W050
 70
     0
  3
__ __ __ __ __ __ __ __ __ __ __ __ __ __ __
 72
    65
 73
     2
 40
7.5
 49
6.0
 49
-1.5
  0
LTYPE
  2
AM_ISO08W050
 70
     0
  3
____ . ____ . ____ . ____ . ____ . ____ . ____
 72
    65
 73
     4
 40
18.0
 49
12.0
 49
-1.5
 49
3.0
 49
-1.5
  0
LTYPE
  2
AM_ISO09W050
 70
     0
  3
_____ . . _____ . . _____ . . ____ .. ____
 72
    65
 73
     6
 40
22.5
 49
12.0
 49
-1.5
 49
3.0
 49
-1.5
 49
3.0
 49
-1.5
  0
LTYPE
  2
AMCONSTR
 70
     0
  3
_______________________
 72
    65
 73
     2
 40
9999.0
 49
9999.0
 49
0.0
  0
LTYPE
  2
AM_ISO02W050X2
 70
     0
  3
 _ _ _ _ _ _ _ _ _ _ _ _
 72
    65
 73
     2
 40
3.75
 49
3.0
 49
-0.75
  0
LTYPE
  2
AM_ISO08W050X2
 70
     0
  3
__ . __ . __ . __ . __ . __
 72
    65
 73
     4
 40
9.0
 49
6.0
 49
-0.75
 49
1.5
 49
-0.75
  0
LTYPE
  2
AMZIGZAG
 70
     0
  3
/\/-/\/-/\/-/\/-/\/-/\/
 72
    65
 73
     2
 40
11.000099999999991
 49
0.0001
 49
-11.0
  0
LTYPE
  2
ACJISTGB
 70
     0
  3
__ . . __ . .
 72
    65
 73
     6
 40
9.0
 49
4.0
 49
-1.0
 49
1.0
 49
-1.0
 49
1.0
 49
-1.0
  0
LTYPE
  2
ACJISTGL
 70
     0
  3
_ _ _ _ _
 72
    65
 73
     2
 40
3.0
 49
2.0
 49
-1.0
  0
LTYPE
  2
ACISOWELD
 70
     0
  3
_ _ _ _ _
 72
    65
 73
     2
 40
2.0
 49
2.0
 49
-1.0
  0
LTYPE
  2
ACISOTGB
 70
     0
  3
__ . . __ . .
 72
    65
 73
     6
 40
9.0
 49
4.0
 49
-1.0
 49
1.0
 49
-1.0
 49
1.0
 49
-1.0
  0
LTYPE
  2
ACISOTGL
 70
     0
  3
_ _ _ _ _
 72
    65
 73
     2
 40
3.0
 49
2.0
 49
-1.0
  0
LTYPE
  2
HIDDEN
 70
     0
  3
Hidden __ __ __ __ __ __ __ __ __ __ __ __ __ _
 72
    65
 73
     2
 40
0.375
 49
0.25
 49
-0.125
  0
LTYPE
  2
CENTER2
 70
     0
  3
Center (.5x) ___ _ ___ _ ___ _ ___ _ ___ _ ___
 72
    65
 73
     4
 40
1.125
 49
0.75
 49
-0.125
 49
0.125
 49
-0.125
  0
LTYPE
  2
HIDDEN2
 70
     0
  3
Hidden (.5x) _ _ _ _ _ _ _ _ _ _ _ _ _ _ _ _ _
 72
    65
 73
     2
 40
0.1875
 49
0.125
 49
-0.0625
  0
LTYPE
  2
AMZIGZAG2
 70
     0
  3
/\/-/\/-/\/-/\/-/\/-/\/
 72
    65
 73
     2
 40
0.4401
 49
0.0001
 49
-0.4400000000000001
  0
LTYPE
  2
ACANSTGB
 70
     0
  3
__ . . __ . .
 72
    65
 73
     6
 40
0.35433070866
 49
0.15748031496
 49
-0.03937007874
 49
0.03937007874
 49
-0.03937007874
 49
0.03937007874
 49
-0.03937007874
  0
LTYPE
  2
ACANSTGL
 70
     0
  3
_ _ _ _ _
 72
    65
 73
     2
 40
0.11811023622
 49
0.07874015748
 49
-0.03937007874
  0
ENDTAB
  0
TABLE
  2
LAYER
 70
     6
  0
LAYER
  2
0
 70
     0
 62
     7
  6
CONTINUOUS
  0
LAYER
  2
AM_0
 70
     0
 62
     7
  6
CONTINUOUS
  0
LAYER
  2
DEFPOINTS
 70
     0
 62
     7
  6
CONTINUOUS
  0
LAYER
  2
ﾁｭｳｼﾝｾﾝ
 70
     0
 62
     1
  6
GEN7
  0
LAYER
  2
AM_0N
 70
     0
 62
     7
  6
CONTINUOUS
  0
LAYER
  2
AM_5
 70
     0
 62
     2
  6
CONTINUOUS
  0
ENDTAB
  0
TABLE
  2
STYLE
 70
    10
  0
STYLE
  2
STANDARD
 70
     0
 40
0.0
 41
0.8299999999999999
 50
0.0
 71
     0
 42
2.5
  3
txt.shx
  4
bigfont.shx
  0
STYLE
  2
ANNOTATIVE
 70
     0
 40
0.0
 41
1.0
 50
0.0
 71
     0
 42
0.2
  3
txt
  4

  0
STYLE
  2
ACANSTS
 70
     0
 40
1.0
 41
1.0
 50
0.0
 71
     0
 42
2.5
  3
romans.shx
  4
bigfont.shx
  0
STYLE
  2
ACANSGDT
 70
     0
 40
0.0
 41
1.0
 50
0.0
 71
     0
 42
2.5
  3
amgdt.shx
  4

  0
STYLE
  2

 70
     1
 40
0.0
 41
1.0
 50
0.0
 71
     0
 42
2.5
  3
ltypeshp.shx
  4

  0
STYLE
  2
ACJISTS
 70
     0
 40
1.0
 41
0.8299999999999999
 50
0.0
 71
     0
 42
2.5
  3
txt.shx
  4
bigfont.shx
  0
STYLE
  2
ACJISGDT
 70
     0
 40
0.0
 41
1.0
 50
0.0
 71
     0
 42
2.5
  3
amgdt.shx
  4

  0
STYLE
  2
ACISOTS
 70
     0
 40
1.0
 41
1.0
 50
0.0
 71
     0
 42
2.5
  3
isocp.shx
  4
extfont.shx
  0
STYLE
  2
ACISOGDT
 70
     0
 40
0.0
 41
1.0
 50
0.0
 71
     0
 42
2.5
  3
amgdt.shx
  4

  0
STYLE
  2

 70
     1
 40
0.0
 41
1.0
 50
0.0
 71
     0
 42
2.5
  3
genltshp.shx
  4

  0
ENDTAB
  0
TABLE
  2
VIEW
 70
    12
  0
VIEW
  2
GEN1
 70
     0
 40
95.824742268041234
 10
71.5
 20
137.08762886597941
 41
143.0
 11
0.0
 21
0.0
 31
1.0
 12
0.0
 22
0.0
 32
0.0
 42
50.0
 43
0.0
 44
0.0
 50
0.0
 71
     0
  0
VIEW
  2
GEN2
 70
     0
 40
95.824742268041234
 10
214.5
 20
137.08762886597941
 41
143.0
 11
0.0
 21
0.0
 31
1.0
 12
0.0
 22
0.0
 32
0.0
 42
50.0
 43
0.0
 44
0.0
 50
0.0
 71
     0
  0
VIEW
  2
GEN3
 70
     0
 40
95.824742268041234
 10
71.5
 20
47.912371134020603
 41
143.0
 11
0.0
 21
0.0
 31
1.0
 12
0.0
 22
0.0
 32
0.0
 42
50.0
 43
0.0
 44
0.0
 50
0.0
 71
     0
  0
VIEW
  2
GEN4
 70
     0
 40
95.824742268041234
 10
214.5
 20
47.912371134020603
 41
143.0
 11
0.0
 21
0.0
 31
1.0
 12
0.0
 22
0.0
 32
0.0
 42
50.0
 43
0.0
 44
0.0
 50
0.0
 71
     0
  0
VIEW
  2
GEN5
 70
     0
 40
95.824742268041234
 10
143.0
 20
92.500000000000057
 41
143.0
 11
0.0
 21
0.0
 31
1.0
 12
0.0
 22
0.0
 32
0.0
 42
50.0
 43
0.0
 44
0.0
 50
0.0
 71
     0
  0
VIEW
  2
GEN6
 70
     0
 40
191.64756804123709
 10
143.0
 20
92.5
 41
285.99713999999989
 11
0.0
 21
0.0
 31
1.0
 12
0.0
 22
0.0
 32
0.0
 42
50.0
 43
0.0
 44
0.0
 50
0.0
 71
     0
  0
VIEW
  2
AM_VIEW1
 70
     0
 40
142.0
 10
119.7777777777777
 20
213.0
 41
239.55555555555549
 11
0.0
 21
0.0
 31
1.0
 12
0.0
 22
0.0
 32
0.0
 42
50.0
 43
0.0
 44
0.0
 50
0.0
 71
     0
  0
VIEW
  2
AM_VIEW2
 70
     0
 40
142.0
 10
288.22222222222211
 20
213.0
 41
239.55555555555549
 11
0.0
 21
0.0
 31
1.0
 12
0.0
 22
0.0
 32
0.0
 42
50.0
 43
0.0
 44
0.0
 50
0.0
 71
     0
  0
VIEW
  2
AM_VIEW3
 70
     0
 40
142.0
 10
119.7777777777777
 20
71.0
 41
239.55555555555549
 11
0.0
 21
0.0
 31
1.0
 12
0.0
 22
0.0
 32
0.0
 42
50.0
 43
0.0
 44
0.0
 50
0.0
 71
     0
  0
VIEW
  2
AM_VIEW4
 70
     0
 40
142.0
 10
288.22222222222211
 20
71.0
 41
239.55555555555549
 11
0.0
 21
0.0
 31
1.0
 12
0.0
 22
0.0
 32
0.0
 42
50.0
 43
0.0
 44
0.0
 50
0.0
 71
     0
  0
VIEW
  2
AM_VIEW5
 70
     0
 40
142.0
 10
204.0
 20
142.0
 41
239.55555555555549
 11
0.0
 21
0.0
 31
1.0
 12
0.0
 22
0.0
 32
0.0
 42
50.0
 43
0.0
 44
0.0
 50
0.0
 71
     0
  0
VIEW
  2
AM_VIEW6
 70
     0
 40
283.99716000000001
 10
204.0
 20
142.0
 41
479.10631999999993
 11
0.0
 21
0.0
 31
1.0
 12
0.0
 22
0.0
 32
0.0
 42
50.0
 43
0.0
 44
0.0
 50
0.0
 71
     0
  0
ENDTAB
  0
TABLE
  2
UCS
 70
     0
  0
ENDTAB
  0
TABLE
  2
APPID
 70
   106
  0
APPID
  2
ACAD
 70
     0
  0
APPID
  2
ACADANNOTATIVE
 70
     0
  0
APPID
  2
MCAD_NO_VIS
 70
     0
  0
APPID
  2
ACAD_TEMP_GRAPHIC
 70
     0
  0
APPID
  2
AD_DRAW
 70
     0
  0
APPID
  2
DESIGNERASSEMBLIES
 70
     0
  0
APPID
  2
ASURF_PCURVE_APPNAME
 70
     0
  0
APPID
  2
GENIUS_GE3SECT_13
 70
     0
  0
APPID
  2
GENIUS_GENCFG_13
 70
     0
  0
APPID
  2
GENIUS_GE3CFG0_13
 70
     0
  0
APPID
  2
GENIUS_GENCFG0_13
 70
     0
  0
APPID
  2
GENIUS_GENCFG1_13
 70
     0
  0
APPID
  2
GENIUS_GENCFG2_13
 70
     0
  0
APPID
  2
GENIUS_GENCFG3_13
 70
     0
  0
APPID
  2
GENIUS_GENCFG4_13
 70
     0
  0
APPID
  2
GENIUS_GEVCFG0_13
 70
     0
  0
APPID
  2
GENIUS_GENOENT_13
 70
     0
  0
APPID
  2
GENIUS_GENREC_14
 70
     0
  0
APPID
  2
GENIUS_GENODEF_13
 70
     0
  0
APPID
  2
GENIUS_GENOBJ-N-REC_13
 70
     0
  0
APPID
  2
GENIUS_GENHINW_13
 70
     0
  0
APPID
  2
GENIUS_FIRSTVISTXT_14
 70
     0
  0
APPID
  2
GENIUS_GENOBJ-N-LEADER_13
 70
     0
  0
APPID
  2
GENIUS_GENOREF_13
 70
     0
  0
APPID
  2
GENIUS_GENOLIS_13
 70
     0
  0
APPID
  2
GEV_VCCNULL_SWITCH_OFF
 70
     0
  0
APPID
  2
GENIUS_GENDTOL_13
 70
     0
  0
APPID
  2
GENIUS_GEFCFG0_13
 70
     0
  0
APPID
  2
GENIUS_GENOBJ-N-TIT_13
 70
     0
  0
APPID
  2
GENIUS_GENTITLE_13
 70
     0
  0
APPID
  2
GENIUS_GENZVEED_13
 70
     0
  0
APPID
  2
GENIUS_GENOBJ-N-SDF_13
 70
     0
  0
APPID
  2
GENIUS_GENSCREG_13
 70
     0
  0
APPID
  2
GENIUS_DUMCFG0_13
 70
     0
  0
APPID
  2
GEVID936201362
 70
     0
  0
APPID
  2
GEVDC
 70
     0
  0
APPID
  2
GEVCON
 70
     0
  0
APPID
  2
VCC
 70
     0
  0
APPID
  2
GEVPT
 70
     0
  0
APPID
  2
GEVIT
 70
     0
  0
APPID
  2
GENBH
 70
     0
  0
APPID
  2
GEVMK
 70
     0
  0
APPID
  2
GENIUS_GENBH_13
 70
     0
  0
APPID
  2
GENIUS_GENOBJ-NBEHI-BHF_13
 70
     0
  0
APPID
  2
GENIUS_GENOBJ-NBEHI-BHB_13
 70
     0
  0
APPID
  2
GENIUS_GENOBJ-F-DESC_13
 70
     0
  0
APPID
  2
GENIUS_GEFDESC_14
 70
     0
  0
APPID
  2
GENIUS_GENOBJ-F-PART_13
 70
     0
  0
APPID
  2
GENIUS_GEFSTDP_13
 70
     0
  0
APPID
  2
GENIUS_GEFPARTINS_13
 70
     0
  0
APPID
  2
GENIUS_GENTRA_14
 70
     0
  0
APPID
  2
GENIUS_GENINF13_13
 70
     0
  0
APPID
  2
GENIUS_GENOBJ-N-INFOPT_13
 70
     0
  0
APPID
  2
GENIUS_GENOBJ-N-RSSYM_13
 70
     0
  0
APPID
  2
GENIUS_GENSYMENT_13
 70
     0
  0
APPID
  2
GENIUS_GENSCSYM_13
 70
     0
  0
APPID
  2
GENIUS_GEFINFNAM_13
 70
     0
  0
APPID
  2
GENIUS_GENSCREG_15
 70
     0
  0
APPID
  2
GENIUS_GENOBJ-N-CEN_13
 70
     0
  0
APPID
  2
GENIUS_GENOBJ-N-CRS_13
 70
     0
  0
APPID
  2
GENIUS_GENOBJ-N-CRC_13
 70
     0
  0
APPID
  2
GENIUS_GENCRC_14
 70
     0
  0
APPID
  2
GEVID942827039
 70
     0
  0
APPID
  2
GEVID942827040
 70
     0
  0
APPID
  2
GEVID942827041
 70
     0
  0
APPID
  2
GENIUS_GENOBJ-F-SCPASSM_13
 70
     0
  0
APPID
  2
GENIUS_GENDIMSH_14
 70
     0
  0
APPID
  2
GENIUS_GENFIL_13
 70
     0
  0
APPID
  2
GENIUS_GENOBJ-N-CHA_13
 70
     0
  0
APPID
  2
GENIUS_GENOBJ-N-FIL_13
 70
     0
  0
APPID
  2
GEVID942827042
 70
     0
  0
APPID
  2
GEVID946020473
 70
     0
  0
APPID
  2
GEVID946020474
 70
     0
  0
APPID
  2
GEVID946020475
 70
     0
  0
APPID
  2
GENIUS_GENOBJ-N-HTC_13
 70
     0
  0
APPID
  2
GENIUS_GENHATCH_13
 70
     0
  0
APPID
  2
GEVID948854295
 70
     0
  0
APPID
  2
GEVID939402019
 70
     0
  0
APPID
  2
GEVID952919491
 70
     0
  0
APPID
  2
GEVID952919492
 70
     0
  0
APPID
  2
GENIUS_GEFWELD_13
 70
     0
  0
APPID
  2
GENIUS_GENOBJ-F-WELS_13
 70
     0
  0
APPID
  2
GEVID952919493
 70
     0
  0
APPID
  2
GENIUS_GENOBJ-N-RSBK_13
 70
     0
  0
APPID
  2
GENIUS_GENOBJ-N-LIB_13
 70
     0
  0
APPID
  2
GENIUS_GENSCALE_13
 70
     0
  0
APPID
  2
GEVID986376691
 70
     0
  0
APPID
  2
ACATTRIBSERVICES
 70
     0
  0
APPID
  2
ACADM_DIM_EDIT
 70
     0
  0
APPID
  2
AMDT_DM_ADJ
 70
     0
  0
APPID
  2
GEVID1057795304
 70
     0
  0
APPID
  2
GENIUS_GEFSH_13
 70
     0
  0
APPID
  2
GENIUS_GENOBJ-F-SHS_13
 70
     0
  0
APPID
  2
GENIUS_GENOBJ-N-ADDLEAD_13
 70
     0
  0
APPID
  2
GENIUS_GENMAINADDLEADER_14
 70
     0
  0
APPID
  2
GENIUS_GENADDLEADER_14
 70
     0
  0
APPID
  2
GENIUS_GENDREL_13
 70
     0
  0
APPID
  2
GEVID1121934822
 70
     0
  0
APPID
  2
GEVID1121934823
 70
     0
  0
APPID
  2
GEVID1121934824
 70
     0
  0
APPID
  2
ACAD_DSTYLE_DIMJAG
 70
     0
  0
APPID
  2
ACAD_DSTYLE_DIMBREAK
 70
     0
  0
APPID
  2
ACAD_NAV_VCDISPLAY
 70
     0
  0
APPID
  2
ACADANNOPO
 70
     0
  0
APPID
  2
ACAD_EXEMPT_FROM_CAD_STANDARDS
 70
     0
  0
APPID
  2
ACAD_MLEADERVER
 70
     0
  0
ENDTAB
  0
TABLE
  2
DIMSTYLE
 70
    29
  0
DIMSTYLE
  2
STANDARD
 70
     0
  3

  4

  5

  6

  7

 40
1.0
 41
0.18
 42
0.0625
 43
0.38
 44
0.18
 45
0.0
 46
0.0
 47
0.0
 48
0.0
140
0.18
141
0.09
142
0.0
143
25.399999999999999
144
1.0
145
0.0
146
1.0
147
0.09
 71
     0
 72
     0
 73
     1
 74
     1
 75
     0
 76
     0
 77
     0
 78
     0
170
     0
171
     2
172
     0
173
     0
174
     0
175
     0
176
     0
177
     0
178
     0
  0
DIMSTYLE
  2
ANNOTATIVE
 70
     0
  3

  4

  5

  6

  7

 40
1.0
 41
0.18
 42
0.0625
 43
0.38
 44
0.18
 45
0.0
 46
0.0
 47
0.0
 48
0.0
140
0.18
141
0.09
142
0.0
143
25.399999999999999
144
1.0
145
0.0
146
1.0
147
0.09
 71
     0
 72
     0
 73
     1
 74
     1
 75
     0
 76
     0
 77
     0
 78
     0
170
     0
171
     2
172
     0
173
     0
174
     0
175
     0
176
     0
177
     0
178
     0
  0
DIMSTYLE
  2
AM_JIS
 70
     0
  3

  4
"
  5

  6

  7

 40
1.0
 41
2.0
 42
1.0
 43
8.0
 44
1.0
 45
0.0
 46
0.0
 47
0.1
 48
0.1
140
2.5
141
0.0
142
0.0
143
0.0393701
144
1.0
145
0.0
146
0.71
147
1.5
 71
     0
 72
     0
 73
     0
 74
     0
 75
     0
 76
     0
 77
     3
 78
     8
170
     0
171
     2
172
     1
173
     0
174
     0
175
     0
176
   256
177
   256
178
     4
  0
DIMSTYLE
  2
AM_JIS$3
 70
     0
  3

  4
"
  5

  6

  7

 40
1.0
 41
2.0
 42
1.0
 43
10.0
 44
1.0
 45
0.0
 46
0.0
 47
0.1
 48
0.1
140
2.5
141
0.0
142
0.0
143
0.0393701
144
1.0
145
0.0
146
0.71
147
1.5
 71
     0
 72
     0
 73
     0
 74
     1
 75
     0
 76
     0
 77
     3
 78
     8
170
     0
171
     2
172
     0
173
     0
174
     0
175
     0
176
   256
177
   256
178
     4
  0
DIMSTYLE
  2
AM_JIS$4
 70
     0
  3

  4
"
  5

  6

  7

 40
1.0
 41
2.0
 42
1.0
 43
10.0
 44
1.0
 45
0.0
 46
0.0
 47
0.1
 48
0.1
140
2.5
141
0.0
142
0.0
143
0.0393701
144
1.0
145
0.0
146
0.71
147
1.5
 71
     0
 72
     0
 73
     0
 74
     0
 75
     0
 76
     0
 77
     3
 78
     8
170
     0
171
     2
172
     0
173
     0
174
     0
175
     0
176
   256
177
   256
178
     4
  0
DIMSTYLE
  2
AM_JIS$6
 70
     0
  3

  4
"
  5

  6

  7

 40
1.0
 41
2.0
 42
1.0
 43
10.0
 44
1.0
 45
0.0
 46
0.0
 47
0.1
 48
0.1
140
2.5
141
0.0
142
0.0
143
0.0393701
144
1.0
145
0.0
146
0.71
147
1.5
 71
     0
 72
     0
 73
     0
 74
     0
 75
     0
 76
     0
 77
     0
 78
     8
170
     0
171
     2
172
     1
173
     0
174
     0
175
     0
176
   256
177
   256
178
     4
  0
DIMSTYLE
  2
AM_JIS$7
 70
     0
  3

  4
"
  5

  6

  7

 40
1.0
 41
2.0
 42
1.0
 43
10.0
 44
1.0
 45
0.0
 46
0.0
 47
0.1
 48
0.1
140
2.5
141
0.0
142
0.0
143
0.0393701
144
1.0
145
0.0
146
0.71
147
1.5
 71
     0
 72
     0
 73
     0
 74
     0
 75
     0
 76
     0
 77
     3
 78
     8
170
     0
171
     2
172
     1
173
     0
174
     0
175
     0
176
   256
177
   256
178
     4
  0
DIMSTYLE
  2
AM_JIS$SF
 70
     0
  3

  4
"
  5

  6

  7

 40
1.0
 41
2.0
 42
1.0
 43
10.0
 44
1.0
 45
0.0
 46
0.0
 47
0.1
 48
0.1
140
2.5
141
0.0
142
0.0
143
0.0393701
144
1.0
145
0.0
146
0.71
147
1.5
 71
     0
 72
     0
 73
     0
 74
     0
 75
     1
 76
     1
 77
     3
 78
     8
170
     0
171
     2
172
     1
173
     0
174
     0
175
     0
176
   256
177
   256
178
     4
  0
DIMSTYLE
  2
AM_JIS$SH
 70
     0
  3

  4
"
  5

  6

  7

 40
1.0
 41
2.0
 42
1.0
 43
10.0
 44
1.0
 45
0.0
 46
0.0
 47
0.1
 48
0.1
140
2.5
141
0.0
142
0.0
143
0.0393701
144
2.0
145
0.0
146
0.71
147
1.5
 71
     0
 72
     0
 73
     0
 74
     0
 75
     1
 76
     1
 77
     3
 78
     8
170
     0
171
     2
172
     1
173
     1
174
     0
175
     0
176
   256
177
   256
178
     4
  0
DIMSTYLE
  2
AM_ISO
 70
     0
  3

  4
"
  5

  6

  7

 40
1.0
 41
2.5
 42
1.0
 43
10.0
 44
1.0
 45
0.0
 46
0.0
 47
0.1
 48
0.1
140
3.5
141
0.0
142
0.0
143
0.0393701
144
1.0
145
0.0
146
0.71
147
1.5
 71
     0
 72
     0
 73
     0
 74
     0
 75
     0
 76
     0
 77
     1
 78
     8
170
     0
171
     2
172
     1
173
     0
174
     0
175
     0
176
   256
177
   256
178
     2
  0
DIMSTYLE
  2
AM_ISO$3
 70
     0
  3

  4
"
  5

  6

  7

 40
1.0
 41
2.5
 42
1.0
 43
10.0
 44
1.0
 45
0.0
 46
0.0
 47
0.1
 48
0.1
140
3.5
141
0.0
142
0.0
143
0.0393701
144
1.0
145
0.0
146
0.71
147
1.5
 71
     0
 72
     0
 73
     0
 74
     1
 75
     0
 76
     0
 77
     1
 78
     8
170
     0
171
     2
172
     0
173
     0
174
     0
175
     0
176
   256
177
   256
178
     2
  0
DIMSTYLE
  2
AM_ISO$4
 70
     0
  3

  4
"
  5

  6

  7

 40
1.0
 41
2.5
 42
1.0
 43
10.0
 44
1.0
 45
0.0
 46
0.0
 47
0.1
 48
0.1
140
3.5
141
0.0
142
0.0
143
0.0393701
144
1.0
145
0.0
146
0.71
147
1.5
 71
     0
 72
     0
 73
     0
 74
     1
 75
     0
 76
     0
 77
     1
 78
     8
170
     0
171
     2
172
     0
173
     0
174
     0
175
     0
176
   256
177
   256
178
     2
  0
DIMSTYLE
  2
AM_ISO$6
 70
     0
  3

  4
"
  5

  6

  7

 40
1.0
 41
2.5
 42
1.0
 43
10.0
 44
1.0
 45
0.0
 46
0.0
 47
0.1
 48
0.1
140
3.5
141
0.0
142
0.0
143
0.0393701
144
1.0
145
0.0
146
0.71
147
1.5
 71
     0
 72
     0
 73
     0
 74
     0
 75
     0
 76
     0
 77
     0
 78
     8
170
     0
171
     2
172
     1
173
     0
174
     0
175
     0
176
   256
177
   256
178
     2
  0
DIMSTYLE
  2
AM_ISO$7
 70
     0
  3

  4
"
  5

  6

  7

 40
1.0
 41
2.5
 42
1.0
 43
10.0
 44
1.0
 45
0.0
 46
0.0
 47
0.1
 48
0.1
140
5.0
141
0.0
142
0.0
143
0.0393701
144
1.0
145
0.0
146
0.71
147
1.5
 71
     0
 72
     0
 73
     0
 74
     0
 75
     0
 76
     0
 77
     1
 78
     8
170
     0
171
     2
172
     1
173
     0
174
     0
175
     0
176
   256
177
   256
178
     2
  0
DIMSTYLE
  2
AM_ISO$SF
 70
     0
  3

  4
"
  5

  6

  7

 40
1.0
 41
2.5
 42
1.0
 43
10.0
 44
1.0
 45
0.0
 46
0.0
 47
0.1
 48
0.1
140
3.5
141
0.0
142
0.0
143
0.0393701
144
1.0
145
0.0
146
0.71
147
1.5
 71
     0
 72
     0
 73
     0
 74
     0
 75
     1
 76
     1
 77
     1
 78
     8
170
     0
171
     2
172
     1
173
     0
174
     0
175
     0
176
   256
177
   256
178
     2
  0
DIMSTYLE
  2
AM_ISO$SH
 70
     0
  3

  4
"
  5

  6

  7

 40
1.0
 41
2.5
 42
1.0
 43
10.0
 44
1.0
 45
0.0
 46
0.0
 47
0.1
 48
0.1
140
3.5
141
0.0
142
0.0
143
0.0393701
144
2.0
145
0.0
146
0.71
147
1.5
 71
     0
 72
     0
 73
     0
 74
     0
 75
     1
 76
     1
 77
     1
 78
     8
170
     0
171
     2
172
     1
173
     1
174
     0
175
     0
176
   256
177
   256
178
     2
  0
DIMSTYLE
  2
GEN-ANSI
 70
     0
  3

  4
"
  5

  6

  7

 40
1.0
 41
2.0
 42
0.5
 43
10.0
 44
0.5
 45
0.0
 46
0.0
 47
0.1
 48
0.1
140
2.5
141
0.0
142
0.0
143
0.0393701
144
1.0
145
0.0
146
0.71
147
1.5
 71
     0
 72
     0
 73
     1
 74
     1
 75
     0
 76
     0
 77
     0
 78
     8
170
     0
171
     2
172
     0
173
     0
174
     0
175
     0
176
   256
177
   256
178
     4
  0
DIMSTYLE
  2
GEN-ANSI$3
 70
     0
  3

  4
"
  5

  6

  7

 40
1.0
 41
2.0
 42
0.5
 43
10.0
 44
0.5
 45
0.0
 46
0.0
 47
0.1
 48
0.1
140
2.5
141
0.0
142
0.0
143
0.0393701
144
1.0
145
0.0
146
0.71
147
1.5
 71
     0
 72
     0
 73
     1
 74
     1
 75
     0
 76
     0
 77
     0
 78
     8
170
     0
171
     2
172
     0
173
     0
174
     0
175
     0
176
   256
177
   256
178
     4
  0
DIMSTYLE
  2
GEN-ANSI$4
 70
     0
  3

  4
"
  5

  6

  7

 40
1.0
 41
2.0
 42
0.5
 43
10.0
 44
0.5
 45
0.0
 46
0.0
 47
0.1
 48
0.1
140
2.5
141
0.0
142
0.0
143
0.0393701
144
1.0
145
0.0
146
0.71
147
1.5
 71
     0
 72
     0
 73
     1
 74
     1
 75
     0
 76
     0
 77
     0
 78
     8
170
     0
171
     2
172
     0
173
     0
174
     0
175
     0
176
   256
177
   256
178
     4
  0
DIMSTYLE
  2
GEN-ANSI$6
 70
     0
  3

  4
"
  5

  6

  7

 40
1.0
 41
2.0
 42
0.5
 43
10.0
 44
0.5
 45
0.0
 46
0.0
 47
0.1
 48
0.1
140
2.5
141
0.0
142
0.0
143
0.0393701
144
1.0
145
0.0
146
0.71
147
1.5
 71
     0
 72
     0
 73
     1
 74
     1
 75
     0
 76
     0
 77
     0
 78
     8
170
     0
171
     2
172
     0
173
     0
174
     0
175
     0
176
   256
177
   256
178
     4
  0
DIMSTYLE
  2
GEN-ANSI-POS
 70
     0
  3

  4
"
  5

  6

  7

 40
1.0
 41
2.5
 42
0.5
 43
10.0
 44
0.5
 45
0.0
 46
0.0
 47
0.1
 48
0.1
140
5.0
141
0.0
142
0.0
143
0.0393701
144
1.0
145
0.0
146
0.71
147
1.5
 71
     0
 72
     0
 73
     0
 74
     0
 75
     0
 76
     0
 77
     0
 78
     8
170
     0
171
     2
172
     0
173
     0
174
     0
175
     0
176
   256
177
   256
178
     4
  0
DIMSTYLE
  2
GEN-ANSI-AXE-F
 70
     0
  3

  4
"
  5

  6

  7

 40
1.0
 41
2.0
 42
0.5
 43
10.0
 44
0.5
 45
0.0
 46
0.0
 47
0.1
 48
0.1
140
2.5
141
0.0
142
0.0
143
0.0393701
144
1.0
145
0.0
146
0.71
147
1.5
 71
     0
 72
     0
 73
     1
 74
     1
 75
     1
 76
     1
 77
     0
 78
     8
170
     0
171
     2
172
     0
173
     1
174
     0
175
     0
176
   256
177
   256
178
     4
  0
DIMSTYLE
  2
GEN-ANSI-AXE-H
 70
     0
  3

  4
"
  5

  6

  7

 40
1.0
 41
2.0
 42
0.5
 43
10.0
 44
0.5
 45
0.0
 46
0.0
 47
0.1
 48
0.1
140
2.5
141
0.0
142
0.0
143
0.0393701
144
2.0
145
0.0
146
0.71
147
1.5
 71
     0
 72
     0
 73
     0
 74
     0
 75
     1
 76
     1
 77
     0
 78
     8
170
     0
171
     2
172
     1
173
     1
174
     0
175
     0
176
   256
177
   256
178
     4
  0
DIMSTYLE
  2
AM_ANSI
 70
     0
  3

  4
mm
  5

  6

  7

 40
1.0
 41
0.12
 42
0.05
 43
0.5
 44
0.1
 45
0.0
 46
0.0
 47
0.1
 48
0.1
140
0.12
141
0.0
142
0.0
143
25.399999999999999
144
1.0
145
0.0
146
0.71
147
0.06
 71
     0
 72
     0
 73
     1
 74
     1
 75
     0
 76
     0
 77
     0
 78
     7
170
     0
171
     2
172
     0
173
     0
174
     0
175
     0
176
   256
177
   256
178
     2
  0
DIMSTYLE
  2
AM_ANSI$3
 70
     0
  3

  4
mm
  5

  6

  7

 40
1.0
 41
0.12
 42
0.05
 43
0.5
 44
0.1
 45
0.0
 46
0.0
 47
0.1
 48
0.1
140
0.12
141
0.0
142
0.0
143
25.399999999999999
144
1.0
145
0.0
146
0.71
147
0.06
 71
     0
 72
     0
 73
     1
 74
     1
 75
     0
 76
     0
 77
     0
 78
     7
170
     0
171
     2
172
     0
173
     0
174
     0
175
     0
176
   256
177
   256
178
     2
  0
DIMSTYLE
  2
AM_ANSI$4
 70
     0
  3

  4
mm
  5

  6

  7

 40
1.0
 41
0.12
 42
0.05
 43
0.5
 44
0.1
 45
0.0
 46
0.0
 47
0.1
 48
0.1
140
0.12
141
0.0
142
0.0
143
25.399999999999999
144
1.0
145
0.0
146
0.71
147
0.06
 71
     0
 72
     0
 73
     1
 74
     1
 75
     0
 76
     0
 77
     0
 78
     7
170
     0
171
     2
172
     0
173
     0
174
     0
175
     0
176
   256
177
   256
178
     2
  0
DIMSTYLE
  2
AM_ANSI$7
 70
     0
  3

  4
mm
  5

  6

  7

 40
1.0
 41
0.12
 42
0.05
 43
0.5
 44
0.1
 45
0.0
 46
0.0
 47
0.1
 48
0.1
140
0.12
141
0.0
142
0.0
143
25.399999999999999
144
1.0
145
0.0
146
0.71
147
0.06
 71
     0
 72
     0
 73
     1
 74
     1
 75
     0
 76
     0
 77
     0
 78
     7
170
     0
171
     2
172
     0
173
     0
174
     0
175
     0
176
   256
177
   256
178
     2
  0
DIMSTYLE
  2
AM_ANSI$SF
 70
     0
  3

  4
mm
  5

  6

  7

 40
1.0
 41
0.12
 42
0.05
 43
0.5
 44
0.1
 45
0.0
 46
0.0
 47
0.1
 48
0.1
140
0.12
141
0.0
142
0.0
143
25.399999999999999
144
1.0
145
0.0
146
0.71
147
0.06
 71
     0
 72
     0
 73
     1
 74
     1
 75
     1
 76
     1
 77
     0
 78
     7
170
     0
171
     2
172
     0
173
     0
174
     0
175
     0
176
   256
177
   256
178
     2
  0
DIMSTYLE
  2
AM_ANSI$SH
 70
     0
  3

  4
mm
  5

  6
GENAXEH
  7

 40
1.0
 41
0.12
 42
0.05
 43
0.5
 44
0.1
 45
0.0
 46
0.0
 47
0.1
 48
0.1
140
0.12
141
0.0
142
0.0
143
25.399999999999999
144
1.0
145
0.0
146
0.71
147
0.06
 71
     0
 72
     0
 73
     1
 74
     1
 75
     1
 76
     1
 77
     0
 78
     7
170
     0
171
     2
172
     0
173
     1
174
     0
175
     0
176
   256
177
   256
178
     2
  0
ENDTAB
  0
ENDSEC
  0
SECTION
  2
BLOCKS
  0
BLOCK
  8
0
  2
$MODEL_SPACE
 70
     0
 10
0.0
 20
0.0
 30
0.0
  3
$MODEL_SPACE
  1

  0
ENDBLK
  5
94C7
  8
0
  0
BLOCK
 67
     1
  8
0
  2
$PAPER_SPACE
 70
     0
 10
0.0
 20
0.0
 30
0.0
  3
$PAPER_SPACE
  1

  0
ENDBLK
  5
94C3
 67
     1
  8
0
  0
BLOCK
  8
0
  2
GENAXEH
 70
     0
 10
0.0
 20
0.0
 30
0.0
  3
GENAXEH
  1

  0
LINE
  5
9411
  8
0
 10
-1.0
 20
0.0
 30
0.0
 11
1.0
 21
0.0
 31
0.0
  0
ENDBLK
  5
9413
  8
0
  0
BLOCK
  8
0
  2
_ACMFILLEDHALF
 70
     0
 10
0.0
 20
0.0
 30
0.0
  3
_ACMFILLEDHALF
  1

  0
TRACE
  5
95D4
  8
AM_0
 62
     0
 10
-0.8
 20
0.0
 30
0.0
 11
-1.0
 21
0.166666666
 31
0.0
 12
0.0
 22
0.0
 32
0.0
 13
0.0
 23
0.0
 33
0.0
  0
LINE
  5
95D5
  8
AM_0
 62
     0
 10
-1.0
 20
0.0
 30
0.0
 11
-0.8
 21
0.0
 31
0.0
  0
ENDBLK
  5
95D3
  8
0
  0
ENDSEC
  0
SECTION
  2
ENTITIES
  0
POINT
  5
1B94
  8
0
 10
0.0
 20
0.0
 30
0.0
1001
GENIUS_GENODEF_13
1002
{
1000
HIER
1070
     1
1002
}
1002
{
1000
MANEDIT
1070
     0
1002
}
1002
{
1000
NOSEL
1070
     0
1002
}
1002
{
1000
BEHIND
1070
     0
1002
}
1002
{
1000
REACTOR
1002
}
1001
GENIUS_GENOBJ-N-SDF_13
1002
{
1000
OWNER
1000
GEN
1002
}
1001
GENIUS_GENOENT_13
1002
{
1000
MYREF
1005
1B94
1002
}
1002
{
1000
GRP
1005
0
1002
}
1001
GENIUS_GENOLIS_13
1002
{
1000
ENT
1005
89
1002
}
  0
LINE
  5
869A
  8
ﾁｭｳｼﾝｾﾝ
 10
283.33226066047519
 20
170.8787449727169
 30
0.0
 11
526.4797606604759
 21
170.8787449727169
 31
0.0
  0
LINE
  5
869B
  8
AM_0
 10
452.00836066047827
 20
191.87877497271711
 30
0.0
 11
522.00836066047714
 21
191.87877497271711
 31
0.0
  0
LINE
  5
869C
  8
AM_0
 10
452.00836066047827
 20
149.8787449727169
 30
0.0
 11
522.00836066047714
 21
149.8787449727169
 31
0.0
  0
LINE
  5
869D
  8
AM_0
 10
466.0083606604785
 20
194.8787449727169
 30
0.0
 11
522.00836066047714
 21
194.8787449727169
 31
0.0
  0
LINE
  5
86A0
  8
AM_0
 10
450.0083606604785
 20
170.8787449727169
 30
0.0
 11
450.0083606604785
 21
290.87873997271788
 31
0.0
  0
LINE
  5
86A1
  8
AM_0
 10
436.0083606604785
 20
170.8787449727169
 30
0.0
 11
436.0083606604785
 21
281.83603997271712
 31
0.0
  0
LINE
  5
86A2
  8
AM_0
 10
426.87381066047601
 20
189.2317099727168
 30
0.0
 11
410.620910660476
 21
238.36772497271701
 31
0.0
  0
LINE
  5
86A3
  8
AM_0
 10
446.00836066047702
 20
28.37873997271776
 30
0.0
 11
446.00836066047702
 21
313.37873997271703
 31
0.0
  0
LINE
  5
86A4
  8
AM_0
 10
428.00841066047718
 20
192.36558997271749
 30
0.0
 11
428.00841066047718
 21
309.85308997271687
 31
0.0
  0
LINE
  5
86A5
  8
AM_0
 10
330.00836066047708
 20
2.8787399727177672
 30
0.0
 11
330.00836066047708
 21
262.8787449727169
 31
0.0
  0
LINE
  5
86A6
  8
AM_0
 10
317.00836066047708
 20
5.2640999727186681
 30
0.0
 11
317.00836066047708
 21
260.4934299727168
 31
0.0
  0
LINE
  5
86A7
  8
AM_0
 10
303.00841066047718
 20
18.754199972717728
 30
0.0
 11
303.00841066047718
 21
260.87877497271802
 31
0.0
  0
LINE
  5
86A8
  8
ﾁｭｳｼﾝｾﾝ
 10
297.46983294184201
 20
104.8787399727179
 30
0.0
 11
9.0726106604761299
 21
104.8787399727179
 31
0.0
  0
LINE
  5
86A9
  8
AM_0
 10
258.5083106604784
 20
71.300099972718272
 30
0.0
 11
303.00841066047718
 21
71.300099972718272
 31
0.0
  0
LINE
  5
86AA
  8
AM_0
 10
258.5083106604784
 20
194.45738497271711
 30
0.0
 11
303.00841066047718
 21
194.45738497271711
 31
0.0
  0
LINE
  5
86AB
  8
AM_0
 10
258.5083106604784
 20
172.35341497271691
 30
0.0
 11
303.00841066047718
 21
172.35341497271691
 31
0.0
  0
LINE
  5
86AC
  8
AM_0
 10
258.5083106604784
 20
93.404069972717025
 30
0.0
 11
303.00841066047718
 21
93.404069972717025
 31
0.0
  0
LINE
  5
86AD
  8
AM_0
 10
276.24686066047701
 20
50.139179972717677
 30
0.0
 11
300.26981066047722
 21
48.03742997271776
 31
0.0
  0
LINE
  5
86AE
  8
AM_0
 10
268.50826066047603
 20
206.3787449727169
 30
0.0
 11
298.18276066047611
 21
207.41499997271831
 31
0.0
  0
LINE
  5
86AF
  8
AM_0
 10
214.5083106604784
 20
83.383194972718343
 30
0.0
 11
214.5083106604784
 21
52.939929972717088
 31
0.0
  0
LINE
  5
86B0
  8
AM_0
 10
194.5083106604784
 20
48.378739972717639
 30
0.0
 11
194.5083106604784
 21
161.37877497271711
 31
0.0
  0
LINE
  5
86B1
  8
AM_0
 10
268.5083606604785
 20
58.878769972717109
 30
0.0
 11
268.5083606604785
 21
206.878774972717
 31
0.0
  0
LINE
  5
86B2
  8
AM_0
 10
258.5083106604784
 20
61.766254972716979
 30
0.0
 11
258.5083106604784
 21
202.44465997271689
 31
0.0
  0
LINE
  5
86B3
  8
AM_0
 10
218.64796066047839
 20
64.256549972717039
 30
0.0
 11
255.79581066047601
 21
62.959309972718287
 31
0.0
  0
LINE
  5
86B4
  8
AM_0
 10
186.50831066047829
 20
58.878739972717071
 30
0.0
 11
194.5083106604784
 21
58.878739972717071
 31
0.0
  0
LINE
  5
86B5
  8
AM_0
 10
186.50831066047829
 20
48.878739972717639
 30
0.0
 11
194.5083106604784
 21
48.878739972717639
 31
0.0
  0
LINE
  5
86B6
  8
AM_0
 10
186.50831066047829
 20
72.938739972716903
 30
0.0
 11
194.5083106604784
 21
72.938739972716903
 31
0.0
  0
LINE
  5
86B7
  8
AM_0
 10
194.5083106604784
 20
48.378709972718752
 30
0.0
 11
210.64791066047829
 21
48.942309972718697
 31
0.0
  0
ARC
  5
86B8
  8
AM_0
 10
210.50841066047721
 20
52.939929972717088
 30
0.0
 40
4.000000049999997
 50
272.00000000000341
 51
0.0
  0
LINE
  5
86B9
  8
AM_0
 10
194.5083106604784
 20
72.072924972718269
 30
0.0
 11
214.5083106604784
 21
72.072924972718269
 31
0.0
  0
LINE
  5
86BA
  8
AM_0
 10
194.5083106604784
 20
58.878769972717109
 30
0.0
 11
214.5083106604784
 21
58.878769972717109
 31
0.0
  0
ARC
  5
86BB
  8
AM_0
 10
218.5083106604784
 20
60.258989972717131
 30
0.0
 40
4.000000049999997
 50
87.999999999996476
 51
180.00001000000091
  0
LINE
  5
86BC
  8
AM_0
 10
273.50836066047708
 20
53.127734972717107
 30
0.0
 11
273.50836066047708
 21
70.878739972717099
 31
0.0
  0
ARC
  5
86BD
  8
AM_0
 10
276.50836066047708
 20
53.127734972717107
 30
0.0
 40
3.0000000500000001
 50
179.99998999999889
 51
265.00000000000051
  0
LINE
  5
86BE
  8
AM_0
 10
262.3688106604763
 20
59.093159972718361
 30
0.0
 11
268.50841066047718
 21
58.878739972717071
 31
0.0
  0
ARC
  5
86BF
  8
AM_0
 10
255.65621066047601
 20
58.961749972717477
 30
0.0
 40
4.000000049999997
 50
31.0723409999962
 51
87.999999999996476
  0
ARC
  5
86C0
  8
AM_0
 10
262.50831066047522
 20
63.090714972717358
 30
0.0
 40
4.000000049999997
 50
211.07233999999909
 51
267.99999999999642
  0
ARC
  5
86C1
  8
AM_0
 10
270.50841066047718
 20
56.307084972717362
 30
0.0
 40
3.0000000500000001
 50
0.0
 51
87.999999999996476
  0
LINE
  5
86C2
  8
AM_0
 10
268.50826066047603
 20
59.378739972717078
 30
0.0
 11
270.61301066047503
 21
59.305254972717073
 31
0.0
  0
ARC
  5
86C3
  8
AM_0
 10
239.61136066047709
 20
147.8787449727169
 30
0.0
 40
3.0000000500000001
 50
314.99999999998158
 51
90.000002999984645
  0
LINE
  5
86C4
  8
AM_0
 10
194.5083106604784
 20
137.6845899727183
 30
0.0
 11
233.65981066047831
 21
137.6845899727183
 31
0.0
  0
LINE
  5
86C5
  8
AM_0
 10
219.5083106604784
 20
88.383194972718357
 30
0.0
 11
258.5083106604784
 21
88.383194972718357
 31
0.0
  0
ARC
  5
86C6
  8
AM_0
 10
219.5083106604784
 20
83.383194972718343
 30
0.0
 40
5.0
 50
90.000002999984645
 51
180.00001000000091
  0
LINE
  5
86C7
  8
AM_0
 10
186.50831066047829
 20
136.8187449727171
 30
0.0
 11
194.5083106604784
 21
136.8187449727171
 31
0.0
  0
LINE
  5
86C8
  8
AM_0
 10
233.65981066047831
 20
137.68455997271809
 30
0.0
 11
258.50826066047688
 21
93.311784972717518
 31
0.0
  0
LINE
  5
86C9
  8
AM_0
 10
233.65986066047611
 20
137.684529972717
 30
0.0
 11
241.7327606604785
 21
145.75737497271709
 31
0.0
  0
LINE
  5
86CA
  8
AM_0
 10
194.5083106604784
 20
150.8787449727169
 30
0.0
 11
239.61136066047709
 21
150.8787449727169
 31
0.0
  0
LINE
  5
86CB
  8
AM_0
 10
219.89481066047841
 20
162.26527997271691
 30
0.0
 11
226.27116066047839
 21
150.87877497271711
 31
0.0
  0
LINE
  5
86CC
  8
AM_0
 10
220.40361066047851
 20
195.97984997271701
 30
0.0
 11
253.23626066047609
 21
197.12639497271721
 31
0.0
  0
LINE
  5
86CD
  8
AM_0
 10
221.0090606604785
 20
163.37935497271681
 30
0.0
 11
255.9251606604752
 21
198.29545997271811
 31
0.0
  0
LINE
  5
86CE
  8
AM_0
 10
217.50831066047829
 20
192.9816799727183
 30
0.0
 11
217.50831066047829
 21
166.33543997271809
 31
0.0
  0
LINE
  5
86CF
  8
AM_0
 10
186.50831066047829
 20
150.8787449727169
 30
0.0
 11
194.5083106604784
 21
150.8787449727169
 31
0.0
  0
LINE
  5
86D0
  8
AM_0
 10
186.50831066047829
 20
160.8787449727169
 30
0.0
 11
194.5083106604784
 21
160.8787449727169
 31
0.0
  0
ARC
  5
86D1
  8
AM_0
 10
214.5083106604784
 20
166.33543997271809
 30
0.0
 40
3.0000000500000001
 50
309.6297900000053
 51
0.0
  0
LINE
  5
86D2
  8
AM_0
 10
194.5083106604784
 20
161.3787449727169
 30
0.0
 11
212.68851066047719
 21
162.013599972717
 31
0.0
  0
ARC
  5
86D3
  8
AM_0
 10
218.18056066047839
 20
166.20784497271819
 30
0.0
 40
4.000000049999997
 50
272.00000000000341
 51
314.99999999998158
  0
ARC
  5
86D4
  8
AM_0
 10
212.54896066047829
 20
166.01118997271681
 30
0.0
 40
4.000000049999997
 50
272.00000000000341
 51
309.6297900000053
  0
LINE
  5
86D5
  8
AM_0
 10
216.4218106604784
 20
164.02488997271681
 30
0.0
 11
215.10026066047831
 21
162.93046997271711
 31
0.0
  0
LINE
  5
86D6
  8
AM_0
 10
212.68851066047719
 20
162.013599972717
 30
0.0
 11
218.32011066047829
 21
162.21028497271681
 31
0.0
  0
ARC
  5
86D7
  8
AM_0
 10
220.50841066047809
 20
192.9816799727183
 30
0.0
 40
3.0000000500000001
 50
91.999997999994264
 51
180.00001000000091
  0
ARC
  5
86D8
  8
AM_0
 10
254.5093606604764
 20
202.5366699727181
 30
0.0
 40
4.000000049999997
 50
314.99999999998158
 51
0.9319899800012325
  0
ARC
  5
86D9
  8
AM_0
 10
253.0967106604771
 20
201.1239499727171
 30
0.0
 40
4.000000049999997
 50
272.00000000000341
 51
314.99999999998158
  0
LINE
  5
86DA
  8
AM_0
 10
255.9251606604752
 20
198.29545997271811
 30
0.0
 11
257.33786066047838
 21
199.70817997271701
 31
0.0
  0
LINE
  5
86DB
  8
AM_0
 10
262.36871066047701
 20
206.66432497271791
 30
0.0
 11
268.50826066047603
 21
206.8787449727169
 31
0.0
  0
ARC
  5
86DC
  8
AM_0
 10
262.50831066047522
 20
202.66679997271831
 30
0.0
 40
4.000000049999997
 50
91.999997999994264
 51
180.9319799999931
  0
LINE
  5
86DD
  8
AM_0
 10
436.0083606604785
 20
170.8787449727169
 30
0.0
 11
436.0083606604785
 21
59.921434972717059
 31
0.0
  0
LINE
  5
86DE
  8
AM_0
 10
450.0083606604785
 20
170.8787449727169
 30
0.0
 11
450.0083606604785
 21
50.878739972717639
 31
0.0
  0
LINE
  5
86DF
  8
AM_0
 10
428.00841066047718
 20
30.85676997271765
 30
0.0
 11
428.00841066047718
 21
79.371904972716948
 31
0.0
  0
LINE
  5
86E0
  8
AM_0
 10
358.00841066047718
 20
50.074479972719701
 30
0.0
 11
428.00841066047718
 21
50.074479972719701
 31
0.0
  0
LINE
  5
86E1
  8
AM_0
 10
358.00841066047718
 20
69.516769972717043
 30
0.0
 11
428.00841066047718
 21
69.516769972717043
 31
0.0
  0
LINE
  5
86E2
  8
AM_0
 10
330.00836066047708
 20
2.8787549727176152
 30
0.0
 11
389.73691066047508
 21
1.3146999727186981
 31
0.0
  0
LINE
  5
86E3
  8
AM_0
 10
317.00836066047708
 20
25.6182749727177
 30
0.0
 11
431.831810660477
 21
25.6182749727177
 31
0.0
  0
LINE
  5
86E4
  8
AM_0
 10
317.00836066047708
 20
11.16146997271766
 30
0.0
 11
406.79201066047688
 21
11.16146997271766
 31
0.0
  0
LINE
  5
86E5
  8
AM_0
 10
305.48741066047609
 20
15.79978997271769
 30
0.0
 11
314.529410660476
 21
14.205444972718849
 31
0.0
  0
ARC
  5
86E6
  8
AM_0
 10
306.0083606604785
 20
18.754199972717728
 30
0.0
 40
3.0000000500000001
 50
179.99998999999889
 51
259.9999999999938
  0
LINE
  5
86E7
  8
AM_0
 10
318.93851066047722
 20
3.2652749727176329
 30
0.0
 11
330.00841066047718
 21
2.8787099727176151
 31
0.0
  0
ARC
  5
86E8
  8
AM_0
 10
314.00836066047708
 20
11.251039972717759
 30
0.0
 40
3.0000000500000001
 50
0.0
 51
79.999998000001099
  0
ARC
  5
86E9
  8
AM_0
 10
319.0083606604785
 20
5.2640999727186681
 30
0.0
 40
2.0000000500000001
 50
179.99998999999889
 51
268.00001000001828
  0
ARC
  5
86EA
  8
AM_0
 10
300.00836066047708
 20
45.048844972717689
 30
0.0
 40
3.0000000500000001
 50
0.0
 51
84.999996999985342
  0
ARC
  5
86EB
  8
AM_0
 10
358.00841066047718
 20
59.795639972717026
 30
0.0
 40
9.7211409999999994
 50
90.000002999984645
 51
270.0
  0
LINE
  5
86EC
  8
AM_0
 10
358.00841066047718
 20
51.921129972717708
 30
0.0
 11
358.00841066047718
 21
68.021134972718301
 31
0.0
  0
LINE
  5
86ED
  8
AM_0
 10
389.73686066047833
 20
1.31474497271779
 30
0.0
 11
436.0083606604785
 21
28.029589972717758
 31
0.0
  0
LINE
  5
86EE
  8
AM_0
 10
431.11301066047599
 20
27.858599972717681
 30
0.0
 11
446.00836066047702
 21
28.37873997271776
 31
0.0
  0
ARC
  5
86EF
  8
AM_0
 10
431.00836066047827
 20
30.85676997271765
 30
0.0
 40
3.0000000500000001
 50
179.99998999999889
 51
271.99998999998161
  0
ARC
  5
86F0
  8
AM_0
 10
431.00836066047827
 20
59.921434972717059
 30
0.0
 40
5.0
 50
267.99999999999642
 51
0.0
  0
LINE
  5
86F1
  8
AM_0
 10
446.00836066047702
 20
50.878739972717639
 30
0.0
 11
450.0083606604785
 21
50.878739972717639
 31
0.0
  0
LINE
  5
86F2
  8
AM_0
 10
317.00836066047708
 20
142.85975997271811
 30
0.0
 11
436.0083606604785
 21
142.85975997271811
 31
0.0
  0
LINE
  5
86F3
  8
AM_0
 10
317.00836066047708
 20
122.8977549727183
 30
0.0
 11
436.0083606604785
 21
122.8977549727183
 31
0.0
  0
ARC
  5
86F4
  8
AM_0
 10
298.00841066047718
 20
212.41197497271691
 30
0.0
 40
5.0
 50
272.00000000000341
 51
0.0
  0
ARC
  5
86F5
  8
AM_0
 10
433.00841066047718
 20
79.371904972716948
 30
0.0
 40
5.0
 50
90.000002999984645
 51
180.00001000000091
  0
ARC
  5
86F6
  8
AM_0
 10
431.620910660476
 20
190.8018999727181
 30
0.0
 40
5.0
 50
198.30292000000651
 51
270.0
  0
LINE
  5
86F7
  8
AM_0
 10
431.620910660476
 20
185.80189997271731
 30
0.0
 11
436.0083606604785
 21
185.80189997271731
 31
0.0
  0
LINE
  5
86F8
  8
AM_0
 10
452.00836066047827
 20
148.37874497271699
 30
0.0
 11
452.00836066047827
 21
193.3787449727169
 31
0.0
  0
LINE
  5
86F9
  8
AM_0
 10
450.0083606604785
 20
148.37874497271699
 30
0.0
 11
452.00836066047827
 21
148.37874497271699
 31
0.0
  0
LINE
  5
86FA
  8
AM_0
 10
450.0083606604785
 20
193.3787449727169
 30
0.0
 11
452.00836066047827
 21
193.3787449727169
 31
0.0
  0
LINE
  5
86FB
  8
AM_0
 10
466.0083606604785
 20
194.8787449727169
 30
0.0
 11
466.0083606604785
 21
191.87877497271711
 31
0.0
  0
ARC
  5
86FC
  8
AM_0
 10
360.20816066047621
 20
264.67388997271678
 30
0.0
 40
30.946884499999989
 50
307.55230999998503
 51
335.59613000001031
  0
LINE
  5
86FD
  8
AM_0
 10
425.86101066047678
 20
267.88238997271708
 30
0.0
 11
384.10296066047829
 21
242.90953497271721
 31
0.0
  0
LINE
  5
86FE
  8
AM_0
 10
425.57461066047591
 20
274.12538997271707
 30
0.0
 11
388.51571066047683
 21
251.96278997271691
 31
0.0
  0
LINE
  5
86FF
  8
AM_0
 10
381.5083606604785
 20
238.3676649727181
 30
0.0
 11
408.96136066047688
 21
238.3676649727181
 31
0.0
  0
LINE
  5
8700
  8
AM_0
 10
317.00836066047708
 20
254.59605997271819
 30
0.0
 11
392.9188606604784
 21
254.59605997271819
 31
0.0
  0
LINE
  5
8701
  8
AM_0
 10
330.00836066047708
 20
262.87880497271811
 30
0.0
 11
399.89656066047831
 21
264.70888997271749
 31
0.0
  0
ARC
  5
8702
  8
AM_0
 10
314.00836066047708
 20
283.37873997271709
 30
0.0
 40
20.500000499999992
 50
304.6136400000006
 51
235.38635000001281
  0
CIRCLE
  5
8703
  8
AM_0
 10
314.00836066047708
 20
283.37873997271709
 30
0.0
 40
12.5
  0
LINE
  5
8704
  8
AM_0
 10
317.00836066047708
 20
240.13926997271801
 30
0.0
 11
379.06986066047602
 21
240.13926997271801
 31
0.0
  0
ARC
  5
8705
  8
AM_0
 10
314.00836066047708
 20
254.5064899727179
 30
0.0
 40
3.0000000500000001
 50
280.00000000000608
 51
0.0
  0
LINE
  5
8706
  8
AM_0
 10
305.48741066047609
 20
249.9576599727169
 30
0.0
 11
314.529410660476
 21
251.5519899727181
 31
0.0
  0
ARC
  5
8707
  8
AM_0
 10
306.0083606604785
 20
247.00331497271819
 30
0.0
 40
3.0000000500000001
 50
100.0000000000061
 51
180.00001000000091
  0
ARC
  5
8708
  8
AM_0
 10
306.68651066047818
 20
268.51003997271681
 30
0.0
 40
1.0
 50
100.4607199999832
 51
164.9999900000129
  0
LINE
  5
8709
  8
AM_0
 10
304.00841066047798
 20
262.37877497271802
 30
0.0
 11
305.72061066047712
 21
268.7688399727171
 31
0.0
  0
LINE
  5
870A
  8
AM_0
 10
303.68546066047708
 20
262.37880497271732
 30
0.0
 11
318.34106066047838
 21
262.37880497271732
 31
0.0
  0
ARC
  5
870B
  8
AM_0
 10
300.09136066047722
 20
263.21522997271808
 30
0.0
 40
4.000000049999997
 50
347.92933000000039
 51
55.386359000005207
  0
ARC
  5
870C
  8
AM_0
 10
305.00836066047708
 20
260.87877497271802
 30
0.0
 40
2.0000000500000001
 50
131.4096200000055
 51
180.00001000000091
  0
LINE
  5
870D
  8
AM_0
 10
314.00836066047708
 20
270.87878997271707
 30
0.0
 11
321.51176066047628
 21
269.49343997271728
 31
0.0
  0
LINE
  5
870E
  8
AM_0
 10
306.19121066047632
 20
269.37878997271707
 30
0.0
 11
321.82541066047821
 21
269.37878997271707
 31
0.0
  0
LINE
  5
870F
  8
AM_0
 10
318.93851066047722
 20
262.49220997271749
 30
0.0
 11
330.00826066047688
 21
262.878774972717
 31
0.0
  0
ARC
  5
8710
  8
AM_0
 10
319.0083606604785
 20
260.4934299727168
 30
0.0
 40
2.0000000500000001
 50
91.999997999994264
 51
180.00001000000091
  0
LINE
  5
8711
  8
AM_0
 10
306.50491066047692
 20
269.4933899727169
 30
0.0
 11
314.00836066047708
 21
270.87868997271698
 31
0.0
  0
ARC
  5
8712
  8
AM_0
 10
321.33026066047842
 20
268.51003997271681
 30
0.0
 40
1.0
 50
14.999999999994451
 51
79.539281000009581
  0
ARC
  5
8713
  8
AM_0
 10
327.92526066047731
 20
263.21522997271808
 30
0.0
 40
4.000000049999997
 50
124.6136499999871
 51
187.86824999998751
  0
LINE
  5
8714
  8
AM_0
 10
323.93131066047721
 20
262.66652497271792
 30
0.0
 11
322.29616066047709
 21
268.7688399727171
 31
0.0
  0
LINE
  5
8715
  8
AM_0
 10
328.00841066047809
 20
262.80894997271798
 30
0.0
 11
328.00841066047809
 21
262.878774972717
 31
0.0
  0
LINE
  5
8716
  8
AM_0
 10
328.00841066047809
 20
262.878774972717
 30
0.0
 11
330.00836066047708
 21
262.878774972717
 31
0.0
  0
ARC
  5
8717
  8
AM_0
 10
381.5083606604785
 20
243.36766497271699
 30
0.0
 40
5.0
 50
229.7633299999942
 51
270.0
  0
ARC
  5
8718
  8
AM_0
 10
423.00841066047718
 20
292.94978997271693
 30
0.0
 40
5.0
 50
314.99999999998158
 51
0.0
  0
LINE
  5
8719
  8
AM_0
 10
411.9511106604773
 20
239.3600349727171
 30
0.0
 11
428.0083606604785
 21
251.33888997271691
 31
0.0
  0
ARC
  5
871A
  8
AM_0
 10
408.96136066047688
 20
243.36766497271699
 30
0.0
 40
5.0
 50
270.0
 51
306.72320999999693
  0
LINE
  5
871B
  8
AM_0
 10
403.301260660477
 20
266.17153997271902
 30
0.0
 11
426.54391066047702
 21
289.4141899727183
 31
0.0
  0
ARC
  5
871C
  8
AM_0
 10
399.76566066047587
 20
269.7071399727169
 30
0.0
 40
5.0
 50
271.49999999998971
 51
314.99999999998158
  0
LINE
  5
871D
  8
AM_0
 10
403.21606066047713
 20
260.75407997271708
 30
0.0
 11
401.89061066047719
 21
264.76108997271831
 31
0.0
  0
ARC
  5
871E
  8
AM_0
 10
423.00841066047718
 20
278.41653997271811
 30
0.0
 40
5.0
 50
300.88098000001457
 51
0.0
  0
ARC
  5
871F
  8
AM_0
 10
431.00836066047827
 20
281.83603997271712
 30
0.0
 40
5.0
 50
0.0
 51
91.999997999994264
  0
LINE
  5
8720
  8
AM_0
 10
430.90361066047711
 20
312.85128997271693
 30
0.0
 11
446.00836066047702
 21
313.37873997271703
 31
0.0
  0
ARC
  5
8721
  8
AM_0
 10
431.00836066047827
 20
309.85308997271687
 30
0.0
 40
3.0000000500000001
 50
91.999997999994264
 51
180.00001000000091
  0
LINE
  5
8722
  8
AM_0
 10
446.00836066047702
 20
290.87873997271788
 30
0.0
 11
450.0083606604785
 21
290.87873997271788
 31
0.0
  0
LINE
  5
8725
  8
AM_0
 10
522.00836066047714
 20
149.8787449727169
 30
0.0
 11
522.00836066047714
 21
194.8787449727169
 31
0.0
  0
CIRCLE
  5
8728
  8
AM_0
 10
741.76371238024115
 20
170.8787449727169
 30
0.0
 40
120.0
  0
CIRCLE
  5
8729
  8
AM_0
 10
741.76371238024115
 20
170.8787449727169
 30
0.0
 40
113.0
  0
ARC
  5
872A
  8
AM_0
 10
741.76371238024115
 20
132.878739972717
 30
0.0
 40
122.0
 50
22.571976999984791
 51
55.326820000008958
  0
ARC
  5
872B
  8
AM_0
 10
741.76371238024115
 20
132.878739972717
 30
0.0
 40
122.0
 50
124.67317999999101
 51
157.4280200000054
  0
LINE
  5
872C
  8
ﾁｭｳｼﾝｾﾝ
 10
741.76371238024115
 20
319.83411581478089
 30
0.0
 11
741.76371238024115
 21
-5.0908500272812311
 31
0.0
  0
LINE
  5
872D
  8
AM_0
 10
821.3386923802417
 20
243.38270997271829
 30
0.0
 11
792.14472238024291
 21
214.18873997271709
 31
0.0
  0
LINE
  5
872E
  8
AM_0
 10
662.18875738024099
 20
243.38264997271679
 30
0.0
 11
691.38269738024155
 21
214.18867997271749
 31
0.0
  0
LINE
  5
872F
  8
AM_0
 10
599.26369738024277
 20
220.8787449727169
 30
0.0
 11
599.26369738024277
 21
170.8787449727169
 31
0.0
  0
LINE
  5
8730
  8
AM_0
 10
884.26372738024293
 20
220.8787449727169
 30
0.0
 11
884.26372738024293
 21
170.8787449727169
 31
0.0
  0
LINE
  5
8732
  8
ﾁｭｳｼﾝｾﾝ
 10
594.13803132890575
 20
170.8787449727169
 30
0.0
 11
889.3893934315771
 21
170.8787449727169
 31
0.0
  0
LINE
  5
8733
  8
AM_0
 10
863.43555738024202
 20
30.88160997271974
 30
0.0
 11
791.76371238024171
 21
28.378769972718839
 31
0.0
  0
LINE
  5
8734
  8
AM_0
 10
847.28623238024147
 20
142.878739972717
 30
0.0
 11
811.76371238024171
 21
142.878739972717
 31
0.0
  0
CIRCLE
  5
8735
  8
AM_0
 10
621.55554738024102
 20
50.670609972717671
 30
0.0
 40
9.5
  0
LINE
  5
8738
  8
AM_0
 10
620.09189238024271
 20
30.88157997271766
 30
0.0
 11
691.76370738024286
 21
28.378739972717781
 31
0.0
  0
LINE
  5
8739
  8
AM_0
 10
601.7665473802416
 20
49.206924972717736
 30
0.0
 11
599.26369738024277
 21
120.87873997271799
 31
0.0
  0
ARC
  5
873A
  8
AM_0
 10
620.75495238024155
 20
49.870014972718792
 30
0.0
 40
19.000000499999999
 50
182.00000000000389
 51
267.99999999999642
  0
LINE
  5
873B
  8
AM_0
 10
599.26369738024277
 20
120.87873997271799
 30
0.0
 11
599.26369738024277
 21
170.8787449727169
 31
0.0
  0
ARC
  5
873C
  8
AM_0
 10
741.76371238024115
 20
132.878739972717
 30
0.0
 40
130.0
 50
246.63103999999359
 51
293.36896000000638
  0
LINE
  5
873D
  8
AM_0
 10
691.76370738024286
 20
28.378739972717781
 30
0.0
 11
741.76371238024115
 21
28.378739972717781
 31
0.0
  0
ARC
  5
873E
  8
AM_0
 10
676.76370738024275
 20
20.295459972717719
 30
0.0
 40
10.0
 50
195.00000999998699
 51
284.99999999999437
  0
LINE
  5
873F
  8
AM_0
 10
667.1044673802412
 20
17.707229972717649
 30
0.0
 11
663.98511238024082
 21
29.348804972717751
 31
0.0
  0
LINE
  5
8740
  8
AM_0
 10
679.35190738024266
 20
10.63616997271766
 30
0.0
 11
690.19910238024295
 21
13.54266497271966
 31
0.0
  0
LINE
  5
8741
  8
AM_0
 10
791.76371238024171
 20
28.378739972717781
 30
0.0
 11
741.76371238024115
 21
28.378739972717781
 31
0.0
  0
LINE
  5
8742
  8
AM_0
 10
816.42301238024174
 20
17.707244972717731
 30
0.0
 11
819.54233738024232
 21
29.348804972717751
 31
0.0
  0
ARC
  5
8743
  8
AM_0
 10
806.76371238024126
 20
20.295459972717719
 30
0.0
 40
10.0
 50
255.0000000000056
 51
345.00000000000551
  0
LINE
  5
8744
  8
AM_0
 10
804.17554738024251
 20
10.636184972717739
 30
0.0
 11
793.32831738024151
 21
13.54269497271777
 31
0.0
  0
CIRCLE
  5
8745
  8
AM_0
 10
741.76371238024115
 20
170.8787449727169
 30
0.0
 40
41.000000499999992
  0
ARC
  5
8746
  8
AM_0
 10
741.76371238024115
 20
170.8787449727169
 30
0.0
 40
20.9999985
 50
106.6015499999925
 51
73.398452000016533
  0
ARC
  5
8747
  8
AM_0
 10
671.76370738024161
 20
150.8787449727169
 30
0.0
 40
8.0
 50
270.0
 51
0.0
  0
ARC
  5
8748
  8
AM_0
 10
636.24121738024235
 20
147.8787449727169
 30
0.0
 40
5.0
 50
192.29603999999739
 51
270.0
  0
LINE
  5
8749
  8
AM_0
 10
636.24121738024235
 20
142.878739972717
 30
0.0
 11
671.76370738024161
 21
142.878739972717
 31
0.0
  0
ARC
  5
874A
  8
AM_0
 10
741.76371238024115
 20
170.8787449727169
 30
0.0
 40
61.999994999999998
 50
142.11498999999279
 51
180.00001000000091
  0
LINE
  5
874B
  8
AM_0
 10
679.76370738024275
 20
170.8787449727169
 30
0.0
 11
679.76370738024275
 21
150.8787449727169
 31
0.0
  0
ARC
  5
874C
  8
AM_0
 10
687.84717738024165
 20
210.65318997271689
 30
0.0
 40
5.0
 50
323.58368000000172
 51
45.000000999994569
  0
ARC
  5
874D
  8
AM_0
 10
811.76371238024171
 20
150.8787449727169
 30
0.0
 40
8.0
 50
179.99998999999889
 51
270.0
  0
CIRCLE
  5
874E
  8
AM_5
 10
741.76371238024115
 20
170.8787449727169
 30
0.0
 40
5.0
  0
CIRCLE
  5
874F
  8
AM_0
 10
741.76371238024115
 20
170.8787449727169
 30
0.0
 40
3.5000000500000001
  0
LINE
  5
8750
  8
AM_0
 10
735.76371238024092
 20
186.87877497271799
 30
0.0
 11
747.76371238024092
 21
186.87877497271799
 31
0.0
  0
LINE
  5
8751
  8
AM_0
 10
735.76371238024092
 20
194.8787449727169
 30
0.0
 11
735.76371238024092
 21
186.87877497271799
 31
0.0
  0
LINE
  5
8752
  8
AM_0
 10
747.76371238024092
 20
194.8787449727169
 30
0.0
 11
747.76371238024092
 21
186.87877497271799
 31
0.0
  0
LINE
  5
8753
  8
AM_0
 10
735.76371238024092
 20
194.8787449727169
 30
0.0
 11
747.76371238024092
 21
194.8787449727169
 31
0.0
  0
ARC
  5
8754
  8
AM_0
 10
741.76371238024115
 20
170.8787449727169
 30
0.0
 40
61.999994999999998
 50
0.0
 51
36.416317999992792
  0
LINE
  5
8755
  8
AM_0
 10
803.76371238024171
 20
170.8787449727169
 30
0.0
 11
803.76371238024171
 21
150.8787449727169
 31
0.0
  0
ARC
  5
8756
  8
AM_0
 10
795.68027738024091
 20
210.65318997271689
 30
0.0
 40
5.0
 50
134.9999999999815
 51
216.41631999999831
  0
LINE
  5
8757
  8
AM_0
 10
881.76088738024146
 20
49.206924972717736
 30
0.0
 11
884.26371238024092
 21
120.87873997271799
 31
0.0
  0
ARC
  5
8758
  8
AM_0
 10
862.77245738024146
 20
49.870014972718792
 30
0.0
 40
19.000000499999999
 50
272.00000000000341
 51
357.99999999999602
  0
CIRCLE
  5
8759
  8
AM_0
 10
861.97187238024276
 20
50.670609972717671
 30
0.0
 40
9.5
  0
ARC
  5
875B
  8
AM_0
 10
847.28623238024147
 20
147.8787449727169
 30
0.0
 40
5.0
 50
270.0
 51
347.70394999999121
  0
LINE
  5
875C
  8
AM_0
 10
884.26372738024293
 20
120.87873997271799
 30
0.0
 11
884.26372738024293
 21
170.8787449727169
 31
0.0
  0
LINE
  5
875D
  8
AM_0
 10
863.4355423802416
 20
310.87588997271803
 30
0.0
 11
791.76374238024312
 21
313.37873997271703
 31
0.0
  0
CIRCLE
  5
875F
  8
AM_0
 10
621.55554738024102
 20
291.0868899727169
 30
0.0
 40
9.5
  0
LINE
  5
8761
  8
AM_0
 10
620.09189238024271
 20
310.87588997271803
 30
0.0
 11
691.76370738024286
 21
313.37873997271703
 31
0.0
  0
LINE
  5
8762
  8
AM_0
 10
601.76659738024182
 20
292.55053997271779
 30
0.0
 11
599.26374738024151
 21
220.8787449727169
 31
0.0
  0
ARC
  5
8763
  8
AM_0
 10
620.75495238024155
 20
291.88748997271688
 30
0.0
 40
19.000000499999999
 50
91.999997999994264
 51
177.99999999999599
  0
ARC
  5
8764
  8
AM_0
 10
741.76371238024115
 20
170.8787449727169
 30
0.0
 40
61.999994999999998
 50
53.583680999986242
 51
126.41631999999819
  0
ARC
  5
8765
  8
AM_0
 10
733.26371238024092
 20
278.54373997271688
 30
0.0
 40
5.0
 50
0.0
 51
94.514060999993305
  0
ARC
  5
8766
  8
AM_0
 10
733.26371238024092
 20
259.5939849727169
 30
0.0
 40
5.0
 50
273.83763000000192
 51
0.0
  0
LINE
  5
8767
  8
AM_0
 10
691.76370738024286
 20
313.37873997271703
 30
0.0
 11
741.76371238024115
 21
313.37873997271703
 31
0.0
  0
LINE
  5
8768
  8
AM_0
 10
669.25980238024295
 20
250.4537249727174
 30
0.0
 11
698.45377238024275
 21
221.25975497271801
 31
0.0
  0
ARC
  5
8769
  8
AM_0
 10
672.79532738024272
 20
253.98927997271721
 30
0.0
 40
5.0
 50
129.6872200000065
 51
225.00000000001839
  0
ARC
  5
876A
  8
AM_0
 10
658.6531723802417
 20
239.847129972717
 30
0.0
 40
5.0
 50
45.000000999994569
 51
140.31277999999341
  0
ARC
  5
876B
  8
AM_0
 10
741.76371238024115
 20
132.8787449727169
 30
0.0
 40
122.0
 50
93.837626000016215
 51
119.8569418648832
  0
ARC
  5
876C
  8
AM_0
 10
701.98929738024174
 20
224.7953399727171
 30
0.0
 40
5.0
 50
225.00000000001839
 51
306.41631999999822
  0
ARC
  5
876D
  8
AM_0
 10
741.76371238024115
 20
132.878739972717
 30
0.0
 40
122.0
 50
60.143060000010841
 51
86.162372000016859
  0
LINE
  5
876E
  8
AM_0
 10
814.26761738024152
 20
250.45375497271701
 30
0.0
 11
785.0736473802408
 21
221.2597849727172
 31
0.0
  0
ARC
  5
876F
  8
AM_0
 10
750.26371238024092
 20
259.5939849727169
 30
0.0
 40
5.0
 50
179.99998999999889
 51
266.16236000000691
  0
ARC
  5
8770
  8
AM_0
 10
781.53812738024158
 20
224.7953399727171
 30
0.0
 40
5.0
 50
233.58368000000161
 51
314.99999999998158
  0
LINE
  5
8771
  8
AM_0
 10
745.26371238024115
 20
278.54373997271688
 30
0.0
 11
745.26371238024115
 21
259.5939849727169
 31
0.0
  0
LINE
  5
8772
  8
AM_0
 10
738.26371238024171
 20
278.54373997271688
 30
0.0
 11
738.26371238024171
 21
259.5939849727169
 31
0.0
  0
ARC
  5
8773
  8
AM_0
 10
750.26371238024092
 20
278.54373997271688
 30
0.0
 40
5.0
 50
85.485944000013433
 51
180.00001000000091
  0
ARC
  5
8774
  8
AM_0
 10
810.73212738024165
 20
253.98927997271721
 30
0.0
 40
5.0
 50
314.99999999998158
 51
50.312775000014717
  0
ARC
  5
8775
  8
AM_0
 10
824.87424738024174
 20
239.847129972717
 30
0.0
 40
5.0
 50
39.687224000006218
 51
134.9999999999815
  0
LINE
  5
8776
  8
AM_0
 10
791.76371238024171
 20
313.37873997271703
 30
0.0
 11
741.76371238024115
 21
313.37873997271703
 31
0.0
  0
CIRCLE
  5
8778
  8
AM_0
 10
861.97187238024276
 20
291.0868899727169
 30
0.0
 40
9.5
  0
ARC
  5
8779
  8
ﾁｭｳｼﾝｾﾝ
 10
741.76371238024115
 20
170.8787449727169
 30
0.0
 40
170.00000499999999
 50
39.268028537181429
 51
50.731964313247047
  0
LINE
  5
877A
  8
AM_0
 10
881.76088738024146
 20
292.55053997271779
 30
0.0
 11
884.26372738024293
 21
220.8787449727169
 31
0.0
  0
LINE
  5
877B
  8
ﾁｭｳｼﾝｾﾝ
 10
873.99264309302976
 20
303.1077498201073
 30
0.0
 11
849.95102959708959
 21
279.06610219559042
 31
0.0
  0
ARC
  5
877C
  8
AM_0
 10
862.77245738024146
 20
291.88748997271688
 30
0.0
 40
19.000000499999999
 50
2.0000000000039519
 51
87.999999999996476
  0
ARC
  5
877E
  8
AM_0
 10
79.83211066047852
 20
119.8887509727173
 30
0.0
 40
1.335016049999999
 50
89.732354999995508
 51
270.26762999999562
  0
LINE
  5
877F
  8
ﾁｭｳｼﾝｾﾝ
 10
135.5083006604772
 20
145.50375447271799
 30
0.0
 11
135.5083006604772
 21
64.253725472717889
 31
0.0
  0
LINE
  5
8780
  8
AM_0
 10
176.2783306604783
 20
134.8737359727171
 30
0.0
 11
176.2783306604783
 21
74.873732972718244
 31
0.0
  0
LINE
  5
8781
  8
AM_0
 10
78.508300660478184
 20
157.87372497271761
 30
0.0
 11
78.508300660478184
 21
55.433744972717363
 31
0.0
  0
LINE
  5
8782
  8
AM_0
 10
186.50833066047829
 20
160.87873497271821
 30
0.0
 11
186.50833066047829
 21
48.878723972717687
 31
0.0
  0
LINE
  5
8784
  8
AM_0
 10
179.7483652164901
 20
68.878739972717099
 30
0.0
 11
81.150804817400513
 21
68.878739972717099
 31
0.0
  0
LINE
  5
8785
  8
AM_0
 10
135.5083006604772
 20
68.15373297271708
 30
0.0
 11
183.32833066047851
 21
68.15373297271708
 31
0.0
  0
LINE
  5
8786
  8
AM_0
 10
81.708310660478219
 20
48.593717972717741
 30
0.0
 11
178.62832066047841
 21
48.593717972717741
 31
0.0
  0
LINE
  5
8787
  8
AM_0
 10
104.0083006604781
 20
66.65373297271708
 30
0.0
 11
186.50833066047829
 21
66.65373297271708
 31
0.0
  0
ARC
  5
8788
  8
AM_0
 10
285.55949386773221
 20
106.566313912639
 30
0.0
 40
204.69842337270771
 50
178.02572260412811
 51
178.71785518950361
  0
ARC
  5
8789
  8
AM_0
 10
285.4822419795691
 20
103.186770046692
 30
0.0
 40
204.6212004872653
 50
181.2834998158383
 51
181.9756167481541
  0
ARC
  5
878A
  8
AM_0
 10
81.050560660478354
 20
69.873734972717102
 30
0.0
 40
1.0000319699999971
 50
89.552707000007004
 51
270.4472999999881
  0
ARC
  5
878B
  8
AM_0
 10
81.050560660478354
 20
119.8737359727171
 30
0.0
 40
1.0000319699999971
 50
89.552707000007004
 51
270.4472999999881
  0
ARC
  5
878C
  8
AM_0
 10
81.050560660478354
 20
109.8737339727181
 30
0.0
 40
1.0000319699999971
 50
89.552707000007004
 51
270.4472999999881
  0
ARC
  5
878D
  8
AM_0
 10
81.050560660478354
 20
99.873734972717131
 30
0.0
 40
1.0000319699999971
 50
89.552707000007004
 51
270.4472999999881
  0
ARC
  5
878E
  8
AM_0
 10
81.050560660478354
 20
89.873732972718244
 30
0.0
 40
1.0000319699999971
 50
89.552707000007004
 51
270.4472999999881
  0
ARC
  5
878F
  8
AM_0
 10
81.050560660478354
 20
79.873718972717043
 30
0.0
 40
1.0000319699999971
 50
89.552707000007004
 51
270.4472999999881
  0
ARC
  5
8790
  8
AM_0
 10
79.77010066047842
 20
109.8837149727182
 30
0.0
 40
1.270028039999999
 50
89.627211000013773
 51
270.37279000000228
  0
ARC
  5
8791
  8
AM_0
 10
79.77010066047842
 20
99.873734972717131
 30
0.0
 40
1.270028039999999
 50
89.627211000013773
 51
270.37279000000228
  0
ARC
  5
8792
  8
AM_0
 10
79.83211066047852
 20
89.863724972717137
 30
0.0
 40
1.3300160699999981
 50
89.731344000004384
 51
270.26864999998628
  0
ARC
  5
8793
  8
AM_0
 10
79.962730660478442
 20
79.853744972718346
 30
0.0
 40
1.460012009999998
 50
89.778814000009305
 51
270.22118999999998
  0
ARC
  5
8794
  8
AM_0
 10
81.800440660478202
 20
44.98420797271875
 30
0.0
 40
2.000475929999999
 50
187.77046000000681
 51
269.93968999998953
  0
ARC
  5
8795
  8
AM_0
 10
81.712960660478544
 20
50.592725972717751
 30
0.0
 40
1.999007999999999
 50
190.63740999999931
 51
269.86654999998967
  0
ARC
  5
8796
  8
AM_0
 10
81.764290660478295
 20
47.743910972717678
 30
0.0
 40
2.0001841200000001
 50
188.92099999999769
 51
269.8285299999992
  0
ARC
  5
8797
  8
AM_0
 10
81.771850660478293
 20
45.901061972717677
 30
0.0
 40
1.997348129999998
 50
188.8514699999912
 51
270.18467999999763
  0
LINE
  5
8798
  8
AM_0
 10
84.508300660477275
 20
120.873734972717
 30
0.0
 11
80.868370660478377
 21
120.873734972717
 31
0.0
  0
LINE
  5
8799
  8
AM_0
 10
84.508300660477275
 20
118.8737339727181
 30
0.0
 11
80.868370660478377
 21
118.8737339727181
 31
0.0
  0
LINE
  5
879A
  8
AM_0
 10
84.508300660477275
 20
110.8737359727171
 30
0.0
 11
80.868370660478377
 21
110.8737359727171
 31
0.0
  0
LINE
  5
879B
  8
AM_0
 10
84.508300660477275
 20
108.8737349727171
 30
0.0
 11
80.868370660478377
 21
108.8737349727171
 31
0.0
  0
LINE
  5
879C
  8
AM_0
 10
79.83832066047853
 20
118.5537269727179
 30
0.0
 11
84.508300660477275
 21
118.5537269727179
 31
0.0
  0
LINE
  5
879D
  8
AM_0
 10
79.77832066047722
 20
111.1537349727183
 30
0.0
 11
84.508300660477275
 21
111.1537349727183
 31
0.0
  0
LINE
  5
879E
  8
AM_0
 10
79.77832066047722
 20
108.61372497271709
 30
0.0
 11
84.508300660477275
 21
108.61372497271709
 31
0.0
  0
LINE
  5
879F
  8
AM_0
 10
79.77832066047722
 20
101.14372497271729
 30
0.0
 11
84.508300660477275
 21
101.14372497271729
 31
0.0
  0
LINE
  5
87A0
  8
AM_0
 10
84.508300660477275
 20
100.8737339727181
 30
0.0
 11
80.868370660478377
 21
100.8737339727181
 31
0.0
  0
LINE
  5
87A1
  8
AM_0
 10
84.508300660477275
 20
98.873735972716887
 30
0.0
 11
80.868370660478377
 21
98.873735972716887
 31
0.0
  0
LINE
  5
87A2
  8
AM_0
 10
79.77832066047722
 20
98.60374497271836
 30
0.0
 11
84.508300660477275
 21
98.60374497271836
 31
0.0
  0
LINE
  5
87A3
  8
AM_0
 10
79.83832066047853
 20
91.193741972718271
 30
0.0
 11
84.508300660477275
 21
91.193741972718271
 31
0.0
  0
LINE
  5
87A4
  8
AM_0
 10
84.508300660477275
 20
90.873734972718125
 30
0.0
 11
80.868370660478377
 21
90.873734972718125
 31
0.0
  0
LINE
  5
87A5
  8
AM_0
 10
84.508300660477275
 20
88.873718972717043
 30
0.0
 11
80.868370660478377
 21
88.873718972717043
 31
0.0
  0
LINE
  5
87A6
  8
AM_0
 10
79.83832066047853
 20
88.533737972717049
 30
0.0
 11
84.508300660477275
 21
88.533737972717049
 31
0.0
  0
LINE
  5
87A7
  8
AM_0
 10
84.508300660477275
 20
80.873732972718244
 30
0.0
 11
80.868370660478377
 21
80.873732972718244
 31
0.0
  0
LINE
  5
87A8
  8
AM_0
 10
79.96834066047812
 20
81.313736972718317
 30
0.0
 11
84.508300660477275
 21
81.313736972718317
 31
0.0
  0
LINE
  5
87A9
  8
AM_0
 10
84.508300660477275
 20
78.873734972718026
 30
0.0
 11
80.868370660478377
 21
78.873734972718026
 31
0.0
  0
LINE
  5
87AA
  8
AM_0
 10
79.96834066047812
 20
78.3937229727171
 30
0.0
 11
84.508300660477275
 21
78.3937229727171
 31
0.0
  0
LINE
  5
87AB
  8
AM_0
 10
80.178310660477095
 20
68.15373297271708
 30
0.0
 11
135.5083006604772
 21
68.15373297271708
 31
0.0
  0
LINE
  5
87AC
  8
AM_0
 10
80.178310660477095
 20
71.513747972718321
 30
0.0
 11
84.615204688891026
 21
71.513747972718321
 31
0.0
  0
LINE
  5
87AD
  8
AM_0
 10
84.845669821583229
 20
70.873718972717029
 30
0.0
 11
80.868370660478377
 21
70.873718972717029
 31
0.0
  0
LINE
  5
87AE
  8
AM_0
 10
83.868310660478514
 20
68.223740972718133
 30
0.0
 11
78.508300660478184
 21
56.783735972717523
 31
0.0
  0
LINE
  5
87AF
  8
AM_0
 10
78.508300660478184
 20
56.783720972717113
 30
0.0
 11
79.748290660478219
 21
50.223722972717717
 31
0.0
  0
LINE
  5
87B0
  8
AM_0
 10
78.508300660478184
 20
54.093749972716971
 30
0.0
 11
79.818310660478346
 21
44.713745972718812
 31
0.0
  0
LINE
  5
87B1
  8
AM_0
 10
70.50832066047812
 20
51.87872397271768
 30
0.0
 11
78.508300660478184
 21
51.87872397271768
 31
0.0
  0
LINE
  5
87B2
  8
AM_0
 10
70.50832066047812
 20
51.873731972717671
 30
0.0
 11
78.508300660478184
 21
51.873731972717671
 31
0.0
  0
LINE
  5
87B3
  8
AM_0
 10
78.508300660478184
 20
55.43372997271706
 30
0.0
 11
79.788280660478449
 21
47.433731972718753
 31
0.0
  0
LINE
  5
87B4
  8
AM_0
 10
78.508300660478184
 20
54.093719972717501
 30
0.0
 11
79.798360660478451
 21
45.593732972717703
 31
0.0
  0
LINE
  5
87B5
  8
AM_0
 10
71.198320660477293
 20
61.683731972718292
 30
0.0
 11
77.42836066047812
 21
61.683731972718292
 31
0.0
  0
ARC
  5
87B6
  8
AM_0
 10
80.178310660477095
 20
69.833723972717053
 30
0.0
 40
1.679999999999999
 50
90.000002999984645
 51
270.0
  0
ARC
  5
87B7
  8
AM_0
 10
282.47202530185632
 20
106.58658053824129
 30
0.0
 40
201.61085738285439
 50
179.42527489174179
 51
180.13294661221761
  0
ARC
  5
87B8
  8
AM_0
 10
285.50194457998708
 20
106.585963316356
 30
0.0
 40
204.64076721509861
 50
180.13080539049491
 51
180.47940135319399
  0
ARC
  5
87B9
  8
AM_0
 10
283.75527863084318
 20
103.16099123572511
 30
0.0
 40
202.89403267033549
 50
180.21919094446361
 51
180.57069649462861
  0
ARC
  5
87BA
  8
AM_0
 10
284.79191819264719
 20
103.16923456824711
 30
0.0
 40
203.93069622692141
 50
179.87077327206001
 51
180.22039274125001
  0
ARC
  5
87BB
  8
AM_0
 10
284.4139237020795
 20
103.1720041862439
 30
0.0
 40
203.55269646012371
 50
179.52099544220221
 51
179.87131288695369
  0
ARC
  5
87BC
  8
AM_0
 10
285.82739246526017
 20
103.1735324817823
 30
0.0
 40
204.96200297080929
 50
186.94488316606041
 51
187.59240971813361
  0
LINE
  5
87BD
  8
AM_0
 10
81.758320660477224
 20
45.743726972717681
 30
0.0
 11
115.50832066047811
 21
45.743726972717681
 31
0.0
  0
LINE
  5
87BE
  8
AM_0
 10
81.778330660476939
 20
43.903730972717653
 30
0.0
 11
115.50832066047811
 21
43.903730972717653
 31
0.0
  0
LINE
  5
87BF
  8
AM_0
 10
81.798340660478516
 20
42.983732972717668
 30
0.0
 11
115.50832066047811
 21
42.983732972717668
 31
0.0
  0
LINE
  5
87C0
  8
AM_0
 10
104.0083006604781
 20
66.65373297271708
 30
0.0
 11
83.835520660478309
 21
68.15373297271708
 31
0.0
  0
ARC
  5
87C1
  8
AM_0
 10
286.30962782800719
 20
103.2438489426209
 30
0.0
 40
205.44930125633391
 50
187.5940787099814
 51
188.88606759392201
  0
ARC
  5
87C2
  8
AM_0
 10
115.50502066047819
 20
45.90701397271765
 30
0.0
 40
2.003279969999999
 50
270.09378999999711
 51
359.90621000000289
  0
LINE
  5
87C3
  8
AM_0
 10
117.5083006604781
 20
44.983733972718717
 30
0.0
 11
117.5083006604781
 21
48.593717972717741
 31
0.0
  0
ARC
  5
87C4
  8
AM_0
 10
115.50031066047811
 20
44.991743972718709
 30
0.0
 40
2.0080361999999989
 50
270.22878999998642
 51
359.77121000000051
  0
ARC
  5
87C5
  8
AM_0
 10
115.50112066047809
 20
47.750915972717742
 30
0.0
 40
2.007180029999998
 50
270.20462000000418
 51
359.79537999999582
  0
ARC
  5
87C7
  8
AM_0
 10
285.41465853280403
 20
103.1821265043081
 30
0.0
 40
204.55326957220879
 50
185.46031399634921
 51
186.137000854473
  0
ARC
  5
87C8
  8
AM_0
 10
286.06802742656407
 20
103.2413315526982
 30
0.0
 40
205.2093074617344
 50
184.78473638767511
 51
185.45941055424089
  0
ARC
  5
87C9
  8
AM_0
 10
285.49766369187131
 20
103.19140810208501
 30
0.0
 40
204.63676715666841
 50
184.1076457018429
 51
184.7841276720458
  0
ARC
  5
87CA
  8
AM_0
 10
285.23902034399123
 20
103.1796664795732
 30
0.0
 40
204.37787853975311
 50
181.97597713469739
 51
183.3618692197054
  0
ARC
  5
87CB
  8
AM_0
 10
285.5678435697173
 20
106.5636629989082
 30
0.0
 40
204.70684984457009
 50
176.64084313943511
 51
177.33301926920441
  0
ARC
  5
87CC
  8
AM_0
 10
286.88470924269632
 20
106.50948798968589
 30
0.0
 40
206.0248100930055
 50
177.33501004864721
 51
178.02262526942471
  0
LINE
  5
87CD
  8
AM_0
 10
183.32833066047851
 20
71.513747972718321
 30
0.0
 11
173.50830066047811
 21
71.513747972718321
 31
0.0
  0
LINE
  5
87CE
  8
AM_0
 10
185.00833066047829
 20
66.65373297271708
 30
0.0
 11
180.5583106604781
 21
50.073728972717717
 31
0.0
  0
ARC
  5
87CF
  8
AM_0
 10
178.6254406604784
 20
50.595869972717651
 30
0.0
 40
2.0021281800000001
 50
270.08151999998688
 51
344.88329999999792
  0
LINE
  5
87D0
  8
AM_0
 10
179.84833066047841
 20
70.873718972717029
 30
0.0
 11
173.50830066047811
 21
70.873718972717029
 31
0.0
  0
LINE
  5
87D1
  8
AM_0
 10
173.50830066047811
 20
74.796027888390213
 30
0.0
 11
176.2783306604783
 21
74.873717972717017
 31
0.0
  0
ARC
  5
87D2
  8
AM_0
 10
179.84833066047841
 20
69.873734972717102
 30
0.0
 40
1.000004069999999
 50
270.0
 51
90.000002999984645
  0
LINE
  5
87D3
  8
AM_0
 10
181.04830066047811
 20
51.873731972717671
 30
0.0
 11
186.50833066047829
 21
51.873731972717671
 31
0.0
  0
ARC
  5
87D4
  8
AM_0
 10
183.32833066047851
 20
69.833723972717053
 30
0.0
 40
1.680008099999998
 50
270.0
 51
90.000002999984645
  0
ARC
  5
87D5
  8
AM_0
 10
183.32833066047851
 20
69.833723972717053
 30
0.0
 40
1.675004159999999
 50
270.0
 51
90.000002999984645
  0
LINE
  5
87D7
  8
AM_0
 10
81.058367566331526
 20
140.8737384693371
 30
0.0
 11
179.84833060811701
 21
140.873741042717
 31
0.0
  0
LINE
  5
87D8
  8
AM_0
 10
80.178310660477095
 20
141.60370497271691
 30
0.0
 11
183.32833066047851
 21
141.60370497271691
 31
0.0
  0
LINE
  5
87D9
  8
AM_0
 10
81.708310660478219
 20
161.16373497271789
 30
0.0
 11
178.62832066047841
 21
161.16373497271789
 31
0.0
  0
LINE
  5
87DA
  8
AM_0
 10
104.0083006604781
 20
143.103704972717
 30
0.0
 11
186.50833066047829
 21
143.103704972717
 31
0.0
  0
ARC
  5
87DB
  8
AM_0
 10
81.050560660478354
 20
139.87373697271829
 30
0.0
 40
1.0000319699999971
 50
89.552707000007004
 51
270.4472999999881
  0
ARC
  5
87DC
  8
AM_0
 10
81.050560660478354
 20
129.8737349727171
 30
0.0
 40
1.0000319699999971
 50
89.552707000007004
 51
270.4472999999881
  0
ARC
  5
87DD
  8
AM_0
 10
79.962670660478111
 20
129.90373497271739
 30
0.0
 40
1.460012009999998
 50
89.777016999992441
 51
270.22298999999867
  0
ARC
  5
87DE
  8
AM_0
 10
81.711190660478223
 20
159.16681497271691
 30
0.0
 40
1.996904069999998
 50
90.083473999999597
 51
169.41255999999379
  0
ARC
  5
87DF
  8
AM_0
 10
81.756730660478297
 20
162.0106049727182
 30
0.0
 40
1.9931281199999991
 50
89.953372999993974
 51
170.96118000000229
  0
ARC
  5
87E0
  8
AM_0
 10
81.771070660478429
 20
163.85914497271719
 30
0.0
 40
1.994588069999998
 50
89.790753000002425
 51
171.5070899999931
  0
ARC
  5
87E1
  8
AM_0
 10
81.792970660478204
 20
164.77024497271691
 30
0.0
 40
1.9934921999999999
 50
89.846091000007874
 51
172.11474000000081
  0
LINE
  5
87E2
  8
AM_0
 10
84.843826781509946
 20
138.8737349727171
 30
0.0
 11
80.868370660478377
 21
138.8737349727171
 31
0.0
  0
LINE
  5
87E3
  8
AM_0
 10
84.508300660477275
 20
130.8737369727175
 30
0.0
 11
80.868370660478377
 21
130.8737369727175
 31
0.0
  0
LINE
  5
87E4
  8
AM_0
 10
84.508300660477275
 20
128.87373597271699
 30
0.0
 11
80.868370660478377
 21
128.87373597271699
 31
0.0
  0
LINE
  5
87E5
  8
AM_0
 10
80.178310660477095
 20
138.24373197271819
 30
0.0
 11
84.616973264429333
 21
138.24373197271819
 31
0.0
  0
LINE
  5
87E6
  8
AM_0
 10
79.96834066047812
 20
131.36372697271821
 30
0.0
 11
84.508300660477275
 21
131.36372697271821
 31
0.0
  0
LINE
  5
87E7
  8
AM_0
 10
79.96834066047812
 20
128.44371297271701
 30
0.0
 11
84.508300660477275
 21
128.44371297271701
 31
0.0
  0
LINE
  5
87E8
  8
AM_0
 10
79.83832066047853
 20
121.22374197271709
 30
0.0
 11
84.508300660477275
 21
121.22374197271709
 31
0.0
  0
LINE
  5
87E9
  8
AM_0
 10
83.868310660478514
 20
141.52372497271699
 30
0.0
 11
78.508300660478184
 21
152.9737049727172
 31
0.0
  0
LINE
  5
87EA
  8
AM_0
 10
78.508300660478184
 20
155.66371497271709
 30
0.0
 11
79.818310660478346
 21
165.0437249727168
 31
0.0
  0
ARC
  5
87EB
  8
AM_0
 10
80.178310660477095
 20
139.92372297271831
 30
0.0
 40
1.679999999999999
 50
90.000002999984645
 51
270.0
  0
LINE
  5
87EC
  8
AM_0
 10
78.508300660478184
 20
152.97373497271681
 30
0.0
 11
79.748290660478219
 21
159.5337449727169
 31
0.0
  0
LINE
  5
87ED
  8
AM_0
 10
71.198320660477293
 20
148.06372497271701
 30
0.0
 11
77.42836066047812
 21
148.06372497271701
 31
0.0
  0
LINE
  5
87EE
  8
AM_0
 10
70.50832066047812
 20
157.87873497271801
 30
0.0
 11
78.508300660478184
 21
157.87873497271801
 31
0.0
  0
LINE
  5
87EF
  8
AM_0
 10
70.50832066047812
 20
157.87372497271761
 30
0.0
 11
78.508300660478184
 21
157.87372497271761
 31
0.0
  0
LINE
  5
87F0
  8
AM_0
 10
78.508300660478184
 20
154.3137449727177
 30
0.0
 11
79.788280660478449
 21
162.32371497271691
 31
0.0
  0
LINE
  5
87F1
  8
AM_0
 10
78.508300660478184
 20
155.6637449727173
 30
0.0
 11
79.798360660478451
 21
164.1537449727179
 31
0.0
  0
ARC
  5
87F2
  8
AM_0
 10
115.50679066047719
 20
163.852184972717
 30
0.0
 40
2.0015440500000001
 50
0.0442139990073985
 51
89.955783999999085
  0
LINE
  5
87F3
  8
AM_0
 10
117.5083006604781
 20
164.7637349727168
 30
0.0
 11
117.5083006604781
 21
161.16373497271789
 31
0.0
  0
LINE
  5
87F4
  8
AM_0
 10
81.758320660477224
 20
164.00371497271709
 30
0.0
 11
115.50832066047811
 21
164.00371497271709
 31
0.0
  0
LINE
  5
87F5
  8
AM_0
 10
104.0083006604781
 20
143.103704972717
 30
0.0
 11
83.830870660478453
 21
141.60373497271709
 31
0.0
  0
ARC
  5
87F6
  8
AM_0
 10
285.2893101682921
 20
106.6228097925201
 30
0.0
 40
204.4231110527293
 50
172.39935376233689
 51
173.0480406134273
  0
ARC
  5
87F7
  8
AM_0
 10
285.9455923060973
 20
106.5241367985363
 30
0.0
 40
205.086602105558
 50
173.86479656848519
 51
175.2153393800678
  0
ARC
  5
87F8
  8
AM_0
 10
285.33982864599011
 20
106.5816653848383
 30
0.0
 40
204.47815098782999
 50
175.2172449765857
 51
175.89452073851339
  0
ARC
  5
87F9
  8
AM_0
 10
285.62014704893221
 20
106.5735201801498
 30
0.0
 40
204.75756069728581
 50
171.10266677356151
 51
172.39792734852719
  0
ARC
  5
87FA
  8
AM_0
 10
115.5079006604782
 20
162.00331497271819
 30
0.0
 40
2.0004079799999981
 50
0.0116490000072104
 51
89.98834999999788
  0
LINE
  5
87FB
  8
AM_0
 10
81.778330660476939
 20
165.85372497271729
 30
0.0
 11
115.50832066047811
 21
165.85372497271729
 31
0.0
  0
LINE
  5
87FC
  8
AM_0
 10
81.798340660478516
 20
166.76374497271709
 30
0.0
 11
115.50832066047811
 21
166.76374497271709
 31
0.0
  0
ARC
  5
87FD
  8
AM_0
 10
115.50703066047841
 20
164.7624449727173
 30
0.0
 40
2.0012880000000002
 50
0.0368719990022015
 51
89.963125999991462
  0
LINE
  5
87FE
  8
AM_0
 10
183.32833066047851
 20
138.24373197271819
 30
0.0
 11
173.50830066047811
 21
138.24373197271819
 31
0.0
  0
LINE
  5
87FF
  8
AM_0
 10
184.70833066047811
 20
144.2137349727181
 30
0.0
 11
180.5583706604784
 21
159.673724972717
 31
0.0
  0
LINE
  5
8800
  8
AM_0
 10
173.50830066047811
 20
134.96143705704421
 30
0.0
 11
176.2783306604783
 21
134.88374697271701
 31
0.0
  0
ARC
  5
8801
  8
AM_0
 10
179.84833066047841
 20
139.87373697271829
 30
0.0
 40
1.000004069999999
 50
270.0
 51
90.000002999984645
  0
ARC
  5
8802
  8
AM_0
 10
178.62550066047831
 20
159.16513497271831
 30
0.0
 40
1.99860411
 50
14.742716000005739
 51
89.919516000001124
  0
ARC
  5
8803
  8
AM_0
 10
183.32833066047851
 20
139.92372297271831
 30
0.0
 40
1.680008099999998
 50
270.0
 51
90.000002999984645
  0
ARC
  5
8804
  8
AM_0
 10
183.32833066047851
 20
139.92372297271831
 30
0.0
 40
1.675004159999999
 50
270.0
 51
90.000002999984645
  0
ARC
  5
8805
  8
AM_0
 10
186.1615006604784
 20
144.60148497271709
 30
0.0
 40
1.502776079999999
 50
194.75643000000039
 51
269.8775900000029
  0
LINE
  5
8806
  8
AM_0
 10
181.04830066047811
 20
157.87372497271761
 30
0.0
 11
186.50833066047829
 21
157.87372497271761
 31
0.0
  0
LINE
  5
8807
  8
AM_0
 10
169.0083006604782
 20
127.378739972717
 30
0.0
 11
169.0083006604782
 21
82.378739972717099
 31
0.0
  0
LINE
  5
8808
  8
AM_0
 10
166.90830066047829
 20
127.928992504411
 30
0.0
 11
166.90830066047829
 21
81.828487441023285
 31
0.0
  0
LINE
  5
8809
  8
AM_0
 10
84.008300660478199
 20
86.878739972717099
 30
0.0
 11
84.008300660478199
 21
76.878729972718219
 31
0.0
  0
LINE
  5
880A
  8
AM_0
 10
84.508300660477275
 20
72.378733972718351
 30
0.0
 11
84.508300660477275
 21
137.37872997271731
 31
0.0
  0
LINE
  5
880B
  8
AM_0
 10
156.05854519217201
 20
70.978731972716901
 30
0.0
 11
88.928280660478308
 21
70.978731972716901
 31
0.0
  0
LINE
  5
880C
  8
AM_0
 10
88.928280660478308
 20
70.978731972716901
 30
0.0
 11
88.928280660478308
 21
68.878740972716969
 31
0.0
  0
ARC
  5
880D
  8
AM_0
 10
88.000920660478187
 20
72.371386972717119
 30
0.0
 40
3.492651899999998
 50
179.8793300000022
 51
270.12067999999482
  0
ARC
  5
880E
  8
AM_0
 10
84.500980660478447
 20
76.871389972717097
 30
0.0
 40
0.4927000100000001
 50
179.14455999999711
 51
270.85543999998958
  0
ARC
  5
880F
  8
AM_0
 10
171.0083006604782
 20
82.378739972717099
 30
0.0
 40
2.0
 50
180.0
 51
270.0
  0
LINE
  5
8810
  8
AM_0
 10
166.49825015413941
 20
80.838537947361147
 30
0.0
 11
157.0484946858341
 21
71.388782479056317
 31
0.0
  0
LINE
  5
8811
  8
AM_0
 10
157.04850268583411
 20
71.388790479057548
 30
0.0
 11
166.49825015413941
 21
80.838537947361147
 31
0.0
  0
ARC
  5
8812
  8
AM_0
 10
156.05854519217201
 20
72.378731972717091
 30
0.0
 40
1.399999999999999
 50
270.0
 51
315.00000000000921
1001
GENIUS_GENODEF_13
1002
{
1000
HIER
1070
     0
1002
}
1002
{
1000
MANEDIT
1070
     0
1002
}
1002
{
1000
NOSEL
1070
     0
1002
}
1002
{
1000
BEHIND
1070
     0
1002
}
1002
{
1000
OTHER
1070
     0
1002
}
1002
{
1000
REACTOR
1002
}
1001
GENIUS_GENOBJ-N-FIL_13
1002
{
1000
OWNER
1000
GEN
1002
}
  0
ARC
  5
8813
  8
AM_0
 10
165.50830066047811
 20
81.828487441023285
 30
0.0
 40
1.4000000000006301
 50
314.99999999997232
 51
0.0
  0
ARC
  5
8814
  8
AM_0
 10
171.50830066047811
 20
70.878739972717099
 30
0.0
 40
2.0
 50
270.0
 51
0.0
  0
ARC
  5
8815
  8
AM_0
 10
171.50830066047811
 20
78.378739972717099
 30
0.0
 40
2.0
 50
0.0
 51
90.0
  0
LINE
  5
8816
  8
AM_0
 10
171.50830066047811
 20
80.378739972717085
 30
0.0
 11
171.0083006604782
 21
80.378739972717085
 31
0.0
  0
LINE
  5
8817
  8
AM_0
 10
173.50830066047811
 20
70.878739972717099
 30
0.0
 11
173.50830066047811
 21
78.378739972717099
 31
0.0
  0
LINE
  5
8818
  8
AM_0
 10
88.928280660478308
 20
138.77871997271731
 30
0.0
 11
156.0660364803534
 21
138.77871997271731
 31
0.0
  0
ARC
  5
8819
  8
AM_0
 10
84.508850660478416
 20
86.878189972718246
 30
0.0
 40
0.5005480100000002
 50
90.062622000000005
 51
179.9373699999839
  0
ARC
  5
881A
  8
AM_0
 10
84.508850660478416
 20
132.87818997271751
 30
0.0
 40
0.5005480100000002
 50
90.062622000000005
 51
179.9373699999839
  0
ARC
  5
881B
  8
AM_0
 10
84.500790660478273
 20
122.871229972717
 30
0.0
 40
0.49254802
 50
179.12656000000169
 51
270.8734499999884
  0
LINE
  5
881C
  8
AM_0
 10
84.008300660478199
 20
132.87872997271731
 30
0.0
 11
84.008300660478199
 21
122.878739972717
 31
0.0
  0
LINE
  5
881D
  8
AM_0
 10
88.928280660478308
 20
138.77871997271731
 30
0.0
 11
88.928280660478308
 21
140.873719972717
 31
0.0
  0
ARC
  5
881E
  8
AM_0
 10
88.008790660478553
 20
137.37823997271701
 30
0.0
 40
3.5005001999999981
 50
90.008164999989489
 51
179.99183999999781
  0
LINE
  5
881F
  8
AM_0
 10
171.0083006604782
 20
110.378739972717
 30
0.0
 11
169.0083006604782
 21
110.378739972717
 31
0.0
  0
LINE
  5
8820
  8
AM_0
 10
169.0083006604782
 20
99.378739972717995
 30
0.0
 11
171.0083006604782
 21
99.378739972717995
 31
0.0
  0
LINE
  5
8821
  8
AM_0
 10
171.0083006604782
 20
99.378739972717995
 30
0.0
 11
171.0083006604782
 21
110.378739972717
 31
0.0
  0
ARC
  5
8822
  8
AM_0
 10
171.0083006604782
 20
127.378739972717
 30
0.0
 40
2.0
 50
90.0
 51
180.0
  0
CIRCLE
  5
8823
  8
AM_0
 10
168.0083006604782
 20
135.878739972717
 30
0.0
 40
3.4999999999999631
  0
LINE
  5
8824
  8
AM_0
 10
157.04850268583411
 20
138.3686894663779
 30
0.0
 11
166.49825015413941
 21
128.91894199807339
 31
0.0
  0
LINE
  5
8825
  8
AM_0
 10
164.90830066047829
 20
130.5088914917331
 30
0.0
 11
166.49825015413941
 21
128.91894199807339
 31
0.0
  0
ARC
  5
8826
  8
AM_0
 10
165.50830066047811
 20
127.928992504411
 30
0.0
 40
1.400000000000118
 50
0.0
 51
45.000000000027619
  0
ARC
  5
8827
  8
AM_0
 10
156.05855319217099
 20
137.378739972717
 30
0.0
 40
1.40000000000077
 50
44.999999999981569
 51
89.999999999947889
  0
LINE
  5
8828
  8
AM_0
 10
173.50830066047811
 20
131.37873997271799
 30
0.0
 11
173.50830066047811
 21
138.878739972717
 31
0.0
  0
LINE
  5
8829
  8
AM_0
 10
173.50830066047811
 20
131.37873997271799
 30
0.0
 11
173.50830066047811
 21
138.878739972717
 31
0.0
  0
ARC
  5
882A
  8
AM_0
 10
171.50830066047811
 20
131.37873997271799
 30
0.0
 40
2.0
 50
270.0
 51
0.0
  0
LINE
  5
882B
  8
AM_0
 10
171.0083006604782
 20
129.378739972717
 30
0.0
 11
171.50830066047811
 21
129.378739972717
 31
0.0
  0
ARC
  5
882C
  8
AM_0
 10
171.50830066047811
 20
138.878739972717
 30
0.0
 40
2.0
 50
0.0
 51
90.0
  0
LINE
  5
882D
  8
AM_0
 10
165.36972897927109
 20
135.87873997271791
 30
0.0
 11
170.6468723416842
 21
135.87873997271791
 31
0.0
  0
LINE
  5
882E
  8
AM_0
 10
168.0083006604782
 20
138.517311653924
 30
0.0
 11
168.0083006604782
 21
133.24016829151009
 31
0.0
  0
CIRCLE
  5
882F
  8
AM_0
 10
168.0083006604782
 20
73.878739972717099
 30
0.0
 40
3.4999999999999631
  0
LINE
  5
8830
  8
AM_0
 10
165.36972897927109
 20
73.87873997271798
 30
0.0
 11
170.6468723416842
 21
73.87873997271798
 31
0.0
  0
LINE
  5
8831
  8
AM_0
 10
168.0083006604782
 20
76.517311653924011
 30
0.0
 11
168.0083006604782
 21
71.240168291511154
 31
0.0
  0
LINE
  5
8832
  8
AM_0
 10
179.84833066047841
 20
138.883760972717
 30
0.0
 11
173.50830066047811
 21
138.883760972717
 31
0.0
  0
LINE
  5
8864
  8
AM_0
 10
20.508310660478401
 20
73.208723972717948
 30
0.0
 11
20.508310660478401
 21
139.40870997271799
 31
0.0
  0
LINE
  5
8865
  8
AM_0
 10
23.008300660478199
 20
80.898728972718786
 30
0.0
 11
23.008300660478199
 21
161.8787549727179
 31
0.0
  0
LINE
  5
8866
  8
AM_0
 10
70.50832066047812
 20
161.8787549727179
 30
0.0
 11
70.50832066047812
 21
47.878736972718791
 31
0.0
  0
ARC
  5
8867
  8
AM_0
 10
14.21869066047838
 20
55.577681972717969
 30
0.0
 40
0.30119199
 50
5.914829799994032
 51
88.175987000006899
  0
ARC
  5
8868
  8
AM_0
 10
14.220160660478539
 20
55.576385972717972
 30
0.0
 40
0.8023920299999998
 50
5.8908349999922276
 51
89.417558000013059
  0
LINE
  5
8869
  8
AM_0
 10
14.00830066047819
 20
56.378723972718021
 30
0.0
 11
14.00830066047819
 21
55.878737972718341
 31
0.0
  0
LINE
  5
886A
  8
AM_0
 10
14.00830066047819
 20
56.378723972718021
 30
0.0
 11
14.228350660478551
 21
56.378723972718021
 31
0.0
  0
LINE
  5
886B
  8
AM_0
 10
29.58832066047853
 20
101.1587369727183
 30
0.0
 11
15.12832066047849
 21
56.648726972718109
 31
0.0
  0
LINE
  5
886C
  8
AM_0
 10
34.348270660478192
 20
99.61872897271904
 30
0.0
 11
19.888330660478449
 21
55.108733972718262
 31
0.0
  0
LINE
  5
886D
  8
AM_0
 10
23.008300660478199
 20
60.988724972718053
 30
0.0
 11
70.50832066047812
 21
60.988724972718053
 31
0.0
  0
LINE
  5
886E
  8
AM_0
 10
22.508320660478141
 20
47.878736972718791
 30
0.0
 11
70.50832066047812
 21
47.878736972718791
 31
0.0
  0
ARC
  5
886F
  8
AM_0
 10
17.508310660478401
 20
55.878737972718341
 30
0.0
 40
2.5014601500000002
 50
162.0720800000052
 51
342.07206999999983
  0
LINE
  5
8870
  8
AM_0
 10
20.508310660478401
 20
57.028730972718321
 30
0.0
 11
20.508310660478401
 21
49.878737972719698
 31
0.0
  0
ARC
  5
8871
  8
AM_0
 10
17.507260660478551
 20
55.877195972718241
 30
0.0
 40
3.001016099999998
 50
185.13260000000349
 51
0.0291460010064207
  0
ARC
  5
8872
  8
AM_0
 10
22.50604066047708
 20
49.876418972718739
 30
0.0
 40
1.9976960999999991
 50
179.9338299999965
 51
270.06617000000341
  0
ARC
  5
8873
  8
AM_0
 10
20.557030660478169
 20
67.378646972718798
 30
0.0
 40
4.0507442999999981
 50
99.071790999992402
 51
224.91233999999801
  0
LINE
  5
8874
  8
AM_0
 10
23.008300660478199
 20
64.718720972717961
 30
0.0
 11
23.008300660478199
 21
47.878736972718791
 31
0.0
  0
LINE
  5
8875
  8
AM_0
 10
65.508310660478401
 20
60.988724972718053
 30
0.0
 11
65.508310660478401
 21
47.878736972718791
 31
0.0
  0
ARC
  5
8876
  8
AM_0
 10
53.507830660477353
 20
104.87852697271821
 30
0.0
 40
8.000195699999999
 50
89.996300999984683
 51
161.78902999999599
  0
ARC
  5
8877
  8
AM_0
 10
53.505880660478411
 20
104.87629797271811
 30
0.0
 40
7.9975721999999978
 50
198.19734999999611
 51
270.0173099999991
  0
LINE
  5
8878
  8
AM_0
 10
38.158270660478131
 20
107.3787089727187
 30
0.0
 11
48.008320660477239
 21
107.3787089727187
 31
0.0
  0
LINE
  5
8879
  8
AM_0
 10
38.158270660478131
 20
102.3787409727187
 30
0.0
 11
48.008320660477239
 21
102.3787409727187
 31
0.0
  0
ARC
  5
887A
  8
AM_0
 10
38.15608066047843
 20
98.381639972717949
 30
0.0
 40
8.9970875999999986
 50
89.985775000011557
 51
162.0211999999924
  0
ARC
  5
887B
  8
AM_0
 10
38.151550660478271
 20
98.378342972719111
 30
0.0
 40
4.0003919999999971
 50
89.903055000004429
 51
161.93678999999389
  0
LINE
  5
887C
  8
ﾁｭｳｼﾝｾﾝ
 10
53.508310660478401
 20
90.168741972718024
 30
0.0
 11
53.508310660478401
 21
119.58873797271779
 31
0.0
  0
LINE
  5
887D
  8
AM_0
 10
53.508310660478401
 20
96.878708972718783
 30
0.0
 11
70.50832066047812
 21
96.878708972718783
 31
0.0
  0
LINE
  5
887E
  8
AM_0
 10
53.508310660478401
 20
112.8787409727187
 30
0.0
 11
70.50832066047812
 21
112.8787409727187
 31
0.0
  0
ARC
  5
887F
  8
AM_0
 10
53.508310660478401
 20
104.8767269727183
 30
0.0
 40
4.998440399999998
 50
23.61099900001097
 51
156.3889999999968
  0
ARC
  5
8880
  8
AM_0
 10
53.508310660478401
 20
104.8767269727183
 30
0.0
 40
4.9968401999999967
 50
203.56898000000169
 51
336.43101999999811
  0
LINE
  5
8881
  8
AM_0
 10
48.008320660477239
 20
106.87874097271791
 30
0.0
 11
59.008300660478199
 21
106.87874097271791
 31
0.0
  0
LINE
  5
8882
  8
AM_0
 10
48.008320660477239
 20
102.8787089727187
 30
0.0
 11
59.008300660478199
 21
102.8787089727187
 31
0.0
  0
LINE
  5
8883
  8
AM_0
 10
48.008320660477239
 20
102.3787409727187
 30
0.0
 11
48.008320660477239
 21
107.3787089727187
 31
0.0
  0
LINE
  5
8884
  8
AM_0
 10
61.508320660478141
 20
102.3787409727187
 30
0.0
 11
61.508320660478141
 21
107.3787089727187
 31
0.0
  0
LINE
  5
8885
  8
AM_0
 10
59.008300660478199
 20
102.3787409727187
 30
0.0
 11
59.008300660478199
 21
107.3787089727187
 31
0.0
  0
LINE
  5
8886
  8
AM_0
 10
59.008300660478199
 20
107.3787089727187
 30
0.0
 11
61.508320660478141
 21
107.3787089727187
 31
0.0
  0
LINE
  5
8887
  8
AM_0
 10
59.008300660478199
 20
102.3787409727187
 30
0.0
 11
61.508320660478141
 21
102.3787409727187
 31
0.0
  0
LINE
  5
8888
  8
AM_0
 10
23.008300660478199
 20
148.76872497271819
 30
0.0
 11
70.50832066047812
 21
148.76872497271819
 31
0.0
  0
LINE
  5
8889
  8
AM_0
 10
23.008300660478199
 20
138.5187239727187
 30
0.0
 11
65.508310660478401
 21
138.5187239727187
 31
0.0
  0
LINE
  5
888A
  8
AM_0
 10
22.508320660478141
 20
161.8787549727179
 30
0.0
 11
70.50832066047812
 21
161.8787549727179
 31
0.0
  0
LINE
  5
888B
  8
AM_0
 10
21.708310660478219
 20
139.16874897271899
 30
0.0
 11
21.708310660478219
 21
148.36873497271881
 31
0.0
  0
LINE
  5
888C
  8
AM_0
 10
18.408340660477279
 20
142.2687149727179
 30
0.0
 11
18.408340660477279
 21
145.26871497271799
 31
0.0
  0
LINE
  5
888D
  8
AM_0
 10
21.708310660478219
 20
139.16874897271899
 30
0.0
 11
23.008300660478199
 21
139.16874897271899
 31
0.0
  0
ARC
  5
888E
  8
AM_0
 10
21.403990660478481
 20
142.2688949727181
 30
0.0
 40
2.9956880400000001
 50
180.00364000000391
 51
275.83036999999598
  0
LINE
  5
888F
  8
AM_0
 10
20.508310660478401
 20
148.13872497271811
 30
0.0
 11
20.508310660478401
 21
159.87871497271809
 31
0.0
  0
LINE
  5
8890
  8
AM_0
 10
21.708310660478219
 20
148.36873497271881
 30
0.0
 11
23.008300660478199
 21
148.36873497271881
 31
0.0
  0
ARC
  5
8891
  8
AM_0
 10
21.409990660478339
 20
145.27192497271881
 30
0.0
 40
3.0016479
 50
84.295612999996621
 51
180.06134999999779
  0
ARC
  5
8892
  8
AM_0
 10
22.507810660478292
 20
159.87922497271799
 30
0.0
 40
1.9994960399999999
 50
89.985542999991381
 51
180.01446000000641
  0
LINE
  5
8893
  8
AM_0
 10
65.508310660478401
 20
112.8787409727187
 30
0.0
 11
65.508310660478401
 21
161.8787549727179
 31
0.0
  0
LINE
  5
8895
  8
ﾁｭｳｼﾝｾﾝ
 10
667.95087185457362
 20
104.87873997271799
 30
0.0
 11
815.57655290590924
 21
104.87873997271799
 31
0.0
  0
LINE
  5
8898
  8
ﾁｭｳｼﾝｾﾝ
 10
609.53470753285103
 20
303.10767568550551
 30
0.0
 11
633.57635515736797
 21
279.0660621895654
 31
0.0
  0
ARC
  5
8899
  8
ﾁｭｳｼﾝｾﾝ
 10
741.76371238024115
 20
170.87874497271719
 30
0.0
 40
170.00000499999999
 50
129.26802853718141
 51
140.731964313247
  0
LINE
  5
889A
  8
ﾁｭｳｼﾝｾﾝ
 10
609.53478166745288
 20
38.64974012532668
 30
0.0
 11
633.57639516339304
 21
62.691387749843521
 31
0.0
  0
ARC
  5
889B
  8
ﾁｭｳｼﾝｾﾝ
 10
741.76371238024115
 20
170.87874497271699
 30
0.0
 40
170.00000499999999
 50
219.26802853718141
 51
230.731964313247
  0
LINE
  5
889C
  8
ﾁｭｳｼﾝｾﾝ
 10
873.99271722763149
 20
38.649814259928363
 30
0.0
 11
849.95106960311477
 21
62.691427755868531
 31
0.0
  0
ARC
  5
889D
  8
ﾁｭｳｼﾝｾﾝ
 10
741.76371238024115
 20
170.87874497271679
 30
0.0
 40
170.00000499999999
 50
309.26802853718118
 51
320.73196431324692
  0
LINE
  5
8B33
  8
ﾁｭｳｼﾝｾﾝ
 10
9.5194606604770797
 20
535.08325924798623
 30
0.0
 11
533.522330660477
 21
535.08325924798623
 31
0.0
  0
LINE
  5
8B34
  8
AM_0
 10
194.50826066047711
 20
503.14331924798608
 30
0.0
 11
230.60067066047719
 21
503.14331924798608
 31
0.0
  0
LINE
  5
8B35
  8
AM_0
 10
194.50826066047711
 20
567.02319924798621
 30
0.0
 11
230.60067066047719
 21
567.02319924798621
 31
0.0
  0
LINE
  5
8B36
  8
AM_0
 10
246.93960066047731
 20
476.75226924798591
 30
0.0
 11
194.5083206604769
 21
478.58319924798622
 31
0.0
  0
LINE
  5
8B37
  8
AM_0
 10
194.5083206604769
 20
591.58325924798612
 30
0.0
 11
246.9396606604771
 21
593.41419924798629
 31
0.0
  0
LINE
  5
8B38
  8
AM_0
 10
194.50826066047711
 20
489.08325924798618
 30
0.0
 11
235.85104066047711
 21
489.08325924798618
 31
0.0
  0
LINE
  5
8B39
  8
AM_0
 10
194.50826066047711
 20
581.08325924798612
 30
0.0
 11
235.85104066047711
 21
581.08325924798612
 31
0.0
  0
LINE
  5
8B51
  8
AM_0
 10
194.50826066047711
 20
478.58325924798618
 30
0.0
 11
194.50826066047711
 21
591.58325924798612
 31
0.0
  0
POLYLINE
  5
8D17
  8
AM_0
 66
     1
 10
0.0
 20
0.0
 30
0.0
  0
VERTEX
  5
8D18
  8
AM_0
 10
406.87259066047721
 20
586.64774924798633
 30
0.0
 42
0.030646501
  0
VERTEX
  5
8D19
  8
AM_0
 10
402.46304066047702
 20
552.36434924798618
 30
0.0
 42
0.064801596
  0
VERTEX
  5
8D1A
  8
AM_0
 10
406.87259066047721
 20
483.5187392479861
 30
0.0
  0
SEQEND
  5
8D1B
  8
AM_0
  0
ARC
  5
8D1C
  8
AM_0
 10
220.50826066047711
 20
525.08325924798623
 30
0.0
 40
3.0
 50
180.00001000000091
 51
270.0
  0
ARC
  5
8D1D
  8
AM_0
 10
251.8110006604773
 20
519.08325924798623
 30
0.0
 40
3.0
 50
0.0
 51
90.00000299999769
  0
LINE
  5
8D1E
  8
AM_0
 10
450.0083206604773
 20
415.08325924798618
 30
0.0
 11
450.0083206604773
 21
655.08319924798639
 31
0.0
  0
LINE
  5
8D1F
  8
AM_0
 10
436.00832066047678
 20
424.12592924798599
 30
0.0
 11
436.00832066047678
 21
646.04053924798586
 31
0.0
  0
LINE
  5
8D20
  8
AM_0
 10
446.0083206604773
 20
392.58325924798618
 30
0.0
 11
446.0083206604773
 21
677.58319924798616
 31
0.0
  0
LINE
  5
8D21
  8
AM_0
 10
428.00839066047712
 20
396.09223924798619
 30
0.0
 11
428.00839066047712
 21
674.05762924798614
 31
0.0
  0
LINE
  5
8D22
  8
AM_0
 10
522.00836066047714
 20
514.08325924798623
 30
0.0
 11
522.00836066047714
 21
556.08325924798623
 31
0.0
  0
LINE
  5
8D23
  8
AM_0
 10
452.00839066047712
 20
512.58325924798623
 30
0.0
 11
452.00839066047712
 21
557.58325924798623
 31
0.0
  0
LINE
  5
8D24
  8
AM_0
 10
258.50826066047722
 20
465.79517924798608
 30
0.0
 11
258.50826066047722
 21
604.37122924798632
 31
0.0
  0
LINE
  5
8D26
  8
AM_0
 10
268.50826066047722
 20
461.5831992479861
 30
0.0
 11
268.50826066047722
 21
608.58325924798612
 31
0.0
  0
LINE
  5
8D27
  8
AM_0
 10
330.00839066047712
 20
395.3452292479862
 30
0.0
 11
330.00839066047712
 21
531.08319924798604
 31
0.0
  0
LINE
  5
8D28
  8
AM_0
 10
317.00826066047688
 20
398.87341924798631
 30
0.0
 11
317.00826066047688
 21
525.54382924798585
 31
0.0
  0
LINE
  5
8D29
  8
AM_0
 10
303.00839066047712
 20
420.97522924798619
 30
0.0
 11
303.00839066047712
 21
531.08319924798604
 31
0.0
  0
LINE
  5
8D2A
  8
AM_0
 10
330.00839066047712
 20
483.51868924798617
 30
0.0
 11
428.00839066047712
 21
483.51868924798617
 31
0.0
  0
LINE
  5
8D2B
  8
AM_0
 10
330.00839066047712
 20
457.51746924798618
 30
0.0
 11
381.80410066047688
 21
457.51746924798618
 31
0.0
  0
LINE
  5
8D2C
  8
AM_0
 10
330.00832066047712
 20
395.34528924798622
 30
0.0
 11
430.94192066047702
 21
393.10962924798622
 31
0.0
  0
LINE
  5
8D2D
  8
AM_0
 10
330.00839066047712
 20
405.95288924798609
 30
0.0
 11
428.00839066047712
 21
402.5306492479861
 31
0.0
  0
LINE
  5
8D2E
  8
AM_0
 10
268.50832066047678
 20
461.5831992479861
 30
0.0
 11
298.18289066047731
 21
460.54694924798622
 31
0.0
  0
LINE
  5
8D2F
  8
AM_0
 10
268.50839066047712
 20
495.60852924798633
 30
0.0
 11
303.00839066047712
 21
495.60852924798633
 31
0.0
  0
LINE
  5
8D30
  8
AM_0
 10
268.50839066047712
 20
473.50458924798608
 30
0.0
 11
303.00839066047712
 21
473.50458924798608
 31
0.0
  0
POLYLINE
  5
8D31
  8
AM_0
 66
     1
 10
0.0
 20
0.0
 30
0.0
  0
VERTEX
  5
8D32
  8
AM_0
 10
237.6280606604771
 20
489.66516924798628
 30
0.0
 42
0.011693535
  0
VERTEX
  5
8D33
  8
AM_0
 10
241.19095066047731
 20
485.16880924798602
 30
0.0
 42
0.011216789
  0
VERTEX
  5
8D34
  8
AM_0
 10
244.95582066047709
 20
480.84003924798623
 30
0.0
 42
0.011000239
  0
VERTEX
  5
8D35
  8
AM_0
 10
248.90792066047709
 20
476.68359924798631
 30
0.0
  0
SEQEND
  5
8D36
  8
AM_0
  0
LINE
  5
8D37
  8
AM_0
 10
220.50826066047711
 20
522.08325924798623
 30
0.0
 11
251.8110006604773
 21
522.08325924798623
 31
0.0
  0
ARC
  5
8D38
  8
AM_0
 10
235.85104066047711
 20
492.08325924798618
 30
0.0
 40
3.0
 50
269.999989999999
 51
35.575751000001212
  0
POLYLINE
  5
8D39
  8
AM_0
 66
     1
 10
0.0
 20
0.0
 30
0.0
  0
VERTEX
  5
8D3A
  8
AM_0
 10
221.4778806604773
 20
522.0835392479861
 30
0.0
  0
VERTEX
  5
8D3B
  8
AM_0
 10
228.90513066047711
 20
503.14413924798612
 30
0.0
 42
-1.0
  0
SEQEND
  5
8D3C
  8
AM_0
  0
ARC
  5
8D3D
  8
AM_0
 10
230.60067066047719
 20
500.14331924798631
 30
0.0
 40
3.0
 50
30.468076999999091
 51
90.00000299999769
  0
POLYLINE
  5
8D3E
  8
AM_0
 66
     1
 10
0.0
 20
0.0
 30
0.0
  0
VERTEX
  5
8D3F
  8
AM_0
 10
233.1863406604771
 20
501.6645092479863
 30
0.0
 42
0.0058779451
  0
VERTEX
  5
8D40
  8
AM_0
 10
234.3959606604773
 20
499.6629292479862
 30
0.0
 42
0.0056588807
  0
VERTEX
  5
8D41
  8
AM_0
 10
235.65144066047711
 20
497.689779247986
 30
0.0
 42
0.0054619285
  0
VERTEX
  5
8D42
  8
AM_0
 10
236.95047066047709
 20
495.745029247986
 30
0.0
 42
0.0052861386
  0
VERTEX
  5
8D43
  8
AM_0
 10
238.29100066047729
 20
493.82862924798633
 30
0.0
  0
SEQEND
  5
8D44
  8
AM_0
  0
LINE
  5
8D45
  8
AM_0
 10
262.3686806604772
 20
461.79767924798603
 30
0.0
 11
268.50832066047678
 21
461.58325924798618
 31
0.0
  0
LINE
  5
8D46
  8
AM_0
 10
258.50826066047722
 20
473.50458924798608
 30
0.0
 11
268.50826066047722
 21
473.50458924798608
 31
0.0
  0
LINE
  5
8D47
  8
AM_0
 10
257.0813206604771
 20
468.51019924798601
 30
0.0
 11
250.3006806604773
 21
475.29083924798618
 31
0.0
  0
ARC
  5
8D48
  8
AM_0
 10
253.54574066047709
 20
464.97467924798622
 30
0.0
 40
5.0
 50
5.2307202000000732
 51
44.999998000001611
  0
ARC
  5
8D49
  8
AM_0
 10
262.50826066047722
 20
465.79517924798608
 30
0.0
 40
4.0
 50
180.00001000000091
 51
267.99999999999631
  0
ARC
  5
8D4A
  8
AM_0
 10
246.76510066047729
 20
471.75537924798618
 30
0.0
 40
5.0
 50
44.999998000001611
 51
87.999999999996248
  0
LINE
  5
8D4B
  8
AM_0
 10
258.50826066047722
 20
495.60852924798633
 30
0.0
 11
268.50826066047722
 21
495.60852924798633
 31
0.0
  0
ARC
  5
8D4C
  8
AM_0
 10
298.00839066047712
 20
455.54999924798619
 30
0.0
 40
5.0
 50
0.0
 51
87.999999999996248
  0
LINE
  5
8D4D
  8
AM_0
 10
330.00839066047712
 20
395.3452292479862
 30
0.0
 11
319.85128066047707
 21
395.87756924798617
 31
0.0
  0
LINE
  5
8D4E
  8
AM_0
 10
318.93856066047721
 20
406.33948924798608
 30
0.0
 11
330.00839066047712
 21
405.95288924798609
 31
0.0
  0
ARC
  5
8D4F
  8
AM_0
 10
306.00839066047712
 20
420.95862924798632
 30
0.0
 40
3.0
 50
179.99998999999889
 51
260.00000000000131
  0
ARC
  5
8D50
  8
AM_0
 10
320.00826066047699
 20
398.87341924798631
 30
0.0
 40
3.0
 50
180.00001000000091
 51
266.9999900000002
  0
ARC
  5
8D51
  8
AM_0
 10
319.00839066047712
 20
408.33826924798632
 30
0.0
 40
2.0
 50
179.99998999999889
 51
268.00000999999861
  0
LINE
  5
8D52
  8
AM_0
 10
305.48739066047722
 20
418.00421924798621
 30
0.0
 11
314.52932066047708
 21
416.40985924798588
 31
0.0
  0
ARC
  5
8D53
  8
AM_0
 10
314.00839066047712
 20
413.45551924798622
 30
0.0
 40
3.0
 50
0.0
 51
79.999998000001099
  0
LINE
  5
8D54
  8
AM_0
 10
317.00826066047688
 20
483.51868924798617
 30
0.0
 11
330.00839066047712
 21
483.51868924798617
 31
0.0
  0
LINE
  5
8D55
  8
AM_0
 10
317.00826066047688
 20
457.51746924798618
 30
0.0
 11
330.00839066047712
 21
457.51746924798618
 31
0.0
  0
ARC
  5
8D56
  8
AM_0
 10
431.00832066047678
 20
396.10883924798628
 30
0.0
 40
3.0
 50
179.99998999999889
 51
268.00000999999861
  0
LINE
  5
8D57
  8
AM_0
 10
430.9036506604773
 20
393.11066924798632
 30
0.0
 11
446.0083206604773
 21
392.58319924798622
 31
0.0
  0
ARC
  5
8D58
  8
AM_0
 10
381.80410066047688
 20
454.51746924798618
 30
0.0
 40
3.0
 50
59.11902300000196
 51
90.00000299999769
  0
ARC
  5
8D59
  8
AM_0
 10
385.69589066047712
 20
459.1811592479861
 30
0.0
 40
3.0
 50
90.00000299999769
 51
239.11901999999981
  0
LINE
  5
8D5A
  8
AM_0
 10
425.8609906604774
 20
438.0795992479861
 30
0.0
 11
393.35818066047682
 21
457.51746924798618
 31
0.0
  0
LINE
  5
8D5B
  8
AM_0
 10
417.8769806604771
 20
462.18115924798587
 30
0.0
 11
428.00839066047712
 21
454.62305924798608
 31
0.0
  0
LINE
  5
8D5C
  8
AM_0
 10
425.57461066047722
 20
431.83661924798628
 30
0.0
 11
384.15609066047682
 21
456.60645924798632
 31
0.0
  0
POLYLINE
  5
8D5D
  8
AM_0
 66
     1
 10
0.0
 20
0.0
 30
0.0
  0
VERTEX
  5
8D5E
  8
AM_0
 10
420.34949066047722
 20
434.9612792479864
 30
0.0
 42
0.0052467293
  0
VERTEX
  5
8D5F
  8
AM_0
 10
422.76971066047719
 20
428.551449247986
 30
0.0
 42
0.0052066122
  0
VERTEX
  5
8D60
  8
AM_0
 10
425.3233806604772
 20
422.19361924798631
 30
0.0
 42
0.0051740405
  0
VERTEX
  5
8D61
  8
AM_0
 10
428.00839066047712
 20
415.89038924798598
 30
0.0
  0
SEQEND
  5
8D62
  8
AM_0
  0
ARC
  5
8D63
  8
AM_0
 10
431.00832066047678
 20
424.12592924798599
 30
0.0
 40
5.0
 50
267.99999999999631
 51
0.0
  0
ARC
  5
8D64
  8
AM_0
 10
423.00839066047712
 20
427.54541924798599
 30
0.0
 40
5.0
 50
0.0
 51
59.11901699999779
  0
LINE
  5
8D65
  8
AM_0
 10
385.69589066047712
 20
462.18115924798587
 30
0.0
 11
428.00839066047712
 21
462.18115924798587
 31
0.0
  0
ARC
  5
8D66
  8
AM_0
 10
433.008390660477
 20
468.94879924798619
 30
0.0
 40
5.0
 50
90.00000299999769
 51
180.00001000000091
  0
LINE
  5
8D67
  8
AM_0
 10
446.0083206604773
 20
415.08325924798618
 30
0.0
 11
450.0083206604773
 21
415.08325924798618
 31
0.0
  0
LINE
  5
8D68
  8
AM_0
 10
452.00839066047712
 20
514.08325924798623
 30
0.0
 11
522.00836066047714
 21
514.08325924798623
 31
0.0
  0
LINE
  5
8D69
  8
AM_0
 10
450.0083206604773
 20
512.58325924798623
 30
0.0
 11
452.00839066047712
 21
512.58325924798623
 31
0.0
  0
LINE
  5
8D6A
  8
AM_0
 10
330.00839066047712
 20
586.64777924798614
 30
0.0
 11
428.00839066047712
 21
586.64777924798614
 31
0.0
  0
LINE
  5
8D6B
  8
AM_0
 10
330.00839066047712
 20
664.21362924798609
 30
0.0
 11
428.00839066047712
 21
667.63580924798612
 31
0.0
  0
LINE
  5
8D6C
  8
AM_0
 10
330.00832066047712
 20
674.82117924798615
 30
0.0
 11
430.94192066047702
 21
677.05689924798605
 31
0.0
  0
LINE
  5
8D6D
  8
AM_0
 10
330.00839066047712
 20
612.64899924798613
 30
0.0
 11
381.80410066047688
 21
612.64899924798613
 31
0.0
  0
ARC
  5
8D6E
  8
AM_0
 10
306.00839066047712
 20
649.20776924798633
 30
0.0
 40
3.0
 50
99.999999999998593
 51
180.00001000000091
  0
LINE
  5
8D6F
  8
AM_0
 10
317.00826066047688
 20
544.62262924798608
 30
0.0
 11
317.00826066047688
 21
671.29297924798618
 31
0.0
  0
LINE
  5
8D70
  8
AM_0
 10
330.00839066047712
 20
539.08319924798593
 30
0.0
 11
330.00839066047712
 21
674.82117924798615
 31
0.0
  0
LINE
  5
8D71
  8
AM_0
 10
268.50839066047712
 20
608.58325924798612
 30
0.0
 11
298.18282066047709
 21
609.6195192479862
 31
0.0
  0
LINE
  5
8D72
  8
AM_0
 10
268.50839066047712
 20
574.55786924798633
 30
0.0
 11
303.00839066047712
 21
574.55786924798633
 31
0.0
  0
LINE
  5
8D73
  8
AM_0
 10
268.50839066047712
 20
596.66187924798612
 30
0.0
 11
303.00839066047712
 21
596.66187924798612
 31
0.0
  0
POLYLINE
  5
8D74
  8
AM_0
 66
     1
 10
0.0
 20
0.0
 30
0.0
  0
VERTEX
  5
8D75
  8
AM_0
 10
237.6280606604771
 20
580.50134924798613
 30
0.0
 42
-0.011693535
  0
VERTEX
  5
8D76
  8
AM_0
 10
241.19095066047731
 20
584.99771924798642
 30
0.0
 42
-0.011216789
  0
VERTEX
  5
8D77
  8
AM_0
 10
244.95582066047709
 20
589.32647924798607
 30
0.0
 42
-0.011000239
  0
VERTEX
  5
8D78
  8
AM_0
 10
248.90792066047709
 20
593.48291924798605
 30
0.0
  0
SEQEND
  5
8D79
  8
AM_0
  0
LINE
  5
8D7A
  8
AM_0
 10
220.50826066047711
 20
548.08325924798623
 30
0.0
 11
251.8110006604773
 21
548.08325924798623
 31
0.0
  0
POLYLINE
  5
8D7B
  8
AM_0
 66
     1
 10
0.0
 20
0.0
 30
0.0
  0
VERTEX
  5
8D7C
  8
AM_0
 10
221.4778806604773
 20
548.08298924798623
 30
0.0
  0
VERTEX
  5
8D7D
  8
AM_0
 10
228.90513066047711
 20
567.02238924798587
 30
0.0
 42
-1.0
  0
SEQEND
  5
8D7E
  8
AM_0
  0
LINE
  5
8D7F
  8
AM_0
 10
217.50826066047711
 20
525.08325924798623
 30
0.0
 11
217.50826066047711
 21
545.08325924798623
 31
0.0
  0
ARC
  5
8D80
  8
AM_0
 10
220.50826066047711
 20
545.08325924798623
 30
0.0
 40
3.0
 50
90.00000299999769
 51
180.00001000000091
  0
POLYLINE
  5
8D81
  8
AM_0
 66
     1
 10
0.0
 20
0.0
 30
0.0
  0
VERTEX
  5
8D82
  8
AM_0
 10
233.1863406604771
 20
568.5020192479866
 30
0.0
 42
-0.0058779451
  0
VERTEX
  5
8D83
  8
AM_0
 10
234.3959606604773
 20
570.50359924798613
 30
0.0
 42
-0.0056588807
  0
VERTEX
  5
8D84
  8
AM_0
 10
235.65144066047711
 20
572.47674924798628
 30
0.0
 42
-0.0054619285
  0
VERTEX
  5
8D85
  8
AM_0
 10
236.95047066047709
 20
574.42149924798639
 30
0.0
 42
-0.0052861386
  0
VERTEX
  5
8D86
  8
AM_0
 10
238.29100066047729
 20
576.33789924798634
 30
0.0
  0
SEQEND
  5
8D87
  8
AM_0
  0
ARC
  5
8D88
  8
AM_0
 10
230.60067066047719
 20
570.02319924798633
 30
0.0
 40
3.0
 50
269.999989999999
 51
329.53192000000132
  0
ARC
  5
8D89
  8
AM_0
 10
235.85104066047711
 20
578.08325924798601
 30
0.0
 40
3.0
 50
324.42424000000028
 51
90.00000299999769
  0
LINE
  5
8D8A
  8
AM_0
 10
254.8110006604773
 20
524.31476924798585
 30
0.0
 11
254.8110006604773
 21
546.31531924798628
 31
0.0
  0
ARC
  5
8D8B
  8
AM_0
 10
251.8110006604773
 20
551.08325924798623
 30
0.0
 40
3.0
 50
269.999989999999
 51
0.0000006832429909
  0
LINE
  5
8D8C
  8
AM_0
 10
258.50826066047722
 20
574.55786924798633
 30
0.0
 11
268.50826066047722
 21
574.55786924798633
 31
0.0
  0
LINE
  5
8D8D
  8
AM_0
 10
262.3687406604771
 20
608.368789247986
 30
0.0
 11
268.50832066047678
 21
608.58319924798604
 31
0.0
  0
LINE
  5
8D8E
  8
AM_0
 10
258.50826066047722
 20
596.66187924798612
 30
0.0
 11
268.50826066047722
 21
596.66187924798612
 31
0.0
  0
ARC
  5
8D8F
  8
AM_0
 10
253.54574066047709
 20
605.19177924798612
 30
0.0
 40
5.0
 50
315.0
 51
354.76905999999741
  0
LINE
  5
8D90
  8
AM_0
 10
250.3006806604773
 20
594.87561924798649
 30
0.0
 11
257.0813206604771
 21
601.65625924798599
 31
0.0
  0
ARC
  5
8D91
  8
AM_0
 10
246.76510066047729
 20
598.4111392479864
 30
0.0
 40
5.0
 50
272.00000000000369
 51
315.0
  0
ARC
  5
8D92
  8
AM_0
 10
262.50826066047722
 20
604.37122924798632
 30
0.0
 40
4.0
 50
91.999998000000545
 51
180.00001000000091
  0
LINE
  5
8D93
  8
AM_0
 10
303.00839066047712
 20
539.08319924798593
 30
0.0
 11
303.00839066047712
 21
649.22437924798612
 31
0.0
  0
ARC
  5
8D94
  8
AM_0
 10
314.00839066047712
 20
535.08325924798623
 30
0.0
 40
10.0
 50
203.5782699999985
 51
336.4217200000013
  0
ARC
  5
8D95
  8
AM_0
 10
314.00839066047712
 20
535.08325924798623
 30
0.0
 40
10.0
 50
23.57803699999776
 51
156.42196000000081
  0
LINE
  5
8D96
  8
AM_0
 10
297.50839066047712
 20
539.08319924798593
 30
0.0
 11
330.50839066047712
 21
539.08319924798593
 31
0.0
  0
LINE
  5
8D97
  8
AM_0
 10
297.50839066047712
 20
531.08319924798604
 30
0.0
 11
330.50839066047712
 21
531.08319924798604
 31
0.0
  0
LINE
  5
8D98
  8
AM_0
 10
317.00826066047688
 20
586.64777924798614
 30
0.0
 11
330.00839066047712
 21
586.64777924798614
 31
0.0
  0
ARC
  5
8D99
  8
AM_0
 10
297.50839066047712
 20
535.08319924798604
 30
0.0
 40
3.9999962
 50
90.00000299999769
 51
270.0
  0
ARC
  5
8D9A
  8
AM_0
 10
330.50839066047712
 20
535.08319924798604
 30
0.0
 40
3.9999962
 50
270.0
 51
90.00000299999769
  0
LINE
  5
8D9B
  8
AM_0
 10
317.00826066047688
 20
612.64899924798613
 30
0.0
 11
330.00839066047712
 21
612.64899924798613
 31
0.0
  0
ARC
  5
8D9C
  8
AM_0
 10
298.00839066047712
 20
614.6164692479864
 30
0.0
 40
5.0
 50
272.00000000000369
 51
0.0
  0
LINE
  5
8D9D
  8
AM_0
 10
330.00832066047712
 20
674.82117924798615
 30
0.0
 11
319.85128066047707
 21
674.28888924798639
 31
0.0
  0
LINE
  5
8D9E
  8
AM_0
 10
318.93862066047723
 20
663.82703924798614
 30
0.0
 11
330.00839066047712
 21
664.21362924798609
 31
0.0
  0
LINE
  5
8D9F
  8
AM_0
 10
305.48745066047718
 20
652.16223924798612
 30
0.0
 11
314.52932066047708
 21
653.75659924798606
 31
0.0
  0
ARC
  5
8DA0
  8
AM_0
 10
314.00839066047712
 20
656.71094924798615
 30
0.0
 40
3.0
 50
280.00001000000128
 51
0.0
  0
ARC
  5
8DA1
  8
AM_0
 10
319.00839066047712
 20
661.82819924798639
 30
0.0
 40
2.0
 50
91.999998000000545
 51
180.00001000000091
  0
ARC
  5
8DA2
  8
AM_0
 10
320.00826066047699
 20
671.29297924798618
 30
0.0
 40
3.0
 50
92.999999000001679
 51
180.00001000000091
  0
POLYLINE
  5
8DA3
  8
AM_0
 66
     1
 10
0.0
 20
0.0
 30
0.0
  0
VERTEX
  5
8DA4
  8
AM_0
 10
428.00839066047712
 20
654.27606924798613
 30
0.0
  0
VERTEX
  5
8DA5
  8
AM_0
 10
420.3495606604771
 20
635.20537924798612
 30
0.0
 42
-1.0
  0
SEQEND
  5
8DA6
  8
AM_0
  0
ARC
  5
8DA7
  8
AM_0
 10
431.00832066047678
 20
646.04053924798586
 30
0.0
 40
5.0
 50
0.0
 51
91.999998000000545
  0
LINE
  5
8DA8
  8
AM_0
 10
425.8609906604774
 20
632.08685924798613
 30
0.0
 11
393.35818066047682
 21
612.6490592479862
 31
0.0
  0
LINE
  5
8DA9
  8
AM_0
 10
425.57461066047722
 20
638.32984924798632
 30
0.0
 11
384.15609066047682
 21
613.56000924798582
 31
0.0
  0
LINE
  5
8DAA
  8
AM_0
 10
385.69589066047712
 20
607.9852992479864
 30
0.0
 11
428.00839066047712
 21
607.9852992479864
 31
0.0
  0
ARC
  5
8DAB
  8
AM_0
 10
381.80410066047688
 20
615.64899924798613
 30
0.0
 40
3.0
 50
270.0
 51
300.88098000000008
  0
ARC
  5
8DAC
  8
AM_0
 10
385.69589066047712
 20
610.98529924798606
 30
0.0
 40
3.0
 50
120.8809700000043
 51
270.0
  0
LINE
  5
8DAD
  8
AM_0
 10
417.8769806604771
 20
607.98535924798614
 30
0.0
 11
428.0083206604769
 21
615.54340924798612
 31
0.0
  0
ARC
  5
8DAE
  8
AM_0
 10
433.008390660477
 20
601.21765924798615
 30
0.0
 40
5.0
 50
179.99998999999889
 51
270.0
  0
ARC
  5
8DAF
  8
AM_0
 10
423.00839066047712
 20
642.62103924798612
 30
0.0
 40
5.0
 50
300.88098000000008
 51
0.0
  0
LINE
  5
8DB0
  8
AM_0
 10
466.00839066047712
 20
529.08319924798616
 30
0.0
 11
522.00836066047714
 21
529.08319924798616
 31
0.0
  0
LINE
  5
8DB1
  8
AM_0
 10
466.00839066047712
 20
541.08319924798616
 30
0.0
 11
522.00836066047714
 21
541.08319924798616
 31
0.0
  0
LINE
  5
8DB2
  8
AM_0
 10
452.00839066047712
 20
556.08325924798623
 30
0.0
 11
522.00836066047714
 21
556.08325924798623
 31
0.0
  0
ARC
  5
8DB3
  8
AM_0
 10
466.00839066047712
 20
535.08319924798604
 30
0.0
 40
6.0000037999999991
 50
90.00000299999769
 51
270.0
  0
LINE
  5
8DB4
  8
AM_0
 10
466.00839066047712
 20
541.08319924798616
 30
0.0
 11
466.00839066047712
 21
529.08319924798616
 31
0.0
  0
LINE
  5
8DB5
  8
AM_0
 10
450.0083206604773
 20
557.58325924798623
 30
0.0
 11
452.00839066047712
 21
557.58325924798623
 31
0.0
  0
LINE
  5
8DB6
  8
AM_0
 10
430.90359066047722
 20
677.05579924798633
 30
0.0
 11
446.0083206604773
 21
677.58325924798612
 31
0.0
  0
ARC
  5
8DB7
  8
AM_0
 10
431.00832066047678
 20
674.05762924798614
 30
0.0
 40
3.0
 50
91.999998000000545
 51
180.00001000000091
  0
LINE
  5
8DB8
  8
AM_0
 10
446.0083206604773
 20
655.08319924798639
 30
0.0
 11
450.0083206604773
 21
655.08319924798639
 31
0.0
  0
LINE
  5
8F83
  8
AM_0
 10
184.70827066047701
 20
574.42318924798587
 30
0.0
 11
180.56826066047711
 21
589.88320924798643
 31
0.0
  0
LINE
  5
8F84
  8
AM_0
 10
184.71398066047709
 20
577.25210924798637
 30
0.0
 11
180.56826066047711
 21
592.73324924798612
 31
0.0
  0
LINE
  5
8F85
  8
AM_0
 10
184.7140106604771
 20
580.01208924798618
 30
0.0
 11
180.568290660477
 21
595.49319924798624
 31
0.0
  0
LINE
  5
8F86
  8
AM_0
 10
184.71398066047709
 20
579.10208924798621
 30
0.0
 11
180.56826066047711
 21
594.58319924798604
 31
0.0
  0
LINE
  5
8F87
  8
AM_0
 10
78.508260660477148
 20
583.18328924798607
 30
0.0
 11
79.748250660477197
 21
589.74325924798643
 31
0.0
  0
LINE
  5
8F88
  8
AM_0
 10
78.508260660477148
 20
585.87326924798606
 30
0.0
 11
79.798240660477063
 21
594.36322924798606
 31
0.0
  0
LINE
  5
8F89
  8
AM_0
 10
78.508260660477148
 20
584.52328924798621
 30
0.0
 11
79.788230660477083
 21
592.5332392479861
 31
0.0
  0
LINE
  5
8F8A
  8
AM_0
 10
78.508260660477148
 20
585.87326924798606
 30
0.0
 11
79.818260660477122
 21
595.25329924798621
 31
0.0
  0
LINE
  5
8F8B
  8
AM_0
 10
65.508260660477148
 20
578.97424924798588
 30
0.0
 11
65.508260660477148
 21
587.83325924798601
 31
0.0
  0
ARC
  5
8F8C
  8
AM_0
 10
22.508260660477159
 20
585.83325924798601
 30
0.0
 40
2.0
 50
90.000049999998538
 51
180.00002000000191
  0
LINE
  5
8F8D
  8
AM_0
 10
20.006830560477049
 20
578.1267781522788
 30
0.0
 11
20.006830560477049
 21
590.08325924798601
 31
0.0
  0
LINE
  5
8F8E
  8
AM_0
 10
70.508260660477148
 20
593.83325924798623
 30
0.0
 11
70.508260660477148
 21
476.33325924798618
 31
0.0
  0
LINE
  5
8F8F
  8
AM_0
 10
78.508260660477148
 20
588.08325924798623
 30
0.0
 11
78.508260660477148
 21
482.08325924798618
 31
0.0
  0
LINE
  5
8F90
  8
AM_0
 10
15.00683056047705
 20
591.08325924798623
 30
0.0
 11
15.00683056047705
 21
479.08325924798618
 31
0.0
  0
LINE
  5
8F91
  8
AM_0
 10
23.008260660477159
 20
482.30126924798628
 30
0.0
 11
23.008260660477159
 21
587.83325924798601
 31
0.0
  0
LINE
  5
8F92
  8
AM_0
 10
186.50826066047691
 20
591.08325924798623
 30
0.0
 11
186.50826066047691
 21
479.08325924798618
 31
0.0
  0
LINE
  5
8F93
  8
AM_0
 10
70.508260660477148
 20
482.08325924798618
 30
0.0
 11
78.508260660477148
 21
482.08325924798618
 31
0.0
  0
LINE
  5
8F94
  8
AM_0
 10
18.408290660477061
 20
497.69226924798608
 30
0.0
 11
18.408290660477061
 21
494.69226924798602
 31
0.0
  0
LINE
  5
8F95
  8
AM_0
 10
21.708270660477059
 20
500.79223924798617
 30
0.0
 11
21.708270660477059
 21
491.592289247986
 31
0.0
  0
ARC
  5
8F96
  8
AM_0
 10
24.006830560477049
 20
479.08325924798618
 30
0.0
 40
9.0
 50
179.99997999999781
 51
269.99995000000138
  0
LINE
  5
8F97
  8
AM_0
 10
22.508260660477159
 20
482.33325924798618
 30
0.0
 11
70.508260660477148
 21
482.33325924798618
 31
0.0
  0
LINE
  5
8F98
  8
AM_0
 10
23.008260660477159
 20
491.19226924798602
 30
0.0
 11
65.508260660477148
 21
491.19226924798602
 31
0.0
  0
LINE
  5
8F99
  8
AM_0
 10
25.006830560477059
 20
475.08325924798618
 30
0.0
 11
48.508260660477148
 21
475.08325924798618
 31
0.0
  0
LINE
  5
8F9A
  8
AM_0
 10
45.508260660477141
 20
476.33325924798618
 30
0.0
 11
70.508260660477148
 21
476.33325924798618
 31
0.0
  0
LINE
  5
8F9B
  8
AM_0
 10
24.006830560477049
 20
470.08325924798618
 30
0.0
 11
61.508260660477148
 21
470.08325924798618
 31
0.0
  0
ARC
  5
8F9C
  8
AM_0
 10
25.006830560477059
 20
480.08325924798618
 30
0.0
 40
5.0
 50
179.99997999999781
 51
269.99995000000138
  0
LINE
  5
8F9D
  8
AM_0
 10
20.508260660477159
 20
491.83032924798619
 30
0.0
 11
20.508260660477159
 21
484.33325924798618
 31
0.0
  0
LINE
  5
8F9E
  8
AM_0
 10
20.006830560477049
 20
492.03974034369332
 30
0.0
 11
20.006830560477049
 21
480.08325924798618
 31
0.0
  0
ARC
  5
8F9F
  8
AM_0
 10
22.508260660477159
 20
484.33325924798618
 30
0.0
 40
2.0
 50
179.99997999999781
 51
269.99995000000138
  0
LINE
  5
8FA0
  8
AM_0
 10
21.708270660477059
 20
491.592289247986
 30
0.0
 11
23.008260660477159
 21
491.592289247986
 31
0.0
  0
ARC
  5
8FA1
  8
AM_0
 10
21.408290660477061
 20
494.69226924798602
 30
0.0
 40
3.0
 50
179.99997999999781
 51
269.99995000000138
  0
LINE
  5
8FA2
  8
AM_0
 10
21.408290660477061
 20
491.69226924798602
 30
0.0
 11
21.708270660477059
 21
491.69226924798602
 31
0.0
  0
LINE
  5
8FA3
  8
AM_0
 10
45.508260660477141
 20
476.33325924798618
 30
0.0
 11
45.508260660477141
 21
482.33325924798618
 31
0.0
  0
LINE
  5
8FA4
  8
AM_0
 10
48.508260660477148
 20
476.33325924798618
 30
0.0
 11
48.508260660477148
 21
470.08325924798618
 31
0.0
  0
LINE
  5
8FA5
  8
AM_0
 10
58.508260660477148
 20
476.33325924798618
 30
0.0
 11
58.508260660477148
 21
470.08325924798618
 31
0.0
  0
LINE
  5
8FA6
  8
AM_0
 10
61.508260660477148
 20
475.08325924798618
 30
0.0
 11
61.508260660477148
 21
470.08325924798618
 31
0.0
  0
LINE
  5
8FA7
  8
AM_0
 10
58.508260660477148
 20
475.08325924798618
 30
0.0
 11
61.508260660477148
 21
475.08325924798618
 31
0.0
  0
LINE
  5
8FA8
  8
AM_0
 10
65.508260660477148
 20
491.19226924798602
 30
0.0
 11
65.508260660477148
 21
482.33325924798618
 31
0.0
  0
LINE
  5
8FA9
  8
AM_0
 10
71.208270660477069
 20
491.8933192479862
 30
0.0
 11
77.438250660477152
 21
491.8933192479862
 31
0.0
  0
LINE
  5
8FAA
  8
AM_0
 10
15.00683056047705
 20
530.08325924798623
 30
0.0
 11
14.00829066047708
 21
530.08325924798623
 31
0.0
  0
LINE
  5
8FAB
  8
AM_0
 10
15.00683056047705
 20
540.08325924798623
 30
0.0
 11
14.00829066047708
 21
540.08325924798623
 31
0.0
  0
LINE
  5
8FAC
  8
AM_0
 10
14.00829066047708
 20
530.08325924798623
 30
0.0
 11
14.00829066047708
 21
540.08325924798623
 31
0.0
  0
LINE
  5
8FAD
  8
AM_0
 10
65.508260660477148
 20
497.8981992479861
 30
0.0
 11
65.508260660477148
 21
572.26928924798608
 31
0.0
  0
LINE
  5
8FAE
  8
AM_0
 10
20.508260660477159
 20
500.55419924798599
 30
0.0
 11
20.508260660477159
 21
569.61230924798633
 31
0.0
  0
LINE
  5
8FAF
  8
AM_0
 10
20.006830560477049
 20
569.82172034369341
 30
0.0
 11
20.006830560477049
 21
500.34479815227883
 31
0.0
  0
LINE
  5
8FB0
  8
AM_0
 10
23.008260660477159
 20
501.44226924798602
 30
0.0
 11
65.508260660477148
 21
501.44226924798602
 31
0.0
  0
LINE
  5
8FB1
  8
AM_0
 10
21.708270660477059
 20
500.79223924798617
 30
0.0
 11
23.008260660477159
 21
500.79223924798617
 31
0.0
  0
ARC
  5
8FB2
  8
AM_0
 10
21.408290660477061
 20
497.69226924798608
 30
0.0
 40
3.0
 50
89.999988999997569
 51
179.99997999999781
  0
LINE
  5
8FB3
  8
AM_0
 10
21.408290660477061
 20
500.69226924798602
 30
0.0
 11
21.708270660477059
 21
500.69226924798602
 31
0.0
  0
LINE
  5
8FB4
  8
AM_0
 10
20.508260660477159
 20
530.08325924798623
 30
0.0
 11
20.006830560477049
 21
530.08325924798623
 31
0.0
  0
LINE
  5
8FB5
  8
AM_0
 10
20.508260660477159
 20
540.08325924798623
 30
0.0
 11
20.006830560477049
 21
540.08325924798623
 31
0.0
  0
LINE
  5
8FB6
  8
AM_0
 10
23.008260660477159
 20
578.97424924798588
 30
0.0
 11
65.508260660477148
 21
578.97424924798588
 31
0.0
  0
LINE
  5
8FB7
  8
AM_0
 10
23.008260660477159
 20
568.72424924798622
 30
0.0
 11
65.508260660477148
 21
568.72424924798622
 31
0.0
  0
LINE
  5
8FB8
  8
AM_0
 10
18.408290660477061
 20
572.47424924798622
 30
0.0
 11
18.408290660477061
 21
575.47424924798611
 31
0.0
  0
LINE
  5
8FB9
  8
AM_0
 10
21.708270660477059
 20
569.37427924798612
 30
0.0
 11
21.708270660477059
 21
578.57422924798595
 31
0.0
  0
LINE
  5
8FBA
  8
AM_0
 10
21.708270660477059
 20
569.37427924798612
 30
0.0
 11
23.008260660477159
 21
569.37427924798612
 31
0.0
  0
ARC
  5
8FBB
  8
AM_0
 10
21.408290660477061
 20
572.47424924798622
 30
0.0
 40
3.0
 50
180.00002000000191
 51
270.00001100000242
  0
LINE
  5
8FBC
  8
AM_0
 10
21.408290660477061
 20
569.47424924798611
 30
0.0
 11
21.708270660477059
 21
569.47424924798611
 31
0.0
  0
LINE
  5
8FBD
  8
AM_0
 10
21.708270660477059
 20
578.57422924798595
 30
0.0
 11
23.008260660477159
 21
578.57422924798595
 31
0.0
  0
LINE
  5
8FBE
  8
AM_0
 10
20.508260660477159
 20
578.33618924798589
 30
0.0
 11
20.508260660477159
 21
585.83325924798601
 31
0.0
  0
ARC
  5
8FBF
  8
AM_0
 10
21.408290660477061
 20
575.47424924798611
 30
0.0
 40
3.0
 50
90.000049999998538
 51
180.00002000000191
  0
LINE
  5
8FC0
  8
AM_0
 10
21.408290660477061
 20
578.47424924798599
 30
0.0
 11
21.708270660477059
 21
578.47424924798599
 31
0.0
  0
LINE
  5
8FC1
  8
AM_0
 10
71.208270660477069
 20
578.2731992479861
 30
0.0
 11
77.438250660477152
 21
578.2731992479861
 31
0.0
  0
LINE
  5
8FC2
  8
AM_0
 10
83.868250660477202
 20
498.43325924798609
 30
0.0
 11
78.508260660477148
 21
486.99325924798609
 31
0.0
  0
LINE
  5
8FC3
  8
AM_0
 10
81.718280660477134
 20
478.80322924798611
 30
0.0
 11
178.63827066047699
 21
478.80322924798611
 31
0.0
  0
LINE
  5
8FC4
  8
AM_0
 10
141.01713118301009
 20
445.52619128438403
 30
0.0
 11
143.22048522848709
 21
445.90159891991721
 31
0.0
  0
LINE
  5
8FC5
  8
AM_0
 10
88.61042309205618
 20
435.58325924798618
 30
0.0
 11
164.91042309205599
 21
448.58325924798618
 31
0.0
  0
LINE
  5
8FC6
  8
AM_0
 10
88.61042309205618
 20
435.58325924798618
 30
0.0
 11
164.91042309205599
 21
448.58325924798618
 31
0.0
  0
LINE
  5
8FC7
  8
AM_0
 10
169.00826066047711
 20
468.08325924798618
 30
0.0
 11
102.00826066047711
 21
468.08325924798618
 31
0.0
  0
LINE
  5
8FC8
  8
AM_0
 10
154.41042309205599
 20
465.58325924798618
 30
0.0
 11
116.6104230920561
 21
465.58325924798618
 31
0.0
  0
LINE
  5
8FC9
  8
AM_0
 10
164.4104230920571
 20
431.58325924798618
 30
0.0
 11
88.936118228897129
 21
431.58325924798618
 31
0.0
  0
LINE
  5
8FCA
  8
AM_0
 10
165.236118228897
 20
444.58325924798618
 30
0.0
 11
88.936118228897129
 21
431.58325924798618
 31
0.0
  0
LINE
  5
8FCB
  8
AM_0
 10
110.41042309205611
 20
465.58325924798618
 30
0.0
 11
110.41042309205611
 21
448.58325924798618
 31
0.0
  0
LINE
  5
8FCC
  8
AM_0
 10
135.8137771375321
 20
460.58325924798618
 30
0.0
 11
135.8137771375321
 21
444.6396434129403
 31
0.0
  0
LINE
  5
8FCD
  8
AM_0
 10
137.3137771375321
 20
444.89521353089509
 30
0.0
 11
137.3137771375321
 21
460.58325924798618
 31
0.0
  0
LINE
  5
8FCE
  8
AM_0
 10
139.51713118301009
 20
460.58325924798618
 30
0.0
 11
139.51713118301009
 21
445.27062116642918
 31
0.0
  0
LINE
  5
8FCF
  8
AM_0
 10
141.01713118301009
 20
445.52619128438403
 30
0.0
 11
141.01713118301009
 21
460.58325924798618
 31
0.0
  0
LINE
  5
8FD0
  8
AM_0
 10
129.90706904657711
 20
443.63325802391722
 30
0.0
 11
129.90706904657711
 21
460.58325924798618
 31
0.0
  0
LINE
  5
8FD1
  8
AM_0
 10
132.11042309205499
 20
460.58325924798618
 30
0.0
 11
132.11042309205499
 21
444.0086656594512
 31
0.0
  0
LINE
  5
8FD2
  8
AM_0
 10
122.507069046577
 20
442.37244544200422
 30
0.0
 11
122.507069046577
 21
460.58325924798709
 31
0.0
  0
LINE
  5
8FD3
  8
AM_0
 10
124.707069046577
 20
460.58325924798618
 30
0.0
 11
124.707069046578
 21
442.74728161500519
 31
0.0
  0
LINE
  5
8FD4
  8
AM_0
 10
126.2070690465771
 20
443.00285173296129
 30
0.0
 11
126.2070690465771
 21
460.58325924798618
 31
0.0
  0
LINE
  5
8FD5
  8
AM_0
 10
128.40706904657711
 20
460.58325924798618
 30
0.0
 11
128.40706904657711
 21
443.3776879059622
 31
0.0
  0
LINE
  5
8FD6
  8
AM_0
 10
120.507069046577
 20
457.87188306878818
 30
0.0
 11
120.507069046577
 21
442.03168528473032
 31
0.0
  0
LINE
  5
8FD7
  8
AM_0
 10
134.110423092058
 20
444.3494258167251
 30
0.0
 11
134.110423092058
 21
457.87188306878818
 31
0.0
  0
LINE
  5
8FD8
  8
AM_0
 10
91.810423092055984
 20
465.58325924798618
 30
0.0
 11
91.810423092055984
 21
448.58325924798618
 31
0.0
  0
CIRCLE
  5
8FD9
  8
AM_0
 10
101.1104230920561
 20
448.58325924798618
 30
0.0
 40
6.299999999999998
  0
LINE
  5
8FDA
  8
AM_0
 10
86.010423092056016
 20
464.58325924798618
 30
0.0
 11
86.010423092056016
 21
441.58325924798629
 31
0.0
  0
LINE
  5
8FDB
  8
ﾁｭｳｼﾝｾﾝ
 10
101.1104230920561
 20
460.58327424798608
 30
0.0
 11
101.1104230920561
 21
436.58327424798608
 31
0.0
  0
ARC
  5
8FDC
  8
AM_0
 10
101.1104230920561
 20
448.58325924798618
 30
0.0
 40
9.3000000000000007
 50
180.0
 51
0.0
  0
LINE
  5
8FDD
  8
ﾁｭｳｼﾝｾﾝ
 10
89.110423092065503
 20
448.58325924798618
 30
0.0
 11
113.1104230920467
 21
448.58325924798618
 31
0.0
  0
LINE
  5
8FDE
  8
AM_0
 10
88.52899930784497
 20
436.58325924798618
 30
0.0
 11
120.507069046577
 21
442.03168528473032
 31
0.0
  0
LINE
  5
8FDF
  8
AM_0
 10
85.710423092056075
 20
441.38325924798721
 30
0.0
 11
85.910423092056121
 21
441.58325924798629
 31
0.0
  0
LINE
  5
8FE0
  8
AM_0
 10
84.510423092056016
 20
435.58325924798618
 30
0.0
 11
88.61042309205618
 21
435.58325924798618
 31
0.0
  0
LINE
  5
8FE1
  8
AM_0
 10
84.810423092055998
 20
435.58325924798618
 30
0.0
 11
88.61042309205618
 21
435.58325924798618
 31
0.0
  0
LINE
  5
8FE2
  8
AM_0
 10
88.52899930784497
 20
436.58325924798618
 30
0.0
 11
84.810423092055998
 21
436.58325924798618
 31
0.0
  0
ARC
  5
8FE3
  8
AM_0
 10
86.010423092056016
 20
433.08325924798629
 30
0.0
 40
1.5
 50
180.0
 51
270.0
  0
LINE
  5
8FE4
  8
AM_0
 10
84.510423092056016
 20
436.28325924798719
 30
0.0
 11
84.510423092056016
 21
435.58325924798618
 31
0.0
  0
LINE
  5
8FE5
  8
AM_0
 10
84.010423092057195
 20
440.28325924798719
 30
0.0
 11
84.010423092057195
 21
433.08325924798629
 31
0.0
  0
ARC
  5
8FE6
  8
AM_0
 10
84.810423092055998
 20
435.2832592479873
 30
0.0
 40
0.3
 50
90.0
 51
180.0
  0
LINE
  5
8FE7
  8
AM_0
 10
85.510423092057152
 20
431.58325924798618
 30
0.0
 11
85.808908988214185
 21
431.58325924798709
 31
0.0
  0
LINE
  5
8FE8
  8
AM_0
 10
84.510423092056016
 20
435.2832592479873
 30
0.0
 11
84.510423092056016
 21
433.08325924798629
 31
0.0
  0
ARC
  5
8FE9
  8
AM_0
 10
85.510423092057152
 20
433.08325924798743
 30
0.0
 40
1.5
 50
180.00000000000659
 51
269.99999999999341
  0
ARC
  5
8FEA
  8
AM_0
 10
84.310423092057135
 20
440.28325924798719
 30
0.0
 40
0.3
 50
90.0
 51
180.0
  0
LINE
  5
8FEB
  8
AM_0
 10
85.710423092056075
 20
438.77890192870223
 30
0.0
 11
85.710423092056075
 21
441.38325924798721
 31
0.0
  0
LINE
  5
8FEC
  8
AM_0
 10
85.710423092056075
 20
437.57890192870212
 30
0.0
 11
85.710423092056075
 21
438.77890192870223
 31
0.0
  0
LINE
  5
8FED
  8
AM_0
 10
85.710423092056075
 20
437.57890192870212
 30
0.0
 11
85.510423092056044
 21
437.57890192870212
 31
0.0
  0
LINE
  5
8FEE
  8
AM_0
 10
85.510423092056044
 20
438.77890192870223
 30
0.0
 11
85.710423092056075
 21
438.77890192870223
 31
0.0
  0
ARC
  5
8FEF
  8
AM_0
 10
85.210423092056104
 20
440.28325924798719
 30
0.0
 40
0.3
 50
0.0
 51
90.0
  0
LINE
  5
8FF0
  8
AM_0
 10
84.810423092055998
 20
440.58325924798618
 30
0.0
 11
84.310423092057135
 21
440.58325924798618
 31
0.0
  0
LINE
  5
8FF1
  8
AM_0
 10
85.210423092056104
 20
440.58325924798618
 30
0.0
 11
84.810423092055998
 21
440.58325924798618
 31
0.0
  0
ARC
  5
8FF2
  8
AM_0
 10
84.810423092055998
 20
436.28325924798719
 30
0.0
 40
0.3
 50
90.0
 51
180.0
  0
LINE
  5
8FF3
  8
AM_0
 10
85.510423092056044
 20
436.58325924798618
 30
0.0
 11
85.510423092056044
 21
440.28325924798719
 31
0.0
  0
LINE
  5
8FF4
  8
AM_0
 10
85.710423092056075
 20
436.58325924798618
 30
0.0
 11
85.710423092056075
 21
437.57890192870212
 31
0.0
  0
LINE
  5
8FF5
  8
AM_0
 10
86.010423092056016
 20
431.58325924798618
 30
0.0
 11
88.936118228897129
 21
431.58325924798618
 31
0.0
  0
LINE
  5
8FF6
  8
AM_0
 10
85.910423092056121
 20
441.58325924798629
 30
0.0
 11
86.010423092056016
 21
441.58325924798629
 31
0.0
  0
LINE
  5
8FF7
  8
AM_0
 10
86.010423092056016
 20
441.58325924798629
 30
0.0
 11
86.010423092055149
 21
436.58325924798618
 31
0.0
  0
CIRCLE
  5
8FF8
  8
AM_0
 10
115.6104230920561
 20
448.58325924798618
 30
0.0
 40
0.75
  0
LINE
  5
8FF9
  8
AM_0
 10
122.507069046577
 20
442.37244544200422
 30
0.0
 11
124.707069046578
 21
442.74728161500519
 31
0.0
  0
LINE
  5
8FFA
  8
AM_0
 10
126.2070690465771
 20
443.00285173296129
 30
0.0
 11
128.40706904657711
 21
443.3776879059622
 31
0.0
  0
LINE
  5
8FFB
  8
AM_0
 10
129.90706904657711
 20
443.63325802391722
 30
0.0
 11
132.11042309205499
 21
444.0086656594512
 31
0.0
  0
LINE
  5
8FFC
  8
AM_0
 10
137.3137771375321
 20
444.89521353089509
 30
0.0
 11
139.51713118301009
 21
445.27062116642918
 31
0.0
  0
LINE
  5
8FFD
  8
AM_0
 10
134.110423092058
 20
444.3494258167251
 30
0.0
 11
135.8137771375321
 21
444.6396434129403
 31
0.0
  0
LINE
  5
8FFE
  8
AM_0
 10
109.41042309205611
 20
465.58325924798618
 30
0.0
 11
110.41042309205611
 21
465.58325924798618
 31
0.0
  0
ARC
  5
8FFF
  8
AM_0
 10
103.8409108591439
 20
474.45324924798609
 30
0.0
 40
1.5
 50
1.499738863867264
 51
90.0
1001
GENIUS_GENODEF_13
1002
{
1000
HIER
1070
     0
1002
}
1002
{
1000
MANEDIT
1070
     0
1002
}
1002
{
1000
NOSEL
1070
     0
1002
}
1002
{
1000
BEHIND
1070
     0
1002
}
1002
{
1000
REACTOR
1002
}
1001
GENIUS_GENOBJ-N-FIL_13
1002
{
1000
OWNER
1000
GEN
1002
}
  0
LINE
  5
9000
  8
AM_0
 10
105.5082006604771
 20
468.0832292479862
 30
0.0
 11
105.2275364731381
 21
478.80322924798611
 31
0.0
  0
LINE
  5
9001
  8
AM_0
 10
91.810423092055984
 20
465.58325924798618
 30
0.0
 11
109.41042309205611
 21
465.58325924798618
 31
0.0
  0
ARC
  5
9002
  8
AM_0
 10
87.010423092056016
 20
464.58325924798618
 30
0.0
 40
1.0
 50
90.0
 51
180.0
  0
LINE
  5
9003
  8
AM_0
 10
87.010423092056016
 20
465.58325924798618
 30
0.0
 11
91.810423092055984
 21
465.58325924798618
 31
0.0
  0
LINE
  5
9004
  8
AM_0
 10
102.00826066047711
 20
465.58325924798618
 30
0.0
 11
102.00826066047711
 21
468.08325924798618
 31
0.0
  0
LINE
  5
9005
  8
AM_0
 10
81.414510660477134
 20
475.95324924798621
 30
0.0
 11
103.8409108591439
 21
475.95324924798621
 31
0.0
  0
LINE
  5
9006
  8
AM_0
 10
78.508260660477148
 20
486.99319924798618
 30
0.0
 11
79.748250660477197
 21
480.43319924798629
 31
0.0
  0
LINE
  5
9007
  8
AM_0
 10
78.508260660477148
 20
485.64318924798619
 30
0.0
 11
79.788230660477083
 21
477.6432492479862
 31
0.0
  0
LINE
  5
9008
  8
AM_0
 10
78.508260660477148
 20
484.30319924798602
 30
0.0
 11
79.51748066047719
 21
477.65316924798623
 31
0.0
  0
LINE
  5
9009
  8
AM_0
 10
78.508260660477148
 20
484.3032592479862
 30
0.0
 11
79.433740660477156
 21
477.67663924798632
 31
0.0
  0
ARC
  5
900A
  8
AM_0
 10
81.713100660477139
 20
480.80249924798619
 30
0.0
 40
1.9992490000000001
 50
190.643100000001
 51
270.14743000000129
  0
ARC
  5
900B
  8
AM_0
 10
81.764430660477146
 20
477.95361924798618
 30
0.0
 40
2.000420099999999
 50
188.9268200000015
 51
269.82270999999599
  0
ARC
  5
900C
  8
AM_0
 10
81.494890660477154
 20
477.95324924798609
 30
0.0
 40
2.0
 50
188.62962000000411
 51
269.999989999999
  0
ARC
  5
900D
  8
AM_0
 10
81.414510660477134
 20
477.95324924798609
 30
0.0
 40
2.0
 50
187.9504400000034
 51
269.999989999999
  0
LINE
  5
900E
  8
AM_0
 10
126.2070690465771
 20
456.58325924798618
 30
0.0
 11
124.707069046577
 21
456.58325924798618
 31
0.0
  0
LINE
  5
900F
  8
AM_0
 10
126.2070690465771
 20
460.58325924798618
 30
0.0
 11
124.707069046577
 21
460.58325924798618
 31
0.0
  0
LINE
  5
9010
  8
AM_0
 10
121.207069046577
 20
458.53923512539222
 30
0.0
 11
120.507069046577
 21
457.87188306878818
 31
0.0
  0
LINE
  5
9011
  8
AM_0
 10
122.507069046577
 20
456.58325924798618
 30
0.0
 11
120.507069046577
 21
456.58325924798618
 31
0.0
  0
LINE
  5
9012
  8
AM_0
 10
122.507069046577
 20
460.58325924798709
 30
0.0
 11
121.207069046577
 21
460.58325924798618
 31
0.0
  0
LINE
  5
9013
  8
AM_0
 10
121.207069046577
 20
460.58325924798618
 30
0.0
 11
121.207069046577
 21
458.53923512539222
 31
0.0
  0
LINE
  5
9014
  8
AM_0
 10
116.6104230920561
 20
465.58325924798618
 30
0.0
 11
110.41042309205611
 21
465.58325924798618
 31
0.0
  0
LINE
  5
9015
  8
AM_0
 10
134.110423092058
 20
456.58325924798618
 30
0.0
 11
132.11042309205499
 21
456.58325924798618
 31
0.0
  0
LINE
  5
9016
  8
AM_0
 10
134.110423092058
 20
457.87188306878818
 30
0.0
 11
133.410423092055
 21
458.53923512539222
 31
0.0
  0
LINE
  5
9017
  8
AM_0
 10
129.90706904657711
 20
456.58325924798618
 30
0.0
 11
128.40706904657711
 21
456.58325924798618
 31
0.0
  0
LINE
  5
9018
  8
AM_0
 10
129.90706904657711
 20
460.58325924798618
 30
0.0
 11
128.40706904657711
 21
460.58325924798618
 31
0.0
  0
LINE
  5
9019
  8
AM_0
 10
133.410423092055
 20
460.58325924798618
 30
0.0
 11
132.11042309205499
 21
460.58325924798618
 31
0.0
  0
LINE
  5
901A
  8
AM_0
 10
133.410423092055
 20
458.53923512539222
 30
0.0
 11
133.410423092055
 21
460.58325924798618
 31
0.0
  0
LINE
  5
901B
  8
AM_0
 10
137.3137771375321
 20
456.58325924798618
 30
0.0
 11
135.8137771375321
 21
456.58325924798618
 31
0.0
  0
LINE
  5
901C
  8
AM_0
 10
141.01713118301009
 20
456.58325924798618
 30
0.0
 11
139.51713118301009
 21
456.58325924798618
 31
0.0
  0
LINE
  5
901D
  8
AM_0
 10
137.3137771375321
 20
460.58325924798618
 30
0.0
 11
135.8137771375321
 21
460.58325924798618
 31
0.0
  0
LINE
  5
901E
  8
AM_0
 10
141.01713118301009
 20
460.58325924798618
 30
0.0
 11
139.51713118301009
 21
460.58325924798618
 31
0.0
  0
LINE
  5
901F
  8
AM_0
 10
158.28554935790311
 20
448.46838573095812
 30
0.0
 11
158.28554935790311
 21
465.58325924798618
 31
0.0
  0
LINE
  5
9020
  8
AM_0
 10
173.28554935790299
 20
448.58325924798618
 30
0.0
 11
173.28554935790299
 21
464.58325924798618
 31
0.0
  0
LINE
  5
9021
  8
AM_0
 10
146.92383927396401
 20
460.58325924798618
 30
0.0
 11
146.92383927396401
 21
446.5325766734062
 31
0.0
  0
LINE
  5
9022
  8
AM_0
 10
144.72048522848709
 20
446.15716903787308
 30
0.0
 11
144.72048522848709
 21
460.58325924798618
 31
0.0
  0
LINE
  5
9023
  8
AM_0
 10
148.42383927396401
 20
446.78814679136201
 30
0.0
 11
148.42383927396401
 21
460.58325924798618
 31
0.0
  0
LINE
  5
9024
  8
AM_0
 10
143.22048522848709
 20
460.58325924798618
 30
0.0
 11
143.22048522848709
 21
445.90159891991721
 31
0.0
  0
LINE
  5
9025
  8
AM_0
 10
148.42383927396401
 20
446.78814679136201
 30
0.0
 11
158.28554935790311
 21
448.46838573095812
 31
0.0
  0
LINE
  5
9026
  8
AM_0
 10
156.64057461107399
 20
431.58325924798618
 30
0.0
 11
156.64057461107399
 21
443.11874985045421
 31
0.0
  0
CIRCLE
  5
9027
  8
AM_0
 10
150.1104230920561
 20
448.58325924798618
 30
0.0
 40
0.75
  0
LINE
  5
9028
  8
AM_0
 10
144.72048522848709
 20
446.15716903787308
 30
0.0
 11
146.92383927396401
 21
446.5325766734062
 31
0.0
  0
LINE
  5
9029
  8
AM_0
 10
157.5104230920571
 20
443.26905402068911
 30
0.0
 11
157.5104230920571
 21
447.32244666607312
 31
0.0
  0
LINE
  5
902A
  8
AM_0
 10
166.9104230920571
 20
444.08325924798618
 30
0.0
 11
166.9104230920571
 21
434.08325924798618
 31
0.0
  0
ARC
  5
902B
  8
AM_0
 10
164.4104230920571
 20
434.08325924798618
 30
0.0
 40
2.5
 50
270.0
 51
0.0
  0
LINE
  5
902C
  8
AM_0
 10
173.28554935790299
 20
448.58325924798618
 30
0.0
 11
164.91042309205599
 21
448.58325924798618
 31
0.0
  0
LINE
  5
902D
  8
AM_0
 10
167.4104230920571
 20
444.58325924798618
 30
0.0
 11
165.236118228897
 21
444.58325924798618
 31
0.0
  0
LINE
  5
902E
  8
AM_0
 10
173.28554935790299
 20
448.58325924798618
 30
0.0
 11
173.28554935790299
 21
445.08325924798618
 31
0.0
  0
LINE
  5
902F
  8
AM_0
 10
167.4104230920571
 20
444.58325924798618
 30
0.0
 11
172.78554935790311
 21
444.58325924798618
 31
0.0
  0
ARC
  5
9030
  8
AM_0
 10
167.4104230920571
 20
444.08325924798618
 30
0.0
 40
0.5
 50
90.0
 51
180.0
  0
ARC
  5
9031
  8
AM_0
 10
172.78554935790311
 20
445.08325924798618
 30
0.0
 40
0.5
 50
270.0
 51
0.0
  0
LINE
  5
9032
  8
AM_0
 10
167.08734134626209
 20
472.58325924798618
 30
0.0
 11
178.5244406604771
 21
472.58325924798618
 31
0.0
  0
ARC
  5
9033
  8
AM_0
 10
172.28554935790311
 20
464.58325924798618
 30
0.0
 40
1.0
 50
0.0
 51
90.0
  0
LINE
  5
9034
  8
AM_0
 10
165.50826066047711
 20
468.0831992479861
 30
0.0
 11
165.78899978354031
 21
478.80322924798611
 31
0.0
  0
LINE
  5
9035
  8
AM_0
 10
161.6104230920561
 20
465.58325924798618
 30
0.0
 11
154.41042309205599
 21
465.58325924798618
 31
0.0
  0
LINE
  5
9036
  8
AM_0
 10
144.72048522848709
 20
456.58325924798618
 30
0.0
 11
143.22048522848709
 21
456.58325924798618
 31
0.0
  0
LINE
  5
9037
  8
AM_0
 10
148.42383927396401
 20
456.58325924798618
 30
0.0
 11
146.92383927396401
 21
456.58325924798618
 31
0.0
  0
LINE
  5
9038
  8
AM_0
 10
144.72048522848709
 20
460.58325924798618
 30
0.0
 11
143.22048522848709
 21
460.58325924798618
 31
0.0
  0
LINE
  5
9039
  8
AM_0
 10
148.42383927396401
 20
460.58325924798618
 30
0.0
 11
146.92383927396401
 21
460.58325924798618
 31
0.0
  0
ARC
  5
903A
  8
AM_0
 10
167.08734134626209
 20
471.08325924798618
 30
0.0
 40
1.5
 50
90.0
 51
178.4998650936468
1001
GENIUS_GENODEF_13
1002
{
1000
HIER
1070
     0
1002
}
1002
{
1000
MANEDIT
1070
     0
1002
}
1002
{
1000
NOSEL
1070
     0
1002
}
1002
{
1000
BEHIND
1070
     0
1002
}
1002
{
1000
REACTOR
1002
}
1001
GENIUS_GENOBJ-N-FIL_13
1002
{
1000
OWNER
1000
GEN
1002
}
  0
LINE
  5
903B
  8
AM_0
 10
172.28554935790311
 20
465.58325924798618
 30
0.0
 11
161.6104230920561
 21
465.58325924798618
 31
0.0
  0
LINE
  5
903C
  8
AM_0
 10
169.00826066047711
 20
465.58325924798618
 30
0.0
 11
169.00826066047711
 21
468.08325924798618
 31
0.0
  0
LINE
  5
903D
  8
AM_0
 10
185.50826066047711
 20
482.08322924798608
 30
0.0
 11
179.78246066047711
 21
473.2662692479862
 31
0.0
  0
ARC
  5
903E
  8
AM_0
 10
178.5244406604771
 20
474.08325924798618
 30
0.0
 40
1.5
 50
269.999989999999
 51
326.99999999999801
  0
LINE
  5
903F
  8
AM_0
 10
186.50826066047691
 20
489.08325924798618
 30
0.0
 11
194.50826066047711
 21
489.08325924798618
 31
0.0
  0
LINE
  5
9040
  8
AM_0
 10
186.50826066047691
 20
479.08325924798618
 30
0.0
 11
194.50826066047711
 21
479.08325924798618
 31
0.0
  0
LINE
  5
9041
  8
AM_0
 10
184.71395066047711
 20
495.76431924798618
 30
0.0
 11
180.56820066047709
 21
480.28320924798601
 31
0.0
  0
LINE
  5
9042
  8
AM_0
 10
181.05031066047709
 20
482.08325924798618
 30
0.0
 11
186.50826066047691
 21
482.08325924798618
 31
0.0
  0
ARC
  5
9043
  8
AM_0
 10
178.63344066047711
 20
480.80798924798609
 30
0.0
 40
2.0047290000000002
 50
270.13832000000423
 51
344.82650000000177
  0
ARC
  5
9044
  8
AM_0
 10
186.1614606604771
 20
495.36047924798601
 30
0.0
 40
1.502775999999999
 50
90.122413000001615
 51
165.2435700000006
  0
LINE
  5
9045
  8
AM_0
 10
80.188250660477166
 20
568.45324924798615
 30
0.0
 11
147.52828066047709
 21
568.45324924798615
 31
0.0
  0
LINE
  5
9046
  8
AM_0
 10
179.84829066047709
 20
571.08325924798623
 30
0.0
 11
80.868250660477216
 21
571.08325924798623
 31
0.0
  0
LINE
  5
9047
  8
AM_0
 10
179.84829066047709
 20
569.08325924798623
 30
0.0
 11
80.868250660477216
 21
569.08325924798623
 31
0.0
  0
LINE
  5
9048
  8
AM_0
 10
147.50826066047711
 20
561.08325924798623
 30
0.0
 11
80.868250660477216
 21
561.08325924798623
 31
0.0
  0
LINE
  5
9049
  8
AM_0
 10
179.84109066047711
 20
559.08325924798623
 30
0.0
 11
80.868250660477216
 21
559.08325924798623
 31
0.0
  0
LINE
  5
904A
  8
AM_0
 10
80.188250660477166
 20
571.80322924798634
 30
0.0
 11
183.3282706604769
 21
571.80322924798634
 31
0.0
  0
LINE
  5
904B
  8
AM_0
 10
79.968280660477149
 20
561.57324924798615
 30
0.0
 11
147.50826066047711
 21
561.57324924798615
 31
0.0
  0
LINE
  5
904C
  8
AM_0
 10
179.84829066047709
 20
501.08325924798618
 30
0.0
 11
135.50826066047699
 21
501.08325924798618
 31
0.0
  0
LINE
  5
904D
  8
AM_0
 10
179.84829066047709
 20
499.08325924798618
 30
0.0
 11
135.50826066047699
 21
499.08325924798618
 31
0.0
  0
LINE
  5
904E
  8
AM_0
 10
135.50826066047699
 20
498.36328924798602
 30
0.0
 11
183.3282706604769
 21
498.36328924798602
 31
0.0
  0
LINE
  5
904F
  8
AM_0
 10
79.968280660477149
 20
558.64331924798626
 30
0.0
 11
183.54250066047709
 21
558.64331924798626
 31
0.0
  0
LINE
  5
9050
  8
AM_0
 10
147.50826066047711
 20
509.08325924798618
 30
0.0
 11
80.868250660477216
 21
509.08325924798618
 31
0.0
  0
LINE
  5
9051
  8
AM_0
 10
80.188250660477166
 20
501.71325924798617
 30
0.0
 11
147.52828066047709
 21
501.71325924798617
 31
0.0
  0
LINE
  5
9052
  8
AM_0
 10
179.84109066047711
 20
511.08325924798618
 30
0.0
 11
80.868250660477216
 21
511.08325924798618
 31
0.0
  0
LINE
  5
9053
  8
AM_0
 10
79.968280660477149
 20
508.5932692479862
 30
0.0
 11
147.50826066047711
 21
508.5932692479862
 31
0.0
  0
LINE
  5
9054
  8
AM_0
 10
79.968280660477149
 20
511.52319924798621
 30
0.0
 11
183.54250066047709
 21
511.52319924798621
 31
0.0
  0
POLYLINE
  5
9055
  8
AM_0
 66
     1
 10
0.0
 20
0.0
 30
0.0
  0
VERTEX
  5
9056
  8
AM_0
 10
80.912310660477146
 20
541.35363924798605
 30
0.0
 42
-0.00076691992
  0
VERTEX
  5
9057
  8
AM_0
 10
80.927110660477069
 20
541.97140924798623
 30
0.0
 42
-0.00073262792
  0
VERTEX
  5
9058
  8
AM_0
 10
80.943750660477122
 20
542.58899924798629
 30
0.0
 42
-0.00076529537
  0
VERTEX
  5
9059
  8
AM_0
 10
80.96224066047705
 20
543.20666924798616
 30
0.0
 42
-0.00075141097
  0
VERTEX
  5
905A
  8
AM_0
 10
80.982610660477121
 20
543.82426924798597
 30
0.0
 42
-0.00075841687
  0
VERTEX
  5
905B
  8
AM_0
 10
81.004840660477157
 20
544.44169924798621
 30
0.0
 42
-0.00075711788
  0
VERTEX
  5
905C
  8
AM_0
 10
81.028950660477136
 20
545.05920924798625
 30
0.0
 42
-0.00075976003
  0
VERTEX
  5
905D
  8
AM_0
 10
81.054940660477087
 20
545.67659924798625
 30
0.0
 42
-0.00075797311
  0
VERTEX
  5
905E
  8
AM_0
 10
81.082780660477155
 20
546.2938792479863
 30
0.0
 42
-0.0007482613
  0
VERTEX
  5
905F
  8
AM_0
 10
81.112510660477142
 20
546.91125924798621
 30
0.0
 42
-0.00074893561
  0
VERTEX
  5
9060
  8
AM_0
 10
81.144070660477041
 20
547.5283892479863
 30
0.0
 42
-0.00076039839
  0
VERTEX
  5
9061
  8
AM_0
 10
81.177490660477119
 20
548.14541924798596
 30
0.0
 42
-0.00075618786
  0
VERTEX
  5
9062
  8
AM_0
 10
81.21279066047714
 20
548.76245924798616
 30
0.0
  0
SEQEND
  5
9063
  8
AM_0
  0
LINE
  5
9064
  8
AM_0
 10
114.9469806604771
 20
531.08325924798623
 30
0.0
 11
80.868250660477216
 21
531.08325924798623
 31
0.0
  0
LINE
  5
9065
  8
AM_0
 10
114.9469806604771
 20
529.08325924798623
 30
0.0
 11
80.868250660477216
 21
529.08325924798623
 31
0.0
  0
LINE
  5
9066
  8
AM_0
 10
79.778280660477094
 20
531.35327924798605
 30
0.0
 11
116.2269506604772
 21
531.35327924798605
 31
0.0
  0
LINE
  5
9067
  8
AM_0
 10
79.778280660477094
 20
528.81323924798608
 30
0.0
 11
116.2269506604772
 21
528.81323924798608
 31
0.0
  0
LINE
  5
9068
  8
AM_0
 10
114.9469806604771
 20
521.08325924798623
 30
0.0
 11
80.868250660477216
 21
521.08325924798623
 31
0.0
  0
LINE
  5
9069
  8
AM_0
 10
114.9469806604771
 20
519.08325924798623
 30
0.0
 11
80.868250660477216
 21
519.08325924798623
 31
0.0
  0
LINE
  5
906A
  8
AM_0
 10
79.838280660477153
 20
518.74328924798624
 30
0.0
 11
116.1795306604771
 21
518.74328924798624
 31
0.0
  0
LINE
  5
906B
  8
AM_0
 10
79.838280660477153
 20
521.40319924798632
 30
0.0
 11
116.1669506604771
 21
521.40319924798632
 31
0.0
  0
LINE
  5
906C
  8
AM_0
 10
114.9469806604771
 20
541.08325924798623
 30
0.0
 11
80.868250660477216
 21
541.08325924798623
 31
0.0
  0
LINE
  5
906D
  8
AM_0
 10
114.9469806604771
 20
539.08325924798623
 30
0.0
 11
80.868250660477216
 21
539.08325924798623
 31
0.0
  0
LINE
  5
906E
  8
AM_0
 10
79.778280660477094
 20
541.35327924798617
 30
0.0
 11
116.2269506604772
 21
541.35327924798617
 31
0.0
  0
LINE
  5
906F
  8
AM_0
 10
79.778280660477094
 20
538.82324924798615
 30
0.0
 11
116.2269506604772
 21
538.82324924798615
 31
0.0
  0
LINE
  5
9070
  8
AM_0
 10
80.188250660477166
 20
498.36328924798602
 30
0.0
 11
135.50826066047699
 21
498.36328924798602
 31
0.0
  0
LINE
  5
9071
  8
AM_0
 10
135.50826066047699
 20
501.08325924798618
 30
0.0
 11
80.868250660477216
 21
501.08325924798618
 31
0.0
  0
LINE
  5
9072
  8
AM_0
 10
135.50826066047699
 20
499.08325924798618
 30
0.0
 11
80.868250660477216
 21
499.08325924798618
 31
0.0
  0
ARC
  5
9073
  8
AM_0
 10
79.838280660477153
 20
520.07324924798615
 30
0.0
 40
1.3300049999999981
 50
90.00000299999769
 51
270.0
  0
ARC
  5
9074
  8
AM_0
 10
81.052880660477186
 20
520.08325924798623
 30
0.0
 40
1.000013899999999
 50
89.691659999999231
 51
270.30834000000078
  0
POLYLINE
  5
9075
  8
AM_0
 66
     1
 10
0.0
 20
0.0
 30
0.0
  0
VERTEX
  5
9076
  8
AM_0
 10
82.369160660477149
 20
508.6002192479861
 30
0.0
 42
0.00068900015
  0
VERTEX
  5
9077
  8
AM_0
 10
82.440040660477067
 20
508.02546924798611
 30
0.0
 42
0.00070644648
  0
VERTEX
  5
9078
  8
AM_0
 10
82.512540660477157
 20
507.45078924798622
 30
0.0
 42
0.00069245587
  0
VERTEX
  5
9079
  8
AM_0
 10
82.586630660477084
 20
506.87646924798622
 30
0.0
 42
0.00069587802
  0
VERTEX
  5
907A
  8
AM_0
 10
82.662310660477146
 20
506.30232924798611
 30
0.0
 42
0.00068980012
  0
VERTEX
  5
907B
  8
AM_0
 10
82.739610660477069
 20
505.72832924798621
 30
0.0
 42
0.00072079193
  0
VERTEX
  5
907C
  8
AM_0
 10
82.818500660477184
 20
505.15454924798632
 30
0.0
 42
0.00071003147
  0
VERTEX
  5
907D
  8
AM_0
 10
82.899040660477084
 20
504.58106924798619
 30
0.0
 42
0.00072658712
  0
VERTEX
  5
907E
  8
AM_0
 10
82.981200660477157
 20
504.00797924798621
 30
0.0
 42
0.00069571059
  0
VERTEX
  5
907F
  8
AM_0
 10
83.065020660477089
 20
503.43493924798622
 30
0.0
 42
0.0007126617
  0
VERTEX
  5
9080
  8
AM_0
 10
83.15045066047719
 20
502.86217924798621
 30
0.0
 42
0.00071614574
  0
VERTEX
  5
9081
  8
AM_0
 10
83.23748066047709
 20
502.28982924798629
 30
0.0
 42
0.00072290803
  0
VERTEX
  5
9082
  8
AM_0
 10
83.326190660477096
 20
501.71752924798619
 30
0.0
  0
SEQEND
  5
9083
  8
AM_0
  0
ARC
  5
9084
  8
AM_0
 10
80.181420660477102
 20
500.03820924798617
 30
0.0
 40
1.675014
 50
89.766498999996756
 51
270.2335099999994
  0
ARC
  5
9085
  8
AM_0
 10
81.052880660477186
 20
500.08325924798618
 30
0.0
 40
1.000013899999999
 50
89.691659999999231
 51
270.30834000000078
  0
POLYLINE
  5
9086
  8
AM_0
 66
     1
 10
0.0
 20
0.0
 30
0.0
  0
VERTEX
  5
9087
  8
AM_0
 10
81.386500660477154
 20
518.74267924798596
 30
0.0
 42
0.00073721992
  0
VERTEX
  5
9088
  8
AM_0
 10
81.430650660477085
 20
518.14026924798623
 30
0.0
 42
0.00074398496
  0
VERTEX
  5
9089
  8
AM_0
 10
81.476580660477083
 20
517.53799924798625
 30
0.0
 42
0.00073322625
  0
VERTEX
  5
908A
  8
AM_0
 10
81.524310660477084
 20
516.9356692479862
 30
0.0
 42
0.00073594289
  0
VERTEX
  5
908B
  8
AM_0
 10
81.57379066047713
 20
516.3336792479862
 30
0.0
 42
0.00074742568
  0
VERTEX
  5
908C
  8
AM_0
 10
81.625060660477175
 20
515.73181924798621
 30
0.0
 42
0.00073216749
  0
VERTEX
  5
908D
  8
AM_0
 10
81.678120660477134
 20
515.1300092479861
 30
0.0
 42
0.00074184065
  0
VERTEX
  5
908E
  8
AM_0
 10
81.732940660477084
 20
514.5284792479863
 30
0.0
 42
0.00072077528
  0
VERTEX
  5
908F
  8
AM_0
 10
81.789520660477109
 20
513.92724924798631
 30
0.0
 42
0.00074978179
  0
VERTEX
  5
9090
  8
AM_0
 10
81.847860660477053
 20
513.32604924798625
 30
0.0
 42
0.00074288888
  0
VERTEX
  5
9091
  8
AM_0
 10
81.908010660477089
 20
512.72502924798596
 30
0.0
 42
0.00072503679
  0
VERTEX
  5
9092
  8
AM_0
 10
81.969920660477115
 20
512.12428924798621
 30
0.0
 42
0.00074640584
  0
VERTEX
  5
9093
  8
AM_0
 10
82.033590660477074
 20
511.52368924798623
 30
0.0
  0
SEQEND
  5
9094
  8
AM_0
  0
ARC
  5
9095
  8
AM_0
 10
81.052880660477186
 20
510.08325924798618
 30
0.0
 40
1.000013899999999
 50
89.691659999999231
 51
270.30834000000078
  0
ARC
  5
9096
  8
AM_0
 10
79.968280660477149
 20
510.05822924798622
 30
0.0
 40
1.465004
 50
90.00000299999769
 51
270.0
  0
ARC
  5
9097
  8
AM_0
 10
81.052880660477186
 20
530.08325924798623
 30
0.0
 40
1.000013899999999
 50
89.691659999999231
 51
270.30834000000078
  0
ARC
  5
9098
  8
AM_0
 10
79.77242066047711
 20
530.08325924798623
 30
0.0
 40
1.2700129999999981
 50
89.736617000001615
 51
270.26336999999899
  0
POLYLINE
  5
9099
  8
AM_0
 66
     1
 10
0.0
 20
0.0
 30
0.0
  0
VERTEX
  5
909A
  8
AM_0
 10
80.912310660477146
 20
528.81286924798621
 30
0.0
 42
0.00076695235
  0
VERTEX
  5
909B
  8
AM_0
 10
80.927110660477069
 20
528.19510924798624
 30
0.0
 42
0.00073263043
  0
VERTEX
  5
909C
  8
AM_0
 10
80.943750660477122
 20
527.5775092479862
 30
0.0
 42
0.00076525988
  0
VERTEX
  5
909D
  8
AM_0
 10
80.96224066047705
 20
526.95983924798622
 30
0.0
 42
0.00075144488
  0
VERTEX
  5
909E
  8
AM_0
 10
80.982610660477121
 20
526.3422392479863
 30
0.0
 42
0.00076035096
  0
VERTEX
  5
909F
  8
AM_0
 10
81.004850660477146
 20
525.72480924798606
 30
0.0
 42
0.00075543154
  0
VERTEX
  5
90A0
  8
AM_0
 10
81.028950660477136
 20
525.10742924798615
 30
0.0
 42
0.0007577325
  0
VERTEX
  5
90A1
  8
AM_0
 10
81.054930660477126
 20
524.49002924798617
 30
0.0
 42
0.00076034585
  0
VERTEX
  5
90A2
  8
AM_0
 10
81.082780660477155
 20
523.87263924798594
 30
0.0
 42
0.00074823143
  0
VERTEX
  5
90A3
  8
AM_0
 10
81.112510660477142
 20
523.25524924798628
 30
0.0
 42
0.00074896605
  0
VERTEX
  5
90A4
  8
AM_0
 10
81.144070660477041
 20
522.6381192479862
 30
0.0
 42
0.00076039763
  0
VERTEX
  5
90A5
  8
AM_0
 10
81.177490660477119
 20
522.02108924798631
 30
0.0
 42
0.00075616127
  0
VERTEX
  5
90A6
  8
AM_0
 10
81.21279066047714
 20
521.4040592479862
 30
0.0
  0
SEQEND
  5
90A7
  8
AM_0
  0
POLYLINE
  5
90A8
  8
AM_0
 66
     1
 10
0.0
 20
0.0
 30
0.0
  0
VERTEX
  5
90A9
  8
AM_0
 10
80.868250660477216
 20
535.08325924798623
 30
0.0
 42
-0.00039106649
  0
VERTEX
  5
90AA
  8
AM_0
 10
80.865890660477135
 20
535.39438924798606
 30
0.0
 42
-0.00035488198
  0
VERTEX
  5
90AB
  8
AM_0
 10
80.864000660477146
 20
535.70549924798615
 30
0.0
 42
-0.00039706113
  0
VERTEX
  5
90AC
  8
AM_0
 10
80.86257066047709
 20
536.01660924798625
 30
0.0
 42
-0.00038765718
  0
VERTEX
  5
90AD
  8
AM_0
 10
80.861640660477065
 20
536.32774924798628
 30
0.0
 42
-0.00040613432
  0
VERTEX
  5
90AE
  8
AM_0
 10
80.861190660477064
 20
536.63884924798606
 30
0.0
 42
-0.00035573434
  0
VERTEX
  5
90AF
  8
AM_0
 10
80.86123066047719
 20
536.94995924798616
 30
0.0
 42
-0.00038545884
  0
VERTEX
  5
90B0
  8
AM_0
 10
80.861720660477076
 20
537.26108924798621
 30
0.0
 42
-0.00035501205
  0
VERTEX
  5
90B1
  8
AM_0
 10
80.862680660477153
 20
537.57219924798619
 30
0.0
 42
-0.00040120779
  0
VERTEX
  5
90B2
  8
AM_0
 10
80.864100660477106
 20
537.88342924798621
 30
0.0
 42
-0.00038317817
  0
VERTEX
  5
90B3
  8
AM_0
 10
80.866010660477187
 20
538.19455924798615
 30
0.0
 42
-0.00035656084
  0
VERTEX
  5
90B4
  8
AM_0
 10
80.868390660477075
 20
538.50579924798615
 30
0.0
 42
-0.00040143615
  0
VERTEX
  5
90B5
  8
AM_0
 10
80.871240660477156
 20
538.81689924798604
 30
0.0
  0
SEQEND
  5
90B6
  8
AM_0
  0
POLYLINE
  5
90B7
  8
AM_0
 66
     1
 10
0.0
 20
0.0
 30
0.0
  0
VERTEX
  5
90B8
  8
AM_0
 10
80.868250660477216
 20
535.08325924798623
 30
0.0
 42
0.00039106589
  0
VERTEX
  5
90B9
  8
AM_0
 10
80.865890660477135
 20
534.77211924798621
 30
0.0
 42
0.00035488584
  0
VERTEX
  5
90BA
  8
AM_0
 10
80.864000660477146
 20
534.46100924798623
 30
0.0
 42
0.00039705232
  0
VERTEX
  5
90BB
  8
AM_0
 10
80.86257066047709
 20
534.14990924798622
 30
0.0
 42
0.0003876649
  0
VERTEX
  5
90BC
  8
AM_0
 10
80.861640660477065
 20
533.83876924798608
 30
0.0
 42
0.00040613779
  0
VERTEX
  5
90BD
  8
AM_0
 10
80.861190660477064
 20
533.52765924798632
 30
0.0
 42
0.00035571855
  0
VERTEX
  5
90BE
  8
AM_0
 10
80.86123066047719
 20
533.2165592479862
 30
0.0
 42
0.00038547358
  0
VERTEX
  5
90BF
  8
AM_0
 10
80.861720660477076
 20
532.90541924798595
 30
0.0
 42
0.000355015
  0
VERTEX
  5
90C0
  8
AM_0
 10
80.862680660477153
 20
532.59431924798616
 30
0.0
 42
0.00040118616
  0
VERTEX
  5
90C1
  8
AM_0
 10
80.864100660477106
 20
532.28308924798625
 30
0.0
 42
0.00038319867
  0
VERTEX
  5
90C2
  8
AM_0
 10
80.866010660477187
 20
531.97194924798623
 30
0.0
 42
0.00035656356
  0
VERTEX
  5
90C3
  8
AM_0
 10
80.868390660477075
 20
531.66071924798621
 30
0.0
 42
0.00040140992
  0
VERTEX
  5
90C4
  8
AM_0
 10
80.871240660477156
 20
531.34960924798622
 30
0.0
  0
SEQEND
  5
90C5
  8
AM_0
  0
ARC
  5
90C6
  8
AM_0
 10
81.052880660477186
 20
540.08325924798623
 30
0.0
 40
1.000013899999999
 50
89.691659999999231
 51
270.30834000000078
  0
ARC
  5
90C7
  8
AM_0
 10
79.77242066047711
 20
540.08825924798623
 30
0.0
 40
1.2650129999999991
 50
89.735579000001778
 51
270.26441000000239
  0
ARC
  5
90C8
  8
AM_0
 10
114.9469806604771
 20
520.08325924798623
 30
0.0
 40
1.0000056999999991
 50
269.999989999999
 51
90.00000299999769
  0
ARC
  5
90C9
  8
AM_0
 10
116.17324066047701
 20
520.07324924798615
 30
0.0
 40
1.3300148000000001
 50
269.72941999999853
 51
90.270567000000995
  0
ARC
  5
90CA
  8
AM_0
 10
114.9469806604771
 20
530.08325924798623
 30
0.0
 40
1.0000056999999991
 50
269.999989999999
 51
90.00000299999769
  0
ARC
  5
90CB
  8
AM_0
 10
116.235190660477
 20
530.08325924798623
 30
0.0
 40
1.2700266
 50
269.62931999999989
 51
90.370670000004722
  0
ARC
  5
90CC
  8
AM_0
 10
116.235190660477
 20
540.09326924798609
 30
0.0
 40
1.2700266
 50
269.62931999999989
 51
90.370670000004722
  0
ARC
  5
90CD
  8
AM_0
 10
114.9469806604771
 20
540.08325924798623
 30
0.0
 40
1.0000056999999991
 50
269.999989999999
 51
90.00000299999769
  0
LINE
  5
90CE
  8
AM_0
 10
114.9469806604771
 20
551.08325924798623
 30
0.0
 11
80.868250660477216
 21
551.08325924798623
 31
0.0
  0
LINE
  5
90CF
  8
AM_0
 10
114.9469806604771
 20
549.08325924798623
 30
0.0
 11
80.868250660477216
 21
549.08325924798623
 31
0.0
  0
LINE
  5
90D0
  8
AM_0
 10
79.838280660477153
 20
551.42321924798625
 30
0.0
 11
116.1669506604771
 21
551.42321924798625
 31
0.0
  0
LINE
  5
90D1
  8
AM_0
 10
79.838280660477153
 20
548.76330924798594
 30
0.0
 11
116.1669506604771
 21
548.76330924798594
 31
0.0
  0
POLYLINE
  5
90D2
  8
AM_0
 66
     1
 10
0.0
 20
0.0
 30
0.0
  0
VERTEX
  5
90D3
  8
AM_0
 10
82.369160660477149
 20
561.56628924798611
 30
0.0
 42
-0.00068898288
  0
VERTEX
  5
90D4
  8
AM_0
 10
82.440040660477067
 20
562.1410392479861
 30
0.0
 42
-0.00070644354
  0
VERTEX
  5
90D5
  8
AM_0
 10
82.512540660477157
 20
562.71572924798625
 30
0.0
 42
-0.00069248071
  0
VERTEX
  5
90D6
  8
AM_0
 10
82.586630660477084
 20
563.29003924798621
 30
0.0
 42
-0.00069585665
  0
VERTEX
  5
90D7
  8
AM_0
 10
82.662310660477146
 20
563.86417924798604
 30
0.0
 42
-0.00068980191
  0
VERTEX
  5
90D8
  8
AM_0
 10
82.739610660477069
 20
564.43817924798623
 30
0.0
 42
-0.00072080104
  0
VERTEX
  5
90D9
  8
AM_0
 10
82.818500660477184
 20
565.01196924798614
 30
0.0
 42
-0.00071002307
  0
VERTEX
  5
90DA
  8
AM_0
 10
82.899040660477084
 20
565.58543924798607
 30
0.0
 42
-0.00072659056
  0
VERTEX
  5
90DB
  8
AM_0
 10
82.981200660477157
 20
566.15853924798625
 30
0.0
 42
-0.00069570481
  0
VERTEX
  5
90DC
  8
AM_0
 10
83.065020660477089
 20
566.73156924798627
 30
0.0
 42
-0.00071266935
  0
VERTEX
  5
90DD
  8
AM_0
 10
83.15045066047719
 20
567.30433924798615
 30
0.0
 42
-0.00071614426
  0
VERTEX
  5
90DE
  8
AM_0
 10
83.23748066047709
 20
567.87667924798598
 30
0.0
 42
-0.00072288975
  0
VERTEX
  5
90DF
  8
AM_0
 10
83.326190660477096
 20
568.44897924798624
 30
0.0
  0
SEQEND
  5
90E0
  8
AM_0
  0
POLYLINE
  5
90E1
  8
AM_0
 66
     1
 10
0.0
 20
0.0
 30
0.0
  0
VERTEX
  5
90E2
  8
AM_0
 10
81.386500660477154
 20
551.4238292479863
 30
0.0
 42
-0.0007337051
  0
VERTEX
  5
90E3
  8
AM_0
 10
81.430640660477124
 20
552.02624924798624
 30
0.0
 42
-0.00075211323
  0
VERTEX
  5
90E4
  8
AM_0
 10
81.476580660477083
 20
552.62863924798592
 30
0.0
 42
-0.0007297491
  0
VERTEX
  5
90E5
  8
AM_0
 10
81.524310660477084
 20
553.2308392479863
 30
0.0
 42
-0.00073593041
  0
VERTEX
  5
90E6
  8
AM_0
 10
81.57379066047713
 20
553.83282924798596
 30
0.0
 42
-0.00074742739
  0
VERTEX
  5
90E7
  8
AM_0
 10
81.625060660477175
 20
554.43469924798615
 30
0.0
 42
-0.00073217363
  0
VERTEX
  5
90E8
  8
AM_0
 10
81.678120660477134
 20
555.03649924798606
 30
0.0
 42
-0.00073754168
  0
VERTEX
  5
90E9
  8
AM_0
 10
81.732940660477084
 20
555.63803924798594
 30
0.0
 42
-0.00073075073
  0
VERTEX
  5
90EA
  8
AM_0
 10
81.789520660477109
 20
556.23939924798606
 30
0.0
 42
-0.00074550816
  0
VERTEX
  5
90EB
  8
AM_0
 10
81.847860660477053
 20
556.84045924798625
 30
0.0
 42
-0.00074288416
  0
VERTEX
  5
90EC
  8
AM_0
 10
81.908010660477089
 20
557.44147924798631
 30
0.0
 42
-0.00072504001
  0
VERTEX
  5
90ED
  8
AM_0
 10
81.969920660477115
 20
558.04222924798626
 30
0.0
 42
-0.00074640667
  0
VERTEX
  5
90EE
  8
AM_0
 10
82.033590660477074
 20
558.64282924798624
 30
0.0
  0
SEQEND
  5
90EF
  8
AM_0
  0
ARC
  5
90F0
  8
AM_0
 10
81.052880660477186
 20
550.08325924798623
 30
0.0
 40
1.000013899999999
 50
89.691659999999231
 51
270.30834000000078
  0
ARC
  5
90F1
  8
AM_0
 10
79.838280660477153
 20
550.0932692479862
 30
0.0
 40
1.3300049999999981
 50
90.00000299999769
 51
270.0
  0
ARC
  5
90F2
  8
AM_0
 10
81.052880660477186
 20
560.08325924798623
 30
0.0
 40
1.000013899999999
 50
89.691659999999231
 51
270.30834000000078
  0
ARC
  5
90F3
  8
AM_0
 10
79.968280660477149
 20
560.10827924798616
 30
0.0
 40
1.465004
 50
90.00000299999769
 51
270.0
  0
LINE
  5
90F4
  8
AM_0
 10
83.868250660477202
 20
571.73324924798612
 30
0.0
 11
78.508260660477148
 21
583.18322924798622
 31
0.0
  0
ARC
  5
90F5
  8
AM_0
 10
80.180870660477126
 20
570.12829924798598
 30
0.0
 40
1.6750160000000001
 50
89.746145000004447
 51
270.25387000000092
  0
ARC
  5
90F6
  8
AM_0
 10
81.052880660477186
 20
570.08325924798623
 30
0.0
 40
1.000013899999999
 50
89.691659999999231
 51
270.30834000000078
  0
ARC
  5
90F7
  8
AM_0
 10
114.9469806604771
 20
550.08325924798623
 30
0.0
 40
1.0000056999999991
 50
269.999989999999
 51
90.00000299999769
  0
ARC
  5
90F8
  8
AM_0
 10
116.17324066047701
 20
550.0982692479862
 30
0.0
 40
1.3350147999999991
 50
269.73042999999973
 51
90.269556000001344
  0
LINE
  5
90F9
  8
AM_0
 10
183.3282706604769
 20
501.71325924798617
 30
0.0
 11
165.48824066047709
 21
501.71325924798617
 31
0.0
  0
LINE
  5
90FA
  8
AM_0
 10
179.84109066047711
 20
509.08325924798618
 30
0.0
 11
165.50826066047711
 21
509.08325924798618
 31
0.0
  0
LINE
  5
90FB
  8
AM_0
 10
165.50826066047711
 20
508.60327924798599
 30
0.0
 11
183.54250066047709
 21
508.60327924798599
 31
0.0
  0
ARC
  5
90FC
  8
AM_0
 10
147.50826066047711
 20
507.58325924798618
 30
0.0
 40
1.02
 50
0.0
 51
90.00000299999769
  0
ARC
  5
90FD
  8
AM_0
 10
147.50826066047711
 20
507.58325924798618
 30
0.0
 40
1.5
 50
0.0
 51
90.00000299999769
  0
ARC
  5
90FE
  8
AM_0
 10
147.52828066047709
 20
502.7232692479862
 30
0.0
 40
1.0
 50
269.999989999999
 51
0.0000006832495047
  0
LINE
  5
90FF
  8
AM_0
 10
149.00826066047699
 20
507.58325924798618
 30
0.0
 11
149.00826066047699
 21
502.58325924798618
 31
0.0
  0
ARC
  5
9100
  8
AM_0
 10
147.50826066047711
 20
502.58325924798618
 30
0.0
 40
1.5
 50
269.999989999999
 51
0.0000006832495047
  0
LINE
  5
9101
  8
AM_0
 10
148.52828066047709
 20
507.58325924798618
 30
0.0
 11
148.52828066047709
 21
502.7232692479862
 31
0.0
  0
CIRCLE
  5
9102
  8
AM_0
 10
154.00826066047699
 20
506.58325924798618
 30
0.0
 40
1.149999999999999
  0
CIRCLE
  5
9103
  8
AM_0
 10
154.00826066047699
 20
506.58325924798618
 30
0.0
 40
1.1000000000000001
  0
ARC
  5
9104
  8
AM_0
 10
165.50826066047711
 20
507.58325924798618
 30
0.0
 40
1.02
 50
90.00000299999769
 51
180.00001000000091
  0
ARC
  5
9105
  8
AM_0
 10
165.50826066047711
 20
507.58325924798618
 30
0.0
 40
1.5
 50
90.00000299999769
 51
180.00001000000091
  0
ARC
  5
9106
  8
AM_0
 10
165.50826066047711
 20
502.58325924798618
 30
0.0
 40
1.5
 50
179.99998999999889
 51
270.0
  0
ARC
  5
9107
  8
AM_0
 10
165.48824066047709
 20
502.7232692479862
 30
0.0
 40
1.0
 50
179.99998999999889
 51
270.0
  0
LINE
  5
9108
  8
AM_0
 10
164.00826066047711
 20
507.58325924798618
 30
0.0
 11
164.00826066047711
 21
502.58325924798618
 31
0.0
  0
CIRCLE
  5
9109
  8
AM_0
 10
159.00826066047711
 20
506.58325924798618
 30
0.0
 40
1.0
  0
LINE
  5
910A
  8
AM_0
 10
164.48824066047709
 20
507.58325924798618
 30
0.0
 11
164.48824066047709
 21
502.7232692479862
 31
0.0
  0
LINE
  5
910B
  8
AM_0
 10
186.50826066047691
 20
503.1433192479862
 30
0.0
 11
194.50826066047711
 21
503.1433192479862
 31
0.0
  0
ARC
  5
910C
  8
AM_0
 10
179.84829066047709
 20
500.08325924798618
 30
0.0
 40
1.0
 50
269.999989999999
 51
90.00000299999769
  0
ARC
  5
910D
  8
AM_0
 10
183.3282706604769
 20
500.03820924798617
 30
0.0
 40
1.6750020000000001
 50
269.999989999999
 51
90.00000299999769
  0
ARC
  5
910E
  8
AM_0
 10
179.8482306604771
 20
510.08325924798618
 30
0.0
 40
1.0000255999999981
 50
269.58947000000319
 51
90.410530999997775
  0
ARC
  5
910F
  8
AM_0
 10
183.54824066047709
 20
510.05322924798611
 30
0.0
 40
1.460011199999999
 50
269.77524999999662
 51
90.224749999996845
  0
LINE
  5
9110
  8
AM_0
 10
165.48824066047709
 20
568.44323924798618
 30
0.0
 11
183.3282706604769
 21
568.44323924798618
 31
0.0
  0
LINE
  5
9111
  8
AM_0
 10
179.85543066047711
 20
561.08325924798623
 30
0.0
 11
165.50826066047711
 21
561.08325924798623
 31
0.0
  0
LINE
  5
9112
  8
AM_0
 10
165.50826066047711
 20
561.57324924798615
 30
0.0
 11
183.5539206604771
 21
561.57324924798615
 31
0.0
  0
CIRCLE
  5
9113
  8
AM_0
 10
159.00826066047711
 20
563.58325924798623
 30
0.0
 40
1.0
  0
LINE
  5
9114
  8
AM_0
 10
164.48824066047709
 20
562.58325924798623
 30
0.0
 11
164.48824066047709
 21
567.44323924798618
 31
0.0
  0
LINE
  5
9115
  8
AM_0
 10
164.00826066047711
 20
562.58325924798623
 30
0.0
 11
164.00826066047711
 21
567.58325924798623
 31
0.0
  0
CIRCLE
  5
9116
  8
AM_0
 10
154.00826066047699
 20
563.58325924798623
 30
0.0
 40
1.1000000000000001
  0
CIRCLE
  5
9117
  8
AM_0
 10
154.00826066047699
 20
563.58325924798623
 30
0.0
 40
1.149999999999999
  0
LINE
  5
9118
  8
AM_0
 10
149.00826066047699
 20
562.58325924798623
 30
0.0
 11
149.00826066047699
 21
567.58325924798623
 31
0.0
  0
LINE
  5
9119
  8
AM_0
 10
148.52828066047709
 20
562.58325924798623
 30
0.0
 11
148.52828066047709
 21
567.44323924798618
 31
0.0
  0
ARC
  5
911A
  8
AM_0
 10
147.50826066047711
 20
562.58325924798623
 30
0.0
 40
1.5
 50
269.999989999999
 51
0.0000006832495047
  0
ARC
  5
911B
  8
AM_0
 10
147.50826066047711
 20
562.58325924798623
 30
0.0
 40
1.02
 50
269.999989999999
 51
0.0000006832429909
  0
ARC
  5
911C
  8
AM_0
 10
165.50826066047711
 20
562.58325924798623
 30
0.0
 40
1.02
 50
179.99998999999889
 51
270.0
  0
ARC
  5
911D
  8
AM_0
 10
165.50826066047711
 20
562.58325924798623
 30
0.0
 40
1.5
 50
179.99998999999889
 51
270.0
  0
ARC
  5
911E
  8
AM_0
 10
147.50826066047711
 20
567.58325924798623
 30
0.0
 40
1.5
 50
0.0
 51
90.00000299999769
  0
ARC
  5
911F
  8
AM_0
 10
147.52828066047709
 20
567.44323924798618
 30
0.0
 40
1.0
 50
0.0
 51
90.00000299999769
  0
ARC
  5
9120
  8
AM_0
 10
165.50826066047711
 20
567.58325924798623
 30
0.0
 40
1.5
 50
90.00000299999769
 51
180.00001000000091
  0
ARC
  5
9121
  8
AM_0
 10
165.48824066047709
 20
567.44323924798618
 30
0.0
 40
1.0
 50
90.00000299999769
 51
180.00001000000091
  0
ARC
  5
9122
  8
AM_0
 10
179.8482306604771
 20
560.08325924798623
 30
0.0
 40
1.0000255999999981
 50
269.58947000000319
 51
90.410530999997775
  0
ARC
  5
9123
  8
AM_0
 10
183.54824066047709
 20
560.11328924798602
 30
0.0
 40
1.460011199999999
 50
269.77524999999662
 51
90.224749999996845
  0
LINE
  5
9124
  8
AM_0
 10
186.50826066047691
 20
581.08325924798623
 30
0.0
 11
194.50826066047711
 21
581.08325924798623
 31
0.0
  0
LINE
  5
9125
  8
AM_0
 10
186.50826066047691
 20
567.02319924798621
 30
0.0
 11
194.50826066047711
 21
567.02319924798621
 31
0.0
  0
ARC
  5
9126
  8
AM_0
 10
179.84829066047709
 20
570.08325924798623
 30
0.0
 40
1.0
 50
269.999989999999
 51
90.00000299999769
  0
ARC
  5
9127
  8
AM_0
 10
183.3282706604769
 20
570.12829924798598
 30
0.0
 40
1.6750020000000001
 50
269.999989999999
 51
90.00000299999769
  0
ARC
  5
9128
  8
AM_0
 10
186.1614606604771
 20
574.8060392479864
 30
0.0
 40
1.502775999999999
 50
194.7564299999992
 51
269.8775799999986
  0
ARC
  5
9129
  8
AM_0
 10
186.1614606604771
 20
580.41601924798624
 30
0.0
 40
1.502775999999999
 50
194.7564299999992
 51
269.8775799999986
  0
ARC
  5
912A
  8
AM_0
 10
186.1614606604771
 20
577.65600924798605
 30
0.0
 40
1.502775999999999
 50
194.7564299999992
 51
269.8775799999986
  0
ARC
  5
912B
  8
AM_0
 10
186.1614606604771
 20
579.50598924798624
 30
0.0
 40
1.502775999999999
 50
194.7564299999992
 51
269.8775799999986
  0
LINE
  5
912C
  8
AM_0
 10
70.508260660477148
 20
588.08325924798623
 30
0.0
 11
78.508260660477148
 21
588.08325924798623
 31
0.0
  0
ARC
  5
912D
  8
AM_0
 10
24.006830560477049
 20
591.08325924798623
 30
0.0
 40
9.0
 50
89.999988999997569
 51
179.99997999999781
  0
LINE
  5
912E
  8
AM_0
 10
22.508260660477159
 20
587.83325924798601
 30
0.0
 11
70.508260660477148
 21
587.83325924798601
 31
0.0
  0
LINE
  5
912F
  8
AM_0
 10
24.006830560477049
 20
600.08325924798623
 30
0.0
 11
61.508260660477148
 21
600.08325924798623
 31
0.0
  0
LINE
  5
9130
  8
AM_0
 10
25.006830560477059
 20
595.08325924798623
 30
0.0
 11
48.508260660477148
 21
595.08325924798623
 31
0.0
  0
LINE
  5
9131
  8
AM_0
 10
45.508260660477141
 20
593.83325924798578
 30
0.0
 11
70.508260660477148
 21
593.83325924798578
 31
0.0
  0
ARC
  5
9132
  8
AM_0
 10
25.006830560477059
 20
590.08325924798623
 30
0.0
 40
5.0
 50
89.999988999997569
 51
180.0
  0
LINE
  5
9133
  8
AM_0
 10
45.508260660477141
 20
593.83325924798578
 30
0.0
 11
45.508260660477141
 21
587.83325924798601
 31
0.0
  0
LINE
  5
9134
  8
AM_0
 10
58.508260660477148
 20
593.83325924798623
 30
0.0
 11
58.508260660477148
 21
600.08325924798623
 31
0.0
  0
LINE
  5
9135
  8
AM_0
 10
61.508260660477148
 20
595.08325924798623
 30
0.0
 11
61.508260660477148
 21
600.08325924798623
 31
0.0
  0
LINE
  5
9136
  8
AM_0
 10
48.508260660477148
 20
593.83325924798623
 30
0.0
 11
48.508260660477148
 21
600.08325924798623
 31
0.0
  0
LINE
  5
9137
  8
AM_0
 10
58.508260660477148
 20
595.08325924798623
 30
0.0
 11
61.508260660477148
 21
595.08325924798623
 31
0.0
  0
LINE
  5
9138
  8
AM_0
 10
81.718280660477134
 20
591.36328924798613
 30
0.0
 11
178.63827066047699
 21
591.36328924798613
 31
0.0
  0
LINE
  5
9139
  8
AM_0
 10
81.758260660477177
 20
594.21325924798612
 30
0.0
 11
178.63827066047699
 21
594.21325924798612
 31
0.0
  0
LINE
  5
913A
  8
AM_0
 10
81.778280660477094
 20
596.06323924798619
 30
0.0
 11
178.63827066047699
 21
596.06323924798619
 31
0.0
  0
LINE
  5
913B
  8
AM_0
 10
81.798240660477049
 20
596.97326924798585
 30
0.0
 11
178.6383306604771
 21
596.97326924798585
 31
0.0
  0
ARC
  5
913C
  8
AM_0
 10
81.794760660477095
 20
594.977669247986
 30
0.0
 40
1.995633
 50
89.899708000002292
 51
172.06112999999959
  0
ARC
  5
913D
  8
AM_0
 10
81.706990660477118
 20
589.369149247986
 30
0.0
 40
1.994108999999999
 50
89.675548000002749
 51
169.18776999999869
  0
ARC
  5
913E
  8
AM_0
 10
81.758510660477114
 20
592.21801924798615
 30
0.0
 40
1.995282999999999
 50
90.006203999996856
 51
170.90835000000069
  0
ARC
  5
913F
  8
AM_0
 10
81.772850660477147
 20
594.06652924798607
 30
0.0
 40
1.9967330000000001
 50
89.843966999998912
 51
171.45387999999721
  0
LINE
  5
9140
  8
AM_0
 10
186.50826066047691
 20
591.08325924798623
 30
0.0
 11
194.50826066047711
 21
591.08325924798623
 31
0.0
  0
ARC
  5
9141
  8
AM_0
 10
178.63344066047711
 20
594.96850924798605
 30
0.0
 40
2.0047290000000002
 50
15.173495999996319
 51
89.861678000000197
  0
LINE
  5
9142
  8
AM_0
 10
181.04824066047709
 20
588.08325924798623
 30
0.0
 11
186.50826066047691
 21
588.08325924798623
 31
0.0
  0
ARC
  5
9143
  8
AM_0
 10
178.6383306604771
 20
589.36499924798613
 30
0.0
 40
1.9982919999999991
 50
15.032547999996
 51
90.002632000001341
  0
ARC
  5
9144
  8
AM_0
 10
178.63344066047711
 20
592.20849924798586
 30
0.0
 40
2.0047290000000002
 50
15.173495999996319
 51
89.861678000000197
  0
ARC
  5
9145
  8
AM_0
 10
178.63344066047711
 20
594.05847924798616
 30
0.0
 40
2.0047290000000002
 50
15.173495999996319
 51
89.861678000000197
  0
TEXT
  5
95F9
  8
0
  6
CONTINUOUS
 62
     0
 10
604.80335473808009
 20
524.59013432643758
 30
0.0
 40
15.0
  1
VX02-800BF~VX02-K20BF
  0
VIEWPORT
  5
89
 67
     1
  8
0
 10
210.0
 20
148.5
 30
0.0
 40
420.0
 41
297.0
 68
    -1
 69
     1
1001
ACAD
1000
MVIEW
1002
{
1070
    16
1010
0.0
1020
0.0
1030
0.0
1010
0.0
1020
0.0
1030
1.0
1040
0.0
1040
297.0
1040
221.70154043645701
1040
148.5
1040
50.0
1040
0.0
1040
0.0
1070
     0
1070
   100
1070
     1
1070
     1
1070
     0
1070
     0
1070
     0
1070
     0
1040
0.0
1040
0.0
1040
0.0
1040
10.0
1040
10.0
1040
10.0
1040
10.0
1070
     0
1002
{
1002
}
1002
}
1001
GENIUS_GENOREF_13
1005
1B94
1001
GENIUS_GENSCREG_15
1000
PF
1040
1.0
1000
DF
1040
1.0
1000
MIN
1011
0.0
1021
0.0
1031
0.0
1021
0.0
1031
0.0
1000
MAX
1011
420.0
1021
0.0
1031
0.0
1021
297.0
1031
0.0
1000
FLAGS
1070
     4
  0
ENDSEC
  0
EOF
