  0
SECTION
  2
HEADER
  9
$ACADVER
  1
AC1009
  9
$INSBASE
 10
0.0
 20
0.0
 30
0.0
  9
$EXTMIN
 10
3.6497379046072629
 20
12.11202367026976
 30
-0.0015258207003583
  9
$EXTMAX
 10
607.52142040278932
 20
408.47653688119078
 30
0.0000000349246037
  9
$LIMMIN
 10
0.0
 20
0.0
  9
$LIMMAX
 10
408.0
 20
284.0
  9
$ORTHOMODE
 70
     0
  9
$REGENMODE
 70
     1
  9
$FILLMODE
 70
     1
  9
$QTEXTMODE
 70
     0
  9
$MIRRTEXT
 70
     1
  9
$DRAGMODE
 70
     2
  9
$LTSCALE
 40
1.0
  9
$OSMODE
 70
   551
  9
$ATTMODE
 70
     1
  9
$TEXTSIZE
 40
2.5
  9
$TRACEWID
 40
1.0
  9
$TEXTSTYLE
  7
STANDARD
  9
$CLAYER
  8
AM_0
  9
$CELTYPE
  6
BYLAYER
  9
$CECOLOR
 62
   256
  9
$DIMSCALE
 40
1.0
  9
$DIMASZ
 40
2.5
  9
$DIMEXO
 40
1.0
  9
$DIMDLI
 40
7.0
  9
$DIMRND
 40
0.0
  9
$DIMDLE
 40
0.0
  9
$DIMEXE
 40
1.0
  9
$DIMTP
 40
0.1
  9
$DIMTM
 40
0.1000000001
  9
$DIMTXT
 40
2.5
  9
$DIMCEN
 40
0.0
  9
$DIMTSZ
 40
0.0
  9
$DIMTOL
 70
     0
  9
$DIMLIM
 70
     0
  9
$DIMTIH
 70
     0
  9
$DIMTOH
 70
     0
  9
$DIMSE1
 70
     0
  9
$DIMSE2
 70
     0
  9
$DIMTAD
 70
     3
  9
$DIMZIN
 70
     8
  9
$DIMBLK
  1

  9
$DIMASO
 70
     1
  9
$DIMSHO
 70
     1
  9
$DIMPOST
  1

  9
$DIMAPOST
  1
"
  9
$DIMALT
 70
     0
  9
$DIMALTD
 70
     2
  9
$DIMALTF
 40
0.0393701
  9
$DIMLFAC
 40
1.0
  9
$DIMTOFL
 70
     1
  9
$DIMTVP
 40
0.0
  9
$DIMTIX
 70
     0
  9
$DIMSOXD
 70
     0
  9
$DIMSAH
 70
     0
  9
$DIMBLK1
  1

  9
$DIMBLK2
  1

  9
$DIMSTYLE
  2
AM_JIS
  9
$DIMCLRD
 70
   256
  9
$DIMCLRE
 70
   256
  9
$DIMCLRT
 70
     4
  9
$DIMTFAC
 40
0.71
  9
$DIMGAP
 40
1.0
  9
$LUNITS
 70
     2
  9
$LUPREC
 70
     2
  9
$SKETCHINC
 40
1.0
  9
$FILLETRAD
 40
2.5
  9
$AUNITS
 70
     0
  9
$AUPREC
 70
     3
  9
$MENU
  1
.
  9
$ELEVATION
 40
0.0
  9
$PELEVATION
 40
0.0
  9
$THICKNESS
 40
0.0
  9
$LIMCHECK
 70
     0
  9
$BLIPMODE
 70
     0
  9
$CHAMFERA
 40
2.5
  9
$CHAMFERB
 40
2.5
  9
$SKPOLY
 70
     0
  9
$TDCREATE
 40
2453062.5354457749
  9
$TDUPDATE
 40
2458541.3632538081
  9
$TDINDWG
 40
0.0795271991
  9
$TDUSRTIMER
 40
0.0795270023
  9
$USRTIMER
 70
     1
  9
$ANGBASE
 50
0.0
  9
$ANGDIR
 70
     0
  9
$PDMODE
 70
     0
  9
$PDSIZE
 40
0.0
  9
$PLINEWID
 40
0.0
  9
$COORDS
 70
     1
  9
$SPLFRAME
 70
     0
  9
$SPLINETYPE
 70
     6
  9
$SPLINESEGS
 70
     8
  9
$ATTDIA
 70
     1
  9
$ATTREQ
 70
     1
  9
$HANDLING
 70
     1
  9
$HANDSEED
  5
A1A5
  9
$SURFTAB1
 70
     6
  9
$SURFTAB2
 70
     6
  9
$SURFTYPE
 70
     6
  9
$SURFU
 70
     6
  9
$SURFV
 70
     6
  9
$UCSNAME
  2

  9
$UCSORG
 10
0.0
 20
0.0
 30
0.0
  9
$UCSXDIR
 10
1.0
 20
0.0
 30
0.0
  9
$UCSYDIR
 10
0.0
 20
1.0
 30
0.0
  9
$PUCSNAME
  2

  9
$PUCSORG
 10
0.0
 20
0.0
 30
0.0
  9
$PUCSXDIR
 10
1.0
 20
0.0
 30
0.0
  9
$PUCSYDIR
 10
0.0
 20
1.0
 30
0.0
  9
$USERI1
 70
     0
  9
$USERI2
 70
     0
  9
$USERI3
 70
     0
  9
$USERI4
 70
     0
  9
$USERI5
 70
     0
  9
$USERR1
 40
0.0
  9
$USERR2
 40
0.0
  9
$USERR3
 40
0.0
  9
$USERR4
 40
0.0
  9
$USERR5
 40
0.0
  9
$WORLDVIEW
 70
     1
  9
$SHADEDGE
 70
     3
  9
$SHADEDIF
 70
    70
  9
$TILEMODE
 70
     1
  9
$MAXACTVP
 70
    48
  9
$PLIMCHECK
 70
     0
  9
$PEXTMIN
 10
1.0000000000000000E+020
 20
1.0000000000000000E+020
 30
1.0000000000000000E+020
  9
$PEXTMAX
 10
-1.0000000000000000E+020
 20
-1.0000000000000000E+020
 30
-1.0000000000000000E+020
  9
$PLIMMIN
 10
0.0
 20
0.0
  9
$PLIMMAX
 10
420.0
 20
297.0
  9
$UNITMODE
 70
     0
  9
$VISRETAIN
 70
     1
  9
$PLINEGEN
 70
     0
  9
$PSLTSCALE
 70
     1
  0
ENDSEC
  0
SECTION
  2
TABLES
  0
TABLE
  2
VPORT
 70
     1
  0
VPORT
  2
*ACTIVE
 70
     0
 10
0.0
 20
0.0
 11
1.0
 21
1.0
 12
305.5855791536984
 22
210.2942802757303
 13
0.0
 23
0.0
 14
1.0
 24
1.0
 15
10.0
 25
10.0
 16
0.0
 26
0.0
 36
1.0
 17
0.0
 27
0.0
 37
0.0
 40
399.085551059051
 41
1.7571592210767459
 42
50.0
 43
0.0
 44
0.0
 50
0.0
 51
0.0
 71
     0
 72
   100
 73
     1
 74
     1
 75
     0
 76
     0
 77
     0
 78
     0
  0
ENDTAB
  0
TABLE
  2
LTYPE
 70
    25
  0
LTYPE
  2
CONTINUOUS
 70
     0
  3
Solid line
 72
    65
 73
     0
 40
0.0
  0
LTYPE
  2
PHANTOM2
 70
     0
  3
Phantom (.5x) ___ _ _ ___ _ _ ___ _ _ ___ _ _
 72
    65
 73
     6
 40
31.75
 49
15.875
 49
-3.174999999999998
 49
3.174999999999998
 49
-3.174999999999998
 49
3.174999999999998
 49
-3.174999999999998
  0
LTYPE
  2
CENTER
 70
     0
  3
Center ____ _ ____ _ ____ _ ____ _ ____ _ ____
 72
    65
 73
     4
 40
50.799999999999997
 49
31.75
 49
-6.3499999999999979
 49
6.3499999999999979
 49
-6.3499999999999979
  0
LTYPE
  2
ACANSTGBM
 70
     0
  3
__ . . __ . .
 72
    65
 73
     6
 40
9.0
 49
4.0
 49
-1.0
 49
1.0
 49
-1.0
 49
1.0
 49
-1.0
  0
LTYPE
  2
ACANSTGLM
 70
     0
  3
_ _ _ _ _
 72
    65
 73
     2
 40
3.0
 49
2.0
 49
-1.0
  0
LTYPE
  2
GEN7
 70
     0
  3
____ . ____ . ____ . ____ . ____ . ____ . ____
 72
    65
 73
     4
 40
14.25
 49
9.75
 49
-1.5
 49
1.5
 49
-1.5
  0
LTYPE
  2
AM_ISO02W050
 70
     0
  3
__ __ __ __ __ __ __ __ __ __ __ __ __ __ __
 72
    65
 73
     2
 40
7.5
 49
6.0
 49
-1.5
  0
LTYPE
  2
AM_ISO08W050
 70
     0
  3
____ . ____ . ____ . ____ . ____ . ____ . ____
 72
    65
 73
     4
 40
18.0
 49
12.0
 49
-1.5
 49
3.0
 49
-1.5
  0
LTYPE
  2
AM_ISO09W050
 70
     0
  3
_____ . . _____ . . _____ . . ____ .. ____
 72
    65
 73
     6
 40
22.5
 49
12.0
 49
-1.5
 49
3.0
 49
-1.5
 49
3.0
 49
-1.5
  0
LTYPE
  2
AMCONSTR
 70
     0
  3
_______________________
 72
    65
 73
     2
 40
9999.0
 49
9999.0
 49
0.0
  0
LTYPE
  2
AM_ISO02W050X2
 70
     0
  3
 _ _ _ _ _ _ _ _ _ _ _ _
 72
    65
 73
     2
 40
3.75
 49
3.0
 49
-0.75
  0
LTYPE
  2
AM_ISO08W050X2
 70
     0
  3
__ . __ . __ . __ . __ . __
 72
    65
 73
     4
 40
9.0
 49
6.0
 49
-0.75
 49
1.5
 49
-0.75
  0
LTYPE
  2
AMZIGZAG
 70
     0
  3
/\/-/\/-/\/-/\/-/\/-/\/
 72
    65
 73
     2
 40
11.000099999999991
 49
0.0001
 49
-11.0
  0
LTYPE
  2
ACJISTGB
 70
     0
  3
__ . . __ . .
 72
    65
 73
     6
 40
9.0
 49
4.0
 49
-1.0
 49
1.0
 49
-1.0
 49
1.0
 49
-1.0
  0
LTYPE
  2
ACJISTGL
 70
     0
  3
_ _ _ _ _
 72
    65
 73
     2
 40
3.0
 49
2.0
 49
-1.0
  0
LTYPE
  2
ACISOWELD
 70
     0
  3
_ _ _ _ _
 72
    65
 73
     2
 40
2.0
 49
2.0
 49
-1.0
  0
LTYPE
  2
ACISOTGB
 70
     0
  3
__ . . __ . .
 72
    65
 73
     6
 40
9.0
 49
4.0
 49
-1.0
 49
1.0
 49
-1.0
 49
1.0
 49
-1.0
  0
LTYPE
  2
ACISOTGL
 70
     0
  3
_ _ _ _ _
 72
    65
 73
     2
 40
3.0
 49
2.0
 49
-1.0
  0
LTYPE
  2
HIDDEN
 70
     0
  3
Hidden __ __ __ __ __ __ __ __ __ __ __ __ __ _
 72
    65
 73
     2
 40
0.375
 49
0.25
 49
-0.125
  0
LTYPE
  2
CENTER2
 70
     0
  3
Center (.5x) ___ _ ___ _ ___ _ ___ _ ___ _ ___
 72
    65
 73
     4
 40
1.125
 49
0.75
 49
-0.125
 49
0.125
 49
-0.125
  0
LTYPE
  2
HIDDEN2
 70
     0
  3
Hidden (.5x) _ _ _ _ _ _ _ _ _ _ _ _ _ _ _ _ _
 72
    65
 73
     2
 40
0.1875
 49
0.125
 49
-0.0625
  0
LTYPE
  2
AMZIGZAG2
 70
     0
  3
/\/-/\/-/\/-/\/-/\/-/\/
 72
    65
 73
     2
 40
0.4401
 49
0.0001
 49
-0.4400000000000001
  0
LTYPE
  2
ACANSTGB
 70
     0
  3
__ . . __ . .
 72
    65
 73
     6
 40
0.35433070866
 49
0.15748031496
 49
-0.03937007874
 49
0.03937007874
 49
-0.03937007874
 49
0.03937007874
 49
-0.03937007874
  0
LTYPE
  2
ACANSTGL
 70
     0
  3
_ _ _ _ _
 72
    65
 73
     2
 40
0.11811023622
 49
0.07874015748
 49
-0.03937007874
  0
ENDTAB
  0
TABLE
  2
LAYER
 70
     6
  0
LAYER
  2
0
 70
     0
 62
     7
  6
CONTINUOUS
  0
LAYER
  2
AM_0
 70
     0
 62
     7
  6
CONTINUOUS
  0
LAYER
  2
DEFPOINTS
 70
     0
 62
     7
  6
CONTINUOUS
  0
LAYER
  2
ﾁｭｳｼﾝｾﾝ
 70
     0
 62
     1
  6
GEN7
  0
LAYER
  2
AM_0N
 70
     0
 62
     7
  6
CONTINUOUS
  0
LAYER
  2
AM_5
 70
     0
 62
     2
  6
CONTINUOUS
  0
ENDTAB
  0
TABLE
  2
STYLE
 70
    10
  0
STYLE
  2
STANDARD
 70
     0
 40
0.0
 41
0.8299999999999999
 50
0.0
 71
     0
 42
2.5
  3
txt.shx
  4
bigfont.shx
  0
STYLE
  2
ANNOTATIVE
 70
     0
 40
0.0
 41
1.0
 50
0.0
 71
     0
 42
0.2
  3
txt
  4

  0
STYLE
  2
ACANSTS
 70
     0
 40
1.0
 41
1.0
 50
0.0
 71
     0
 42
2.5
  3
romans.shx
  4
bigfont.shx
  0
STYLE
  2
ACANSGDT
 70
     0
 40
0.0
 41
1.0
 50
0.0
 71
     0
 42
2.5
  3
amgdt.shx
  4

  0
STYLE
  2

 70
     1
 40
0.0
 41
1.0
 50
0.0
 71
     0
 42
2.5
  3
ltypeshp.shx
  4

  0
STYLE
  2
ACJISTS
 70
     0
 40
1.0
 41
0.8299999999999999
 50
0.0
 71
     0
 42
2.5
  3
txt.shx
  4
bigfont.shx
  0
STYLE
  2
ACJISGDT
 70
     0
 40
0.0
 41
1.0
 50
0.0
 71
     0
 42
2.5
  3
amgdt.shx
  4

  0
STYLE
  2
ACISOTS
 70
     0
 40
1.0
 41
1.0
 50
0.0
 71
     0
 42
2.5
  3
isocp.shx
  4
extfont.shx
  0
STYLE
  2
ACISOGDT
 70
     0
 40
0.0
 41
1.0
 50
0.0
 71
     0
 42
2.5
  3
amgdt.shx
  4

  0
STYLE
  2

 70
     1
 40
0.0
 41
1.0
 50
0.0
 71
     0
 42
2.5
  3
genltshp.shx
  4

  0
ENDTAB
  0
TABLE
  2
VIEW
 70
    12
  0
VIEW
  2
GEN1
 70
     0
 40
95.824742268041234
 10
71.5
 20
137.08762886597941
 41
143.0
 11
0.0
 21
0.0
 31
1.0
 12
0.0
 22
0.0
 32
0.0
 42
50.0
 43
0.0
 44
0.0
 50
0.0
 71
     0
  0
VIEW
  2
GEN2
 70
     0
 40
95.824742268041234
 10
214.5
 20
137.08762886597941
 41
143.0
 11
0.0
 21
0.0
 31
1.0
 12
0.0
 22
0.0
 32
0.0
 42
50.0
 43
0.0
 44
0.0
 50
0.0
 71
     0
  0
VIEW
  2
GEN3
 70
     0
 40
95.824742268041234
 10
71.5
 20
47.912371134020603
 41
143.0
 11
0.0
 21
0.0
 31
1.0
 12
0.0
 22
0.0
 32
0.0
 42
50.0
 43
0.0
 44
0.0
 50
0.0
 71
     0
  0
VIEW
  2
GEN4
 70
     0
 40
95.824742268041234
 10
214.5
 20
47.912371134020603
 41
143.0
 11
0.0
 21
0.0
 31
1.0
 12
0.0
 22
0.0
 32
0.0
 42
50.0
 43
0.0
 44
0.0
 50
0.0
 71
     0
  0
VIEW
  2
GEN5
 70
     0
 40
95.824742268041234
 10
143.0
 20
92.500000000000057
 41
143.0
 11
0.0
 21
0.0
 31
1.0
 12
0.0
 22
0.0
 32
0.0
 42
50.0
 43
0.0
 44
0.0
 50
0.0
 71
     0
  0
VIEW
  2
GEN6
 70
     0
 40
191.64756804123709
 10
143.0
 20
92.5
 41
285.99713999999989
 11
0.0
 21
0.0
 31
1.0
 12
0.0
 22
0.0
 32
0.0
 42
50.0
 43
0.0
 44
0.0
 50
0.0
 71
     0
  0
VIEW
  2
AM_VIEW1
 70
     0
 40
142.0
 10
119.7777777777777
 20
213.0
 41
239.55555555555549
 11
0.0
 21
0.0
 31
1.0
 12
0.0
 22
0.0
 32
0.0
 42
50.0
 43
0.0
 44
0.0
 50
0.0
 71
     0
  0
VIEW
  2
AM_VIEW2
 70
     0
 40
142.0
 10
288.22222222222211
 20
213.0
 41
239.55555555555549
 11
0.0
 21
0.0
 31
1.0
 12
0.0
 22
0.0
 32
0.0
 42
50.0
 43
0.0
 44
0.0
 50
0.0
 71
     0
  0
VIEW
  2
AM_VIEW3
 70
     0
 40
142.0
 10
119.7777777777777
 20
71.0
 41
239.55555555555549
 11
0.0
 21
0.0
 31
1.0
 12
0.0
 22
0.0
 32
0.0
 42
50.0
 43
0.0
 44
0.0
 50
0.0
 71
     0
  0
VIEW
  2
AM_VIEW4
 70
     0
 40
142.0
 10
288.22222222222211
 20
71.0
 41
239.55555555555549
 11
0.0
 21
0.0
 31
1.0
 12
0.0
 22
0.0
 32
0.0
 42
50.0
 43
0.0
 44
0.0
 50
0.0
 71
     0
  0
VIEW
  2
AM_VIEW5
 70
     0
 40
142.0
 10
204.0
 20
142.0
 41
239.55555555555549
 11
0.0
 21
0.0
 31
1.0
 12
0.0
 22
0.0
 32
0.0
 42
50.0
 43
0.0
 44
0.0
 50
0.0
 71
     0
  0
VIEW
  2
AM_VIEW6
 70
     0
 40
283.99716000000001
 10
204.0
 20
142.0
 41
479.10631999999993
 11
0.0
 21
0.0
 31
1.0
 12
0.0
 22
0.0
 32
0.0
 42
50.0
 43
0.0
 44
0.0
 50
0.0
 71
     0
  0
ENDTAB
  0
TABLE
  2
UCS
 70
     0
  0
ENDTAB
  0
TABLE
  2
APPID
 70
   106
  0
APPID
  2
ACAD
 70
     0
  0
APPID
  2
ACADANNOTATIVE
 70
     0
  0
APPID
  2
MCAD_NO_VIS
 70
     0
  0
APPID
  2
ACAD_TEMP_GRAPHIC
 70
     0
  0
APPID
  2
AD_DRAW
 70
     0
  0
APPID
  2
DESIGNERASSEMBLIES
 70
     0
  0
APPID
  2
ASURF_PCURVE_APPNAME
 70
     0
  0
APPID
  2
GENIUS_GE3SECT_13
 70
     0
  0
APPID
  2
GENIUS_GENCFG_13
 70
     0
  0
APPID
  2
GENIUS_GE3CFG0_13
 70
     0
  0
APPID
  2
GENIUS_GENCFG0_13
 70
     0
  0
APPID
  2
GENIUS_GENCFG1_13
 70
     0
  0
APPID
  2
GENIUS_GENCFG2_13
 70
     0
  0
APPID
  2
GENIUS_GENCFG3_13
 70
     0
  0
APPID
  2
GENIUS_GENCFG4_13
 70
     0
  0
APPID
  2
GENIUS_GEVCFG0_13
 70
     0
  0
APPID
  2
GENIUS_GENOENT_13
 70
     0
  0
APPID
  2
GENIUS_GENREC_14
 70
     0
  0
APPID
  2
GENIUS_GENODEF_13
 70
     0
  0
APPID
  2
GENIUS_GENOBJ-N-REC_13
 70
     0
  0
APPID
  2
GENIUS_GENHINW_13
 70
     0
  0
APPID
  2
GENIUS_FIRSTVISTXT_14
 70
     0
  0
APPID
  2
GENIUS_GENOBJ-N-LEADER_13
 70
     0
  0
APPID
  2
GENIUS_GENOREF_13
 70
     0
  0
APPID
  2
GENIUS_GENOLIS_13
 70
     0
  0
APPID
  2
GEV_VCCNULL_SWITCH_OFF
 70
     0
  0
APPID
  2
GENIUS_GENDTOL_13
 70
     0
  0
APPID
  2
GENIUS_GEFCFG0_13
 70
     0
  0
APPID
  2
GENIUS_GENOBJ-N-TIT_13
 70
     0
  0
APPID
  2
GENIUS_GENTITLE_13
 70
     0
  0
APPID
  2
GENIUS_GENZVEED_13
 70
     0
  0
APPID
  2
GENIUS_GENOBJ-N-SDF_13
 70
     0
  0
APPID
  2
GENIUS_GENSCREG_13
 70
     0
  0
APPID
  2
GENIUS_DUMCFG0_13
 70
     0
  0
APPID
  2
GEVID936201362
 70
     0
  0
APPID
  2
GEVDC
 70
     0
  0
APPID
  2
GEVCON
 70
     0
  0
APPID
  2
VCC
 70
     0
  0
APPID
  2
GEVPT
 70
     0
  0
APPID
  2
GEVIT
 70
     0
  0
APPID
  2
GENBH
 70
     0
  0
APPID
  2
GEVMK
 70
     0
  0
APPID
  2
GENIUS_GENBH_13
 70
     0
  0
APPID
  2
GENIUS_GENOBJ-NBEHI-BHF_13
 70
     0
  0
APPID
  2
GENIUS_GENOBJ-NBEHI-BHB_13
 70
     0
  0
APPID
  2
GENIUS_GENOBJ-F-DESC_13
 70
     0
  0
APPID
  2
GENIUS_GEFDESC_14
 70
     0
  0
APPID
  2
GENIUS_GENOBJ-F-PART_13
 70
     0
  0
APPID
  2
GENIUS_GEFSTDP_13
 70
     0
  0
APPID
  2
GENIUS_GEFPARTINS_13
 70
     0
  0
APPID
  2
GENIUS_GENTRA_14
 70
     0
  0
APPID
  2
GENIUS_GENINF13_13
 70
     0
  0
APPID
  2
GENIUS_GENOBJ-N-INFOPT_13
 70
     0
  0
APPID
  2
GENIUS_GENOBJ-N-RSSYM_13
 70
     0
  0
APPID
  2
GENIUS_GENSYMENT_13
 70
     0
  0
APPID
  2
GENIUS_GENSCSYM_13
 70
     0
  0
APPID
  2
GENIUS_GEFINFNAM_13
 70
     0
  0
APPID
  2
GENIUS_GENSCREG_15
 70
     0
  0
APPID
  2
GENIUS_GENOBJ-N-CEN_13
 70
     0
  0
APPID
  2
GENIUS_GENOBJ-N-CRS_13
 70
     0
  0
APPID
  2
GENIUS_GENOBJ-N-CRC_13
 70
     0
  0
APPID
  2
GENIUS_GENCRC_14
 70
     0
  0
APPID
  2
GEVID942827039
 70
     0
  0
APPID
  2
GEVID942827040
 70
     0
  0
APPID
  2
GEVID942827041
 70
     0
  0
APPID
  2
GENIUS_GENOBJ-F-SCPASSM_13
 70
     0
  0
APPID
  2
GENIUS_GENDIMSH_14
 70
     0
  0
APPID
  2
GENIUS_GENFIL_13
 70
     0
  0
APPID
  2
GENIUS_GENOBJ-N-CHA_13
 70
     0
  0
APPID
  2
GENIUS_GENOBJ-N-FIL_13
 70
     0
  0
APPID
  2
GEVID942827042
 70
     0
  0
APPID
  2
GEVID946020473
 70
     0
  0
APPID
  2
GEVID946020474
 70
     0
  0
APPID
  2
GEVID946020475
 70
     0
  0
APPID
  2
GENIUS_GENOBJ-N-HTC_13
 70
     0
  0
APPID
  2
GENIUS_GENHATCH_13
 70
     0
  0
APPID
  2
GEVID948854295
 70
     0
  0
APPID
  2
GEVID939402019
 70
     0
  0
APPID
  2
GEVID952919491
 70
     0
  0
APPID
  2
GEVID952919492
 70
     0
  0
APPID
  2
GENIUS_GEFWELD_13
 70
     0
  0
APPID
  2
GENIUS_GENOBJ-F-WELS_13
 70
     0
  0
APPID
  2
GEVID952919493
 70
     0
  0
APPID
  2
GENIUS_GENOBJ-N-RSBK_13
 70
     0
  0
APPID
  2
GENIUS_GENOBJ-N-LIB_13
 70
     0
  0
APPID
  2
GENIUS_GENSCALE_13
 70
     0
  0
APPID
  2
GEVID986376691
 70
     0
  0
APPID
  2
ACATTRIBSERVICES
 70
     0
  0
APPID
  2
ACADM_DIM_EDIT
 70
     0
  0
APPID
  2
AMDT_DM_ADJ
 70
     0
  0
APPID
  2
GEVID1057795304
 70
     0
  0
APPID
  2
GENIUS_GEFSH_13
 70
     0
  0
APPID
  2
GENIUS_GENOBJ-F-SHS_13
 70
     0
  0
APPID
  2
GENIUS_GENOBJ-N-ADDLEAD_13
 70
     0
  0
APPID
  2
GENIUS_GENMAINADDLEADER_14
 70
     0
  0
APPID
  2
GENIUS_GENADDLEADER_14
 70
     0
  0
APPID
  2
GENIUS_GENDREL_13
 70
     0
  0
APPID
  2
GEVID1121934822
 70
     0
  0
APPID
  2
GEVID1121934823
 70
     0
  0
APPID
  2
GEVID1121934824
 70
     0
  0
APPID
  2
ACAD_DSTYLE_DIMJAG
 70
     0
  0
APPID
  2
ACAD_DSTYLE_DIMBREAK
 70
     0
  0
APPID
  2
ACAD_NAV_VCDISPLAY
 70
     0
  0
APPID
  2
ACADANNOPO
 70
     0
  0
APPID
  2
ACAD_EXEMPT_FROM_CAD_STANDARDS
 70
     0
  0
APPID
  2
ACAD_MLEADERVER
 70
     0
  0
ENDTAB
  0
TABLE
  2
DIMSTYLE
 70
    29
  0
DIMSTYLE
  2
STANDARD
 70
     0
  3

  4

  5

  6

  7

 40
1.0
 41
0.18
 42
0.0625
 43
0.38
 44
0.18
 45
0.0
 46
0.0
 47
0.0
 48
0.0
140
0.18
141
0.09
142
0.0
143
25.399999999999999
144
1.0
145
0.0
146
1.0
147
0.09
 71
     0
 72
     0
 73
     1
 74
     1
 75
     0
 76
     0
 77
     0
 78
     0
170
     0
171
     2
172
     0
173
     0
174
     0
175
     0
176
     0
177
     0
178
     0
  0
DIMSTYLE
  2
ANNOTATIVE
 70
     0
  3

  4

  5

  6

  7

 40
1.0
 41
0.18
 42
0.0625
 43
0.38
 44
0.18
 45
0.0
 46
0.0
 47
0.0
 48
0.0
140
0.18
141
0.09
142
0.0
143
25.399999999999999
144
1.0
145
0.0
146
1.0
147
0.09
 71
     0
 72
     0
 73
     1
 74
     1
 75
     0
 76
     0
 77
     0
 78
     0
170
     0
171
     2
172
     0
173
     0
174
     0
175
     0
176
     0
177
     0
178
     0
  0
DIMSTYLE
  2
AM_JIS
 70
     0
  3

  4
"
  5

  6

  7

 40
1.0
 41
2.0
 42
1.0
 43
8.0
 44
1.0
 45
0.0
 46
0.0
 47
0.1
 48
0.1
140
2.5
141
0.0
142
0.0
143
0.0393701
144
1.0
145
0.0
146
0.71
147
1.5
 71
     0
 72
     0
 73
     0
 74
     0
 75
     0
 76
     0
 77
     3
 78
     8
170
     0
171
     2
172
     1
173
     0
174
     0
175
     0
176
   256
177
   256
178
     4
  0
DIMSTYLE
  2
AM_JIS$3
 70
     0
  3

  4
"
  5

  6

  7

 40
1.0
 41
2.0
 42
1.0
 43
10.0
 44
1.0
 45
0.0
 46
0.0
 47
0.1
 48
0.1
140
2.5
141
0.0
142
0.0
143
0.0393701
144
1.0
145
0.0
146
0.71
147
1.5
 71
     0
 72
     0
 73
     0
 74
     1
 75
     0
 76
     0
 77
     3
 78
     8
170
     0
171
     2
172
     0
173
     0
174
     0
175
     0
176
   256
177
   256
178
     4
  0
DIMSTYLE
  2
AM_JIS$4
 70
     0
  3

  4
"
  5

  6

  7

 40
1.0
 41
2.0
 42
1.0
 43
10.0
 44
1.0
 45
0.0
 46
0.0
 47
0.1
 48
0.1
140
2.5
141
0.0
142
0.0
143
0.0393701
144
1.0
145
0.0
146
0.71
147
1.5
 71
     0
 72
     0
 73
     0
 74
     0
 75
     0
 76
     0
 77
     3
 78
     8
170
     0
171
     2
172
     0
173
     0
174
     0
175
     0
176
   256
177
   256
178
     4
  0
DIMSTYLE
  2
AM_JIS$6
 70
     0
  3

  4
"
  5

  6

  7

 40
1.0
 41
2.0
 42
1.0
 43
10.0
 44
1.0
 45
0.0
 46
0.0
 47
0.1
 48
0.1
140
2.5
141
0.0
142
0.0
143
0.0393701
144
1.0
145
0.0
146
0.71
147
1.5
 71
     0
 72
     0
 73
     0
 74
     0
 75
     0
 76
     0
 77
     0
 78
     8
170
     0
171
     2
172
     1
173
     0
174
     0
175
     0
176
   256
177
   256
178
     4
  0
DIMSTYLE
  2
AM_JIS$7
 70
     0
  3

  4
"
  5

  6

  7

 40
1.0
 41
2.0
 42
1.0
 43
10.0
 44
1.0
 45
0.0
 46
0.0
 47
0.1
 48
0.1
140
2.5
141
0.0
142
0.0
143
0.0393701
144
1.0
145
0.0
146
0.71
147
1.5
 71
     0
 72
     0
 73
     0
 74
     0
 75
     0
 76
     0
 77
     3
 78
     8
170
     0
171
     2
172
     1
173
     0
174
     0
175
     0
176
   256
177
   256
178
     4
  0
DIMSTYLE
  2
AM_JIS$SF
 70
     0
  3

  4
"
  5

  6

  7

 40
1.0
 41
2.0
 42
1.0
 43
10.0
 44
1.0
 45
0.0
 46
0.0
 47
0.1
 48
0.1
140
2.5
141
0.0
142
0.0
143
0.0393701
144
1.0
145
0.0
146
0.71
147
1.5
 71
     0
 72
     0
 73
     0
 74
     0
 75
     1
 76
     1
 77
     3
 78
     8
170
     0
171
     2
172
     1
173
     0
174
     0
175
     0
176
   256
177
   256
178
     4
  0
DIMSTYLE
  2
AM_JIS$SH
 70
     0
  3

  4
"
  5

  6

  7

 40
1.0
 41
2.0
 42
1.0
 43
10.0
 44
1.0
 45
0.0
 46
0.0
 47
0.1
 48
0.1
140
2.5
141
0.0
142
0.0
143
0.0393701
144
2.0
145
0.0
146
0.71
147
1.5
 71
     0
 72
     0
 73
     0
 74
     0
 75
     1
 76
     1
 77
     3
 78
     8
170
     0
171
     2
172
     1
173
     1
174
     0
175
     0
176
   256
177
   256
178
     4
  0
DIMSTYLE
  2
AM_ISO
 70
     0
  3

  4
"
  5

  6

  7

 40
1.0
 41
2.5
 42
1.0
 43
10.0
 44
1.0
 45
0.0
 46
0.0
 47
0.1
 48
0.1
140
3.5
141
0.0
142
0.0
143
0.0393701
144
1.0
145
0.0
146
0.71
147
1.5
 71
     0
 72
     0
 73
     0
 74
     0
 75
     0
 76
     0
 77
     1
 78
     8
170
     0
171
     2
172
     1
173
     0
174
     0
175
     0
176
   256
177
   256
178
     2
  0
DIMSTYLE
  2
AM_ISO$3
 70
     0
  3

  4
"
  5

  6

  7

 40
1.0
 41
2.5
 42
1.0
 43
10.0
 44
1.0
 45
0.0
 46
0.0
 47
0.1
 48
0.1
140
3.5
141
0.0
142
0.0
143
0.0393701
144
1.0
145
0.0
146
0.71
147
1.5
 71
     0
 72
     0
 73
     0
 74
     1
 75
     0
 76
     0
 77
     1
 78
     8
170
     0
171
     2
172
     0
173
     0
174
     0
175
     0
176
   256
177
   256
178
     2
  0
DIMSTYLE
  2
AM_ISO$4
 70
     0
  3

  4
"
  5

  6

  7

 40
1.0
 41
2.5
 42
1.0
 43
10.0
 44
1.0
 45
0.0
 46
0.0
 47
0.1
 48
0.1
140
3.5
141
0.0
142
0.0
143
0.0393701
144
1.0
145
0.0
146
0.71
147
1.5
 71
     0
 72
     0
 73
     0
 74
     1
 75
     0
 76
     0
 77
     1
 78
     8
170
     0
171
     2
172
     0
173
     0
174
     0
175
     0
176
   256
177
   256
178
     2
  0
DIMSTYLE
  2
AM_ISO$6
 70
     0
  3

  4
"
  5

  6

  7

 40
1.0
 41
2.5
 42
1.0
 43
10.0
 44
1.0
 45
0.0
 46
0.0
 47
0.1
 48
0.1
140
3.5
141
0.0
142
0.0
143
0.0393701
144
1.0
145
0.0
146
0.71
147
1.5
 71
     0
 72
     0
 73
     0
 74
     0
 75
     0
 76
     0
 77
     0
 78
     8
170
     0
171
     2
172
     1
173
     0
174
     0
175
     0
176
   256
177
   256
178
     2
  0
DIMSTYLE
  2
AM_ISO$7
 70
     0
  3

  4
"
  5

  6

  7

 40
1.0
 41
2.5
 42
1.0
 43
10.0
 44
1.0
 45
0.0
 46
0.0
 47
0.1
 48
0.1
140
5.0
141
0.0
142
0.0
143
0.0393701
144
1.0
145
0.0
146
0.71
147
1.5
 71
     0
 72
     0
 73
     0
 74
     0
 75
     0
 76
     0
 77
     1
 78
     8
170
     0
171
     2
172
     1
173
     0
174
     0
175
     0
176
   256
177
   256
178
     2
  0
DIMSTYLE
  2
AM_ISO$SF
 70
     0
  3

  4
"
  5

  6

  7

 40
1.0
 41
2.5
 42
1.0
 43
10.0
 44
1.0
 45
0.0
 46
0.0
 47
0.1
 48
0.1
140
3.5
141
0.0
142
0.0
143
0.0393701
144
1.0
145
0.0
146
0.71
147
1.5
 71
     0
 72
     0
 73
     0
 74
     0
 75
     1
 76
     1
 77
     1
 78
     8
170
     0
171
     2
172
     1
173
     0
174
     0
175
     0
176
   256
177
   256
178
     2
  0
DIMSTYLE
  2
AM_ISO$SH
 70
     0
  3

  4
"
  5

  6

  7

 40
1.0
 41
2.5
 42
1.0
 43
10.0
 44
1.0
 45
0.0
 46
0.0
 47
0.1
 48
0.1
140
3.5
141
0.0
142
0.0
143
0.0393701
144
2.0
145
0.0
146
0.71
147
1.5
 71
     0
 72
     0
 73
     0
 74
     0
 75
     1
 76
     1
 77
     1
 78
     8
170
     0
171
     2
172
     1
173
     1
174
     0
175
     0
176
   256
177
   256
178
     2
  0
DIMSTYLE
  2
GEN-ANSI
 70
     0
  3

  4
"
  5

  6

  7

 40
1.0
 41
2.0
 42
0.5
 43
10.0
 44
0.5
 45
0.0
 46
0.0
 47
0.1
 48
0.1
140
2.5
141
0.0
142
0.0
143
0.0393701
144
1.0
145
0.0
146
0.71
147
1.5
 71
     0
 72
     0
 73
     1
 74
     1
 75
     0
 76
     0
 77
     0
 78
     8
170
     0
171
     2
172
     0
173
     0
174
     0
175
     0
176
   256
177
   256
178
     4
  0
DIMSTYLE
  2
GEN-ANSI$3
 70
     0
  3

  4
"
  5

  6

  7

 40
1.0
 41
2.0
 42
0.5
 43
10.0
 44
0.5
 45
0.0
 46
0.0
 47
0.1
 48
0.1
140
2.5
141
0.0
142
0.0
143
0.0393701
144
1.0
145
0.0
146
0.71
147
1.5
 71
     0
 72
     0
 73
     1
 74
     1
 75
     0
 76
     0
 77
     0
 78
     8
170
     0
171
     2
172
     0
173
     0
174
     0
175
     0
176
   256
177
   256
178
     4
  0
DIMSTYLE
  2
GEN-ANSI$4
 70
     0
  3

  4
"
  5

  6

  7

 40
1.0
 41
2.0
 42
0.5
 43
10.0
 44
0.5
 45
0.0
 46
0.0
 47
0.1
 48
0.1
140
2.5
141
0.0
142
0.0
143
0.0393701
144
1.0
145
0.0
146
0.71
147
1.5
 71
     0
 72
     0
 73
     1
 74
     1
 75
     0
 76
     0
 77
     0
 78
     8
170
     0
171
     2
172
     0
173
     0
174
     0
175
     0
176
   256
177
   256
178
     4
  0
DIMSTYLE
  2
GEN-ANSI$6
 70
     0
  3

  4
"
  5

  6

  7

 40
1.0
 41
2.0
 42
0.5
 43
10.0
 44
0.5
 45
0.0
 46
0.0
 47
0.1
 48
0.1
140
2.5
141
0.0
142
0.0
143
0.0393701
144
1.0
145
0.0
146
0.71
147
1.5
 71
     0
 72
     0
 73
     1
 74
     1
 75
     0
 76
     0
 77
     0
 78
     8
170
     0
171
     2
172
     0
173
     0
174
     0
175
     0
176
   256
177
   256
178
     4
  0
DIMSTYLE
  2
GEN-ANSI-POS
 70
     0
  3

  4
"
  5

  6

  7

 40
1.0
 41
2.5
 42
0.5
 43
10.0
 44
0.5
 45
0.0
 46
0.0
 47
0.1
 48
0.1
140
5.0
141
0.0
142
0.0
143
0.0393701
144
1.0
145
0.0
146
0.71
147
1.5
 71
     0
 72
     0
 73
     0
 74
     0
 75
     0
 76
     0
 77
     0
 78
     8
170
     0
171
     2
172
     0
173
     0
174
     0
175
     0
176
   256
177
   256
178
     4
  0
DIMSTYLE
  2
GEN-ANSI-AXE-F
 70
     0
  3

  4
"
  5

  6

  7

 40
1.0
 41
2.0
 42
0.5
 43
10.0
 44
0.5
 45
0.0
 46
0.0
 47
0.1
 48
0.1
140
2.5
141
0.0
142
0.0
143
0.0393701
144
1.0
145
0.0
146
0.71
147
1.5
 71
     0
 72
     0
 73
     1
 74
     1
 75
     1
 76
     1
 77
     0
 78
     8
170
     0
171
     2
172
     0
173
     1
174
     0
175
     0
176
   256
177
   256
178
     4
  0
DIMSTYLE
  2
GEN-ANSI-AXE-H
 70
     0
  3

  4
"
  5

  6

  7

 40
1.0
 41
2.0
 42
0.5
 43
10.0
 44
0.5
 45
0.0
 46
0.0
 47
0.1
 48
0.1
140
2.5
141
0.0
142
0.0
143
0.0393701
144
2.0
145
0.0
146
0.71
147
1.5
 71
     0
 72
     0
 73
     0
 74
     0
 75
     1
 76
     1
 77
     0
 78
     8
170
     0
171
     2
172
     1
173
     1
174
     0
175
     0
176
   256
177
   256
178
     4
  0
DIMSTYLE
  2
AM_ANSI
 70
     0
  3

  4
mm
  5

  6

  7

 40
1.0
 41
0.12
 42
0.05
 43
0.5
 44
0.1
 45
0.0
 46
0.0
 47
0.1
 48
0.1
140
0.12
141
0.0
142
0.0
143
25.399999999999999
144
1.0
145
0.0
146
0.71
147
0.06
 71
     0
 72
     0
 73
     1
 74
     1
 75
     0
 76
     0
 77
     0
 78
     7
170
     0
171
     2
172
     0
173
     0
174
     0
175
     0
176
   256
177
   256
178
     2
  0
DIMSTYLE
  2
AM_ANSI$3
 70
     0
  3

  4
mm
  5

  6

  7

 40
1.0
 41
0.12
 42
0.05
 43
0.5
 44
0.1
 45
0.0
 46
0.0
 47
0.1
 48
0.1
140
0.12
141
0.0
142
0.0
143
25.399999999999999
144
1.0
145
0.0
146
0.71
147
0.06
 71
     0
 72
     0
 73
     1
 74
     1
 75
     0
 76
     0
 77
     0
 78
     7
170
     0
171
     2
172
     0
173
     0
174
     0
175
     0
176
   256
177
   256
178
     2
  0
DIMSTYLE
  2
AM_ANSI$4
 70
     0
  3

  4
mm
  5

  6

  7

 40
1.0
 41
0.12
 42
0.05
 43
0.5
 44
0.1
 45
0.0
 46
0.0
 47
0.1
 48
0.1
140
0.12
141
0.0
142
0.0
143
25.399999999999999
144
1.0
145
0.0
146
0.71
147
0.06
 71
     0
 72
     0
 73
     1
 74
     1
 75
     0
 76
     0
 77
     0
 78
     7
170
     0
171
     2
172
     0
173
     0
174
     0
175
     0
176
   256
177
   256
178
     2
  0
DIMSTYLE
  2
AM_ANSI$7
 70
     0
  3

  4
mm
  5

  6

  7

 40
1.0
 41
0.12
 42
0.05
 43
0.5
 44
0.1
 45
0.0
 46
0.0
 47
0.1
 48
0.1
140
0.12
141
0.0
142
0.0
143
25.399999999999999
144
1.0
145
0.0
146
0.71
147
0.06
 71
     0
 72
     0
 73
     1
 74
     1
 75
     0
 76
     0
 77
     0
 78
     7
170
     0
171
     2
172
     0
173
     0
174
     0
175
     0
176
   256
177
   256
178
     2
  0
DIMSTYLE
  2
AM_ANSI$SF
 70
     0
  3

  4
mm
  5

  6

  7

 40
1.0
 41
0.12
 42
0.05
 43
0.5
 44
0.1
 45
0.0
 46
0.0
 47
0.1
 48
0.1
140
0.12
141
0.0
142
0.0
143
25.399999999999999
144
1.0
145
0.0
146
0.71
147
0.06
 71
     0
 72
     0
 73
     1
 74
     1
 75
     1
 76
     1
 77
     0
 78
     7
170
     0
171
     2
172
     0
173
     0
174
     0
175
     0
176
   256
177
   256
178
     2
  0
DIMSTYLE
  2
AM_ANSI$SH
 70
     0
  3

  4
mm
  5

  6
GENAXEH
  7

 40
1.0
 41
0.12
 42
0.05
 43
0.5
 44
0.1
 45
0.0
 46
0.0
 47
0.1
 48
0.1
140
0.12
141
0.0
142
0.0
143
25.399999999999999
144
1.0
145
0.0
146
0.71
147
0.06
 71
     0
 72
     0
 73
     1
 74
     1
 75
     1
 76
     1
 77
     0
 78
     7
170
     0
171
     2
172
     0
173
     1
174
     0
175
     0
176
   256
177
   256
178
     2
  0
ENDTAB
  0
ENDSEC
  0
SECTION
  2
BLOCKS
  0
BLOCK
  8
0
  2
$MODEL_SPACE
 70
     0
 10
0.0
 20
0.0
 30
0.0
  3
$MODEL_SPACE
  1

  0
ENDBLK
  5
A002
  8
0
  0
BLOCK
 67
     1
  8
0
  2
$PAPER_SPACE
 70
     0
 10
0.0
 20
0.0
 30
0.0
  3
$PAPER_SPACE
  1

  0
ENDBLK
  5
9FFE
 67
     1
  8
0
  0
BLOCK
  8
0
  2
GENAXEH
 70
     0
 10
0.0
 20
0.0
 30
0.0
  3
GENAXEH
  1

  0
LINE
  5
9F47
  8
0
 10
-1.0
 20
0.0
 30
0.0
 11
1.0
 21
0.0
 31
0.0
  0
ENDBLK
  5
9F49
  8
0
  0
BLOCK
  8
0
  2
_ACMFILLEDHALF
 70
     0
 10
0.0
 20
0.0
 30
0.0
  3
_ACMFILLEDHALF
  1

  0
TRACE
  5
A10F
  8
AM_0
 62
     0
 10
-0.8
 20
0.0
 30
0.0
 11
-1.0
 21
0.166666666
 31
0.0
 12
0.0
 22
0.0
 32
0.0
 13
0.0
 23
0.0
 33
0.0
  0
LINE
  5
A110
  8
AM_0
 62
     0
 10
-1.0
 20
0.0
 30
0.0
 11
-0.8
 21
0.0
 31
0.0
  0
ENDBLK
  5
A10E
  8
0
  0
ENDSEC
  0
SECTION
  2
ENTITIES
  0
POINT
  5
1B94
  8
0
 10
0.0
 20
0.0
 30
0.0
1001
GENIUS_GENODEF_13
1002
{
1000
HIER
1070
     1
1002
}
1002
{
1000
MANEDIT
1070
     0
1002
}
1002
{
1000
NOSEL
1070
     0
1002
}
1002
{
1000
BEHIND
1070
     0
1002
}
1002
{
1000
REACTOR
1002
}
1001
GENIUS_GENOBJ-N-SDF_13
1002
{
1000
OWNER
1000
GEN
1002
}
1001
GENIUS_GENOENT_13
1002
{
1000
MYREF
1005
1B94
1002
}
1002
{
1000
GRP
1005
0
1002
}
1001
GENIUS_GENOLIS_13
1002
{
1000
ENT
1005
89
1002
}
  0
LINE
  5
8C7F
  8
AM_0
 10
325.02352675714468
 20
110.7029832175736
 30
0.0
 11
347.02357675714518
 21
110.7029832175736
 31
0.0
  0
LINE
  5
8C80
  8
ﾁｭｳｼﾝｾﾝ
 10
245.67412675714451
 20
98.702981217573651
 30
0.0
 11
348.75709675714461
 21
98.702981217573651
 31
0.0
  0
LINE
  5
8C81
  8
AM_0
 10
319.02352675714468
 20
89.202980217573653
 30
0.0
 11
347.02357675714518
 21
89.202980217573653
 31
0.0
  0
LINE
  5
8C82
  8
AM_0
 10
319.02352675714468
 20
108.2029972175736
 30
0.0
 11
347.02357675714518
 21
108.2029972175736
 31
0.0
  0
LINE
  5
8C83
  8
ﾁｭｳｼﾝｾﾝ
 10
240.25462133791001
 20
98.702981217573651
 30
0.0
 11
353.18916215861481
 21
98.702981217573651
 31
0.0
  0
ARC
  5
8C84
  8
AM_0
 10
225.52357675714441
 20
131.20298321757349
 30
0.0
 40
2.00000007
 50
0.0
 51
90.000002999984645
  0
LINE
  5
8C85
  8
AM_0
 10
307.02358675714453
 20
158.20298321757349
 30
0.0
 11
307.02358675714453
 21
44.087654217573792
 31
0.0
  0
LINE
  5
8C86
  8
AM_0
 10
312.02356675714452
 20
173.7029692175735
 30
0.0
 11
312.02356675714452
 21
28.79914121757389
 31
0.0
  0
LINE
  5
8C87
  8
AM_0
 10
316.02358675714453
 20
168.70298921757359
 30
0.0
 11
316.02358675714453
 21
98.702981217573651
 31
0.0
  0
LINE
  5
8C88
  8
AM_0
 10
289.02358675714453
 20
162.93409421757349
 30
0.0
 11
289.02358675714453
 21
56.967659217573711
 31
0.0
  0
LINE
  5
8C89
  8
AM_0
 10
219.52357675714521
 20
145.2029842175736
 30
0.0
 11
219.52357675714521
 21
18.202904217573799
 31
0.0
  0
LINE
  5
8C8A
  8
AM_0
 10
224.5235867571445
 20
133.20298121757361
 30
0.0
 11
224.5235867571445
 21
144.0978802175735
 31
0.0
  0
LINE
  5
8C8B
  8
AM_0
 10
257.02357675714518
 20
16.889045217573791
 30
0.0
 11
257.02357675714518
 21
141.70298321757349
 31
0.0
  0
LINE
  5
8C8C
  8
ﾁｭｳｼﾝｾﾝ
 10
10.80002578414951
 20
81.702980217573653
 30
0.0
 11
249.92018964283261
 21
81.702980217573653
 31
0.0
  0
LINE
  5
8C8D
  8
AM_0
 10
302.02357675714438
 20
31.07972021757379
 30
0.0
 11
302.02357675714438
 21
58.167962217573702
 31
0.0
  0
LINE
  5
8C8E
  8
AM_0
 10
316.02358675714453
 20
98.702981217573651
 30
0.0
 11
316.02358675714453
 21
33.202949217573888
 31
0.0
  0
LINE
  5
8C8F
  8
AM_0
 10
224.5235867571445
 20
43.706657217573699
 30
0.0
 11
224.5235867571445
 21
119.6992882175736
 31
0.0
  0
LINE
  5
8C90
  8
AM_0
 10
257.02360675714448
 20
16.889060217573881
 30
0.0
 11
293.02363675714457
 21
15.631904217573799
 31
0.0
  0
LINE
  5
8C91
  8
AM_0
 10
257.02357675714518
 20
28.922324217573909
 30
0.0
 11
293.02357675714438
 21
28.922324217573909
 31
0.0
  0
ARC
  5
8C92
  8
AM_0
 10
224.50906675714441
 20
17.33315321757371
 30
0.0
 40
1.0000000199999961
 50
30.000000999992341
 51
91.500000999988515
  0
ARC
  5
8C93
  8
AM_0
 10
225.52357675714441
 20
19.8777382175738
 30
0.0
 40
1.0000000199999961
 50
91.500000999988515
 51
180.00000999999921
  0
LINE
  5
8C94
  8
AM_0
 10
219.52357675714521
 20
43.706657217573699
 30
0.0
 11
225.52357675714441
 21
43.706657217573699
 31
0.0
  0
LINE
  5
8C95
  8
AM_0
 10
219.52357675714521
 20
30.202949217573881
 30
0.0
 11
225.52357675714441
 21
30.202949217573881
 31
0.0
  0
LINE
  5
8C96
  8
AM_0
 10
224.5235867571445
 20
19.308035217573881
 30
0.0
 11
224.5235867571445
 21
30.202949217573881
 31
0.0
  0
LINE
  5
8C97
  8
AM_0
 10
212.52361675714471
 20
18.202979217573692
 30
0.0
 11
219.52357675714521
 21
18.202979217573692
 31
0.0
  0
ARC
  5
8C98
  8
AM_0
 10
223.52356675714461
 20
19.308035217573881
 30
0.0
 40
1.0000000199999961
 50
271.50000000001569
 51
0.0
  0
LINE
  5
8C99
  8
AM_0
 10
219.52357675714521
 20
18.202964217573701
 30
0.0
 11
224.48293675714461
 21
18.332831217573691
 31
0.0
  0
LINE
  5
8C9A
  8
AM_0
 10
212.52361675714471
 20
29.662970217573701
 30
0.0
 11
219.52357675714521
 21
29.662970217573701
 31
0.0
  0
LINE
  5
8C9B
  8
AM_0
 10
211.52356675714461
 20
44.552969217573789
 30
0.0
 11
219.52357675714521
 21
44.552969217573789
 31
0.0
  0
LINE
  5
8C9C
  8
AM_0
 10
226.97818675714461
 20
16.102286217573798
 30
0.0
 11
257.02360675714448
 21
16.889045217573791
 31
0.0
  0
LINE
  5
8C9D
  8
AM_0
 10
225.49741675714441
 20
20.877401217573802
 30
0.0
 11
257.02360675714448
 21
21.7029322175737
 31
0.0
  0
ARC
  5
8C9E
  8
AM_0
 10
226.95196675714439
 20
17.101934217573689
 30
0.0
 40
1.0000000199999961
 50
209.99999999999579
 51
271.50000000001569
  0
LINE
  5
8C9F
  8
AM_0
 10
225.37513675714439
 20
17.833166217573591
 30
0.0
 11
226.0859867571443
 21
16.601936217573801
 31
0.0
  0
LINE
  5
8CA0
  8
AM_0
 10
227.5235867571445
 20
32.202965217573791
 30
0.0
 11
227.5235867571445
 21
41.706656217573887
 31
0.0
  0
ARC
  5
8CA1
  8
AM_0
 10
225.52357675714441
 20
32.202965217573791
 30
0.0
 40
2.00000007
 50
270.0
 51
0.0
  0
ARC
  5
8CA2
  8
AM_0
 10
225.52357675714441
 20
41.706656217573887
 30
0.0
 40
2.00000007
 50
0.0
 51
90.000002999984645
  0
ARC
  5
8CA3
  8
AM_0
 10
287.5090667571443
 20
23.498543217573712
 30
0.0
 40
9.5144921999999994
 50
342.411959999994
 51
17.588032999999289
  0
LINE
  5
8CA4
  8
AM_0
 10
297.02356675714452
 20
27.81104321757379
 30
0.0
 11
297.02356675714452
 21
19.186043217573911
 31
0.0
  0
LINE
  5
8CA5
  8
AM_0
 10
293.02357675714438
 20
31.901756217573698
 30
0.0
 11
293.02357675714438
 21
15.70296221757379
 31
0.0
  0
ARC
  5
8CA6
  8
AM_0
 10
294.4781567571444
 20
19.186043217573911
 30
0.0
 40
2.5454064299999981
 50
325.61557000001091
 51
34.38443900000275
  0
LINE
  5
8CA7
  8
AM_0
 10
296.57881675714458
 20
20.62354121757371
 30
0.0
 11
293.02357675714438
 21
20.62354121757371
 31
0.0
  0
LINE
  5
8CA8
  8
AM_0
 10
296.57881675714458
 20
17.74854221757391
 30
0.0
 11
293.02357675714438
 21
17.74854221757391
 31
0.0
  0
LINE
  5
8CA9
  8
AM_0
 10
303.95380675714472
 20
29.080955217573798
 30
0.0
 11
312.02356675714452
 21
28.79915621757371
 31
0.0
  0
LINE
  5
8CAA
  8
AM_0
 10
293.99740675714469
 20
32.626181217573901
 30
0.0
 11
302.02360675714448
 21
32.836355217573612
 31
0.0
  0
ARC
  5
8CAB
  8
AM_0
 10
294.4781567571444
 20
27.81104321757379
 30
0.0
 40
2.5454064299999981
 50
325.61557000001091
 51
34.38443900000275
  0
ARC
  5
8CAC
  8
AM_0
 10
294.02356675714452
 20
31.6265182175737
 30
0.0
 40
1.0000000199999961
 50
91.500000999988515
 51
180.00000999999921
  0
LINE
  5
8CAD
  8
AM_0
 10
296.57881675714458
 20
26.373542217573799
 30
0.0
 11
293.02357675714438
 21
26.373542217573799
 31
0.0
  0
LINE
  5
8CAE
  8
AM_0
 10
296.57881675714458
 20
29.2485562175737
 30
0.0
 11
293.02357675714438
 21
29.2485562175737
 31
0.0
  0
ARC
  5
8CAF
  8
AM_0
 10
304.02358675714453
 20
31.07972021757379
 30
0.0
 40
2.00000007
 50
179.99999000000059
 51
268.00000999999207
  0
ARC
  5
8CB0
  8
AM_0
 10
305.02357675714438
 20
44.087654217573792
 30
0.0
 40
2.00000007
 50
267.99999999999631
 51
0.0
  0
LINE
  5
8CB1
  8
AM_0
 10
312.02359675714422
 20
33.098228217573791
 30
0.0
 11
316.02358675714453
 21
33.202964217573708
 31
0.0
  0
LINE
  5
8CB2
  8
AM_0
 10
257.02357675714518
 20
124.30982321757349
 30
0.0
 11
287.21956675714449
 21
124.30982321757349
 31
0.0
  0
LINE
  5
8CB3
  8
AM_0
 10
219.52357675714521
 20
119.6992882175736
 30
0.0
 11
225.52357675714441
 21
119.6992882175736
 31
0.0
  0
LINE
  5
8CB4
  8
AM_0
 10
219.52357675714521
 20
133.20298121757361
 30
0.0
 11
225.52357675714441
 21
133.20298121757361
 31
0.0
  0
LINE
  5
8CB5
  8
AM_0
 10
211.52356675714461
 20
118.8529762175736
 30
0.0
 11
219.52357675714521
 21
118.8529762175736
 31
0.0
  0
LINE
  5
8CB6
  8
AM_0
 10
228.9759167571446
 20
124.30982321757349
 30
0.0
 11
257.02357675714518
 21
124.30982321757349
 31
0.0
  0
LINE
  5
8CB7
  8
AM_0
 10
227.5235867571445
 20
121.69928921757359
 30
0.0
 11
227.5235867571445
 21
131.20298321757349
 31
0.0
  0
ARC
  5
8CB8
  8
AM_0
 10
225.52357675714441
 20
121.69928921757359
 30
0.0
 40
2.00000007
 50
270.0
 51
0.0
  0
LINE
  5
8CB9
  8
AM_0
 10
317.02357675714518
 20
117.7288312175736
 30
0.0
 11
317.02357675714518
 21
79.4585512175736
 31
0.0
  0
LINE
  5
8CBA
  8
AM_0
 10
319.02352675714468
 20
88.702997217573582
 30
0.0
 11
319.02352675714468
 21
98.702981217573651
 31
0.0
  0
ARC
  5
8CBB
  8
AM_0
 10
294.02356675714452
 20
56.967659217573711
 30
0.0
 40
5.0000000999999967
 50
179.99999000000059
 51
270.0
  0
LINE
  5
8CBC
  8
AM_0
 10
294.02356675714452
 20
51.9676582175737
 30
0.0
 11
302.02357675714438
 21
51.9676582175737
 31
0.0
  0
ARC
  5
8CBD
  8
AM_0
 10
304.02358675714453
 20
58.167962217573702
 30
0.0
 40
2.00000007
 50
90.000002999984645
 51
180.00000999999921
  0
ARC
  5
8CBE
  8
AM_0
 10
315.02356675714452
 20
79.4585512175736
 30
0.0
 40
2.00000007
 50
315.00000000000688
 51
0.0
  0
LINE
  5
8CBF
  8
AM_0
 10
316.02361675714468
 20
77.630045217573652
 30
0.0
 11
316.4378567571452
 21
78.044258217573613
 31
0.0
  0
LINE
  5
8CC0
  8
AM_0
 10
317.02357675714518
 20
88.702997217573582
 30
0.0
 11
319.02352675714468
 21
88.702997217573582
 31
0.0
  0
LINE
  5
8CC1
  8
AM_0
 10
319.02352675714468
 20
108.7029802175736
 30
0.0
 11
319.02352675714468
 21
98.702981217573651
 31
0.0
  0
LINE
  5
8CC2
  8
AM_0
 10
325.02352675714468
 20
108.2029972175736
 30
0.0
 11
325.02352675714468
 21
110.7029832175736
 31
0.0
  0
LINE
  5
8CC3
  8
AM_0
 10
317.02357675714518
 20
108.7029802175736
 30
0.0
 11
319.02352675714468
 21
108.7029802175736
 31
0.0
  0
ARC
  5
8CC4
  8
AM_0
 10
315.02356675714452
 20
117.80170721757359
 30
0.0
 40
2.00000007
 50
0.0
 51
45.000000999995741
  0
LINE
  5
8CC5
  8
AM_0
 10
316.02358675714453
 20
119.63007521757361
 30
0.0
 11
316.4378567571452
 21
119.2158442175736
 31
0.0
  0
LINE
  5
8CC6
  8
AM_0
 10
257.02357675714518
 20
141.70298321757349
 30
0.0
 11
286.1021267571445
 21
142.46442821757361
 31
0.0
  0
ARC
  5
8CC7
  8
AM_0
 10
225.52357675714441
 20
143.52820721757359
 30
0.0
 40
1.0000000199999961
 50
179.99999000000059
 51
268.50000999999872
  0
ARC
  5
8CC8
  8
AM_0
 10
223.52356675714461
 20
144.0978802175735
 30
0.0
 40
1.0000000199999961
 50
0.0
 51
88.499997000013778
  0
LINE
  5
8CC9
  8
AM_0
 10
212.52361675714471
 20
133.74296021757351
 30
0.0
 11
219.52357675714521
 21
133.74296021757351
 31
0.0
  0
LINE
  5
8CCA
  8
AM_0
 10
212.52361675714471
 20
145.2029842175736
 30
0.0
 11
219.52357675714521
 21
145.2029842175736
 31
0.0
  0
LINE
  5
8CCB
  8
AM_0
 10
219.52357675714521
 20
145.2029512175736
 30
0.0
 11
223.54969675714429
 21
145.09754321757359
 31
0.0
  0
LINE
  5
8CCC
  8
AM_0
 10
225.49738675714431
 20
142.52851421757359
 30
0.0
 11
257.02357675714518
 21
141.70298321757349
 31
0.0
  0
ARC
  5
8CCD
  8
AM_0
 10
294.02356675714452
 20
162.93409421757349
 30
0.0
 40
5.0000000999999967
 50
91.999997999994008
 51
180.00000999999921
  0
ARC
  5
8CCE
  8
AM_0
 10
286.02358675714453
 20
145.46342021757351
 30
0.0
 40
3.0
 50
271.50000000001569
 51
0.0
  0
LINE
  5
8CCF
  8
AM_0
 10
302.02357675714438
 20
171.42239921757351
 30
0.0
 11
302.02357675714438
 21
139.1433502175735
 31
0.0
  0
ARC
  5
8CD0
  8
AM_0
 10
304.02358675714453
 20
139.1433502175735
 30
0.0
 40
2.00000007
 50
179.99999000000059
 51
271.51463999999248
  0
LINE
  5
8CD1
  8
AM_0
 10
303.95377675714462
 20
173.42114921757349
 30
0.0
 11
312.02356675714452
 21
173.7029392175736
 31
0.0
  0
ARC
  5
8CD2
  8
AM_0
 10
304.02358675714453
 20
158.20298321757349
 30
0.0
 40
3.0
 50
0.0
 51
90.000002999984645
  0
ARC
  5
8CD3
  8
AM_0
 10
299.02357675714438
 20
171.11360921757361
 30
0.0
 40
3.0
 50
272.00000000000358
 51
0.0
  0
LINE
  5
8CD4
  8
AM_0
 10
293.8490267571446
 20
167.93102921757361
 30
0.0
 11
299.1282767571447
 21
168.11540921757361
 31
0.0
  0
ARC
  5
8CD5
  8
AM_0
 10
304.02358675714453
 20
171.42239921757351
 30
0.0
 40
2.00000007
 50
91.999997999994008
 51
180.00000999999921
  0
LINE
  5
8CD6
  8
AM_0
 10
312.02356675714452
 20
168.70298921757359
 30
0.0
 11
316.02358675714453
 21
168.70298921757359
 31
0.0
  0
LINE
  5
8CD8
  8
AM_0
 10
347.02357675714518
 20
89.202980217573653
 30
0.0
 11
347.02357675714518
 21
110.7029832175736
 31
0.0
  0
ARC
  5
8CDC
  8
AM_0
 10
517.43365960709991
 20
98.702981217573651
 30
0.0
 40
66.000003000000007
 50
291.27995999998888
 51
248.7200300000012
  0
ARC
  5
8CDD
  8
AM_0
 10
517.43365960709991
 20
98.702981217573651
 30
0.0
 40
70.000001999999995
 50
290.65614999999718
 51
249.34384000000179
  0
ARC
  5
8CDE
  8
AM_0
 10
517.43365960709991
 20
98.702981217573651
 30
0.0
 40
44.000000999999983
 50
95.494178999992783
 51
132.45268000000581
  0
ARC
  5
8CDF
  8
AM_0
 10
517.43365960709991
 20
98.702981217573651
 30
0.0
 40
44.000000999999983
 50
47.547316999987821
 51
84.505819000000585
  0
LINE
  5
8CE0
  8
AM_0
 10
442.4336416071007
 20
118.7029522175736
 30
0.0
 11
446.1270946071001
 21
160.91913821757359
 31
0.0
  0
LINE
  5
8CE1
  8
AM_0
 10
592.43366260710013
 20
118.70293721757361
 30
0.0
 11
588.74022760709977
 21
160.91910821757341
 31
0.0
  0
LINE
  5
8CE2
  8
AM_0
 10
541.91298460710073
 20
120.3538762175736
 30
0.0
 11
563.25507160709981
 21
141.69596321757359
 31
0.0
  0
LINE
  5
8CE3
  8
AM_0
 10
495.7827346071
 20
123.1823062175736
 30
0.0
 11
474.44067760709981
 21
144.52436321757361
 31
0.0
  0
LINE
  5
8CE4
  8
AM_0
 10
539.08455460709956
 20
123.1823062175736
 30
0.0
 11
560.42664160709887
 21
144.5243932175737
 31
0.0
  0
LINE
  5
8CE5
  8
ﾁｭｳｼﾝｾﾝ
 10
517.43365960709991
 20
12.142609199551091
 30
0.0
 11
517.43365960709991
 21
177.45698494920691
 31
0.0
  0
LINE
  5
8CE6
  8
AM_0
 10
492.95430460710008
 20
120.3538912175736
 30
0.0
 11
471.61224760709979
 21
141.69593321757361
 31
0.0
  0
ARC
  5
8CE7
  8
AM_0
 10
538.98366460709997
 20
63.822959217573612
 30
0.0
 40
20.000000700000001
 50
225.82603000000711
 51
17.592214000003722
  0
ARC
  5
8CE8
  8
AM_0
 10
554.69608060709993
 20
47.904212217573793
 30
0.0
 40
3.0
 50
211.7091199999947
 51
306.26120000000401
  0
ARC
  5
8CE9
  8
AM_0
 10
517.43365960709991
 20
98.702981217573651
 30
0.0
 40
44.000000999999983
 50
19.99999899999418
 51
42.452682000012373
  0
LINE
  5
8CEA
  8
AM_0
 10
555.93259360710022
 20
27.7029502175738
 30
0.0
 11
552.75717760710018
 21
33.202949217573888
 31
0.0
  0
LINE
  5
8CEB
  8
AM_0
 10
558.04830160710003
 20
69.867761217573673
 30
0.0
 11
546.03061660709886
 21
107.77018121757359
 31
0.0
  0
LINE
  5
8CEC
  8
ﾁｭｳｼﾝｾﾝ
 10
439.80566657012008
 20
98.702981217573651
 30
0.0
 11
595.06165264407991
 21
98.702981217573665
 31
0.0
  0
LINE
  5
8CED
  8
AM_0
 10
442.43367460709987
 20
78.702950217573601
 30
0.0
 11
446.09695660710008
 21
36.831398217573813
 31
0.0
  0
LINE
  5
8CEE
  8
AM_0
 10
551.1445696070989
 20
47.944907217573792
 30
0.0
 11
552.14391160709988
 21
46.32740021757381
 31
0.0
  0
LINE
  5
8CEF
  8
AM_0
 10
487.73515660709978
 20
66.176048217573666
 30
0.0
 11
511.58693560709997
 21
42.324272217573807
 31
0.0
  0
ARC
  5
8CF0
  8
AM_0
 10
493.32460360709979
 20
23.498543217573712
 30
0.0
 40
7.0000007999999987
 50
161.74801999999281
 51
270.0
  0
LINE
  5
8CF1
  8
AM_0
 10
482.11015660709978
 20
33.202949217573888
 30
0.0
 11
517.43365960709991
 21
33.202949217573888
 31
0.0
  0
ARC
  5
8CF2
  8
AM_0
 10
456.05888860710053
 20
37.70294921757371
 30
0.0
 40
10.000000199999979
 50
184.99998999999889
 51
270.0
  0
CIRCLE
  5
8CF4
  8
AM_0
 10
457.32959260709981
 20
38.598884217573797
 30
0.0
 40
5.0000000999999967
  0
LINE
  5
8CF6
  8
AM_0
 10
478.93474360709979
 20
27.7029502175738
 30
0.0
 11
456.05888860710053
 21
27.7029502175738
 31
0.0
  0
LINE
  5
8CF7
  8
AM_0
 10
478.93472860709988
 20
27.7029502175738
 30
0.0
 11
482.11015660709978
 21
33.202964217573708
 31
0.0
  0
ARC
  5
8CF8
  8
AM_0
 10
517.43365960709991
 20
81.702980217573653
 30
0.0
 40
60.000002999999992
 50
233.9334099999881
 51
236.89084999999531
  0
ARC
  5
8CF9
  8
AM_0
 10
481.92835060709967
 20
27.256889217573701
 30
0.0
 40
5.0000000999999967
 50
341.74801999999278
 51
56.890858999990847
  0
LINE
  5
8CFA
  8
AM_0
 10
493.32460360709979
 20
16.498541217573798
 30
0.0
 11
541.54273060709977
 21
16.498541217573798
 31
0.0
  0
LINE
  5
8CFB
  8
AM_0
 10
541.38673960709968
 20
37.202948217573812
 30
0.0
 11
493.48059460710078
 21
37.202948217573812
 31
0.0
  0
LINE
  5
8CFC
  8
AM_0
 10
552.7571626071001
 20
33.202949217573888
 30
0.0
 11
517.43365960709991
 21
33.202949217573888
 31
0.0
  0
CIRCLE
  5
8CFD
  8
AM_0
 10
493.32460360709979
 20
23.498558217573692
 30
0.0
 40
4.9999998000000003
  0
LINE
  5
8CFE
  8
AM_0
 10
488.32462060709997
 20
26.38530521757389
 30
0.0
 11
488.32462060709997
 21
20.611793217573592
 31
0.0
  0
LINE
  5
8CFF
  8
AM_0
 10
498.32460460710001
 20
20.611793217573592
 30
0.0
 11
498.32460460710001
 21
26.38530521757389
 31
0.0
  0
LINE
  5
8D00
  8
AM_0
 10
493.32460360709979
 20
17.725073217573801
 30
0.0
 11
498.32460460710001
 21
20.6118232175738
 31
0.0
  0
LINE
  5
8D01
  8
AM_0
 10
488.32462060709997
 20
20.611793217573592
 30
0.0
 11
493.32460360709979
 21
17.725043217573699
 31
0.0
  0
LINE
  5
8D02
  8
AM_0
 10
498.32460460710001
 20
26.385290217573701
 30
0.0
 11
493.32460360709979
 21
29.27204021757391
 31
0.0
  0
LINE
  5
8D03
  8
AM_0
 10
493.3246216070998
 20
29.2720552175739
 30
0.0
 11
488.32462060709997
 21
26.38530521757389
 31
0.0
  0
ARC
  5
8D04
  8
AM_0
 10
509.46562660709992
 20
40.202948217573812
 30
0.0
 40
3.0
 50
270.0
 51
45.000000999995741
  0
ARC
  5
8D05
  8
AM_0
 10
541.54273060709977
 20
23.498543217573712
 30
0.0
 40
7.0000007999999987
 50
270.0
 51
18.25197799999377
  0
CIRCLE
  5
8D06
  8
AM_0
 10
541.54273060709977
 20
23.498558217573692
 30
0.0
 40
4.9999998000000003
  0
LINE
  5
8D07
  8
AM_0
 10
536.54271460709992
 20
26.38530521757389
 30
0.0
 11
536.54271460709992
 21
20.611793217573592
 31
0.0
  0
LINE
  5
8D08
  8
AM_0
 10
546.54271660710015
 20
20.611793217573592
 30
0.0
 11
546.54271660710015
 21
26.38530521757389
 31
0.0
  0
LINE
  5
8D09
  8
AM_0
 10
536.5427296071
 20
20.611793217573592
 30
0.0
 11
541.54273060709977
 21
17.725043217573699
 31
0.0
  0
LINE
  5
8D0A
  8
AM_0
 10
541.54271560709981
 20
17.72505821757381
 30
0.0
 11
546.54273160710022
 21
20.611808217573689
 31
0.0
  0
LINE
  5
8D0B
  8
AM_0
 10
541.54271560709981
 20
29.27207021757372
 30
0.0
 11
536.54271460709992
 21
26.385323217573699
 31
0.0
  0
LINE
  5
8D0C
  8
AM_0
 10
546.54273160710022
 20
26.385290217573701
 30
0.0
 11
541.54273060709977
 21
29.27204021757391
 31
0.0
  0
ARC
  5
8D0D
  8
AM_0
 10
517.43365960709991
 20
81.702980217573653
 30
0.0
 40
60.000002999999992
 50
303.109139999994
 51
306.06659000001167
  0
ARC
  5
8D0E
  8
AM_0
 10
517.43365960709991
 20
81.702980217573653
 30
0.0
 40
60.000002999999992
 50
303.109139999994
 51
304.41150999999837
  0
ARC
  5
8D0F
  8
AM_0
 10
552.93898660709988
 20
27.256889217573701
 30
0.0
 40
5.0000000999999967
 50
123.1091300000131
 51
198.25198000000699
  0
ARC
  5
8D10
  8
AM_0
 10
546.18881860710076
 20
42.648140217573903
 30
0.0
 40
3.0
 50
297.15704999998781
 51
31.709121999999109
  0
LINE
  5
8D11
  8
AM_0
 10
547.74166060710081
 20
45.842474217573901
 30
0.0
 11
548.74100260709997
 21
44.224967217573699
 31
0.0
  0
ARC
  5
8D12
  8
AM_0
 10
517.43365960709991
 20
98.702981217573651
 30
0.0
 40
30.0
 50
17.592214000003722
 51
225.82603000000711
  0
LINE
  5
8D13
  8
AM_0
 10
495.56189560709993
 20
74.00278421757362
 30
0.0
 11
474.44066260710002
 21
52.8815542175739
 31
0.0
  0
LINE
  5
8D14
  8
AM_0
 10
492.95430460710008
 20
77.052056217573593
 30
0.0
 11
471.61221760709992
 21
55.709984217573712
 31
0.0
  0
ARC
  5
8D15
  8
AM_0
 10
517.43365960709991
 20
98.702981217573651
 30
0.0
 40
44.000000999999983
 50
185.49419
 51
222.4526800000078
  0
LINE
  5
8D16
  8
AM_0
 10
442.43367460709987
 20
98.702981217573651
 30
0.0
 11
442.43367460709987
 21
78.702980217573625
 31
0.0
  0
ARC
  5
8D17
  8
AM_0
 10
469.49094160709978
 20
57.831275217573712
 30
0.0
 40
3.0
 50
220.44791999999541
 51
315.00000000000688
  0
ARC
  5
8D18
  8
AM_0
 10
476.56198660709981
 20
50.760215217573823
 30
0.0
 40
3.0
 50
135.00000000000691
 51
229.552079999987
  0
LINE
  5
8D19
  8
AM_0
 10
454.59457660710001
 20
100.20298121757359
 30
0.0
 11
470.6495866071001
 21
100.20298121757359
 31
0.0
  0
LINE
  5
8D1A
  8
AM_0
 10
454.59457660710001
 20
97.202981217573637
 30
0.0
 11
470.6495866071001
 21
97.202981217573637
 31
0.0
  0
LINE
  5
8D1B
  8
AM_0
 10
442.43367460709987
 20
98.702981217573651
 30
0.0
 11
442.43367460709987
 21
118.7029672175736
 31
0.0
  0
ARC
  5
8D1C
  8
AM_0
 10
454.59457660710001
 20
103.20298121757359
 30
0.0
 40
3.0
 50
175.90395000000021
 51
270.0
  0
ARC
  5
8D1D
  8
AM_0
 10
454.59457660710001
 20
94.202981217573637
 30
0.0
 40
3.0
 50
90.000002999984645
 51
184.09603999999689
  0
ARC
  5
8D1E
  8
AM_0
 10
517.43365960709991
 20
98.702981217573651
 30
0.0
 40
44.000000999999983
 50
137.54731999999191
 51
174.5058099999998
  0
ARC
  5
8D1F
  8
AM_0
 10
470.6495866071001
 20
103.20298121757359
 30
0.0
 40
3.0
 50
270.0
 51
354.50581999999991
  0
ARC
  5
8D20
  8
AM_0
 10
470.6495866071001
 20
94.202981217573637
 30
0.0
 40
3.0
 50
5.4941789999992974
 51
90.000002999984645
  0
CIRCLE
  5
8D21
  8
AM_0
 10
467.45239660709979
 20
120.0549562175735
 30
0.0
 40
4.9999998000000003
  0
LINE
  5
8D22
  8
AM_0
 10
472.4524126070998
 20
122.9416612175735
 30
0.0
 11
467.4524116070998
 21
125.8284082175736
 31
0.0
  0
LINE
  5
8D23
  8
AM_0
 10
467.4524116070998
 20
114.2814412175736
 30
0.0
 11
472.45242760709988
 21
117.16819121757359
 31
0.0
  0
LINE
  5
8D24
  8
AM_0
 10
462.45241060710049
 20
122.9417062175736
 30
0.0
 11
462.45241060710049
 21
117.1682062175736
 31
0.0
  0
LINE
  5
8D25
  8
AM_0
 10
462.45241060710049
 20
117.1681612175736
 30
0.0
 11
467.4524116070998
 21
114.28141121757351
 31
0.0
  0
LINE
  5
8D26
  8
AM_0
 10
467.45242660709988
 20
125.8284412175736
 30
0.0
 11
462.4524256071
 21
122.9416762175736
 31
0.0
  0
LINE
  5
8D27
  8
AM_0
 10
472.4524126070998
 20
117.1682062175736
 30
0.0
 11
472.4524126070998
 21
122.9417062175736
 31
0.0
  0
ARC
  5
8D28
  8
AM_0
 10
517.43365960709991
 20
98.702981217573651
 30
0.0
 40
20.000000700000001
 50
90.000002999984645
 51
270.0
  0
ARC
  5
8D29
  8
AM_0
 10
517.43365960709991
 20
98.702981217573651
 30
0.0
 40
20.000000700000001
 50
270.0
 51
90.000002999984645
  0
ARC
  5
8D2A
  8
AM_0
 10
517.43365960709991
 20
98.702981217573651
 30
0.0
 40
20.000000700000001
 50
90.000002999984645
 51
270.0
  0
ARC
  5
8D2B
  8
AM_0
 10
517.43365960709991
 20
98.702981217573651
 30
0.0
 40
20.000000700000001
 50
270.0
 51
90.000002999984645
  0
ARC
  5
8D2C
  8
AM_0
 10
517.43365960709991
 20
98.702981217573651
 30
0.0
 40
9.5000003999999993
 50
108.4084799999999
 51
71.591512000000776
  0
LINE
  5
8D2D
  8
AM_0
 10
525.04687960710021
 20
49.47841721757392
 30
0.0
 11
496.52847760709989
 21
77.186150217573626
 31
0.0
  0
ARC
  5
8D2E
  8
AM_0
 10
490.83299860710008
 20
79.173380217573623
 30
0.0
 40
3.0
 50
315.00000000000688
 51
36.285257000004677
  0
ARC
  5
8D2F
  8
AM_0
 10
497.6832316071002
 20
71.881463217573611
 30
0.0
 40
3.0
 50
45.826030999997379
 51
135.00000000000691
  0
CIRCLE
  5
8D30
  8
AM_0
 10
517.43365960709991
 20
98.702981217573651
 30
0.0
 40
2.4999998400000001
  0
CIRCLE
  5
8D31
  8
AM_5
 10
517.43365960709991
 20
98.702981217573651
 30
0.0
 40
3.0
  0
LINE
  5
8D32
  8
AM_0
 10
520.43365960710003
 20
110.70298121757359
 30
0.0
 11
514.43365960710003
 21
110.70298121757359
 31
0.0
  0
LINE
  5
8D33
  8
AM_0
 10
520.43365960710003
 20
104.70298121757349
 30
0.0
 11
520.43365960710003
 21
110.70298121757359
 31
0.0
  0
LINE
  5
8D34
  8
AM_0
 10
514.43365960710003
 20
104.70298121757349
 30
0.0
 11
520.43365960710003
 21
104.70298121757349
 31
0.0
  0
LINE
  5
8D35
  8
AM_0
 10
514.43365960710003
 20
110.70298121757359
 30
0.0
 11
514.43365960710003
 21
104.70298121757349
 31
0.0
  0
ARC
  5
8D36
  8
AM_0
 10
497.90407360709992
 20
125.3036302175736
 30
0.0
 40
3.0
 50
224.99999999999301
 51
306.2852599999905
  0
ARC
  5
8D37
  8
AM_0
 10
490.83299860710008
 20
118.2325702175736
 30
0.0
 40
3.0
 50
323.7147399999912
 51
45.000000999995741
  0
ARC
  5
8D38
  8
AM_0
 10
536.96326360710066
 20
125.3036302175736
 30
0.0
 40
3.0
 50
233.71475000000041
 51
315.00000000000688
  0
ARC
  5
8D39
  8
AM_0
 10
544.0343086071
 20
118.2325702175736
 30
0.0
 40
3.0
 50
135.00000000000691
 51
216.28526000000869
  0
LINE
  5
8D3A
  8
AM_0
 10
592.4336716071
 20
78.70296521757362
 30
0.0
 11
588.77037760710004
 21
36.831413217573903
 31
0.0
  0
ARC
  5
8D3B
  8
AM_0
 10
578.80841860709984
 20
37.70294921757371
 30
0.0
 40
10.000000199999979
 50
270.0
 51
354.99999999999778
  0
LINE
  5
8D3E
  8
AM_0
 10
555.93259360710022
 20
27.7029502175738
 30
0.0
 11
578.80841860709984
 21
27.7029502175738
 31
0.0
  0
CIRCLE
  5
8D3F
  8
AM_0
 10
577.53773560709999
 20
38.598884217573797
 30
0.0
 40
5.0000000999999967
  0
LINE
  5
8D40
  8
AM_0
 10
592.43366260710013
 20
98.702981217573651
 30
0.0
 11
592.43366260710013
 21
78.702980217573625
 31
0.0
  0
LINE
  5
8D41
  8
AM_0
 10
566.2688206071
 20
93.1768732175737
 30
0.0
 11
575.29303060710004
 21
68.383079217573609
 31
0.0
  0
LINE
  5
8D42
  8
AM_0
 10
558.78014260709983
 20
113.7518392175736
 30
0.0
 11
562.99307860710007
 21
102.17688821757361
 31
0.0
  0
LINE
  5
8D43
  8
AM_0
 10
580.27273660710011
 20
97.202981217573637
 30
0.0
 11
569.08787560709982
 21
97.202981217573637
 31
0.0
  0
LINE
  5
8D44
  8
AM_0
 10
580.27273660710011
 20
100.20298121757359
 30
0.0
 11
565.81213960710079
 21
100.20298121757359
 31
0.0
  0
ARC
  5
8D45
  8
AM_0
 10
565.81213960710079
 20
103.20298121757359
 30
0.0
 40
3.0
 50
199.9999999999969
 51
270.0
  0
ARC
  5
8D46
  8
AM_0
 10
569.08787560709982
 20
94.202981217573637
 30
0.0
 40
3.0
 50
90.000002999984645
 51
199.9999999999969
  0
ARC
  5
8D47
  8
AM_0
 10
580.27273660710011
 20
103.20298121757359
 30
0.0
 40
3.0
 50
270.0
 51
4.0960440000000924
  0
ARC
  5
8D48
  8
AM_0
 10
580.27273660710011
 20
94.202981217573637
 30
0.0
 40
3.0
 50
355.90396000000129
 51
90.000002999984645
  0
CIRCLE
  5
8D49
  8
AM_0
 10
567.41490760709996
 20
120.0549562175735
 30
0.0
 40
4.9999998000000003
  0
LINE
  5
8D4A
  8
AM_0
 10
572.41492360710004
 20
122.9416762175736
 30
0.0
 11
567.41492260710015
 21
125.8284412175736
 31
0.0
  0
LINE
  5
8D4B
  8
AM_0
 10
567.41492260710015
 20
114.2814412175736
 30
0.0
 11
572.41492360710004
 21
117.16819121757359
 31
0.0
  0
LINE
  5
8D4C
  8
AM_0
 10
562.41492460709992
 20
122.9417062175736
 30
0.0
 11
562.41492460709992
 21
117.1682062175736
 31
0.0
  0
LINE
  5
8D4D
  8
AM_0
 10
562.41492460709992
 20
117.1681612175736
 30
0.0
 11
567.41492260710015
 21
114.28141121757351
 31
0.0
  0
LINE
  5
8D4E
  8
AM_0
 10
567.41492260710015
 20
125.8284412175736
 30
0.0
 11
562.41492460709992
 21
122.9417062175736
 31
0.0
  0
LINE
  5
8D4F
  8
AM_0
 10
572.41492360710004
 20
117.1682062175736
 30
0.0
 11
572.41492360710004
 21
122.9417062175736
 31
0.0
  0
LINE
  5
8D50
  8
AM_0
 10
592.43366260710013
 20
98.702981217573651
 30
0.0
 11
592.43366260710013
 21
118.7029672175736
 31
0.0
  0
LINE
  5
8D51
  8
AM_0
 10
537.43364560709983
 20
173.7029692175735
 30
0.0
 11
579.64984060709958
 21
170.00951921757351
 31
0.0
  0
LINE
  5
8D52
  8
AM_0
 10
497.43365860710003
 20
173.7029392175736
 30
0.0
 11
455.21750260710019
 21
170.00951921757351
 31
0.0
  0
ARC
  5
8D53
  8
AM_0
 10
456.08905360709878
 20
160.04758721757349
 30
0.0
 40
10.000000199999979
 50
95.00000199999208
 51
175.000010000001
  0
CIRCLE
  5
8D55
  8
AM_0
 10
457.32959260709981
 20
158.80704821757359
 30
0.0
 40
5.0000000999999967
  0
ARC
  5
8D57
  8
AM_0
 10
469.49094160709978
 20
139.57465721757359
 30
0.0
 40
3.0
 50
45.000000999995741
 51
139.5520800000032
  0
ARC
  5
8D58
  8
AM_0
 10
476.56198660709981
 20
146.6457022175735
 30
0.0
 40
3.0
 50
130.44792999999291
 51
224.99999999999301
  0
ARC
  5
8D59
  8
AM_0
 10
521.93365960710003
 20
145.4870722175736
 30
0.0
 40
3.0
 50
179.99999000000059
 51
264.50582000000389
  0
ARC
  5
8D5A
  8
AM_0
 10
521.93365960710003
 20
161.5420342175735
 30
0.0
 40
3.0
 50
85.903959000006495
 51
180.00000999999921
  0
LINE
  5
8D5B
  8
AM_0
 10
517.43365960709991
 20
173.7029692175735
 30
0.0
 11
537.43366060709991
 21
173.7029692175735
 31
0.0
  0
LINE
  5
8D5C
  8
AM_0
 10
518.93365960710003
 20
161.5420342175735
 30
0.0
 11
518.93365960710003
 21
145.4870722175736
 31
0.0
  0
LINE
  5
8D5D
  8
AM_0
 10
515.93365960710003
 20
161.5420342175735
 30
0.0
 11
515.93365960710003
 21
145.4870722175736
 31
0.0
  0
ARC
  5
8D5E
  8
AM_0
 10
512.93365960710003
 20
145.4870722175736
 30
0.0
 40
3.0
 50
275.49417999999599
 51
0.0
  0
LINE
  5
8D5F
  8
AM_0
 10
517.43365960709991
 20
173.7029692175735
 30
0.0
 11
497.43367360710022
 21
173.7029692175735
 31
0.0
  0
ARC
  5
8D60
  8
AM_0
 10
512.93365960710003
 20
161.5420342175735
 30
0.0
 40
3.0
 50
0.0
 51
94.096045999998367
  0
ARC
  5
8D62
  8
AM_0
 10
578.7782746071
 20
160.04758721757349
 30
0.0
 40
10.000000199999979
 50
4.9999998999988797
 51
84.999997000011874
  0
ARC
  5
8D63
  8
ﾁｭｳｼﾝｾﾝ
 10
517.43365960709991
 20
98.702981217574987
 30
0.0
 40
85.000001999998062
 50
38.255422147538432
 51
51.744569272974623
  0
LINE
  5
8D64
  8
ﾁｭｳｼﾝｾﾝ
 10
570.46667079523434
 20
151.73597740570969
 30
0.0
 11
584.60880641896495
 21
165.8781130294384
 31
0.0
  0
CIRCLE
  5
8D65
  8
AM_0
 10
577.53773560709999
 20
158.80704821757359
 30
0.0
 40
5.0000000999999967
  0
ARC
  5
8D66
  8
AM_0
 10
565.37639560709977
 20
139.57465721757359
 30
0.0
 40
3.0
 50
40.447929000003661
 51
135.00000000000691
  0
ARC
  5
8D67
  8
AM_0
 10
558.30535060709985
 20
146.6457022175735
 30
0.0
 40
3.0
 50
315.00000000000688
 51
49.552072999992951
  0
LINE
  5
8D69
  8
AM_0
 10
211.52356675714501
 20
144.20299421757369
 30
0.0
 11
211.52356675714501
 21
19.202978217573701
 31
0.0
  0
LINE
  5
8D6A
  8
AM_0
 10
14.52361675714473
 20
50.023004217573792
 30
0.0
 11
14.52361675714473
 21
116.2329802175736
 31
0.0
  0
LINE
  5
8D6B
  8
AM_0
 10
17.023576757144379
 20
24.7029952175738
 30
0.0
 11
17.023576757144379
 21
41.534649400145398
 31
0.0
  0
LINE
  5
8D6C
  8
AM_0
 10
64.52356675714509
 20
139.13296421757349
 30
0.0
 11
64.52356675714509
 21
81.702980217573653
 31
0.0
  0
LINE
  5
8D6D
  8
AM_0
 10
201.29359675714471
 20
111.7029832175736
 30
0.0
 11
201.29359675714471
 21
51.702995217573793
 31
0.0
  0
LINE
  5
8D6E
  8
ﾁｭｳｼﾝｾﾝ
 10
160.52356675714501
 20
122.3279797175736
 30
0.0
 11
160.52356675714501
 21
41.077980717573638
 31
0.0
  0
ARC
  5
8D6F
  8
AM_0
 10
47.524306757144572
 20
81.70109021757365
 30
0.0
 40
8.0019083999999978
 50
90.005172999990876
 51
161.7801600000017
  0
ARC
  5
8D70
  8
AM_0
 10
47.518546757144563
 20
81.697001217573657
 30
0.0
 40
7.9940046000000002
 50
198.17884000000171
 51
270.03581999999773
  0
LINE
  5
8D71
  8
AM_0
 10
17.023576757144379
 20
37.812995217573793
 30
0.0
 11
64.523566757144636
 21
37.812995217573793
 31
0.0
  0
LINE
  5
8D72
  8
AM_0
 10
32.163586757144451
 20
84.202982217573648
 30
0.0
 11
42.023566757144629
 21
84.202982217573648
 31
0.0
  0
LINE
  5
8D73
  8
AM_0
 10
32.163586757144451
 20
79.202981217573694
 30
0.0
 11
42.023566757144629
 21
79.202981217573694
 31
0.0
  0
LINE
  5
8D74
  8
AM_0
 10
16.523566757144629
 20
24.7029952175738
 30
0.0
 11
64.52356675714509
 21
24.7029952175738
 31
0.0
  0
LINE
  5
8D75
  8
AM_0
 10
23.603566757144559
 20
77.982980217573697
 30
0.0
 11
9.1435667571422528
 21
33.4729852175739
 31
0.0
  0
LINE
  5
8D76
  8
AM_0
 10
28.36357675714498
 20
76.432991217573644
 30
0.0
 11
13.90357675714449
 21
31.932989217573802
 31
0.0
  0
ARC
  5
8D77
  8
AM_0
 10
11.52361675714519
 20
32.702981217573893
 30
0.0
 40
2.5014680099999991
 50
162.0720800000006
 51
342.07206999999983
  0
ARC
  5
8D78
  8
AM_0
 10
11.52271675714473
 20
32.697563217573702
 30
0.0
 40
3.0008441999999982
 50
185.05819000000051
 51
0.1035440000013547
  0
LINE
  5
8D79
  8
AM_0
 10
14.52361675714473
 20
33.842993217573699
 30
0.0
 11
14.52361675714473
 21
26.7029782175739
 31
0.0
  0
ARC
  5
8D7A
  8
AM_0
 10
16.518316757144468
 20
26.697701217573801
 30
0.0
 40
1.994720039999998
 50
179.84812999999991
 51
270.15187999998409
  0
LINE
  5
8D7B
  8
AM_0
 10
17.023576757144379
 20
41.542991217573707
 30
0.0
 11
17.023576757144379
 21
37.812995217573793
 31
0.0
  0
ARC
  5
8D7C
  8
AM_0
 10
8.2312067571447187
 20
32.398658217573789
 30
0.0
 40
0.304344
 50
6.477759099997817
 51
89.547816999989408
  0
ARC
  5
8D7D
  8
AM_0
 10
8.2319867571450231
 20
32.397911217573892
 30
0.0
 40
0.8050760400000001
 50
5.3506319000004003
 51
89.888465999985428
  0
LINE
  5
8D7E
  8
AM_0
 10
8.023576757144383
 20
33.202994217573881
 30
0.0
 11
8.023576757144383
 21
32.702981217573893
 31
0.0
  0
LINE
  5
8D7F
  8
AM_0
 10
8.023576757144383
 20
33.202994217573881
 30
0.0
 11
8.2335767571444194
 21
33.202994217573881
 31
0.0
  0
ARC
  5
8D80
  8
AM_0
 10
14.571646757144659
 20
44.203103217573783
 30
0.0
 40
4.0504481999999991
 50
99.063520000001105
 51
224.9205999999968
  0
ARC
  5
8D81
  8
AM_0
 10
32.166016757144469
 20
75.199472217573614
 30
0.0
 40
9.0035201999999952
 50
90.015528000017568
 51
161.9914500000024
  0
ARC
  5
8D82
  8
AM_0
 10
32.170156757144468
 20
75.202463217573623
 30
0.0
 40
4.0005161999999981
 50
90.094088000021216
 51
162.0860700000006
  0
LINE
  5
8D83
  8
AM_0
 10
109.52356675714459
 20
35.353004217573798
 30
0.0
 11
211.52356675714501
 21
35.353004217573798
 31
0.0
  0
LINE
  5
8D84
  8
AM_0
 10
204.8736167571449
 20
45.702995217573779
 30
0.0
 11
70.073626757144666
 21
45.702995217573779
 31
0.0
  0
LINE
  5
8D85
  8
AM_0
 10
87.523576757144369
 20
19.842980217573789
 30
0.0
 11
204.3335567571452
 21
19.842980217573789
 31
0.0
  0
LINE
  5
8D86
  8
AM_0
 10
160.52356675714501
 20
44.982995217573702
 30
0.0
 11
208.34356675714429
 21
44.982995217573702
 31
0.0
  0
LINE
  5
8D87
  8
AM_0
 10
109.52356675714459
 20
35.352989217573793
 30
0.0
 11
74.523556757144448
 21
37.382987217573898
 31
0.0
  0
LINE
  5
8D88
  8
AM_0
 10
68.793586757145022
 20
75.432962217573618
 30
0.0
 11
109.52356675714459
 21
75.432962217573618
 31
0.0
  0
LINE
  5
8D89
  8
AM_0
 10
109.02356675714501
 20
55.702994217573703
 30
0.0
 11
70.073626757144666
 21
55.702994217573703
 31
0.0
  0
LINE
  5
8D8A
  8
AM_0
 10
68.983576757144419
 20
58.142999217573703
 30
0.0
 11
109.02356675714501
 21
58.142999217573703
 31
0.0
  0
LINE
  5
8D8B
  8
AM_0
 10
109.02356675714501
 20
57.7029952175739
 30
0.0
 11
70.073626757144666
 21
57.7029952175739
 31
0.0
  0
LINE
  5
8D8C
  8
AM_0
 10
68.853586757144512
 20
65.362985217573609
 30
0.0
 11
109.52356675714459
 21
65.362985217573609
 31
0.0
  0
LINE
  5
8D8D
  8
AM_0
 10
109.52356675714459
 20
65.702981217573694
 30
0.0
 11
70.083556757144379
 21
65.702981217573665
 31
0.0
  0
LINE
  5
8D8E
  8
AM_0
 10
68.853586757144512
 20
68.023004217573671
 30
0.0
 11
109.52356675714459
 21
68.023004217573671
 31
0.0
  0
LINE
  5
8D8F
  8
AM_0
 10
109.52356675714459
 20
77.702981217573694
 30
0.0
 11
70.083556757144379
 21
77.702981217573694
 31
0.0
  0
LINE
  5
8D90
  8
AM_0
 10
109.52356675714459
 20
75.702980217573696
 30
0.0
 11
70.083556757144379
 21
75.702980217573696
 31
0.0
  0
LINE
  5
8D91
  8
AM_0
 10
68.793586757145022
 20
77.97299921757363
 30
0.0
 11
109.52356675714459
 21
77.97299921757363
 31
0.0
  0
LINE
  5
8D92
  8
AM_0
 10
68.793586757145022
 20
85.442972217573654
 30
0.0
 11
109.52356675714459
 21
85.442972217573626
 31
0.0
  0
LINE
  5
8D93
  8
AM_0
 10
68.793586757145022
 20
87.97297121757363
 30
0.0
 11
109.52356675714459
 21
87.97297121757363
 31
0.0
  0
LINE
  5
8D94
  8
AM_0
 10
109.52356675714459
 20
47.702981217573793
 30
0.0
 11
70.513606757144771
 21
47.702981217573793
 31
0.0
  0
LINE
  5
8D95
  8
AM_0
 10
68.983576757144419
 20
55.222985217573701
 30
0.0
 11
109.02356675714501
 21
55.222985217573701
 31
0.0
  0
LINE
  5
8D96
  8
AM_0
 10
87.523576757144369
 20
17.812979217573709
 30
0.0
 11
140.52361675714471
 21
17.812979217573709
 31
0.0
  0
LINE
  5
8D97
  8
AM_0
 10
87.523576757144369
 20
16.462988217573692
 30
0.0
 11
140.52361675714471
 21
16.462988217573692
 31
0.0
  0
LINE
  5
8D98
  8
AM_0
 10
87.523576757144369
 20
15.792992217573691
 30
0.0
 11
140.52361675714471
 21
15.792992217573691
 31
0.0
  0
LINE
  5
8D99
  8
AM_0
 10
109.52356675714459
 20
85.702982217573648
 30
0.0
 11
70.083556757144379
 21
85.702982217573648
 31
0.0
  0
LINE
  5
8D9A
  8
AM_0
 10
109.52356675714459
 20
87.702980217573668
 30
0.0
 11
70.083556757144379
 21
87.702980217573668
 31
0.0
  0
LINE
  5
8D9B
  8
AM_0
 10
109.52356675714459
 20
67.702997217573639
 30
0.0
 11
70.083556757144379
 21
67.702997217573639
 31
0.0
  0
LINE
  5
8D9C
  8
AM_0
 10
69.203566757144472
 20
44.982995217573702
 30
0.0
 11
160.52356675714501
 21
44.982995217573702
 31
0.0
  0
LINE
  5
8D9D
  8
AM_0
 10
69.203566757144472
 20
48.332984217573816
 30
0.0
 11
109.52356675714459
 21
48.332984217573816
 31
0.0
  0
LINE
  5
8D9E
  8
AM_0
 10
64.52356675714509
 20
24.2729872175737
 30
0.0
 11
64.52356675714509
 21
81.702980217573653
 31
0.0
  0
LINE
  5
8D9F
  8
AM_0
 10
64.52356675714509
 20
39.012977217573798
 30
0.0
 11
74.523616757144737
 21
39.012977217573798
 31
0.0
  0
LINE
  5
8DA0
  8
AM_0
 10
70.663576757144696
 20
20.032982217573899
 30
0.0
 11
84.02356675714509
 21
20.032982217573899
 31
0.0
  0
LINE
  5
8DA1
  8
AM_0
 10
64.52356675714509
 20
33.352988217573788
 30
0.0
 11
74.523616757144737
 21
33.352988217573788
 31
0.0
  0
LINE
  5
8DA2
  8
AM_0
 10
70.753606757145008
 20
28.722983217573692
 30
0.0
 11
84.02356675714509
 21
28.722983217573692
 31
0.0
  0
LINE
  5
8DA3
  8
AM_0
 10
70.633546757144344
 20
18.402992217573789
 30
0.0
 11
84.133546757145268
 21
18.402992217573789
 31
0.0
  0
LINE
  5
8DA4
  8
AM_0
 10
70.693606757145062
 20
23.443001217573698
 30
0.0
 11
84.02356675714509
 21
23.443001217573698
 31
0.0
  0
ARC
  5
8DA5
  8
AM_0
 10
66.31372675714465
 20
29.170187217573691
 30
0.0
 40
1.50278811
 50
12.013341999998509
 51
90.004668000016366
  0
ARC
  5
8DA6
  8
AM_0
 10
70.750606757144396
 20
30.722603217573891
 30
0.0
 40
1.9996281299999981
 50
190.36076000000071
 51
270.08532999998027
  0
ARC
  5
8DA7
  8
AM_0
 10
70.635976757144363
 20
20.407310217573691
 30
0.0
 40
2.004324029999998
 50
194.27804999999751
 51
269.93108999997929
  0
LINE
  5
8DA8
  8
AM_0
 10
64.523626757144484
 20
24.2729872175737
 30
0.0
 11
67.343566757145254
 21
24.202979217573699
 31
0.0
  0
ARC
  5
8DA9
  8
AM_0
 10
66.358576757145315
 20
23.081228217573791
 30
0.0
 40
1.5017800800000001
 50
14.33283600000232
 51
90.189383000005648
  0
ARC
  5
8DAA
  8
AM_0
 10
66.337906757144992
 20
25.106666217573888
 30
0.0
 40
1.4963320799999991
 50
13.382438000004029
 51
90.164589999994277
  0
ARC
  5
8DAB
  8
AM_0
 10
70.661506757144693
 20
22.034933217573609
 30
0.0
 40
2.0019479399999991
 50
193.3411400000015
 51
270.05947999999449
  0
ARC
  5
8DAC
  8
AM_0
 10
70.69549675714461
 20
25.438682217573898
 30
0.0
 40
1.995695999999995
 50
192.0225299999999
 51
269.94477999998969
  0
LINE
  5
8DAD
  8
AM_0
 10
68.743606757145258
 20
25.022972217573791
 30
0.0
 11
67.783576757144601
 21
29.482979217573899
 31
0.0
  0
LINE
  5
8DAE
  8
AM_0
 10
66.333556757143455
 20
26.60298821757371
 30
0.0
 11
68.393626757144389
 21
26.60298821757371
 31
0.0
  0
LINE
  5
8DAF
  8
AM_0
 10
66.353596757144715
 20
24.582983217573791
 30
0.0
 11
68.003596757144351
 21
24.582983217573791
 31
0.0
  0
LINE
  5
8DB0
  8
AM_0
 10
68.713576757145347
 20
21.572975217573799
 30
0.0
 11
67.793596757144769
 21
25.452980217573689
 31
0.0
  0
LINE
  5
8DB1
  8
AM_0
 10
68.693536757144571
 20
19.912985217573802
 30
0.0
 11
67.81354675714465
 21
23.452979217573692
 31
0.0
  0
LINE
  5
8DB2
  8
AM_0
 10
59.523616757144737
 20
37.812995217573793
 30
0.0
 11
59.523616757144737
 21
24.7029952175738
 31
0.0
  0
LINE
  5
8DB3
  8
AM_0
 10
66.31354675714465
 20
30.672980217573691
 30
0.0
 11
68.733586757145076
 21
30.672980217573691
 31
0.0
  0
LINE
  5
8DB4
  8
AM_0
 10
68.243596757144559
 20
33.35297321757389
 30
0.0
 11
68.783566757144399
 21
30.362969217573799
 31
0.0
  0
LINE
  5
8DB5
  8
AM_0
 10
64.52356675714509
 20
47.402993217573808
 30
0.0
 11
67.693606757144607
 21
47.402993217573808
 31
0.0
  0
ARC
  5
8DB6
  8
AM_0
 10
69.203566757144472
 20
46.657997217573786
 30
0.0
 40
1.67500812
 50
90.000002999984645
 51
270.0
  0
ARC
  5
8DB7
  8
AM_0
 10
70.073626757144666
 20
46.702994217573703
 30
0.0
 40
1.000004069999999
 50
90.000002999984645
 51
270.0
  0
ARC
  5
8DB8
  8
AM_0
 10
84.025036757144335
 20
18.534416217573799
 30
0.0
 40
1.498559999999999
 50
359.94488000000052
 51
90.055115000003084
  0
ARC
  5
8DB9
  8
AM_0
 10
87.526126757144553
 20
19.815497217573881
 30
0.0
 40
2.00251584
 50
180.0718999999998
 51
269.9281000000002
  0
ARC
  5
8DBA
  8
AM_0
 10
84.142276757144373
 20
16.902701217573789
 30
0.0
 40
1.500312029999999
 50
14.683033999999299
 51
90.331662999981404
  0
ARC
  5
8DBB
  8
AM_0
 10
87.524716757144674
 20
17.789405217573801
 30
0.0
 40
1.9964280599999991
 50
194.6946300000007
 51
269.96760999999151
  0
ARC
  5
8DBC
  8
AM_0
 10
87.523396757145278
 20
18.4628062175737
 30
0.0
 40
1.9998241199999991
 50
179.99493999999871
 51
270.00505999999473
  0
ARC
  5
8DBD
  8
AM_0
 10
84.022036757144619
 20
21.9414892175738
 30
0.0
 40
1.5015081599999991
 50
0.0575469979997975
 51
89.942451000003146
  0
ARC
  5
8DBE
  8
AM_0
 10
84.02320675714509
 20
27.222617217573799
 30
0.0
 40
1.500360179999999
 50
0.0138160000014509
 51
89.986184999986932
  0
ARC
  5
8DBF
  8
AM_0
 10
87.525226757145006
 20
21.8446282175737
 30
0.0
 40
2.0016401400000001
 50
180.04696000000129
 51
269.9530400000213
  0
LINE
  5
8DC0
  8
AM_0
 10
85.52356675714509
 20
19.8129952175737
 30
0.0
 11
85.52356675714509
 21
27.222983217573891
 31
0.0
  0
ARC
  5
8DC1
  8
AM_0
 10
73.693786757144608
 20
40.110098217573707
 30
0.0
 40
5.0021840999999991
 50
5.4245259999996849
 51
80.451425000001365
  0
LINE
  5
8DC2
  8
AM_0
 10
74.523616757144737
 20
33.352988217573788
 30
0.0
 11
74.523616757144737
 21
47.402993217573808
 31
0.0
  0
ARC
  5
8DC3
  8
AM_0
 10
74.153806757145063
 20
44.049506217573807
 30
0.0
 40
6.007896599999996
 50
273.5284499999853
 51
314.61726999999649
  0
ARC
  5
8DC4
  8
AM_0
 10
77.670106757144353
 20
40.494071217573691
 30
0.0
 40
1.007376
 50
314.29032000000012
 51
5.0634049000017072
  0
ARC
  5
8DC5
  8
AM_0
 10
86.523616757144737
 20
46.702994217573703
 30
0.0
 40
1.000004069999999
 50
90.000002999984645
 51
270.0
  0
LINE
  5
8DC6
  8
ﾁｭｳｼﾝｾﾝ
 10
47.523616757144737
 20
66.987982717573615
 30
0.0
 11
47.523616757144737
 21
96.417977717573663
 31
0.0
  0
ARC
  5
8DC7
  8
AM_0
 10
70.073626757144666
 20
56.702981217573893
 30
0.0
 40
1.000004069999999
 50
90.000002999984645
 51
270.0
  0
ARC
  5
8DC8
  8
AM_0
 10
68.983576757144419
 20
56.682977217573701
 30
0.0
 40
1.4600000699999991
 50
90.000002999984645
 51
270.0
  0
ARC
  5
8DC9
  8
AM_0
 10
70.074886757144654
 20
66.70299521757363
 30
0.0
 40
1.00003602
 50
89.500715999993631
 51
270.49928999999503
  0
ARC
  5
8DCA
  8
AM_0
 10
68.853586757144512
 20
66.692987217573631
 30
0.0
 40
1.33000008
 50
90.000002999984645
 51
270.0
  0
LINE
  5
8DCB
  8
AM_0
 10
47.523616757144737
 20
73.702982217573648
 30
0.0
 11
64.52356675714509
 21
73.702982217573648
 31
0.0
  0
LINE
  5
8DCC
  8
AM_0
 10
47.523616757144737
 20
89.702981217573665
 30
0.0
 11
64.52356675714509
 21
89.702981217573665
 31
0.0
  0
ARC
  5
8DCD
  8
AM_0
 10
47.523616757144737
 20
81.696968217573627
 30
0.0
 40
5.0000519999999984
 50
23.653230000003848
 51
156.3467699999961
  0
ARC
  5
8DCE
  8
AM_0
 10
47.523616757144737
 20
81.696968217573627
 30
0.0
 40
4.9952319000000003
 50
203.52670000000501
 51
336.47329000000423
  0
LINE
  5
8DCF
  8
AM_0
 10
42.023566757144629
 20
83.702981217573694
 30
0.0
 11
53.023576757144383
 21
83.702981217573694
 31
0.0
  0
LINE
  5
8DD0
  8
AM_0
 10
42.023566757144629
 20
79.702982217573648
 30
0.0
 11
53.023576757144383
 21
79.702982217573648
 31
0.0
  0
LINE
  5
8DD1
  8
AM_0
 10
42.023566757144629
 20
79.202981217573694
 30
0.0
 11
42.023566757144629
 21
84.202982217573648
 31
0.0
  0
LINE
  5
8DD2
  8
AM_0
 10
55.523566757144629
 20
79.202981217573694
 30
0.0
 11
55.523566757144629
 21
84.202982217573648
 31
0.0
  0
LINE
  5
8DD3
  8
AM_0
 10
53.023576757144383
 20
79.202981217573694
 30
0.0
 11
53.023576757144383
 21
84.202982217573648
 31
0.0
  0
LINE
  5
8DD4
  8
AM_0
 10
53.023576757144383
 20
84.202982217573648
 30
0.0
 11
55.523566757144629
 21
84.202982217573648
 31
0.0
  0
LINE
  5
8DD5
  8
AM_0
 10
53.023576757144383
 20
79.202981217573694
 30
0.0
 11
55.523566757144629
 21
79.202981217573694
 31
0.0
  0
ARC
  5
8DD6
  8
AM_0
 10
68.793586757145022
 20
76.702982217573648
 30
0.0
 40
1.270004069999999
 50
90.000002999984645
 51
270.0
  0
ARC
  5
8DD7
  8
AM_0
 10
70.074886757144654
 20
76.702982217573648
 30
0.0
 40
1.00003602
 50
89.500715999993631
 51
270.49928999999503
  0
ARC
  5
8DD8
  8
AM_0
 10
70.074886757144654
 20
86.702981217573665
 30
0.0
 40
1.00003602
 50
89.500715999993631
 51
270.49928999999503
  0
ARC
  5
8DD9
  8
AM_0
 10
68.793586757145022
 20
86.707985217573579
 30
0.0
 40
1.265004089999999
 50
90.000002999984645
 51
270.0
  0
ARC
  5
8DDA
  8
AM_0
 10
86.523616757144737
 20
56.702981217573893
 30
0.0
 40
1.000004069999999
 50
90.000002999984645
 51
270.0
  0
ARC
  5
8DDB
  8
AM_0
 10
86.523616757144737
 20
66.70299521757363
 30
0.0
 40
1.000004069999999
 50
90.000002999984645
 51
270.0
  0
ARC
  5
8DDC
  8
AM_0
 10
86.523616757144737
 20
76.702982217573648
 30
0.0
 40
1.000004069999999
 50
90.000002999984645
 51
270.0
  0
ARC
  5
8DDD
  8
AM_0
 10
86.523616757144737
 20
86.702981217573665
 30
0.0
 40
1.000004069999999
 50
90.000002999984645
 51
270.0
  0
ARC
  5
8DDE
  8
AM_0
 10
140.52271675714471
 20
17.793875217573579
 30
0.0
 40
2.000876009999998
 50
270.02510999999589
 51
359.97489000000081
  0
ARC
  5
8DDF
  8
AM_0
 10
140.5212467571445
 20
18.46532321757379
 30
0.0
 40
2.002332029999998
 50
270.06674000000118
 51
359.93325999999882
  0
ARC
  5
8DE0
  8
AM_0
 10
140.5185767571451
 20
19.818014217573701
 30
0.0
 40
2.00502402
 50
270.14341000000132
 51
359.85658999999868
  0
LINE
  5
8DE1
  8
AM_0
 10
142.52356675714509
 20
17.792975217573709
 30
0.0
 11
142.52356675714509
 21
19.842980217573789
 31
0.0
  0
ARC
  5
8DE2
  8
AM_0
 10
208.34356675714429
 20
46.657997217573786
 30
0.0
 40
1.6749999899999961
 50
270.0
 51
90.000002999984645
  0
ARC
  5
8DE3
  8
AM_0
 10
206.37292675714519
 20
23.209511217573599
 30
0.0
 40
2.0065319999999991
 50
270.01926999998381
 51
347.72686999999718
  0
LINE
  5
8DE4
  8
AM_0
 10
206.2335767571453
 20
21.202994217573799
 30
0.0
 11
211.52356675714501
 21
21.202994217573799
 31
0.0
  0
LINE
  5
8DE5
  8
AM_0
 10
206.26354675714441
 20
21.3229732175738
 30
0.0
 11
209.7235667571444
 21
34.242974217573703
 31
0.0
  0
LINE
  5
8DE6
  8
AM_0
 10
208.34356675714429
 20
48.332984217573816
 30
0.0
 11
198.52356675714461
 21
48.332984217573816
 31
0.0
  0
ARC
  5
8DE7
  8
AM_0
 10
204.32899675714449
 20
21.847388217573609
 30
0.0
 40
2.004416039999998
 50
270.13147999999228
 51
344.8333399999978
  0
LINE
  5
8DE8
  8
AM_0
 10
204.8736167571449
 20
47.702981217573793
 30
0.0
 11
198.52356675714461
 21
47.702981217573793
 31
0.0
  0
LINE
  5
8DE9
  8
AM_0
 10
198.52356675714461
 20
51.624241631004892
 30
0.0
 11
201.29359675714471
 21
51.702965217573713
 31
0.0
  0
ARC
  5
8DEA
  8
AM_0
 10
204.8654267571446
 20
46.702994217573703
 30
0.0
 40
1.0000319699999971
 50
270.4692999999848
 51
89.530700000015187
  0
ARC
  5
8DEB
  8
AM_0
 10
212.52307675714471
 20
30.662453217573891
 30
0.0
 40
0.99947604
 50
179.97008999999869
 51
270.02991999999381
  0
ARC
  5
8DEC
  8
AM_0
 10
211.2306467571448
 20
29.173667217573801
 30
0.0
 40
1.499328059999999
 50
89.888150999980539
 51
168.0938400000029
  0
ARC
  5
8DED
  8
AM_0
 10
212.5238267571452
 20
19.20316121757357
 30
0.0
 40
1.0001800499999971
 50
180.0103099999989
 51
269.98967999999968
  0
LINE
  5
8DEE
  8
AM_0
 10
208.3335767571443
 20
22.78298021757379
 30
0.0
 11
209.7735767571443
 21
29.482979217573899
 31
0.0
  0
ARC
  5
8DEF
  8
AM_0
 10
211.16896675714489
 20
33.857003217573798
 30
0.0
 40
1.49599605
 50
89.821707000006256
 51
165.04766000000089
  0
LINE
  5
8DF0
  8
AM_0
 10
211.23358675714451
 20
30.672980217573691
 30
0.0
 11
208.82362675714461
 21
30.672980217573691
 31
0.0
  0
LINE
  5
8DF1
  8
AM_0
 10
17.023576757144379
 20
125.5929742175736
 30
0.0
 11
64.523566757144636
 21
125.5929742175736
 31
0.0
  0
LINE
  5
8DF2
  8
AM_0
 10
17.023576757144379
 20
115.3429972175736
 30
0.0
 11
59.523616757144737
 21
115.3429972175736
 31
0.0
  0
LINE
  5
8DF3
  8
AM_0
 10
16.523566757144629
 20
138.7029742175736
 30
0.0
 11
64.52356675714509
 21
138.7029742175736
 31
0.0
  0
ARC
  5
8DF4
  8
AM_0
 10
16.524106757144619
 20
136.70242421757359
 30
0.0
 40
2.000536019999998
 50
90.015328999985087
 51
179.98467999999841
  0
ARC
  5
8DF5
  8
AM_0
 10
15.421336757144671
 20
119.0854942175736
 30
0.0
 40
2.9977641899999981
 50
179.8564500000015
 51
275.786590000003
  0
LINE
  5
8DF6
  8
AM_0
 10
15.72358675714349
 20
115.9929922175736
 30
0.0
 11
15.72358675714349
 21
125.1929842175736
 31
0.0
  0
LINE
  5
8DF7
  8
AM_0
 10
15.72358675714349
 20
115.9929922175736
 30
0.0
 11
17.023576757144379
 21
115.9929922175736
 31
0.0
  0
LINE
  5
8DF8
  8
AM_0
 10
14.52361675714473
 20
124.9529842175736
 30
0.0
 11
14.52361675714473
 21
136.70299421757349
 31
0.0
  0
ARC
  5
8DF9
  8
AM_0
 10
15.421396757144519
 20
122.0904742175736
 30
0.0
 40
2.99777994
 50
84.213883000011066
 51
179.95210999999989
  0
LINE
  5
8DFA
  8
AM_0
 10
12.423586757145131
 20
119.0929942175736
 30
0.0
 11
12.423586757145131
 21
122.0929942175736
 31
0.0
  0
LINE
  5
8DFB
  8
AM_0
 10
15.72358675714349
 20
125.1929842175736
 30
0.0
 11
17.023576757144379
 21
125.1929842175736
 31
0.0
  0
LINE
  5
8DFC
  8
AM_0
 10
109.52356675714459
 20
128.05297421757359
 30
0.0
 11
211.52356675714501
 21
128.05297421757359
 31
0.0
  0
LINE
  5
8DFD
  8
AM_0
 10
78.203566757144458
 20
118.4229742175736
 30
0.0
 11
208.34356675714429
 21
118.4229742175736
 31
0.0
  0
LINE
  5
8DFE
  8
AM_0
 10
204.8736167571449
 20
117.7029742175736
 30
0.0
 11
79.073626757144666
 21
117.7029742175736
 31
0.0
  0
LINE
  5
8DFF
  8
AM_0
 10
87.523576757144369
 20
143.56300421757359
 30
0.0
 11
204.3335567571452
 21
143.56300421757359
 31
0.0
  0
LINE
  5
8E00
  8
AM_0
 10
109.5236267571444
 20
128.05297421757359
 30
0.0
 11
74.523556757144448
 21
126.0229942175736
 31
0.0
  0
LINE
  5
8E01
  8
AM_0
 10
68.853586757144512
 20
95.382974217573647
 30
0.0
 11
109.52356675714459
 21
95.382974217573647
 31
0.0
  0
LINE
  5
8E02
  8
AM_0
 10
68.853586757144512
 20
98.042978217573591
 30
0.0
 11
109.52356675714459
 21
98.042978217573591
 31
0.0
  0
LINE
  5
8E03
  8
AM_0
 10
77.983576757144405
 20
105.2629792175736
 30
0.0
 11
109.02356675714501
 21
105.2629792175736
 31
0.0
  0
LINE
  5
8E04
  8
AM_0
 10
77.983576757144405
 20
108.1930042175736
 30
0.0
 11
109.02356675714501
 21
108.1930042175736
 31
0.0
  0
LINE
  5
8E05
  8
AM_0
 10
78.203566757144458
 20
115.0730092175736
 30
0.0
 11
109.52356675714459
 21
115.0730092175736
 31
0.0
  0
LINE
  5
8E06
  8
AM_0
 10
109.52356675714459
 20
95.702981217573665
 30
0.0
 11
70.083556757144379
 21
95.702981217573665
 31
0.0
  0
LINE
  5
8E07
  8
AM_0
 10
109.52356675714459
 20
97.702982217573677
 30
0.0
 11
70.083556757144379
 21
97.702982217573677
 31
0.0
  0
LINE
  5
8E08
  8
AM_0
 10
109.02356675714501
 20
105.7029832175736
 30
0.0
 11
79.073626757144666
 21
105.7029832175736
 31
0.0
  0
LINE
  5
8E09
  8
AM_0
 10
109.02356675714501
 20
107.70298121757359
 30
0.0
 11
79.073626757144666
 21
107.70298121757359
 31
0.0
  0
LINE
  5
8E0A
  8
AM_0
 10
109.52356675714459
 20
115.70298221757361
 30
0.0
 11
79.073626757144666
 21
115.70298221757361
 31
0.0
  0
LINE
  5
8E0B
  8
AM_0
 10
87.523576757144369
 20
145.5929842175735
 30
0.0
 11
140.52361675714471
 21
145.5929842175735
 31
0.0
  0
LINE
  5
8E0C
  8
AM_0
 10
87.523576757144369
 20
146.94298421757361
 30
0.0
 11
140.52361675714471
 21
146.94298421757361
 31
0.0
  0
LINE
  5
8E0D
  8
AM_0
 10
87.523576757144369
 20
147.62299421757371
 30
0.0
 11
140.52361675714471
 21
147.62299421757371
 31
0.0
  0
ARC
  5
8E0E
  8
AM_0
 10
70.695256757144762
 20
137.97757421757359
 30
0.0
 40
1.9953880799999959
 50
90.048066999991249
 51
167.98461999999969
  0
LINE
  5
8E0F
  8
AM_0
 10
85.52356675714509
 20
143.5929742175735
 30
0.0
 11
85.52356675714509
 21
136.1830042175736
 31
0.0
  0
LINE
  5
8E10
  8
AM_0
 10
68.713636757144741
 20
141.8329942175736
 30
0.0
 11
67.793596757144769
 21
137.9529742175736
 31
0.0
  0
LINE
  5
8E11
  8
AM_0
 10
70.753606757145008
 20
134.6830042175736
 30
0.0
 11
84.02356675714509
 21
134.6830042175736
 31
0.0
  0
LINE
  5
8E12
  8
AM_0
 10
64.52356675714509
 20
130.0529842175736
 30
0.0
 11
74.523616757144737
 21
130.0529842175736
 31
0.0
  0
LINE
  5
8E13
  8
AM_0
 10
64.52356675714509
 20
124.3929742175736
 30
0.0
 11
74.523616757144737
 21
124.3929742175736
 31
0.0
  0
LINE
  5
8E14
  8
AM_0
 10
64.52356675714509
 20
116.0129812175735
 30
0.0
 11
74.523616757144737
 21
116.0129812175735
 31
0.0
  0
ARC
  5
8E15
  8
AM_0
 10
68.853586757144512
 20
96.712991217573645
 30
0.0
 40
1.33000008
 50
90.000002999984645
 51
270.0
  0
ARC
  5
8E16
  8
AM_0
 10
70.074886757144654
 20
96.702980217573682
 30
0.0
 40
1.00003602
 50
89.500715999993631
 51
270.49928999999503
  0
LINE
  5
8E17
  8
AM_0
 10
59.523616757144737
 20
89.702981217573665
 30
0.0
 11
59.523616757144737
 21
138.7029742175736
 31
0.0
  0
ARC
  5
8E18
  8
AM_0
 10
66.332776757144515
 20
138.30580421757369
 30
0.0
 40
1.502808149999999
 50
270.03078999999502
 51
346.42217999999878
  0
ARC
  5
8E19
  8
AM_0
 10
66.314836757143439
 20
134.24710421757359
 30
0.0
 40
1.504140059999999
 50
269.95424999999199
 51
347.55525000000279
  0
ARC
  5
8E1A
  8
AM_0
 10
70.74541675714498
 20
132.6895942175737
 30
0.0
 40
1.993432109999999
 50
89.765883999979707
 51
169.78803000000019
  0
LINE
  5
8E1B
  8
AM_0
 10
66.333556757143455
 20
136.8029842175736
 30
0.0
 11
68.393626757144389
 21
136.8029842175736
 31
0.0
  0
LINE
  5
8E1C
  8
AM_0
 10
68.743546757144941
 20
138.3929842175736
 30
0.0
 11
67.783516757144753
 21
133.9229842175736
 31
0.0
  0
LINE
  5
8E1D
  8
AM_0
 10
66.31354675714465
 20
132.7429942175736
 30
0.0
 11
68.733586757145076
 21
132.7429942175736
 31
0.0
  0
LINE
  5
8E1E
  8
AM_0
 10
68.243536757145179
 20
130.0529842175736
 30
0.0
 11
68.783566757144399
 21
133.0430242175735
 31
0.0
  0
ARC
  5
8E1F
  8
AM_0
 10
79.073626757144666
 20
116.7029842175736
 30
0.0
 40
1.000004069999999
 50
90.000002999984645
 51
270.0
  0
ARC
  5
8E20
  8
AM_0
 10
78.203566757144458
 20
116.74795421757359
 30
0.0
 40
1.67500812
 50
90.000002999984645
 51
270.0
  0
ARC
  5
8E21
  8
AM_0
 10
86.523616757144737
 20
116.7029842175736
 30
0.0
 40
1.000004069999999
 50
90.000002999984645
 51
270.0
  0
LINE
  5
8E22
  8
AM_0
 10
74.523616757144737
 20
130.0529842175736
 30
0.0
 11
74.523616757144737
 21
116.0129812175735
 31
0.0
  0
ARC
  5
8E23
  8
AM_0
 10
79.073626757144666
 20
106.70298221757361
 30
0.0
 40
1.000004069999999
 50
90.000002999984645
 51
270.0
  0
ARC
  5
8E24
  8
AM_0
 10
77.983576757144405
 20
106.7279752175736
 30
0.0
 40
1.46500008
 50
90.000002999984645
 51
270.0
  0
ARC
  5
8E25
  8
AM_0
 10
86.523616757144737
 20
106.70298221757361
 30
0.0
 40
1.000004069999999
 50
90.000002999984645
 51
270.0
  0
ARC
  5
8E26
  8
AM_0
 10
86.523616757144737
 20
96.702980217573682
 30
0.0
 40
1.000004069999999
 50
90.000002999984645
 51
270.0
  0
ARC
  5
8E27
  8
AM_0
 10
77.673526757145282
 20
122.9131342175736
 30
0.0
 40
1.004135999999999
 50
354.84883999999812
 51
45.797435999993617
  0
ARC
  5
8E28
  8
AM_0
 10
74.144776757144427
 20
119.37103421757359
 30
0.0
 40
6.0039084000000011
 50
45.223692999995912
 51
86.382714000002196
  0
ARC
  5
8E29
  8
AM_0
 10
73.688536757144433
 20
123.3007642175736
 30
0.0
 40
5.0078918999999971
 50
279.59871999999461
 51
354.52532000000048
  0
ARC
  5
8E2A
  8
AM_0
 10
84.017956757145356
 20
136.1886442175736
 30
0.0
 40
1.5056760899999959
 50
270.2155199999923
 51
359.78447000000108
  0
LINE
  5
8E2B
  8
AM_0
 10
70.633546757144344
 20
145.0029742175735
 30
0.0
 11
84.133546757145268
 21
145.0029742175735
 31
0.0
  0
LINE
  5
8E2C
  8
AM_0
 10
70.663576757144696
 20
143.37295421757361
 30
0.0
 11
84.02356675714509
 21
143.37295421757361
 31
0.0
  0
LINE
  5
8E2D
  8
AM_0
 10
70.693606757145062
 20
139.97296421757349
 30
0.0
 11
84.02356675714509
 21
139.97296421757349
 31
0.0
  0
LINE
  5
8E2E
  8
AM_0
 10
64.52356675714509
 20
139.13296421757349
 30
0.0
 11
67.343566757145254
 21
139.20295421757359
 31
0.0
  0
ARC
  5
8E2F
  8
AM_0
 10
70.63093675714434
 20
143.0051842175734
 30
0.0
 40
1.9977801299999991
 50
89.923080999997794
 51
165.86777000000319
  0
ARC
  5
8E30
  8
AM_0
 10
66.351886757144712
 20
140.33008421757361
 30
0.0
 40
1.5070961099999991
 50
270.0648200000017
 51
345.90218000000198
  0
ARC
  5
8E31
  8
AM_0
 10
70.656436757144533
 20
141.3775042175736
 30
0.0
 40
1.995484169999999
 50
89.79345799999912
 51
166.8059200000024
  0
LINE
  5
8E32
  8
AM_0
 10
68.693596757144405
 20
143.49298421757359
 30
0.0
 11
67.813606757144498
 21
139.96300421757351
 31
0.0
  0
LINE
  5
8E33
  8
AM_0
 10
66.353596757144715
 20
138.82297421757349
 30
0.0
 11
68.003596757144351
 21
138.82297421757349
 31
0.0
  0
ARC
  5
8E34
  8
AM_0
 10
84.137206757144668
 20
146.50987421757361
 30
0.0
 40
1.506888089999999
 50
269.86222999998643
 51
345.12306999999907
  0
ARC
  5
8E35
  8
AM_0
 10
84.019726757144298
 20
144.87682421757361
 30
0.0
 40
1.5038481299999991
 50
270.14639999998991
 51
359.85360000000009
  0
ARC
  5
8E36
  8
AM_0
 10
84.021796757144344
 20
141.47479421757359
 30
0.0
 40
1.501796039999995
 50
270.06854999998592
 51
359.93145000000101
  0
ARC
  5
8E37
  8
AM_0
 10
87.526066757144676
 20
145.62814421757349
 30
0.0
 40
1.99484415
 50
90.071657999978328
 51
165.63720000000151
  0
ARC
  5
8E38
  8
AM_0
 10
87.518146757144677
 20
144.9484042175736
 30
0.0
 40
1.99457616
 50
89.844008000013005
 51
180.15598999999941
  0
ARC
  5
8E39
  8
AM_0
 10
87.52081675714453
 20
143.59576421757359
 30
0.0
 40
1.9972080599999991
 50
89.919857000000462
 51
180.08013999999881
  0
ARC
  5
8E3A
  8
AM_0
 10
87.519976757144377
 20
141.56659421757359
 30
0.0
 40
1.996384079999995
 50
89.896162999993464
 51
180.10383999999931
  0
ARC
  5
8E3B
  8
AM_0
 10
140.52295675714501
 20
145.62235421757359
 30
0.0
 40
2.0006240100000001
 50
0.0178240009987588
 51
89.98217599999785
  0
ARC
  5
8E3C
  8
AM_0
 10
140.52649675714471
 20
144.94591421757349
 30
0.0
 40
1.997088119999999
 50
359.91637999999853
 51
90.083624999987734
  0
ARC
  5
8E3D
  8
AM_0
 10
140.52388675714471
 20
143.59327421757359
 30
0.0
 40
1.999720049999999
 50
359.9919399999992
 51
90.008061999993785
  0
LINE
  5
8E3E
  8
AM_0
 10
142.52356675714509
 20
145.62295421757361
 30
0.0
 11
142.52356675714509
 21
143.56300421757359
 31
0.0
  0
LINE
  5
8E3F
  8
AM_0
 10
206.26354675714441
 20
142.08301421757361
 30
0.0
 11
209.7235667571444
 21
129.16303421757371
 31
0.0
  0
LINE
  5
8E40
  8
AM_0
 10
208.3335767571443
 20
140.62300421757359
 30
0.0
 11
209.7735767571443
 21
133.9229842175736
 31
0.0
  0
ARC
  5
8E41
  8
AM_0
 10
208.34356675714429
 20
116.74795421757359
 30
0.0
 40
1.6749999899999961
 50
270.0
 51
90.000002999984645
  0
LINE
  5
8E42
  8
AM_0
 10
208.34356675714429
 20
115.0730092175736
 30
0.0
 11
198.52356675714461
 21
115.0730092175736
 31
0.0
  0
ARC
  5
8E43
  8
AM_0
 10
204.8654267571446
 20
116.7029842175736
 30
0.0
 40
1.0000319699999971
 50
270.4692999999848
 51
89.530700000015187
  0
LINE
  5
8E44
  8
AM_0
 10
198.52356675714461
 20
115.60300721757361
 30
0.0
 11
204.8736167571449
 21
115.60300721757361
 31
0.0
  0
LINE
  5
8E45
  8
AM_0
 10
198.52356675714461
 20
111.7817068041425
 30
0.0
 11
201.29359675714471
 21
111.7029832175736
 31
0.0
  0
ARC
  5
8E46
  8
AM_0
 10
211.1738267571445
 20
129.55537421757359
 30
0.0
 40
1.50239199
 50
195.14000999999811
 51
269.99063999998032
  0
ARC
  5
8E47
  8
AM_0
 10
212.5179467571447
 20
132.74860421757359
 30
0.0
 40
0.99440004
 50
89.67649099999349
 51
180.32351000000079
  0
ARC
  5
8E48
  8
AM_0
 10
211.2294467571445
 20
134.2434442175736
 30
0.0
 40
1.500476039999995
 50
192.33222999999589
 51
270.15827999999971
  0
LINE
  5
8E49
  8
AM_0
 10
211.23358675714451
 20
132.7429942175736
 30
0.0
 11
208.82362675714461
 21
132.7429942175736
 31
0.0
  0
ARC
  5
8E4A
  8
AM_0
 10
206.37805675714429
 20
140.2027942175736
 30
0.0
 40
2.0001800699999981
 50
12.126352000003131
 51
90.127514999991448
  0
LINE
  5
8E4B
  8
AM_0
 10
206.2335767571453
 20
142.2029842175736
 30
0.0
 11
211.52356675714501
 21
142.2029842175736
 31
0.0
  0
ARC
  5
8E4C
  8
AM_0
 10
204.3340667571446
 20
141.56518421757349
 30
0.0
 40
1.997795999999999
 50
15.02159699999722
 51
90.013580999977563
  0
ARC
  5
8E4D
  8
AM_0
 10
212.51869675714349
 20
144.20791421757349
 30
0.0
 40
0.9950640599999999
 50
89.71493799999395
 51
180.28506000000129
  0
LINE
  5
8E54
  8
AM_0
 10
194.02356675714501
 20
104.2029802175736
 30
0.0
 11
194.02356675714461
 21
59.202980217573817
 31
0.0
  0
LINE
  5
8E55
  8
AM_0
 10
191.9235667571447
 20
104.7532327492676
 30
0.0
 11
191.9235667571447
 21
58.652727685880102
 31
0.0
  0
LINE
  5
8E56
  8
AM_0
 10
109.02356675714501
 20
63.702980217573611
 30
0.0
 11
109.02356675714501
 21
53.702970217573792
 31
0.0
  0
LINE
  5
8E57
  8
AM_0
 10
109.52356675714459
 20
49.202974217573889
 30
0.0
 11
109.52356675714459
 21
114.20297021757339
 31
0.0
  0
LINE
  5
8E58
  8
AM_0
 10
181.07381128883921
 20
47.802972217573817
 30
0.0
 11
113.9435467571452
 21
47.802972217573817
 31
0.0
  0
LINE
  5
8E59
  8
AM_0
 10
113.9435467571452
 20
47.802972217573817
 30
0.0
 11
113.9435467571452
 21
45.702981217573807
 31
0.0
  0
ARC
  5
8E5A
  8
AM_0
 10
113.0161867571445
 20
49.1956272175739
 30
0.0
 40
3.492651899999998
 50
179.8793300000022
 51
270.12067999999482
  0
ARC
  5
8E5B
  8
AM_0
 10
109.5162467571453
 20
53.695630217573807
 30
0.0
 40
0.4927000100000001
 50
179.14455999999711
 51
270.8554399999897
  0
ARC
  5
8E5C
  8
AM_0
 10
196.02356675714461
 20
59.202980217573817
 30
0.0
 40
2.0
 50
180.0
 51
270.0
  0
LINE
  5
8E5D
  8
AM_0
 10
191.5135162508054
 20
57.6627781922179
 30
0.0
 11
182.0637607825004
 21
48.213022723912403
 31
0.0
  0
LINE
  5
8E5E
  8
AM_0
 10
182.06376878249921
 20
48.213030723912198
 30
0.0
 11
191.5135162508054
 21
57.662778192218191
 31
0.0
  0
ARC
  5
8E5F
  8
AM_0
 10
181.07381128883921
 20
49.202972217573802
 30
0.0
 40
1.399999999999999
 50
270.0
 51
315.00000000000921
1001
GENIUS_GENODEF_13
1002
{
1000
HIER
1070
     0
1002
}
1002
{
1000
MANEDIT
1070
     0
1002
}
1002
{
1000
NOSEL
1070
     0
1002
}
1002
{
1000
BEHIND
1070
     0
1002
}
1002
{
1000
OTHER
1070
     0
1002
}
1002
{
1000
REACTOR
1002
}
1001
GENIUS_GENOBJ-N-FIL_13
1002
{
1000
OWNER
1000
GEN
1002
}
  0
ARC
  5
8E60
  8
AM_0
 10
190.52356675714461
 20
58.652727685880102
 30
0.0
 40
1.4000000000006301
 50
314.99999999997232
 51
0.0
  0
ARC
  5
8E61
  8
AM_0
 10
196.52356675714449
 20
47.702980217573817
 30
0.0
 40
2.0
 50
270.0
 51
0.0
  0
ARC
  5
8E62
  8
AM_0
 10
196.52356675714449
 20
55.202980217573817
 30
0.0
 40
2.0
 50
0.0
 51
90.0
  0
LINE
  5
8E63
  8
AM_0
 10
196.52356675714449
 20
57.202980217573817
 30
0.0
 11
196.02356675714461
 21
57.202980217573817
 31
0.0
  0
LINE
  5
8E64
  8
AM_0
 10
198.52356675714461
 20
47.702980217573817
 30
0.0
 11
198.52356675714461
 21
55.202980217573817
 31
0.0
  0
LINE
  5
8E65
  8
AM_0
 10
113.9435467571452
 20
115.6029602175735
 30
0.0
 11
181.08130257701939
 21
115.6029602175735
 31
0.0
  0
ARC
  5
8E66
  8
AM_0
 10
109.5241167571443
 20
63.702430217573422
 30
0.0
 40
0.5005480100000002
 50
90.062622000000005
 51
179.93736999999041
  0
ARC
  5
8E67
  8
AM_0
 10
109.5241167571443
 20
109.70243021757339
 30
0.0
 40
0.5005480100000002
 50
90.062622000000005
 51
179.93736999999041
  0
ARC
  5
8E68
  8
AM_0
 10
109.5160567571447
 20
99.695470217573501
 30
0.0
 40
0.49254802
 50
179.12656000000169
 51
270.8734499999884
  0
LINE
  5
8E69
  8
AM_0
 10
109.02356675714501
 20
109.70297021757339
 30
0.0
 11
109.02356675714501
 21
99.702980217573653
 31
0.0
  0
LINE
  5
8E6A
  8
AM_0
 10
113.9435467571452
 20
115.6029602175735
 30
0.0
 11
113.9435467571452
 21
117.6979602175735
 31
0.0
  0
ARC
  5
8E6B
  8
AM_0
 10
113.0240567571449
 20
114.20248021757349
 30
0.0
 40
3.5005001999999981
 50
90.008164999989489
 51
179.99183999999781
  0
LINE
  5
8E6C
  8
AM_0
 10
196.02356675714461
 20
87.202980217573625
 30
0.0
 11
194.02356675714501
 21
87.202980217573625
 31
0.0
  0
LINE
  5
8E6D
  8
AM_0
 10
194.02356675714461
 20
76.202980217573625
 30
0.0
 11
196.02356675714461
 21
76.202980217573625
 31
0.0
  0
LINE
  5
8E6E
  8
AM_0
 10
196.02356675714461
 20
76.202980217573625
 30
0.0
 11
196.02356675714461
 21
87.202980217573625
 31
0.0
  0
ARC
  5
8E6F
  8
AM_0
 10
196.02356675714461
 20
104.2029802175736
 30
0.0
 40
2.0
 50
90.0
 51
180.0
  0
CIRCLE
  5
8E70
  8
AM_0
 10
193.02356675714461
 20
112.7029802175733
 30
0.0
 40
3.4999999999999631
  0
LINE
  5
8E71
  8
AM_0
 10
182.06376878249921
 20
115.1929297112346
 30
0.0
 11
191.5135162508054
 21
105.74318224292981
 31
0.0
  0
LINE
  5
8E72
  8
AM_0
 10
189.9235667571447
 20
107.33313173658981
 30
0.0
 11
191.5135162508054
 21
105.74318224292951
 31
0.0
  0
ARC
  5
8E73
  8
AM_0
 10
190.52356675714461
 20
104.7532327492676
 30
0.0
 40
1.400000000000118
 50
0.0
 51
45.000000000027619
  0
ARC
  5
8E74
  8
AM_0
 10
181.07381928883839
 20
114.2029802175736
 30
0.0
 40
1.40000000000077
 50
44.999999999981569
 51
89.999999999947889
  0
LINE
  5
8E75
  8
AM_0
 10
198.52356675714461
 20
108.2029802175735
 30
0.0
 11
198.52356675714461
 21
115.7029802175736
 31
0.0
  0
LINE
  5
8E76
  8
AM_0
 10
198.52356675714461
 20
108.2029802175735
 30
0.0
 11
198.52356675714461
 21
115.7029802175736
 31
0.0
  0
ARC
  5
8E77
  8
AM_0
 10
196.52356675714449
 20
108.2029802175735
 30
0.0
 40
2.0
 50
270.0
 51
0.0
  0
LINE
  5
8E78
  8
AM_0
 10
196.02356675714461
 20
106.2029802175736
 30
0.0
 11
196.52356675714449
 21
106.2029802175736
 31
0.0
  0
ARC
  5
8E79
  8
AM_0
 10
196.52356675714449
 20
115.7029802175736
 30
0.0
 40
2.0
 50
0.0
 51
90.0
  0
LINE
  5
8E7A
  8
AM_0
 10
190.38499507593531
 20
112.70298021757451
 30
0.0
 11
195.66213843835109
 21
112.70298021757441
 31
0.0
  0
LINE
  5
8E7B
  8
AM_0
 10
193.02356675714461
 20
115.3415518987801
 30
0.0
 11
193.02356675714461
 21
110.0644085363666
 31
0.0
  0
CIRCLE
  5
8E7C
  8
AM_0
 10
193.02356675714461
 20
50.702980217573803
 30
0.0
 40
3.4999999999999631
  0
LINE
  5
8E7D
  8
AM_0
 10
190.38499507593531
 20
50.702980217574691
 30
0.0
 11
195.66213843835109
 21
50.702980217574691
 31
0.0
  0
LINE
  5
8E7E
  8
AM_0
 10
193.02356675714461
 20
53.341551898780502
 30
0.0
 11
193.02356675714461
 21
48.064408536366813
 31
0.0
  0
LINE
  5
8E7F
  8
AM_0
 10
17.023576757144379
 20
57.728808571649601
 30
0.0
 11
17.023576757144379
 21
138.7029742175736
 31
0.0
  0
LINE
  5
8EB8
  8
AM_0
 10
444.79442444188879
 20
51.719425753344488
 30
0.0
 11
442.92378360710029
 21
51.768309060306102
 31
0.0
  0
LINE
  5
8EB9
  8
AM_0
 10
433.70699716687182
 20
76.202980217573554
 30
0.0
 11
419.42378360709989
 21
76.202980217573554
 31
0.0
  0
LINE
  5
8EBA
  8
AM_0
 10
419.42378360709989
 20
87.202980217573668
 30
0.0
 11
433.70699716687182
 21
87.202980217573668
 31
0.0
  0
LINE
  5
8EBB
  8
AM_0
 10
439.42378360709978
 20
117.70298021757201
 30
0.0
 11
406.92378360709989
 21
117.70298021757201
 31
0.0
  0
LINE
  5
8EBC
  8
AM_0
 10
406.92378360709989
 20
45.702980217571977
 30
0.0
 11
439.42378360709978
 21
45.702980217571977
 31
0.0
  0
LINE
  5
8EBD
  8
AM_0
 10
419.42378360709989
 20
45.702980217571977
 30
0.0
 11
419.42378360709989
 21
117.70298021757201
 31
0.0
  0
LINE
  5
8EBE
  8
AM_0
 10
419.42378360709989
 20
106.7829802175734
 30
0.0
 11
417.95878360709969
 21
115.6029802175738
 31
0.0
  0
ARC
  5
8EBF
  8
AM_0
 10
408.92378360709978
 20
113.1029802175739
 30
0.0
 40
2.5
 50
90.0
 51
180.0
  0
ARC
  5
8EC0
  8
AM_0
 10
406.92378360709989
 20
117.2029802175736
 30
0.0
 40
0.5
 50
90.0
 51
180.0
  0
LINE
  5
8EC1
  8
AM_0
 10
417.95878360709969
 20
115.6029802175738
 30
0.0
 11
408.92378360709978
 21
115.6029802175738
 31
0.0
  0
POLYLINE
  5
8EC2
  8
AM_0
 66
     1
 10
0.0
 20
0.0
 30
0.0
 70
     8
  0
VERTEX
  5
8EC3
  8
AM_0
 10
408.9237365420268
 20
105.33339502061661
 30
0.0
 70
    32
  0
VERTEX
  5
8EC4
  8
AM_0
 10
408.9197365420257
 20
105.33339502061661
 30
0.0
 70
    32
  0
VERTEX
  5
8EC5
  8
AM_0
 10
408.91573654202472
 20
105.33339502061661
 30
0.0
 70
    32
  0
VERTEX
  5
8EC6
  8
AM_0
 10
408.91073654202557
 20
105.33339502061661
 30
0.0
 70
    32
  0
VERTEX
  5
8EC7
  8
AM_0
 10
408.9067365420247
 20
105.33339502061661
 30
0.0
 70
    32
  0
VERTEX
  5
8EC8
  8
AM_0
 10
408.9027365420236
 20
105.33339502061661
 30
0.0
 70
    32
  0
VERTEX
  5
8EC9
  8
AM_0
 10
408.8977365420256
 20
105.33339502061661
 30
0.0
 70
    32
  0
VERTEX
  5
8ECA
  8
AM_0
 10
408.89373654202478
 20
105.3323950206165
 30
0.0
 70
    32
  0
VERTEX
  5
8ECB
  8
AM_0
 10
408.88973654202488
 20
105.3323950206165
 30
0.0
 70
    32
  0
VERTEX
  5
8ECC
  8
AM_0
 10
408.88573654202548
 20
105.3323950206165
 30
0.0
 70
    32
  0
VERTEX
  5
8ECD
  8
AM_0
 10
408.88073654202492
 20
105.3323950206165
 30
0.0
 70
    32
  0
VERTEX
  5
8ECE
  8
AM_0
 10
408.87673654202553
 20
105.3323950206165
 30
0.0
 70
    32
  0
VERTEX
  5
8ECF
  8
AM_0
 10
408.87273654202568
 20
105.3323950206165
 30
0.0
 70
    32
  0
VERTEX
  5
8ED0
  8
AM_0
 10
408.8687365420256
 20
105.3323950206165
 30
0.0
 70
    32
  0
VERTEX
  5
8ED1
  8
AM_0
 10
408.86373654202572
 20
105.3323950206165
 30
0.0
 70
    32
  0
VERTEX
  5
8ED2
  8
AM_0
 10
408.85973654202559
 20
105.3323950206165
 30
0.0
 70
    32
  0
VERTEX
  5
8ED3
  8
AM_0
 10
408.85573654202477
 20
105.3323950206165
 30
0.0
 70
    32
  0
VERTEX
  5
8ED4
  8
AM_0
 10
408.85073654202557
 20
105.3323950206165
 30
0.0
 70
    32
  0
VERTEX
  5
8ED5
  8
AM_0
 10
408.8467365420251
 20
105.3323950206165
 30
0.0
 70
    32
  0
VERTEX
  5
8ED6
  8
AM_0
 10
408.8427365420248
 20
105.3323950206165
 30
0.0
 70
    32
  0
VERTEX
  5
8ED7
  8
AM_0
 10
408.8387365420254
 20
105.3323950206165
 30
0.0
 70
    32
  0
VERTEX
  5
8ED8
  8
AM_0
 10
408.83373654202478
 20
105.3323950206165
 30
0.0
 70
    32
  0
VERTEX
  5
8ED9
  8
AM_0
 10
408.82973654202539
 20
105.3323950206165
 30
0.0
 70
    32
  0
VERTEX
  5
8EDA
  8
AM_0
 10
408.8257365420256
 20
105.3323950206165
 30
0.0
 70
    32
  0
VERTEX
  5
8EDB
  8
AM_0
 10
408.82173654202558
 20
105.3323950206165
 30
0.0
 70
    32
  0
VERTEX
  5
8EDC
  8
AM_0
 10
408.81673654202558
 20
105.3313950206167
 30
0.0
 70
    32
  0
VERTEX
  5
8EDD
  8
AM_0
 10
408.81273654202562
 20
105.3313950206167
 30
0.0
 70
    32
  0
VERTEX
  5
8EDE
  8
AM_0
 10
408.8087365420252
 20
105.3313950206167
 30
0.0
 70
    32
  0
VERTEX
  5
8EDF
  8
AM_0
 10
408.8047365420249
 20
105.3313950206167
 30
0.0
 70
    32
  0
VERTEX
  5
8EE0
  8
AM_0
 10
408.79973654202479
 20
105.3313950206167
 30
0.0
 70
    32
  0
VERTEX
  5
8EE1
  8
AM_0
 10
408.79573654202483
 20
105.3313950206167
 30
0.0
 70
    32
  0
VERTEX
  5
8EE2
  8
AM_0
 10
408.79173654202549
 20
105.3313950206167
 30
0.0
 70
    32
  0
VERTEX
  5
8EE3
  8
AM_0
 10
408.78673654202538
 20
105.3313950206167
 30
0.0
 70
    32
  0
VERTEX
  5
8EE4
  8
AM_0
 10
408.78273654202508
 20
105.3313950206167
 30
0.0
 70
    32
  0
VERTEX
  5
8EE5
  8
AM_0
 10
408.77873654202563
 20
105.3313950206167
 30
0.0
 70
    32
  0
VERTEX
  5
8EE6
  8
AM_0
 10
408.77473654202561
 20
105.33039502061661
 30
0.0
 70
    32
  0
VERTEX
  5
8EE7
  8
AM_0
 10
408.76973654202561
 20
105.33039502061661
 30
0.0
 70
    32
  0
VERTEX
  5
8EE8
  8
AM_0
 10
408.76573654202548
 20
105.33039502061661
 30
0.0
 70
    32
  0
VERTEX
  5
8EE9
  8
AM_0
 10
408.76173654202478
 20
105.33039502061661
 30
0.0
 70
    32
  0
VERTEX
  5
8EEA
  8
AM_0
 10
408.75773654202533
 20
105.33039502061661
 30
0.0
 70
    32
  0
VERTEX
  5
8EEB
  8
AM_0
 10
408.75273654202482
 20
105.33039502061661
 30
0.0
 70
    32
  0
VERTEX
  5
8EEC
  8
AM_0
 10
408.74873654202543
 20
105.33039502061661
 30
0.0
 70
    32
  0
VERTEX
  5
8EED
  8
AM_0
 10
408.74473654202478
 20
105.3293950206165
 30
0.0
 70
    32
  0
VERTEX
  5
8EEE
  8
AM_0
 10
408.74073654202562
 20
105.3293950206165
 30
0.0
 70
    32
  0
VERTEX
  5
8EEF
  8
AM_0
 10
408.73573654202528
 20
105.3293950206165
 30
0.0
 70
    32
  0
VERTEX
  5
8EF0
  8
AM_0
 10
408.7317365420256
 20
105.3293950206165
 30
0.0
 70
    32
  0
VERTEX
  5
8EF1
  8
AM_0
 10
408.72773654202558
 20
105.3293950206165
 30
0.0
 70
    32
  0
VERTEX
  5
8EF2
  8
AM_0
 10
408.72273654202559
 20
105.3293950206165
 30
0.0
 70
    32
  0
VERTEX
  5
8EF3
  8
AM_0
 10
408.71873654202551
 20
105.3293950206165
 30
0.0
 70
    32
  0
VERTEX
  5
8EF4
  8
AM_0
 10
408.71473654202481
 20
105.3283950206165
 30
0.0
 70
    32
  0
VERTEX
  5
8EF5
  8
AM_0
 10
408.71073654202542
 20
105.3283950206165
 30
0.0
 70
    32
  0
VERTEX
  5
8EF6
  8
AM_0
 10
408.7057365420257
 20
105.3283950206165
 30
0.0
 70
    32
  0
VERTEX
  5
8EF7
  8
AM_0
 10
408.7017365420254
 20
105.3283950206165
 30
0.0
 70
    32
  0
VERTEX
  5
8EF8
  8
AM_0
 10
408.6977365420255
 20
105.3283950206165
 30
0.0
 70
    32
  0
VERTEX
  5
8EF9
  8
AM_0
 10
408.69373654202548
 20
105.32739502061661
 30
0.0
 70
    32
  0
VERTEX
  5
8EFA
  8
AM_0
 10
408.68873654202531
 20
105.32739502061661
 30
0.0
 70
    32
  0
VERTEX
  5
8EFB
  8
AM_0
 10
408.68473654202552
 20
105.32739502061661
 30
0.0
 70
    32
  0
VERTEX
  5
8EFC
  8
AM_0
 10
408.68073654202573
 20
105.32739502061661
 30
0.0
 70
    32
  0
VERTEX
  5
8EFD
  8
AM_0
 10
408.67673654202559
 20
105.32739502061661
 30
0.0
 70
    32
  0
VERTEX
  5
8EFE
  8
AM_0
 10
408.67173654202549
 20
105.32739502061661
 30
0.0
 70
    32
  0
VERTEX
  5
8EFF
  8
AM_0
 10
408.66773654202558
 20
105.3263950206168
 30
0.0
 70
    32
  0
VERTEX
  5
8F00
  8
AM_0
 10
408.66373654202511
 20
105.3263950206168
 30
0.0
 70
    32
  0
VERTEX
  5
8F01
  8
AM_0
 10
408.65973654202548
 20
105.3263950206168
 30
0.0
 70
    32
  0
VERTEX
  5
8F02
  8
AM_0
 10
408.65473654202492
 20
105.3263950206168
 30
0.0
 70
    32
  0
VERTEX
  5
8F03
  8
AM_0
 10
408.65073654202553
 20
105.3253950206167
 30
0.0
 70
    32
  0
VERTEX
  5
8F04
  8
AM_0
 10
408.64673654202539
 20
105.3253950206167
 30
0.0
 70
    32
  0
VERTEX
  5
8F05
  8
AM_0
 10
408.6417365420254
 20
105.3253950206167
 30
0.0
 70
    32
  0
VERTEX
  5
8F06
  8
AM_0
 10
408.63773654202549
 20
105.3253950206167
 30
0.0
 70
    32
  0
VERTEX
  5
8F07
  8
AM_0
 10
408.63373654202559
 20
105.3253950206167
 30
0.0
 70
    32
  0
VERTEX
  5
8F08
  8
AM_0
 10
408.62973654202392
 20
105.32439502061661
 30
0.0
 70
    32
  0
VERTEX
  5
8F09
  8
AM_0
 10
408.62473654202557
 20
105.32439502061661
 30
0.0
 70
    32
  0
VERTEX
  5
8F0A
  8
AM_0
 10
408.62073654202482
 20
105.32439502061661
 30
0.0
 70
    32
  0
VERTEX
  5
8F0B
  8
AM_0
 10
408.6167365420248
 20
105.32439502061661
 30
0.0
 70
    32
  0
VERTEX
  5
8F0C
  8
AM_0
 10
408.6127365420254
 20
105.3233950206166
 30
0.0
 70
    32
  0
VERTEX
  5
8F0D
  8
AM_0
 10
408.60773654202478
 20
105.3233950206166
 30
0.0
 70
    32
  0
VERTEX
  5
8F0E
  8
AM_0
 10
408.60373654202539
 20
105.3233950206166
 30
0.0
 70
    32
  0
VERTEX
  5
8F0F
  8
AM_0
 10
408.59973654202548
 20
105.3223950206167
 30
0.0
 70
    32
  0
VERTEX
  5
8F10
  8
AM_0
 10
408.59573654202552
 20
105.3223950206167
 30
0.0
 70
    32
  0
VERTEX
  5
8F11
  8
AM_0
 10
408.59073654202552
 20
105.3223950206167
 30
0.0
 70
    32
  0
VERTEX
  5
8F12
  8
AM_0
 10
408.58673654202562
 20
105.3223950206167
 30
0.0
 70
    32
  0
VERTEX
  5
8F13
  8
AM_0
 10
408.58273654202469
 20
105.32139502061651
 30
0.0
 70
    32
  0
VERTEX
  5
8F14
  8
AM_0
 10
408.57873654202479
 20
105.32139502061651
 30
0.0
 70
    32
  0
VERTEX
  5
8F15
  8
AM_0
 10
408.57373654202547
 20
105.32139502061651
 30
0.0
 70
    32
  0
VERTEX
  5
8F16
  8
AM_0
 10
408.56973654202483
 20
105.32139502061651
 30
0.0
 70
    32
  0
VERTEX
  5
8F17
  8
AM_0
 10
408.56573654202532
 20
105.3203950206164
 30
0.0
 70
    32
  0
VERTEX
  5
8F18
  8
AM_0
 10
408.56173654202541
 20
105.3203950206164
 30
0.0
 70
    32
  0
VERTEX
  5
8F19
  8
AM_0
 10
408.55673654202548
 20
105.3203950206164
 30
0.0
 70
    32
  0
VERTEX
  5
8F1A
  8
AM_0
 10
408.55273654202529
 20
105.3193950206165
 30
0.0
 70
    32
  0
VERTEX
  5
8F1B
  8
AM_0
 10
408.5487365420251
 20
105.3193950206165
 30
0.0
 70
    32
  0
VERTEX
  5
8F1C
  8
AM_0
 10
408.54373654202527
 20
105.3193950206165
 30
0.0
 70
    32
  0
VERTEX
  5
8F1D
  8
AM_0
 10
408.53973654202503
 20
105.31839502061661
 30
0.0
 70
    32
  0
VERTEX
  5
8F1E
  8
AM_0
 10
408.53573654202552
 20
105.31839502061661
 30
0.0
 70
    32
  0
VERTEX
  5
8F1F
  8
AM_0
 10
408.53173654202482
 20
105.31839502061661
 30
0.0
 70
    32
  0
VERTEX
  5
8F20
  8
AM_0
 10
408.52673654202471
 20
105.3173950206168
 30
0.0
 70
    32
  0
VERTEX
  5
8F21
  8
AM_0
 10
408.5227365420256
 20
105.3173950206168
 30
0.0
 70
    32
  0
VERTEX
  5
8F22
  8
AM_0
 10
408.51873654202541
 20
105.3173950206168
 30
0.0
 70
    32
  0
VERTEX
  5
8F23
  8
AM_0
 10
408.5147365420255
 20
105.3163950206167
 30
0.0
 70
    32
  0
VERTEX
  5
8F24
  8
AM_0
 10
408.50973654202483
 20
105.3163950206167
 30
0.0
 70
    32
  0
VERTEX
  5
8F25
  8
AM_0
 10
408.50573654202532
 20
105.3163950206167
 30
0.0
 70
    32
  0
VERTEX
  5
8F26
  8
AM_0
 10
408.50173654202513
 20
105.31539502061661
 30
0.0
 70
    32
  0
VERTEX
  5
8F27
  8
AM_0
 10
408.49773654202568
 20
105.31539502061661
 30
0.0
 70
    32
  0
VERTEX
  5
8F28
  8
AM_0
 10
408.492736542025
 20
105.31539502061661
 30
0.0
 70
    32
  0
VERTEX
  5
8F29
  8
AM_0
 10
408.4887365420247
 20
105.3143950206166
 30
0.0
 70
    32
  0
VERTEX
  5
8F2A
  8
AM_0
 10
408.4847365420257
 20
105.3143950206166
 30
0.0
 70
    32
  0
VERTEX
  5
8F2B
  8
AM_0
 10
408.48073654202511
 20
105.3133950206168
 30
0.0
 70
    32
  0
VERTEX
  5
8F2C
  8
AM_0
 10
408.47573654202569
 20
105.3133950206168
 30
0.0
 70
    32
  0
VERTEX
  5
8F2D
  8
AM_0
 10
408.47173654202481
 20
105.3133950206168
 30
0.0
 70
    32
  0
VERTEX
  5
8F2E
  8
AM_0
 10
408.4677365420248
 20
105.31239502061651
 30
0.0
 70
    32
  0
VERTEX
  5
8F2F
  8
AM_0
 10
408.46373654202517
 20
105.31239502061651
 30
0.0
 70
    32
  0
VERTEX
  5
8F30
  8
AM_0
 10
408.45873654202478
 20
105.3113950206165
 30
0.0
 70
    32
  0
VERTEX
  5
8F31
  8
AM_0
 10
408.4547365420251
 20
105.3113950206165
 30
0.0
 70
    32
  0
VERTEX
  5
8F32
  8
AM_0
 10
408.45073654202469
 20
105.3113950206165
 30
0.0
 70
    32
  0
VERTEX
  5
8F33
  8
AM_0
 10
408.44673654202558
 20
105.3103950206165
 30
0.0
 70
    32
  0
VERTEX
  5
8F34
  8
AM_0
 10
408.44173654202478
 20
105.3103950206165
 30
0.0
 70
    32
  0
VERTEX
  5
8F35
  8
AM_0
 10
408.43773654202562
 20
105.30939502061661
 30
0.0
 70
    32
  0
VERTEX
  5
8F36
  8
AM_0
 10
408.43373654202509
 20
105.30939502061661
 30
0.0
 70
    32
  0
VERTEX
  5
8F37
  8
AM_0
 10
408.42973654202478
 20
105.3083950206168
 30
0.0
 70
    32
  0
VERTEX
  5
8F38
  8
AM_0
 10
408.42473654202519
 20
105.3083950206168
 30
0.0
 70
    32
  0
VERTEX
  5
8F39
  8
AM_0
 10
408.42073654202471
 20
105.3083950206168
 30
0.0
 70
    32
  0
VERTEX
  5
8F3A
  8
AM_0
 10
408.41673654202509
 20
105.3073950206167
 30
0.0
 70
    32
  0
VERTEX
  5
8F3B
  8
AM_0
 10
408.41273654202479
 20
105.3073950206167
 30
0.0
 70
    32
  0
VERTEX
  5
8F3C
  8
AM_0
 10
408.40773654202508
 20
105.30639502061661
 30
0.0
 70
    32
  0
VERTEX
  5
8F3D
  8
AM_0
 10
408.40373654202477
 20
105.30639502061661
 30
0.0
 70
    32
  0
VERTEX
  5
8F3E
  8
AM_0
 10
408.39973654202561
 20
105.3053950206166
 30
0.0
 70
    32
  0
VERTEX
  5
8F3F
  8
AM_0
 10
408.39573654202479
 20
105.3053950206166
 30
0.0
 70
    32
  0
VERTEX
  5
8F40
  8
AM_0
 10
408.391736542025
 20
105.3043950206167
 30
0.0
 70
    32
  0
VERTEX
  5
8F41
  8
AM_0
 10
408.38673654202478
 20
105.3043950206167
 30
0.0
 70
    32
  0
VERTEX
  5
8F42
  8
AM_0
 10
408.38273654202482
 20
105.30339502061651
 30
0.0
 70
    32
  0
VERTEX
  5
8F43
  8
AM_0
 10
408.3787365420248
 20
105.30339502061651
 30
0.0
 70
    32
  0
VERTEX
  5
8F44
  8
AM_0
 10
408.37473654202472
 20
105.3023950206164
 30
0.0
 70
    32
  0
VERTEX
  5
8F45
  8
AM_0
 10
408.36973654202478
 20
105.3023950206164
 30
0.0
 70
    32
  0
VERTEX
  5
8F46
  8
AM_0
 10
408.3657365420251
 20
105.3013950206165
 30
0.0
 70
    32
  0
VERTEX
  5
8F47
  8
AM_0
 10
408.3617365420256
 20
105.3013950206165
 30
0.0
 70
    32
  0
VERTEX
  5
8F48
  8
AM_0
 10
408.35773654202478
 20
105.30039502061661
 30
0.0
 70
    32
  0
VERTEX
  5
8F49
  8
AM_0
 10
408.35273654202553
 20
105.30039502061661
 30
0.0
 70
    32
  0
VERTEX
  5
8F4A
  8
AM_0
 10
408.3487365420267
 20
105.2993950206167
 30
0.0
 70
    32
  0
VERTEX
  5
8F4B
  8
AM_0
 10
408.34473654202492
 20
105.2993950206167
 30
0.0
 70
    32
  0
VERTEX
  5
8F4C
  8
AM_0
 10
408.34073654202479
 20
105.2983950206165
 30
0.0
 70
    32
  0
VERTEX
  5
8F4D
  8
AM_0
 10
408.33573654202479
 20
105.2983950206165
 30
0.0
 70
    32
  0
VERTEX
  5
8F4E
  8
AM_0
 10
408.33173654202488
 20
105.29739502061651
 30
0.0
 70
    32
  0
VERTEX
  5
8F4F
  8
AM_0
 10
408.32773654202509
 20
105.29739502061651
 30
0.0
 70
    32
  0
VERTEX
  5
8F50
  8
AM_0
 10
408.3237365420257
 20
105.2963950206166
 30
0.0
 70
    32
  0
VERTEX
  5
8F51
  8
AM_0
 10
408.31873654202508
 20
105.2963950206166
 30
0.0
 70
    32
  0
VERTEX
  5
8F52
  8
AM_0
 10
408.31473654202568
 20
105.2953950206167
 30
0.0
 70
    32
  0
VERTEX
  5
8F53
  8
AM_0
 10
408.3107365420247
 20
105.2953950206167
 30
0.0
 70
    32
  0
VERTEX
  5
8F54
  8
AM_0
 10
408.30673654202479
 20
105.29439502061651
 30
0.0
 70
    32
  0
VERTEX
  5
8F55
  8
AM_0
 10
408.302736542025
 20
105.29439502061651
 30
0.0
 70
    32
  0
VERTEX
  5
8F56
  8
AM_0
 10
408.29773654202478
 20
105.2933950206168
 30
0.0
 70
    32
  0
VERTEX
  5
8F57
  8
AM_0
 10
408.29373654202482
 20
105.2923950206164
 30
0.0
 70
    32
  0
VERTEX
  5
8F58
  8
AM_0
 10
408.28973654202503
 20
105.2923950206164
 30
0.0
 70
    32
  0
VERTEX
  5
8F59
  8
AM_0
 10
408.28573654202569
 20
105.2913950206166
 30
0.0
 70
    32
  0
VERTEX
  5
8F5A
  8
AM_0
 10
408.28073654202512
 20
105.2913950206166
 30
0.0
 70
    32
  0
VERTEX
  5
8F5B
  8
AM_0
 10
408.27673654202567
 20
105.2903950206167
 30
0.0
 70
    32
  0
VERTEX
  5
8F5C
  8
AM_0
 10
408.27273654202662
 20
105.2903950206167
 30
0.0
 70
    32
  0
VERTEX
  5
8F5D
  8
AM_0
 10
408.26873654202478
 20
105.2893950206166
 30
0.0
 70
    32
  0
VERTEX
  5
8F5E
  8
AM_0
 10
408.26373654202661
 20
105.28839502061651
 30
0.0
 70
    32
  0
VERTEX
  5
8F5F
  8
AM_0
 10
408.25973654202681
 20
105.28839502061651
 30
0.0
 70
    32
  0
VERTEX
  5
8F60
  8
AM_0
 10
408.25573654202549
 20
105.2873950206166
 30
0.0
 70
    32
  0
VERTEX
  5
8F61
  8
AM_0
 10
408.25173654202513
 20
105.2873950206166
 30
0.0
 70
    32
  0
VERTEX
  5
8F62
  8
AM_0
 10
408.24773654202562
 20
105.2863950206166
 30
0.0
 70
    32
  0
VERTEX
  5
8F63
  8
AM_0
 10
408.24273654202511
 20
105.2853950206168
 30
0.0
 70
    32
  0
VERTEX
  5
8F64
  8
AM_0
 10
408.23873654202561
 20
105.2853950206168
 30
0.0
 70
    32
  0
VERTEX
  5
8F65
  8
AM_0
 10
408.23473654202581
 20
105.2843950206167
 30
0.0
 70
    32
  0
VERTEX
  5
8F66
  8
AM_0
 10
408.23073654202472
 20
105.2843950206167
 30
0.0
 70
    32
  0
VERTEX
  5
8F67
  8
AM_0
 10
408.22573654202557
 20
105.2833950206164
 30
0.0
 70
    32
  0
VERTEX
  5
8F68
  8
AM_0
 10
408.2217365420247
 20
105.2823950206166
 30
0.0
 70
    32
  0
VERTEX
  5
8F69
  8
AM_0
 10
408.21773654202542
 20
105.2823950206166
 30
0.0
 70
    32
  0
VERTEX
  5
8F6A
  8
AM_0
 10
408.21373654202489
 20
105.2813950206167
 30
0.0
 70
    32
  0
VERTEX
  5
8F6B
  8
AM_0
 10
408.2097365420255
 20
105.2803950206166
 30
0.0
 70
    32
  0
VERTEX
  5
8F6C
  8
AM_0
 10
408.20473654202488
 20
105.2803950206166
 30
0.0
 70
    32
  0
VERTEX
  5
8F6D
  8
AM_0
 10
408.20073654202548
 20
105.27939502061651
 30
0.0
 70
    32
  0
VERTEX
  5
8F6E
  8
AM_0
 10
408.19673654202671
 20
105.27939502061651
 30
0.0
 70
    32
  0
VERTEX
  5
8F6F
  8
AM_0
 10
408.19273654202482
 20
105.2783950206165
 30
0.0
 70
    32
  0
VERTEX
  5
8F70
  8
AM_0
 10
408.18773654202658
 20
105.27739502061669
 30
0.0
 70
    32
  0
VERTEX
  5
8F71
  8
AM_0
 10
408.1837365420248
 20
105.27739502061669
 30
0.0
 70
    32
  0
VERTEX
  5
8F72
  8
AM_0
 10
408.17973654202541
 20
105.2763950206168
 30
0.0
 70
    32
  0
VERTEX
  5
8F73
  8
AM_0
 10
408.17573654202511
 20
105.2753950206167
 30
0.0
 70
    32
  0
VERTEX
  5
8F74
  8
AM_0
 10
408.1717365420256
 20
105.2753950206167
 30
0.0
 70
    32
  0
VERTEX
  5
8F75
  8
AM_0
 10
408.16673654202492
 20
105.2743950206164
 30
0.0
 70
    32
  0
VERTEX
  5
8F76
  8
AM_0
 10
408.16273654202553
 20
105.2733950206165
 30
0.0
 70
    32
  0
VERTEX
  5
8F77
  8
AM_0
 10
408.15873654202562
 20
105.2733950206165
 30
0.0
 70
    32
  0
VERTEX
  5
8F78
  8
AM_0
 10
408.15473654202481
 20
105.2723950206167
 30
0.0
 70
    32
  0
VERTEX
  5
8F79
  8
AM_0
 10
408.14973654202561
 20
105.27139502061659
 30
0.0
 70
    32
  0
VERTEX
  5
8F7A
  8
AM_0
 10
408.14573654202479
 20
105.27139502061659
 30
0.0
 70
    32
  0
VERTEX
  5
8F7B
  8
AM_0
 10
408.14173654202551
 20
105.2703950206165
 30
0.0
 70
    32
  0
VERTEX
  5
8F7C
  8
AM_0
 10
408.1377365420251
 20
105.2693950206165
 30
0.0
 70
    32
  0
VERTEX
  5
8F7D
  8
AM_0
 10
408.13373654202559
 20
105.26839502061669
 30
0.0
 70
    32
  0
VERTEX
  5
8F7E
  8
AM_0
 10
408.12873654202548
 20
105.26839502061669
 30
0.0
 70
    32
  0
VERTEX
  5
8F7F
  8
AM_0
 10
408.12473654202557
 20
105.2673950206168
 30
0.0
 70
    32
  0
VERTEX
  5
8F80
  8
AM_0
 10
408.12073654202561
 20
105.2663950206167
 30
0.0
 70
    32
  0
VERTEX
  5
8F81
  8
AM_0
 10
408.1167365420248
 20
105.2663950206167
 30
0.0
 70
    32
  0
VERTEX
  5
8F82
  8
AM_0
 10
408.112736542025
 20
105.2653950206164
 30
0.0
 70
    32
  0
VERTEX
  5
8F83
  8
AM_0
 10
408.10773654202347
 20
105.2643950206165
 30
0.0
 70
    32
  0
VERTEX
  5
8F84
  8
AM_0
 10
408.10373654202539
 20
105.2633950206167
 30
0.0
 70
    32
  0
VERTEX
  5
8F85
  8
AM_0
 10
408.09973654202491
 20
105.2633950206167
 30
0.0
 70
    32
  0
VERTEX
  5
8F86
  8
AM_0
 10
408.09573654202552
 20
105.26239502061659
 30
0.0
 70
    32
  0
VERTEX
  5
8F87
  8
AM_0
 10
408.09173654202573
 20
105.2613950206165
 30
0.0
 70
    32
  0
VERTEX
  5
8F88
  8
AM_0
 10
408.08673654202562
 20
105.2603950206165
 30
0.0
 70
    32
  0
VERTEX
  5
8F89
  8
AM_0
 10
408.0827365420256
 20
105.2603950206165
 30
0.0
 70
    32
  0
VERTEX
  5
8F8A
  8
AM_0
 10
408.07873654202479
 20
105.25939502061659
 30
0.0
 70
    32
  0
VERTEX
  5
8F8B
  8
AM_0
 10
408.07473654202528
 20
105.2583950206168
 30
0.0
 70
    32
  0
VERTEX
  5
8F8C
  8
AM_0
 10
408.07073654202492
 20
105.2573950206167
 30
0.0
 70
    32
  0
VERTEX
  5
8F8D
  8
AM_0
 10
408.06573654202532
 20
105.2573950206167
 30
0.0
 70
    32
  0
VERTEX
  5
8F8E
  8
AM_0
 10
408.06173654202479
 20
105.25639502061659
 30
0.0
 70
    32
  0
VERTEX
  5
8F8F
  8
AM_0
 10
408.05773654202562
 20
105.2553950206166
 30
0.0
 70
    32
  0
VERTEX
  5
8F90
  8
AM_0
 10
408.0537365420256
 20
105.2543950206167
 30
0.0
 70
    32
  0
VERTEX
  5
8F91
  8
AM_0
 10
408.04973654202479
 20
105.2543950206167
 30
0.0
 70
    32
  0
VERTEX
  5
8F92
  8
AM_0
 10
408.0447365420257
 20
105.25339502061659
 30
0.0
 70
    32
  0
VERTEX
  5
8F93
  8
AM_0
 10
408.04073654202472
 20
105.2523950206165
 30
0.0
 70
    32
  0
VERTEX
  5
8F94
  8
AM_0
 10
408.03673654202532
 20
105.2513950206165
 30
0.0
 70
    32
  0
VERTEX
  5
8F95
  8
AM_0
 10
408.03273654202491
 20
105.25039502061659
 30
0.0
 70
    32
  0
VERTEX
  5
8F96
  8
AM_0
 10
408.02873654202563
 20
105.25039502061659
 30
0.0
 70
    32
  0
VERTEX
  5
8F97
  8
AM_0
 10
408.02373654202489
 20
105.2493950206168
 30
0.0
 70
    32
  0
VERTEX
  5
8F98
  8
AM_0
 10
408.0197365420255
 20
105.2483950206167
 30
0.0
 70
    32
  0
VERTEX
  5
8F99
  8
AM_0
 10
408.01573654202571
 20
105.24739502061659
 30
0.0
 70
    32
  0
VERTEX
  5
8F9A
  8
AM_0
 10
408.01173654202478
 20
105.2463950206167
 30
0.0
 70
    32
  0
VERTEX
  5
8F9B
  8
AM_0
 10
408.00773654202482
 20
105.2463950206167
 30
0.0
 70
    32
  0
VERTEX
  5
8F9C
  8
AM_0
 10
408.00273654202482
 20
105.2453950206166
 30
0.0
 70
    32
  0
VERTEX
  5
8F9D
  8
AM_0
 10
407.99873654202543
 20
105.24439502061649
 30
0.0
 70
    32
  0
VERTEX
  5
8F9E
  8
AM_0
 10
407.99473654202512
 20
105.2433950206165
 30
0.0
 70
    32
  0
VERTEX
  5
8F9F
  8
AM_0
 10
407.99073654202562
 20
105.2423950206165
 30
0.0
 70
    32
  0
VERTEX
  5
8FA0
  8
AM_0
 10
407.98673654202548
 20
105.24139502061659
 30
0.0
 70
    32
  0
VERTEX
  5
8FA1
  8
AM_0
 10
407.98273654202518
 20
105.24139502061659
 30
0.0
 70
    32
  0
VERTEX
  5
8FA2
  8
AM_0
 10
407.97773654202553
 20
105.2403950206167
 30
0.0
 70
    32
  0
VERTEX
  5
8FA3
  8
AM_0
 10
407.97373654202482
 20
105.2393950206167
 30
0.0
 70
    32
  0
VERTEX
  5
8FA4
  8
AM_0
 10
407.96973654202492
 20
105.23839502061659
 30
0.0
 70
    32
  0
VERTEX
  5
8FA5
  8
AM_0
 10
407.96573654202552
 20
105.2373950206166
 30
0.0
 70
    32
  0
VERTEX
  5
8FA6
  8
AM_0
 10
407.96173654202562
 20
105.2363950206166
 30
0.0
 70
    32
  0
VERTEX
  5
8FA7
  8
AM_0
 10
407.956736542025
 20
105.23539502061649
 30
0.0
 70
    32
  0
VERTEX
  5
8FA8
  8
AM_0
 10
407.9527365420256
 20
105.23539502061649
 30
0.0
 70
    32
  0
VERTEX
  5
8FA9
  8
AM_0
 10
407.9487365420257
 20
105.2343950206164
 30
0.0
 70
    32
  0
VERTEX
  5
8FAA
  8
AM_0
 10
407.94473654202523
 20
105.2333950206165
 30
0.0
 70
    32
  0
VERTEX
  5
8FAB
  8
AM_0
 10
407.94073654202492
 20
105.23239502061659
 30
0.0
 70
    32
  0
VERTEX
  5
8FAC
  8
AM_0
 10
407.93673654202553
 20
105.2313950206167
 30
0.0
 70
    32
  0
VERTEX
  5
8FAD
  8
AM_0
 10
407.93173654202542
 20
105.2303950206167
 30
0.0
 70
    32
  0
VERTEX
  5
8FAE
  8
AM_0
 10
407.92773654202551
 20
105.22939502061659
 30
0.0
 70
    32
  0
VERTEX
  5
8FAF
  8
AM_0
 10
407.92373654202549
 20
105.2283950206166
 30
0.0
 70
    32
  0
VERTEX
  5
8FB0
  8
AM_0
 10
407.9197365420257
 20
105.2273950206167
 30
0.0
 70
    32
  0
VERTEX
  5
8FB1
  8
AM_0
 10
407.91573654202477
 20
105.2273950206167
 30
0.0
 70
    32
  0
VERTEX
  5
8FB2
  8
AM_0
 10
407.91173654202481
 20
105.22639502061691
 30
0.0
 70
    32
  0
VERTEX
  5
8FB3
  8
AM_0
 10
407.90673654202521
 20
105.2253950206164
 30
0.0
 70
    32
  0
VERTEX
  5
8FB4
  8
AM_0
 10
407.9027365420248
 20
105.2243950206164
 30
0.0
 70
    32
  0
VERTEX
  5
8FB5
  8
AM_0
 10
407.89873654202552
 20
105.22339502061661
 30
0.0
 70
    32
  0
VERTEX
  5
8FB6
  8
AM_0
 10
407.89473654202561
 20
105.2223950206168
 30
0.0
 70
    32
  0
VERTEX
  5
8FB7
  8
AM_0
 10
407.89073654202548
 20
105.2213950206166
 30
0.0
 70
    32
  0
VERTEX
  5
8FB8
  8
AM_0
 10
407.88673654202478
 20
105.22039502061649
 30
0.0
 70
    32
  0
VERTEX
  5
8FB9
  8
AM_0
 10
407.88173654202552
 20
105.2193950206166
 30
0.0
 70
    32
  0
VERTEX
  5
8FBA
  8
AM_0
 10
407.8777365420251
 20
105.2183950206167
 30
0.0
 70
    32
  0
VERTEX
  5
8FBB
  8
AM_0
 10
407.87373654202491
 20
105.21739502061681
 30
0.0
 70
    32
  0
VERTEX
  5
8FBC
  8
AM_0
 10
407.86973654202541
 20
105.2163950206164
 30
0.0
 70
    32
  0
VERTEX
  5
8FBD
  8
AM_0
 10
407.86573654202562
 20
105.2153950206164
 30
0.0
 70
    32
  0
VERTEX
  5
8FBE
  8
AM_0
 10
407.8617365420256
 20
105.21439502061661
 30
0.0
 70
    32
  0
VERTEX
  5
8FBF
  8
AM_0
 10
407.8567365420256
 20
105.2133950206167
 30
0.0
 70
    32
  0
VERTEX
  5
8FC0
  8
AM_0
 10
407.85273654202558
 20
105.2123950206166
 30
0.0
 70
    32
  0
VERTEX
  5
8FC1
  8
AM_0
 10
407.84873654202482
 20
105.21139502061649
 30
0.0
 70
    32
  0
VERTEX
  5
8FC2
  8
AM_0
 10
407.84473654202532
 20
105.2103950206166
 30
0.0
 70
    32
  0
VERTEX
  5
8FC3
  8
AM_0
 10
407.84073654202552
 20
105.2093950206167
 30
0.0
 70
    32
  0
VERTEX
  5
8FC4
  8
AM_0
 10
407.83673654202551
 20
105.20839502061681
 30
0.0
 70
    32
  0
VERTEX
  5
8FC5
  8
AM_0
 10
407.8327365420248
 20
105.2073950206164
 30
0.0
 70
    32
  0
VERTEX
  5
8FC6
  8
AM_0
 10
407.82773654202549
 20
105.2063950206164
 30
0.0
 70
    32
  0
VERTEX
  5
8FC7
  8
AM_0
 10
407.8237365420257
 20
105.20539502061661
 30
0.0
 70
    32
  0
VERTEX
  5
8FC8
  8
AM_0
 10
407.81973654202483
 20
105.2043950206167
 30
0.0
 70
    32
  0
VERTEX
  5
8FC9
  8
AM_0
 10
407.81573654202538
 20
105.2033950206165
 30
0.0
 70
    32
  0
VERTEX
  5
8FCA
  8
AM_0
 10
407.81173654202553
 20
105.20239502061651
 30
0.0
 70
    32
  0
VERTEX
  5
8FCB
  8
AM_0
 10
407.80773654202562
 20
105.2013950206165
 30
0.0
 70
    32
  0
VERTEX
  5
8FCC
  8
AM_0
 10
407.80273654202551
 20
105.2003950206167
 30
0.0
 70
    32
  0
VERTEX
  5
8FCD
  8
AM_0
 10
407.79873654202561
 20
105.19939502061681
 30
0.0
 70
    32
  0
VERTEX
  5
8FCE
  8
AM_0
 10
407.79473654202468
 20
105.1983950206167
 30
0.0
 70
    32
  0
VERTEX
  5
8FCF
  8
AM_0
 10
407.79073654202477
 20
105.1973950206166
 30
0.0
 70
    32
  0
VERTEX
  5
8FD0
  8
AM_0
 10
407.78673654202532
 20
105.19639502061651
 30
0.0
 70
    32
  0
VERTEX
  5
8FD1
  8
AM_0
 10
407.78273654202548
 20
105.1953950206167
 30
0.0
 70
    32
  0
VERTEX
  5
8FD2
  8
AM_0
 10
407.77873654202472
 20
105.1943950206166
 30
0.0
 70
    32
  0
VERTEX
  5
8FD3
  8
AM_0
 10
407.77473654202493
 20
105.19339502061651
 30
0.0
 70
    32
  0
VERTEX
  5
8FD4
  8
AM_0
 10
407.7697365420251
 20
105.1923950206165
 30
0.0
 70
    32
  0
VERTEX
  5
8FD5
  8
AM_0
 10
407.76573654202491
 20
105.1913950206167
 30
0.0
 70
    32
  0
VERTEX
  5
8FD6
  8
AM_0
 10
407.76173654202518
 20
105.1903950206168
 30
0.0
 70
    32
  0
VERTEX
  5
8FD7
  8
AM_0
 10
407.75773654202533
 20
105.1883950206166
 30
0.0
 70
    32
  0
VERTEX
  5
8FD8
  8
AM_0
 10
407.75373654202548
 20
105.18739502061651
 30
0.0
 70
    32
  0
VERTEX
  5
8FD9
  8
AM_0
 10
407.74973654202392
 20
105.1863950206167
 30
0.0
 70
    32
  0
VERTEX
  5
8FDA
  8
AM_0
 10
407.74573654202482
 20
105.1853950206166
 30
0.0
 70
    32
  0
VERTEX
  5
8FDB
  8
AM_0
 10
407.74173654202519
 20
105.18439502061651
 30
0.0
 70
    32
  0
VERTEX
  5
8FDC
  8
AM_0
 10
407.7367365420248
 20
105.1833950206165
 30
0.0
 70
    32
  0
VERTEX
  5
8FDD
  8
AM_0
 10
407.73273654202518
 20
105.1823950206167
 30
0.0
 70
    32
  0
VERTEX
  5
8FDE
  8
AM_0
 10
407.72873654202539
 20
105.1813950206168
 30
0.0
 70
    32
  0
VERTEX
  5
8FDF
  8
AM_0
 10
407.72473654202508
 20
105.1803950206167
 30
0.0
 70
    32
  0
VERTEX
  5
8FE0
  8
AM_0
 10
407.72073654202381
 20
105.17839502061651
 30
0.0
 70
    32
  0
VERTEX
  5
8FE1
  8
AM_0
 10
407.71673654202561
 20
105.1773950206166
 30
0.0
 70
    32
  0
VERTEX
  5
8FE2
  8
AM_0
 10
407.71273654202543
 20
105.1763950206165
 30
0.0
 70
    32
  0
VERTEX
  5
8FE3
  8
AM_0
 10
407.70873654202541
 20
105.17539502061651
 30
0.0
 70
    32
  0
VERTEX
  5
8FE4
  8
AM_0
 10
407.70373654202518
 20
105.1743950206165
 30
0.0
 70
    32
  0
VERTEX
  5
8FE5
  8
AM_0
 10
407.69973654202528
 20
105.1733950206166
 30
0.0
 70
    32
  0
VERTEX
  5
8FE6
  8
AM_0
 10
407.6957365420248
 20
105.1723950206168
 30
0.0
 70
    32
  0
VERTEX
  5
8FE7
  8
AM_0
 10
407.69173654202473
 20
105.1703950206166
 30
0.0
 70
    32
  0
VERTEX
  5
8FE8
  8
AM_0
 10
407.68773654202568
 20
105.16939502061651
 30
0.0
 70
    32
  0
VERTEX
  5
8FE9
  8
AM_0
 10
407.6837365420248
 20
105.1683950206168
 30
0.0
 70
    32
  0
VERTEX
  5
8FEA
  8
AM_0
 10
407.67973654202478
 20
105.1673950206166
 30
0.0
 70
    32
  0
VERTEX
  5
8FEB
  8
AM_0
 10
407.67573654202522
 20
105.16639502061651
 30
0.0
 70
    32
  0
VERTEX
  5
8FEC
  8
AM_0
 10
407.6717365420256
 20
105.1653950206165
 30
0.0
 70
    32
  0
VERTEX
  5
8FED
  8
AM_0
 10
407.66773654202478
 20
105.1633950206168
 30
0.0
 70
    32
  0
VERTEX
  5
8FEE
  8
AM_0
 10
407.66273654202479
 20
105.1623950206167
 30
0.0
 70
    32
  0
VERTEX
  5
8FEF
  8
AM_0
 10
407.65873654202562
 20
105.1613950206166
 30
0.0
 70
    32
  0
VERTEX
  5
8FF0
  8
AM_0
 10
407.65473654202509
 20
105.1603950206166
 30
0.0
 70
    32
  0
VERTEX
  5
8FF1
  8
AM_0
 10
407.65073654202479
 20
105.1593950206167
 30
0.0
 70
    32
  0
VERTEX
  5
8FF2
  8
AM_0
 10
407.64673654202511
 20
105.15739502061641
 30
0.0
 70
    32
  0
VERTEX
  5
8FF3
  8
AM_0
 10
407.6427365420256
 20
105.1563950206165
 30
0.0
 70
    32
  0
VERTEX
  5
8FF4
  8
AM_0
 10
407.63873654202479
 20
105.1553950206166
 30
0.0
 70
    32
  0
VERTEX
  5
8FF5
  8
AM_0
 10
407.63473654202659
 20
105.1543950206167
 30
0.0
 70
    32
  0
VERTEX
  5
8FF6
  8
AM_0
 10
407.63073654202492
 20
105.15239502061659
 30
0.0
 70
    32
  0
VERTEX
  5
8FF7
  8
AM_0
 10
407.62673654202553
 20
105.1513950206166
 30
0.0
 70
    32
  0
VERTEX
  5
8FF8
  8
AM_0
 10
407.62273654202482
 20
105.1503950206167
 30
0.0
 70
    32
  0
VERTEX
  5
8FF9
  8
AM_0
 10
407.61773654202489
 20
105.1493950206165
 30
0.0
 70
    32
  0
VERTEX
  5
8FFA
  8
AM_0
 10
407.6137365420247
 20
105.1473950206164
 30
0.0
 70
    32
  0
VERTEX
  5
8FFB
  8
AM_0
 10
407.6097365420257
 20
105.14639502061659
 30
0.0
 70
    32
  0
VERTEX
  5
8FFC
  8
AM_0
 10
407.60573654202477
 20
105.1453950206167
 30
0.0
 70
    32
  0
VERTEX
  5
8FFD
  8
AM_0
 10
407.60173654202481
 20
105.1443950206166
 30
0.0
 70
    32
  0
VERTEX
  5
8FFE
  8
AM_0
 10
407.59773654202502
 20
105.1423950206166
 30
0.0
 70
    32
  0
VERTEX
  5
8FFF
  8
AM_0
 10
407.59373654202471
 20
105.1413950206167
 30
0.0
 70
    32
  0
VERTEX
  5
9000
  8
AM_0
 10
407.58973654202651
 20
105.1403950206165
 30
0.0
 70
    32
  0
VERTEX
  5
9001
  8
AM_0
 10
407.58573654202479
 20
105.1393950206164
 30
0.0
 70
    32
  0
VERTEX
  5
9002
  8
AM_0
 10
407.581736542025
 20
105.13739502061659
 30
0.0
 70
    32
  0
VERTEX
  5
9003
  8
AM_0
 10
407.57773654202498
 20
105.1363950206167
 30
0.0
 70
    32
  0
VERTEX
  5
9004
  8
AM_0
 10
407.57373654202547
 20
105.1353950206167
 30
0.0
 70
    32
  0
VERTEX
  5
9005
  8
AM_0
 10
407.56973654202483
 20
105.1333950206166
 30
0.0
 70
    32
  0
VERTEX
  5
9006
  8
AM_0
 10
407.56473654202563
 20
105.1323950206167
 30
0.0
 70
    32
  0
VERTEX
  5
9007
  8
AM_0
 10
407.56073654202481
 20
105.13139502061679
 30
0.0
 70
    32
  0
VERTEX
  5
9008
  8
AM_0
 10
407.55673654202479
 20
105.1293950206164
 30
0.0
 70
    32
  0
VERTEX
  5
9009
  8
AM_0
 10
407.55273654202489
 20
105.12839502061659
 30
0.0
 70
    32
  0
VERTEX
  5
900A
  8
AM_0
 10
407.5487365420251
 20
105.1273950206167
 30
0.0
 70
    32
  0
VERTEX
  5
900B
  8
AM_0
 10
407.5447365420257
 20
105.12539502061649
 30
0.0
 70
    32
  0
VERTEX
  5
900C
  8
AM_0
 10
407.54073654202477
 20
105.1243950206165
 30
0.0
 70
    32
  0
VERTEX
  5
900D
  8
AM_0
 10
407.53673654202481
 20
105.1233950206167
 30
0.0
 70
    32
  0
VERTEX
  5
900E
  8
AM_0
 10
407.53273654202508
 20
105.1213950206167
 30
0.0
 70
    32
  0
VERTEX
  5
900F
  8
AM_0
 10
407.52873654202563
 20
105.1203950206164
 30
0.0
 70
    32
  0
VERTEX
  5
9010
  8
AM_0
 10
407.5247365420247
 20
105.11939502061659
 30
0.0
 70
    32
  0
VERTEX
  5
9011
  8
AM_0
 10
407.52073654202479
 20
105.1173950206166
 30
0.0
 70
    32
  0
VERTEX
  5
9012
  8
AM_0
 10
407.516736542025
 20
105.11639502061649
 30
0.0
 70
    32
  0
VERTEX
  5
9013
  8
AM_0
 10
407.51273654202549
 20
105.1153950206165
 30
0.0
 70
    32
  0
VERTEX
  5
9014
  8
AM_0
 10
407.50873654202468
 20
105.11339502061681
 30
0.0
 70
    32
  0
VERTEX
  5
9015
  8
AM_0
 10
407.50473654202568
 20
105.1123950206167
 30
0.0
 70
    32
  0
VERTEX
  5
9016
  8
AM_0
 10
407.50073654202652
 20
105.11039502061649
 30
0.0
 70
    32
  0
VERTEX
  5
9017
  8
AM_0
 10
407.49673654202479
 20
105.1093950206167
 30
0.0
 70
    32
  0
VERTEX
  5
9018
  8
AM_0
 10
407.49273654202523
 20
105.1083950206166
 30
0.0
 70
    32
  0
VERTEX
  5
9019
  8
AM_0
 10
407.48873654202572
 20
105.1063950206165
 30
0.0
 70
    32
  0
VERTEX
  5
901A
  8
AM_0
 10
407.48473654202559
 20
105.1053950206167
 30
0.0
 70
    32
  0
VERTEX
  5
901B
  8
AM_0
 10
407.48073654202477
 20
105.1033950206167
 30
0.0
 70
    32
  0
VERTEX
  5
901C
  8
AM_0
 10
407.47673654202492
 20
105.1023950206166
 30
0.0
 70
    32
  0
VERTEX
  5
901D
  8
AM_0
 10
407.47273654202502
 20
105.10139502061659
 30
0.0
 70
    32
  0
VERTEX
  5
901E
  8
AM_0
 10
407.46873654202648
 20
105.0993950206166
 30
0.0
 70
    32
  0
VERTEX
  5
901F
  8
AM_0
 10
407.46473654202481
 20
105.09839502061649
 30
0.0
 70
    32
  0
VERTEX
  5
9020
  8
AM_0
 10
407.45973654202561
 20
105.0963950206166
 30
0.0
 70
    32
  0
VERTEX
  5
9021
  8
AM_0
 10
407.45573654202582
 20
105.09539502061681
 30
0.0
 70
    32
  0
VERTEX
  5
9022
  8
AM_0
 10
407.45173654202671
 20
105.0933950206166
 30
0.0
 70
    32
  0
VERTEX
  5
9023
  8
AM_0
 10
407.44773654202493
 20
105.09239502061661
 30
0.0
 70
    32
  0
VERTEX
  5
9024
  8
AM_0
 10
407.44373654202559
 20
105.0903950206165
 30
0.0
 70
    32
  0
VERTEX
  5
9025
  8
AM_0
 10
407.43973654202563
 20
105.08939502061649
 30
0.0
 70
    32
  0
VERTEX
  5
9026
  8
AM_0
 10
407.4357365420247
 20
105.0873950206166
 30
0.0
 70
    32
  0
VERTEX
  5
9027
  8
AM_0
 10
407.43173654202479
 20
105.08639502061681
 30
0.0
 70
    32
  0
VERTEX
  5
9028
  8
AM_0
 10
407.42773654202489
 20
105.0843950206166
 30
0.0
 70
    32
  0
VERTEX
  5
9029
  8
AM_0
 10
407.42373654202549
 20
105.08339502061661
 30
0.0
 70
    32
  0
VERTEX
  5
902A
  8
AM_0
 10
407.4197365420257
 20
105.0813950206165
 30
0.0
 70
    32
  0
VERTEX
  5
902B
  8
AM_0
 10
407.41573654202659
 20
105.08039502061651
 30
0.0
 70
    32
  0
VERTEX
  5
902C
  8
AM_0
 10
407.41173654202481
 20
105.0783950206165
 30
0.0
 70
    32
  0
VERTEX
  5
902D
  8
AM_0
 10
407.40773654202548
 20
105.07739502061671
 30
0.0
 70
    32
  0
VERTEX
  5
902E
  8
AM_0
 10
407.40373654202472
 20
105.0753950206166
 30
0.0
 70
    32
  0
VERTEX
  5
902F
  8
AM_0
 10
407.39973654202572
 20
105.07439502061661
 30
0.0
 70
    32
  0
VERTEX
  5
9030
  8
AM_0
 10
407.39673654202511
 20
105.0723950206169
 30
0.0
 70
    32
  0
VERTEX
  5
9031
  8
AM_0
 10
407.39273654202651
 20
105.07139502061651
 30
0.0
 70
    32
  0
VERTEX
  5
9032
  8
AM_0
 10
407.38873654202558
 20
105.0693950206166
 30
0.0
 70
    32
  0
VERTEX
  5
9033
  8
AM_0
 10
407.38473654202483
 20
105.0683950206168
 30
0.0
 70
    32
  0
VERTEX
  5
9034
  8
AM_0
 10
407.38073654202492
 20
105.0663950206166
 30
0.0
 70
    32
  0
VERTEX
  5
9035
  8
AM_0
 10
407.37673654202553
 20
105.06539502061661
 30
0.0
 70
    32
  0
VERTEX
  5
9036
  8
AM_0
 10
407.37273654202562
 20
105.06339502061689
 30
0.0
 70
    32
  0
VERTEX
  5
9037
  8
AM_0
 10
407.36873654202577
 20
105.0613950206164
 30
0.0
 70
    32
  0
VERTEX
  5
9038
  8
AM_0
 10
407.36473654202342
 20
105.0603950206166
 30
0.0
 70
    32
  0
VERTEX
  5
9039
  8
AM_0
 10
407.36073654202539
 20
105.0583950206166
 30
0.0
 70
    32
  0
VERTEX
  5
903A
  8
AM_0
 10
407.3567365420256
 20
105.0573950206165
 30
0.0
 70
    32
  0
VERTEX
  5
903B
  8
AM_0
 10
407.3527365420257
 20
105.0553950206167
 30
0.0
 70
    32
  0
VERTEX
  5
903C
  8
AM_0
 10
407.34873654202471
 20
105.05339502061641
 30
0.0
 70
    32
  0
VERTEX
  5
903D
  8
AM_0
 10
407.3447365420248
 20
105.0523950206164
 30
0.0
 70
    32
  0
VERTEX
  5
903E
  8
AM_0
 10
407.34073654202552
 20
105.0503950206167
 30
0.0
 70
    32
  0
VERTEX
  5
903F
  8
AM_0
 10
407.33673654202562
 20
105.0493950206166
 30
0.0
 70
    32
  0
VERTEX
  5
9040
  8
AM_0
 10
407.3327365420256
 20
105.04739502061651
 30
0.0
 70
    32
  0
VERTEX
  5
9041
  8
AM_0
 10
407.32873654202479
 20
105.04539502061679
 30
0.0
 70
    32
  0
VERTEX
  5
9042
  8
AM_0
 10
407.32473654202482
 20
105.04439502061641
 30
0.0
 70
    32
  0
VERTEX
  5
9043
  8
AM_0
 10
407.32073654202492
 20
105.0423950206166
 30
0.0
 70
    32
  0
VERTEX
  5
9044
  8
AM_0
 10
407.31673654202649
 20
105.0403950206166
 30
0.0
 70
    32
  0
VERTEX
  5
9045
  8
AM_0
 10
407.31273654202568
 20
105.0393950206165
 30
0.0
 70
    32
  0
VERTEX
  5
9046
  8
AM_0
 10
407.3087365420248
 20
105.0373950206167
 30
0.0
 70
    32
  0
VERTEX
  5
9047
  8
AM_0
 10
407.30573654202573
 20
105.0353950206167
 30
0.0
 70
    32
  0
VERTEX
  5
9048
  8
AM_0
 10
407.30173654202559
 20
105.0343950206165
 30
0.0
 70
    32
  0
VERTEX
  5
9049
  8
AM_0
 10
407.29773654202478
 20
105.0323950206167
 30
0.0
 70
    32
  0
VERTEX
  5
904A
  8
AM_0
 10
407.2937365420255
 20
105.0303950206165
 30
0.0
 70
    32
  0
VERTEX
  5
904B
  8
AM_0
 10
407.28973654202503
 20
105.02939502061651
 30
0.0
 70
    32
  0
VERTEX
  5
904C
  8
AM_0
 10
407.28573654202557
 20
105.02739502061679
 30
0.0
 70
    32
  0
VERTEX
  5
904D
  8
AM_0
 10
407.2817365420234
 20
105.0253950206166
 30
0.0
 70
    32
  0
VERTEX
  5
904E
  8
AM_0
 10
407.27773654202548
 20
105.0243950206165
 30
0.0
 70
    32
  0
VERTEX
  5
904F
  8
AM_0
 10
407.27373654202478
 20
105.0223950206166
 30
0.0
 70
    32
  0
VERTEX
  5
9050
  8
AM_0
 10
407.26973654202561
 20
105.0203950206165
 30
0.0
 70
    32
  0
VERTEX
  5
9051
  8
AM_0
 10
407.26573654202571
 20
105.01839502061679
 30
0.0
 70
    32
  0
VERTEX
  5
9052
  8
AM_0
 10
407.26173654202472
 20
105.0173950206167
 30
0.0
 70
    32
  0
VERTEX
  5
9053
  8
AM_0
 10
407.25873654202559
 20
105.0153950206165
 30
0.0
 70
    32
  0
VERTEX
  5
9054
  8
AM_0
 10
407.25473654202563
 20
105.0133950206165
 30
0.0
 70
    32
  0
VERTEX
  5
9055
  8
AM_0
 10
407.25073654202339
 20
105.0113950206165
 30
0.0
 70
    32
  0
VERTEX
  5
9056
  8
AM_0
 10
407.24673654202542
 20
105.0103950206165
 30
0.0
 70
    32
  0
VERTEX
  5
9057
  8
AM_0
 10
407.24273654202563
 20
105.0083950206167
 30
0.0
 70
    32
  0
VERTEX
  5
9058
  8
AM_0
 10
407.23873654202549
 20
105.00639502061659
 30
0.0
 70
    32
  0
VERTEX
  5
9059
  8
AM_0
 10
407.2347365420257
 20
105.0043950206165
 30
0.0
 70
    32
  0
VERTEX
  5
905A
  8
AM_0
 10
407.23073654202477
 20
105.0033950206164
 30
0.0
 70
    32
  0
VERTEX
  5
905B
  8
AM_0
 10
407.22673654202549
 20
105.0013950206166
 30
0.0
 70
    32
  0
VERTEX
  5
905C
  8
AM_0
 10
407.22373654202482
 20
104.9993950206167
 30
0.0
 70
    32
  0
VERTEX
  5
905D
  8
AM_0
 10
407.2197365420248
 20
104.99739502061659
 30
0.0
 70
    32
  0
VERTEX
  5
905E
  8
AM_0
 10
407.21573654202552
 20
104.9953950206165
 30
0.0
 70
    32
  0
VERTEX
  5
905F
  8
AM_0
 10
407.21173654202562
 20
104.99439502061639
 30
0.0
 70
    32
  0
VERTEX
  5
9060
  8
AM_0
 10
407.2077365420256
 20
104.9923950206166
 30
0.0
 70
    32
  0
VERTEX
  5
9061
  8
AM_0
 10
407.20373654202479
 20
104.9903950206166
 30
0.0
 70
    32
  0
VERTEX
  5
9062
  8
AM_0
 10
407.19973654202488
 20
104.98839502061659
 30
0.0
 70
    32
  0
VERTEX
  5
9063
  8
AM_0
 10
407.19673654202558
 20
104.9863950206165
 30
0.0
 70
    32
  0
VERTEX
  5
9064
  8
AM_0
 10
407.19273654202482
 20
104.98539502061639
 30
0.0
 70
    32
  0
VERTEX
  5
9065
  8
AM_0
 10
407.18873654202548
 20
104.9833950206165
 30
0.0
 70
    32
  0
VERTEX
  5
9066
  8
AM_0
 10
407.18473654202541
 20
104.9813950206166
 30
0.0
 70
    32
  0
VERTEX
  5
9067
  8
AM_0
 10
407.18073654202561
 20
104.97939502061659
 30
0.0
 70
    32
  0
VERTEX
  5
9068
  8
AM_0
 10
407.17673654202571
 20
104.9773950206168
 30
0.0
 70
    32
  0
VERTEX
  5
9069
  8
AM_0
 10
407.17273654202529
 20
104.9753950206164
 30
0.0
 70
    32
  0
VERTEX
  5
906A
  8
AM_0
 10
407.1697365420257
 20
104.97339502061671
 30
0.0
 70
    32
  0
VERTEX
  5
906B
  8
AM_0
 10
407.16573654202477
 20
104.9713950206165
 30
0.0
 70
    32
  0
VERTEX
  5
906C
  8
AM_0
 10
407.16173654202493
 20
104.97039502061661
 30
0.0
 70
    32
  0
VERTEX
  5
906D
  8
AM_0
 10
407.15773654202548
 20
104.9683950206168
 30
0.0
 70
    32
  0
VERTEX
  5
906E
  8
AM_0
 10
407.15373654202563
 20
104.9663950206164
 30
0.0
 70
    32
  0
VERTEX
  5
906F
  8
AM_0
 10
407.15073654202541
 20
104.96439502061671
 30
0.0
 70
    32
  0
VERTEX
  5
9070
  8
AM_0
 10
407.14673654202562
 20
104.9623950206165
 30
0.0
 70
    32
  0
VERTEX
  5
9071
  8
AM_0
 10
407.14273654202549
 20
104.9603950206167
 30
0.0
 70
    32
  0
VERTEX
  5
9072
  8
AM_0
 10
407.1387365420257
 20
104.95839502061671
 30
0.0
 70
    32
  0
VERTEX
  5
9073
  8
AM_0
 10
407.13473654202539
 20
104.9563950206165
 30
0.0
 70
    32
  0
VERTEX
  5
9074
  8
AM_0
 10
407.13173654202569
 20
104.9543950206166
 30
0.0
 70
    32
  0
VERTEX
  5
9075
  8
AM_0
 10
407.12773654202482
 20
104.95239502061651
 30
0.0
 70
    32
  0
VERTEX
  5
9076
  8
AM_0
 10
407.1237365420248
 20
104.9503950206168
 30
0.0
 70
    32
  0
VERTEX
  5
9077
  8
AM_0
 10
407.11973654202552
 20
104.9483950206166
 30
0.0
 70
    32
  0
VERTEX
  5
9078
  8
AM_0
 10
407.11573654202562
 20
104.94639502061671
 30
0.0
 70
    32
  0
VERTEX
  5
9079
  8
AM_0
 10
407.11273654202529
 20
104.9443950206165
 30
0.0
 70
    32
  0
VERTEX
  5
907A
  8
AM_0
 10
407.1087365420255
 20
104.9423950206166
 30
0.0
 70
    32
  0
VERTEX
  5
907B
  8
AM_0
 10
407.10473654202548
 20
104.94039502061671
 30
0.0
 70
    32
  0
VERTEX
  5
907C
  8
AM_0
 10
407.10073654202557
 20
104.9383950206166
 30
0.0
 70
    32
  0
VERTEX
  5
907D
  8
AM_0
 10
407.0967365420251
 20
104.9363950206166
 30
0.0
 70
    32
  0
VERTEX
  5
907E
  8
AM_0
 10
407.09373654202562
 20
104.93439502061651
 30
0.0
 70
    32
  0
VERTEX
  5
907F
  8
AM_0
 10
407.08973654202509
 20
104.9323950206168
 30
0.0
 70
    32
  0
VERTEX
  5
9080
  8
AM_0
 10
407.08573654202479
 20
104.9303950206166
 30
0.0
 70
    32
  0
VERTEX
  5
9081
  8
AM_0
 10
407.08173654202528
 20
104.92839502061661
 30
0.0
 70
    32
  0
VERTEX
  5
9082
  8
AM_0
 10
407.07873654202479
 20
104.9263950206165
 30
0.0
 70
    32
  0
VERTEX
  5
9083
  8
AM_0
 10
407.07473654202528
 20
104.9243950206166
 30
0.0
 70
    32
  0
VERTEX
  5
9084
  8
AM_0
 10
407.07073654202549
 20
104.9223950206167
 30
0.0
 70
    32
  0
VERTEX
  5
9085
  8
AM_0
 10
407.06673654202558
 20
104.9203950206166
 30
0.0
 70
    32
  0
VERTEX
  5
9086
  8
AM_0
 10
407.06373654202542
 20
104.9183950206169
 30
0.0
 70
    32
  0
VERTEX
  5
9087
  8
AM_0
 10
407.05973654202558
 20
104.91639502061651
 30
0.0
 70
    32
  0
VERTEX
  5
9088
  8
AM_0
 10
407.0557365420255
 20
104.91439502061669
 30
0.0
 70
    32
  0
VERTEX
  5
9089
  8
AM_0
 10
407.05273654202551
 20
104.9123950206166
 30
0.0
 70
    32
  0
VERTEX
  5
908A
  8
AM_0
 10
407.04873654202549
 20
104.9093950206168
 30
0.0
 70
    32
  0
VERTEX
  5
908B
  8
AM_0
 10
407.04473654202479
 20
104.90739502061651
 30
0.0
 70
    32
  0
VERTEX
  5
908C
  8
AM_0
 10
407.04073654202477
 20
104.90539502061669
 30
0.0
 70
    32
  0
VERTEX
  5
908D
  8
AM_0
 10
407.03773654202553
 20
104.9033950206165
 30
0.0
 70
    32
  0
VERTEX
  5
908E
  8
AM_0
 10
407.03373654202483
 20
104.9013950206167
 30
0.0
 70
    32
  0
VERTEX
  5
908F
  8
AM_0
 10
407.02973654202538
 20
104.8993950206164
 30
0.0
 70
    32
  0
VERTEX
  5
9090
  8
AM_0
 10
407.02673654202482
 20
104.8973950206166
 30
0.0
 70
    32
  0
VERTEX
  5
9091
  8
AM_0
 10
407.0227365420248
 20
104.8953950206166
 30
0.0
 70
    32
  0
VERTEX
  5
9092
  8
AM_0
 10
407.01873654202518
 20
104.8923950206167
 30
0.0
 70
    32
  0
VERTEX
  5
9093
  8
AM_0
 10
407.01573654202377
 20
104.8903950206164
 30
0.0
 70
    32
  0
VERTEX
  5
9094
  8
AM_0
 10
407.01173654202518
 20
104.8883950206165
 30
0.0
 70
    32
  0
VERTEX
  5
9095
  8
AM_0
 10
407.00773654202533
 20
104.8863950206166
 30
0.0
 70
    32
  0
VERTEX
  5
9096
  8
AM_0
 10
407.00473654202563
 20
104.88439502061649
 30
0.0
 70
    32
  0
VERTEX
  5
9097
  8
AM_0
 10
407.00073654202492
 20
104.88139502061669
 30
0.0
 70
    32
  0
VERTEX
  5
9098
  8
AM_0
 10
406.99673654202547
 20
104.8793950206165
 30
0.0
 70
    32
  0
VERTEX
  5
9099
  8
AM_0
 10
406.99373654202492
 20
104.8773950206166
 30
0.0
 70
    32
  0
VERTEX
  5
909A
  8
AM_0
 10
406.98973654202553
 20
104.87539502061649
 30
0.0
 70
    32
  0
VERTEX
  5
909B
  8
AM_0
 10
406.98573654202528
 20
104.8733950206168
 30
0.0
 70
    32
  0
VERTEX
  5
909C
  8
AM_0
 10
406.98273654202518
 20
104.8703950206165
 30
0.0
 70
    32
  0
VERTEX
  5
909D
  8
AM_0
 10
406.97873654202527
 20
104.8683950206166
 30
0.0
 70
    32
  0
VERTEX
  5
909E
  8
AM_0
 10
406.97473654202548
 20
104.86639502061649
 30
0.0
 70
    32
  0
VERTEX
  5
909F
  8
AM_0
 10
406.97173654202481
 20
104.8643950206168
 30
0.0
 70
    32
  0
VERTEX
  5
90A0
  8
AM_0
 10
406.96773654202542
 20
104.8613950206165
 30
0.0
 70
    32
  0
VERTEX
  5
90A1
  8
AM_0
 10
406.96473654202481
 20
104.8593950206166
 30
0.0
 70
    32
  0
VERTEX
  5
90A2
  8
AM_0
 10
406.96073654202661
 20
104.85739502061649
 30
0.0
 70
    32
  0
VERTEX
  5
90A3
  8
AM_0
 10
406.95673654202551
 20
104.8553950206168
 30
0.0
 70
    32
  0
VERTEX
  5
90A4
  8
AM_0
 10
406.95373654202518
 20
104.8523950206166
 30
0.0
 70
    32
  0
VERTEX
  5
90A5
  8
AM_0
 10
406.94973654202539
 20
104.8503950206165
 30
0.0
 70
    32
  0
VERTEX
  5
90A6
  8
AM_0
 10
406.94673654202478
 20
104.84839502061649
 30
0.0
 70
    32
  0
VERTEX
  5
90A7
  8
AM_0
 10
406.94273654202539
 20
104.84539502061671
 30
0.0
 70
    32
  0
VERTEX
  5
90A8
  8
AM_0
 10
406.93873654202531
 20
104.8433950206166
 30
0.0
 70
    32
  0
VERTEX
  5
90A9
  8
AM_0
 10
406.93573654202521
 20
104.8413950206165
 30
0.0
 70
    32
  0
VERTEX
  5
90AA
  8
AM_0
 10
406.93173654202519
 20
104.8383950206166
 30
0.0
 70
    32
  0
VERTEX
  5
90AB
  8
AM_0
 10
406.92873654202549
 20
104.83639502061671
 30
0.0
 70
    32
  0
VERTEX
  5
90AC
  8
AM_0
 10
406.9247365420253
 20
104.8343950206165
 30
0.0
 70
    32
  0
VERTEX
  5
90AD
  8
AM_0
 10
406.92173654202549
 20
104.8313950206164
 30
0.0
 70
    32
  0
VERTEX
  5
90AE
  8
AM_0
 10
406.91773654202478
 20
104.8293950206166
 30
0.0
 70
    32
  0
VERTEX
  5
90AF
  8
AM_0
 10
406.91473654202503
 20
104.8263950206165
 30
0.0
 70
    32
  0
VERTEX
  5
90B0
  8
AM_0
 10
406.91073654202472
 20
104.82439502061671
 30
0.0
 70
    32
  0
VERTEX
  5
90B1
  8
AM_0
 10
406.9067365420251
 20
104.8223950206167
 30
0.0
 70
    32
  0
VERTEX
  5
90B2
  8
AM_0
 10
406.90373654202472
 20
104.8193950206167
 30
0.0
 70
    32
  0
VERTEX
  5
90B3
  8
AM_0
 10
406.89973654202572
 20
104.8173950206165
 30
0.0
 70
    32
  0
VERTEX
  5
90B4
  8
AM_0
 10
406.89673654202522
 20
104.8143950206168
 30
0.0
 70
    32
  0
VERTEX
  5
90B5
  8
AM_0
 10
406.89273654202469
 20
104.81239502061641
 30
0.0
 70
    32
  0
VERTEX
  5
90B6
  8
AM_0
 10
406.88973654202488
 20
104.80939502061661
 30
0.0
 70
    32
  0
VERTEX
  5
90B7
  8
AM_0
 10
406.88573654202497
 20
104.8073950206165
 30
0.0
 70
    32
  0
VERTEX
  5
90B8
  8
AM_0
 10
406.88273654202487
 20
104.8053950206168
 30
0.0
 70
    32
  0
VERTEX
  5
90B9
  8
AM_0
 10
406.87873654202491
 20
104.8023950206165
 30
0.0
 70
    32
  0
VERTEX
  5
90BA
  8
AM_0
 10
406.87573654202521
 20
104.80039502061661
 30
0.0
 70
    32
  0
VERTEX
  5
90BB
  8
AM_0
 10
406.87173654202479
 20
104.7973950206167
 30
0.0
 70
    32
  0
VERTEX
  5
90BC
  8
AM_0
 10
406.86873654202577
 20
104.7953950206167
 30
0.0
 70
    32
  0
VERTEX
  5
90BD
  8
AM_0
 10
406.8657365420251
 20
104.79239502061669
 30
0.0
 70
    32
  0
VERTEX
  5
90BE
  8
AM_0
 10
406.8617365420256
 20
104.7903950206165
 30
0.0
 70
    32
  0
VERTEX
  5
90BF
  8
AM_0
 10
406.8587365420251
 20
104.7873950206168
 30
0.0
 70
    32
  0
VERTEX
  5
90C0
  8
AM_0
 10
406.85473654202559
 20
104.7853950206166
 30
0.0
 70
    32
  0
VERTEX
  5
90C1
  8
AM_0
 10
406.85173654202492
 20
104.7823950206166
 30
0.0
 70
    32
  0
VERTEX
  5
90C2
  8
AM_0
 10
406.84773654202507
 20
104.7803950206165
 30
0.0
 70
    32
  0
VERTEX
  5
90C3
  8
AM_0
 10
406.8447365420248
 20
104.77739502061669
 30
0.0
 70
    32
  0
VERTEX
  5
90C4
  8
AM_0
 10
406.84173654202482
 20
104.77439502061659
 30
0.0
 70
    32
  0
VERTEX
  5
90C5
  8
AM_0
 10
406.8377365420248
 20
104.7723950206165
 30
0.0
 70
    32
  0
VERTEX
  5
90C6
  8
AM_0
 10
406.8347365420247
 20
104.7693950206167
 30
0.0
 70
    32
  0
VERTEX
  5
90C7
  8
AM_0
 10
406.8307365420257
 20
104.7673950206166
 30
0.0
 70
    32
  0
VERTEX
  5
90C8
  8
AM_0
 10
406.82773654202498
 20
104.7643950206165
 30
0.0
 70
    32
  0
VERTEX
  5
90C9
  8
AM_0
 10
406.82473654202488
 20
104.7613950206166
 30
0.0
 70
    32
  0
VERTEX
  5
90CA
  8
AM_0
 10
406.8207365420248
 20
104.75939502061659
 30
0.0
 70
    32
  0
VERTEX
  5
90CB
  8
AM_0
 10
406.81773654202652
 20
104.75639502061669
 30
0.0
 70
    32
  0
VERTEX
  5
90CC
  8
AM_0
 10
406.8137365420248
 20
104.7543950206164
 30
0.0
 70
    32
  0
VERTEX
  5
90CD
  8
AM_0
 10
406.81073654202481
 20
104.7513950206167
 30
0.0
 70
    32
  0
VERTEX
  5
90CE
  8
AM_0
 10
406.80773654202562
 20
104.7483950206166
 30
0.0
 70
    32
  0
VERTEX
  5
90CF
  8
AM_0
 10
406.80373654202492
 20
104.7463950206168
 30
0.0
 70
    32
  0
VERTEX
  5
90D0
  8
AM_0
 10
406.8007365420255
 20
104.7433950206166
 30
0.0
 70
    32
  0
VERTEX
  5
90D1
  8
AM_0
 10
406.79773654202478
 20
104.7403950206165
 30
0.0
 70
    32
  0
VERTEX
  5
90D2
  8
AM_0
 10
406.79373654202487
 20
104.73839502061669
 30
0.0
 70
    32
  0
VERTEX
  5
90D3
  8
AM_0
 10
406.79073654202477
 20
104.73539502061639
 30
0.0
 70
    32
  0
VERTEX
  5
90D4
  8
AM_0
 10
406.78773654202479
 20
104.73239502061659
 30
0.0
 70
    32
  0
VERTEX
  5
90D5
  8
AM_0
 10
406.78473654202492
 20
104.72939502061671
 30
0.0
 70
    32
  0
VERTEX
  5
90D6
  8
AM_0
 10
406.78073654202512
 20
104.7273950206167
 30
0.0
 70
    32
  0
VERTEX
  5
90D7
  8
AM_0
 10
406.77773654202662
 20
104.7243950206167
 30
0.0
 70
    32
  0
VERTEX
  5
90D8
  8
AM_0
 10
406.77473654202481
 20
104.7213950206165
 30
0.0
 70
    32
  0
VERTEX
  5
90D9
  8
AM_0
 10
406.77073654202479
 20
104.7183950206167
 30
0.0
 70
    32
  0
VERTEX
  5
90DA
  8
AM_0
 10
406.76773654202469
 20
104.7163950206165
 30
0.0
 70
    32
  0
VERTEX
  5
90DB
  8
AM_0
 10
406.76473654202488
 20
104.7133950206165
 30
0.0
 70
    32
  0
VERTEX
  5
90DC
  8
AM_0
 10
406.76173654202478
 20
104.7103950206168
 30
0.0
 70
    32
  0
VERTEX
  5
90DD
  8
AM_0
 10
406.7577365420247
 20
104.7073950206165
 30
0.0
 70
    32
  0
VERTEX
  5
90DE
  8
AM_0
 10
406.75473654202563
 20
104.70539502061651
 30
0.0
 70
    32
  0
VERTEX
  5
90DF
  8
AM_0
 10
406.7517365420249
 20
104.70239502061661
 30
0.0
 70
    32
  0
VERTEX
  5
90E0
  8
AM_0
 10
406.7487365420248
 20
104.69939502061661
 30
0.0
 70
    32
  0
VERTEX
  5
90E1
  8
AM_0
 10
406.74573654202561
 20
104.69639502061651
 30
0.0
 70
    32
  0
VERTEX
  5
90E2
  8
AM_0
 10
406.74173654202662
 20
104.69339502061661
 30
0.0
 70
    32
  0
VERTEX
  5
90E3
  8
AM_0
 10
406.73873654202549
 20
104.69039502061661
 30
0.0
 70
    32
  0
VERTEX
  5
90E4
  8
AM_0
 10
406.73573654202488
 20
104.6883950206168
 30
0.0
 70
    32
  0
VERTEX
  5
90E5
  8
AM_0
 10
406.73273654202671
 20
104.6853950206165
 30
0.0
 70
    32
  0
VERTEX
  5
90E6
  8
AM_0
 10
406.72973654202468
 20
104.6823950206166
 30
0.0
 70
    32
  0
VERTEX
  5
90E7
  8
AM_0
 10
406.72673654202481
 20
104.6793950206167
 30
0.0
 70
    32
  0
VERTEX
  5
90E8
  8
AM_0
 10
406.72373654202482
 20
104.6763950206164
 30
0.0
 70
    32
  0
VERTEX
  5
90E9
  8
AM_0
 10
406.7197365420248
 20
104.6733950206166
 30
0.0
 70
    32
  0
VERTEX
  5
90EA
  8
AM_0
 10
406.71673654202573
 20
104.6703950206167
 30
0.0
 70
    32
  0
VERTEX
  5
90EB
  8
AM_0
 10
406.71373654202517
 20
104.6673950206164
 30
0.0
 70
    32
  0
VERTEX
  5
90EC
  8
AM_0
 10
406.71073654202678
 20
104.6643950206166
 30
0.0
 70
    32
  0
VERTEX
  5
90ED
  8
AM_0
 10
406.7077365420256
 20
104.66139502061669
 30
0.0
 70
    32
  0
VERTEX
  5
90EE
  8
AM_0
 10
406.7047365420251
 20
104.6583950206164
 30
0.0
 70
    32
  0
VERTEX
  5
90EF
  8
AM_0
 10
406.70173654202682
 20
104.6553950206166
 30
0.0
 70
    32
  0
VERTEX
  5
90F0
  8
AM_0
 10
406.69873654202468
 20
104.65239502061659
 30
0.0
 70
    32
  0
VERTEX
  5
90F1
  8
AM_0
 10
406.69573654202492
 20
104.6493950206164
 30
0.0
 70
    32
  0
VERTEX
  5
90F2
  8
AM_0
 10
406.69273654202482
 20
104.64639502061659
 30
0.0
 70
    32
  0
VERTEX
  5
90F3
  8
AM_0
 10
406.68973654202563
 20
104.64339502061669
 30
0.0
 70
    32
  0
VERTEX
  5
90F4
  8
AM_0
 10
406.68673654202553
 20
104.6403950206164
 30
0.0
 70
    32
  0
VERTEX
  5
90F5
  8
AM_0
 10
406.6837365420248
 20
104.63739502061659
 30
0.0
 70
    32
  0
VERTEX
  5
90F6
  8
AM_0
 10
406.68073654202561
 20
104.63439502061659
 30
0.0
 70
    32
  0
VERTEX
  5
90F7
  8
AM_0
 10
406.67773654202489
 20
104.63139502061659
 30
0.0
 70
    32
  0
VERTEX
  5
90F8
  8
AM_0
 10
406.67473654202672
 20
104.62839502061659
 30
0.0
 70
    32
  0
VERTEX
  5
90F9
  8
AM_0
 10
406.6717365420256
 20
104.62539502061659
 30
0.0
 70
    32
  0
VERTEX
  5
90FA
  8
AM_0
 10
406.66873654202487
 20
104.62239502061659
 30
0.0
 70
    32
  0
VERTEX
  5
90FB
  8
AM_0
 10
406.66573654202671
 20
104.61939502061649
 30
0.0
 70
    32
  0
VERTEX
  5
90FC
  8
AM_0
 10
406.66273654202558
 20
104.61639502061659
 30
0.0
 70
    32
  0
VERTEX
  5
90FD
  8
AM_0
 10
406.65973654202492
 20
104.61339502061659
 30
0.0
 70
    32
  0
VERTEX
  5
90FE
  8
AM_0
 10
406.65673654202652
 20
104.61039502061649
 30
0.0
 70
    32
  0
VERTEX
  5
90FF
  8
AM_0
 10
406.65373654202477
 20
104.60739502061659
 30
0.0
 70
    32
  0
VERTEX
  5
9100
  8
AM_0
 10
406.6507365420249
 20
104.6033950206166
 30
0.0
 70
    32
  0
VERTEX
  5
9101
  8
AM_0
 10
406.6477365420256
 20
104.6003950206164
 30
0.0
 70
    32
  0
VERTEX
  5
9102
  8
AM_0
 10
406.6447365420251
 20
104.5973950206168
 30
0.0
 70
    32
  0
VERTEX
  5
9103
  8
AM_0
 10
406.64273654202651
 20
104.5943950206166
 30
0.0
 70
    32
  0
VERTEX
  5
9104
  8
AM_0
 10
406.63973654202482
 20
104.5913950206164
 30
0.0
 70
    32
  0
VERTEX
  5
9105
  8
AM_0
 10
406.63673654202478
 20
104.5883950206167
 30
0.0
 70
    32
  0
VERTEX
  5
9106
  8
AM_0
 10
406.63373654202547
 20
104.5843950206167
 30
0.0
 70
    32
  0
VERTEX
  5
9107
  8
AM_0
 10
406.63073654202481
 20
104.5813950206164
 30
0.0
 70
    32
  0
VERTEX
  5
9108
  8
AM_0
 10
406.62773654202482
 20
104.5783950206166
 30
0.0
 70
    32
  0
VERTEX
  5
9109
  8
AM_0
 10
406.62573654202481
 20
104.5753950206167
 30
0.0
 70
    32
  0
VERTEX
  5
910A
  8
AM_0
 10
406.62273654202568
 20
104.57139502061651
 30
0.0
 70
    32
  0
VERTEX
  5
910B
  8
AM_0
 10
406.61973654202552
 20
104.56839502061651
 30
0.0
 70
    32
  0
VERTEX
  5
910C
  8
AM_0
 10
406.6167365420248
 20
104.5653950206168
 30
0.0
 70
    32
  0
VERTEX
  5
910D
  8
AM_0
 10
406.61473654202479
 20
104.56239502061651
 30
0.0
 70
    32
  0
VERTEX
  5
910E
  8
AM_0
 10
406.61173654202662
 20
104.5583950206165
 30
0.0
 70
    32
  0
VERTEX
  5
910F
  8
AM_0
 10
406.60873654202487
 20
104.5553950206167
 30
0.0
 70
    32
  0
VERTEX
  5
9110
  8
AM_0
 10
406.60673654202498
 20
104.5523950206167
 30
0.0
 70
    32
  0
VERTEX
  5
9111
  8
AM_0
 10
406.60373654202527
 20
104.5483950206166
 30
0.0
 70
    32
  0
VERTEX
  5
9112
  8
AM_0
 10
406.60073654202557
 20
104.5453950206166
 30
0.0
 70
    32
  0
VERTEX
  5
9113
  8
AM_0
 10
406.59873654202482
 20
104.5423950206165
 30
0.0
 70
    32
  0
VERTEX
  5
9114
  8
AM_0
 10
406.59573654202552
 20
104.5383950206168
 30
0.0
 70
    32
  0
VERTEX
  5
9115
  8
AM_0
 10
406.59273654202491
 20
104.5353950206166
 30
0.0
 70
    32
  0
VERTEX
  5
9116
  8
AM_0
 10
406.59073654202479
 20
104.53239502061641
 30
0.0
 70
    32
  0
VERTEX
  5
9117
  8
AM_0
 10
406.5877365420248
 20
104.5283950206167
 30
0.0
 70
    32
  0
VERTEX
  5
9118
  8
AM_0
 10
406.58573654202479
 20
104.5253950206167
 30
0.0
 70
    32
  0
VERTEX
  5
9119
  8
AM_0
 10
406.5827365420256
 20
104.52139502061659
 30
0.0
 70
    32
  0
VERTEX
  5
911A
  8
AM_0
 10
406.57973654202539
 20
104.51839502061659
 30
0.0
 70
    32
  0
VERTEX
  5
911B
  8
AM_0
 10
406.57773654202509
 20
104.51539502061679
 30
0.0
 70
    32
  0
VERTEX
  5
911C
  8
AM_0
 10
406.57473654202482
 20
104.5113950206167
 30
0.0
 70
    32
  0
VERTEX
  5
911D
  8
AM_0
 10
406.57273654202532
 20
104.5083950206165
 30
0.0
 70
    32
  0
VERTEX
  5
911E
  8
AM_0
 10
406.56973654202471
 20
104.5043950206164
 30
0.0
 70
    32
  0
VERTEX
  5
911F
  8
AM_0
 10
406.5677365420234
 20
104.5013950206166
 30
0.0
 70
    32
  0
VERTEX
  5
9120
  8
AM_0
 10
406.56473654202563
 20
104.49739502061681
 30
0.0
 70
    32
  0
VERTEX
  5
9121
  8
AM_0
 10
406.56273654202562
 20
104.49439502061649
 30
0.0
 70
    32
  0
VERTEX
  5
9122
  8
AM_0
 10
406.5607365420247
 20
104.4903950206165
 30
0.0
 70
    32
  0
VERTEX
  5
9123
  8
AM_0
 10
406.55773654202562
 20
104.4873950206167
 30
0.0
 70
    32
  0
VERTEX
  5
9124
  8
AM_0
 10
406.5557365420255
 20
104.4833950206166
 30
0.0
 70
    32
  0
VERTEX
  5
9125
  8
AM_0
 10
406.55273654202489
 20
104.4803950206167
 30
0.0
 70
    32
  0
VERTEX
  5
9126
  8
AM_0
 10
406.55073654202562
 20
104.47639502061659
 30
0.0
 70
    32
  0
VERTEX
  5
9127
  8
AM_0
 10
406.54873654202549
 20
104.4723950206165
 30
0.0
 70
    32
  0
VERTEX
  5
9128
  8
AM_0
 10
406.54573654202483
 20
104.4693950206167
 30
0.0
 70
    32
  0
VERTEX
  5
9129
  8
AM_0
 10
406.54373654202561
 20
104.4653950206166
 30
0.0
 70
    32
  0
VERTEX
  5
912A
  8
AM_0
 10
406.54173654202549
 20
104.4623950206166
 30
0.0
 70
    32
  0
VERTEX
  5
912B
  8
AM_0
 10
406.5387365420234
 20
104.45839502061661
 30
0.0
 70
    32
  0
VERTEX
  5
912C
  8
AM_0
 10
406.53673654202481
 20
104.4543950206165
 30
0.0
 70
    32
  0
VERTEX
  5
912D
  8
AM_0
 10
406.53473654202543
 20
104.4513950206167
 30
0.0
 70
    32
  0
VERTEX
  5
912E
  8
AM_0
 10
406.53273654202491
 20
104.4473950206169
 30
0.0
 70
    32
  0
VERTEX
  5
912F
  8
AM_0
 10
406.52973654202339
 20
104.4433950206168
 30
0.0
 70
    32
  0
VERTEX
  5
9130
  8
AM_0
 10
406.52773654202542
 20
104.44039502061661
 30
0.0
 70
    32
  0
VERTEX
  5
9131
  8
AM_0
 10
406.5257365420249
 20
104.4363950206164
 30
0.0
 70
    32
  0
VERTEX
  5
9132
  8
AM_0
 10
406.52373654202489
 20
104.4323950206165
 30
0.0
 70
    32
  0
VERTEX
  5
9133
  8
AM_0
 10
406.52173654202551
 20
104.42939502061679
 30
0.0
 70
    32
  0
VERTEX
  5
9134
  8
AM_0
 10
406.51973654202561
 20
104.4253950206167
 30
0.0
 70
    32
  0
VERTEX
  5
9135
  8
AM_0
 10
406.5177365420256
 20
104.4213950206167
 30
0.0
 70
    32
  0
VERTEX
  5
9136
  8
AM_0
 10
406.5147365420255
 20
104.4183950206166
 30
0.0
 70
    32
  0
VERTEX
  5
9137
  8
AM_0
 10
406.51273654202549
 20
104.4143950206165
 30
0.0
 70
    32
  0
VERTEX
  5
9138
  8
AM_0
 10
406.5107365420256
 20
104.4103950206167
 30
0.0
 70
    32
  0
VERTEX
  5
9139
  8
AM_0
 10
406.50873654202547
 20
104.4063950206166
 30
0.0
 70
    32
  0
VERTEX
  5
913A
  8
AM_0
 10
406.50673654202552
 20
104.4033950206167
 30
0.0
 70
    32
  0
VERTEX
  5
913B
  8
AM_0
 10
406.50473654202563
 20
104.3993950206165
 30
0.0
 70
    32
  0
VERTEX
  5
913C
  8
AM_0
 10
406.50273654202482
 20
104.3953950206165
 30
0.0
 70
    32
  0
VERTEX
  5
913D
  8
AM_0
 10
406.50073654202339
 20
104.3913950206166
 30
0.0
 70
    32
  0
VERTEX
  5
913E
  8
AM_0
 10
406.49873654202491
 20
104.38739502061649
 30
0.0
 70
    32
  0
VERTEX
  5
913F
  8
AM_0
 10
406.49773654202562
 20
104.38439502061679
 30
0.0
 70
    32
  0
VERTEX
  5
9140
  8
AM_0
 10
406.49573654202561
 20
104.3803950206168
 30
0.0
 70
    32
  0
VERTEX
  5
9141
  8
AM_0
 10
406.49373654202577
 20
104.3763950206166
 30
0.0
 70
    32
  0
VERTEX
  5
9142
  8
AM_0
 10
406.4917365420248
 20
104.37239502061659
 30
0.0
 70
    32
  0
VERTEX
  5
9143
  8
AM_0
 10
406.48973654202553
 20
104.3683950206165
 30
0.0
 70
    32
  0
VERTEX
  5
9144
  8
AM_0
 10
406.48773654202478
 20
104.3643950206166
 30
0.0
 70
    32
  0
VERTEX
  5
9145
  8
AM_0
 10
406.4867365420256
 20
104.36039502061639
 30
0.0
 70
    32
  0
VERTEX
  5
9146
  8
AM_0
 10
406.4847365420257
 20
104.35739502061671
 30
0.0
 70
    32
  0
VERTEX
  5
9147
  8
AM_0
 10
406.48273654202478
 20
104.3533950206167
 30
0.0
 70
    32
  0
VERTEX
  5
9148
  8
AM_0
 10
406.48073654202477
 20
104.3493950206165
 30
0.0
 70
    32
  0
VERTEX
  5
9149
  8
AM_0
 10
406.47973654202559
 20
104.34539502061649
 30
0.0
 70
    32
  0
VERTEX
  5
914A
  8
AM_0
 10
406.4777365420257
 20
104.3413950206165
 30
0.0
 70
    32
  0
VERTEX
  5
914B
  8
AM_0
 10
406.47573654202557
 20
104.3373950206165
 30
0.0
 70
    32
  0
VERTEX
  5
914C
  8
AM_0
 10
406.47473654202548
 20
104.33339502061671
 30
0.0
 70
    32
  0
VERTEX
  5
914D
  8
AM_0
 10
406.47273654202559
 20
104.3293950206166
 30
0.0
 70
    32
  0
VERTEX
  5
914E
  8
AM_0
 10
406.47073654202558
 20
104.3253950206168
 30
0.0
 70
    32
  0
VERTEX
  5
914F
  8
AM_0
 10
406.4697365420248
 20
104.32139502061671
 30
0.0
 70
    32
  0
VERTEX
  5
9150
  8
AM_0
 10
406.46773654202542
 20
104.3173950206166
 30
0.0
 70
    32
  0
VERTEX
  5
9151
  8
AM_0
 10
406.46673654202561
 20
104.3133950206166
 30
0.0
 70
    32
  0
VERTEX
  5
9152
  8
AM_0
 10
406.46473654202481
 20
104.30939502061651
 30
0.0
 70
    32
  0
VERTEX
  5
9153
  8
AM_0
 10
406.46373654202512
 20
104.3053950206166
 30
0.0
 70
    32
  0
VERTEX
  5
9154
  8
AM_0
 10
406.46173654202551
 20
104.3013950206165
 30
0.0
 70
    32
  0
VERTEX
  5
9155
  8
AM_0
 10
406.46073654202542
 20
104.2973950206167
 30
0.0
 70
    32
  0
VERTEX
  5
9156
  8
AM_0
 10
406.4597365420255
 20
104.2933950206169
 30
0.0
 70
    32
  0
VERTEX
  5
9157
  8
AM_0
 10
406.4577365420256
 20
104.28939502061669
 30
0.0
 70
    32
  0
VERTEX
  5
9158
  8
AM_0
 10
406.45673654202488
 20
104.2853950206167
 30
0.0
 70
    32
  0
VERTEX
  5
9159
  8
AM_0
 10
406.4557365420257
 20
104.2813950206166
 30
0.0
 70
    32
  0
VERTEX
  5
915A
  8
AM_0
 10
406.45373654202479
 20
104.27739502061659
 30
0.0
 70
    32
  0
VERTEX
  5
915B
  8
AM_0
 10
406.45273654202549
 20
104.27339502061641
 30
0.0
 70
    32
  0
VERTEX
  5
915C
  8
AM_0
 10
406.4517365420254
 20
104.2693950206165
 30
0.0
 70
    32
  0
VERTEX
  5
915D
  8
AM_0
 10
406.45073654202548
 20
104.2643950206164
 30
0.0
 70
    32
  0
VERTEX
  5
915E
  8
AM_0
 10
406.44973654202482
 20
104.2603950206165
 30
0.0
 70
    32
  0
VERTEX
  5
915F
  8
AM_0
 10
406.44773654202493
 20
104.25639502061659
 30
0.0
 70
    32
  0
VERTEX
  5
9160
  8
AM_0
 10
406.44673654202569
 20
104.2523950206166
 30
0.0
 70
    32
  0
VERTEX
  5
9161
  8
AM_0
 10
406.44573654202549
 20
104.2483950206168
 30
0.0
 70
    32
  0
VERTEX
  5
9162
  8
AM_0
 10
406.44473654202483
 20
104.24439502061669
 30
0.0
 70
    32
  0
VERTEX
  5
9163
  8
AM_0
 10
406.44373654202548
 20
104.2403950206166
 30
0.0
 70
    32
  0
VERTEX
  5
9164
  8
AM_0
 10
406.44273654202482
 20
104.2363950206167
 30
0.0
 70
    32
  0
VERTEX
  5
9165
  8
AM_0
 10
406.44173654202552
 20
104.2313950206166
 30
0.0
 70
    32
  0
VERTEX
  5
9166
  8
AM_0
 10
406.44073654202481
 20
104.2273950206165
 30
0.0
 70
    32
  0
VERTEX
  5
9167
  8
AM_0
 10
406.43973654202568
 20
104.22339502061649
 30
0.0
 70
    32
  0
VERTEX
  5
9168
  8
AM_0
 10
406.43873654202542
 20
104.2193950206166
 30
0.0
 70
    32
  0
VERTEX
  5
9169
  8
AM_0
 10
406.43773654202568
 20
104.2153950206164
 30
0.0
 70
    32
  0
VERTEX
  5
916A
  8
AM_0
 10
406.43673654202553
 20
104.21139502061661
 30
0.0
 70
    32
  0
VERTEX
  5
916B
  8
AM_0
 10
406.43673654202553
 20
104.2063950206165
 30
0.0
 70
    32
  0
VERTEX
  5
916C
  8
AM_0
 10
406.43573654202481
 20
104.20239502061661
 30
0.0
 70
    32
  0
VERTEX
  5
916D
  8
AM_0
 10
406.43473654202552
 20
104.1983950206168
 30
0.0
 70
    32
  0
VERTEX
  5
916E
  8
AM_0
 10
406.4337365420248
 20
104.1943950206167
 30
0.0
 70
    32
  0
VERTEX
  5
916F
  8
AM_0
 10
406.43273654202562
 20
104.19039502061671
 30
0.0
 70
    32
  0
VERTEX
  5
9170
  8
AM_0
 10
406.43273654202562
 20
104.1853950206167
 30
0.0
 70
    32
  0
VERTEX
  5
9171
  8
AM_0
 10
406.43173654202479
 20
104.1813950206167
 30
0.0
 70
    32
  0
VERTEX
  5
9172
  8
AM_0
 10
406.43073654202573
 20
104.1773950206165
 30
0.0
 70
    32
  0
VERTEX
  5
9173
  8
AM_0
 10
406.43073654202573
 20
104.1733950206165
 30
0.0
 70
    32
  0
VERTEX
  5
9174
  8
AM_0
 10
406.42973654202541
 20
104.1683950206166
 30
0.0
 70
    32
  0
VERTEX
  5
9175
  8
AM_0
 10
406.4287365420256
 20
104.1643950206165
 30
0.0
 70
    32
  0
VERTEX
  5
9176
  8
AM_0
 10
406.4287365420256
 20
104.1603950206166
 30
0.0
 70
    32
  0
VERTEX
  5
9177
  8
AM_0
 10
406.42773654202551
 20
104.1563950206165
 30
0.0
 70
    32
  0
VERTEX
  5
9178
  8
AM_0
 10
406.42773654202551
 20
104.1513950206166
 30
0.0
 70
    32
  0
VERTEX
  5
9179
  8
AM_0
 10
406.42673654202559
 20
104.1473950206164
 30
0.0
 70
    32
  0
VERTEX
  5
917A
  8
AM_0
 10
406.42673654202559
 20
104.14339502061669
 30
0.0
 70
    32
  0
VERTEX
  5
917B
  8
AM_0
 10
406.4257365420255
 20
104.1393950206165
 30
0.0
 70
    32
  0
VERTEX
  5
917C
  8
AM_0
 10
406.4257365420255
 20
104.13439502061659
 30
0.0
 70
    32
  0
VERTEX
  5
917D
  8
AM_0
 10
406.4257365420255
 20
104.1303950206168
 30
0.0
 70
    32
  0
VERTEX
  5
917E
  8
AM_0
 10
406.42473654202342
 20
104.1263950206167
 30
0.0
 70
    32
  0
VERTEX
  5
917F
  8
AM_0
 10
406.42473654202342
 20
104.12239502061669
 30
0.0
 70
    32
  0
VERTEX
  5
9180
  8
AM_0
 10
406.42473654202342
 20
104.1173950206167
 30
0.0
 70
    32
  0
VERTEX
  5
9181
  8
AM_0
 10
406.42473654202342
 20
104.11339502061659
 30
0.0
 70
    32
  0
VERTEX
  5
9182
  8
AM_0
 10
406.42373654202561
 20
104.1093950206166
 30
0.0
 70
    32
  0
VERTEX
  5
9183
  8
AM_0
 10
406.42373654202561
 20
104.1053950206165
 30
0.0
 70
    32
  0
VERTEX
  5
9184
  8
AM_0
 10
406.42373654202561
 20
104.1003950206165
 30
0.0
 70
    32
  0
VERTEX
  5
9185
  8
AM_0
 10
406.42373654202561
 20
104.0963950206165
 30
0.0
 70
    32
  0
VERTEX
  5
9186
  8
AM_0
 10
406.42373654202561
 20
104.09239502061661
 30
0.0
 70
    32
  0
VERTEX
  5
9187
  8
AM_0
 10
406.42373654202561
 20
104.0873950206165
 30
0.0
 70
    32
  0
VERTEX
  5
9188
  8
AM_0
 10
406.42373654202561
 20
104.08339502061661
 30
0.0
 70
    32
  0
VERTEX
  5
9189
  8
AM_0
 10
406.42373654202561
 20
104.0793950206165
 30
0.0
 70
    32
  0
VERTEX
  5
918A
  8
AM_0
 10
406.42373654202561
 20
104.0753950206167
 30
0.0
 70
    32
  0
VERTEX
  5
918B
  8
AM_0
 10
406.42373654202561
 20
104.0703950206165
 30
0.0
 70
    32
  0
VERTEX
  5
918C
  8
AM_0
 10
406.42473654202342
 20
104.0663950206167
 30
0.0
 70
    32
  0
VERTEX
  5
918D
  8
AM_0
 10
406.42473654202342
 20
104.06239502061651
 30
0.0
 70
    32
  0
VERTEX
  5
918E
  8
AM_0
 10
406.42473654202342
 20
104.0583950206168
 30
0.0
 70
    32
  0
VERTEX
  5
918F
  8
AM_0
 10
406.42473654202342
 20
104.0533950206169
 30
0.0
 70
    32
  0
VERTEX
  5
9190
  8
AM_0
 10
406.4257365420255
 20
104.0493950206167
 30
0.0
 70
    32
  0
VERTEX
  5
9191
  8
AM_0
 10
406.4257365420255
 20
104.0453950206167
 30
0.0
 70
    32
  0
VERTEX
  5
9192
  8
AM_0
 10
406.4257365420255
 20
104.0413950206166
 30
0.0
 70
    32
  0
VERTEX
  5
9193
  8
AM_0
 10
406.42673654202559
 20
104.03639502061669
 30
0.0
 70
    32
  0
VERTEX
  5
9194
  8
AM_0
 10
406.42673654202559
 20
104.0323950206166
 30
0.0
 70
    32
  0
VERTEX
  5
9195
  8
AM_0
 10
406.42673654202559
 20
104.0283950206165
 30
0.0
 70
    32
  0
VERTEX
  5
9196
  8
AM_0
 10
406.42773654202551
 20
104.0243950206164
 30
0.0
 70
    32
  0
VERTEX
  5
9197
  8
AM_0
 10
406.42773654202551
 20
104.0193950206165
 30
0.0
 70
    32
  0
VERTEX
  5
9198
  8
AM_0
 10
406.4287365420256
 20
104.01539502061659
 30
0.0
 70
    32
  0
VERTEX
  5
9199
  8
AM_0
 10
406.4287365420256
 20
104.0113950206165
 30
0.0
 70
    32
  0
VERTEX
  5
919A
  8
AM_0
 10
406.42973654202541
 20
104.0073950206167
 30
0.0
 70
    32
  0
VERTEX
  5
919B
  8
AM_0
 10
406.42973654202541
 20
104.0023950206165
 30
0.0
 70
    32
  0
VERTEX
  5
919C
  8
AM_0
 10
406.43073654202573
 20
103.9983950206167
 30
0.0
 70
    32
  0
VERTEX
  5
919D
  8
AM_0
 10
406.43073654202573
 20
103.99439502061659
 30
0.0
 70
    32
  0
VERTEX
  5
919E
  8
AM_0
 10
406.43173654202479
 20
103.9903950206167
 30
0.0
 70
    32
  0
VERTEX
  5
919F
  8
AM_0
 10
406.43173654202479
 20
103.98539502061649
 30
0.0
 70
    32
  0
VERTEX
  5
91A0
  8
AM_0
 10
406.43273654202562
 20
103.9813950206167
 30
0.0
 70
    32
  0
VERTEX
  5
91A1
  8
AM_0
 10
406.43273654202562
 20
103.9773950206167
 30
0.0
 70
    32
  0
VERTEX
  5
91A2
  8
AM_0
 10
406.4337365420248
 20
103.97339502061661
 30
0.0
 70
    32
  0
SEQEND
  5
91A3
  8
AM_0
  0
LINE
  5
91A4
  8
AM_0
 10
419.42378360709989
 20
105.3331317365907
 30
0.0
 11
408.9237836070958
 21
105.3331317365907
 31
0.0
  0
LINE
  5
91A5
  8
AM_0
 10
419.42378360709989
 20
56.62298021757379
 30
0.0
 11
417.95878360709969
 21
47.802980217574202
 31
0.0
  0
POLYLINE
  5
91A6
  8
AM_0
 66
     1
 10
0.0
 20
0.0
 30
0.0
 70
     8
  0
VERTEX
  5
91A7
  8
AM_0
 10
406.4337365420248
 20
59.212795020616589
 30
0.0
 70
    32
  0
VERTEX
  5
91A8
  8
AM_0
 10
406.43473654202552
 20
59.208595020616592
 30
0.0
 70
    32
  0
VERTEX
  5
91A9
  8
AM_0
 10
406.43573654202481
 20
59.204295020616897
 30
0.0
 70
    32
  0
VERTEX
  5
91AA
  8
AM_0
 10
406.43673654202553
 20
59.200095020616892
 30
0.0
 70
    32
  0
VERTEX
  5
91AB
  8
AM_0
 10
406.43773654202568
 20
59.195795020616892
 30
0.0
 70
    32
  0
VERTEX
  5
91AC
  8
AM_0
 10
406.43873654202542
 20
59.191595020616703
 30
0.0
 70
    32
  0
VERTEX
  5
91AD
  8
AM_0
 10
406.43973654202568
 20
59.18729502061661
 30
0.0
 70
    32
  0
VERTEX
  5
91AE
  8
AM_0
 10
406.44073654202481
 20
59.183095020616904
 30
0.0
 70
    32
  0
VERTEX
  5
91AF
  8
AM_0
 10
406.44173654202552
 20
59.178895020616601
 30
0.0
 70
    32
  0
VERTEX
  5
91B0
  8
AM_0
 10
406.44273654202482
 20
59.17459502061682
 30
0.0
 70
    32
  0
VERTEX
  5
91B1
  8
AM_0
 10
406.44373654202548
 20
59.170395020616887
 30
0.0
 70
    32
  0
VERTEX
  5
91B2
  8
AM_0
 10
406.44473654202483
 20
59.166195020616598
 30
0.0
 70
    32
  0
VERTEX
  5
91B3
  8
AM_0
 10
406.44573654202549
 20
59.161895020616697
 30
0.0
 70
    32
  0
VERTEX
  5
91B4
  8
AM_0
 10
406.44673654202569
 20
59.157695020616501
 30
0.0
 70
    32
  0
VERTEX
  5
91B5
  8
AM_0
 10
406.44773654202493
 20
59.153495020616681
 30
0.0
 70
    32
  0
VERTEX
  5
91B6
  8
AM_0
 10
406.4487365420257
 20
59.149295020617203
 30
0.0
 70
    32
  0
VERTEX
  5
91B7
  8
AM_0
 10
406.44973654202482
 20
59.145095020616701
 30
0.0
 70
    32
  0
VERTEX
  5
91B8
  8
AM_0
 10
406.4517365420254
 20
59.140895020616917
 30
0.0
 70
    32
  0
VERTEX
  5
91B9
  8
AM_0
 10
406.45273654202549
 20
59.136695020617218
 30
0.0
 70
    32
  0
VERTEX
  5
91BA
  8
AM_0
 10
406.45373654202479
 20
59.132595020616698
 30
0.0
 70
    32
  0
VERTEX
  5
91BB
  8
AM_0
 10
406.4547365420255
 20
59.128395020616601
 30
0.0
 70
    32
  0
VERTEX
  5
91BC
  8
AM_0
 10
406.4557365420257
 20
59.124195020616888
 30
0.0
 70
    32
  0
VERTEX
  5
91BD
  8
AM_0
 10
406.4577365420256
 20
59.120095020616809
 30
0.0
 70
    32
  0
VERTEX
  5
91BE
  8
AM_0
 10
406.45873654202541
 20
59.11589502061652
 30
0.0
 70
    32
  0
VERTEX
  5
91BF
  8
AM_0
 10
406.4597365420255
 20
59.111795020616597
 30
0.0
 70
    32
  0
VERTEX
  5
91C0
  8
AM_0
 10
406.46173654202551
 20
59.107695020616681
 30
0.0
 70
    32
  0
VERTEX
  5
91C1
  8
AM_0
 10
406.46273654202349
 20
59.103595020616588
 30
0.0
 70
    32
  0
VERTEX
  5
91C2
  8
AM_0
 10
406.46373654202512
 20
59.099395020616889
 30
0.0
 70
    32
  0
VERTEX
  5
91C3
  8
AM_0
 10
406.46573654202552
 20
59.095395020616706
 30
0.0
 70
    32
  0
VERTEX
  5
91C4
  8
AM_0
 10
406.46673654202561
 20
59.091295020616897
 30
0.0
 70
    32
  0
VERTEX
  5
91C5
  8
AM_0
 10
406.46873654202551
 20
59.08719502061701
 30
0.0
 70
    32
  0
VERTEX
  5
91C6
  8
AM_0
 10
406.4697365420248
 20
59.083095020616703
 30
0.0
 70
    32
  0
VERTEX
  5
91C7
  8
AM_0
 10
406.47173654202481
 20
59.079095020617011
 30
0.0
 70
    32
  0
VERTEX
  5
91C8
  8
AM_0
 10
406.47273654202559
 20
59.074995020616612
 30
0.0
 70
    32
  0
VERTEX
  5
91C9
  8
AM_0
 10
406.47473654202548
 20
59.070995020617012
 30
0.0
 70
    32
  0
VERTEX
  5
91CA
  8
AM_0
 10
406.47673654202532
 20
59.066995020616801
 30
0.0
 70
    32
  0
VERTEX
  5
91CB
  8
AM_0
 10
406.4777365420257
 20
59.062995020616711
 30
0.0
 70
    32
  0
VERTEX
  5
91CC
  8
AM_0
 10
406.47973654202559
 20
59.058995020616713
 30
0.0
 70
    32
  0
VERTEX
  5
91CD
  8
AM_0
 10
406.4817365420256
 20
59.054995020616609
 30
0.0
 70
    32
  0
VERTEX
  5
91CE
  8
AM_0
 10
406.4837365420268
 20
59.05099502061659
 30
0.0
 70
    32
  0
VERTEX
  5
91CF
  8
AM_0
 10
406.4847365420257
 20
59.047095020616602
 30
0.0
 70
    32
  0
VERTEX
  5
91D0
  8
AM_0
 10
406.4867365420256
 20
59.043095020616811
 30
0.0
 70
    32
  0
VERTEX
  5
91D1
  8
AM_0
 10
406.48873654202561
 20
59.039195020616681
 30
0.0
 70
    32
  0
VERTEX
  5
91D2
  8
AM_0
 10
406.49073654202562
 20
59.035195020616513
 30
0.0
 70
    32
  0
VERTEX
  5
91D3
  8
AM_0
 10
406.4927365420254
 20
59.031295020616703
 30
0.0
 70
    32
  0
VERTEX
  5
91D4
  8
AM_0
 10
406.49473654202478
 20
59.027395020617
 30
0.0
 70
    32
  0
VERTEX
  5
91D5
  8
AM_0
 10
406.49673654202547
 20
59.0234950206166
 30
0.0
 70
    32
  0
VERTEX
  5
91D6
  8
AM_0
 10
406.49873654202491
 20
59.019595020616713
 30
0.0
 70
    32
  0
VERTEX
  5
91D7
  8
AM_0
 10
406.50073654202339
 20
59.015695020616683
 30
0.0
 70
    32
  0
VERTEX
  5
91D8
  8
AM_0
 10
406.50273654202482
 20
59.01179502061661
 30
0.0
 70
    32
  0
VERTEX
  5
91D9
  8
AM_0
 10
406.50473654202563
 20
59.007995020616811
 30
0.0
 70
    32
  0
VERTEX
  5
91DA
  8
AM_0
 10
406.50673654202552
 20
59.004095020616703
 30
0.0
 70
    32
  0
VERTEX
  5
91DB
  8
AM_0
 10
406.50873654202547
 20
59.000295020616903
 30
0.0
 70
    32
  0
VERTEX
  5
91DC
  8
AM_0
 10
406.5107365420256
 20
58.996495020616699
 30
0.0
 70
    32
  0
VERTEX
  5
91DD
  8
AM_0
 10
406.51273654202549
 20
58.992595020617202
 30
0.0
 70
    32
  0
VERTEX
  5
91DE
  8
AM_0
 10
406.5147365420255
 20
58.9887950206166
 30
0.0
 70
    32
  0
VERTEX
  5
91DF
  8
AM_0
 10
406.516736542025
 20
58.984995020616893
 30
0.0
 70
    32
  0
VERTEX
  5
91E0
  8
AM_0
 10
406.51873654202478
 20
58.981295020616713
 30
0.0
 70
    32
  0
VERTEX
  5
91E1
  8
AM_0
 10
406.52073654202479
 20
58.977495020616679
 30
0.0
 70
    32
  0
VERTEX
  5
91E2
  8
AM_0
 10
406.52373654202489
 20
58.973695020616887
 30
0.0
 70
    32
  0
VERTEX
  5
91E3
  8
AM_0
 10
406.5257365420249
 20
58.969995020616601
 30
0.0
 70
    32
  0
VERTEX
  5
91E4
  8
AM_0
 10
406.52773654202542
 20
58.966195020616702
 30
0.0
 70
    32
  0
VERTEX
  5
91E5
  8
AM_0
 10
406.52973654202339
 20
58.962495020616991
 30
0.0
 70
    32
  0
VERTEX
  5
91E6
  8
AM_0
 10
406.53273654202491
 20
58.958795020616712
 30
0.0
 70
    32
  0
VERTEX
  5
91E7
  8
AM_0
 10
406.53473654202543
 20
58.9549950206166
 30
0.0
 70
    32
  0
VERTEX
  5
91E8
  8
AM_0
 10
406.53673654202481
 20
58.95129502061689
 30
0.0
 70
    32
  0
VERTEX
  5
91E9
  8
AM_0
 10
406.5387365420234
 20
58.947695020616912
 30
0.0
 70
    32
  0
VERTEX
  5
91EA
  8
AM_0
 10
406.54173654202549
 20
58.943995020616889
 30
0.0
 70
    32
  0
VERTEX
  5
91EB
  8
AM_0
 10
406.54373654202561
 20
58.94029502061661
 30
0.0
 70
    32
  0
VERTEX
  5
91EC
  8
AM_0
 10
406.54573654202483
 20
58.936695020617002
 30
0.0
 70
    32
  0
VERTEX
  5
91ED
  8
AM_0
 10
406.54873654202549
 20
58.932995020616687
 30
0.0
 70
    32
  0
VERTEX
  5
91EE
  8
AM_0
 10
406.55073654202562
 20
58.929395020616703
 30
0.0
 70
    32
  0
VERTEX
  5
91EF
  8
AM_0
 10
406.5537365420256
 20
58.925695020616608
 30
0.0
 70
    32
  0
VERTEX
  5
91F0
  8
AM_0
 10
406.5557365420255
 20
58.922095020616602
 30
0.0
 70
    32
  0
VERTEX
  5
91F1
  8
AM_0
 10
406.55773654202562
 20
58.918495020616611
 30
0.0
 70
    32
  0
VERTEX
  5
91F2
  8
AM_0
 10
406.5607365420247
 20
58.914895020616591
 30
0.0
 70
    32
  0
VERTEX
  5
91F3
  8
AM_0
 10
406.56273654202562
 20
58.911395020616702
 30
0.0
 70
    32
  0
VERTEX
  5
91F4
  8
AM_0
 10
406.56573654202532
 20
58.907795020616682
 30
0.0
 70
    32
  0
VERTEX
  5
91F5
  8
AM_0
 10
406.5677365420234
 20
58.904195020616889
 30
0.0
 70
    32
  0
VERTEX
  5
91F6
  8
AM_0
 10
406.57073654202509
 20
58.900695020616922
 30
0.0
 70
    32
  0
VERTEX
  5
91F7
  8
AM_0
 10
406.57273654202532
 20
58.897195020616913
 30
0.0
 70
    32
  0
VERTEX
  5
91F8
  8
AM_0
 10
406.5757365420256
 20
58.893695020616683
 30
0.0
 70
    32
  0
VERTEX
  5
91F9
  8
AM_0
 10
406.57873654202479
 20
58.890095020616712
 30
0.0
 70
    32
  0
VERTEX
  5
91FA
  8
AM_0
 10
406.58073654202582
 20
58.886695020616912
 30
0.0
 70
    32
  0
VERTEX
  5
91FB
  8
AM_0
 10
406.58373654202359
 20
58.88319502061659
 30
0.0
 70
    32
  0
VERTEX
  5
91FC
  8
AM_0
 10
406.58573654202479
 20
58.8796950206169
 30
0.0
 70
    32
  0
VERTEX
  5
91FD
  8
AM_0
 10
406.5887365420254
 20
58.876195020616599
 30
0.0
 70
    32
  0
VERTEX
  5
91FE
  8
AM_0
 10
406.59173654202561
 20
58.872795020616692
 30
0.0
 70
    32
  0
VERTEX
  5
91FF
  8
AM_0
 10
406.59373654202562
 20
58.869295020616811
 30
0.0
 70
    32
  0
VERTEX
  5
9200
  8
AM_0
 10
406.59673654202481
 20
58.865895020616513
 30
0.0
 70
    32
  0
VERTEX
  5
9201
  8
AM_0
 10
406.59973654202491
 20
58.862495020616912
 30
0.0
 70
    32
  0
VERTEX
  5
9202
  8
AM_0
 10
406.60173654202492
 20
58.8590950206166
 30
0.0
 70
    32
  0
VERTEX
  5
9203
  8
AM_0
 10
406.60473654202559
 20
58.8556950206167
 30
0.0
 70
    32
  0
VERTEX
  5
9204
  8
AM_0
 10
406.60773654202478
 20
58.852295020616701
 30
0.0
 70
    32
  0
VERTEX
  5
9205
  8
AM_0
 10
406.61073654202551
 20
58.84899502061689
 30
0.0
 70
    32
  0
VERTEX
  5
9206
  8
AM_0
 10
406.612736542025
 20
58.845595020616607
 30
0.0
 70
    32
  0
VERTEX
  5
9207
  8
AM_0
 10
406.6157365420251
 20
58.842295020616682
 30
0.0
 70
    32
  0
VERTEX
  5
9208
  8
AM_0
 10
406.6187365420256
 20
58.838895020616697
 30
0.0
 70
    32
  0
VERTEX
  5
9209
  8
AM_0
 10
406.6217365420236
 20
58.835595020616701
 30
0.0
 70
    32
  0
VERTEX
  5
920A
  8
AM_0
 10
406.6237365420248
 20
58.832295020616989
 30
0.0
 70
    32
  0
VERTEX
  5
920B
  8
AM_0
 10
406.62673654202553
 20
58.828995020616681
 30
0.0
 70
    32
  0
VERTEX
  5
920C
  8
AM_0
 10
406.62973654202568
 20
58.825695020616699
 30
0.0
 70
    32
  0
VERTEX
  5
920D
  8
AM_0
 10
406.63273654202482
 20
58.822395020617002
 30
0.0
 70
    32
  0
VERTEX
  5
920E
  8
AM_0
 10
406.63573654202548
 20
58.819095020616601
 30
0.0
 70
    32
  0
VERTEX
  5
920F
  8
AM_0
 10
406.6387365420257
 20
58.815895020616601
 30
0.0
 70
    32
  0
VERTEX
  5
9210
  8
AM_0
 10
406.641736542025
 20
58.812595020616818
 30
0.0
 70
    32
  0
VERTEX
  5
9211
  8
AM_0
 10
406.6447365420251
 20
58.809395020616797
 30
0.0
 70
    32
  0
VERTEX
  5
9212
  8
AM_0
 10
406.6477365420256
 20
58.806195020616997
 30
0.0
 70
    32
  0
VERTEX
  5
9213
  8
AM_0
 10
406.64973654202561
 20
58.802995020616713
 30
0.0
 70
    32
  0
VERTEX
  5
9214
  8
AM_0
 10
406.6527365420248
 20
58.7997950206165
 30
0.0
 70
    32
  0
VERTEX
  5
9215
  8
AM_0
 10
406.65573654202558
 20
58.796595020616593
 30
0.0
 70
    32
  0
VERTEX
  5
9216
  8
AM_0
 10
406.65873654202562
 20
58.793395020616721
 30
0.0
 70
    32
  0
VERTEX
  5
9217
  8
AM_0
 10
406.66173654202481
 20
58.790195020616601
 30
0.0
 70
    32
  0
VERTEX
  5
9218
  8
AM_0
 10
406.66473654202559
 20
58.787095020616711
 30
0.0
 70
    32
  0
VERTEX
  5
9219
  8
AM_0
 10
406.66773654202569
 20
58.783895020616598
 30
0.0
 70
    32
  0
VERTEX
  5
921A
  8
AM_0
 10
406.67073654202471
 20
58.780795020616701
 30
0.0
 70
    32
  0
VERTEX
  5
921B
  8
AM_0
 10
406.67373654202561
 20
58.777695020616598
 30
0.0
 70
    32
  0
VERTEX
  5
921C
  8
AM_0
 10
406.67673654202582
 20
58.774495020616698
 30
0.0
 70
    32
  0
VERTEX
  5
921D
  8
AM_0
 10
406.67973654202478
 20
58.771395020616588
 30
0.0
 70
    32
  0
VERTEX
  5
921E
  8
AM_0
 10
406.6827365420246
 20
58.768295020616897
 30
0.0
 70
    32
  0
VERTEX
  5
921F
  8
AM_0
 10
406.68573654202481
 20
58.765295020616897
 30
0.0
 70
    32
  0
VERTEX
  5
9220
  8
AM_0
 10
406.68973654202563
 20
58.762195020616687
 30
0.0
 70
    32
  0
VERTEX
  5
9221
  8
AM_0
 10
406.69273654202482
 20
58.759095020616698
 30
0.0
 70
    32
  0
VERTEX
  5
9222
  8
AM_0
 10
406.69573654202492
 20
58.756095020616499
 30
0.0
 70
    32
  0
VERTEX
  5
9223
  8
AM_0
 10
406.69873654202468
 20
58.752995020616822
 30
0.0
 70
    32
  0
VERTEX
  5
9224
  8
AM_0
 10
406.70173654202682
 20
58.749995020616801
 30
0.0
 70
    32
  0
VERTEX
  5
9225
  8
AM_0
 10
406.7047365420251
 20
58.746995020616588
 30
0.0
 70
    32
  0
VERTEX
  5
9226
  8
AM_0
 10
406.7077365420256
 20
58.743995020616701
 30
0.0
 70
    32
  0
VERTEX
  5
9227
  8
AM_0
 10
406.71073654202678
 20
58.740995020616893
 30
0.0
 70
    32
  0
VERTEX
  5
9228
  8
AM_0
 10
406.71473654202492
 20
58.737995020616502
 30
0.0
 70
    32
  0
VERTEX
  5
9229
  8
AM_0
 10
406.7177365420248
 20
58.734995020616701
 30
0.0
 70
    32
  0
VERTEX
  5
922A
  8
AM_0
 10
406.72073654202472
 20
58.731995020616999
 30
0.0
 70
    32
  0
VERTEX
  5
922B
  8
AM_0
 10
406.72373654202482
 20
58.729095020616889
 30
0.0
 70
    32
  0
VERTEX
  5
922C
  8
AM_0
 10
406.72673654202481
 20
58.726095020616889
 30
0.0
 70
    32
  0
VERTEX
  5
922D
  8
AM_0
 10
406.72973654202468
 20
58.723195020616679
 30
0.0
 70
    32
  0
VERTEX
  5
922E
  8
AM_0
 10
406.73373654202481
 20
58.720195020616721
 30
0.0
 70
    32
  0
VERTEX
  5
922F
  8
AM_0
 10
406.73673654202469
 20
58.717295020616511
 30
0.0
 70
    32
  0
VERTEX
  5
9230
  8
AM_0
 10
406.73973654202479
 20
58.714395020616799
 30
0.0
 70
    32
  0
VERTEX
  5
9231
  8
AM_0
 10
406.74273654202489
 20
58.711495020616589
 30
0.0
 70
    32
  0
VERTEX
  5
9232
  8
AM_0
 10
406.74673654202491
 20
58.708595020616912
 30
0.0
 70
    32
  0
VERTEX
  5
9233
  8
AM_0
 10
406.74973654202478
 20
58.705695020616801
 30
0.0
 70
    32
  0
VERTEX
  5
9234
  8
AM_0
 10
406.75273654202471
 20
58.702895020616502
 30
0.0
 70
    32
  0
VERTEX
  5
9235
  8
AM_0
 10
406.75573654202492
 20
58.699995020616889
 30
0.0
 70
    32
  0
VERTEX
  5
9236
  8
AM_0
 10
406.75973654202471
 20
58.697195020616697
 30
0.0
 70
    32
  0
VERTEX
  5
9237
  8
AM_0
 10
406.76273654202549
 20
58.6942950206166
 30
0.0
 70
    32
  0
VERTEX
  5
9238
  8
AM_0
 10
406.76573654202571
 20
58.691495020616912
 30
0.0
 70
    32
  0
VERTEX
  5
9239
  8
AM_0
 10
406.76973654202561
 20
58.688695020617011
 30
0.0
 70
    32
  0
VERTEX
  5
923A
  8
AM_0
 10
406.77273654202583
 20
58.685895020616897
 30
0.0
 70
    32
  0
VERTEX
  5
923B
  8
AM_0
 10
406.77573654202479
 20
58.683095020616697
 30
0.0
 70
    32
  0
VERTEX
  5
923C
  8
AM_0
 10
406.77973654202481
 20
58.680295020616697
 30
0.0
 70
    32
  0
VERTEX
  5
923D
  8
AM_0
 10
406.78273654202491
 20
58.677495020616703
 30
0.0
 70
    32
  0
VERTEX
  5
923E
  8
AM_0
 10
406.78573654202557
 20
58.674695020617001
 30
0.0
 70
    32
  0
VERTEX
  5
923F
  8
AM_0
 10
406.78973654202503
 20
58.671995020617011
 30
0.0
 70
    32
  0
VERTEX
  5
9240
  8
AM_0
 10
406.79273654202558
 20
58.66919502061652
 30
0.0
 70
    32
  0
VERTEX
  5
9241
  8
AM_0
 10
406.795736542025
 20
58.666495020616502
 30
0.0
 70
    32
  0
VERTEX
  5
9242
  8
AM_0
 10
406.79973654202479
 20
58.663695020616608
 30
0.0
 70
    32
  0
VERTEX
  5
9243
  8
AM_0
 10
406.802736542025
 20
58.660995020616589
 30
0.0
 70
    32
  0
VERTEX
  5
9244
  8
AM_0
 10
406.80673654202479
 20
58.658295020616599
 30
0.0
 70
    32
  0
VERTEX
  5
9245
  8
AM_0
 10
406.80973654202512
 20
58.655595020616587
 30
0.0
 70
    32
  0
VERTEX
  5
9246
  8
AM_0
 10
406.81273654202482
 20
58.652895020616988
 30
0.0
 70
    32
  0
VERTEX
  5
9247
  8
AM_0
 10
406.81673654202552
 20
58.650195020616813
 30
0.0
 70
    32
  0
VERTEX
  5
9248
  8
AM_0
 10
406.81973654202483
 20
58.647495020616802
 30
0.0
 70
    32
  0
VERTEX
  5
9249
  8
AM_0
 10
406.8237365420257
 20
58.644895020616502
 30
0.0
 70
    32
  0
VERTEX
  5
924A
  8
AM_0
 10
406.82673654202478
 20
58.642195020616512
 30
0.0
 70
    32
  0
VERTEX
  5
924B
  8
AM_0
 10
406.8307365420257
 20
58.639495020616501
 30
0.0
 70
    32
  0
VERTEX
  5
924C
  8
AM_0
 10
406.83373654202489
 20
58.636895020617011
 30
0.0
 70
    32
  0
VERTEX
  5
924D
  8
AM_0
 10
406.83673654202482
 20
58.634295020616811
 30
0.0
 70
    32
  0
VERTEX
  5
924E
  8
AM_0
 10
406.84073654202513
 20
58.631695020616682
 30
0.0
 70
    32
  0
VERTEX
  5
924F
  8
AM_0
 10
406.84373654202483
 20
58.628995020616699
 30
0.0
 70
    32
  0
VERTEX
  5
9250
  8
AM_0
 10
406.84773654202507
 20
58.626395020616613
 30
0.0
 70
    32
  0
VERTEX
  5
9251
  8
AM_0
 10
406.85073654202478
 20
58.623795020616711
 30
0.0
 70
    32
  0
VERTEX
  5
9252
  8
AM_0
 10
406.85473654202559
 20
58.621295020616607
 30
0.0
 70
    32
  0
VERTEX
  5
9253
  8
AM_0
 10
406.85773654202478
 20
58.618695020616698
 30
0.0
 70
    32
  0
VERTEX
  5
9254
  8
AM_0
 10
406.8617365420256
 20
58.616095020616818
 30
0.0
 70
    32
  0
VERTEX
  5
9255
  8
AM_0
 10
406.86473654202479
 20
58.6135950206167
 30
0.0
 70
    32
  0
VERTEX
  5
9256
  8
AM_0
 10
406.86873654202577
 20
58.610995020616599
 30
0.0
 70
    32
  0
VERTEX
  5
9257
  8
AM_0
 10
406.87173654202479
 20
58.608495020616679
 30
0.0
 70
    32
  0
VERTEX
  5
9258
  8
AM_0
 10
406.87573654202521
 20
58.605895020616991
 30
0.0
 70
    32
  0
VERTEX
  5
9259
  8
AM_0
 10
406.87873654202491
 20
58.603395020616702
 30
0.0
 70
    32
  0
VERTEX
  5
925A
  8
AM_0
 10
406.88273654202487
 20
58.600895020616903
 30
0.0
 70
    32
  0
VERTEX
  5
925B
  8
AM_0
 10
406.88673654202518
 20
58.5983950206166
 30
0.0
 70
    32
  0
VERTEX
  5
925C
  8
AM_0
 10
406.88973654202488
 20
58.595895020616588
 30
0.0
 70
    32
  0
VERTEX
  5
925D
  8
AM_0
 10
406.89373654202672
 20
58.593395020616697
 30
0.0
 70
    32
  0
VERTEX
  5
925E
  8
AM_0
 10
406.89673654202522
 20
58.590895020616713
 30
0.0
 70
    32
  0
VERTEX
  5
925F
  8
AM_0
 10
406.90073654202479
 20
58.58849502061652
 30
0.0
 70
    32
  0
VERTEX
  5
9260
  8
AM_0
 10
406.90373654202472
 20
58.5859950206166
 30
0.0
 70
    32
  0
VERTEX
  5
9261
  8
AM_0
 10
406.90773654202479
 20
58.583595020616592
 30
0.0
 70
    32
  0
VERTEX
  5
9262
  8
AM_0
 10
406.91173654202532
 20
58.5810950206168
 30
0.0
 70
    32
  0
VERTEX
  5
9263
  8
AM_0
 10
406.91473654202503
 20
58.578695020616898
 30
0.0
 70
    32
  0
VERTEX
  5
9264
  8
AM_0
 10
406.91873654202487
 20
58.576295020616698
 30
0.0
 70
    32
  0
VERTEX
  5
9265
  8
AM_0
 10
406.92173654202549
 20
58.573795020616679
 30
0.0
 70
    32
  0
VERTEX
  5
9266
  8
AM_0
 10
406.92573654202488
 20
58.571395020616592
 30
0.0
 70
    32
  0
VERTEX
  5
9267
  8
AM_0
 10
406.92973654202541
 20
58.568995020616903
 30
0.0
 70
    32
  0
VERTEX
  5
9268
  8
AM_0
 10
406.9327365420238
 20
58.566595020616703
 30
0.0
 70
    32
  0
VERTEX
  5
9269
  8
AM_0
 10
406.93673654202507
 20
58.564195020616502
 30
0.0
 70
    32
  0
VERTEX
  5
926A
  8
AM_0
 10
406.94073654202538
 20
58.56189502061661
 30
0.0
 70
    32
  0
VERTEX
  5
926B
  8
AM_0
 10
406.94373654202508
 20
58.559495020617
 30
0.0
 70
    32
  0
VERTEX
  5
926C
  8
AM_0
 10
406.94773654202538
 20
58.557095020616991
 30
0.0
 70
    32
  0
VERTEX
  5
926D
  8
AM_0
 10
406.9517365420254
 20
58.554795020616702
 30
0.0
 70
    32
  0
VERTEX
  5
926E
  8
AM_0
 10
406.9547365420251
 20
58.552395020616679
 30
0.0
 70
    32
  0
VERTEX
  5
926F
  8
AM_0
 10
406.95873654202541
 20
58.550095020616702
 30
0.0
 70
    32
  0
VERTEX
  5
9270
  8
AM_0
 10
406.96273654202508
 20
58.54779502061681
 30
0.0
 70
    32
  0
VERTEX
  5
9271
  8
AM_0
 10
406.96573654202552
 20
58.54549502061689
 30
0.0
 70
    32
  0
VERTEX
  5
9272
  8
AM_0
 10
406.96973654202532
 20
58.5431950206167
 30
0.0
 70
    32
  0
VERTEX
  5
9273
  8
AM_0
 10
406.97373654202522
 20
58.5407950206165
 30
0.0
 70
    32
  0
VERTEX
  5
9274
  8
AM_0
 10
406.97673654202532
 20
58.538595020616697
 30
0.0
 70
    32
  0
VERTEX
  5
9275
  8
AM_0
 10
406.9807365420254
 20
58.536295020616599
 30
0.0
 70
    32
  0
VERTEX
  5
9276
  8
AM_0
 10
406.98473654202479
 20
58.5339950206167
 30
0.0
 70
    32
  0
VERTEX
  5
9277
  8
AM_0
 10
406.9877365420254
 20
58.531695020616702
 30
0.0
 70
    32
  0
VERTEX
  5
9278
  8
AM_0
 10
406.99173654202519
 20
58.529395020616683
 30
0.0
 70
    32
  0
VERTEX
  5
9279
  8
AM_0
 10
406.99573654202482
 20
58.527195020616702
 30
0.0
 70
    32
  0
VERTEX
  5
927A
  8
AM_0
 10
406.9997365420237
 20
58.524895020616697
 30
0.0
 70
    32
  0
VERTEX
  5
927B
  8
AM_0
 10
407.00273654202482
 20
58.522695020616702
 30
0.0
 70
    32
  0
VERTEX
  5
927C
  8
AM_0
 10
407.00673654202473
 20
58.5204950206166
 30
0.0
 70
    32
  0
VERTEX
  5
927D
  8
AM_0
 10
407.01073654202548
 20
58.518195020616687
 30
0.0
 70
    32
  0
VERTEX
  5
927E
  8
AM_0
 10
407.01373654202558
 20
58.5159950206166
 30
0.0
 70
    32
  0
VERTEX
  5
927F
  8
AM_0
 10
407.01773654202469
 20
58.513795020616612
 30
0.0
 70
    32
  0
VERTEX
  5
9280
  8
AM_0
 10
407.02173654202551
 20
58.511595020616497
 30
0.0
 70
    32
  0
VERTEX
  5
9281
  8
AM_0
 10
407.02573654202541
 20
58.509395020616701
 30
0.0
 70
    32
  0
VERTEX
  5
9282
  8
AM_0
 10
407.02873654202563
 20
58.507195020616898
 30
0.0
 70
    32
  0
VERTEX
  5
9283
  8
AM_0
 10
407.03273654202548
 20
58.5050950206167
 30
0.0
 70
    32
  0
VERTEX
  5
9284
  8
AM_0
 10
407.03673654202538
 20
58.502895020616698
 30
0.0
 70
    32
  0
VERTEX
  5
9285
  8
AM_0
 10
407.04073654202477
 20
58.500695020616511
 30
0.0
 70
    32
  0
VERTEX
  5
9286
  8
AM_0
 10
407.04473654202479
 20
58.49859502061669
 30
0.0
 70
    32
  0
VERTEX
  5
9287
  8
AM_0
 10
407.04773654202478
 20
58.496395020616887
 30
0.0
 70
    32
  0
VERTEX
  5
9288
  8
AM_0
 10
407.05173654202571
 20
58.494295020616711
 30
0.0
 70
    32
  0
VERTEX
  5
9289
  8
AM_0
 10
407.0557365420255
 20
58.492095020616681
 30
0.0
 70
    32
  0
VERTEX
  5
928A
  8
AM_0
 10
407.05973654202558
 20
58.489995020616512
 30
0.0
 70
    32
  0
VERTEX
  5
928B
  8
AM_0
 10
407.06273654202482
 20
58.487895020616811
 30
0.0
 70
    32
  0
VERTEX
  5
928C
  8
AM_0
 10
407.06673654202558
 20
58.4857950206166
 30
0.0
 70
    32
  0
VERTEX
  5
928D
  8
AM_0
 10
407.07073654202549
 20
58.483695020616501
 30
0.0
 70
    32
  0
VERTEX
  5
928E
  8
AM_0
 10
407.07473654202528
 20
58.481595020616894
 30
0.0
 70
    32
  0
VERTEX
  5
928F
  8
AM_0
 10
407.07873654202479
 20
58.479495020616703
 30
0.0
 70
    32
  0
VERTEX
  5
9290
  8
AM_0
 10
407.0827365420256
 20
58.477395020616498
 30
0.0
 70
    32
  0
VERTEX
  5
9291
  8
AM_0
 10
407.08573654202479
 20
58.475295020616997
 30
0.0
 70
    32
  0
VERTEX
  5
9292
  8
AM_0
 10
407.08973654202509
 20
58.473295020616682
 30
0.0
 70
    32
  0
VERTEX
  5
9293
  8
AM_0
 10
407.09373654202562
 20
58.47119502061701
 30
0.0
 70
    32
  0
VERTEX
  5
9294
  8
AM_0
 10
407.09773654202547
 20
58.469095020616592
 30
0.0
 70
    32
  0
VERTEX
  5
9295
  8
AM_0
 10
407.10173654202549
 20
58.467095020616711
 30
0.0
 70
    32
  0
VERTEX
  5
9296
  8
AM_0
 10
407.10473654202548
 20
58.464995020616712
 30
0.0
 70
    32
  0
VERTEX
  5
9297
  8
AM_0
 10
407.1087365420255
 20
58.462995020616901
 30
0.0
 70
    32
  0
VERTEX
  5
9298
  8
AM_0
 10
407.11273654202529
 20
58.4609950206166
 30
0.0
 70
    32
  0
VERTEX
  5
9299
  8
AM_0
 10
407.1167365420248
 20
58.458995020616591
 30
0.0
 70
    32
  0
VERTEX
  5
929A
  8
AM_0
 10
407.12073654202561
 20
58.456995020616702
 30
0.0
 70
    32
  0
VERTEX
  5
929B
  8
AM_0
 10
407.12473654202557
 20
58.454995020616991
 30
0.0
 70
    32
  0
VERTEX
  5
929C
  8
AM_0
 10
407.12873654202548
 20
58.452995020616711
 30
0.0
 70
    32
  0
VERTEX
  5
929D
  8
AM_0
 10
407.13173654202569
 20
58.450995020616809
 30
0.0
 70
    32
  0
VERTEX
  5
929E
  8
AM_0
 10
407.13573654202548
 20
58.4489950206166
 30
0.0
 70
    32
  0
VERTEX
  5
929F
  8
AM_0
 10
407.1397365420255
 20
58.446995020616697
 30
0.0
 70
    32
  0
VERTEX
  5
92A0
  8
AM_0
 10
407.1437365420249
 20
58.444995020616808
 30
0.0
 70
    32
  0
VERTEX
  5
92A1
  8
AM_0
 10
407.1477365420256
 20
58.443095020616703
 30
0.0
 70
    32
  0
VERTEX
  5
92A2
  8
AM_0
 10
407.1517365420255
 20
58.441095020616913
 30
0.0
 70
    32
  0
VERTEX
  5
92A3
  8
AM_0
 10
407.15573654202558
 20
58.439195020616602
 30
0.0
 70
    32
  0
VERTEX
  5
92A4
  8
AM_0
 10
407.15973654202543
 20
58.437195020616592
 30
0.0
 70
    32
  0
VERTEX
  5
92A5
  8
AM_0
 10
407.16373654202539
 20
58.435295020616699
 30
0.0
 70
    32
  0
VERTEX
  5
92A6
  8
AM_0
 10
407.16673654202549
 20
58.433395020616913
 30
0.0
 70
    32
  0
VERTEX
  5
92A7
  8
AM_0
 10
407.1707365420254
 20
58.431395020616712
 30
0.0
 70
    32
  0
VERTEX
  5
92A8
  8
AM_0
 10
407.17473654202479
 20
58.429495020616713
 30
0.0
 70
    32
  0
VERTEX
  5
92A9
  8
AM_0
 10
407.1787365420256
 20
58.427595020616899
 30
0.0
 70
    32
  0
VERTEX
  5
92AA
  8
AM_0
 10
407.18273654202562
 20
58.425695020616601
 30
0.0
 70
    32
  0
VERTEX
  5
92AB
  8
AM_0
 10
407.18673654202553
 20
58.423795020616893
 30
0.0
 70
    32
  0
VERTEX
  5
92AC
  8
AM_0
 10
407.19073654202492
 20
58.42189502061651
 30
0.0
 70
    32
  0
VERTEX
  5
92AD
  8
AM_0
 10
407.19473654202523
 20
58.4200950206165
 30
0.0
 70
    32
  0
VERTEX
  5
92AE
  8
AM_0
 10
407.19873654202547
 20
58.4181950206167
 30
0.0
 70
    32
  0
VERTEX
  5
92AF
  8
AM_0
 10
407.2027365420256
 20
58.416295020616893
 30
0.0
 70
    32
  0
VERTEX
  5
92B0
  8
AM_0
 10
407.20673654202511
 20
58.414495020616812
 30
0.0
 70
    32
  0
VERTEX
  5
92B1
  8
AM_0
 10
407.20973654202572
 20
58.412595020616713
 30
0.0
 70
    32
  0
VERTEX
  5
92B2
  8
AM_0
 10
407.21373654202552
 20
58.41079502061671
 30
0.0
 70
    32
  0
VERTEX
  5
92B3
  8
AM_0
 10
407.21773654202542
 20
58.408895020616598
 30
0.0
 70
    32
  0
VERTEX
  5
92B4
  8
AM_0
 10
407.22173654202481
 20
58.407095020616602
 30
0.0
 70
    32
  0
VERTEX
  5
92B5
  8
AM_0
 10
407.22573654202569
 20
58.405295020616592
 30
0.0
 70
    32
  0
VERTEX
  5
92B6
  8
AM_0
 10
407.22973654202548
 20
58.403395020616593
 30
0.0
 70
    32
  0
VERTEX
  5
92B7
  8
AM_0
 10
407.2337365420255
 20
58.40159502061659
 30
0.0
 70
    32
  0
VERTEX
  5
92B8
  8
AM_0
 10
407.23773654202478
 20
58.399795020616601
 30
0.0
 70
    32
  0
VERTEX
  5
92B9
  8
AM_0
 10
407.2417365420248
 20
58.397995020616591
 30
0.0
 70
    32
  0
VERTEX
  5
92BA
  8
AM_0
 10
407.24573654202561
 20
58.396195020616609
 30
0.0
 70
    32
  0
VERTEX
  5
92BB
  8
AM_0
 10
407.24973654202557
 20
58.394395020616606
 30
0.0
 70
    32
  0
VERTEX
  5
92BC
  8
AM_0
 10
407.25373654202548
 20
58.392695020616607
 30
0.0
 70
    32
  0
VERTEX
  5
92BD
  8
AM_0
 10
407.25773654202482
 20
58.390895020616611
 30
0.0
 70
    32
  0
VERTEX
  5
92BE
  8
AM_0
 10
407.26173654202472
 20
58.389095020616601
 30
0.0
 70
    32
  0
VERTEX
  5
92BF
  8
AM_0
 10
407.26573654202571
 20
58.387295020616598
 30
0.0
 70
    32
  0
VERTEX
  5
92C0
  8
AM_0
 10
407.26973654202561
 20
58.385595020616698
 30
0.0
 70
    32
  0
VERTEX
  5
92C1
  8
AM_0
 10
407.27373654202478
 20
58.383795020616702
 30
0.0
 70
    32
  0
VERTEX
  5
92C2
  8
AM_0
 10
407.27773654202548
 20
58.382095020616809
 30
0.0
 70
    32
  0
VERTEX
  5
92C3
  8
AM_0
 10
407.2817365420234
 20
58.380395020616682
 30
0.0
 70
    32
  0
VERTEX
  5
92C4
  8
AM_0
 10
407.28573654202557
 20
58.378595020616679
 30
0.0
 70
    32
  0
VERTEX
  5
92C5
  8
AM_0
 10
407.28973654202503
 20
58.376895020616502
 30
0.0
 70
    32
  0
VERTEX
  5
92C6
  8
AM_0
 10
407.2937365420255
 20
58.375195020616808
 30
0.0
 70
    32
  0
VERTEX
  5
92C7
  8
AM_0
 10
407.29773654202478
 20
58.373495020617007
 30
0.0
 70
    32
  0
VERTEX
  5
92C8
  8
AM_0
 10
407.30173654202559
 20
58.37179502061668
 30
0.0
 70
    32
  0
VERTEX
  5
92C9
  8
AM_0
 10
407.30573654202573
 20
58.370095020616681
 30
0.0
 70
    32
  0
VERTEX
  5
92CA
  8
AM_0
 10
407.30973654202552
 20
58.36839502061661
 30
0.0
 70
    32
  0
VERTEX
  5
92CB
  8
AM_0
 10
407.31373654202491
 20
58.366695020617009
 30
0.0
 70
    32
  0
VERTEX
  5
92CC
  8
AM_0
 10
407.31773654202482
 20
58.364995020616703
 30
0.0
 70
    32
  0
VERTEX
  5
92CD
  8
AM_0
 10
407.32173654202569
 20
58.363295020616683
 30
0.0
 70
    32
  0
VERTEX
  5
92CE
  8
AM_0
 10
407.3257365420265
 20
58.36159502061669
 30
0.0
 70
    32
  0
VERTEX
  5
92CF
  8
AM_0
 10
407.3297365420255
 20
58.359995020616822
 30
0.0
 70
    32
  0
VERTEX
  5
92D0
  8
AM_0
 10
407.33373654202489
 20
58.358295020616701
 30
0.0
 70
    32
  0
VERTEX
  5
92D1
  8
AM_0
 10
407.3377365420248
 20
58.35669502061652
 30
0.0
 70
    32
  0
VERTEX
  5
92D2
  8
AM_0
 10
407.34173654202561
 20
58.354995020617011
 30
0.0
 70
    32
  0
VERTEX
  5
92D3
  8
AM_0
 10
407.34573654202558
 20
58.353395020616681
 30
0.0
 70
    32
  0
VERTEX
  5
92D4
  8
AM_0
 10
407.34973654202508
 20
58.35169502061661
 30
0.0
 70
    32
  0
VERTEX
  5
92D5
  8
AM_0
 10
407.35373654202539
 20
58.350095020616912
 30
0.0
 70
    32
  0
VERTEX
  5
92D6
  8
AM_0
 10
407.35773654202478
 20
58.348495020616511
 30
0.0
 70
    32
  0
VERTEX
  5
92D7
  8
AM_0
 10
407.36173654202662
 20
58.346895020616891
 30
0.0
 70
    32
  0
VERTEX
  5
92D8
  8
AM_0
 10
407.3657365420251
 20
58.345195020616913
 30
0.0
 70
    32
  0
VERTEX
  5
92D9
  8
AM_0
 10
407.36973654202552
 20
58.343595020616611
 30
0.0
 70
    32
  0
VERTEX
  5
92DA
  8
AM_0
 10
407.37373654202491
 20
58.341995020616899
 30
0.0
 70
    32
  0
VERTEX
  5
92DB
  8
AM_0
 10
407.37773654202482
 20
58.340395020616711
 30
0.0
 70
    32
  0
VERTEX
  5
92DC
  8
AM_0
 10
407.38173654202552
 20
58.33889502061681
 30
0.0
 70
    32
  0
VERTEX
  5
92DD
  8
AM_0
 10
407.3857365420256
 20
58.337295020616601
 30
0.0
 70
    32
  0
VERTEX
  5
92DE
  8
AM_0
 10
407.38973654202488
 20
58.335695020616811
 30
0.0
 70
    32
  0
VERTEX
  5
92DF
  8
AM_0
 10
407.39373654202478
 20
58.3340950206168
 30
0.0
 70
    32
  0
VERTEX
  5
92E0
  8
AM_0
 10
407.3977365420256
 20
58.332595020616893
 30
0.0
 70
    32
  0
VERTEX
  5
92E1
  8
AM_0
 10
407.40173654202567
 20
58.330995020616598
 30
0.0
 70
    32
  0
VERTEX
  5
92E2
  8
AM_0
 10
407.40673654202652
 20
58.329395020616893
 30
0.0
 70
    32
  0
VERTEX
  5
92E3
  8
AM_0
 10
407.41073654202569
 20
58.327895020616502
 30
0.0
 70
    32
  0
VERTEX
  5
92E4
  8
AM_0
 10
407.41473654202548
 20
58.326395020616687
 30
0.0
 70
    32
  0
VERTEX
  5
92E5
  8
AM_0
 10
407.41873654202482
 20
58.324795020616683
 30
0.0
 70
    32
  0
VERTEX
  5
92E6
  8
AM_0
 10
407.42273654202478
 20
58.323295020616712
 30
0.0
 70
    32
  0
VERTEX
  5
92E7
  8
AM_0
 10
407.42673654202571
 20
58.321795020616896
 30
0.0
 70
    32
  0
VERTEX
  5
92E8
  8
AM_0
 10
407.4307365420255
 20
58.320195020616588
 30
0.0
 70
    32
  0
VERTEX
  5
92E9
  8
AM_0
 10
407.43473654202489
 20
58.318695020616587
 30
0.0
 70
    32
  0
VERTEX
  5
92EA
  8
AM_0
 10
407.43873654202491
 20
58.317195020616893
 30
0.0
 70
    32
  0
VERTEX
  5
92EB
  8
AM_0
 10
407.4427365420247
 20
58.315695020616609
 30
0.0
 70
    32
  0
VERTEX
  5
92EC
  8
AM_0
 10
407.44673654202649
 20
58.314195020616602
 30
0.0
 70
    32
  0
VERTEX
  5
92ED
  8
AM_0
 10
407.4507365420256
 20
58.312695020616893
 30
0.0
 70
    32
  0
VERTEX
  5
92EE
  8
AM_0
 10
407.4547365420251
 20
58.311195020616601
 30
0.0
 70
    32
  0
VERTEX
  5
92EF
  8
AM_0
 10
407.45873654202478
 20
58.309795020616683
 30
0.0
 70
    32
  0
VERTEX
  5
92F0
  8
AM_0
 10
407.46373654202512
 20
58.308295020616697
 30
0.0
 70
    32
  0
VERTEX
  5
92F1
  8
AM_0
 10
407.4677365420248
 20
58.306795020616697
 30
0.0
 70
    32
  0
VERTEX
  5
92F2
  8
AM_0
 10
407.47173654202481
 20
58.305295020616697
 30
0.0
 70
    32
  0
VERTEX
  5
92F3
  8
AM_0
 10
407.47573654202557
 20
58.303895020616601
 30
0.0
 70
    32
  0
VERTEX
  5
92F4
  8
AM_0
 10
407.47973654202468
 20
58.302395020616892
 30
0.0
 70
    32
  0
VERTEX
  5
92F5
  8
AM_0
 10
407.4837365420255
 20
58.300995020616917
 30
0.0
 70
    32
  0
VERTEX
  5
92F6
  8
AM_0
 10
407.487736542025
 20
58.299495020616611
 30
0.0
 70
    32
  0
VERTEX
  5
92F7
  8
AM_0
 10
407.49173654202662
 20
58.298095020616707
 30
0.0
 70
    32
  0
VERTEX
  5
92F8
  8
AM_0
 10
407.49573654202572
 20
58.296695020616589
 30
0.0
 70
    32
  0
VERTEX
  5
92F9
  8
AM_0
 10
407.49973654202557
 20
58.295295020616599
 30
0.0
 70
    32
  0
VERTEX
  5
92FA
  8
AM_0
 10
407.50473654202568
 20
58.293795020616912
 30
0.0
 70
    32
  0
VERTEX
  5
92FB
  8
AM_0
 10
407.50873654202468
 20
58.292395020616603
 30
0.0
 70
    32
  0
VERTEX
  5
92FC
  8
AM_0
 10
407.51273654202549
 20
58.290995020616911
 30
0.0
 70
    32
  0
VERTEX
  5
92FD
  8
AM_0
 10
407.516736542025
 20
58.289595020616602
 30
0.0
 70
    32
  0
VERTEX
  5
92FE
  8
AM_0
 10
407.52073654202479
 20
58.288195020616698
 30
0.0
 70
    32
  0
VERTEX
  5
92FF
  8
AM_0
 10
407.5247365420247
 20
58.286795020616601
 30
0.0
 70
    32
  0
VERTEX
  5
9300
  8
AM_0
 10
407.52873654202563
 20
58.285395020616591
 30
0.0
 70
    32
  0
VERTEX
  5
9301
  8
AM_0
 10
407.53273654202508
 20
58.283995020616679
 30
0.0
 70
    32
  0
VERTEX
  5
9302
  8
AM_0
 10
407.53673654202481
 20
58.282695020616707
 30
0.0
 70
    32
  0
VERTEX
  5
9303
  8
AM_0
 10
407.54173654202509
 20
58.28129502061671
 30
0.0
 70
    32
  0
VERTEX
  5
9304
  8
AM_0
 10
407.54573654202471
 20
58.279895020617012
 30
0.0
 70
    32
  0
VERTEX
  5
9305
  8
AM_0
 10
407.54973654202479
 20
58.278595020616699
 30
0.0
 70
    32
  0
VERTEX
  5
9306
  8
AM_0
 10
407.5537365420256
 20
58.277195020616809
 30
0.0
 70
    32
  0
VERTEX
  5
9307
  8
AM_0
 10
407.55773654202562
 20
58.275895020616701
 30
0.0
 70
    32
  0
VERTEX
  5
9308
  8
AM_0
 10
407.56173654202479
 20
58.274495020617003
 30
0.0
 70
    32
  0
VERTEX
  5
9309
  8
AM_0
 10
407.56573654202492
 20
58.273195020616697
 30
0.0
 70
    32
  0
VERTEX
  5
930A
  8
AM_0
 10
407.57073654202492
 20
58.271895020616711
 30
0.0
 70
    32
  0
VERTEX
  5
930B
  8
AM_0
 10
407.57473654202488
 20
58.2704950206167
 30
0.0
 70
    32
  0
VERTEX
  5
930C
  8
AM_0
 10
407.57873654202479
 20
58.269195020616699
 30
0.0
 70
    32
  0
VERTEX
  5
930D
  8
AM_0
 10
407.58273654202571
 20
58.267895020616599
 30
0.0
 70
    32
  0
VERTEX
  5
930E
  8
AM_0
 10
407.58673654202471
 20
58.266595020616599
 30
0.0
 70
    32
  0
VERTEX
  5
930F
  8
AM_0
 10
407.59073654202479
 20
58.265295020616811
 30
0.0
 70
    32
  0
VERTEX
  5
9310
  8
AM_0
 10
407.5947365420248
 20
58.26399502061669
 30
0.0
 70
    32
  0
VERTEX
  5
9311
  8
AM_0
 10
407.5997365420248
 20
58.262695020616697
 30
0.0
 70
    32
  0
VERTEX
  5
9312
  8
AM_0
 10
407.60373654202482
 20
58.261395020616888
 30
0.0
 70
    32
  0
VERTEX
  5
9313
  8
AM_0
 10
407.60773654202478
 20
58.260095020616809
 30
0.0
 70
    32
  0
VERTEX
  5
9314
  8
AM_0
 10
407.6117365420256
 20
58.258795020616702
 30
0.0
 70
    32
  0
VERTEX
  5
9315
  8
AM_0
 10
407.6157365420251
 20
58.257495020616609
 30
0.0
 70
    32
  0
VERTEX
  5
9316
  8
AM_0
 10
407.61973654202512
 20
58.256295020616811
 30
0.0
 70
    32
  0
VERTEX
  5
9317
  8
AM_0
 10
407.6237365420248
 20
58.254995020616711
 30
0.0
 70
    32
  0
VERTEX
  5
9318
  8
AM_0
 10
407.62873654202508
 20
58.253695020616611
 30
0.0
 70
    32
  0
VERTEX
  5
9319
  8
AM_0
 10
407.6327365420247
 20
58.252495020616692
 30
0.0
 70
    32
  0
VERTEX
  5
931A
  8
AM_0
 10
407.63673654202518
 20
58.251195020616599
 30
0.0
 70
    32
  0
VERTEX
  5
931B
  8
AM_0
 10
407.64073654202571
 20
58.2499950206169
 30
0.0
 70
    32
  0
VERTEX
  5
931C
  8
AM_0
 10
407.6447365420251
 20
58.248695020616701
 30
0.0
 70
    32
  0
VERTEX
  5
931D
  8
AM_0
 10
407.64873654202478
 20
58.247495020617002
 30
0.0
 70
    32
  0
VERTEX
  5
931E
  8
AM_0
 10
407.65373654202472
 20
58.2462950206165
 30
0.0
 70
    32
  0
VERTEX
  5
931F
  8
AM_0
 10
407.65773654202491
 20
58.244995020616606
 30
0.0
 70
    32
  0
VERTEX
  5
9320
  8
AM_0
 10
407.66173654202493
 20
58.243795020616894
 30
0.0
 70
    32
  0
VERTEX
  5
9321
  8
AM_0
 10
407.66573654202671
 20
58.242595020616811
 30
0.0
 70
    32
  0
VERTEX
  5
9322
  8
AM_0
 10
407.66973654202479
 20
58.241395020616601
 30
0.0
 70
    32
  0
VERTEX
  5
9323
  8
AM_0
 10
407.6737365420251
 20
58.240195020617001
 30
0.0
 70
    32
  0
VERTEX
  5
9324
  8
AM_0
 10
407.67873654202572
 20
58.238995020616713
 30
0.0
 70
    32
  0
VERTEX
  5
9325
  8
AM_0
 10
407.68273654202358
 20
58.237795020616609
 30
0.0
 70
    32
  0
VERTEX
  5
9326
  8
AM_0
 10
407.68673654202479
 20
58.23659502061691
 30
0.0
 70
    32
  0
VERTEX
  5
9327
  8
AM_0
 10
407.69073654202532
 20
58.2353950206167
 30
0.0
 70
    32
  0
VERTEX
  5
9328
  8
AM_0
 10
407.69473654202511
 20
58.23419502061661
 30
0.0
 70
    32
  0
VERTEX
  5
9329
  8
AM_0
 10
407.69973654202528
 20
58.23299502061689
 30
0.0
 70
    32
  0
VERTEX
  5
932A
  8
AM_0
 10
407.70373654202518
 20
58.231895020616513
 30
0.0
 70
    32
  0
VERTEX
  5
932B
  8
AM_0
 10
407.70773654202469
 20
58.2306950206167
 30
0.0
 70
    32
  0
VERTEX
  5
932C
  8
AM_0
 10
407.71173654202482
 20
58.229495020616703
 30
0.0
 70
    32
  0
VERTEX
  5
932D
  8
AM_0
 10
407.71573654202513
 20
58.228395020616901
 30
0.0
 70
    32
  0
VERTEX
  5
932E
  8
AM_0
 10
407.71973654202537
 20
58.227195020616811
 30
0.0
 70
    32
  0
VERTEX
  5
932F
  8
AM_0
 10
407.72473654202508
 20
58.22609502061659
 30
0.0
 70
    32
  0
VERTEX
  5
9330
  8
AM_0
 10
407.72873654202539
 20
58.224895020616891
 30
0.0
 70
    32
  0
VERTEX
  5
9331
  8
AM_0
 10
407.73273654202518
 20
58.2237950206165
 30
0.0
 70
    32
  0
VERTEX
  5
9332
  8
AM_0
 10
407.7367365420248
 20
58.222595020616588
 30
0.0
 70
    32
  0
VERTEX
  5
9333
  8
AM_0
 10
407.7407365420251
 20
58.221495020616608
 30
0.0
 70
    32
  0
VERTEX
  5
9334
  8
AM_0
 10
407.74573654202482
 20
58.220395020616998
 30
0.0
 70
    32
  0
VERTEX
  5
9335
  8
AM_0
 10
407.74973654202392
 20
58.219295020616713
 30
0.0
 70
    32
  0
VERTEX
  5
9336
  8
AM_0
 10
407.75373654202548
 20
58.218095020616609
 30
0.0
 70
    32
  0
VERTEX
  5
9337
  8
AM_0
 10
407.75773654202533
 20
58.216995020616601
 30
0.0
 70
    32
  0
VERTEX
  5
9338
  8
AM_0
 10
407.76173654202518
 20
58.215895020617012
 30
0.0
 70
    32
  0
VERTEX
  5
9339
  8
AM_0
 10
407.76673654202528
 20
58.214795020616698
 30
0.0
 70
    32
  0
VERTEX
  5
933A
  8
AM_0
 10
407.7707365420253
 20
58.213695020616711
 30
0.0
 70
    32
  0
VERTEX
  5
933B
  8
AM_0
 10
407.77473654202493
 20
58.212595020616611
 30
0.0
 70
    32
  0
VERTEX
  5
933C
  8
AM_0
 10
407.77873654202472
 20
58.211495020616702
 30
0.0
 70
    32
  0
VERTEX
  5
933D
  8
AM_0
 10
407.78373654202483
 20
58.210495020616811
 30
0.0
 70
    32
  0
VERTEX
  5
933E
  8
AM_0
 10
407.78773654202382
 20
58.209395020616697
 30
0.0
 70
    32
  0
VERTEX
  5
933F
  8
AM_0
 10
407.79173654202549
 20
58.208295020616703
 30
0.0
 70
    32
  0
VERTEX
  5
9340
  8
AM_0
 10
407.79573654202528
 20
58.207195020616503
 30
0.0
 70
    32
  0
VERTEX
  5
9341
  8
AM_0
 10
407.7997365420253
 20
58.206195020616597
 30
0.0
 70
    32
  0
VERTEX
  5
9342
  8
AM_0
 10
407.80473654202541
 20
58.205095020617001
 30
0.0
 70
    32
  0
VERTEX
  5
9343
  8
AM_0
 10
407.80873654202537
 20
58.204095020616712
 30
0.0
 70
    32
  0
VERTEX
  5
9344
  8
AM_0
 10
407.81273654202482
 20
58.202995020616697
 30
0.0
 70
    32
  0
VERTEX
  5
9345
  8
AM_0
 10
407.81673654202552
 20
58.2019950206167
 30
0.0
 70
    32
  0
VERTEX
  5
9346
  8
AM_0
 10
407.82073654202549
 20
58.2008950206165
 30
0.0
 70
    32
  0
VERTEX
  5
9347
  8
AM_0
 10
407.82573654202548
 20
58.199895020616601
 30
0.0
 70
    32
  0
VERTEX
  5
9348
  8
AM_0
 10
407.8297365420255
 20
58.198895020616703
 30
0.0
 70
    32
  0
VERTEX
  5
9349
  8
AM_0
 10
407.83373654202541
 20
58.197795020616702
 30
0.0
 70
    32
  0
VERTEX
  5
934A
  8
AM_0
 10
407.83773654202508
 20
58.196795020616712
 30
0.0
 70
    32
  0
VERTEX
  5
934B
  8
AM_0
 10
407.84273654202542
 20
58.195795020616707
 30
0.0
 70
    32
  0
VERTEX
  5
934C
  8
AM_0
 10
407.84673654202521
 20
58.194795020616702
 30
0.0
 70
    32
  0
VERTEX
  5
934D
  8
AM_0
 10
407.85073654202478
 20
58.19379502061701
 30
0.0
 70
    32
  0
VERTEX
  5
934E
  8
AM_0
 10
407.85473654202559
 20
58.192795020616501
 30
0.0
 70
    32
  0
VERTEX
  5
934F
  8
AM_0
 10
407.8587365420255
 20
58.19179502061651
 30
0.0
 70
    32
  0
VERTEX
  5
9350
  8
AM_0
 10
407.86373654202561
 20
58.19079502061669
 30
0.0
 70
    32
  0
VERTEX
  5
9351
  8
AM_0
 10
407.8677365420254
 20
58.189795020616891
 30
0.0
 70
    32
  0
VERTEX
  5
9352
  8
AM_0
 10
407.87173654202547
 20
58.188795020616702
 30
0.0
 70
    32
  0
VERTEX
  5
9353
  8
AM_0
 10
407.87573654202509
 20
58.1878950206167
 30
0.0
 70
    32
  0
VERTEX
  5
9354
  8
AM_0
 10
407.88073654202492
 20
58.186895020616682
 30
0.0
 70
    32
  0
VERTEX
  5
9355
  8
AM_0
 10
407.88473654202511
 20
58.185895020616698
 30
0.0
 70
    32
  0
VERTEX
  5
9356
  8
AM_0
 10
407.88873654202558
 20
58.184995020616697
 30
0.0
 70
    32
  0
VERTEX
  5
9357
  8
AM_0
 10
407.8927365420256
 20
58.183995020616798
 30
0.0
 70
    32
  0
VERTEX
  5
9358
  8
AM_0
 10
407.8977365420256
 20
58.182995020617007
 30
0.0
 70
    32
  0
VERTEX
  5
9359
  8
AM_0
 10
407.90173654202567
 20
58.182095020616913
 30
0.0
 70
    32
  0
VERTEX
  5
935A
  8
AM_0
 10
407.90573654202552
 20
58.181095020616588
 30
0.0
 70
    32
  0
VERTEX
  5
935B
  8
AM_0
 10
407.90973654202543
 20
58.180195020616601
 30
0.0
 70
    32
  0
VERTEX
  5
935C
  8
AM_0
 10
407.91473654202548
 20
58.179295020616522
 30
0.0
 70
    32
  0
VERTEX
  5
935D
  8
AM_0
 10
407.91873654202487
 20
58.178295020616702
 30
0.0
 70
    32
  0
VERTEX
  5
935E
  8
AM_0
 10
407.92273654202529
 20
58.1773950206167
 30
0.0
 70
    32
  0
VERTEX
  5
935F
  8
AM_0
 10
407.92673654202571
 20
58.176495020616997
 30
0.0
 70
    32
  0
VERTEX
  5
9360
  8
AM_0
 10
407.93173654202542
 20
58.175595020616697
 30
0.0
 70
    32
  0
VERTEX
  5
9361
  8
AM_0
 10
407.93573654202481
 20
58.174695020616703
 30
0.0
 70
    32
  0
VERTEX
  5
9362
  8
AM_0
 10
407.93973654202551
 20
58.173795020616701
 30
0.0
 70
    32
  0
VERTEX
  5
9363
  8
AM_0
 10
407.94373654202559
 20
58.1728950206167
 30
0.0
 70
    32
  0
VERTEX
  5
9364
  8
AM_0
 10
407.9487365420257
 20
58.171995020616698
 30
0.0
 70
    32
  0
VERTEX
  5
9365
  8
AM_0
 10
407.9527365420256
 20
58.171095020616683
 30
0.0
 70
    32
  0
VERTEX
  5
9366
  8
AM_0
 10
407.956736542025
 20
58.170195020616681
 30
0.0
 70
    32
  0
VERTEX
  5
9367
  8
AM_0
 10
407.96073654202547
 20
58.16929502061668
 30
0.0
 70
    32
  0
VERTEX
  5
9368
  8
AM_0
 10
407.96573654202552
 20
58.168395020616892
 30
0.0
 70
    32
  0
VERTEX
  5
9369
  8
AM_0
 10
407.96973654202492
 20
58.167495020616713
 30
0.0
 70
    32
  0
VERTEX
  5
936A
  8
AM_0
 10
407.97373654202482
 20
58.166695020616501
 30
0.0
 70
    32
  0
VERTEX
  5
936B
  8
AM_0
 10
407.97773654202553
 20
58.165795020616493
 30
0.0
 70
    32
  0
VERTEX
  5
936C
  8
AM_0
 10
407.98273654202518
 20
58.164895020616598
 30
0.0
 70
    32
  0
VERTEX
  5
936D
  8
AM_0
 10
407.98673654202548
 20
58.16409502061699
 30
0.0
 70
    32
  0
VERTEX
  5
936E
  8
AM_0
 10
407.99073654202562
 20
58.163195020616897
 30
0.0
 70
    32
  0
VERTEX
  5
936F
  8
AM_0
 10
407.99473654202512
 20
58.162395020616913
 30
0.0
 70
    32
  0
VERTEX
  5
9370
  8
AM_0
 10
407.99973654202557
 20
58.161495020616911
 30
0.0
 70
    32
  0
VERTEX
  5
9371
  8
AM_0
 10
408.00373654202548
 20
58.160695020616693
 30
0.0
 70
    32
  0
VERTEX
  5
9372
  8
AM_0
 10
408.00773654202482
 20
58.159795020616613
 30
0.0
 70
    32
  0
VERTEX
  5
9373
  8
AM_0
 10
408.01173654202478
 20
58.158995020616608
 30
0.0
 70
    32
  0
VERTEX
  5
9374
  8
AM_0
 10
408.01673654202477
 20
58.158195020616681
 30
0.0
 70
    32
  0
VERTEX
  5
9375
  8
AM_0
 10
408.02073654202519
 20
58.157395020616903
 30
0.0
 70
    32
  0
VERTEX
  5
9376
  8
AM_0
 10
408.02473654202561
 20
58.156495020616809
 30
0.0
 70
    32
  0
VERTEX
  5
9377
  8
AM_0
 10
408.02973654202481
 20
58.155695020616591
 30
0.0
 70
    32
  0
VERTEX
  5
9378
  8
AM_0
 10
408.03373654202562
 20
58.154895020616692
 30
0.0
 70
    32
  0
VERTEX
  5
9379
  8
AM_0
 10
408.03773654202558
 20
58.154095020617
 30
0.0
 70
    32
  0
VERTEX
  5
937A
  8
AM_0
 10
408.04173654202549
 20
58.153295020617001
 30
0.0
 70
    32
  0
VERTEX
  5
937B
  8
AM_0
 10
408.0467365420256
 20
58.152495020617003
 30
0.0
 70
    32
  0
VERTEX
  5
937C
  8
AM_0
 10
408.05073654202539
 20
58.1516950206166
 30
0.0
 70
    32
  0
VERTEX
  5
937D
  8
AM_0
 10
408.05473654202478
 20
58.150895020616609
 30
0.0
 70
    32
  0
VERTEX
  5
937E
  8
AM_0
 10
408.0587365420248
 20
58.150095020616703
 30
0.0
 70
    32
  0
VERTEX
  5
937F
  8
AM_0
 10
408.06373654202491
 20
58.149295020616911
 30
0.0
 70
    32
  0
VERTEX
  5
9380
  8
AM_0
 10
408.06773654202482
 20
58.148595020616703
 30
0.0
 70
    32
  0
VERTEX
  5
9381
  8
AM_0
 10
408.07173654202558
 20
58.147795020616819
 30
0.0
 70
    32
  0
VERTEX
  5
9382
  8
AM_0
 10
408.07673654202358
 20
58.146995020616892
 30
0.0
 70
    32
  0
VERTEX
  5
9383
  8
AM_0
 10
408.08073654202559
 20
58.14619502061668
 30
0.0
 70
    32
  0
VERTEX
  5
9384
  8
AM_0
 10
408.08473654202572
 20
58.1454950206166
 30
0.0
 70
    32
  0
VERTEX
  5
9385
  8
AM_0
 10
408.08873654202552
 20
58.144695020616702
 30
0.0
 70
    32
  0
VERTEX
  5
9386
  8
AM_0
 10
408.09373654202568
 20
58.143995020616721
 30
0.0
 70
    32
  0
VERTEX
  5
9387
  8
AM_0
 10
408.09773654202689
 20
58.14319502061668
 30
0.0
 70
    32
  0
VERTEX
  5
9388
  8
AM_0
 10
408.10173654202492
 20
58.142495020616991
 30
0.0
 70
    32
  0
VERTEX
  5
9389
  8
AM_0
 10
408.10673654202549
 20
58.141695020616702
 30
0.0
 70
    32
  0
VERTEX
  5
938A
  8
AM_0
 10
408.11073654202551
 20
58.140995020616707
 30
0.0
 70
    32
  0
VERTEX
  5
938B
  8
AM_0
 10
408.11473654202348
 20
58.140295020616811
 30
0.0
 70
    32
  0
VERTEX
  5
938C
  8
AM_0
 10
408.1187365420256
 20
58.1394950206166
 30
0.0
 70
    32
  0
VERTEX
  5
938D
  8
AM_0
 10
408.1237365420248
 20
58.138795020616897
 30
0.0
 70
    32
  0
VERTEX
  5
938E
  8
AM_0
 10
408.12773654202471
 20
58.138095020616682
 30
0.0
 70
    32
  0
VERTEX
  5
938F
  8
AM_0
 10
408.13173654202569
 20
58.137395020616601
 30
0.0
 70
    32
  0
VERTEX
  5
9390
  8
AM_0
 10
408.13673654202478
 20
58.13659502061661
 30
0.0
 70
    32
  0
VERTEX
  5
9391
  8
AM_0
 10
408.14073654202571
 20
58.135895020616687
 30
0.0
 70
    32
  0
VERTEX
  5
9392
  8
AM_0
 10
408.14473654202561
 20
58.135195020616798
 30
0.0
 70
    32
  0
VERTEX
  5
9393
  8
AM_0
 10
408.14873654202552
 20
58.134495020616697
 30
0.0
 70
    32
  0
VERTEX
  5
9394
  8
AM_0
 10
408.1537365420246
 20
58.133795020616603
 30
0.0
 70
    32
  0
VERTEX
  5
9395
  8
AM_0
 10
408.15773654202548
 20
58.133095020616921
 30
0.0
 70
    32
  0
VERTEX
  5
9396
  8
AM_0
 10
408.16173654202493
 20
58.132395020616698
 30
0.0
 70
    32
  0
VERTEX
  5
9397
  8
AM_0
 10
408.16673654202492
 20
58.1317950206167
 30
0.0
 70
    32
  0
VERTEX
  5
9398
  8
AM_0
 10
408.170736542025
 20
58.131095020616499
 30
0.0
 70
    32
  0
VERTEX
  5
9399
  8
AM_0
 10
408.17473654202479
 20
58.130395020616803
 30
0.0
 70
    32
  0
VERTEX
  5
939A
  8
AM_0
 10
408.1787365420256
 20
58.129695020616701
 30
0.0
 70
    32
  0
VERTEX
  5
939B
  8
AM_0
 10
408.1837365420248
 20
58.128995020616998
 30
0.0
 70
    32
  0
VERTEX
  5
939C
  8
AM_0
 10
408.18773654202658
 20
58.128395020616601
 30
0.0
 70
    32
  0
VERTEX
  5
939D
  8
AM_0
 10
408.19173654202473
 20
58.127695020616912
 30
0.0
 70
    32
  0
VERTEX
  5
939E
  8
AM_0
 10
408.19673654202671
 20
58.127095020616807
 30
0.0
 70
    32
  0
VERTEX
  5
939F
  8
AM_0
 10
408.20073654202548
 20
58.126395020616712
 30
0.0
 70
    32
  0
VERTEX
  5
93A0
  8
AM_0
 10
408.20473654202488
 20
58.125695020616611
 30
0.0
 70
    32
  0
VERTEX
  5
93A1
  8
AM_0
 10
408.20873654202489
 20
58.125095020616698
 30
0.0
 70
    32
  0
VERTEX
  5
93A2
  8
AM_0
 10
408.21373654202489
 20
58.124495020616898
 30
0.0
 70
    32
  0
VERTEX
  5
93A3
  8
AM_0
 10
408.21773654202542
 20
58.123795020616591
 30
0.0
 70
    32
  0
VERTEX
  5
93A4
  8
AM_0
 10
408.2217365420247
 20
58.123195020616897
 30
0.0
 70
    32
  0
VERTEX
  5
93A5
  8
AM_0
 10
408.22673654202492
 20
58.122495020616697
 30
0.0
 70
    32
  0
VERTEX
  5
93A6
  8
AM_0
 10
408.23073654202472
 20
58.121895020616698
 30
0.0
 70
    32
  0
VERTEX
  5
93A7
  8
AM_0
 10
408.23473654202581
 20
58.121295020616706
 30
0.0
 70
    32
  0
VERTEX
  5
93A8
  8
AM_0
 10
408.23973654202479
 20
58.120695020616701
 30
0.0
 70
    32
  0
VERTEX
  5
93A9
  8
AM_0
 10
408.24373654202577
 20
58.120095020616702
 30
0.0
 70
    32
  0
VERTEX
  5
93AA
  8
AM_0
 10
408.24773654202562
 20
58.119395020616899
 30
0.0
 70
    32
  0
VERTEX
  5
93AB
  8
AM_0
 10
408.25273654202482
 20
58.11879502061668
 30
0.0
 70
    32
  0
VERTEX
  5
93AC
  8
AM_0
 10
408.25673654202552
 20
58.118195020617001
 30
0.0
 70
    32
  0
VERTEX
  5
93AD
  8
AM_0
 10
408.26073654202497
 20
58.117595020617003
 30
0.0
 70
    32
  0
VERTEX
  5
93AE
  8
AM_0
 10
408.26473654202488
 20
58.116995020616713
 30
0.0
 70
    32
  0
VERTEX
  5
93AF
  8
AM_0
 10
408.26973654202561
 20
58.116395020616913
 30
0.0
 70
    32
  0
VERTEX
  5
93B0
  8
AM_0
 10
408.27373654202478
 20
58.115795020617
 30
0.0
 70
    32
  0
VERTEX
  5
93B1
  8
AM_0
 10
408.27773654202679
 20
58.11519502061671
 30
0.0
 70
    32
  0
VERTEX
  5
93B2
  8
AM_0
 10
408.28273654202479
 20
58.114695020616701
 30
0.0
 70
    32
  0
VERTEX
  5
93B3
  8
AM_0
 10
408.28673654202481
 20
58.114095020616602
 30
0.0
 70
    32
  0
VERTEX
  5
93B4
  8
AM_0
 10
408.29073654202477
 20
58.113495020616703
 30
0.0
 70
    32
  0
VERTEX
  5
93B5
  8
AM_0
 10
408.295736542025
 20
58.112895020616691
 30
0.0
 70
    32
  0
VERTEX
  5
93B6
  8
AM_0
 10
408.29973654202479
 20
58.112395020616887
 30
0.0
 70
    32
  0
VERTEX
  5
93B7
  8
AM_0
 10
408.3037365420256
 20
58.111795020616697
 30
0.0
 70
    32
  0
VERTEX
  5
93B8
  8
AM_0
 10
408.30773654202562
 20
58.111195020616599
 30
0.0
 70
    32
  0
VERTEX
  5
93B9
  8
AM_0
 10
408.31273654202482
 20
58.110695020616703
 30
0.0
 70
    32
  0
VERTEX
  5
93BA
  8
AM_0
 10
408.31673654202558
 20
58.110095020616903
 30
0.0
 70
    32
  0
VERTEX
  5
93BB
  8
AM_0
 10
408.32073654202509
 20
58.109595020616602
 30
0.0
 70
    32
  0
VERTEX
  5
93BC
  8
AM_0
 10
408.3257365420256
 20
58.108995020616611
 30
0.0
 70
    32
  0
VERTEX
  5
93BD
  8
AM_0
 10
408.3297365420251
 20
58.108495020616601
 30
0.0
 70
    32
  0
VERTEX
  5
93BE
  8
AM_0
 10
408.33373654202478
 20
58.107995020616698
 30
0.0
 70
    32
  0
VERTEX
  5
93BF
  8
AM_0
 10
408.33873654202552
 20
58.107395020616799
 30
0.0
 70
    32
  0
VERTEX
  5
93C0
  8
AM_0
 10
408.3427365420248
 20
58.106895020616591
 30
0.0
 70
    32
  0
VERTEX
  5
93C1
  8
AM_0
 10
408.34673654202481
 20
58.106395020616681
 30
0.0
 70
    32
  0
VERTEX
  5
93C2
  8
AM_0
 10
408.35173654202492
 20
58.105795020616597
 30
0.0
 70
    32
  0
VERTEX
  5
93C3
  8
AM_0
 10
408.35573654202477
 20
58.105295020616701
 30
0.0
 70
    32
  0
VERTEX
  5
93C4
  8
AM_0
 10
408.35973654202559
 20
58.104795020616713
 30
0.0
 70
    32
  0
VERTEX
  5
93C5
  8
AM_0
 10
408.36473654202479
 20
58.104295020616902
 30
0.0
 70
    32
  0
VERTEX
  5
93C6
  8
AM_0
 10
408.36873654202572
 20
58.103795020616808
 30
0.0
 70
    32
  0
VERTEX
  5
93C7
  8
AM_0
 10
408.37273654202471
 20
58.103295020616599
 30
0.0
 70
    32
  0
VERTEX
  5
93C8
  8
AM_0
 10
408.37773654202482
 20
58.102795020616703
 30
0.0
 70
    32
  0
VERTEX
  5
93C9
  8
AM_0
 10
408.38173654202473
 20
58.102295020616999
 30
0.0
 70
    32
  0
VERTEX
  5
93CA
  8
AM_0
 10
408.38573654202497
 20
58.101795020616599
 30
0.0
 70
    32
  0
VERTEX
  5
93CB
  8
AM_0
 10
408.38973654202488
 20
58.101295020616512
 30
0.0
 70
    32
  0
VERTEX
  5
93CC
  8
AM_0
 10
408.3947365420251
 20
58.10079502061668
 30
0.0
 70
    32
  0
VERTEX
  5
93CD
  8
AM_0
 10
408.39873654202489
 20
58.10039502061661
 30
0.0
 70
    32
  0
VERTEX
  5
93CE
  8
AM_0
 10
408.40273654202679
 20
58.099895020616607
 30
0.0
 70
    32
  0
VERTEX
  5
93CF
  8
AM_0
 10
408.40773654202508
 20
58.099395020616697
 30
0.0
 70
    32
  0
VERTEX
  5
93D0
  8
AM_0
 10
408.41173654202481
 20
58.098995020616613
 30
0.0
 70
    32
  0
VERTEX
  5
93D1
  8
AM_0
 10
408.41573654202648
 20
58.098495020616703
 30
0.0
 70
    32
  0
VERTEX
  5
93D2
  8
AM_0
 10
408.42073654202471
 20
58.097995020616892
 30
0.0
 70
    32
  0
VERTEX
  5
93D3
  8
AM_0
 10
408.42473654202519
 20
58.097595020616588
 30
0.0
 70
    32
  0
VERTEX
  5
93D4
  8
AM_0
 10
408.4287365420256
 20
58.097195020616603
 30
0.0
 70
    32
  0
VERTEX
  5
93D5
  8
AM_0
 10
408.43373654202509
 20
58.096695020616693
 30
0.0
 70
    32
  0
VERTEX
  5
93D6
  8
AM_0
 10
408.43773654202562
 20
58.096295020616601
 30
0.0
 70
    32
  0
VERTEX
  5
93D7
  8
AM_0
 10
408.44173654202478
 20
58.095795020616599
 30
0.0
 70
    32
  0
VERTEX
  5
93D8
  8
AM_0
 10
408.44673654202558
 20
58.0953950206166
 30
0.0
 70
    32
  0
VERTEX
  5
93D9
  8
AM_0
 10
408.45073654202469
 20
58.094995020616601
 30
0.0
 70
    32
  0
VERTEX
  5
93DA
  8
AM_0
 10
408.4547365420251
 20
58.094595020616602
 30
0.0
 70
    32
  0
VERTEX
  5
93DB
  8
AM_0
 10
408.45973654202561
 20
58.094095020616599
 30
0.0
 70
    32
  0
VERTEX
  5
93DC
  8
AM_0
 10
408.46373654202517
 20
58.0936950206166
 30
0.0
 70
    32
  0
VERTEX
  5
93DD
  8
AM_0
 10
408.4677365420248
 20
58.093295020616807
 30
0.0
 70
    32
  0
VERTEX
  5
93DE
  8
AM_0
 10
408.47273654202502
 20
58.092895020616702
 30
0.0
 70
    32
  0
VERTEX
  5
93DF
  8
AM_0
 10
408.47673654202481
 20
58.092495020617001
 30
0.0
 70
    32
  0
VERTEX
  5
93E0
  8
AM_0
 10
408.48073654202511
 20
58.092095020616902
 30
0.0
 70
    32
  0
VERTEX
  5
93E1
  8
AM_0
 10
408.48573654202488
 20
58.091695020616811
 30
0.0
 70
    32
  0
VERTEX
  5
93E2
  8
AM_0
 10
408.48973654202518
 20
58.091395020616503
 30
0.0
 70
    32
  0
VERTEX
  5
93E3
  8
AM_0
 10
408.49373654202481
 20
58.090995020616703
 30
0.0
 70
    32
  0
VERTEX
  5
93E4
  8
AM_0
 10
408.4987365420252
 20
58.09059502061681
 30
0.0
 70
    32
  0
VERTEX
  5
93E5
  8
AM_0
 10
408.50273654202482
 20
58.090195020616683
 30
0.0
 70
    32
  0
VERTEX
  5
93E6
  8
AM_0
 10
408.50673654202569
 20
58.089895020616922
 30
0.0
 70
    32
  0
VERTEX
  5
93E7
  8
AM_0
 10
408.51173654202518
 20
58.089495020616823
 30
0.0
 70
    32
  0
VERTEX
  5
93E8
  8
AM_0
 10
408.5157365420248
 20
58.08909502061659
 30
0.0
 70
    32
  0
VERTEX
  5
93E9
  8
AM_0
 10
408.5197365420251
 20
58.088795020616992
 30
0.0
 70
    32
  0
VERTEX
  5
93EA
  8
AM_0
 10
408.52473654202481
 20
58.088395020616687
 30
0.0
 70
    32
  0
VERTEX
  5
93EB
  8
AM_0
 10
408.52873654202472
 20
58.088095020616898
 30
0.0
 70
    32
  0
VERTEX
  5
93EC
  8
AM_0
 10
408.53273654202548
 20
58.087795020616497
 30
0.0
 70
    32
  0
VERTEX
  5
93ED
  8
AM_0
 10
408.53773654202479
 20
58.08739502061659
 30
0.0
 70
    32
  0
VERTEX
  5
93EE
  8
AM_0
 10
408.54173654202549
 20
58.087095020616893
 30
0.0
 70
    32
  0
VERTEX
  5
93EF
  8
AM_0
 10
408.54573654202528
 20
58.086795020616798
 30
0.0
 70
    32
  0
VERTEX
  5
93F0
  8
AM_0
 10
408.55073654202539
 20
58.086495020616702
 30
0.0
 70
    32
  0
VERTEX
  5
93F1
  8
AM_0
 10
408.55473654202541
 20
58.086095020617002
 30
0.0
 70
    32
  0
VERTEX
  5
93F2
  8
AM_0
 10
408.55873654202509
 20
58.085795020616999
 30
0.0
 70
    32
  0
VERTEX
  5
93F3
  8
AM_0
 10
408.56373654202548
 20
58.085495020616591
 30
0.0
 70
    32
  0
VERTEX
  5
93F4
  8
AM_0
 10
408.5677365420251
 20
58.085195020616808
 30
0.0
 70
    32
  0
VERTEX
  5
93F5
  8
AM_0
 10
408.57173654202478
 20
58.084895020616891
 30
0.0
 70
    32
  0
VERTEX
  5
93F6
  8
AM_0
 10
408.57673654202512
 20
58.084595020616682
 30
0.0
 70
    32
  0
VERTEX
  5
93F7
  8
AM_0
 10
408.58073654202559
 20
58.084295020616921
 30
0.0
 70
    32
  0
VERTEX
  5
93F8
  8
AM_0
 10
408.58473654202379
 20
58.083995020616889
 30
0.0
 70
    32
  0
VERTEX
  5
93F9
  8
AM_0
 10
408.58973654202521
 20
58.083695020616609
 30
0.0
 70
    32
  0
VERTEX
  5
93FA
  8
AM_0
 10
408.59373654202483
 20
58.083495020616887
 30
0.0
 70
    32
  0
VERTEX
  5
93FB
  8
AM_0
 10
408.59773654202547
 20
58.083195020616706
 30
0.0
 70
    32
  0
VERTEX
  5
93FC
  8
AM_0
 10
408.60273654202479
 20
58.082895020616682
 30
0.0
 70
    32
  0
VERTEX
  5
93FD
  8
AM_0
 10
408.60673654202549
 20
58.082595020616999
 30
0.0
 70
    32
  0
VERTEX
  5
93FE
  8
AM_0
 10
408.61073654202551
 20
58.082395020616502
 30
0.0
 70
    32
  0
VERTEX
  5
93FF
  8
AM_0
 10
408.61573654202539
 20
58.082095020616713
 30
0.0
 70
    32
  0
VERTEX
  5
9400
  8
AM_0
 10
408.61973654202552
 20
58.081895020616699
 30
0.0
 70
    32
  0
VERTEX
  5
9401
  8
AM_0
 10
408.62373654202491
 20
58.081595020616888
 30
0.0
 70
    32
  0
VERTEX
  5
9402
  8
AM_0
 10
408.62873654202548
 20
58.081395020616711
 30
0.0
 70
    32
  0
VERTEX
  5
9403
  8
AM_0
 10
408.63273654202533
 20
58.081095020616679
 30
0.0
 70
    32
  0
VERTEX
  5
9404
  8
AM_0
 10
408.63673654202478
 20
58.080895020616801
 30
0.0
 70
    32
  0
VERTEX
  5
9405
  8
AM_0
 10
408.6417365420254
 20
58.080595020616499
 30
0.0
 70
    32
  0
VERTEX
  5
9406
  8
AM_0
 10
408.64573654202479
 20
58.080395020616812
 30
0.0
 70
    32
  0
VERTEX
  5
9407
  8
AM_0
 10
408.64973654202561
 20
58.080195020616607
 30
0.0
 70
    32
  0
VERTEX
  5
9408
  8
AM_0
 10
408.65473654202492
 20
58.0799950206167
 30
0.0
 70
    32
  0
VERTEX
  5
9409
  8
AM_0
 10
408.65873654202562
 20
58.079695020616498
 30
0.0
 70
    32
  0
VERTEX
  5
940A
  8
AM_0
 10
408.66273654202553
 20
58.079495020616903
 30
0.0
 70
    32
  0
VERTEX
  5
940B
  8
AM_0
 10
408.66773654202558
 20
58.079295020616613
 30
0.0
 70
    32
  0
VERTEX
  5
940C
  8
AM_0
 10
408.67173654202549
 20
58.079095020616698
 30
0.0
 70
    32
  0
VERTEX
  5
940D
  8
AM_0
 10
408.6757365420255
 20
58.078895020616912
 30
0.0
 70
    32
  0
VERTEX
  5
940E
  8
AM_0
 10
408.68073654202573
 20
58.078695020616699
 30
0.0
 70
    32
  0
VERTEX
  5
940F
  8
AM_0
 10
408.68473654202552
 20
58.078495020616892
 30
0.0
 70
    32
  0
VERTEX
  5
9410
  8
AM_0
 10
408.68873654202531
 20
58.078295020616601
 30
0.0
 70
    32
  0
VERTEX
  5
9411
  8
AM_0
 10
408.69373654202548
 20
58.078095020616892
 30
0.0
 70
    32
  0
VERTEX
  5
9412
  8
AM_0
 10
408.6977365420255
 20
58.077895020616502
 30
0.0
 70
    32
  0
VERTEX
  5
9413
  8
AM_0
 10
408.7017365420254
 20
58.077695020616808
 30
0.0
 70
    32
  0
VERTEX
  5
9414
  8
AM_0
 10
408.70673654202488
 20
58.077495020616603
 30
0.0
 70
    32
  0
VERTEX
  5
9415
  8
AM_0
 10
408.71073654202542
 20
58.077295020616681
 30
0.0
 70
    32
  0
VERTEX
  5
9416
  8
AM_0
 10
408.71473654202481
 20
58.077195020617012
 30
0.0
 70
    32
  0
VERTEX
  5
9417
  8
AM_0
 10
408.71973654202532
 20
58.076995020616522
 30
0.0
 70
    32
  0
VERTEX
  5
9418
  8
AM_0
 10
408.72373654202482
 20
58.076795020616913
 30
0.0
 70
    32
  0
VERTEX
  5
9419
  8
AM_0
 10
408.72873654202488
 20
58.076695020616711
 30
0.0
 70
    32
  0
VERTEX
  5
941A
  8
AM_0
 10
408.73273654202518
 20
58.076495020616598
 30
0.0
 70
    32
  0
VERTEX
  5
941B
  8
AM_0
 10
408.7367365420256
 20
58.076295020616897
 30
0.0
 70
    32
  0
VERTEX
  5
941C
  8
AM_0
 10
408.74173654202491
 20
58.076195020616893
 30
0.0
 70
    32
  0
VERTEX
  5
941D
  8
AM_0
 10
408.74573654202561
 20
58.075995020616702
 30
0.0
 70
    32
  0
VERTEX
  5
941E
  8
AM_0
 10
408.74973654202557
 20
58.075895020616912
 30
0.0
 70
    32
  0
VERTEX
  5
941F
  8
AM_0
 10
408.75473654202563
 20
58.0756950206166
 30
0.0
 70
    32
  0
VERTEX
  5
9420
  8
AM_0
 10
408.75873654202547
 20
58.07559502061661
 30
0.0
 70
    32
  0
VERTEX
  5
9421
  8
AM_0
 10
408.76273654202549
 20
58.075495020616721
 30
0.0
 70
    32
  0
VERTEX
  5
9422
  8
AM_0
 10
408.7677365420256
 20
58.075295020616998
 30
0.0
 70
    32
  0
VERTEX
  5
9423
  8
AM_0
 10
408.77173654202551
 20
58.075195020616597
 30
0.0
 70
    32
  0
VERTEX
  5
9424
  8
AM_0
 10
408.7757365420249
 20
58.0750950206167
 30
0.0
 70
    32
  0
VERTEX
  5
9425
  8
AM_0
 10
408.78073654202552
 20
58.074995020616889
 30
0.0
 70
    32
  0
VERTEX
  5
9426
  8
AM_0
 10
408.78473654202543
 20
58.074895020616701
 30
0.0
 70
    32
  0
VERTEX
  5
9427
  8
AM_0
 10
408.78873654202482
 20
58.074795020616598
 30
0.0
 70
    32
  0
VERTEX
  5
9428
  8
AM_0
 10
408.7937365420255
 20
58.074595020616712
 30
0.0
 70
    32
  0
VERTEX
  5
9429
  8
AM_0
 10
408.79773654202478
 20
58.074495020617
 30
0.0
 70
    32
  0
VERTEX
  5
942A
  8
AM_0
 10
408.80173654202571
 20
58.074395020616798
 30
0.0
 70
    32
  0
VERTEX
  5
942B
  8
AM_0
 10
408.80673654202479
 20
58.07429502061651
 30
0.0
 70
    32
  0
VERTEX
  5
942C
  8
AM_0
 10
408.81073654202339
 20
58.07429502061651
 30
0.0
 70
    32
  0
VERTEX
  5
942D
  8
AM_0
 10
408.81473654202563
 20
58.074195020616912
 30
0.0
 70
    32
  0
VERTEX
  5
942E
  8
AM_0
 10
408.81973654202341
 20
58.074095020617001
 30
0.0
 70
    32
  0
VERTEX
  5
942F
  8
AM_0
 10
408.8237365420257
 20
58.073995020616699
 30
0.0
 70
    32
  0
VERTEX
  5
9430
  8
AM_0
 10
408.8277365420256
 20
58.073895020616611
 30
0.0
 70
    32
  0
VERTEX
  5
9431
  8
AM_0
 10
408.8327365420256
 20
58.073895020616611
 30
0.0
 70
    32
  0
VERTEX
  5
9432
  8
AM_0
 10
408.83673654202562
 20
58.073795020616679
 30
0.0
 70
    32
  0
VERTEX
  5
9433
  8
AM_0
 10
408.84073654202552
 20
58.073695020616888
 30
0.0
 70
    32
  0
VERTEX
  5
9434
  8
AM_0
 10
408.84573654202552
 20
58.073695020616888
 30
0.0
 70
    32
  0
VERTEX
  5
9435
  8
AM_0
 10
408.8497365420248
 20
58.073595020616999
 30
0.0
 70
    32
  0
VERTEX
  5
9436
  8
AM_0
 10
408.85473654202548
 20
58.073495020616903
 30
0.0
 70
    32
  0
VERTEX
  5
9437
  8
AM_0
 10
408.85873654202487
 20
58.073495020616903
 30
0.0
 70
    32
  0
VERTEX
  5
9438
  8
AM_0
 10
408.86273654202529
 20
58.073395020616609
 30
0.0
 70
    32
  0
VERTEX
  5
9439
  8
AM_0
 10
408.86773654202551
 20
58.073395020616609
 30
0.0
 70
    32
  0
VERTEX
  5
943A
  8
AM_0
 10
408.87173654202491
 20
58.073295020616698
 30
0.0
 70
    32
  0
VERTEX
  5
943B
  8
AM_0
 10
408.87573654202481
 20
58.073295020616698
 30
0.0
 70
    32
  0
VERTEX
  5
943C
  8
AM_0
 10
408.88073654202492
 20
58.073195020616701
 30
0.0
 70
    32
  0
VERTEX
  5
943D
  8
AM_0
 10
408.88473654202483
 20
58.073195020616701
 30
0.0
 70
    32
  0
VERTEX
  5
943E
  8
AM_0
 10
408.8887365420257
 20
58.073095020616698
 30
0.0
 70
    32
  0
VERTEX
  5
943F
  8
AM_0
 10
408.89373654202478
 20
58.073095020616698
 30
0.0
 70
    32
  0
VERTEX
  5
9440
  8
AM_0
 10
408.8977365420256
 20
58.073095020616698
 30
0.0
 70
    32
  0
VERTEX
  5
9441
  8
AM_0
 10
408.90173654202653
 20
58.072995020616702
 30
0.0
 70
    32
  0
VERTEX
  5
9442
  8
AM_0
 10
408.9067365420247
 20
58.072995020616702
 30
0.0
 70
    32
  0
VERTEX
  5
9443
  8
AM_0
 10
408.91073654202557
 20
58.072895020616599
 30
0.0
 70
    32
  0
VERTEX
  5
9444
  8
AM_0
 10
408.91473654202559
 20
58.072895020616599
 30
0.0
 70
    32
  0
VERTEX
  5
9445
  8
AM_0
 10
408.9197365420257
 20
58.072895020616599
 30
0.0
 70
    32
  0
VERTEX
  5
9446
  8
AM_0
 10
408.9237365420268
 20
58.072795020616702
 30
0.0
 70
    32
  0
SEQEND
  5
9447
  8
AM_0
  0
LINE
  5
9448
  8
AM_0
 10
419.42378360709989
 20
58.07282869855711
 30
0.0
 11
408.92378360709978
 21
58.07282869855711
 31
0.0
  0
ARC
  5
9449
  8
AM_0
 10
408.92378360709978
 20
50.302980217574309
 30
0.0
 40
2.5
 50
180.0
 51
270.0
  0
LINE
  5
944A
  8
AM_0
 10
406.42378360709989
 20
46.20298021757371
 30
0.0
 11
406.42378360709989
 21
117.2029802175736
 31
0.0
  0
ARC
  5
944B
  8
AM_0
 10
406.92378360709989
 20
46.20298021757371
 30
0.0
 40
0.5
 50
180.0
 51
270.0
  0
LINE
  5
944C
  8
AM_0
 10
408.92378360709978
 20
47.802980217574202
 30
0.0
 11
417.95878360709969
 21
47.802980217574202
 31
0.0
  0
ARC
  5
944D
  8
AM_0
 10
439.42378360709978
 20
107.20298021757201
 30
0.0
 40
1.0
 50
270.0
 51
0.0
  0
LINE
  5
944E
  8
AM_0
 10
442.92378360709978
 20
48.202919432133008
 30
0.0
 11
442.92378360709853
 21
73.100972406652829
 31
0.0
  0
LINE
  5
944F
  8
AM_0
 10
423.42378360709989
 20
106.2029802175721
 30
0.0
 11
423.42378360709989
 21
117.70298021757201
 31
0.0
  0
LINE
  5
9450
  8
AM_0
 10
423.42378360709989
 20
117.7029802175735
 30
0.0
 11
423.42378360709989
 21
87.202980217573554
 31
0.0
  0
ARC
  5
9451
  8
AM_0
 10
439.42378360709978
 20
116.70298021757181
 30
0.0
 40
0.9999999999998864
 50
0.0
 51
90.0
  0
LINE
  5
9452
  8
AM_0
 10
440.42378360709989
 20
115.2029194321328
 30
0.0
 11
442.43367460709987
 21
115.2029194321328
 31
0.0
  0
LINE
  5
9453
  8
AM_0
 10
423.42378360709989
 20
76.202980217573554
 30
0.0
 11
423.42378360709989
 21
45.70298021757381
 31
0.0
  0
LINE
  5
9454
  8
AM_0
 10
439.42378360709978
 20
106.2029802175721
 30
0.0
 11
423.42378360709989
 21
106.2029802175721
 31
0.0
  0
LINE
  5
9455
  8
AM_0
 10
433.70699716687182
 20
87.202980217573668
 30
0.0
 11
433.70699716687182
 21
76.202980217573554
 31
0.0
  0
LINE
  5
9456
  8
AM_0
 10
440.42378360709989
 20
46.702980217571998
 30
0.0
 11
440.42378360709989
 21
116.70298021757181
 31
0.0
  0
LINE
  5
9457
  8
AM_0
 10
439.42378360709978
 20
57.202980217572211
 30
0.0
 11
423.42378360709989
 21
57.202980217572211
 31
0.0
  0
ARC
  5
9458
  8
AM_0
 10
439.42378360709978
 20
56.202980217572502
 30
0.0
 40
0.9999999999998864
 50
0.0
 51
90.0
  0
ARC
  5
9459
  8
AM_0
 10
439.42378360709978
 20
46.702980217572211
 30
0.0
 40
1.0
 50
270.0
 51
0.0
  0
LINE
  5
945A
  8
AM_0
 10
440.42378360709989
 20
48.202919432133008
 30
0.0
 11
442.67292034273282
 21
48.202919432133008
 31
0.0
  0
ARC
  5
9461
  8
ﾁｭｳｼﾝｾﾝ
 10
517.43365960709855
 20
98.702981217573651
 30
0.0
 40
85.000001999998062
 50
128.25542214753841
 51
141.74456927297459
  0
LINE
  5
9462
  8
ﾁｭｳｼﾝｾﾝ
 10
464.40066341896392
 20
151.7359924057078
 30
0.0
 11
450.25852779523518
 21
165.87812802943861
 31
0.0
  0
ARC
  5
9463
  8
ﾁｭｳｼﾝｾﾝ
 10
517.43365960709991
 20
98.702981217572301
 30
0.0
 40
85.000001999998062
 50
218.2554221475383
 51
231.74456927297459
  0
LINE
  5
9464
  8
ﾁｭｳｼﾝｾﾝ
 10
464.4006484189656
 20
45.669985029437562
 30
0.0
 11
450.25851279523482
 21
31.527849405708881
 31
0.0
  0
ARC
  5
9465
  8
ﾁｭｳｼﾝｾﾝ
 10
517.43365960710139
 20
98.702981217573651
 30
0.0
 40
85.000001999998062
 50
308.2554221475383
 51
321.7445692729745
  0
LINE
  5
9466
  8
ﾁｭｳｼﾝｾﾝ
 10
570.46665579523608
 20
45.669970029439362
 30
0.0
 11
584.60879141896476
 21
31.527834405708521
 31
0.0
  0
LINE
  5
965C
  8
ﾁｭｳｼﾝｾﾝ
 10
3.7043127186916518
 20
333.46289825783862
 30
0.0
 11
352.3873767571452
 21
333.46289825783862
 31
0.0
  0
LINE
  5
974A
  8
AM_0
 10
289.02357675714518
 20
397.6940382578386
 30
0.0
 11
289.02357675714518
 21
269.24926825783848
 31
0.0
  0
LINE
  5
974B
  8
AM_0
 10
316.02357675714518
 20
403.46289825783862
 30
0.0
 11
316.02357675714518
 21
263.46289825783862
 31
0.0
  0
LINE
  5
974C
  8
AM_0
 10
312.02357675714518
 20
408.46289825783862
 30
0.0
 11
312.02357675714518
 21
258.4628982578385
 31
0.0
  0
LINE
  5
974D
  8
AM_0
 10
307.02357675714518
 20
392.96289825783862
 30
0.0
 11
307.02357675714518
 21
273.96289825783862
 31
0.0
  0
LINE
  5
974E
  8
AM_0
 10
317.02357675714518
 20
352.48870825783882
 30
0.0
 11
317.02357675714518
 21
314.21844825783859
 31
0.0
  0
LINE
  5
9752
  8
AM_0
 10
224.5236367571452
 20
295.4080282578384
 30
0.0
 11
224.5236367571452
 21
371.5177682578385
 31
0.0
  0
LINE
  5
9753
  8
AM_0
 10
219.52357675714549
 20
269.96289825783862
 30
0.0
 11
219.52357675714549
 21
396.96289825783862
 31
0.0
  0
LINE
  5
9754
  8
AM_0
 10
257.02357675714552
 20
273.4628982578385
 30
0.0
 11
257.02357675714552
 21
393.4629282578386
 31
0.0
  0
LINE
  5
9755
  8
AM_0
 10
224.5236367571452
 20
296.28289825783861
 30
0.0
 11
242.52357675714521
 21
296.28289825783861
 31
0.0
  0
LINE
  5
9756
  8
AM_0
 10
242.52357675714521
 20
283.72586825783861
 30
0.0
 11
233.3851767571453
 21
282.11450825783862
 31
0.0
  0
LINE
  5
9757
  8
AM_0
 10
224.5236367571452
 20
277.93658825783871
 30
0.0
 11
257.02357675714552
 21
277.93658825783871
 31
0.0
  0
LINE
  5
9758
  8
AM_0
 10
224.5236067571453
 20
272.61187825783861
 30
0.0
 11
257.02357675714552
 21
273.4629282578386
 31
0.0
  0
LINE
  5
97BE
  8
AM_0
 10
232.52357675714521
 20
284.17459825783851
 30
0.0
 11
232.52357675714521
 21
294.08782825783851
 31
0.0
  0
LINE
  5
97D0
  8
AM_0
 10
219.52357675714549
 20
281.9625882578386
 30
0.0
 11
231.6486967571453
 21
281.9625882578386
 31
0.0
  0
LINE
  5
97D1
  8
AM_0
 10
224.5236367571452
 20
271.06799825783861
 30
0.0
 11
224.5236367571452
 21
281.9625882578386
 31
0.0
  0
LINE
  5
97D2
  8
AM_0
 10
223.54979675714529
 20
270.06832825783852
 30
0.0
 11
219.5236067571453
 21
269.96289825783862
 31
0.0
  0
ARC
  5
97D3
  8
AM_0
 10
223.5236367571452
 20
271.06799825783861
 30
0.0
 40
1.0
 50
271.49999999999937
 51
0.0
  0
ARC
  5
97D4
  8
AM_0
 10
231.6486967571453
 20
291.9625882578386
 30
0.0
 40
10.0
 50
270.0
 51
280.00001000000128
  0
LINE
  5
97E1
  8
AM_0
 10
219.52357675714549
 20
295.4080282578384
 30
0.0
 11
224.5236367571452
 21
295.4080282578384
 31
0.0
  0
LINE
  5
97E2
  8
AM_0
 10
293.84910675714519
 20
264.23480825783861
 30
0.0
 11
299.12831675714523
 21
264.05047825783851
 31
0.0
  0
LINE
  5
97E3
  8
AM_0
 10
242.52357675714521
 20
285.14312825783861
 30
0.0
 11
242.52357675714521
 21
295.1133482578386
 31
0.0
  0
LINE
  5
97E4
  8
AM_0
 10
289.02360675714539
 20
272.62490825783863
 30
0.0
 11
257.02357675714552
 21
273.46286825783858
 31
0.0
  0
LINE
  5
97E5
  8
AM_0
 10
257.02357675714552
 20
277.93652825783857
 30
0.0
 11
289.02357675714518
 21
277.93652825783857
 31
0.0
  0
ARC
  5
97E6
  8
AM_0
 10
294.02357675714518
 20
269.23175825783858
 30
0.0
 40
5.0
 50
179.99998999999889
 51
268.00000999999861
  0
LINE
  5
97E7
  8
AM_0
 10
302.02357675714529
 20
260.7434682578384
 30
0.0
 11
302.02357675714529
 21
293.0225282578387
 31
0.0
  0
LINE
  5
97E8
  8
AM_0
 10
303.95378675714522
 20
258.74469825783871
 30
0.0
 11
312.02357675714518
 21
258.4628982578385
 31
0.0
  0
ARC
  5
97E9
  8
AM_0
 10
304.02357675714529
 20
260.7434682578384
 30
0.0
 40
2.0
 50
179.99998999999889
 51
268.00000999999861
  0
ARC
  5
97EA
  8
AM_0
 10
299.02357675714518
 20
261.0523082578386
 30
0.0
 40
3.0
 50
0.0
 51
87.999999999999659
  0
LINE
  5
97EB
  8
AM_0
 10
312.02357675714518
 20
263.46289825783862
 30
0.0
 11
316.02357675714518
 21
263.46289825783862
 31
0.0
  0
ARC
  5
97ED
  8
AM_0
 10
304.02357675714529
 20
273.96289825783862
 30
0.0
 40
3.0
 50
270.0
 51
0.0
  0
ARC
  5
97EE
  8
AM_0
 10
304.02357675714529
 20
293.0225282578387
 30
0.0
 40
2.0
 50
88.485353000000984
 51
180.00001000000091
  0
ARC
  5
97EF
  8
AM_0
 10
315.02357675714518
 20
314.36419825783861
 30
0.0
 40
2.0
 50
315.0
 51
0.0
  0
LINE
  5
97F0
  8
AM_0
 10
316.02357675714518
 20
312.53573825783877
 30
0.0
 11
316.43782675714539
 21
312.94995825783877
 31
0.0
  0
LINE
  5
97F1
  8
AM_0
 10
224.5236367571452
 20
370.64288825783871
 30
0.0
 11
242.52357675714521
 21
370.64288825783871
 31
0.0
  0
LINE
  5
97F2
  8
AM_0
 10
242.52357675714521
 20
383.19992825783862
 30
0.0
 11
233.3852067571452
 21
384.81127825783858
 31
0.0
  0
LINE
  5
97F3
  8
AM_0
 10
224.5236367571452
 20
388.98925825783863
 30
0.0
 11
257.02357675714552
 21
388.98925825783863
 31
0.0
  0
LINE
  5
97F4
  8
AM_0
 10
224.5236067571453
 20
394.31396825783861
 30
0.0
 11
257.02357675714552
 21
393.4629282578386
 31
0.0
  0
LINE
  5
97F7
  8
AM_0
 10
224.5236367571452
 20
384.96289825783862
 30
0.0
 11
224.5236367571452
 21
395.85781825783857
 31
0.0
  0
LINE
  5
981F
  8
AM_0
 10
232.52357675714521
 20
382.75122825783859
 30
0.0
 11
232.52357675714521
 21
372.83798825783862
 31
0.0
  0
LINE
  5
9820
  8
AM_0
 10
219.52357675714549
 20
371.5177682578385
 30
0.0
 11
224.5236367571452
 21
371.5177682578385
 31
0.0
  0
LINE
  5
9821
  8
AM_0
 10
219.52357675714549
 20
384.9631982578386
 30
0.0
 11
231.6486967571453
 21
384.9631982578386
 31
0.0
  0
ARC
  5
9822
  8
AM_0
 10
231.6486967571453
 20
374.9631982578386
 30
0.0
 40
10.0
 50
79.999998000001099
 51
90.000003000000945
  0
LINE
  5
9828
  8
AM_0
 10
223.54979675714529
 20
396.85748825783861
 30
0.0
 11
219.5236067571453
 21
396.96289825783862
 31
0.0
  0
ARC
  5
9829
  8
AM_0
 10
223.5236367571452
 20
395.85781825783857
 30
0.0
 40
1.0
 50
0.0
 51
88.499997000000747
  0
ARC
  5
982A
  8
AM_0
 10
304.02357675714529
 20
392.96289825783862
 30
0.0
 40
3.0
 50
0.0
 51
90.000003000000945
  0
LINE
  5
982B
  8
AM_0
 10
302.02357675714529
 20
406.18231825783852
 30
0.0
 11
302.02357675714529
 21
373.90325825783862
 31
0.0
  0
LINE
  5
982C
  8
AM_0
 10
257.02357675714552
 20
393.46289825783862
 30
0.0
 11
289.02360675714539
 21
394.30084825783882
 31
0.0
  0
LINE
  5
982D
  8
AM_0
 10
257.02357675714552
 20
388.98925825783863
 30
0.0
 11
289.02357675714518
 21
388.98925825783863
 31
0.0
  0
LINE
  5
982E
  8
AM_0
 10
242.52357675714521
 20
381.78268825783857
 30
0.0
 11
242.52357675714521
 21
371.81246825783842
 31
0.0
  0
ARC
  5
982F
  8
AM_0
 10
325.02351675714539
 20
333.46289825783862
 30
0.0
 40
3.0
 50
89.986013999999244
 51
270.01398999999992
  0
LINE
  5
9830
  8
AM_0
 10
319.02351675714522
 20
342.96289825783862
 30
0.0
 11
347.02357675714518
 21
342.96289825783862
 31
0.0
  0
LINE
  5
9831
  8
AM_0
 10
319.02351675714522
 20
323.96289825783862
 30
0.0
 11
347.02357675714518
 21
323.96289825783862
 31
0.0
  0
LINE
  5
9832
  8
AM_0
 10
319.02351675714522
 20
323.46289825783862
 30
0.0
 11
319.02351675714522
 21
343.46289825783862
 31
0.0
  0
LINE
  5
9833
  8
AM_0
 10
317.02357675714518
 20
323.46289825783862
 30
0.0
 11
319.02351675714522
 21
323.46289825783862
 31
0.0
  0
LINE
  5
9834
  8
AM_0
 10
317.02357675714518
 20
343.46289825783862
 30
0.0
 11
319.02351675714522
 21
343.46289825783862
 31
0.0
  0
LINE
  5
9835
  8
AM_0
 10
316.02354675714531
 20
354.39007825783858
 30
0.0
 11
316.43776675714531
 21
353.97583825783857
 31
0.0
  0
ARC
  5
9836
  8
AM_0
 10
315.02357675714518
 20
352.56158825783859
 30
0.0
 40
2.0
 50
0.0
 51
45.000000999999187
  0
LINE
  5
9837
  8
AM_0
 10
347.02357675714518
 20
323.96289825783862
 30
0.0
 11
347.02357675714518
 21
342.96289825783862
 31
0.0
  0
LINE
  5
9838
  8
AM_0
 10
325.02351675714539
 20
336.46289825783862
 30
0.0
 11
347.02357675714518
 21
336.46289825783862
 31
0.0
  0
LINE
  5
9839
  8
AM_0
 10
325.02351675714539
 20
330.46289825783862
 30
0.0
 11
347.02357675714518
 21
330.46289825783862
 31
0.0
  0
LINE
  5
983A
  8
AM_0
 10
325.02351675714539
 20
330.46289825783862
 30
0.0
 11
325.02351675714539
 21
336.46289825783862
 31
0.0
  0
ARC
  5
983B
  8
AM_0
 10
304.02357675714529
 20
373.90325825783862
 30
0.0
 40
2.0
 50
179.99998999999889
 51
271.51463999999902
  0
LINE
  5
983D
  8
AM_0
 10
293.84910675714519
 20
402.69097825783848
 30
0.0
 11
299.1282867571453
 21
402.87533825783851
 31
0.0
  0
ARC
  5
983E
  8
AM_0
 10
294.02357675714518
 20
397.6940382578386
 30
0.0
 40
5.0
 50
91.999998000000545
 51
180.00001000000091
  0
LINE
  5
983F
  8
AM_0
 10
303.9537567571453
 20
408.1810982578383
 30
0.0
 11
312.02357675714518
 21
408.46289825783862
 31
0.0
  0
ARC
  5
9840
  8
AM_0
 10
299.02357675714518
 20
405.87347825783883
 30
0.0
 40
3.0
 50
272.0000000000004
 51
0.0
  0
ARC
  5
9841
  8
AM_0
 10
304.02357675714529
 20
406.18231825783852
 30
0.0
 40
2.0
 50
91.999998000000545
 51
180.00001000000091
  0
LINE
  5
9842
  8
AM_0
 10
312.02357675714518
 20
403.46289825783862
 30
0.0
 11
316.02357675714518
 21
403.46289825783862
 31
0.0
  0
LINE
  5
99B8
  8
AM_0
 10
105.5236367571455
 20
379.81286825783877
 30
0.0
 11
74.523576757145364
 21
377.78286825783857
 31
0.0
  0
LINE
  5
99B9
  8
AM_0
 10
87.523576757145463
 20
269.57287825783862
 30
0.0
 11
128.84999675714531
 21
269.57287825783862
 31
0.0
  0
LINE
  5
99BA
  8
AM_0
 10
105.5236367571455
 20
287.11297825783868
 30
0.0
 11
74.523636757145312
 21
289.14297825783882
 31
0.0
  0
LINE
  5
99BB
  8
AM_0
 10
172.52357675714521
 20
359.46289825783867
 30
0.0
 11
79.073566757145542
 21
359.46289825783867
 31
0.0
  0
LINE
  5
99BC
  8
AM_0
 10
172.52357675714521
 20
367.46289825783862
 30
0.0
 11
79.073566757145542
 21
367.46289825783862
 31
0.0
  0
LINE
  5
99BD
  8
AM_0
 10
172.52357675714521
 20
307.46289825783867
 30
0.0
 11
79.059226757145282
 21
307.46289825783867
 31
0.0
  0
LINE
  5
99BE
  8
AM_0
 10
68.793596757145281
 20
327.1928782578388
 30
0.0
 11
141.25868675714551
 21
327.1928782578388
 31
0.0
  0
LINE
  5
99BF
  8
AM_0
 10
77.983596757145335
 20
309.90283825783882
 30
0.0
 11
208.5578167571453
 21
309.90283825783882
 31
0.0
  0
LINE
  5
99C0
  8
AM_0
 10
204.85640675714529
 20
309.46289825783867
 30
0.0
 11
79.059226757145282
 21
309.46289825783867
 31
0.0
  0
LINE
  5
99C1
  8
AM_0
 10
68.853596757145453
 20
317.12292825783868
 30
0.0
 11
141.1948467571452
 21
317.12292825783868
 31
0.0
  0
LINE
  5
99C2
  8
AM_0
 10
139.96565675714521
 20
317.46289825783867
 30
0.0
 11
70.073566757145571
 21
317.46289825783867
 31
0.0
  0
LINE
  5
99C3
  8
AM_0
 10
68.853596757145453
 20
319.78283825783882
 30
0.0
 11
141.1948467571452
 21
319.78283825783882
 31
0.0
  0
LINE
  5
99C4
  8
AM_0
 10
139.96565675714521
 20
329.46289825783867
 30
0.0
 11
70.073566757145571
 21
329.46289825783867
 31
0.0
  0
LINE
  5
99C5
  8
AM_0
 10
139.96565675714521
 20
327.46289825783867
 30
0.0
 11
70.073566757145571
 21
327.46289825783867
 31
0.0
  0
LINE
  5
99C6
  8
AM_0
 10
68.793596757145281
 20
329.73291825783872
 30
0.0
 11
141.25868675714551
 21
329.73291825783872
 31
0.0
  0
LINE
  5
99C7
  8
AM_0
 10
68.793596757145281
 20
337.20288825783882
 30
0.0
 11
141.25868675714551
 21
337.20288825783882
 31
0.0
  0
LINE
  5
99C8
  8
AM_0
 10
68.793596757145281
 20
339.7429282578388
 30
0.0
 11
141.25868675714551
 21
339.7429282578388
 31
0.0
  0
LINE
  5
99C9
  8
AM_0
 10
68.853596757145453
 20
347.14294825783861
 30
0.0
 11
141.1822667571455
 21
347.14294825783861
 31
0.0
  0
LINE
  5
99CA
  8
AM_0
 10
68.853596757145453
 20
349.81286825783877
 30
0.0
 11
141.1948467571452
 21
349.81286825783877
 31
0.0
  0
LINE
  5
99CB
  8
AM_0
 10
77.983596757145335
 20
357.03283825783882
 30
0.0
 11
208.5578167571453
 21
357.03283825783882
 31
0.0
  0
LINE
  5
99CC
  8
AM_0
 10
77.983596757145335
 20
359.95288825783882
 30
0.0
 11
172.52357675714521
 21
359.95288825783882
 31
0.0
  0
LINE
  5
99CD
  8
AM_0
 10
78.193556757145359
 20
366.83288825783882
 30
0.0
 11
172.54359675714531
 21
366.83288825783882
 31
0.0
  0
LINE
  5
99CE
  8
AM_0
 10
78.193556757145359
 20
370.1928782578388
 30
0.0
 11
208.34358675714529
 21
370.1928782578388
 31
0.0
  0
LINE
  5
99CF
  8
AM_0
 10
172.52357675714521
 20
299.46289825783867
 30
0.0
 11
79.059226757145282
 21
299.46289825783867
 31
0.0
  0
LINE
  5
99D0
  8
AM_0
 10
77.983596757145335
 20
306.98291825783872
 30
0.0
 11
172.52357675714521
 21
306.98291825783872
 31
0.0
  0
LINE
  5
99D1
  8
AM_0
 10
139.96565675714521
 20
337.46289825783867
 30
0.0
 11
70.073566757145571
 21
337.46289825783867
 31
0.0
  0
LINE
  5
99D2
  8
AM_0
 10
139.96565675714521
 20
339.46289825783867
 30
0.0
 11
70.073566757145571
 21
339.46289825783867
 31
0.0
  0
LINE
  5
99D3
  8
AM_0
 10
139.96229675714531
 20
347.46289825783867
 30
0.0
 11
70.073566757145571
 21
347.46289825783867
 31
0.0
  0
LINE
  5
99D4
  8
AM_0
 10
139.96229675714531
 20
349.46289825783879
 30
0.0
 11
70.073566757145571
 21
349.46289825783879
 31
0.0
  0
LINE
  5
99D5
  8
AM_0
 10
204.85640675714529
 20
357.4628982578389
 30
0.0
 11
79.073566757145542
 21
357.4628982578389
 31
0.0
  0
LINE
  5
99D6
  8
AM_0
 10
204.86360675714531
 20
369.46289825783862
 30
0.0
 11
79.073566757145542
 21
369.46289825783862
 31
0.0
  0
LINE
  5
99D7
  8
AM_0
 10
87.523576757145463
 20
397.35290825783858
 30
0.0
 11
206.04353675714529
 21
397.35290825783858
 31
0.0
  0
LINE
  5
99D8
  8
AM_0
 10
87.523576757145463
 20
398.71289825783862
 30
0.0
 11
205.75123675714519
 21
398.71289825783862
 31
0.0
  0
LINE
  5
99D9
  8
AM_0
 10
87.523576757145463
 20
399.38293825783882
 30
0.0
 11
205.60725675714531
 21
399.38293825783882
 31
0.0
  0
LINE
  5
99DA
  8
AM_0
 10
87.523576757145463
 20
395.32287825783879
 30
0.0
 11
204.33357675714521
 21
395.32287825783879
 31
0.0
  0
LINE
  5
99DB
  8
AM_0
 10
139.96565675714521
 20
319.46289825783867
 30
0.0
 11
70.073566757145571
 21
319.46289825783867
 31
0.0
  0
LINE
  5
99DC
  8
AM_0
 10
87.523576757145463
 20
271.60290825783869
 30
0.0
 11
204.33357675714521
 21
271.60290825783869
 31
0.0
  0
LINE
  5
99DD
  8
AM_0
 10
78.193556757145359
 20
296.74292825783868
 30
0.0
 11
160.52357675714529
 21
296.74292825783868
 31
0.0
  0
LINE
  5
99DE
  8
AM_0
 10
160.52357675714529
 20
297.46289825783867
 30
0.0
 11
79.059226757145282
 21
297.46289825783867
 31
0.0
  0
LINE
  5
99DF
  8
AM_0
 10
78.193556757145359
 20
300.10290825783881
 30
0.0
 11
172.54359675714531
 21
300.10290825783881
 31
0.0
  0
LINE
  5
99E0
  8
AM_0
 10
14.022146657145409
 20
368.20135935354591
 30
0.0
 11
14.022146657145409
 21
298.72443716213121
 31
0.0
  0
LINE
  5
99E1
  8
AM_0
 10
14.523576757145459
 20
298.93383825783877
 30
0.0
 11
14.523576757145459
 21
367.99194825783883
 31
0.0
  0
LINE
  5
99E2
  8
AM_0
 10
59.523576757145463
 20
296.27783825783882
 30
0.0
 11
59.523576757145463
 21
370.64892825783858
 31
0.0
  0
LINE
  5
99E3
  8
AM_0
 10
17.023576757145459
 20
280.68090825783878
 30
0.0
 11
17.023576757145459
 21
386.2128982578385
 31
0.0
  0
LINE
  5
99E4
  8
AM_0
 10
9.0221466571454112
 20
389.46289825783862
 30
0.0
 11
9.0221466571454112
 21
277.46289825783867
 31
0.0
  0
LINE
  5
99E5
  8
AM_0
 10
64.523576757145463
 20
274.71289825783862
 30
0.0
 11
64.523576757145463
 21
333.46289825783867
 31
0.0
  0
LINE
  5
99E6
  8
AM_0
 10
16.523576757145459
 20
280.71289825783879
 30
0.0
 11
64.523576757145463
 21
280.71289825783879
 31
0.0
  0
LINE
  5
99E7
  8
AM_0
 10
17.023576757145459
 20
299.82190825783869
 30
0.0
 11
59.523576757145463
 21
299.82190825783869
 31
0.0
  0
LINE
  5
99E8
  8
AM_0
 10
17.023576757145459
 20
289.57190825783857
 30
0.0
 11
59.523576757145463
 21
289.57190825783857
 31
0.0
  0
LINE
  5
99E9
  8
AM_0
 10
52.523576757145463
 20
273.46289825783867
 30
0.0
 11
55.523576757145463
 21
273.46289825783867
 31
0.0
  0
LINE
  5
99EA
  8
AM_0
 10
39.523576757145463
 20
274.71289825783879
 30
0.0
 11
64.523576757145463
 21
274.71289825783879
 31
0.0
  0
LINE
  5
99EB
  8
AM_0
 10
18.022146657145399
 20
268.46289825783879
 30
0.0
 11
55.523576757145463
 21
268.46289825783879
 31
0.0
  0
LINE
  5
99EC
  8
AM_0
 10
12.423606757145359
 20
296.07190825783857
 30
0.0
 11
12.423606757145359
 21
293.07190825783869
 31
0.0
  0
LINE
  5
99ED
  8
AM_0
 10
15.72358675714537
 20
299.17187825783878
 30
0.0
 11
15.72358675714537
 21
289.97192825783878
 31
0.0
  0
LINE
  5
99EE
  8
AM_0
 10
19.022146657145399
 20
273.46289825783867
 30
0.0
 11
42.523576757145449
 21
273.46289825783867
 31
0.0
  0
LINE
  5
99EF
  8
AM_0
 10
14.022146657145409
 20
290.41937935354588
 30
0.0
 11
14.022146657145409
 21
278.46289825783879
 31
0.0
  0
ARC
  5
99F0
  8
AM_0
 10
19.022146657145399
 20
278.46289825783879
 30
0.0
 40
5.0
 50
179.99997999999781
 51
269.99995000000138
  0
ARC
  5
99F1
  8
AM_0
 10
18.022146657145399
 20
277.46289825783867
 30
0.0
 40
9.0
 50
179.99997999999781
 51
269.99995000000138
  0
LINE
  5
99F2
  8
AM_0
 10
14.523576757145459
 20
290.20996825783868
 30
0.0
 11
14.523576757145459
 21
282.71289825783879
 31
0.0
  0
ARC
  5
99F3
  8
AM_0
 10
16.523576757145459
 20
282.71289825783879
 30
0.0
 40
2.0
 50
179.99997999999781
 51
269.99995000000138
  0
ARC
  5
99F4
  8
AM_0
 10
15.423606757145359
 20
293.07190825783869
 30
0.0
 40
3.0
 50
179.99997999999781
 51
269.99995000000138
  0
LINE
  5
99F5
  8
AM_0
 10
15.423606757145359
 20
290.07190825783857
 30
0.0
 11
15.72358675714537
 21
290.07190825783857
 31
0.0
  0
LINE
  5
99F6
  8
AM_0
 10
15.72358675714537
 20
289.97192825783878
 30
0.0
 11
17.023576757145459
 21
289.97192825783878
 31
0.0
  0
LINE
  5
99F7
  8
AM_0
 10
39.523576757145463
 20
274.71289825783879
 30
0.0
 11
39.523576757145463
 21
280.71289825783879
 31
0.0
  0
LINE
  5
99F8
  8
AM_0
 10
52.523576757145463
 20
274.71289825783879
 30
0.0
 11
52.523576757145463
 21
268.46289825783879
 31
0.0
  0
LINE
  5
99F9
  8
AM_0
 10
42.523576757145449
 20
274.71289825783879
 30
0.0
 11
42.523576757145449
 21
268.46289825783879
 31
0.0
  0
ARC
  5
99FA
  8
AM_0
 10
15.423606757145359
 20
296.07190825783857
 30
0.0
 40
3.0
 50
89.999988999997569
 51
179.99997999999781
  0
LINE
  5
99FB
  8
AM_0
 10
15.423606757145359
 20
299.07190825783869
 30
0.0
 11
15.72358675714537
 21
299.07190825783869
 31
0.0
  0
LINE
  5
99FC
  8
AM_0
 10
15.72358675714537
 20
299.17187825783878
 30
0.0
 11
17.023576757145459
 21
299.17187825783878
 31
0.0
  0
LINE
  5
99FD
  8
AM_0
 10
74.523576757145364
 20
285.11291825783883
 30
0.0
 11
74.523576757145364
 21
299.16284825783868
 31
0.0
  0
ARC
  5
99FE
  8
AM_0
 10
73.686416757145309
 20
291.87438825783869
 30
0.0
 40
4.9991421999999961
 50
5.3780268999994201
 51
80.360064999998514
  0
ARC
  5
99FF
  8
AM_0
 10
77.664386757145451
 20
292.25256825783867
 30
0.0
 40
1.0032491999999991
 50
314.98119000000088
 51
5.1676434000008573
  0
LINE
  5
9A00
  8
AM_0
 10
70.224196757145535
 20
271.79284825783873
 30
0.0
 11
84.266316757145475
 21
271.79284825783873
 31
0.0
  0
LINE
  5
9A01
  8
AM_0
 10
78.283406757145315
 20
280.48291825783872
 30
0.0
 11
84.023576757145449
 21
280.48291825783872
 31
0.0
  0
LINE
  5
9A02
  8
AM_0
 10
78.221206757145353
 20
275.20288825783882
 30
0.0
 11
84.023576757145449
 21
275.20288825783882
 31
0.0
  0
LINE
  5
9A03
  8
AM_0
 10
76.467856757145285
 20
276.77294825783872
 30
0.0
 11
75.507896757145133
 21
281.24292825783863
 31
0.0
  0
ARC
  5
9A04
  8
AM_0
 10
66.336806757145325
 20
276.86523825783888
 30
0.0
 40
1.497715799999999
 50
13.424378999999609
 51
90.122645000001114
  0
LINE
  5
9A05
  8
AM_0
 10
66.353596757145354
 20
276.34289825783873
 30
0.0
 11
68.003556757145304
 21
276.34289825783873
 31
0.0
  0
LINE
  5
9A06
  8
AM_0
 10
64.523576757145463
 20
276.03292825783882
 30
0.0
 11
67.343586757145133
 21
275.97293825783862
 31
0.0
  0
LINE
  5
9A07
  8
AM_0
 10
66.333576757145295
 20
278.3629182578386
 30
0.0
 11
76.12635675714526
 21
278.3629182578386
 31
0.0
  0
ARC
  5
9A08
  8
AM_0
 10
66.351276757145286
 20
274.84460825783867
 30
0.0
 40
1.4982997
 50
14.229740000001581
 51
89.910950000001179
  0
LINE
  5
9A09
  8
AM_0
 10
55.523576757145463
 20
273.46289825783867
 30
0.0
 11
55.523576757145463
 21
268.46289825783879
 31
0.0
  0
LINE
  5
9A0A
  8
AM_0
 10
68.284926757145456
 20
273.30392825783872
 30
0.0
 11
67.80360675714536
 21
275.21295825783858
 31
0.0
  0
ARC
  5
9A0B
  8
AM_0
 10
70.224196757145535
 20
273.79284825783873
 30
0.0
 40
2.0
 50
194.1507499999995
 51
269.999989999999
  0
ARC
  5
9A0C
  8
AM_0
 10
70.660416757145356
 20
273.79345825783872
 30
0.0
 40
2.0005671999999981
 50
193.30958999999871
 51
269.80430999999942
  0
LINE
  5
9A0D
  8
AM_0
 10
68.71357675714529
 20
273.33285825783872
 30
0.0
 11
67.793596757145281
 21
277.2129282578386
 31
0.0
  0
ARC
  5
9A0E
  8
AM_0
 10
78.420916757145562
 20
277.18994825783858
 30
0.0
 40
1.997119399999999
 50
192.05523999999849
 51
270.19862999999867
  0
LINE
  5
9A0F
  8
AM_0
 10
64.523576757145463
 20
290.77294825783872
 30
0.0
 11
74.523576757145364
 21
290.77294825783872
 31
0.0
  0
LINE
  5
9A10
  8
AM_0
 10
64.523576757145463
 20
285.11291825783883
 30
0.0
 11
74.523576757145364
 21
285.11291825783883
 31
0.0
  0
LINE
  5
9A11
  8
AM_0
 10
59.523576757145463
 20
289.57190825783857
 30
0.0
 11
59.523576757145463
 21
280.71289825783879
 31
0.0
  0
ARC
  5
9A12
  8
AM_0
 10
74.256736757145134
 20
286.20288825783882
 30
0.0
 40
1.5
 50
10.237378999998841
 51
79.752109999998723
  0
ARC
  5
9A13
  8
AM_0
 10
78.482986757145284
 20
282.4681382578388
 30
0.0
 40
1.9952742999999991
 50
189.96478000000039
 51
269.85141999999968
  0
LINE
  5
9A14
  8
AM_0
 10
74.037856757145335
 20
282.42285825783881
 30
0.0
 11
76.457846757145418
 21
282.42285825783881
 31
0.0
  0
ARC
  5
9A15
  8
AM_0
 10
74.040426757145312
 20
280.92053825783881
 30
0.0
 40
1.502416299999999
 50
12.391887000000411
 51
90.098616999999123
  0
LINE
  5
9A16
  8
AM_0
 10
75.732806757145283
 20
286.46954825783882
 30
0.0
 11
76.517836757145304
 21
282.12286825783872
 31
0.0
  0
ARC
  5
9A17
  8
AM_0
 10
74.143266757145454
 20
295.80822825783872
 30
0.0
 40
6.0073843
 50
273.6297400000006
 51
314.76384999999948
  0
LINE
  5
9A18
  8
AM_0
 10
85.523576757145435
 20
271.57385825783882
 30
0.0
 11
85.523576757145435
 21
278.98291825783872
 31
0.0
  0
ARC
  5
9A19
  8
AM_0
 10
87.524496757145286
 20
271.57385825783882
 30
0.0
 40
2.0009109999999981
 50
180.00001000000091
 51
269.97390999999971
  0
ARC
  5
9A1A
  8
AM_0
 10
84.266316757145475
 20
270.29284825783873
 30
0.0
 40
1.5
 50
21.46170900000077
 51
90.000003000000945
  0
ARC
  5
9A1B
  8
AM_0
 10
84.020466757145357
 20
273.69970825783872
 30
0.0
 40
1.503128599999999
 50
0.1191296499989459
 51
89.880869999998822
  0
ARC
  5
9A1C
  8
AM_0
 10
87.523636757145326
 20
273.60290825783869
 30
0.0
 40
2.0000371999999991
 50
180.0010599999992
 51
269.99892999999958
  0
ARC
  5
9A1D
  8
AM_0
 10
84.021626757145256
 20
278.98095825783872
 30
0.0
 40
1.501982699999999
 50
0.075587202000581
 51
89.924413000001564
  0
ARC
  5
9A1E
  8
AM_0
 10
77.977866757145364
 20
308.43286825783872
 30
0.0
 40
1.460011199999999
 50
89.775248000001255
 51
270.22474000000028
  0
ARC
  5
9A1F
  8
AM_0
 10
79.06642675714528
 20
308.46289825783867
 30
0.0
 40
1.0000255999999981
 50
89.589474000000749
 51
270.41051999999962
  0
ARC
  5
9A20
  8
AM_0
 10
79.06642675714528
 20
298.46289825783867
 30
0.0
 40
1.0000255999999981
 50
89.589474000000749
 51
270.41051999999962
  0
LINE
  5
9A21
  8
AM_0
 10
64.523576757145463
 20
299.16284825783868
 30
0.0
 11
74.523576757145364
 21
299.16284825783868
 31
0.0
  0
ARC
  5
9A22
  8
AM_0
 10
78.193556757145359
 20
298.41284825783868
 30
0.0
 40
1.6800002000000001
 50
90.000003000000945
 51
270.0
  0
ARC
  5
9A23
  8
AM_0
 10
70.073566757145571
 20
318.46289825783867
 30
0.0
 40
1.0000056999999991
 50
90.000003000000945
 51
270.0
  0
ARC
  5
9A24
  8
AM_0
 10
68.847306757145304
 20
318.45288825783882
 30
0.0
 40
1.3300148000000001
 50
89.729417999999541
 51
270.27058999999991
  0
ARC
  5
9A25
  8
AM_0
 10
86.516376757145665
 20
298.46289825783867
 30
0.0
 40
1.0000259
 50
89.587534000000232
 51
270.4124599999987
  0
ARC
  5
9A26
  8
AM_0
 10
86.516376757145665
 20
308.46289825783867
 30
0.0
 40
1.0000259
 50
89.587534000000232
 51
270.4124599999987
  0
ARC
  5
9A27
  8
AM_0
 10
86.516376757145665
 20
318.46289825783867
 30
0.0
 40
1.0000259
 50
89.587534000000232
 51
270.4124599999987
  0
LINE
  5
9A28
  8
AM_0
 10
39.523576757145463
 20
392.2128982578385
 30
0.0
 11
39.523576757145463
 21
386.2128982578385
 31
0.0
  0
ARC
  5
9A29
  8
AM_0
 10
19.022146657145399
 20
388.4628982578389
 30
0.0
 40
5.0
 50
89.999988999997569
 51
180.0
  0
ARC
  5
9A2A
  8
AM_0
 10
18.022146657145399
 20
389.46289825783862
 30
0.0
 40
9.0
 50
89.999988999997569
 51
179.99997999999781
  0
ARC
  5
9A2B
  8
AM_0
 10
78.420916757145562
 20
389.73583825783879
 30
0.0
 40
1.997119399999999
 50
89.801366999998493
 51
167.94476000000131
  0
ARC
  5
9A2C
  8
AM_0
 10
66.34315675714555
 20
392.08825825783862
 30
0.0
 40
1.505448699999999
 50
270.39686999999981
 51
345.9524700000004
  0
LINE
  5
9A2D
  8
AM_0
 10
68.71357675714529
 20
393.59289825783878
 30
0.0
 11
67.793536757145532
 21
389.72290825783881
 31
0.0
  0
LINE
  5
9A2E
  8
AM_0
 10
64.523576757145463
 20
392.2128982578389
 30
0.0
 11
64.523576757145463
 21
333.46289825783867
 31
0.0
  0
LINE
  5
9A2F
  8
AM_0
 10
85.523576757145435
 20
395.35290825783881
 30
0.0
 11
85.523576757145435
 21
387.95288825783882
 31
0.0
  0
LINE
  5
9A30
  8
AM_0
 10
16.523576757145459
 20
386.2128982578385
 30
0.0
 11
64.523576757145463
 21
386.2128982578385
 31
0.0
  0
LINE
  5
9A31
  8
AM_0
 10
17.023576757145459
 20
367.10388825783861
 30
0.0
 11
59.523576757145463
 21
367.10388825783861
 31
0.0
  0
LINE
  5
9A32
  8
AM_0
 10
17.023576757145459
 20
377.35388825783861
 30
0.0
 11
59.523576757145463
 21
377.35388825783861
 31
0.0
  0
LINE
  5
9A33
  8
AM_0
 10
8.0236067571454424
 20
328.46289825783879
 30
0.0
 11
8.0236067571454424
 21
338.46289825783867
 31
0.0
  0
LINE
  5
9A34
  8
AM_0
 10
9.0221466571454112
 20
328.46289825783879
 30
0.0
 11
8.0236067571454424
 21
328.46289825783879
 31
0.0
  0
LINE
  5
9A35
  8
AM_0
 10
14.523576757145459
 20
328.46289825783879
 30
0.0
 11
14.022146657145409
 21
328.46289825783879
 31
0.0
  0
LINE
  5
9A36
  8
AM_0
 10
9.0221466571454112
 20
338.46289825783867
 30
0.0
 11
8.0236067571454424
 21
338.46289825783867
 31
0.0
  0
LINE
  5
9A37
  8
AM_0
 10
14.523576757145459
 20
338.46289825783867
 30
0.0
 11
14.022146657145409
 21
338.46289825783867
 31
0.0
  0
LINE
  5
9A38
  8
AM_0
 10
15.72358675714537
 20
367.75391825783862
 30
0.0
 11
15.72358675714537
 21
376.95386825783862
 31
0.0
  0
ARC
  5
9A39
  8
AM_0
 10
15.423606757145359
 20
373.85388825783861
 30
0.0
 40
3.0
 50
90.000049999998538
 51
180.00002000000191
  0
ARC
  5
9A3A
  8
AM_0
 10
15.423606757145359
 20
370.85388825783861
 30
0.0
 40
3.0
 50
180.00002000000191
 51
270.00001100000242
  0
LINE
  5
9A3B
  8
AM_0
 10
12.423606757145359
 20
370.85388825783861
 30
0.0
 11
12.423606757145359
 21
373.85388825783861
 31
0.0
  0
LINE
  5
9A3C
  8
AM_0
 10
15.423606757145359
 20
367.85388825783861
 30
0.0
 11
15.72358675714537
 21
367.85388825783861
 31
0.0
  0
LINE
  5
9A3D
  8
AM_0
 10
15.72358675714537
 20
367.75391825783862
 30
0.0
 11
17.023576757145459
 21
367.75391825783862
 31
0.0
  0
LINE
  5
9A3E
  8
AM_0
 10
14.022146657145409
 20
376.50641716213141
 30
0.0
 11
14.022146657145409
 21
388.4628982578385
 31
0.0
  0
LINE
  5
9A3F
  8
AM_0
 10
14.523576757145459
 20
376.71582825783861
 30
0.0
 11
14.523576757145459
 21
384.2128982578385
 31
0.0
  0
LINE
  5
9A40
  8
AM_0
 10
15.423606757145359
 20
376.85388825783861
 30
0.0
 11
15.72358675714537
 21
376.85388825783861
 31
0.0
  0
LINE
  5
9A41
  8
AM_0
 10
15.72358675714537
 20
376.95386825783862
 30
0.0
 11
17.023576757145459
 21
376.95386825783862
 31
0.0
  0
ARC
  5
9A42
  8
AM_0
 10
16.523576757145459
 20
384.2128982578385
 30
0.0
 40
2.0
 50
90.000049999998538
 51
180.00002000000191
  0
ARC
  5
9A43
  8
AM_0
 10
86.516376757145665
 20
358.46289825783867
 30
0.0
 40
1.0000259
 50
89.587534000000232
 51
270.4124599999987
  0
ARC
  5
9A44
  8
AM_0
 10
79.06642675714528
 20
358.46289825783867
 30
0.0
 40
1.0000255999999981
 50
89.589474000000749
 51
270.41051999999962
  0
ARC
  5
9A45
  8
AM_0
 10
77.977866757145364
 20
358.4929282578388
 30
0.0
 40
1.460011199999999
 50
89.775248000001255
 51
270.22474000000028
  0
ARC
  5
9A46
  8
AM_0
 10
70.073566757145571
 20
328.46289825783879
 30
0.0
 40
1.0000056999999991
 50
90.000003000000945
 51
270.0
  0
ARC
  5
9A47
  8
AM_0
 10
68.78535675714528
 20
328.46289825783879
 30
0.0
 40
1.2700266
 50
89.629320999999507
 51
270.3706899999986
  0
ARC
  5
9A48
  8
AM_0
 10
70.073566757145571
 20
338.46289825783867
 30
0.0
 40
1.0000056999999991
 50
90.000003000000945
 51
270.0
  0
ARC
  5
9A49
  8
AM_0
 10
68.78535675714528
 20
338.4729082578387
 30
0.0
 40
1.2700266
 50
89.629327999999504
 51
270.37065999999959
  0
ARC
  5
9A4A
  8
AM_0
 10
70.073566757145571
 20
348.46289825783867
 30
0.0
 40
1.0000056999999991
 50
90.000003000000945
 51
270.0
  0
ARC
  5
9A4B
  8
AM_0
 10
68.847306757145304
 20
348.47790825783881
 30
0.0
 40
1.3350147999999991
 50
89.730435000000341
 51
270.26956999999999
  0
ARC
  5
9A4C
  8
AM_0
 10
86.516376757145665
 20
328.46289825783879
 30
0.0
 40
1.0000259
 50
89.587534000000232
 51
270.4124599999987
  0
ARC
  5
9A4D
  8
AM_0
 10
86.516376757145665
 20
338.46289825783867
 30
0.0
 40
1.0000259
 50
89.587534000000232
 51
270.4124599999987
  0
ARC
  5
9A4E
  8
AM_0
 10
86.516376757145665
 20
348.46289825783867
 30
0.0
 40
1.0000259
 50
89.587534000000232
 51
270.4124599999987
  0
ARC
  5
9A4F
  8
AM_0
 10
77.665486757145274
 20
374.6835982578387
 30
0.0
 40
1.002184699999999
 50
354.80385999999999
 51
45.047306999998277
  0
ARC
  5
9A50
  8
AM_0
 10
79.06642675714528
 20
368.46289825783862
 30
0.0
 40
1.0000255999999981
 50
89.589474000000749
 51
270.41051999999962
  0
ARC
  5
9A51
  8
AM_0
 10
73.679156757145563
 20
375.05712825783883
 30
0.0
 40
5.0059714
 50
279.71098000000097
 51
354.6788800000013
  0
LINE
  5
9A52
  8
AM_0
 10
78.477866757145364
 20
386.45288825783882
 30
0.0
 11
84.023576757145449
 21
386.45288825783882
 31
0.0
  0
LINE
  5
9A53
  8
AM_0
 10
74.523576757145364
 20
381.81286825783877
 30
0.0
 11
74.523576757145364
 21
367.77294825783872
 31
0.0
  0
LINE
  5
9A54
  8
AM_0
 10
64.523576757145463
 20
367.77294825783872
 30
0.0
 11
74.523576757145364
 21
367.77294825783872
 31
0.0
  0
ARC
  5
9A55
  8
AM_0
 10
78.193556757145359
 20
368.51293825783881
 30
0.0
 40
1.6800002000000001
 50
90.000003000000945
 51
270.0
  0
LINE
  5
9A56
  8
AM_0
 10
66.353596757145354
 20
390.58288825783859
 30
0.0
 11
68.003556757145304
 21
390.58288825783859
 31
0.0
  0
LINE
  5
9A57
  8
AM_0
 10
64.523576757145463
 20
390.89288825783848
 30
0.0
 11
67.343586757145133
 21
390.96289825783879
 31
0.0
  0
LINE
  5
9A58
  8
AM_0
 10
66.333576757145295
 20
388.56286825783877
 30
0.0
 11
76.12635675714526
 21
388.56286825783877
 31
0.0
  0
LINE
  5
9A59
  8
AM_0
 10
64.523576757145463
 20
381.81286825783877
 30
0.0
 11
74.523576757145364
 21
381.81286825783877
 31
0.0
  0
LINE
  5
9A5A
  8
AM_0
 10
64.523576757145463
 20
376.15283825783882
 30
0.0
 11
74.523576757145364
 21
376.15283825783882
 31
0.0
  0
ARC
  5
9A5B
  8
AM_0
 10
66.328756757145285
 20
390.06774825783862
 30
0.0
 40
1.5048382
 50
270.18264000000067
 51
346.75308000000121
  0
LINE
  5
9A5C
  8
AM_0
 10
59.523576757145463
 20
377.35388825783861
 30
0.0
 11
59.523576757145463
 21
386.2128982578385
 31
0.0
  0
LINE
  5
9A5D
  8
AM_0
 10
75.732866757145359
 20
380.45626825783847
 30
0.0
 11
76.517906757145454
 21
384.80294825783858
 31
0.0
  0
ARC
  5
9A5E
  8
AM_0
 10
74.144546757145307
 20
371.1303782578388
 30
0.0
 40
6.0044340999999992
 50
45.225577999998769
 51
86.380821999999185
  0
ARC
  5
9A5F
  8
AM_0
 10
74.256736757145134
 20
380.72290825783881
 30
0.0
 40
1.5
 50
280.24789000000118
 51
349.76261999999917
  0
ARC
  5
9A60
  8
AM_0
 10
78.482986757145284
 20
384.45764825783863
 30
0.0
 40
1.9952742999999991
 50
90.148580000000095
 51
170.03521999999941
  0
LINE
  5
9A61
  8
AM_0
 10
74.037856757145335
 20
384.50292825783862
 30
0.0
 11
76.457846757145418
 21
384.50292825783862
 31
0.0
  0
ARC
  5
9A62
  8
AM_0
 10
74.040426757145312
 20
386.00524825783862
 30
0.0
 40
1.502416299999999
 50
269.90137999999871
 51
347.60813000000093
  0
LINE
  5
9A63
  8
AM_0
 10
76.467856757145285
 20
390.15289825783861
 30
0.0
 11
75.507896757145133
 21
385.68292825783863
 31
0.0
  0
ARC
  5
9A64
  8
AM_0
 10
86.516376757145665
 20
368.46289825783862
 30
0.0
 40
1.0000259
 50
89.587534000000232
 51
270.4124599999987
  0
ARC
  5
9A65
  8
AM_0
 10
84.019856757145405
 20
387.95666825783883
 30
0.0
 40
1.5037541000000001
 50
270.14287000000093
 51
359.85713999999848
  0
LINE
  5
9A66
  8
AM_0
 10
52.523576757145463
 20
393.46289825783879
 30
0.0
 11
55.523576757145463
 21
393.46289825783879
 31
0.0
  0
LINE
  5
9A67
  8
AM_0
 10
18.022146657145399
 20
398.46289825783862
 30
0.0
 11
55.523576757145463
 21
398.46289825783862
 31
0.0
  0
LINE
  5
9A68
  8
AM_0
 10
39.523576757145463
 20
392.2128982578385
 30
0.0
 11
64.523576757145463
 21
392.2128982578385
 31
0.0
  0
LINE
  5
9A69
  8
AM_0
 10
19.022146657145399
 20
393.46289825783879
 30
0.0
 11
42.523576757145449
 21
393.46289825783879
 31
0.0
  0
LINE
  5
9A6A
  8
AM_0
 10
42.523576757145449
 20
392.21289825783862
 30
0.0
 11
42.523576757145449
 21
398.46289825783862
 31
0.0
  0
LINE
  5
9A6B
  8
AM_0
 10
52.523576757145463
 20
392.21289825783862
 30
0.0
 11
52.523576757145463
 21
398.46289825783862
 31
0.0
  0
LINE
  5
9A6C
  8
AM_0
 10
70.633566757145502
 20
396.76293825783881
 30
0.0
 11
84.133566757145701
 21
396.76293825783881
 31
0.0
  0
LINE
  5
9A6D
  8
AM_0
 10
70.653586757145305
 20
395.13293825783882
 30
0.0
 11
84.023576757145449
 21
395.13293825783882
 31
0.0
  0
LINE
  5
9A6E
  8
AM_0
 10
78.414016757145362
 20
391.73291825783861
 30
0.0
 11
84.023576757145449
 21
391.73291825783861
 31
0.0
  0
LINE
  5
9A6F
  8
AM_0
 10
55.523576757145463
 20
393.46289825783879
 30
0.0
 11
55.523576757145463
 21
398.46289825783862
 31
0.0
  0
LINE
  5
9A70
  8
AM_0
 10
68.693556757145359
 20
395.25292825783862
 30
0.0
 11
67.803546757145284
 21
391.7229082578387
 31
0.0
  0
ARC
  5
9A71
  8
AM_0
 10
70.628436757145266
 20
394.76831825783847
 30
0.0
 40
1.994612099999999
 50
89.851991999999015
 51
165.9388600000006
  0
ARC
  5
9A72
  8
AM_0
 10
70.653826757145282
 20
393.14062825783873
 30
0.0
 40
1.9922863
 50
90.007721000000544
 51
166.87839000000031
  0
ARC
  5
9A73
  8
AM_0
 10
87.517356757145365
 20
397.38635825783882
 30
0.0
 40
1.9964978999999961
 50
89.821482000000245
 51
165.6006099999997
  0
ARC
  5
9A74
  8
AM_0
 10
84.128496757145456
 20
398.26806825783859
 30
0.0
 40
1.505230099999999
 50
270.19421
 51
345.17177999999848
  0
ARC
  5
9A75
  8
AM_0
 10
84.016676757145163
 20
396.63977825783883
 30
0.0
 40
1.506942899999999
 50
270.2633699999991
 51
359.73663000000079
  0
ARC
  5
9A76
  8
AM_0
 10
84.018696757145264
 20
393.23779825783862
 30
0.0
 40
1.504891299999997
 50
270.1859300000005
 51
359.81406999999939
  0
ARC
  5
9A77
  8
AM_0
 10
87.517716757145365
 20
395.35876825783862
 30
0.0
 40
1.994130499999996
 50
89.831105999999224
 51
180.16889000000049
  0
ARC
  5
9A78
  8
AM_0
 10
87.516866757145365
 20
393.32958825783862
 30
0.0
 40
1.9933081999999991
 50
89.807323000000935
 51
180.19266999999849
  0
ARC
  5
9A79
  8
AM_0
 10
87.520036757145292
 20
396.71643825783872
 30
0.0
 40
1.996488899999999
 50
89.899147999998391
 51
180.10084999999879
  0
LINE
  5
9A7A
  8
AM_0
 10
211.52357675714521
 20
270.96289825783867
 30
0.0
 11
211.52357675714521
 21
395.96289825783862
 31
0.0
  0
LINE
  5
9A7B
  8
AM_0
 10
190.50355675714519
 20
300.10290825783881
 30
0.0
 11
208.34358675714529
 21
300.10290825783881
 31
0.0
  0
LINE
  5
9A7C
  8
AM_0
 10
190.52357675714541
 20
306.98291825783872
 30
0.0
 11
208.5578167571453
 21
306.98291825783872
 31
0.0
  0
LINE
  5
9A7D
  8
AM_0
 10
204.86360675714531
 20
299.46289825783867
 30
0.0
 11
190.52357675714541
 21
299.46289825783867
 31
0.0
  0
LINE
  5
9A7E
  8
AM_0
 10
204.85640675714529
 20
307.46289825783867
 30
0.0
 11
190.52357675714541
 21
307.46289825783867
 31
0.0
  0
LINE
  5
9A7F
  8
AM_0
 10
192.03718675714521
 20
263.46289825783862
 30
0.0
 11
203.53975675714531
 21
263.46289825783862
 31
0.0
  0
LINE
  5
9A80
  8
AM_0
 10
204.86360675714531
 20
297.46289825783867
 30
0.0
 11
160.52357675714529
 21
297.46289825783867
 31
0.0
  0
LINE
  5
9A81
  8
AM_0
 10
160.52357675714529
 20
296.74292825783868
 30
0.0
 11
208.34358675714529
 21
296.74292825783868
 31
0.0
  0
LINE
  5
9A82
  8
AM_0
 10
105.52357675714541
 20
287.11291825783883
 30
0.0
 11
211.52357675714521
 21
287.11291825783883
 31
0.0
  0
ARC
  5
9A83
  8
AM_0
 10
192.03718675714521
 20
261.96289825783862
 30
0.0
 40
1.5
 50
90.000003000000945
 51
178.50000000000051
  0
LINE
  5
9A84
  8
AM_0
 10
190.45813876727931
 20
258.96289825783907
 30
0.0
 11
190.7891467571452
 21
271.6029682578386
 31
0.0
  0
LINE
  5
9A85
  8
AM_0
 10
130.58911025906559
 20
258.96289825783907
 30
0.0
 11
130.2580767571452
 21
271.60287825783871
 31
0.0
  0
LINE
  5
9A86
  8
AM_0
 10
194.02357675714541
 20
258.96289825783907
 30
0.0
 11
127.02357675714541
 21
258.96289825783907
 31
0.0
  0
LINE
  5
9A87
  8
AM_0
 10
151.44509644581919
 20
251.46289825783879
 30
0.0
 11
149.9450964458193
 21
251.46289825783879
 31
0.0
  0
LINE
  5
9A88
  8
AM_0
 10
151.44509644581919
 20
247.4628982578385
 30
0.0
 11
149.9450964458193
 21
247.46289825783899
 31
0.0
  0
LINE
  5
9A89
  8
AM_0
 10
189.64845049129849
 20
222.46289825783879
 30
0.0
 11
114.1741456281388
 21
222.46289825783921
 31
0.0
  0
LINE
  5
9A8A
  8
AM_0
 10
113.8484504912974
 20
226.4628982578393
 30
0.0
 11
190.14845049129801
 21
239.4628982578385
 31
0.0
  0
LINE
  5
9A8B
  8
AM_0
 10
113.8484504912974
 20
226.4628982578393
 30
0.0
 11
190.14845049129801
 21
239.4628982578385
 31
0.0
  0
LINE
  5
9A8C
  8
AM_0
 10
190.4741456281393
 20
235.46289825783859
 30
0.0
 11
114.1741456281388
 21
222.46289825783921
 31
0.0
  0
LINE
  5
9A8D
  8
AM_0
 10
117.0484504912978
 20
256.4628982578393
 30
0.0
 11
197.52357675714489
 21
256.4628982578389
 31
0.0
  0
LINE
  5
9A8E
  8
ﾁｭｳｼﾝｾﾝ
 10
126.3484504912979
 20
250.46289825783921
 30
0.0
 11
126.3484504912979
 21
228.46289825783921
 31
0.0
  0
LINE
  5
9A8F
  8
AM_0
 10
111.2484504912976
 20
255.46289825783921
 30
0.0
 11
111.2484504912978
 21
227.4628982578393
 31
0.0
  0
LINE
  5
9A90
  8
AM_0
 10
109.2484504912985
 20
231.4628982578393
 30
0.0
 11
109.2484504912987
 21
223.9628982578393
 31
0.0
  0
ARC
  5
9A91
  8
AM_0
 10
126.3484504912979
 20
239.46289825783921
 30
0.0
 40
9.2999999999997094
 50
180.0
 51
0.0
  0
LINE
  5
9A92
  8
AM_0
 10
113.767026707087
 20
227.4628982578393
 30
0.0
 11
145.7450964458192
 21
232.91132429458241
 31
0.0
  0
ARC
  5
9A93
  8
AM_0
 10
111.248450491298
 20
223.9628982578393
 30
0.0
 40
1.499999999999998
 50
180.0
 51
270.0
  0
ARC
  5
9A94
  8
AM_0
 10
110.7484504912986
 20
223.9628982578393
 30
0.0
 40
1.5000000000001099
 50
180.0
 51
269.99999999999511
  0
LINE
  5
9A95
  8
AM_0
 10
109.7484504912975
 20
226.4628982578393
 30
0.0
 11
113.8484504912974
 21
226.4628982578393
 31
0.0
  0
LINE
  5
9A96
  8
AM_0
 10
113.767026707087
 20
227.4628982578393
 30
0.0
 11
109.7484504912975
 21
227.4628982578393
 31
0.0
  0
LINE
  5
9A97
  8
AM_0
 10
110.0484504912982
 20
226.4628982578393
 30
0.0
 11
113.8484504912974
 21
226.4628982578393
 31
0.0
  0
LINE
  5
9A98
  8
AM_0
 10
110.7484504912986
 20
222.46289825783921
 30
0.0
 11
111.0469363874554
 21
222.46289825783921
 31
0.0
  0
LINE
  5
9A99
  8
AM_0
 10
111.248450491298
 20
222.46289825783921
 30
0.0
 11
114.1741456281388
 21
222.46289825783921
 31
0.0
  0
LINE
  5
9A9A
  8
AM_0
 10
109.7484504912975
 20
227.4628982578393
 30
0.0
 11
109.7484504912975
 21
223.9628982578393
 31
0.0
  0
LINE
  5
9A9B
  8
ﾁｭｳｼﾝｾﾝ
 10
115.348450491298
 20
239.46289825783921
 30
0.0
 11
137.348450491298
 21
239.46289825783921
 31
0.0
  0
CIRCLE
  5
9A9C
  8
AM_0
 10
126.3484504912979
 20
239.46289825783921
 30
0.0
 40
6.2999999999996117
  0
LINE
  5
9A9D
  8
AM_0
 10
117.0484504912978
 20
256.4628982578393
 30
0.0
 11
117.0484504912975
 21
239.46289825783921
 31
0.0
  0
LINE
  5
9A9E
  8
AM_0
 10
111.2484504912977
 20
231.4628982578393
 30
0.0
 11
110.0484504912982
 21
231.4628982578393
 31
0.0
  0
LINE
  5
9A9F
  8
AM_0
 10
110.0484504912982
 20
231.4628982578393
 30
0.0
 11
109.2484504912985
 21
231.4628982578393
 31
0.0
  0
LINE
  5
9AA0
  8
AM_0
 10
112.2484504912974
 20
256.4628982578393
 30
0.0
 11
117.0484504912978
 21
256.4628982578393
 31
0.0
  0
ARC
  5
9AA1
  8
AM_0
 10
112.2484504912974
 20
255.46289825783921
 30
0.0
 40
1.0
 50
90.0
 51
180.0
  0
LINE
  5
9AA2
  8
AM_0
 10
147.74509644581931
 20
233.25208445185649
 30
0.0
 11
147.74509644581931
 21
251.4628982578393
 31
0.0
  0
LINE
  5
9AA3
  8
AM_0
 10
145.7450964458192
 20
251.46289825783879
 30
0.0
 11
145.7450964458192
 21
232.91132429458241
 31
0.0
  0
LINE
  5
9AA4
  8
AM_0
 10
149.9450964458193
 20
251.46289825783879
 30
0.0
 11
149.9450964458193
 21
233.62692062485809
 31
0.0
  0
LINE
  5
9AA5
  8
AM_0
 10
135.64845049129769
 20
256.4628982578389
 30
0.0
 11
135.64845049129769
 21
239.46289825783879
 31
0.0
  0
LINE
  5
9AA6
  8
AM_0
 10
147.74509644581931
 20
233.25208445185649
 30
0.0
 11
149.9450964458193
 21
233.62692062485809
 31
0.0
  0
LINE
  5
9AA7
  8
AM_0
 10
127.02357675714541
 20
258.96289825783907
 30
0.0
 11
127.02357675714541
 21
256.4628982578389
 31
0.0
  0
LINE
  5
9AA8
  8
AM_0
 10
147.74509644581931
 20
251.4628982578393
 30
0.0
 11
145.7450964458192
 21
251.46289825783879
 31
0.0
  0
LINE
  5
9AA9
  8
AM_0
 10
147.74509644581931
 20
247.46289825783899
 30
0.0
 11
145.7450964458192
 21
247.46289825783899
 31
0.0
  0
LINE
  5
9AAA
  8
AM_0
 10
192.14845049129849
 20
234.96289825783879
 30
0.0
 11
192.14845049129849
 21
224.9628982578389
 31
0.0
  0
LINE
  5
9AAB
  8
AM_0
 10
181.87860201031529
 20
222.46289825783879
 30
0.0
 11
181.87860201031529
 21
233.9983888603069
 31
0.0
  0
ARC
  5
9AAC
  8
AM_0
 10
189.64845049129849
 20
224.9628982578389
 30
0.0
 40
2.5
 50
270.0
 51
0.0
  0
LINE
  5
9AAD
  8
AM_0
 10
173.66186667320599
 20
237.66778580121391
 30
0.0
 11
183.52357675714489
 21
239.3480247408105
 31
0.0
  0
LINE
  5
9AAE
  8
AM_0
 10
168.45851262772851
 20
251.46289825783879
 30
0.0
 11
168.4585126277284
 21
236.7812379297697
 31
0.0
  0
LINE
  5
9AAF
  8
AM_0
 10
169.9585126277286
 20
237.0368080477252
 30
0.0
 11
169.9585126277286
 21
251.46289825783879
 31
0.0
  0
LINE
  5
9AB0
  8
AM_0
 10
172.16186667320591
 20
251.46289825783879
 30
0.0
 11
172.16186667320591
 21
237.41221568325841
 31
0.0
  0
LINE
  5
9AB1
  8
AM_0
 10
173.66186667320599
 20
237.66778580121391
 30
0.0
 11
173.66186667320599
 21
251.46289825783879
 31
0.0
  0
LINE
  5
9AB2
  8
AM_0
 10
157.3484504912966
 20
251.46289825783879
 30
0.0
 11
157.3484504912966
 21
234.88830466930301
 31
0.0
  0
LINE
  5
9AB3
  8
AM_0
 10
159.34845049129979
 20
235.22906482657729
 30
0.0
 11
159.34845049130021
 21
251.46289825784169
 31
0.0
  0
LINE
  5
9AB4
  8
AM_0
 10
161.05180453677411
 20
251.46289825783879
 30
0.0
 11
161.0518045367738
 21
235.51928242279209
 31
0.0
  0
LINE
  5
9AB5
  8
AM_0
 10
162.55180453677389
 20
235.77485254074719
 30
0.0
 11
162.55180453677411
 21
251.46289825783879
 31
0.0
  0
LINE
  5
9AB6
  8
AM_0
 10
164.7551585822516
 20
251.46289825783879
 30
0.0
 11
164.7551585822514
 21
236.15026017628071
 31
0.0
  0
LINE
  5
9AB7
  8
AM_0
 10
166.25515858225131
 20
236.4058302942363
 30
0.0
 11
166.25515858225131
 21
251.46289825783879
 31
0.0
  0
LINE
  5
9AB8
  8
AM_0
 10
151.44509644581919
 20
233.88249074281319
 30
0.0
 11
151.44509644581919
 21
251.46289825783879
 31
0.0
  0
LINE
  5
9AB9
  8
AM_0
 10
153.64509644581929
 20
251.46289825783879
 30
0.0
 11
153.64509644581921
 21
234.25732691581419
 31
0.0
  0
LINE
  5
9ABA
  8
AM_0
 10
155.14509644581909
 20
234.5128970337696
 30
0.0
 11
155.14509644581909
 21
251.46289825783879
 31
0.0
  0
LINE
  5
9ABB
  8
AM_0
 10
162.55180453677389
 20
235.77485254074719
 30
0.0
 11
164.7551585822514
 21
236.15026017628071
 31
0.0
  0
LINE
  5
9ABC
  8
AM_0
 10
155.14509644581909
 20
234.5128970337696
 30
0.0
 11
157.3484504912966
 21
234.88830466930301
 31
0.0
  0
LINE
  5
9ABD
  8
AM_0
 10
151.44509644581919
 20
233.88249074281319
 30
0.0
 11
153.64509644581921
 21
234.25732691581419
 31
0.0
  0
LINE
  5
9ABE
  8
AM_0
 10
159.34845049129979
 20
235.22906482657729
 30
0.0
 11
161.0518045367738
 21
235.51928242279209
 31
0.0
  0
LINE
  5
9ABF
  8
AM_0
 10
166.25515858225131
 20
236.4058302942363
 30
0.0
 11
168.4585126277284
 21
236.7812379297697
 31
0.0
  0
LINE
  5
9AC0
  8
AM_0
 10
169.9585126277286
 20
237.0368080477252
 30
0.0
 11
172.16186667320591
 21
237.41221568325841
 31
0.0
  0
LINE
  5
9AC1
  8
AM_0
 10
155.14509644581909
 20
251.46289825783879
 30
0.0
 11
153.64509644581929
 21
251.46289825783879
 31
0.0
  0
LINE
  5
9AC2
  8
AM_0
 10
155.14509644581909
 20
247.4628982578385
 30
0.0
 11
153.64509644581929
 21
247.4628982578385
 31
0.0
  0
LINE
  5
9AC3
  8
AM_0
 10
159.34845049130021
 20
251.46289825783879
 30
0.0
 11
157.3484504912966
 21
251.46289825783879
 31
0.0
  0
LINE
  5
9AC4
  8
AM_0
 10
159.34845049130021
 20
247.4628982578385
 30
0.0
 11
157.3484504912966
 21
247.4628982578385
 31
0.0
  0
LINE
  5
9AC5
  8
AM_0
 10
162.55180453677411
 20
251.46289825783879
 30
0.0
 11
161.05180453677411
 21
251.46289825783879
 31
0.0
  0
LINE
  5
9AC6
  8
AM_0
 10
162.55180453677431
 20
247.4628982578385
 30
0.0
 11
161.05180453677411
 21
247.4628982578385
 31
0.0
  0
LINE
  5
9AC7
  8
AM_0
 10
169.9585126277286
 20
251.46289825783879
 30
0.0
 11
168.45851262772851
 21
251.46289825783879
 31
0.0
  0
LINE
  5
9AC8
  8
AM_0
 10
169.9585126277286
 20
247.4628982578385
 30
0.0
 11
168.45851262772851
 21
247.4628982578385
 31
0.0
  0
LINE
  5
9AC9
  8
AM_0
 10
166.25515858225131
 20
251.46289825783879
 30
0.0
 11
164.7551585822516
 21
251.46289825783879
 31
0.0
  0
LINE
  5
9ACA
  8
AM_0
 10
166.25515858225131
 20
247.4628982578385
 30
0.0
 11
164.7551585822516
 21
247.4628982578385
 31
0.0
  0
LINE
  5
9ACB
  8
AM_0
 10
173.66186667320599
 20
251.46289825783879
 30
0.0
 11
172.16186667320591
 21
251.46289825783879
 31
0.0
  0
LINE
  5
9ACC
  8
AM_0
 10
173.66186667320599
 20
247.4628982578385
 30
0.0
 11
172.16186667320591
 21
247.4628982578385
 31
0.0
  0
LINE
  5
9ACD
  8
AM_0
 10
198.52357675714481
 20
239.46289825783879
 30
0.0
 11
198.52357675714489
 21
255.4628982578385
 31
0.0
  0
LINE
  5
9ACE
  8
AM_0
 10
183.52357675714489
 20
239.3480247408105
 30
0.0
 11
183.52357675714489
 21
256.4628982578389
 31
0.0
  0
LINE
  5
9ACF
  8
AM_0
 10
182.7484504912988
 20
234.14869303054141
 30
0.0
 11
182.74845049129871
 21
238.20208567592499
 31
0.0
  0
LINE
  5
9AD0
  8
AM_0
 10
198.52357675714481
 20
239.46289825783879
 30
0.0
 11
198.52357675714481
 21
235.9628982578387
 31
0.0
  0
LINE
  5
9AD1
  8
AM_0
 10
192.64845049129841
 20
235.46289825783859
 30
0.0
 11
198.02357675714501
 21
235.46289825783859
 31
0.0
  0
ARC
  5
9AD2
  8
AM_0
 10
192.64845049129841
 20
234.96289825783879
 30
0.0
 40
0.5
 50
90.0
 51
180.0
  0
LINE
  5
9AD3
  8
AM_0
 10
192.64845049129841
 20
235.46289825783859
 30
0.0
 11
190.4741456281393
 21
235.46289825783859
 31
0.0
  0
ARC
  5
9AD4
  8
AM_0
 10
198.02357675714501
 20
235.9628982578387
 30
0.0
 40
0.5
 50
270.0
 51
0.0
  0
LINE
  5
9AD5
  8
AM_0
 10
198.52357675714481
 20
239.46289825783879
 30
0.0
 11
190.14845049129801
 21
239.4628982578385
 31
0.0
  0
ARC
  5
9AD6
  8
AM_0
 10
197.52357675714489
 20
255.4628982578385
 30
0.0
 40
1.0
 50
0.0
 51
90.0
  0
LINE
  5
9AD7
  8
AM_0
 10
194.02357675714541
 20
258.96289825783907
 30
0.0
 11
194.02357675714541
 21
256.4628982578389
 31
0.0
  0
ARC
  5
9AD8
  8
AM_0
 10
128.84999675714531
 20
268.07287825783862
 30
0.0
 40
1.5
 50
1.5000026999989771
 51
90.000003000000945
  0
ARC
  5
9AD9
  8
AM_0
 10
139.96229675714531
 20
318.46289825783867
 30
0.0
 40
1.0000056999999991
 50
269.999989999999
 51
90.000003000000945
  0
ARC
  5
9ADA
  8
AM_0
 10
141.18855675714531
 20
318.45288825783882
 30
0.0
 40
1.3300148000000001
 50
269.72941999999853
 51
90.270567000000995
  0
LINE
  5
9ADB
  8
AM_0
 10
173.54359675714539
 20
305.96289825783867
 30
0.0
 11
173.54359675714539
 21
301.10290825783881
 31
0.0
  0
LINE
  5
9ADC
  8
AM_0
 10
174.02357675714521
 20
305.96289825783867
 30
0.0
 11
174.02357675714521
 21
300.96289825783867
 31
0.0
  0
ARC
  5
9ADD
  8
AM_0
 10
172.54359675714531
 20
301.10290825783881
 30
0.0
 40
1.0
 50
269.999989999999
 51
0.0000006832462478
  0
ARC
  5
9ADE
  8
AM_0
 10
172.52357675714521
 20
300.96289825783867
 30
0.0
 40
1.5
 50
269.999989999999
 51
0.0000006832462478
  0
ARC
  5
9ADF
  8
AM_0
 10
172.52357675714521
 20
305.96289825783867
 30
0.0
 40
1.02
 50
0.0
 51
90.000003000000945
  0
ARC
  5
9AE0
  8
AM_0
 10
172.52357675714521
 20
305.96289825783867
 30
0.0
 40
1.5
 50
0.0
 51
90.000003000000945
  0
CIRCLE
  5
9AE1
  8
AM_0
 10
179.02357675714521
 20
304.96289825783867
 30
0.0
 40
1.149999999999999
  0
CIRCLE
  5
9AE2
  8
AM_0
 10
179.02357675714521
 20
304.96289825783867
 30
0.0
 40
1.1000000000000001
  0
CIRCLE
  5
9AE3
  8
AM_0
 10
184.02357675714521
 20
304.96289825783867
 30
0.0
 40
1.0
  0
LINE
  5
9AE4
  8
AM_0
 10
189.5035567571453
 20
305.96289825783867
 30
0.0
 11
189.5035567571453
 21
301.10290825783881
 31
0.0
  0
LINE
  5
9AE5
  8
AM_0
 10
189.02357675714521
 20
305.96289825783867
 30
0.0
 11
189.02357675714521
 21
300.96289825783867
 31
0.0
  0
ARC
  5
9AE6
  8
AM_0
 10
190.50355675714519
 20
301.10290825783881
 30
0.0
 40
1.0
 50
179.99998999999889
 51
270.0
  0
ARC
  5
9AE7
  8
AM_0
 10
190.52357675714541
 20
300.96289825783867
 30
0.0
 40
1.5
 50
179.99998999999889
 51
270.0
  0
ARC
  5
9AE8
  8
AM_0
 10
190.52357675714541
 20
305.96289825783867
 30
0.0
 40
1.02
 50
90.000003000000945
 51
180.00001000000091
  0
ARC
  5
9AE9
  8
AM_0
 10
190.52357675714541
 20
305.96289825783867
 30
0.0
 40
1.5
 50
90.000003000000945
 51
180.00001000000091
  0
LINE
  5
9AEA
  8
AM_0
 10
206.2635667571453
 20
273.09295825783869
 30
0.0
 11
209.7235567571453
 21
286.00292825783868
 31
0.0
  0
ARC
  5
9AEB
  8
AM_0
 10
212.51661675714519
 20
270.95593825783862
 30
0.0
 40
0.99304521
 50
179.5973099999994
 51
270.40267999999998
  0
LINE
  5
9AEC
  8
AM_0
 10
206.23359675714539
 20
272.96289825783867
 30
0.0
 11
211.52357675714521
 21
272.96289825783867
 31
0.0
  0
LINE
  5
9AED
  8
AM_0
 10
210.52357675714529
 20
272.96295825783881
 30
0.0
 11
204.7977767571455
 21
264.14602825783862
 31
0.0
  0
ARC
  5
9AEE
  8
AM_0
 10
203.53975675714531
 20
264.96289825783867
 30
0.0
 40
1.5
 50
269.999989999999
 51
326.99999999999801
  0
ARC
  5
9AEF
  8
AM_0
 10
204.32484675714531
 20
273.60913825783882
 30
0.0
 40
2.0062942999999991
 50
270.24932999999891
 51
345.08844000000039
  0
LINE
  5
9AF0
  8
AM_0
 10
212.52357675714529
 20
269.96289825783862
 30
0.0
 11
219.52357675714549
 21
269.96289825783862
 31
0.0
  0
ARC
  5
9AF1
  8
AM_0
 10
212.5159467571452
 20
282.41528825783882
 30
0.0
 40
0.99237448
 50
179.55802000000131
 51
270.4419699999998
  0
ARC
  5
9AF2
  8
AM_0
 10
211.1672567571452
 20
285.61914825783867
 30
0.0
 40
1.4937901
 50
89.756423999998475
 51
165.11292000000071
  0
LINE
  5
9AF3
  8
AM_0
 10
212.52357675714529
 20
281.42285825783881
 30
0.0
 11
219.52357675714549
 21
281.42285825783881
 31
0.0
  0
ARC
  5
9AF4
  8
AM_0
 10
204.86360675714531
 20
298.46289825783867
 30
0.0
 40
1.0000040999999991
 50
269.999989999999
 51
90.000003000000945
  0
ARC
  5
9AF5
  8
AM_0
 10
208.34358675714529
 20
298.42285825783881
 30
0.0
 40
1.6800077
 50
269.999989999999
 51
90.000003000000945
  0
ARC
  5
9AF6
  8
AM_0
 10
204.86354675714529
 20
308.46289825783867
 30
0.0
 40
1.0000255999999981
 50
269.58946999999989
 51
90.410531000001029
  0
ARC
  5
9AF7
  8
AM_0
 10
208.56355675714531
 20
308.43286825783872
 30
0.0
 40
1.460011199999999
 50
269.77524999999991
 51
90.224750000000114
  0
LINE
  5
9AF8
  8
AM_0
 10
211.52357675714521
 20
296.31286825783877
 30
0.0
 11
219.52357675714549
 21
296.31286825783877
 31
0.0
  0
LINE
  5
9AF9
  8
AM_0
 10
190.52357675714541
 20
359.95288825783882
 30
0.0
 11
208.56929675714531
 21
359.95288825783882
 31
0.0
  0
LINE
  5
9AFA
  8
AM_0
 10
190.50355675714519
 20
366.83288825783882
 30
0.0
 11
208.34358675714529
 21
366.83288825783882
 31
0.0
  0
LINE
  5
9AFB
  8
AM_0
 10
204.8707467571455
 20
359.46289825783867
 30
0.0
 11
190.52357675714541
 21
359.46289825783867
 31
0.0
  0
LINE
  5
9AFC
  8
AM_0
 10
204.86360675714531
 20
367.46289825783862
 30
0.0
 11
190.52357675714541
 21
367.46289825783862
 31
0.0
  0
LINE
  5
9AFD
  8
AM_0
 10
105.52357675714541
 20
379.81286825783877
 30
0.0
 11
211.52357675714521
 21
379.81286825783877
 31
0.0
  0
ARC
  5
9AFE
  8
AM_0
 10
139.96229675714531
 20
328.46289825783879
 30
0.0
 40
1.0000056999999991
 50
269.999989999999
 51
90.000003000000945
  0
ARC
  5
9AFF
  8
AM_0
 10
141.25050675714519
 20
328.46289825783879
 30
0.0
 40
1.2700266
 50
269.62931999999989
 51
90.370670000001468
  0
ARC
  5
9B00
  8
AM_0
 10
139.96229675714531
 20
338.46289825783867
 30
0.0
 40
1.0000056999999991
 50
269.999989999999
 51
90.000003000000945
  0
ARC
  5
9B01
  8
AM_0
 10
141.25050675714519
 20
338.4729082578387
 30
0.0
 40
1.2700266
 50
269.62931999999989
 51
90.370670000001468
  0
ARC
  5
9B02
  8
AM_0
 10
139.96229675714531
 20
348.46289825783867
 30
0.0
 40
1.0000056999999991
 50
269.999989999999
 51
90.000003000000945
  0
ARC
  5
9B03
  8
AM_0
 10
141.18855675714531
 20
348.47790825783881
 30
0.0
 40
1.3350147999999991
 50
269.73042999999973
 51
90.269556000001344
  0
ARC
  5
9B04
  8
AM_0
 10
172.54359675714531
 20
365.82287825783879
 30
0.0
 40
1.0
 50
0.0
 51
90.000003000000945
  0
ARC
  5
9B05
  8
AM_0
 10
172.52357675714521
 20
365.96289825783879
 30
0.0
 40
1.5
 50
0.0
 51
90.000003000000945
  0
LINE
  5
9B06
  8
AM_0
 10
174.02357675714521
 20
360.96289825783862
 30
0.0
 11
174.02357675714521
 21
365.96289825783879
 31
0.0
  0
LINE
  5
9B07
  8
AM_0
 10
173.54359675714539
 20
360.96289825783862
 30
0.0
 11
173.54359675714539
 21
365.82287825783879
 31
0.0
  0
ARC
  5
9B08
  8
AM_0
 10
172.52357675714521
 20
360.96289825783862
 30
0.0
 40
1.02
 50
269.999989999999
 51
0.0000006832429909
  0
ARC
  5
9B09
  8
AM_0
 10
172.52357675714521
 20
360.96289825783862
 30
0.0
 40
1.5
 50
269.999989999999
 51
0.0000006832462478
  0
CIRCLE
  5
9B0A
  8
AM_0
 10
179.02357675714521
 20
361.96289825783879
 30
0.0
 40
1.1000000000000001
  0
CIRCLE
  5
9B0B
  8
AM_0
 10
179.02357675714521
 20
361.96289825783879
 30
0.0
 40
1.149999999999999
  0
CIRCLE
  5
9B0C
  8
AM_0
 10
184.02357675714521
 20
361.96289825783879
 30
0.0
 40
1.0
  0
ARC
  5
9B0D
  8
AM_0
 10
190.50355675714519
 20
365.82287825783879
 30
0.0
 40
1.0
 50
90.000003000000945
 51
180.00001000000091
  0
ARC
  5
9B0E
  8
AM_0
 10
190.52357675714541
 20
365.96289825783879
 30
0.0
 40
1.5
 50
90.000003000000945
 51
180.00001000000091
  0
LINE
  5
9B0F
  8
AM_0
 10
189.5035567571453
 20
360.96289825783862
 30
0.0
 11
189.5035567571453
 21
365.82287825783879
 31
0.0
  0
ARC
  5
9B10
  8
AM_0
 10
190.52357675714541
 20
360.96289825783862
 30
0.0
 40
1.02
 50
179.99998999999889
 51
270.0
  0
LINE
  5
9B11
  8
AM_0
 10
189.02357675714521
 20
360.96289825783862
 30
0.0
 11
189.02357675714521
 21
365.96289825783879
 31
0.0
  0
ARC
  5
9B12
  8
AM_0
 10
190.52357675714541
 20
360.96289825783862
 30
0.0
 40
1.5
 50
179.99998999999889
 51
270.0
  0
LINE
  5
9B13
  8
AM_0
 10
207.07377675714531
 20
398.19808825783872
 30
0.0
 11
209.76362675714529
 21
385.68286825783872
 31
0.0
  0
LINE
  5
9B14
  8
AM_0
 10
206.26359675714519
 20
393.84283825783848
 30
0.0
 11
209.7235867571452
 21
380.92288825783891
 31
0.0
  0
ARC
  5
9B15
  8
AM_0
 10
204.86354675714529
 20
358.46289825783867
 30
0.0
 40
1.0000255999999981
 50
269.58946999999989
 51
90.410531000001029
  0
ARC
  5
9B16
  8
AM_0
 10
208.56355675714531
 20
358.4929282578388
 30
0.0
 40
1.460011199999999
 50
269.77524999999991
 51
90.224750000000114
  0
ARC
  5
9B17
  8
AM_0
 10
208.34358675714529
 20
368.51293825783881
 30
0.0
 40
1.6800077
 50
269.999989999999
 51
90.000003000000945
  0
ARC
  5
9B18
  8
AM_0
 10
204.86360675714531
 20
368.46289825783862
 30
0.0
 40
1.0000040999999991
 50
269.999989999999
 51
90.000003000000945
  0
LINE
  5
9B19
  8
AM_0
 10
211.52357675714521
 20
370.61291825783883
 30
0.0
 11
219.52357675714549
 21
370.61291825783883
 31
0.0
  0
ARC
  5
9B1A
  8
AM_0
 10
212.52266675714529
 20
384.50378825783872
 30
0.0
 40
0.9990923399999999
 50
89.947921999999295
 51
180.05208000000101
  0
ARC
  5
9B1B
  8
AM_0
 10
211.1737267571452
 20
381.31518825783883
 30
0.0
 40
1.5022733999999991
 50
195.1365099999997
 51
269.99412000000041
  0
ARC
  5
9B1C
  8
AM_0
 10
211.2292667571455
 20
386.00317825783878
 30
0.0
 40
1.500286
 50
192.3263099999981
 51
270.16416999999848
  0
LINE
  5
9B1D
  8
AM_0
 10
211.23359675714539
 20
384.50292825783862
 30
0.0
 11
208.81361675714541
 21
384.50292825783862
 31
0.0
  0
LINE
  5
9B1E
  8
AM_0
 10
212.52357675714529
 20
385.50292825783862
 30
0.0
 11
219.52357675714549
 21
385.50292825783862
 31
0.0
  0
ARC
  5
9B1F
  8
AM_0
 10
212.52339675714549
 20
395.96313825783858
 30
0.0
 40
0.99980682
 50
89.98893100000069
 51
180.0110700000007
  0
LINE
  5
9B20
  8
AM_0
 10
207.9840267571453
 20
393.96289825783862
 30
0.0
 11
211.52357675714521
 21
393.96289825783862
 31
0.0
  0
ARC
  5
9B21
  8
AM_0
 10
205.60725675714531
 20
397.88293825783859
 30
0.0
 40
1.5
 50
12.12979199999887
 51
90.000003000000945
  0
ARC
  5
9B22
  8
AM_0
 10
204.33302675714529
 20
393.32373825783873
 30
0.0
 40
1.9991226
 50
15.05079100000003
 51
89.984388999999666
  0
ARC
  5
9B23
  8
AM_0
 10
206.04353675714529
 20
395.85290825783881
 30
0.0
 40
1.5
 50
12.12979199999887
 51
90.000003000000945
  0
ARC
  5
9B24
  8
AM_0
 10
205.75123675714519
 20
397.21289825783879
 30
0.0
 40
1.5
 50
12.12979199999887
 51
90.000003000000945
  0
LINE
  5
9B25
  8
AM_0
 10
212.52357675714529
 20
396.96289825783862
 30
0.0
 11
219.52357675714549
 21
396.96289825783862
 31
0.0
  0
LINE
  5
9B30
  8
ﾁｭｳｼﾝｾﾝ
 10
478.61966308861008
 20
81.702980217573653
 30
0.0
 11
556.24765612558986
 21
81.702980217573653
 31
0.0
  0
TEXT
  5
A134
  8
0
  6
CONTINUOUS
 62
     0
 10
407.48595116479868
 20
329.06799369539601
 30
0.0
 40
10.0
  1
VX04-003BF~VX04-010BF
  0
VIEWPORT
  5
89
 67
     1
  8
0
 10
210.0
 20
148.5
 30
0.0
 40
420.0
 41
297.0
 68
    -1
 69
     1
1001
ACAD
1000
MVIEW
1002
{
1070
    16
1010
0.0
1020
0.0
1030
0.0
1010
0.0
1020
0.0
1030
1.0
1040
0.0
1040
297.0
1040
221.70154043645701
1040
148.5
1040
50.0
1040
0.0
1040
0.0
1070
     0
1070
   100
1070
     1
1070
     1
1070
     0
1070
     0
1070
     0
1070
     0
1040
0.0
1040
0.0
1040
0.0
1040
10.0
1040
10.0
1040
10.0
1040
10.0
1070
     0
1002
{
1002
}
1002
}
1001
GENIUS_GENOREF_13
1005
1B94
1001
GENIUS_GENSCREG_15
1000
PF
1040
1.0
1000
DF
1040
1.0
1000
MIN
1011
0.0
1021
0.0
1031
0.0
1021
0.0
1031
0.0
1000
MAX
1011
420.0
1021
0.0
1031
0.0
1021
297.0
1031
0.0
1000
FLAGS
1070
     4
  0
ENDSEC
  0
EOF
