  0
SECTION
  2
HEADER
  9
$ACADVER
  1
AC1009
  9
$INSBASE
 10
0.0
 20
0.0
 30
0.0
  9
$EXTMIN
 10
7.1190685007059074
 20
0.6754471587269109
 30
-0.0015258207003583
  9
$EXTMAX
 10
640.61883428957071
 20
426.43189399804578
 30
0.0000000349246037
  9
$LIMMIN
 10
0.0
 20
0.0
  9
$LIMMAX
 10
408.0
 20
284.0
  9
$ORTHOMODE
 70
     0
  9
$REGENMODE
 70
     1
  9
$FILLMODE
 70
     1
  9
$QTEXTMODE
 70
     0
  9
$MIRRTEXT
 70
     1
  9
$DRAGMODE
 70
     2
  9
$LTSCALE
 40
1.0
  9
$OSMODE
 70
   551
  9
$ATTMODE
 70
     1
  9
$TEXTSIZE
 40
2.5
  9
$TRACEWID
 40
1.0
  9
$TEXTSTYLE
  7
STANDARD
  9
$CLAYER
  8
AM_0
  9
$CELTYPE
  6
BYLAYER
  9
$CECOLOR
 62
   256
  9
$DIMSCALE
 40
1.0
  9
$DIMASZ
 40
2.5
  9
$DIMEXO
 40
1.0
  9
$DIMDLI
 40
7.0
  9
$DIMRND
 40
0.0
  9
$DIMDLE
 40
0.0
  9
$DIMEXE
 40
1.0
  9
$DIMTP
 40
0.1
  9
$DIMTM
 40
0.1000000001
  9
$DIMTXT
 40
2.5
  9
$DIMCEN
 40
0.0
  9
$DIMTSZ
 40
0.0
  9
$DIMTOL
 70
     0
  9
$DIMLIM
 70
     0
  9
$DIMTIH
 70
     0
  9
$DIMTOH
 70
     0
  9
$DIMSE1
 70
     0
  9
$DIMSE2
 70
     0
  9
$DIMTAD
 70
     3
  9
$DIMZIN
 70
     8
  9
$DIMBLK
  1

  9
$DIMASO
 70
     1
  9
$DIMSHO
 70
     1
  9
$DIMPOST
  1

  9
$DIMAPOST
  1
"
  9
$DIMALT
 70
     0
  9
$DIMALTD
 70
     2
  9
$DIMALTF
 40
0.0393701
  9
$DIMLFAC
 40
1.0
  9
$DIMTOFL
 70
     1
  9
$DIMTVP
 40
0.0
  9
$DIMTIX
 70
     0
  9
$DIMSOXD
 70
     0
  9
$DIMSAH
 70
     0
  9
$DIMBLK1
  1

  9
$DIMBLK2
  1

  9
$DIMSTYLE
  2
AM_JIS
  9
$DIMCLRD
 70
   256
  9
$DIMCLRE
 70
   256
  9
$DIMCLRT
 70
     4
  9
$DIMTFAC
 40
0.71
  9
$DIMGAP
 40
1.0
  9
$LUNITS
 70
     2
  9
$LUPREC
 70
     2
  9
$SKETCHINC
 40
1.0
  9
$FILLETRAD
 40
2.5
  9
$AUNITS
 70
     0
  9
$AUPREC
 70
     3
  9
$MENU
  1
.
  9
$ELEVATION
 40
0.0
  9
$PELEVATION
 40
0.0
  9
$THICKNESS
 40
0.0
  9
$LIMCHECK
 70
     0
  9
$BLIPMODE
 70
     0
  9
$CHAMFERA
 40
2.5
  9
$CHAMFERB
 40
2.5
  9
$SKPOLY
 70
     0
  9
$TDCREATE
 40
2453062.5447066668
  9
$TDUPDATE
 40
2458541.3649526159
  9
$TDINDWG
 40
0.0692336921
  9
$TDUSRTIMER
 40
0.0692334838
  9
$USRTIMER
 70
     1
  9
$ANGBASE
 50
0.0
  9
$ANGDIR
 70
     0
  9
$PDMODE
 70
     0
  9
$PDSIZE
 40
0.0
  9
$PLINEWID
 40
0.0
  9
$COORDS
 70
     1
  9
$SPLFRAME
 70
     0
  9
$SPLINETYPE
 70
     6
  9
$SPLINESEGS
 70
     8
  9
$ATTDIA
 70
     1
  9
$ATTREQ
 70
     1
  9
$HANDLING
 70
     1
  9
$HANDSEED
  5
A16A
  9
$SURFTAB1
 70
     6
  9
$SURFTAB2
 70
     6
  9
$SURFTYPE
 70
     6
  9
$SURFU
 70
     6
  9
$SURFV
 70
     6
  9
$UCSNAME
  2

  9
$UCSORG
 10
0.0
 20
0.0
 30
0.0
  9
$UCSXDIR
 10
1.0
 20
0.0
 30
0.0
  9
$UCSYDIR
 10
0.0
 20
1.0
 30
0.0
  9
$PUCSNAME
  2

  9
$PUCSORG
 10
0.0
 20
0.0
 30
0.0
  9
$PUCSXDIR
 10
1.0
 20
0.0
 30
0.0
  9
$PUCSYDIR
 10
0.0
 20
1.0
 30
0.0
  9
$USERI1
 70
     0
  9
$USERI2
 70
     0
  9
$USERI3
 70
     0
  9
$USERI4
 70
     0
  9
$USERI5
 70
     0
  9
$USERR1
 40
0.0
  9
$USERR2
 40
0.0
  9
$USERR3
 40
0.0
  9
$USERR4
 40
0.0
  9
$USERR5
 40
0.0
  9
$WORLDVIEW
 70
     1
  9
$SHADEDGE
 70
     3
  9
$SHADEDIF
 70
    70
  9
$TILEMODE
 70
     1
  9
$MAXACTVP
 70
    48
  9
$PLIMCHECK
 70
     0
  9
$PEXTMIN
 10
1.0000000000000000E+020
 20
1.0000000000000000E+020
 30
1.0000000000000000E+020
  9
$PEXTMAX
 10
-1.0000000000000000E+020
 20
-1.0000000000000000E+020
 30
-1.0000000000000000E+020
  9
$PLIMMIN
 10
0.0
 20
0.0
  9
$PLIMMAX
 10
420.0
 20
297.0
  9
$UNITMODE
 70
     0
  9
$VISRETAIN
 70
     1
  9
$PLINEGEN
 70
     0
  9
$PSLTSCALE
 70
     1
  0
ENDSEC
  0
SECTION
  2
TABLES
  0
TABLE
  2
VPORT
 70
     1
  0
VPORT
  2
*ACTIVE
 70
     0
 10
0.0
 20
0.0
 11
1.0
 21
1.0
 12
323.86895139513831
 22
213.5536705783864
 13
0.0
 23
0.0
 14
1.0
 24
1.0
 15
10.0
 25
10.0
 16
0.0
 26
0.0
 36
1.0
 17
0.0
 27
0.0
 37
0.0
 40
428.67925997551549
 41
1.7571592210767459
 42
50.0
 43
0.0
 44
0.0
 50
0.0
 51
0.0
 71
     0
 72
   100
 73
     1
 74
     1
 75
     0
 76
     0
 77
     0
 78
     0
  0
ENDTAB
  0
TABLE
  2
LTYPE
 70
    25
  0
LTYPE
  2
CONTINUOUS
 70
     0
  3
Solid line
 72
    65
 73
     0
 40
0.0
  0
LTYPE
  2
PHANTOM2
 70
     0
  3
Phantom (.5x) ___ _ _ ___ _ _ ___ _ _ ___ _ _
 72
    65
 73
     6
 40
31.75
 49
15.875
 49
-3.174999999999998
 49
3.174999999999998
 49
-3.174999999999998
 49
3.174999999999998
 49
-3.174999999999998
  0
LTYPE
  2
CENTER
 70
     0
  3
Center ____ _ ____ _ ____ _ ____ _ ____ _ ____
 72
    65
 73
     4
 40
50.799999999999997
 49
31.75
 49
-6.3499999999999979
 49
6.3499999999999979
 49
-6.3499999999999979
  0
LTYPE
  2
ACANSTGBM
 70
     0
  3
__ . . __ . .
 72
    65
 73
     6
 40
9.0
 49
4.0
 49
-1.0
 49
1.0
 49
-1.0
 49
1.0
 49
-1.0
  0
LTYPE
  2
ACANSTGLM
 70
     0
  3
_ _ _ _ _
 72
    65
 73
     2
 40
3.0
 49
2.0
 49
-1.0
  0
LTYPE
  2
GEN7
 70
     0
  3
____ . ____ . ____ . ____ . ____ . ____ . ____
 72
    65
 73
     4
 40
14.25
 49
9.75
 49
-1.5
 49
1.5
 49
-1.5
  0
LTYPE
  2
AM_ISO02W050
 70
     0
  3
__ __ __ __ __ __ __ __ __ __ __ __ __ __ __
 72
    65
 73
     2
 40
7.5
 49
6.0
 49
-1.5
  0
LTYPE
  2
AM_ISO08W050
 70
     0
  3
____ . ____ . ____ . ____ . ____ . ____ . ____
 72
    65
 73
     4
 40
18.0
 49
12.0
 49
-1.5
 49
3.0
 49
-1.5
  0
LTYPE
  2
AM_ISO09W050
 70
     0
  3
_____ . . _____ . . _____ . . ____ .. ____
 72
    65
 73
     6
 40
22.5
 49
12.0
 49
-1.5
 49
3.0
 49
-1.5
 49
3.0
 49
-1.5
  0
LTYPE
  2
AMCONSTR
 70
     0
  3
_______________________
 72
    65
 73
     2
 40
9999.0
 49
9999.0
 49
0.0
  0
LTYPE
  2
AM_ISO02W050X2
 70
     0
  3
 _ _ _ _ _ _ _ _ _ _ _ _
 72
    65
 73
     2
 40
3.75
 49
3.0
 49
-0.75
  0
LTYPE
  2
AM_ISO08W050X2
 70
     0
  3
__ . __ . __ . __ . __ . __
 72
    65
 73
     4
 40
9.0
 49
6.0
 49
-0.75
 49
1.5
 49
-0.75
  0
LTYPE
  2
AMZIGZAG
 70
     0
  3
/\/-/\/-/\/-/\/-/\/-/\/
 72
    65
 73
     2
 40
11.000099999999991
 49
0.0001
 49
-11.0
  0
LTYPE
  2
ACJISTGB
 70
     0
  3
__ . . __ . .
 72
    65
 73
     6
 40
9.0
 49
4.0
 49
-1.0
 49
1.0
 49
-1.0
 49
1.0
 49
-1.0
  0
LTYPE
  2
ACJISTGL
 70
     0
  3
_ _ _ _ _
 72
    65
 73
     2
 40
3.0
 49
2.0
 49
-1.0
  0
LTYPE
  2
ACISOWELD
 70
     0
  3
_ _ _ _ _
 72
    65
 73
     2
 40
2.0
 49
2.0
 49
-1.0
  0
LTYPE
  2
ACISOTGB
 70
     0
  3
__ . . __ . .
 72
    65
 73
     6
 40
9.0
 49
4.0
 49
-1.0
 49
1.0
 49
-1.0
 49
1.0
 49
-1.0
  0
LTYPE
  2
ACISOTGL
 70
     0
  3
_ _ _ _ _
 72
    65
 73
     2
 40
3.0
 49
2.0
 49
-1.0
  0
LTYPE
  2
HIDDEN
 70
     0
  3
Hidden __ __ __ __ __ __ __ __ __ __ __ __ __ _
 72
    65
 73
     2
 40
0.375
 49
0.25
 49
-0.125
  0
LTYPE
  2
CENTER2
 70
     0
  3
Center (.5x) ___ _ ___ _ ___ _ ___ _ ___ _ ___
 72
    65
 73
     4
 40
1.125
 49
0.75
 49
-0.125
 49
0.125
 49
-0.125
  0
LTYPE
  2
HIDDEN2
 70
     0
  3
Hidden (.5x) _ _ _ _ _ _ _ _ _ _ _ _ _ _ _ _ _
 72
    65
 73
     2
 40
0.1875
 49
0.125
 49
-0.0625
  0
LTYPE
  2
AMZIGZAG2
 70
     0
  3
/\/-/\/-/\/-/\/-/\/-/\/
 72
    65
 73
     2
 40
0.4401
 49
0.0001
 49
-0.4400000000000001
  0
LTYPE
  2
ACANSTGB
 70
     0
  3
__ . . __ . .
 72
    65
 73
     6
 40
0.35433070866
 49
0.15748031496
 49
-0.03937007874
 49
0.03937007874
 49
-0.03937007874
 49
0.03937007874
 49
-0.03937007874
  0
LTYPE
  2
ACANSTGL
 70
     0
  3
_ _ _ _ _
 72
    65
 73
     2
 40
0.11811023622
 49
0.07874015748
 49
-0.03937007874
  0
ENDTAB
  0
TABLE
  2
LAYER
 70
     6
  0
LAYER
  2
0
 70
     0
 62
     7
  6
CONTINUOUS
  0
LAYER
  2
AM_0
 70
     0
 62
     7
  6
CONTINUOUS
  0
LAYER
  2
DEFPOINTS
 70
     0
 62
     7
  6
CONTINUOUS
  0
LAYER
  2
ﾁｭｳｼﾝｾﾝ
 70
     0
 62
     1
  6
GEN7
  0
LAYER
  2
AM_0N
 70
     0
 62
     7
  6
CONTINUOUS
  0
LAYER
  2
AM_5
 70
     0
 62
     2
  6
CONTINUOUS
  0
ENDTAB
  0
TABLE
  2
STYLE
 70
    10
  0
STYLE
  2
STANDARD
 70
     0
 40
0.0
 41
0.8299999999999999
 50
0.0
 71
     0
 42
2.5
  3
txt.shx
  4
bigfont.shx
  0
STYLE
  2
ANNOTATIVE
 70
     0
 40
0.0
 41
1.0
 50
0.0
 71
     0
 42
0.2
  3
txt
  4

  0
STYLE
  2
ACANSTS
 70
     0
 40
1.0
 41
1.0
 50
0.0
 71
     0
 42
2.5
  3
romans.shx
  4
bigfont.shx
  0
STYLE
  2
ACANSGDT
 70
     0
 40
0.0
 41
1.0
 50
0.0
 71
     0
 42
2.5
  3
amgdt.shx
  4

  0
STYLE
  2

 70
     1
 40
0.0
 41
1.0
 50
0.0
 71
     0
 42
2.5
  3
ltypeshp.shx
  4

  0
STYLE
  2
ACJISTS
 70
     0
 40
1.0
 41
0.8299999999999999
 50
0.0
 71
     0
 42
2.5
  3
txt.shx
  4
bigfont.shx
  0
STYLE
  2
ACJISGDT
 70
     0
 40
0.0
 41
1.0
 50
0.0
 71
     0
 42
2.5
  3
amgdt.shx
  4

  0
STYLE
  2
ACISOTS
 70
     0
 40
1.0
 41
1.0
 50
0.0
 71
     0
 42
2.5
  3
isocp.shx
  4
extfont.shx
  0
STYLE
  2
ACISOGDT
 70
     0
 40
0.0
 41
1.0
 50
0.0
 71
     0
 42
2.5
  3
amgdt.shx
  4

  0
STYLE
  2

 70
     1
 40
0.0
 41
1.0
 50
0.0
 71
     0
 42
2.5
  3
genltshp.shx
  4

  0
ENDTAB
  0
TABLE
  2
VIEW
 70
    12
  0
VIEW
  2
GEN1
 70
     0
 40
95.824742268041234
 10
71.5
 20
137.08762886597941
 41
143.0
 11
0.0
 21
0.0
 31
1.0
 12
0.0
 22
0.0
 32
0.0
 42
50.0
 43
0.0
 44
0.0
 50
0.0
 71
     0
  0
VIEW
  2
GEN2
 70
     0
 40
95.824742268041234
 10
214.5
 20
137.08762886597941
 41
143.0
 11
0.0
 21
0.0
 31
1.0
 12
0.0
 22
0.0
 32
0.0
 42
50.0
 43
0.0
 44
0.0
 50
0.0
 71
     0
  0
VIEW
  2
GEN3
 70
     0
 40
95.824742268041234
 10
71.5
 20
47.912371134020603
 41
143.0
 11
0.0
 21
0.0
 31
1.0
 12
0.0
 22
0.0
 32
0.0
 42
50.0
 43
0.0
 44
0.0
 50
0.0
 71
     0
  0
VIEW
  2
GEN4
 70
     0
 40
95.824742268041234
 10
214.5
 20
47.912371134020603
 41
143.0
 11
0.0
 21
0.0
 31
1.0
 12
0.0
 22
0.0
 32
0.0
 42
50.0
 43
0.0
 44
0.0
 50
0.0
 71
     0
  0
VIEW
  2
GEN5
 70
     0
 40
95.824742268041234
 10
143.0
 20
92.500000000000057
 41
143.0
 11
0.0
 21
0.0
 31
1.0
 12
0.0
 22
0.0
 32
0.0
 42
50.0
 43
0.0
 44
0.0
 50
0.0
 71
     0
  0
VIEW
  2
GEN6
 70
     0
 40
191.64756804123709
 10
143.0
 20
92.5
 41
285.99713999999989
 11
0.0
 21
0.0
 31
1.0
 12
0.0
 22
0.0
 32
0.0
 42
50.0
 43
0.0
 44
0.0
 50
0.0
 71
     0
  0
VIEW
  2
AM_VIEW1
 70
     0
 40
142.0
 10
119.7777777777777
 20
213.0
 41
239.55555555555549
 11
0.0
 21
0.0
 31
1.0
 12
0.0
 22
0.0
 32
0.0
 42
50.0
 43
0.0
 44
0.0
 50
0.0
 71
     0
  0
VIEW
  2
AM_VIEW2
 70
     0
 40
142.0
 10
288.22222222222211
 20
213.0
 41
239.55555555555549
 11
0.0
 21
0.0
 31
1.0
 12
0.0
 22
0.0
 32
0.0
 42
50.0
 43
0.0
 44
0.0
 50
0.0
 71
     0
  0
VIEW
  2
AM_VIEW3
 70
     0
 40
142.0
 10
119.7777777777777
 20
71.0
 41
239.55555555555549
 11
0.0
 21
0.0
 31
1.0
 12
0.0
 22
0.0
 32
0.0
 42
50.0
 43
0.0
 44
0.0
 50
0.0
 71
     0
  0
VIEW
  2
AM_VIEW4
 70
     0
 40
142.0
 10
288.22222222222211
 20
71.0
 41
239.55555555555549
 11
0.0
 21
0.0
 31
1.0
 12
0.0
 22
0.0
 32
0.0
 42
50.0
 43
0.0
 44
0.0
 50
0.0
 71
     0
  0
VIEW
  2
AM_VIEW5
 70
     0
 40
142.0
 10
204.0
 20
142.0
 41
239.55555555555549
 11
0.0
 21
0.0
 31
1.0
 12
0.0
 22
0.0
 32
0.0
 42
50.0
 43
0.0
 44
0.0
 50
0.0
 71
     0
  0
VIEW
  2
AM_VIEW6
 70
     0
 40
283.99716000000001
 10
204.0
 20
142.0
 41
479.10631999999993
 11
0.0
 21
0.0
 31
1.0
 12
0.0
 22
0.0
 32
0.0
 42
50.0
 43
0.0
 44
0.0
 50
0.0
 71
     0
  0
ENDTAB
  0
TABLE
  2
UCS
 70
     0
  0
ENDTAB
  0
TABLE
  2
APPID
 70
   106
  0
APPID
  2
ACAD
 70
     0
  0
APPID
  2
ACADANNOTATIVE
 70
     0
  0
APPID
  2
MCAD_NO_VIS
 70
     0
  0
APPID
  2
ACAD_TEMP_GRAPHIC
 70
     0
  0
APPID
  2
AD_DRAW
 70
     0
  0
APPID
  2
DESIGNERASSEMBLIES
 70
     0
  0
APPID
  2
ASURF_PCURVE_APPNAME
 70
     0
  0
APPID
  2
GENIUS_GE3SECT_13
 70
     0
  0
APPID
  2
GENIUS_GENCFG_13
 70
     0
  0
APPID
  2
GENIUS_GE3CFG0_13
 70
     0
  0
APPID
  2
GENIUS_GENCFG0_13
 70
     0
  0
APPID
  2
GENIUS_GENCFG1_13
 70
     0
  0
APPID
  2
GENIUS_GENCFG2_13
 70
     0
  0
APPID
  2
GENIUS_GENCFG3_13
 70
     0
  0
APPID
  2
GENIUS_GENCFG4_13
 70
     0
  0
APPID
  2
GENIUS_GEVCFG0_13
 70
     0
  0
APPID
  2
GENIUS_GENOENT_13
 70
     0
  0
APPID
  2
GENIUS_GENREC_14
 70
     0
  0
APPID
  2
GENIUS_GENODEF_13
 70
     0
  0
APPID
  2
GENIUS_GENOBJ-N-REC_13
 70
     0
  0
APPID
  2
GENIUS_GENHINW_13
 70
     0
  0
APPID
  2
GENIUS_FIRSTVISTXT_14
 70
     0
  0
APPID
  2
GENIUS_GENOBJ-N-LEADER_13
 70
     0
  0
APPID
  2
GENIUS_GENOREF_13
 70
     0
  0
APPID
  2
GENIUS_GENOLIS_13
 70
     0
  0
APPID
  2
GEV_VCCNULL_SWITCH_OFF
 70
     0
  0
APPID
  2
GENIUS_GENDTOL_13
 70
     0
  0
APPID
  2
GENIUS_GEFCFG0_13
 70
     0
  0
APPID
  2
GENIUS_GENOBJ-N-TIT_13
 70
     0
  0
APPID
  2
GENIUS_GENTITLE_13
 70
     0
  0
APPID
  2
GENIUS_GENZVEED_13
 70
     0
  0
APPID
  2
GENIUS_GENOBJ-N-SDF_13
 70
     0
  0
APPID
  2
GENIUS_GENSCREG_13
 70
     0
  0
APPID
  2
GENIUS_DUMCFG0_13
 70
     0
  0
APPID
  2
GEVID936201362
 70
     0
  0
APPID
  2
GEVDC
 70
     0
  0
APPID
  2
GEVCON
 70
     0
  0
APPID
  2
VCC
 70
     0
  0
APPID
  2
GEVPT
 70
     0
  0
APPID
  2
GEVIT
 70
     0
  0
APPID
  2
GENBH
 70
     0
  0
APPID
  2
GEVMK
 70
     0
  0
APPID
  2
GENIUS_GENBH_13
 70
     0
  0
APPID
  2
GENIUS_GENOBJ-NBEHI-BHF_13
 70
     0
  0
APPID
  2
GENIUS_GENOBJ-NBEHI-BHB_13
 70
     0
  0
APPID
  2
GENIUS_GENOBJ-F-DESC_13
 70
     0
  0
APPID
  2
GENIUS_GEFDESC_14
 70
     0
  0
APPID
  2
GENIUS_GENOBJ-F-PART_13
 70
     0
  0
APPID
  2
GENIUS_GEFSTDP_13
 70
     0
  0
APPID
  2
GENIUS_GEFPARTINS_13
 70
     0
  0
APPID
  2
GENIUS_GENTRA_14
 70
     0
  0
APPID
  2
GENIUS_GENINF13_13
 70
     0
  0
APPID
  2
GENIUS_GENOBJ-N-INFOPT_13
 70
     0
  0
APPID
  2
GENIUS_GENOBJ-N-RSSYM_13
 70
     0
  0
APPID
  2
GENIUS_GENSYMENT_13
 70
     0
  0
APPID
  2
GENIUS_GENSCSYM_13
 70
     0
  0
APPID
  2
GENIUS_GEFINFNAM_13
 70
     0
  0
APPID
  2
GENIUS_GENSCREG_15
 70
     0
  0
APPID
  2
GENIUS_GENOBJ-N-CEN_13
 70
     0
  0
APPID
  2
GENIUS_GENOBJ-N-CRS_13
 70
     0
  0
APPID
  2
GENIUS_GENOBJ-N-CRC_13
 70
     0
  0
APPID
  2
GENIUS_GENCRC_14
 70
     0
  0
APPID
  2
GEVID942827039
 70
     0
  0
APPID
  2
GEVID942827040
 70
     0
  0
APPID
  2
GEVID942827041
 70
     0
  0
APPID
  2
GENIUS_GENOBJ-F-SCPASSM_13
 70
     0
  0
APPID
  2
GENIUS_GENDIMSH_14
 70
     0
  0
APPID
  2
GENIUS_GENFIL_13
 70
     0
  0
APPID
  2
GENIUS_GENOBJ-N-CHA_13
 70
     0
  0
APPID
  2
GENIUS_GENOBJ-N-FIL_13
 70
     0
  0
APPID
  2
GEVID942827042
 70
     0
  0
APPID
  2
GEVID946020473
 70
     0
  0
APPID
  2
GEVID946020474
 70
     0
  0
APPID
  2
GEVID946020475
 70
     0
  0
APPID
  2
GENIUS_GENOBJ-N-HTC_13
 70
     0
  0
APPID
  2
GENIUS_GENHATCH_13
 70
     0
  0
APPID
  2
GEVID948854295
 70
     0
  0
APPID
  2
GEVID939402019
 70
     0
  0
APPID
  2
GEVID952919491
 70
     0
  0
APPID
  2
GEVID952919492
 70
     0
  0
APPID
  2
GENIUS_GEFWELD_13
 70
     0
  0
APPID
  2
GENIUS_GENOBJ-F-WELS_13
 70
     0
  0
APPID
  2
GEVID952919493
 70
     0
  0
APPID
  2
GENIUS_GENOBJ-N-RSBK_13
 70
     0
  0
APPID
  2
GENIUS_GENOBJ-N-LIB_13
 70
     0
  0
APPID
  2
GENIUS_GENSCALE_13
 70
     0
  0
APPID
  2
GEVID986376691
 70
     0
  0
APPID
  2
ACATTRIBSERVICES
 70
     0
  0
APPID
  2
ACADM_DIM_EDIT
 70
     0
  0
APPID
  2
AMDT_DM_ADJ
 70
     0
  0
APPID
  2
GEVID1057795304
 70
     0
  0
APPID
  2
GENIUS_GEFSH_13
 70
     0
  0
APPID
  2
GENIUS_GENOBJ-F-SHS_13
 70
     0
  0
APPID
  2
GENIUS_GENOBJ-N-ADDLEAD_13
 70
     0
  0
APPID
  2
GENIUS_GENMAINADDLEADER_14
 70
     0
  0
APPID
  2
GENIUS_GENADDLEADER_14
 70
     0
  0
APPID
  2
GENIUS_GENDREL_13
 70
     0
  0
APPID
  2
GEVID1121934822
 70
     0
  0
APPID
  2
GEVID1121934823
 70
     0
  0
APPID
  2
GEVID1121934824
 70
     0
  0
APPID
  2
ACAD_DSTYLE_DIMJAG
 70
     0
  0
APPID
  2
ACAD_DSTYLE_DIMBREAK
 70
     0
  0
APPID
  2
ACAD_NAV_VCDISPLAY
 70
     0
  0
APPID
  2
ACADANNOPO
 70
     0
  0
APPID
  2
ACAD_EXEMPT_FROM_CAD_STANDARDS
 70
     0
  0
APPID
  2
ACAD_MLEADERVER
 70
     0
  0
ENDTAB
  0
TABLE
  2
DIMSTYLE
 70
    29
  0
DIMSTYLE
  2
STANDARD
 70
     0
  3

  4

  5

  6

  7

 40
1.0
 41
0.18
 42
0.0625
 43
0.38
 44
0.18
 45
0.0
 46
0.0
 47
0.0
 48
0.0
140
0.18
141
0.09
142
0.0
143
25.399999999999999
144
1.0
145
0.0
146
1.0
147
0.09
 71
     0
 72
     0
 73
     1
 74
     1
 75
     0
 76
     0
 77
     0
 78
     0
170
     0
171
     2
172
     0
173
     0
174
     0
175
     0
176
     0
177
     0
178
     0
  0
DIMSTYLE
  2
ANNOTATIVE
 70
     0
  3

  4

  5

  6

  7

 40
1.0
 41
0.18
 42
0.0625
 43
0.38
 44
0.18
 45
0.0
 46
0.0
 47
0.0
 48
0.0
140
0.18
141
0.09
142
0.0
143
25.399999999999999
144
1.0
145
0.0
146
1.0
147
0.09
 71
     0
 72
     0
 73
     1
 74
     1
 75
     0
 76
     0
 77
     0
 78
     0
170
     0
171
     2
172
     0
173
     0
174
     0
175
     0
176
     0
177
     0
178
     0
  0
DIMSTYLE
  2
AM_JIS
 70
     0
  3

  4
"
  5

  6

  7

 40
1.0
 41
2.0
 42
1.0
 43
8.0
 44
1.0
 45
0.0
 46
0.0
 47
0.1
 48
0.1
140
2.5
141
0.0
142
0.0
143
0.0393701
144
1.0
145
0.0
146
0.71
147
1.5
 71
     0
 72
     0
 73
     0
 74
     0
 75
     0
 76
     0
 77
     3
 78
     8
170
     0
171
     2
172
     1
173
     0
174
     0
175
     0
176
   256
177
   256
178
     4
  0
DIMSTYLE
  2
AM_JIS$3
 70
     0
  3

  4
"
  5

  6

  7

 40
1.0
 41
2.0
 42
1.0
 43
10.0
 44
1.0
 45
0.0
 46
0.0
 47
0.1
 48
0.1
140
2.5
141
0.0
142
0.0
143
0.0393701
144
1.0
145
0.0
146
0.71
147
1.5
 71
     0
 72
     0
 73
     0
 74
     1
 75
     0
 76
     0
 77
     3
 78
     8
170
     0
171
     2
172
     0
173
     0
174
     0
175
     0
176
   256
177
   256
178
     4
  0
DIMSTYLE
  2
AM_JIS$4
 70
     0
  3

  4
"
  5

  6

  7

 40
1.0
 41
2.0
 42
1.0
 43
10.0
 44
1.0
 45
0.0
 46
0.0
 47
0.1
 48
0.1
140
2.5
141
0.0
142
0.0
143
0.0393701
144
1.0
145
0.0
146
0.71
147
1.5
 71
     0
 72
     0
 73
     0
 74
     0
 75
     0
 76
     0
 77
     3
 78
     8
170
     0
171
     2
172
     0
173
     0
174
     0
175
     0
176
   256
177
   256
178
     4
  0
DIMSTYLE
  2
AM_JIS$6
 70
     0
  3

  4
"
  5

  6

  7

 40
1.0
 41
2.0
 42
1.0
 43
10.0
 44
1.0
 45
0.0
 46
0.0
 47
0.1
 48
0.1
140
2.5
141
0.0
142
0.0
143
0.0393701
144
1.0
145
0.0
146
0.71
147
1.5
 71
     0
 72
     0
 73
     0
 74
     0
 75
     0
 76
     0
 77
     0
 78
     8
170
     0
171
     2
172
     1
173
     0
174
     0
175
     0
176
   256
177
   256
178
     4
  0
DIMSTYLE
  2
AM_JIS$7
 70
     0
  3

  4
"
  5

  6

  7

 40
1.0
 41
2.0
 42
1.0
 43
10.0
 44
1.0
 45
0.0
 46
0.0
 47
0.1
 48
0.1
140
2.5
141
0.0
142
0.0
143
0.0393701
144
1.0
145
0.0
146
0.71
147
1.5
 71
     0
 72
     0
 73
     0
 74
     0
 75
     0
 76
     0
 77
     3
 78
     8
170
     0
171
     2
172
     1
173
     0
174
     0
175
     0
176
   256
177
   256
178
     4
  0
DIMSTYLE
  2
AM_JIS$SF
 70
     0
  3

  4
"
  5

  6

  7

 40
1.0
 41
2.0
 42
1.0
 43
10.0
 44
1.0
 45
0.0
 46
0.0
 47
0.1
 48
0.1
140
2.5
141
0.0
142
0.0
143
0.0393701
144
1.0
145
0.0
146
0.71
147
1.5
 71
     0
 72
     0
 73
     0
 74
     0
 75
     1
 76
     1
 77
     3
 78
     8
170
     0
171
     2
172
     1
173
     0
174
     0
175
     0
176
   256
177
   256
178
     4
  0
DIMSTYLE
  2
AM_JIS$SH
 70
     0
  3

  4
"
  5

  6

  7

 40
1.0
 41
2.0
 42
1.0
 43
10.0
 44
1.0
 45
0.0
 46
0.0
 47
0.1
 48
0.1
140
2.5
141
0.0
142
0.0
143
0.0393701
144
2.0
145
0.0
146
0.71
147
1.5
 71
     0
 72
     0
 73
     0
 74
     0
 75
     1
 76
     1
 77
     3
 78
     8
170
     0
171
     2
172
     1
173
     1
174
     0
175
     0
176
   256
177
   256
178
     4
  0
DIMSTYLE
  2
AM_ISO
 70
     0
  3

  4
"
  5

  6

  7

 40
1.0
 41
2.5
 42
1.0
 43
10.0
 44
1.0
 45
0.0
 46
0.0
 47
0.1
 48
0.1
140
3.5
141
0.0
142
0.0
143
0.0393701
144
1.0
145
0.0
146
0.71
147
1.5
 71
     0
 72
     0
 73
     0
 74
     0
 75
     0
 76
     0
 77
     1
 78
     8
170
     0
171
     2
172
     1
173
     0
174
     0
175
     0
176
   256
177
   256
178
     2
  0
DIMSTYLE
  2
AM_ISO$3
 70
     0
  3

  4
"
  5

  6

  7

 40
1.0
 41
2.5
 42
1.0
 43
10.0
 44
1.0
 45
0.0
 46
0.0
 47
0.1
 48
0.1
140
3.5
141
0.0
142
0.0
143
0.0393701
144
1.0
145
0.0
146
0.71
147
1.5
 71
     0
 72
     0
 73
     0
 74
     1
 75
     0
 76
     0
 77
     1
 78
     8
170
     0
171
     2
172
     0
173
     0
174
     0
175
     0
176
   256
177
   256
178
     2
  0
DIMSTYLE
  2
AM_ISO$4
 70
     0
  3

  4
"
  5

  6

  7

 40
1.0
 41
2.5
 42
1.0
 43
10.0
 44
1.0
 45
0.0
 46
0.0
 47
0.1
 48
0.1
140
3.5
141
0.0
142
0.0
143
0.0393701
144
1.0
145
0.0
146
0.71
147
1.5
 71
     0
 72
     0
 73
     0
 74
     1
 75
     0
 76
     0
 77
     1
 78
     8
170
     0
171
     2
172
     0
173
     0
174
     0
175
     0
176
   256
177
   256
178
     2
  0
DIMSTYLE
  2
AM_ISO$6
 70
     0
  3

  4
"
  5

  6

  7

 40
1.0
 41
2.5
 42
1.0
 43
10.0
 44
1.0
 45
0.0
 46
0.0
 47
0.1
 48
0.1
140
3.5
141
0.0
142
0.0
143
0.0393701
144
1.0
145
0.0
146
0.71
147
1.5
 71
     0
 72
     0
 73
     0
 74
     0
 75
     0
 76
     0
 77
     0
 78
     8
170
     0
171
     2
172
     1
173
     0
174
     0
175
     0
176
   256
177
   256
178
     2
  0
DIMSTYLE
  2
AM_ISO$7
 70
     0
  3

  4
"
  5

  6

  7

 40
1.0
 41
2.5
 42
1.0
 43
10.0
 44
1.0
 45
0.0
 46
0.0
 47
0.1
 48
0.1
140
5.0
141
0.0
142
0.0
143
0.0393701
144
1.0
145
0.0
146
0.71
147
1.5
 71
     0
 72
     0
 73
     0
 74
     0
 75
     0
 76
     0
 77
     1
 78
     8
170
     0
171
     2
172
     1
173
     0
174
     0
175
     0
176
   256
177
   256
178
     2
  0
DIMSTYLE
  2
AM_ISO$SF
 70
     0
  3

  4
"
  5

  6

  7

 40
1.0
 41
2.5
 42
1.0
 43
10.0
 44
1.0
 45
0.0
 46
0.0
 47
0.1
 48
0.1
140
3.5
141
0.0
142
0.0
143
0.0393701
144
1.0
145
0.0
146
0.71
147
1.5
 71
     0
 72
     0
 73
     0
 74
     0
 75
     1
 76
     1
 77
     1
 78
     8
170
     0
171
     2
172
     1
173
     0
174
     0
175
     0
176
   256
177
   256
178
     2
  0
DIMSTYLE
  2
AM_ISO$SH
 70
     0
  3

  4
"
  5

  6

  7

 40
1.0
 41
2.5
 42
1.0
 43
10.0
 44
1.0
 45
0.0
 46
0.0
 47
0.1
 48
0.1
140
3.5
141
0.0
142
0.0
143
0.0393701
144
2.0
145
0.0
146
0.71
147
1.5
 71
     0
 72
     0
 73
     0
 74
     0
 75
     1
 76
     1
 77
     1
 78
     8
170
     0
171
     2
172
     1
173
     1
174
     0
175
     0
176
   256
177
   256
178
     2
  0
DIMSTYLE
  2
GEN-ANSI
 70
     0
  3

  4
"
  5

  6

  7

 40
1.0
 41
2.0
 42
0.5
 43
10.0
 44
0.5
 45
0.0
 46
0.0
 47
0.1
 48
0.1
140
2.5
141
0.0
142
0.0
143
0.0393701
144
1.0
145
0.0
146
0.71
147
1.5
 71
     0
 72
     0
 73
     1
 74
     1
 75
     0
 76
     0
 77
     0
 78
     8
170
     0
171
     2
172
     0
173
     0
174
     0
175
     0
176
   256
177
   256
178
     4
  0
DIMSTYLE
  2
GEN-ANSI$3
 70
     0
  3

  4
"
  5

  6

  7

 40
1.0
 41
2.0
 42
0.5
 43
10.0
 44
0.5
 45
0.0
 46
0.0
 47
0.1
 48
0.1
140
2.5
141
0.0
142
0.0
143
0.0393701
144
1.0
145
0.0
146
0.71
147
1.5
 71
     0
 72
     0
 73
     1
 74
     1
 75
     0
 76
     0
 77
     0
 78
     8
170
     0
171
     2
172
     0
173
     0
174
     0
175
     0
176
   256
177
   256
178
     4
  0
DIMSTYLE
  2
GEN-ANSI$4
 70
     0
  3

  4
"
  5

  6

  7

 40
1.0
 41
2.0
 42
0.5
 43
10.0
 44
0.5
 45
0.0
 46
0.0
 47
0.1
 48
0.1
140
2.5
141
0.0
142
0.0
143
0.0393701
144
1.0
145
0.0
146
0.71
147
1.5
 71
     0
 72
     0
 73
     1
 74
     1
 75
     0
 76
     0
 77
     0
 78
     8
170
     0
171
     2
172
     0
173
     0
174
     0
175
     0
176
   256
177
   256
178
     4
  0
DIMSTYLE
  2
GEN-ANSI$6
 70
     0
  3

  4
"
  5

  6

  7

 40
1.0
 41
2.0
 42
0.5
 43
10.0
 44
0.5
 45
0.0
 46
0.0
 47
0.1
 48
0.1
140
2.5
141
0.0
142
0.0
143
0.0393701
144
1.0
145
0.0
146
0.71
147
1.5
 71
     0
 72
     0
 73
     1
 74
     1
 75
     0
 76
     0
 77
     0
 78
     8
170
     0
171
     2
172
     0
173
     0
174
     0
175
     0
176
   256
177
   256
178
     4
  0
DIMSTYLE
  2
GEN-ANSI-POS
 70
     0
  3

  4
"
  5

  6

  7

 40
1.0
 41
2.5
 42
0.5
 43
10.0
 44
0.5
 45
0.0
 46
0.0
 47
0.1
 48
0.1
140
5.0
141
0.0
142
0.0
143
0.0393701
144
1.0
145
0.0
146
0.71
147
1.5
 71
     0
 72
     0
 73
     0
 74
     0
 75
     0
 76
     0
 77
     0
 78
     8
170
     0
171
     2
172
     0
173
     0
174
     0
175
     0
176
   256
177
   256
178
     4
  0
DIMSTYLE
  2
GEN-ANSI-AXE-F
 70
     0
  3

  4
"
  5

  6

  7

 40
1.0
 41
2.0
 42
0.5
 43
10.0
 44
0.5
 45
0.0
 46
0.0
 47
0.1
 48
0.1
140
2.5
141
0.0
142
0.0
143
0.0393701
144
1.0
145
0.0
146
0.71
147
1.5
 71
     0
 72
     0
 73
     1
 74
     1
 75
     1
 76
     1
 77
     0
 78
     8
170
     0
171
     2
172
     0
173
     1
174
     0
175
     0
176
   256
177
   256
178
     4
  0
DIMSTYLE
  2
GEN-ANSI-AXE-H
 70
     0
  3

  4
"
  5

  6

  7

 40
1.0
 41
2.0
 42
0.5
 43
10.0
 44
0.5
 45
0.0
 46
0.0
 47
0.1
 48
0.1
140
2.5
141
0.0
142
0.0
143
0.0393701
144
2.0
145
0.0
146
0.71
147
1.5
 71
     0
 72
     0
 73
     0
 74
     0
 75
     1
 76
     1
 77
     0
 78
     8
170
     0
171
     2
172
     1
173
     1
174
     0
175
     0
176
   256
177
   256
178
     4
  0
DIMSTYLE
  2
AM_ANSI
 70
     0
  3

  4
mm
  5

  6

  7

 40
1.0
 41
0.12
 42
0.05
 43
0.5
 44
0.1
 45
0.0
 46
0.0
 47
0.1
 48
0.1
140
0.12
141
0.0
142
0.0
143
25.399999999999999
144
1.0
145
0.0
146
0.71
147
0.06
 71
     0
 72
     0
 73
     1
 74
     1
 75
     0
 76
     0
 77
     0
 78
     7
170
     0
171
     2
172
     0
173
     0
174
     0
175
     0
176
   256
177
   256
178
     2
  0
DIMSTYLE
  2
AM_ANSI$3
 70
     0
  3

  4
mm
  5

  6

  7

 40
1.0
 41
0.12
 42
0.05
 43
0.5
 44
0.1
 45
0.0
 46
0.0
 47
0.1
 48
0.1
140
0.12
141
0.0
142
0.0
143
25.399999999999999
144
1.0
145
0.0
146
0.71
147
0.06
 71
     0
 72
     0
 73
     1
 74
     1
 75
     0
 76
     0
 77
     0
 78
     7
170
     0
171
     2
172
     0
173
     0
174
     0
175
     0
176
   256
177
   256
178
     2
  0
DIMSTYLE
  2
AM_ANSI$4
 70
     0
  3

  4
mm
  5

  6

  7

 40
1.0
 41
0.12
 42
0.05
 43
0.5
 44
0.1
 45
0.0
 46
0.0
 47
0.1
 48
0.1
140
0.12
141
0.0
142
0.0
143
25.399999999999999
144
1.0
145
0.0
146
0.71
147
0.06
 71
     0
 72
     0
 73
     1
 74
     1
 75
     0
 76
     0
 77
     0
 78
     7
170
     0
171
     2
172
     0
173
     0
174
     0
175
     0
176
   256
177
   256
178
     2
  0
DIMSTYLE
  2
AM_ANSI$7
 70
     0
  3

  4
mm
  5

  6

  7

 40
1.0
 41
0.12
 42
0.05
 43
0.5
 44
0.1
 45
0.0
 46
0.0
 47
0.1
 48
0.1
140
0.12
141
0.0
142
0.0
143
25.399999999999999
144
1.0
145
0.0
146
0.71
147
0.06
 71
     0
 72
     0
 73
     1
 74
     1
 75
     0
 76
     0
 77
     0
 78
     7
170
     0
171
     2
172
     0
173
     0
174
     0
175
     0
176
   256
177
   256
178
     2
  0
DIMSTYLE
  2
AM_ANSI$SF
 70
     0
  3

  4
mm
  5

  6

  7

 40
1.0
 41
0.12
 42
0.05
 43
0.5
 44
0.1
 45
0.0
 46
0.0
 47
0.1
 48
0.1
140
0.12
141
0.0
142
0.0
143
25.399999999999999
144
1.0
145
0.0
146
0.71
147
0.06
 71
     0
 72
     0
 73
     1
 74
     1
 75
     1
 76
     1
 77
     0
 78
     7
170
     0
171
     2
172
     0
173
     0
174
     0
175
     0
176
   256
177
   256
178
     2
  0
DIMSTYLE
  2
AM_ANSI$SH
 70
     0
  3

  4
mm
  5

  6
GENAXEH
  7

 40
1.0
 41
0.12
 42
0.05
 43
0.5
 44
0.1
 45
0.0
 46
0.0
 47
0.1
 48
0.1
140
0.12
141
0.0
142
0.0
143
25.399999999999999
144
1.0
145
0.0
146
0.71
147
0.06
 71
     0
 72
     0
 73
     1
 74
     1
 75
     1
 76
     1
 77
     0
 78
     7
170
     0
171
     2
172
     0
173
     1
174
     0
175
     0
176
   256
177
   256
178
     2
  0
ENDTAB
  0
ENDSEC
  0
SECTION
  2
BLOCKS
  0
BLOCK
  8
0
  2
$MODEL_SPACE
 70
     0
 10
0.0
 20
0.0
 30
0.0
  3
$MODEL_SPACE
  1

  0
ENDBLK
  5
9FC7
  8
0
  0
BLOCK
 67
     1
  8
0
  2
$PAPER_SPACE
 70
     0
 10
0.0
 20
0.0
 30
0.0
  3
$PAPER_SPACE
  1

  0
ENDBLK
  5
9FC3
 67
     1
  8
0
  0
BLOCK
  8
0
  2
GENAXEH
 70
     0
 10
0.0
 20
0.0
 30
0.0
  3
GENAXEH
  1

  0
LINE
  5
9F11
  8
0
 10
-1.0
 20
0.0
 30
0.0
 11
1.0
 21
0.0
 31
0.0
  0
ENDBLK
  5
9F13
  8
0
  0
BLOCK
  8
0
  2
_ACMFILLEDHALF
 70
     0
 10
0.0
 20
0.0
 30
0.0
  3
_ACMFILLEDHALF
  1

  0
TRACE
  5
A0D4
  8
AM_0
 62
     0
 10
-0.8
 20
0.0
 30
0.0
 11
-1.0
 21
0.166666666
 31
0.0
 12
0.0
 22
0.0
 32
0.0
 13
0.0
 23
0.0
 33
0.0
  0
LINE
  5
A0D5
  8
AM_0
 62
     0
 10
-1.0
 20
0.0
 30
0.0
 11
-0.8
 21
0.0
 31
0.0
  0
ENDBLK
  5
A0D3
  8
0
  0
ENDSEC
  0
SECTION
  2
ENTITIES
  0
POINT
  5
1B94
  8
0
 10
0.0
 20
0.0
 30
0.0
1001
GENIUS_GENODEF_13
1002
{
1000
HIER
1070
     1
1002
}
1002
{
1000
MANEDIT
1070
     0
1002
}
1002
{
1000
NOSEL
1070
     0
1002
}
1002
{
1000
BEHIND
1070
     0
1002
}
1002
{
1000
REACTOR
1002
}
1001
GENIUS_GENOBJ-N-SDF_13
1002
{
1000
OWNER
1000
GEN
1002
}
1001
GENIUS_GENOENT_13
1002
{
1000
MYREF
1005
1B94
1002
}
1002
{
1000
GRP
1005
0
1002
}
1001
GENIUS_GENOLIS_13
1002
{
1000
ENT
1005
89
1002
}
  0
LINE
  5
8C7E
  8
AM_0
 10
319.58345402229361
 20
114.3551565958788
 30
0.0
 11
323.5834740222935
 21
114.3551565958788
 31
0.0
  0
LINE
  5
8C7F
  8
AM_0
 10
319.58345402229361
 20
141.1768125958786
 30
0.0
 11
323.5834740222935
 21
141.1768125958786
 31
0.0
  0
LINE
  5
8C80
  8
AM_0
 10
319.58345402229361
 20
32.552191595878519
 30
0.0
 11
323.5834740222935
 21
32.552191595878519
 31
0.0
  0
LINE
  5
8C81
  8
AM_0
 10
319.58345402229361
 20
172.5521745958786
 30
0.0
 11
323.5834740222935
 21
172.5521745958786
 31
0.0
  0
LINE
  5
8C82
  8
AM_0
 10
320.29571402229328
 20
134.7827985958786
 30
0.0
 11
323.5834740222935
 21
130.86458559587859
 31
0.0
  0
LINE
  5
8C83
  8
ﾁｭｳｼﾝｾﾝ
 10
373.6759326445632
 20
102.55219359587861
 30
0.0
 11
241.95844012366109
 21
102.55219359587861
 31
0.0
  0
ARC
  5
8C84
  8
AM_0
 10
250.58345402229361
 20
136.05217959587861
 30
0.0
 40
2.00000007
 50
270.0
 51
0.0
  0
LINE
  5
8C85
  8
AM_0
 10
313.58345402229361
 20
38.270833595878678
 30
0.0
 11
313.58345402229361
 21
169.3335345958786
 31
0.0
  0
LINE
  5
8C86
  8
AM_0
 10
291.58349402229351
 20
166.62618459587881
 30
0.0
 11
291.58349402229351
 21
121.3970265958786
 31
0.0
  0
LINE
  5
8C87
  8
AM_0
 10
319.58345402229361
 20
20.05217559587868
 30
0.0
 11
319.58345402229361
 21
187.5521745958788
 31
0.0
  0
LINE
  5
8C88
  8
AM_0
 10
222.5835240222936
 20
146.05217859587859
 30
0.0
 11
222.5835240222936
 21
19.052113595878652
 31
0.0
  0
LINE
  5
8C89
  8
AM_0
 10
259.58345402229361
 20
153.5521785958789
 30
0.0
 11
259.58345402229361
 21
9.0521745958786823
 31
0.0
  0
LINE
  5
8C8A
  8
ﾁｭｳｼﾝｾﾝ
 10
13.76867544469996
 20
82.552207595878656
 30
0.0
 11
245.48156136008529
 21
82.552207595878656
 31
0.0
  0
LINE
  5
8C8B
  8
AM_0
 10
309.58349402229351
 20
22.332754595878839
 30
0.0
 11
309.58349402229351
 21
55.397848595878642
 31
0.0
  0
LINE
  5
8C8C
  8
AM_0
 10
252.58349402229351
 20
124.9402095958786
 30
0.0
 11
252.58349402229351
 21
13.552174595878681
 31
0.0
  0
LINE
  5
8C8D
  8
AM_0
 10
249.58349402229339
 20
9.0521745958786823
 30
0.0
 11
259.58345402229361
 21
9.0521745958786823
 31
0.0
  0
LINE
  5
8C8E
  8
AM_0
 10
254.5834740222935
 20
11.55217359587868
 30
0.0
 11
259.58345402229361
 21
11.55217359587868
 31
0.0
  0
LINE
  5
8C8F
  8
AM_0
 10
214.58345402229349
 20
45.402211595878661
 30
0.0
 11
222.5835240222936
 21
45.402211595878661
 31
0.0
  0
LINE
  5
8C90
  8
AM_0
 10
215.58350402229371
 20
30.51221259587868
 30
0.0
 11
222.5835240222936
 21
30.51221259587868
 31
0.0
  0
LINE
  5
8C91
  8
AM_0
 10
215.58350402229371
 20
19.052206595878651
 30
0.0
 11
222.5835240222936
 21
19.052206595878651
 31
0.0
  0
ARC
  5
8C92
  8
AM_0
 10
245.5835040222936
 20
24.922186595878649
 30
0.0
 40
2.00000007
 50
0.0
 51
90.000002999984645
  0
LINE
  5
8C93
  8
AM_0
 10
222.5835240222936
 20
19.052173595878681
 30
0.0
 11
247.5834840222937
 21
18.397528595878661
 31
0.0
  0
LINE
  5
8C94
  8
AM_0
 10
247.58345402229361
 20
24.922186595878649
 30
0.0
 11
247.58345402229361
 21
11.052175595878669
 31
0.0
  0
ARC
  5
8C95
  8
AM_0
 10
249.58349402229339
 20
11.052175595878669
 30
0.0
 40
2.00000007
 50
179.99998999999889
 51
270.0
  0
ARC
  5
8C96
  8
AM_0
 10
254.5834740222935
 20
13.552174595878681
 30
0.0
 40
2.00000007
 50
179.99998999999889
 51
270.0
  0
LINE
  5
8C97
  8
AM_0
 10
222.5835240222936
 20
31.0521765958785
 30
0.0
 11
252.58349402229351
 21
31.0521765958785
 31
0.0
  0
LINE
  5
8C98
  8
AM_0
 10
222.5835240222936
 20
45.40422759587868
 30
0.0
 11
252.58349402229351
 21
45.40422759587868
 31
0.0
  0
LINE
  5
8C99
  8
AM_0
 10
247.58345402229361
 20
26.922184595878491
 30
0.0
 11
252.0634140222937
 21
26.922184595878491
 31
0.0
  0
LINE
  5
8C9A
  8
AM_0
 10
259.58345402229361
 20
19.68210459587868
 30
0.0
 11
295.58345402229361
 21
19.68210459587868
 31
0.0
  0
LINE
  5
8C9B
  8
AM_0
 10
259.5834840222937
 20
9.0521745958786823
 30
0.0
 11
295.5835140222934
 21
7.5521745958784541
 31
0.0
  0
LINE
  5
8C9C
  8
AM_0
 10
296.55728402229352
 20
23.962300595878681
 30
0.0
 11
309.58349402229351
 21
24.303394595878672
 31
0.0
  0
LINE
  5
8C9D
  8
AM_0
 10
295.58345402229361
 20
22.962652595878691
 30
0.0
 11
295.58345402229361
 21
7.5521745958784541
 31
0.0
  0
ARC
  5
8C9E
  8
AM_0
 10
296.5834740222935
 20
22.962652595878691
 30
0.0
 40
1.0000000199999961
 50
91.500000999988515
 51
180.0000099999977
  0
LINE
  5
8C9F
  8
AM_0
 10
311.5136640222936
 20
20.333974595878651
 30
0.0
 11
319.5834840222937
 21
20.05217559587868
 31
0.0
  0
ARC
  5
8CA0
  8
AM_0
 10
311.5834740222935
 20
22.332754595878839
 30
0.0
 40
2.00000007
 50
179.99998999999889
 51
268.00000999999202
  0
ARC
  5
8CA1
  8
AM_0
 10
310.58345402229361
 20
38.270833595878678
 30
0.0
 40
3.0
 50
270.0
 51
0.0
  0
LINE
  5
8CA2
  8
AM_0
 10
215.58350402229371
 20
134.59218759587861
 30
0.0
 11
222.5835240222936
 21
134.59218759587861
 31
0.0
  0
LINE
  5
8CA3
  8
AM_0
 10
214.58345402229349
 20
119.7022035958786
 30
0.0
 11
222.5835240222936
 21
119.7022035958786
 31
0.0
  0
LINE
  5
8CA4
  8
AM_0
 10
222.5835240222936
 20
119.7001275958786
 30
0.0
 11
247.58345402229361
 21
119.7001275958786
 31
0.0
  0
LINE
  5
8CA5
  8
AM_0
 10
222.5835240222936
 20
134.05217859587859
 30
0.0
 11
248.5834740222935
 21
134.05217859587859
 31
0.0
  0
LINE
  5
8CA6
  8
AM_0
 10
247.58345402229361
 20
132.0522075958786
 30
0.0
 11
247.58345402229361
 21
117.4195185958786
 31
0.0
  0
ARC
  5
8CA7
  8
AM_0
 10
245.5835040222936
 20
117.4195185958786
 30
0.0
 40
2.00000007
 50
270.0
 51
0.0
  0
LINE
  5
8CA8
  8
AM_0
 10
247.58345402229361
 20
115.4195175958788
 30
0.0
 11
252.02414402229351
 21
115.4195175958788
 31
0.0
  0
ARC
  5
8CA9
  8
AM_0
 10
249.58349402229339
 20
126.9402105958786
 30
0.0
 40
2.00000007
 50
179.99998999999889
 51
270.0
  0
ARC
  5
8CAA
  8
AM_0
 10
249.58349402229339
 20
132.0522075958786
 30
0.0
 40
2.00000007
 50
90.000002999984645
 51
180.0000099999977
  0
LINE
  5
8CAB
  8
AM_0
 10
249.58349402229339
 20
134.05217859587859
 30
0.0
 11
250.58345402229361
 21
134.05217859587859
 31
0.0
  0
LINE
  5
8CAC
  8
AM_0
 10
249.58349402229339
 20
124.9402095958786
 30
0.0
 11
252.58349402229351
 21
124.9402095958786
 31
0.0
  0
ARC
  5
8CAD
  8
AM_0
 10
312.58349402229351
 20
55.397848595878642
 30
0.0
 40
3.0
 50
90.000002999984645
 51
180.0000099999977
  0
LINE
  5
8CAE
  8
AM_0
 10
259.58345402229361
 20
131.34923559587881
 30
0.0
 11
289.90175402229352
 21
131.34923559587881
 31
0.0
  0
LINE
  5
8CAF
  8
AM_0
 10
296.5834740222935
 20
116.39705859587841
 30
0.0
 11
310.81424402229362
 21
116.39705859587841
 31
0.0
  0
ARC
  5
8CB0
  8
AM_0
 10
296.5834740222935
 20
121.3970265958786
 30
0.0
 40
5.0000000999999967
 50
179.99998999999889
 51
270.0
  0
LINE
  5
8CB1
  8
AM_0
 10
254.5834740222935
 20
153.5521785958789
 30
0.0
 11
259.58345402229361
 21
153.5521785958789
 31
0.0
  0
LINE
  5
8CB2
  8
AM_0
 10
215.58350402229371
 20
146.05217859587859
 30
0.0
 11
222.5835240222936
 21
146.05217859587859
 31
0.0
  0
LINE
  5
8CB3
  8
AM_0
 10
222.5835240222936
 20
146.05217859587859
 30
0.0
 11
250.6358640222933
 21
146.78673759587861
 31
0.0
  0
LINE
  5
8CB4
  8
AM_0
 10
252.58349402229351
 20
151.55221059587859
 30
0.0
 11
252.58349402229351
 21
136.05217959587861
 31
0.0
  0
ARC
  5
8CB5
  8
AM_0
 10
250.58345402229361
 20
148.7860965958786
 30
0.0
 40
2.00000007
 50
271.50000000001569
 51
0.0
  0
ARC
  5
8CB6
  8
AM_0
 10
254.5834740222935
 20
151.55221059587859
 30
0.0
 40
2.00000007
 50
90.000002999984645
 51
180.0000099999977
  0
LINE
  5
8CB7
  8
AM_0
 10
309.58349402229351
 20
144.50383959587859
 30
0.0
 11
309.58349402229351
 21
185.27160459587881
 31
0.0
  0
ARC
  5
8CB8
  8
AM_0
 10
288.58349402229351
 20
157.31262459587879
 30
0.0
 40
3.0
 50
271.50000000001569
 51
0.0
  0
LINE
  5
8CB9
  8
AM_0
 10
259.5834840222937
 20
153.5521785958789
 30
0.0
 11
288.66200402229322
 21
154.3136235958786
 31
0.0
  0
LINE
  5
8CBA
  8
AM_0
 10
291.58349402229351
 20
148.7858505958788
 30
0.0
 11
307.91261402229333
 21
156.85567659587869
 31
0.0
  0
LINE
  5
8CBB
  8
AM_0
 10
293.5834740222935
 20
145.20934359587869
 30
0.0
 11
307.03955402229337
 21
145.20934359587869
 31
0.0
  0
LINE
  5
8CBC
  8
AM_0
 10
293.03165402229342
 20
142.28084559587859
 30
0.0
 11
310.06892402229369
 21
142.28084559587859
 31
0.0
  0
ARC
  5
8CBD
  8
AM_0
 10
293.5834740222935
 20
147.2093445958786
 30
0.0
 40
2.00000007
 50
179.99998999999889
 51
270.0
  0
ARC
  5
8CBE
  8
AM_0
 10
307.03955402229337
 20
142.20934359587861
 30
0.0
 40
3.0
 50
22.48353600000015
 51
90.000002999984645
  0
ARC
  5
8CBF
  8
AM_0
 10
312.58349402229351
 20
144.50383959587859
 30
0.0
 40
3.0
 50
179.99998999999889
 51
270.0
  0
ARC
  5
8CC0
  8
AM_0
 10
317.9975940222933
 20
132.85445559587879
 30
0.0
 40
3.0
 50
39.999999000009062
 51
58.086796999989289
  0
LINE
  5
8CC1
  8
AM_0
 10
296.90897402229342
 20
171.6231345958785
 30
0.0
 11
306.68816402229362
 21
171.96462459587869
 31
0.0
  0
ARC
  5
8CC2
  8
AM_0
 10
296.5834740222935
 20
166.62618459587881
 30
0.0
 40
5.0000000999999967
 50
91.999997999994008
 51
180.0000099999977
  0
ARC
  5
8CC3
  8
AM_0
 10
306.58349402229351
 20
159.5451645958787
 30
0.0
 40
3.0
 50
296.2984299999884
 51
0.0
  0
ARC
  5
8CC4
  8
AM_0
 10
310.58345402229361
 20
169.3335345958786
 30
0.0
 40
3.0
 50
0.0
 51
90.000002999984645
  0
ARC
  5
8CC5
  8
AM_0
 10
306.58349402229351
 20
174.9627945958789
 30
0.0
 40
3.0
 50
272.00000000000352
 51
0.0
  0
LINE
  5
8CC6
  8
AM_0
 10
311.5136640222936
 20
187.2703845958788
 30
0.0
 11
319.58345402229361
 21
187.5521745958788
 31
0.0
  0
ARC
  5
8CC7
  8
AM_0
 10
311.5834740222935
 20
185.27160459587881
 30
0.0
 40
2.00000007
 50
91.999997999994008
 51
180.0000099999977
  0
LINE
  5
8CC8
  8
AM_0
 10
323.5834740222935
 20
102.55219359587861
 30
0.0
 11
323.5834740222935
 21
32.552191595878519
 31
0.0
  0
LINE
  5
8CCB
  8
AM_0
 10
324.58349402229339
 20
76.602880595878503
 30
0.0
 11
324.58349402229339
 21
128.58095559587861
 31
0.0
  0
ARC
  5
8CCF
  8
AM_0
 10
321.58349402229351
 20
76.602880595878503
 30
0.0
 40
3.0
 50
311.81030999999422
 51
0.0
  0
LINE
  5
8CD3
  8
AM_0
 10
323.5834740222935
 20
102.55219359587861
 30
0.0
 11
323.5834740222935
 21
114.3551565958788
 31
0.0
  0
ARC
  5
8CD6
  8
AM_0
 10
321.58349402229351
 20
128.58095559587861
 30
0.0
 40
3.0
 50
0.0
 51
39.999999000009062
  0
LINE
  5
8CD7
  8
AM_0
 10
323.5834740222935
 20
130.86458559587859
 30
0.0
 11
323.88161402229338
 21
130.5092715958786
 31
0.0
  0
LINE
  5
8CDB
  8
AM_0
 10
323.5834740222935
 20
141.1768125958786
 30
0.0
 11
323.5834740222935
 21
172.5521745958786
 31
0.0
  0
ARC
  5
8CDC
  8
AM_0
 10
538.79010320007433
 20
102.55219359587861
 30
0.0
 40
33.0
 50
0.0
 51
180.0000099999977
  0
ARC
  5
8CDD
  8
AM_0
 10
538.79010320007433
 20
102.55219359587861
 30
0.0
 40
70.000001999999995
 50
164.5475100000053
 51
0.0000100179106335
  0
ARC
  5
8CDE
  8
AM_0
 10
538.79010320007433
 20
102.55219359587861
 30
0.0
 40
66.000003000000007
 50
168.12284000000381
 51
0.0000100179106335
  0
ARC
  5
8CDF
  8
AM_0
 10
538.79010320007433
 20
102.55219359587861
 30
0.0
 40
52.000007999999987
 50
5.215907700000546
 51
42.244333999989237
  0
ARC
  5
8CE0
  8
AM_0
 10
538.79010320007433
 20
102.55219359587861
 30
0.0
 40
52.000007999999987
 50
137.75567000000851
 51
174.7840900000005
  0
ARC
  5
8CE1
  8
AM_0
 10
480.47865320007418
 20
127.2961965958786
 30
0.0
 40
11.000000399999999
 50
85.156818000000143
 51
228.85606000001121
  0
ARC
  5
8CE2
  8
AM_0
 10
597.10155920007423
 20
127.2961965958786
 30
0.0
 40
11.000000399999999
 50
311.14393999998867
 51
94.843180000008246
  0
LINE
  5
8CE3
  8
AM_0
 10
623.79010520007421
 20
132.55217859587859
 30
0.0
 11
621.52245920007442
 21
175.8215745958787
 31
0.0
  0
LINE
  5
8CE4
  8
AM_0
 10
492.64471520007442
 20
145.1620425958788
 30
0.0
 11
511.86534320007428
 21
125.9414295958786
 31
0.0
  0
LINE
  5
8CE5
  8
AM_0
 10
496.18025420007439
 20
148.69756359587859
 30
0.0
 11
515.40088220007442
 21
129.4769535958786
 31
0.0
  0
LINE
  5
8CE6
  8
AM_0
 10
584.93553620007447
 20
145.16207259587861
 30
0.0
 11
565.71489320007424
 21
125.9414295958786
 31
0.0
  0
LINE
  5
8CE7
  8
AM_0
 10
581.39998220007442
 20
148.69759659587859
 30
0.0
 11
562.17935420007439
 21
129.4769535958786
 31
0.0
  0
LINE
  5
8CE8
  8
AM_0
 10
453.79013120007409
 20
132.55217859587859
 30
0.0
 11
456.05777120007428
 21
175.8216045958786
 31
0.0
  0
LINE
  5
8CE9
  8
ﾁｭｳｼﾝｾﾝ
 10
538.79010320007433
 20
192.5687692462393
 30
0.0
 11
538.79010320007433
 21
0.6888945958786508
 31
0.0
  0
ARC
  5
8CEB
  8
AM_0
 10
538.79010320007433
 20
102.55219359587861
 30
0.0
 40
26.500002599999998
 50
270.0
 51
90.000002999984645
  0
LINE
  5
8CED
  8
AM_0
 10
497.83890020007408
 20
24.55217559587868
 30
0.0
 11
579.74132120007425
 21
24.55217559587868
 31
0.0
  0
LINE
  5
8CEE
  8
AM_0
 10
510.66282920007438
 20
7.6470525958786739
 30
0.0
 11
566.91739220007435
 21
7.6470525958786739
 31
0.0
  0
LINE
  5
8CEF
  8
ﾁｭｳｼﾝｾﾝ
 10
448.81426970007408
 20
102.55219359587861
 30
0.0
 11
628.76593670007446
 21
102.55219359587861
 31
0.0
  0
LINE
  5
8CF0
  8
AM_0
 10
453.79013120007409
 20
72.55217559587868
 30
0.0
 11
456.0448922000744
 21
29.52883059587867
 31
0.0
  0
LINE
  5
8CF1
  8
AM_0
 10
466.03114520007432
 20
20.05217559587868
 30
0.0
 11
495.24081620007439
 21
20.05217559587868
 31
0.0
  0
ARC
  5
8CF2
  8
AM_0
 10
466.03114520007432
 20
30.052189595878811
 30
0.0
 40
10.000000199999979
 50
183.00000999999921
 51
270.0
  0
CIRCLE
  5
8CF3
  8
AM_0
 10
468.07943720007432
 20
31.841497595878529
 30
0.0
 40
6.0000002999999991
  0
ARC
  5
8CF6
  8
AM_0
 10
538.79010320007433
 20
82.552207595878656
 30
0.0
 40
71.000000999999983
 50
234.7757899999998
 51
238.49327000000579
  0
LINE
  5
8CF7
  8
AM_0
 10
495.24083120007401
 20
20.05217559587868
 30
0.0
 11
497.83891520007433
 21
24.552190595878521
 31
0.0
  0
CIRCLE
  5
8CF8
  8
AM_0
 10
510.66282920007438
 20
14.64705459587867
 30
0.0
 40
4.9796462999999971
  0
ARC
  5
8CF9
  8
AM_0
 10
510.66282920007438
 20
14.64705459587867
 30
0.0
 40
7.0000007999999987
 50
164.91943999999791
 51
270.0
  0
LINE
  5
8CFA
  8
AM_0
 10
516.41284520007434
 20
14.64705459587867
 30
0.0
 11
513.53784320007412
 21
19.6267155958788
 31
0.0
  0
LINE
  5
8CFB
  8
AM_0
 10
504.91282820007439
 20
14.64706959587852
 30
0.0
 11
507.78782720007422
 21
19.6267155958788
 31
0.0
  0
LINE
  5
8CFC
  8
AM_0
 10
513.53781320007295
 20
9.6674085958788396
 30
0.0
 11
507.78782720007422
 21
9.6674085958788396
 31
0.0
  0
LINE
  5
8CFD
  8
AM_0
 10
507.78784520007417
 20
9.6674085958788396
 30
0.0
 11
504.91282820007439
 21
14.64706959587852
 31
0.0
  0
LINE
  5
8CFE
  8
AM_0
 10
516.41283020007199
 20
14.64706959587852
 30
0.0
 11
513.53782820007427
 21
9.6674235958786863
 31
0.0
  0
LINE
  5
8CFF
  8
AM_0
 10
513.53781320007295
 20
19.6267155958788
 30
0.0
 11
507.78782720007422
 21
19.6267155958788
 31
0.0
  0
ARC
  5
8D00
  8
AM_0
 10
499.07260220007407
 20
17.756185595878659
 30
0.0
 40
5.0000000999999967
 50
344.9836399999993
 51
56.872543000002693
  0
CIRCLE
  5
8D01
  8
AM_0
 10
480.47865320007418
 20
127.2961965958786
 30
0.0
 40
4.9796462999999971
  0
ARC
  5
8D02
  8
AM_0
 10
483.79008620007431
 20
97.552207595878642
 30
0.0
 40
3.0
 50
0.0
 51
90.000002999984645
  0
ARC
  5
8D03
  8
AM_0
 10
484.017855200074
 20
107.5521915958786
 30
0.0
 40
3.0
 50
270.0
 51
354.78409000000062
  0
ARC
  5
8D04
  8
AM_0
 10
483.79008620007431
 20
80.552191595878696
 30
0.0
 40
3.0
 50
270.0
 51
0.0
  0
LINE
  5
8D05
  8
AM_0
 10
486.22868420007421
 20
127.2961665958786
 30
0.0
 11
483.35367020007448
 21
132.27581259587859
 31
0.0
  0
LINE
  5
8D06
  8
AM_0
 10
486.22865420007429
 20
127.2961965958786
 30
0.0
 11
483.3536552000744
 21
122.3165505958786
 31
0.0
  0
LINE
  5
8D07
  8
AM_0
 10
500.79010220007291
 20
77.552191595878682
 30
0.0
 11
479.75621120007429
 21
77.552191595878682
 31
0.0
  0
LINE
  5
8D08
  8
AM_0
 10
453.79013120007409
 20
72.552190595878713
 30
0.0
 11
453.79013120007409
 21
102.55219359587861
 31
0.0
  0
ARC
  5
8D09
  8
AM_0
 10
479.75621120007429
 20
80.552191595878696
 30
0.0
 40
3.0
 50
200.43878000000129
 51
270.0
  0
ARC
  5
8D0A
  8
AM_0
 10
471.50485220007403
 20
112.3855515958786
 30
0.0
 40
2.00000007
 50
79.999998000001099
 51
171.68540999999769
  0
ARC
  5
8D0B
  8
AM_0
 10
471.50485220007403
 20
112.3855515958786
 30
0.0
 40
2.00000007
 50
351.68540999999777
 51
79.999998000001099
  0
LINE
  5
8D0C
  8
AM_0
 10
453.79013120007409
 20
132.55217859587859
 30
0.0
 11
453.79013120007409
 21
102.55219359587861
 31
0.0
  0
ARC
  5
8D0D
  8
AM_0
 10
475.9888322000744
 20
97.552207595878642
 30
0.0
 40
3.0
 50
90.000002999984645
 51
184.55206999999891
  0
LINE
  5
8D0E
  8
AM_0
 10
475.9888322000744
 20
100.5522075958786
 30
0.0
 11
483.79008620007431
 21
100.5522075958786
 31
0.0
  0
ARC
  5
8D0F
  8
AM_0
 10
475.9888322000744
 20
107.5521915958786
 30
0.0
 40
3.0
 50
175.44793000000109
 51
270.0
  0
LINE
  5
8D10
  8
AM_0
 10
475.9888322000744
 20
104.5521915958788
 30
0.0
 11
484.017855200074
 21
104.5521915958788
 31
0.0
  0
LINE
  5
8D11
  8
AM_0
 10
477.60366920007402
 20
122.3165205958786
 30
0.0
 11
474.7286702000743
 21
127.2961665958786
 31
0.0
  0
ARC
  5
8D12
  8
AM_0
 10
471.26731820007421
 20
116.7533805958785
 30
0.0
 40
3.0
 50
348.12284000000381
 51
48.856062999992467
  0
LINE
  5
8D13
  8
AM_0
 10
471.85215920007391
 20
114.3551565958788
 30
0.0
 11
471.85215920007391
 21
114.3551565958788
 31
0.0
  0
LINE
  5
8D14
  8
AM_0
 10
483.3536552000744
 20
122.3165505958786
 30
0.0
 11
477.60366920007402
 21
122.3165505958786
 31
0.0
  0
LINE
  5
8D15
  8
AM_0
 10
474.72864020007432
 20
127.2961965958786
 30
0.0
 11
477.60363920007438
 21
132.2758425958786
 31
0.0
  0
LINE
  5
8D16
  8
AM_0
 10
483.3536552000744
 20
132.2758425958786
 30
0.0
 11
477.60366920007402
 21
132.2758425958786
 31
0.0
  0
ARC
  5
8D17
  8
AM_0
 10
538.79010320007433
 20
102.55219359587861
 30
0.0
 40
26.500002599999998
 50
90.000002999984645
 51
270.0
  0
LINE
  5
8D18
  8
AM_0
 10
505.79010320007433
 20
102.55219359587861
 30
0.0
 11
505.79010320007433
 21
82.552207595878656
 31
0.0
  0
LINE
  5
8D19
  8
AM_0
 10
486.79008620007301
 20
97.552207595878642
 30
0.0
 11
486.79008620007301
 21
80.552191595878696
 31
0.0
  0
ARC
  5
8D1A
  8
AM_0
 10
500.79010220007291
 20
82.552207595878656
 30
0.0
 40
5.0000000999999967
 50
270.0
 51
0.0
  0
ARC
  5
8D1B
  8
AM_0
 10
517.52218820007442
 20
131.59828959587861
 30
0.0
 40
3.0
 50
224.99999999999301
 51
306.21205999999398
  0
ARC
  5
8D1C
  8
AM_0
 10
509.74400420007407
 20
123.8201235958786
 30
0.0
 40
3.0
 50
323.78794000000329
 51
45.000000999994569
  0
LINE
  5
8D23
  8
AM_0
 10
623.79011420007441
 20
72.55217559587868
 30
0.0
 11
621.53535920007425
 21
29.528815595878541
 31
0.0
  0
ARC
  5
8D24
  8
AM_0
 10
611.54906120007411
 20
30.052189595878811
 30
0.0
 40
10.000000199999979
 50
270.0
 51
357.00000000000023
  0
LINE
  5
8D26
  8
AM_0
 10
582.33939020007415
 20
20.05217559587868
 30
0.0
 11
611.54906120007411
 21
20.05217559587868
 31
0.0
  0
CIRCLE
  5
8D27
  8
AM_0
 10
566.91739220007435
 20
14.64705459587867
 30
0.0
 40
4.9796462999999971
  0
ARC
  5
8D28
  8
AM_0
 10
566.91739220007435
 20
14.64705459587867
 30
0.0
 40
7.0000007999999987
 50
270.00002000000188
 51
15.08055899999443
  0
LINE
  5
8D29
  8
AM_0
 10
569.79239420007389
 20
9.6674085958788396
 30
0.0
 11
564.04240820007442
 21
9.6674085958788396
 31
0.0
  0
LINE
  5
8D2A
  8
AM_0
 10
569.79239420007389
 20
19.6267155958788
 30
0.0
 11
564.04240820007442
 21
19.6267155958788
 31
0.0
  0
LINE
  5
8D2B
  8
AM_0
 10
561.1673912000731
 20
14.64705459587867
 30
0.0
 11
564.04240820007442
 21
19.6267155958788
 31
0.0
  0
LINE
  5
8D2C
  8
AM_0
 10
564.04239320007423
 20
9.6674235958786863
 30
0.0
 11
561.16740920007408
 21
14.64705459587867
 31
0.0
  0
LINE
  5
8D2D
  8
AM_0
 10
572.66739320007423
 20
14.64706959587852
 30
0.0
 11
569.79239420007389
 21
19.626697595878682
 31
0.0
  0
LINE
  5
8D2E
  8
AM_0
 10
572.66739320007423
 20
14.64706959587852
 30
0.0
 11
569.79239420007389
 21
9.6674085958788396
 31
0.0
  0
ARC
  5
8D2F
  8
AM_0
 10
578.50761920007449
 20
17.756185595878659
 30
0.0
 40
5.0000000999999967
 50
121.50672999999411
 51
195.0163500000007
  0
ARC
  5
8D30
  8
AM_0
 10
538.79010320007433
 20
82.552207595878656
 30
0.0
 40
71.000000999999983
 50
301.50672000000708
 51
305.22421000000008
  0
LINE
  5
8D31
  8
AM_0
 10
582.33939020007415
 20
20.05217559587868
 30
0.0
 11
579.74130620007429
 21
24.55217559587868
 31
0.0
  0
CIRCLE
  5
8D32
  8
AM_0
 10
609.50078420007435
 20
31.841497595878529
 30
0.0
 40
6.0000002999999991
  0
LINE
  5
8D34
  8
AM_0
 10
571.79010320007444
 20
102.55219359587861
 30
0.0
 11
571.79010320007444
 21
82.552207595878656
 31
0.0
  0
LINE
  5
8D35
  8
AM_0
 10
590.79012020007417
 20
97.552207595878642
 30
0.0
 11
590.79012020007417
 21
80.552191595878696
 31
0.0
  0
LINE
  5
8D36
  8
AM_0
 10
576.79011920007406
 20
77.552191595878682
 30
0.0
 11
597.82400120007435
 21
77.552191595878682
 31
0.0
  0
ARC
  5
8D37
  8
AM_0
 10
576.79011920007406
 20
82.552207595878656
 30
0.0
 40
5.0000000999999967
 50
179.99998999999889
 51
270.0
  0
ARC
  5
8D38
  8
AM_0
 10
597.82400120007435
 20
80.552191595878696
 30
0.0
 40
3.0
 50
270.0
 51
339.56121999999863
  0
ARC
  5
8D39
  8
AM_0
 10
593.79012020007406
 20
80.552191595878696
 30
0.0
 40
3.0
 50
179.99998999999889
 51
270.0
  0
ARC
  5
8D3A
  8
AM_0
 10
567.83621720007295
 20
123.8201235958786
 30
0.0
 40
3.0
 50
135.00000000000691
 51
216.21205999999651
  0
ARC
  5
8D3B
  8
AM_0
 10
560.05803320007431
 20
131.59828959587861
 30
0.0
 40
3.0
 50
233.7879400000059
 51
315.00000000000688
  0
ARC
  5
8D3C
  8
AM_0
 10
538.79010320007433
 20
102.55219359587861
 30
0.0
 40
70.000001999999995
 50
0.0
 51
15.452486999993241
  0
ARC
  5
8D3D
  8
AM_0
 10
538.79010320007433
 20
102.55219359587861
 30
0.0
 40
66.000003000000007
 50
0.0
 51
11.87716200000178
  0
ARC
  5
8D3E
  8
AM_0
 10
606.07536020007444
 20
112.3855515958786
 30
0.0
 40
2.00000007
 50
8.3145874000032833
 51
100.000000000005
  0
ARC
  5
8D3F
  8
AM_0
 10
606.07536020007444
 20
112.3855515958786
 30
0.0
 40
2.00000007
 50
100.000000000005
 51
188.31459000000211
  0
LINE
  5
8D40
  8
AM_0
 10
601.59138320007446
 20
100.5522075958786
 30
0.0
 11
593.79012020007406
 21
100.5522075958786
 31
0.0
  0
LINE
  5
8D41
  8
AM_0
 10
601.59138320007446
 20
104.5521915958788
 30
0.0
 11
593.56236620007405
 21
104.5521915958788
 31
0.0
  0
ARC
  5
8D42
  8
AM_0
 10
593.79012020007406
 20
97.552207595878642
 30
0.0
 40
3.0
 50
90.000002999984645
 51
180.0000099999977
  0
ARC
  5
8D43
  8
AM_0
 10
593.56236620007405
 20
107.5521915958786
 30
0.0
 40
3.0
 50
185.21590999999941
 51
270.0
  0
ARC
  5
8D44
  8
AM_0
 10
601.59138320007446
 20
97.552207595878642
 30
0.0
 40
3.0
 50
355.44793000000112
 51
90.000002999984645
  0
ARC
  5
8D45
  8
AM_0
 10
601.59138320007446
 20
107.5521915958786
 30
0.0
 40
3.0
 50
270.0
 51
4.552071399999142
  0
CIRCLE
  5
8D46
  8
AM_0
 10
597.10160420007435
 20
127.29613659587871
 30
0.0
 40
4.9796462999999971
  0
LINE
  5
8D47
  8
AM_0
 10
602.85162020007442
 20
127.2961065958786
 30
0.0
 11
599.97661220007444
 21
132.27577959587859
 31
0.0
  0
LINE
  5
8D48
  8
AM_0
 10
602.85161420007421
 20
127.2961065958786
 30
0.0
 11
599.97661220007444
 21
122.3164605958786
 31
0.0
  0
LINE
  5
8D49
  8
AM_0
 10
594.22661420007319
 20
122.3164605958786
 30
0.0
 11
591.35161220007444
 21
127.2961065958786
 31
0.0
  0
LINE
  5
8D4A
  8
AM_0
 10
599.97661220007444
 20
122.3164905958788
 30
0.0
 11
594.22660520007435
 21
122.3164905958788
 31
0.0
  0
LINE
  5
8D4B
  8
AM_0
 10
591.35159720007437
 20
127.29613659587871
 30
0.0
 11
594.22659620007425
 21
132.27577959587859
 31
0.0
  0
LINE
  5
8D4C
  8
AM_0
 10
599.97661220007444
 20
132.27577959587859
 30
0.0
 11
594.22660520007435
 21
132.27577959587859
 31
0.0
  0
ARC
  5
8D4D
  8
AM_0
 10
606.3128942000742
 20
116.7533805958785
 30
0.0
 40
3.0
 50
131.1439399999887
 51
191.87715999999611
  0
LINE
  5
8D4E
  8
AM_0
 10
605.72807120007451
 20
114.3551565958788
 30
0.0
 11
605.72807120007451
 21
114.3551565958788
 31
0.0
  0
LINE
  5
8D4F
  8
AM_0
 10
623.79010520007421
 20
72.552190595878713
 30
0.0
 11
623.79010520007421
 21
102.55219359587861
 31
0.0
  0
LINE
  5
8D50
  8
AM_0
 10
623.79010520007421
 20
132.55217859587859
 30
0.0
 11
623.79010520007421
 21
102.55219359587861
 31
0.0
  0
ARC
  5
8D51
  8
AM_0
 10
538.79010320007433
 20
102.55219359587861
 30
0.0
 40
52.000007999999987
 50
47.755664999999908
 51
84.784094000004146
  0
ARC
  5
8D52
  8
AM_0
 10
538.79010320007433
 20
102.55219359587861
 30
0.0
 40
70.000001999999995
 50
30.534627000005571
 51
149.4653700000006
  0
ARC
  5
8D53
  8
AM_0
 10
538.79010320007433
 20
102.55219359587861
 30
0.0
 40
66.000003000000007
 50
34.109953999992527
 51
145.89004000000139
  0
LINE
  5
8D54
  8
AM_0
 10
568.79010320007444
 20
187.55220459587861
 30
0.0
 11
538.79010320007433
 21
187.55220459587861
 31
0.0
  0
ARC
  5
8D55
  8
AM_0
 10
484.25901920007408
 20
143.1768135958786
 30
0.0
 40
2.00000007
 50
234.9999999999882
 51
323.31459000000848
  0
ARC
  5
8D56
  8
AM_0
 10
481.66066220007423
 20
141.2462085958785
 30
0.0
 40
3.0
 50
265.15681999999168
 51
325.8900499999869
  0
LINE
  5
8D57
  8
AM_0
 10
508.79013320007431
 20
187.5521745958788
 30
0.0
 11
465.52070720007418
 21
185.2845045958787
 31
0.0
  0
ARC
  5
8D58
  8
AM_0
 10
466.04405420007453
 20
175.2982545958786
 30
0.0
 40
10.000000199999979
 50
92.999998999995157
 51
176.99999000000051
  0
CIRCLE
  5
8D59
  8
AM_0
 10
468.07943720007432
 20
173.26287459587871
 30
0.0
 40
6.0000002999999991
  0
ARC
  5
8D5C
  8
AM_0
 10
484.25901920007408
 20
143.1768135958786
 30
0.0
 40
2.00000007
 50
143.3145799999923
 51
235.00001000001151
  0
LINE
  5
8D5D
  8
AM_0
 10
483.1118492000744
 20
141.5385075958786
 30
0.0
 11
483.1118492000744
 21
141.5385075958786
 31
0.0
  0
ARC
  5
8D5E
  8
AM_0
 10
490.52337920007409
 20
143.04073359587861
 30
0.0
 40
3.0
 50
45.000000999994569
 51
140.00839000000931
  0
ARC
  5
8D5F
  8
AM_0
 10
498.30154520007432
 20
150.81893259587861
 30
0.0
 40
3.0
 50
129.9916100000064
 51
224.99999999999301
  0
ARC
  5
8D60
  8
AM_0
 10
533.79010220007444
 20
157.32444459587879
 30
0.0
 40
3.0
 50
275.2159099999937
 51
0.0
  0
ARC
  5
8D61
  8
AM_0
 10
543.79011920007429
 20
157.32444459587879
 30
0.0
 40
3.0
 50
179.99998999999889
 51
264.78409000000619
  0
ARC
  5
8D62
  8
AM_0
 10
538.79008809980814
 20
102.55219359587851
 30
0.0
 40
52.000007999999987
 50
95.215910999986505
 51
132.24432607323121
  0
ARC
  5
8D63
  8
AM_0
 10
533.79010220007444
 20
165.35346459587851
 30
0.0
 40
3.0
 50
0.0
 51
94.552070999989184
  0
ARC
  5
8D64
  8
AM_0
 10
543.79011920007429
 20
165.35346459587851
 30
0.0
 40
3.0
 50
85.44792699999158
 51
180.0000099999977
  0
LINE
  5
8D65
  8
AM_0
 10
536.79010220007444
 20
165.35346459587851
 30
0.0
 11
536.79010220007444
 21
157.32444459587879
 31
0.0
  0
LINE
  5
8D66
  8
AM_0
 10
540.79011920007429
 20
165.35346459587851
 30
0.0
 11
540.79011920007429
 21
157.32444459587879
 31
0.0
  0
LINE
  5
8D67
  8
AM_0
 10
508.79010320007421
 20
187.55220459587861
 30
0.0
 11
538.79010320007433
 21
187.55220459587861
 31
0.0
  0
ARC
  5
8D69
  8
AM_0
 10
611.53616120007314
 20
175.2982545958786
 30
0.0
 40
10.000000199999979
 50
3.0000001000014169
 51
86.999998999983788
  0
ARC
  5
8D6A
  8
ﾁｭｳｼﾝｾﾝ
 10
538.79010320007433
 20
102.55219359587861
 30
0.0
 40
100.0000109999999
 50
38.694282867677003
 51
51.305717132322989
  0
CIRCLE
  5
8D6B
  8
AM_0
 10
609.50078420007435
 20
173.26287459587871
 30
0.0
 40
6.0000002999999991
  0
LINE
  5
8D6C
  8
ﾁｭｳｼﾝｾﾝ
 10
617.27897573633084
 20
181.04103224568931
 30
0.0
 11
601.72261417339814
 21
165.48469543645351
 31
0.0
  0
ARC
  5
8D6D
  8
AM_0
 10
579.27867620007419
 20
150.81893259587861
 30
0.0
 40
3.0
 50
315.00000000000688
 51
50.008387999995769
  0
ARC
  5
8D6E
  8
AM_0
 10
587.05684220007447
 20
143.04073359587861
 30
0.0
 40
3.0
 50
39.991610999989483
 51
135.00000000000691
  0
ARC
  5
8D6F
  8
AM_0
 10
593.32119320007439
 20
143.1768135958786
 30
0.0
 40
2.00000007
 50
216.6854200000077
 51
305.00000000001171
  0
ARC
  5
8D70
  8
AM_0
 10
595.91955320007423
 20
141.2462085958785
 30
0.0
 40
3.0
 50
214.10995999999849
 51
274.8431800000082
  0
ARC
  5
8D71
  8
AM_0
 10
593.32119320007439
 20
143.1768135958786
 30
0.0
 40
2.00000007
 50
305.00000000001171
 51
36.68541400000467
  0
LINE
  5
8D72
  8
AM_0
 10
594.46835120007449
 20
141.5385075958786
 30
0.0
 11
594.46835120007449
 21
141.5385075958786
 31
0.0
  0
LINE
  5
8D73
  8
AM_0
 10
568.79010320007444
 20
187.55220459587861
 30
0.0
 11
612.05952320007441
 21
185.28453459587871
 31
0.0
  0
LINE
  5
8D75
  8
AM_0
 10
214.5835140222934
 20
145.05222159587859
 30
0.0
 11
214.5835140222934
 21
20.052205595878661
 31
0.0
  0
LINE
  5
8D76
  8
AM_0
 10
17.58356402229219
 20
50.872231595878638
 30
0.0
 11
17.58356402229219
 21
117.0822075958786
 31
0.0
  0
LINE
  5
8D77
  8
AM_0
 10
20.083524022290469
 20
25.552222595878671
 30
0.0
 11
20.083524022290469
 21
42.383876778450237
 31
0.0
  0
LINE
  5
8D78
  8
AM_0
 10
67.583514022293457
 20
139.98219159587859
 30
0.0
 11
67.583514022293457
 21
82.552207595878969
 31
0.0
  0
LINE
  5
8D79
  8
AM_0
 10
204.35354402229359
 20
112.55221059587861
 30
0.0
 11
204.35354402229359
 21
52.552222595878661
 31
0.0
  0
LINE
  5
8D7A
  8
ﾁｭｳｼﾝｾﾝ
 10
163.5835140222934
 20
123.1772070958787
 30
0.0
 11
163.5835140222934
 21
41.927208095878562
 31
0.0
  0
ARC
  5
8D7B
  8
AM_0
 10
50.584254022293408
 20
82.550317595878653
 30
0.0
 40
8.0019083999999978
 50
90.005172999990876
 51
161.7801600000017
  0
ARC
  5
8D7C
  8
AM_0
 10
50.578494022293398
 20
82.546228595878674
 30
0.0
 40
7.9940046000000002
 50
198.17884000000171
 51
270.03581999999773
  0
LINE
  5
8D7D
  8
AM_0
 10
20.083524022290469
 20
38.662222595878688
 30
0.0
 11
67.583514022292547
 21
38.662222595878688
 31
0.0
  0
LINE
  5
8D7E
  8
AM_0
 10
35.223534022293727
 20
85.052209595878637
 30
0.0
 11
45.083514022293457
 21
85.052209595878637
 31
0.0
  0
LINE
  5
8D7F
  8
AM_0
 10
35.223534022293727
 20
80.052208595878653
 30
0.0
 11
45.083514022293457
 21
80.052208595878653
 31
0.0
  0
LINE
  5
8D80
  8
AM_0
 10
19.58351402229345
 20
25.552222595878671
 30
0.0
 11
67.583514022293457
 21
25.552222595878671
 31
0.0
  0
LINE
  5
8D81
  8
AM_0
 10
26.663514022292471
 20
78.832207595878685
 30
0.0
 11
12.203514022293341
 21
34.322212595878682
 31
0.0
  0
LINE
  5
8D82
  8
AM_0
 10
31.423524022293339
 20
77.282218595878646
 30
0.0
 11
16.9635240222924
 21
32.782216595878651
 31
0.0
  0
ARC
  5
8D83
  8
AM_0
 10
14.58356402229354
 20
33.552208595878817
 30
0.0
 40
2.5014680099999991
 50
162.072079999999
 51
342.07206999999983
  0
ARC
  5
8D84
  8
AM_0
 10
14.582664022292191
 20
33.546790595878512
 30
0.0
 40
3.0008441999999982
 50
185.05819000000051
 51
0.1035440000013547
  0
LINE
  5
8D85
  8
AM_0
 10
17.58356402229219
 20
34.69222059587895
 30
0.0
 11
17.58356402229219
 21
27.552205595878661
 31
0.0
  0
ARC
  5
8D86
  8
AM_0
 10
19.578264022293752
 20
27.546928595878679
 30
0.0
 40
1.994720039999998
 50
179.84812999999991
 51
270.15187999998409
  0
LINE
  5
8D87
  8
AM_0
 10
20.083524022290469
 20
42.39221859587866
 30
0.0
 11
20.083524022290469
 21
38.662222595878688
 31
0.0
  0
ARC
  5
8D88
  8
AM_0
 10
11.29115402229354
 20
33.247885595878529
 30
0.0
 40
0.304344
 50
6.477759099997817
 51
89.547816999989408
  0
ARC
  5
8D89
  8
AM_0
 10
11.29193402229339
 20
33.247138595878653
 30
0.0
 40
0.8050760400000001
 50
5.3506319000004003
 51
89.888465999985428
  0
LINE
  5
8D8A
  8
AM_0
 10
11.083524022293661
 20
34.052221595878677
 30
0.0
 11
11.083524022293661
 21
33.552208595878817
 31
0.0
  0
LINE
  5
8D8B
  8
AM_0
 10
11.083524022293661
 20
34.052221595878677
 30
0.0
 11
11.293524022292321
 21
34.052221595878677
 31
0.0
  0
ARC
  5
8D8C
  8
AM_0
 10
17.63159402229212
 20
45.052330595878679
 30
0.0
 40
4.0504481999999991
 50
99.063520000001105
 51
224.9205999999968
  0
ARC
  5
8D8D
  8
AM_0
 10
35.225964022293716
 20
76.048699595878645
 30
0.0
 40
9.0035201999999952
 50
90.015528000017568
 51
161.99145000000081
  0
ARC
  5
8D8E
  8
AM_0
 10
35.230104022293737
 20
76.051690595878654
 30
0.0
 40
4.0005161999999981
 50
90.094088000021216
 51
162.0860699999991
  0
LINE
  5
8D8F
  8
AM_0
 10
112.5835140222934
 20
36.202231595878679
 30
0.0
 11
214.5835140222934
 21
36.202231595878679
 31
0.0
  0
LINE
  5
8D90
  8
AM_0
 10
207.93356402229341
 20
46.552222595878661
 30
0.0
 11
73.133574022293473
 21
46.552222595878661
 31
0.0
  0
LINE
  5
8D91
  8
AM_0
 10
90.583524022293645
 20
20.692207595878688
 30
0.0
 11
207.3935040222936
 21
20.692207595878688
 31
0.0
  0
LINE
  5
8D92
  8
AM_0
 10
163.5835140222934
 20
45.832222595878527
 30
0.0
 11
211.40351402229359
 21
45.832222595878527
 31
0.0
  0
LINE
  5
8D93
  8
AM_0
 10
112.5835140222934
 20
36.20221659587866
 30
0.0
 11
77.583504022293695
 21
38.232214595878531
 31
0.0
  0
LINE
  5
8D94
  8
AM_0
 10
71.853534022293374
 20
76.282189595878663
 30
0.0
 11
112.5835140222934
 21
76.282189595878663
 31
0.0
  0
LINE
  5
8D95
  8
AM_0
 10
112.0835140222934
 20
56.55222159587845
 30
0.0
 11
73.133574022293473
 21
56.55222159587845
 31
0.0
  0
LINE
  5
8D96
  8
AM_0
 10
72.043524022293695
 20
58.992226595878662
 30
0.0
 11
112.0835140222934
 21
58.992226595878662
 31
0.0
  0
LINE
  5
8D97
  8
AM_0
 10
112.0835140222934
 20
58.552222595878682
 30
0.0
 11
73.133574022293473
 21
58.552222595878682
 31
0.0
  0
LINE
  5
8D98
  8
AM_0
 10
71.913534022293334
 20
66.212212595878498
 30
0.0
 11
112.5835140222934
 21
66.212212595878498
 31
0.0
  0
LINE
  5
8D99
  8
AM_0
 10
112.5835140222934
 20
66.552208595878824
 30
0.0
 11
73.143504022293655
 21
66.552208595878824
 31
0.0
  0
LINE
  5
8D9A
  8
AM_0
 10
71.913534022293334
 20
68.872231595878645
 30
0.0
 11
112.5835140222934
 21
68.872231595878645
 31
0.0
  0
LINE
  5
8D9B
  8
AM_0
 10
112.5835140222934
 20
78.55220859587898
 30
0.0
 11
73.143504022293655
 21
78.55220859587898
 31
0.0
  0
LINE
  5
8D9C
  8
AM_0
 10
112.5835140222934
 20
76.552207595878656
 30
0.0
 11
73.143504022293655
 21
76.552207595878656
 31
0.0
  0
LINE
  5
8D9D
  8
AM_0
 10
71.853534022293374
 20
78.822226595878632
 30
0.0
 11
112.5835140222934
 21
78.822226595878632
 31
0.0
  0
LINE
  5
8D9E
  8
AM_0
 10
71.853534022293374
 20
86.292199595878685
 30
0.0
 11
112.5835140222934
 21
86.292199595878685
 31
0.0
  0
LINE
  5
8D9F
  8
AM_0
 10
71.853534022293374
 20
88.82219859587866
 30
0.0
 11
112.5835140222934
 21
88.82219859587866
 31
0.0
  0
LINE
  5
8DA0
  8
AM_0
 10
112.5835140222934
 20
48.552208595878639
 30
0.0
 11
73.573554022293578
 21
48.552208595878639
 31
0.0
  0
LINE
  5
8DA1
  8
AM_0
 10
72.043524022293695
 20
56.072212595878497
 30
0.0
 11
112.0835140222934
 21
56.072212595878497
 31
0.0
  0
LINE
  5
8DA2
  8
AM_0
 10
90.583524022293645
 20
18.662206595878668
 30
0.0
 11
143.5835640222935
 21
18.662206595878668
 31
0.0
  0
LINE
  5
8DA3
  8
AM_0
 10
90.583524022293645
 20
17.312215595878438
 30
0.0
 11
143.5835640222935
 21
17.312215595878438
 31
0.0
  0
LINE
  5
8DA4
  8
AM_0
 10
90.583524022293645
 20
16.64221959587865
 30
0.0
 11
143.5835640222935
 21
16.64221959587865
 31
0.0
  0
LINE
  5
8DA5
  8
AM_0
 10
112.5835140222934
 20
86.552209595878978
 30
0.0
 11
73.143504022293655
 21
86.552209595878978
 31
0.0
  0
LINE
  5
8DA6
  8
AM_0
 10
112.5835140222934
 20
88.552207595878656
 30
0.0
 11
73.143504022293655
 21
88.552207595878656
 31
0.0
  0
LINE
  5
8DA7
  8
AM_0
 10
112.5835140222934
 20
68.55222459587867
 30
0.0
 11
73.143504022293655
 21
68.55222459587867
 31
0.0
  0
LINE
  5
8DA8
  8
AM_0
 10
72.263514022294203
 20
45.832222595878527
 30
0.0
 11
163.5835140222934
 21
45.832222595878527
 31
0.0
  0
LINE
  5
8DA9
  8
AM_0
 10
72.263514022294203
 20
49.182211595878471
 30
0.0
 11
112.5835140222934
 21
49.182211595878471
 31
0.0
  0
LINE
  5
8DAA
  8
AM_0
 10
67.583514022293457
 20
25.122214595878521
 30
0.0
 11
67.583514022293457
 21
82.552207595878969
 31
0.0
  0
LINE
  5
8DAB
  8
AM_0
 10
67.583514022293457
 20
39.862204595878488
 30
0.0
 11
77.583564022292165
 21
39.862204595878488
 31
0.0
  0
LINE
  5
8DAC
  8
AM_0
 10
73.723524022292153
 20
20.882209595878521
 30
0.0
 11
87.083514022293457
 21
20.882209595878521
 31
0.0
  0
LINE
  5
8DAD
  8
AM_0
 10
67.583514022293457
 20
34.202215595878442
 30
0.0
 11
77.583564022292165
 21
34.202215595878442
 31
0.0
  0
LINE
  5
8DAE
  8
AM_0
 10
73.813554022293374
 20
29.57221059587869
 30
0.0
 11
87.083514022293457
 21
29.57221059587869
 31
0.0
  0
LINE
  5
8DAF
  8
AM_0
 10
73.693494022292256
 20
19.252219595878671
 30
0.0
 11
87.193494022293621
 21
19.252219595878671
 31
0.0
  0
LINE
  5
8DB0
  8
AM_0
 10
73.753554022293429
 20
24.292228595878498
 30
0.0
 11
87.083514022293457
 21
24.292228595878498
 31
0.0
  0
ARC
  5
8DB1
  8
AM_0
 10
69.373674022292093
 20
30.019414595878679
 30
0.0
 40
1.50278811
 50
12.013341999996911
 51
90.004668000016366
  0
ARC
  5
8DB2
  8
AM_0
 10
73.810554022292308
 20
31.57183059587868
 30
0.0
 40
1.9996281299999981
 50
190.36076000000071
 51
270.08532999998027
  0
ARC
  5
8DB3
  8
AM_0
 10
73.69592402229226
 20
21.25653759587868
 30
0.0
 40
2.004324029999998
 50
194.27804999999751
 51
269.93108999997929
  0
LINE
  5
8DB4
  8
AM_0
 10
67.58357402229376
 20
25.122214595878521
 30
0.0
 11
70.403514022293621
 21
25.052206595878658
 31
0.0
  0
ARC
  5
8DB5
  8
AM_0
 10
69.418524022293695
 20
23.930455595878691
 30
0.0
 40
1.5017800800000001
 50
14.332836000000739
 51
90.189383000005648
  0
ARC
  5
8DB6
  8
AM_0
 10
69.397854022293359
 20
25.955893595878649
 30
0.0
 40
1.4963320799999991
 50
13.382438000004029
 51
90.164589999994277
  0
ARC
  5
8DB7
  8
AM_0
 10
73.721454022292136
 20
22.884160595878651
 30
0.0
 40
2.0019479399999991
 50
193.3411400000015
 51
270.05947999999449
  0
ARC
  5
8DB8
  8
AM_0
 10
73.755444022293403
 20
26.287909595878538
 30
0.0
 40
1.995695999999995
 50
192.0225299999999
 51
269.94477999998969
  0
LINE
  5
8DB9
  8
AM_0
 10
71.803554022293611
 20
25.872199595878669
 30
0.0
 11
70.843524022293423
 21
30.332206595878681
 31
0.0
  0
LINE
  5
8DBA
  8
AM_0
 10
69.393504022293655
 20
27.452215595878439
 30
0.0
 11
71.453574022293651
 21
27.452215595878439
 31
0.0
  0
LINE
  5
8DBB
  8
AM_0
 10
69.413544022292172
 20
25.43221059587864
 30
0.0
 11
71.063544022292263
 21
25.43221059587864
 31
0.0
  0
LINE
  5
8DBC
  8
AM_0
 10
71.773524022293699
 20
22.422202595878669
 30
0.0
 11
70.85354402229359
 21
26.302207595878649
 31
0.0
  0
LINE
  5
8DBD
  8
AM_0
 10
71.753484022293378
 20
20.762212595878509
 30
0.0
 11
70.873494022293471
 21
24.302206595878651
 31
0.0
  0
LINE
  5
8DBE
  8
AM_0
 10
62.583564022292173
 20
38.662222595878688
 30
0.0
 11
62.583564022292173
 21
25.552222595878671
 31
0.0
  0
LINE
  5
8DBF
  8
AM_0
 10
69.373494022293471
 20
31.52220759587868
 30
0.0
 11
71.793534022293429
 21
31.52220759587868
 31
0.0
  0
LINE
  5
8DC0
  8
AM_0
 10
71.303544022292499
 20
34.202200595878651
 30
0.0
 11
71.843514022292311
 21
31.212196595878648
 31
0.0
  0
LINE
  5
8DC1
  8
AM_0
 10
67.583514022293457
 20
48.252220595878661
 30
0.0
 11
70.753554022293429
 21
48.252220595878661
 31
0.0
  0
ARC
  5
8DC2
  8
AM_0
 10
72.263514022294203
 20
47.507224595878647
 30
0.0
 40
1.67500812
 50
90.000002999984645
 51
270.0
  0
ARC
  5
8DC3
  8
AM_0
 10
73.133574022293473
 20
47.552221595878493
 30
0.0
 40
1.000004069999999
 50
90.000002999984645
 51
270.0
  0
ARC
  5
8DC4
  8
AM_0
 10
87.084984022292218
 20
19.383643595878521
 30
0.0
 40
1.498559999999999
 50
359.94488000000052
 51
90.055115000003084
  0
ARC
  5
8DC5
  8
AM_0
 10
90.58607402229336
 20
20.664724595878852
 30
0.0
 40
2.00251584
 50
180.0718999999998
 51
269.9281000000002
  0
ARC
  5
8DC6
  8
AM_0
 10
87.202224022293649
 20
17.751928595878489
 30
0.0
 40
1.500312029999999
 50
14.683033999999299
 51
90.331662999981404
  0
ARC
  5
8DC7
  8
AM_0
 10
90.584664022291236
 20
18.638632595878668
 30
0.0
 40
1.9964280599999991
 50
194.69462999999919
 51
269.96760999999151
  0
ARC
  5
8DC8
  8
AM_0
 10
90.583344022293645
 20
19.312033595878461
 30
0.0
 40
1.9998241199999991
 50
179.99493999999871
 51
270.00505999999473
  0
ARC
  5
8DC9
  8
AM_0
 10
87.081984022292531
 20
22.790716595878671
 30
0.0
 40
1.5015081599999991
 50
0.0575469979997975
 51
89.94245100000316
  0
ARC
  5
8DCA
  8
AM_0
 10
87.083154022293456
 20
28.071844595878531
 30
0.0
 40
1.500360179999999
 50
0.0138160000014509
 51
89.986184999986932
  0
ARC
  5
8DCB
  8
AM_0
 10
90.585174022293373
 20
22.69385559587851
 30
0.0
 40
2.0016401400000001
 50
180.04696000000129
 51
269.9530400000213
  0
LINE
  5
8DCC
  8
AM_0
 10
88.583514022293457
 20
20.662222595878681
 30
0.0
 11
88.583514022293457
 21
28.07221059587869
 31
0.0
  0
ARC
  5
8DCD
  8
AM_0
 10
76.753734022293429
 20
40.95932559587866
 30
0.0
 40
5.0021840999999991
 50
5.4245259999996849
 51
80.45142500000162
  0
LINE
  5
8DCE
  8
AM_0
 10
77.583564022292165
 20
34.202215595878442
 30
0.0
 11
77.583564022292165
 21
48.252220595878661
 31
0.0
  0
ARC
  5
8DCF
  8
AM_0
 10
77.213754022293401
 20
44.898733595878689
 30
0.0
 40
6.007896599999996
 50
273.5284499999853
 51
314.61726999999649
  0
ARC
  5
8DD0
  8
AM_0
 10
80.730054022293615
 20
41.34329859587865
 30
0.0
 40
1.007376
 50
314.29032000000012
 51
5.0634049000017072
  0
ARC
  5
8DD1
  8
AM_0
 10
89.583564022293544
 20
47.552221595878493
 30
0.0
 40
1.000004069999999
 50
90.000002999984645
 51
270.0
  0
LINE
  5
8DD2
  8
ﾁｭｳｼﾝｾﾝ
 10
50.583564022293558
 20
70.337210095878646
 30
0.0
 11
50.583564022293558
 21
94.767205095878651
 31
0.0
  0
ARC
  5
8DD3
  8
AM_0
 10
73.133574022293473
 20
57.552208595878973
 30
0.0
 40
1.000004069999999
 50
90.000002999984645
 51
270.0
  0
ARC
  5
8DD4
  8
AM_0
 10
72.043524022293695
 20
57.532204595878667
 30
0.0
 40
1.4600000699999991
 50
90.000002999984645
 51
270.0
  0
ARC
  5
8DD5
  8
AM_0
 10
73.134834022292125
 20
67.552222595878675
 30
0.0
 40
1.00003602
 50
89.500715999993631
 51
270.49928999999503
  0
ARC
  5
8DD6
  8
AM_0
 10
71.913534022293334
 20
67.542214595878633
 30
0.0
 40
1.33000008
 50
90.000002999984645
 51
270.0
  0
LINE
  5
8DD7
  8
AM_0
 10
50.583564022293558
 20
74.552209595878793
 30
0.0
 11
67.583514022293457
 21
74.552209595878793
 31
0.0
  0
LINE
  5
8DD8
  8
AM_0
 10
50.583564022293558
 20
90.552208595878639
 30
0.0
 11
67.583514022293457
 21
90.552208595878639
 31
0.0
  0
ARC
  5
8DD9
  8
AM_0
 10
50.583564022293558
 20
82.546195595878629
 30
0.0
 40
5.0000519999999984
 50
23.65323000000534
 51
156.34676999999459
  0
ARC
  5
8DDA
  8
AM_0
 10
50.583564022293558
 20
82.546195595878629
 30
0.0
 40
4.9952319000000003
 50
203.52670000000651
 51
336.47329000000582
  0
LINE
  5
8DDB
  8
AM_0
 10
45.083514022293457
 20
84.552208595878653
 30
0.0
 11
56.083524022293652
 21
84.552208595878653
 31
0.0
  0
LINE
  5
8DDC
  8
AM_0
 10
45.083514022293457
 20
80.552209595878665
 30
0.0
 11
56.083524022293652
 21
80.552209595878665
 31
0.0
  0
LINE
  5
8DDD
  8
AM_0
 10
45.083514022293457
 20
80.052208595878653
 30
0.0
 11
45.083514022293457
 21
85.052209595878637
 31
0.0
  0
LINE
  5
8DDE
  8
AM_0
 10
58.58351402229345
 20
80.052208595878653
 30
0.0
 11
58.58351402229345
 21
85.052209595878637
 31
0.0
  0
LINE
  5
8DDF
  8
AM_0
 10
56.083524022293652
 20
80.052208595878653
 30
0.0
 11
56.083524022293652
 21
85.052209595878637
 31
0.0
  0
LINE
  5
8DE0
  8
AM_0
 10
56.083524022293652
 20
85.052209595878637
 30
0.0
 11
58.58351402229345
 21
85.052209595878637
 31
0.0
  0
LINE
  5
8DE1
  8
AM_0
 10
56.083524022293652
 20
80.052208595878653
 30
0.0
 11
58.58351402229345
 21
80.052208595878653
 31
0.0
  0
ARC
  5
8DE2
  8
AM_0
 10
71.853534022293374
 20
77.552209595878665
 30
0.0
 40
1.270004069999999
 50
90.000002999984645
 51
270.0
  0
ARC
  5
8DE3
  8
AM_0
 10
73.134834022292125
 20
77.552209595878665
 30
0.0
 40
1.00003602
 50
89.500715999993631
 51
270.49928999999503
  0
ARC
  5
8DE4
  8
AM_0
 10
73.134834022292125
 20
87.552208595878653
 30
0.0
 40
1.00003602
 50
89.500715999993631
 51
270.49928999999503
  0
ARC
  5
8DE5
  8
AM_0
 10
71.853534022293374
 20
87.557212595878525
 30
0.0
 40
1.265004089999999
 50
90.000002999984645
 51
270.0
  0
ARC
  5
8DE6
  8
AM_0
 10
89.583564022293544
 20
57.552208595878973
 30
0.0
 40
1.000004069999999
 50
90.000002999984645
 51
270.0
  0
ARC
  5
8DE7
  8
AM_0
 10
89.583564022293544
 20
67.552222595878675
 30
0.0
 40
1.000004069999999
 50
90.000002999984645
 51
270.0
  0
ARC
  5
8DE8
  8
AM_0
 10
89.583564022293544
 20
77.552209595878665
 30
0.0
 40
1.000004069999999
 50
90.000002999984645
 51
270.0
  0
ARC
  5
8DE9
  8
AM_0
 10
89.583564022293544
 20
87.552208595878653
 30
0.0
 40
1.000004069999999
 50
90.000002999984645
 51
270.0
  0
ARC
  5
8DEA
  8
AM_0
 10
143.5826640222935
 20
18.643102595878641
 30
0.0
 40
2.000876009999998
 50
270.02510999999589
 51
359.97489000000081
  0
ARC
  5
8DEB
  8
AM_0
 10
143.58119402229241
 20
19.3145505958787
 30
0.0
 40
2.002332029999998
 50
270.06674000000118
 51
359.93325999999882
  0
ARC
  5
8DEC
  8
AM_0
 10
143.57852402229341
 20
20.667241595878679
 30
0.0
 40
2.00502402
 50
270.14341000000132
 51
359.85658999999868
  0
LINE
  5
8DED
  8
AM_0
 10
145.5835140222934
 20
18.642202595878519
 30
0.0
 11
145.5835140222934
 21
20.692207595878688
 31
0.0
  0
ARC
  5
8DEE
  8
AM_0
 10
211.40351402229359
 20
47.507224595878647
 30
0.0
 40
1.6749999899999961
 50
270.0
 51
90.000002999984645
  0
ARC
  5
8DEF
  8
AM_0
 10
209.43287402229359
 20
24.058738595878651
 30
0.0
 40
2.0065319999999991
 50
270.01926999998381
 51
347.72686999999718
  0
LINE
  5
8DF0
  8
AM_0
 10
209.29352402229361
 20
22.05222159587867
 30
0.0
 11
214.5835140222934
 21
22.05222159587867
 31
0.0
  0
LINE
  5
8DF1
  8
AM_0
 10
209.32349402229369
 20
22.172200595878671
 30
0.0
 11
212.7835140222937
 21
35.092201595878691
 31
0.0
  0
LINE
  5
8DF2
  8
AM_0
 10
211.40351402229359
 20
49.182211595878471
 30
0.0
 11
201.5835140222934
 21
49.182211595878471
 31
0.0
  0
ARC
  5
8DF3
  8
AM_0
 10
207.38894402229241
 20
22.696615595878651
 30
0.0
 40
2.004416039999998
 50
270.13147999999228
 51
344.8333399999994
  0
LINE
  5
8DF4
  8
AM_0
 10
207.93356402229341
 20
48.552208595878639
 30
0.0
 11
201.5835140222934
 21
48.552208595878639
 31
0.0
  0
LINE
  5
8DF5
  8
AM_0
 10
201.5835140222934
 20
52.473469009309852
 30
0.0
 11
204.35354402229359
 21
52.552192595878523
 31
0.0
  0
ARC
  5
8DF6
  8
AM_0
 10
207.9253740222934
 20
47.552221595878493
 30
0.0
 40
1.0000319699999971
 50
270.4692999999848
 51
89.530700000015187
  0
ARC
  5
8DF7
  8
AM_0
 10
215.5830240222935
 20
31.511680595878651
 30
0.0
 40
0.99947604
 50
179.97008999999869
 51
270.02991999999381
  0
ARC
  5
8DF8
  8
AM_0
 10
214.2905940222922
 20
30.02289459587865
 30
0.0
 40
1.499328059999999
 50
89.888150999980539
 51
168.09384000000131
  0
ARC
  5
8DF9
  8
AM_0
 10
215.58377402229371
 20
20.05238859587865
 30
0.0
 40
1.0001800499999971
 50
180.0103099999989
 51
269.98967999999968
  0
LINE
  5
8DFA
  8
AM_0
 10
211.39352402229221
 20
23.632207595878519
 30
0.0
 11
212.83352402229229
 21
30.332206595878681
 31
0.0
  0
ARC
  5
8DFB
  8
AM_0
 10
214.22891402229331
 20
34.70623059587853
 30
0.0
 40
1.49599605
 50
89.821707000006256
 51
165.0476599999993
  0
LINE
  5
8DFC
  8
AM_0
 10
214.2935340222925
 20
31.52220759587868
 30
0.0
 11
211.88357402229121
 21
31.52220759587868
 31
0.0
  0
LINE
  5
8DFD
  8
AM_0
 10
20.083524022290469
 20
126.4422015958786
 30
0.0
 11
67.583514022292547
 21
126.4422015958786
 31
0.0
  0
LINE
  5
8DFE
  8
AM_0
 10
20.083524022290469
 20
116.1922245958786
 30
0.0
 11
62.583564022292173
 21
116.1922245958786
 31
0.0
  0
LINE
  5
8DFF
  8
AM_0
 10
19.58351402229345
 20
139.55220159587861
 30
0.0
 11
67.583514022293457
 21
139.55220159587861
 31
0.0
  0
ARC
  5
8E00
  8
AM_0
 10
19.584054022292548
 20
137.55165159587861
 30
0.0
 40
2.000536019999998
 50
90.015328999985087
 51
179.98467999999841
  0
ARC
  5
8E01
  8
AM_0
 10
18.48128402229349
 20
119.9347215958786
 30
0.0
 40
2.9977641899999981
 50
179.8564500000015
 51
275.78659000000317
  0
LINE
  5
8E02
  8
AM_0
 10
18.783534022293669
 20
116.8422195958785
 30
0.0
 11
18.783534022293669
 21
126.0422115958786
 31
0.0
  0
LINE
  5
8E03
  8
AM_0
 10
18.783534022293669
 20
116.8422195958785
 30
0.0
 11
20.083524022290469
 21
116.8422195958785
 31
0.0
  0
LINE
  5
8E04
  8
AM_0
 10
17.58356402229219
 20
125.8022115958786
 30
0.0
 11
17.58356402229219
 21
137.55222159587879
 31
0.0
  0
ARC
  5
8E05
  8
AM_0
 10
18.481344022292419
 20
122.9397015958786
 30
0.0
 40
2.99777994
 50
84.213883000010895
 51
179.95210999999989
  0
LINE
  5
8E06
  8
AM_0
 10
15.48353402229349
 20
119.94222159587861
 30
0.0
 11
15.48353402229349
 21
122.94222159587861
 31
0.0
  0
LINE
  5
8E07
  8
AM_0
 10
18.783534022293669
 20
126.0422115958786
 30
0.0
 11
20.083524022290469
 21
126.0422115958786
 31
0.0
  0
LINE
  5
8E08
  8
AM_0
 10
112.5835140222934
 20
128.90220159587869
 30
0.0
 11
214.5835140222934
 21
128.90220159587869
 31
0.0
  0
LINE
  5
8E09
  8
AM_0
 10
81.263514022293734
 20
119.2722015958787
 30
0.0
 11
211.40351402229359
 21
119.2722015958787
 31
0.0
  0
LINE
  5
8E0A
  8
AM_0
 10
207.93356402229341
 20
118.5522015958786
 30
0.0
 11
82.133574022291228
 21
118.5522015958786
 31
0.0
  0
LINE
  5
8E0B
  8
AM_0
 10
90.583524022293645
 20
144.41223159587861
 30
0.0
 11
207.3935040222936
 21
144.41223159587861
 31
0.0
  0
LINE
  5
8E0C
  8
AM_0
 10
112.5835740222937
 20
128.90220159587869
 30
0.0
 11
77.583504022293695
 21
126.8722215958786
 31
0.0
  0
LINE
  5
8E0D
  8
AM_0
 10
71.913534022293334
 20
96.232201595878522
 30
0.0
 11
112.5835140222934
 21
96.232201595878522
 31
0.0
  0
LINE
  5
8E0E
  8
AM_0
 10
71.913534022293334
 20
98.892205595878536
 30
0.0
 11
112.5835140222934
 21
98.892205595878536
 31
0.0
  0
LINE
  5
8E0F
  8
AM_0
 10
81.043524022292345
 20
106.1122065958786
 30
0.0
 11
112.0835140222934
 21
106.1122065958786
 31
0.0
  0
LINE
  5
8E10
  8
AM_0
 10
81.043524022292345
 20
109.0422315958786
 30
0.0
 11
112.0835140222934
 21
109.0422315958786
 31
0.0
  0
LINE
  5
8E11
  8
AM_0
 10
81.263514022293734
 20
115.9222365958786
 30
0.0
 11
112.5835140222934
 21
115.9222365958786
 31
0.0
  0
LINE
  5
8E12
  8
AM_0
 10
112.5835140222934
 20
96.552208595878625
 30
0.0
 11
73.143504022293655
 21
96.552208595878625
 31
0.0
  0
LINE
  5
8E13
  8
AM_0
 10
112.5835140222934
 20
98.552209595878665
 30
0.0
 11
73.143504022293655
 21
98.552209595878665
 31
0.0
  0
LINE
  5
8E14
  8
AM_0
 10
112.0835140222934
 20
106.55221059587861
 30
0.0
 11
82.133574022291228
 21
106.55221059587861
 31
0.0
  0
LINE
  5
8E15
  8
AM_0
 10
112.0835140222934
 20
108.5522085958786
 30
0.0
 11
82.133574022291228
 21
108.5522085958786
 31
0.0
  0
LINE
  5
8E16
  8
AM_0
 10
112.5835140222934
 20
116.55220959587859
 30
0.0
 11
82.133574022291228
 21
116.55220959587859
 31
0.0
  0
LINE
  5
8E17
  8
AM_0
 10
90.583524022293645
 20
146.4422115958784
 30
0.0
 11
143.5835640222935
 21
146.4422115958784
 31
0.0
  0
LINE
  5
8E18
  8
AM_0
 10
90.583524022293645
 20
147.7922115958786
 30
0.0
 11
143.5835640222935
 21
147.7922115958786
 31
0.0
  0
LINE
  5
8E19
  8
AM_0
 10
90.583524022293645
 20
148.47222159587881
 30
0.0
 11
143.5835640222935
 21
148.47222159587881
 31
0.0
  0
ARC
  5
8E1A
  8
AM_0
 10
73.755204022292219
 20
138.82680159587869
 30
0.0
 40
1.9953880799999959
 50
90.048066999991249
 51
167.98461999999969
  0
LINE
  5
8E1B
  8
AM_0
 10
88.583514022293457
 20
144.4422015958786
 30
0.0
 11
88.583514022293457
 21
137.03223159587861
 31
0.0
  0
LINE
  5
8E1C
  8
AM_0
 10
71.773584022292198
 20
142.68222159587859
 30
0.0
 11
70.85354402229359
 21
138.80220159587861
 31
0.0
  0
LINE
  5
8E1D
  8
AM_0
 10
73.813554022293374
 20
135.53223159587861
 30
0.0
 11
87.083514022293457
 21
135.53223159587861
 31
0.0
  0
LINE
  5
8E1E
  8
AM_0
 10
67.583514022293457
 20
130.90221159587861
 30
0.0
 11
77.583564022292165
 21
130.90221159587861
 31
0.0
  0
LINE
  5
8E1F
  8
AM_0
 10
67.583514022293457
 20
125.2422015958786
 30
0.0
 11
77.583564022292165
 21
125.2422015958786
 31
0.0
  0
LINE
  5
8E20
  8
AM_0
 10
67.583514022293457
 20
116.8622085958786
 30
0.0
 11
77.583564022292165
 21
116.8622085958786
 31
0.0
  0
ARC
  5
8E21
  8
AM_0
 10
71.913534022293334
 20
97.562218595878505
 30
0.0
 40
1.33000008
 50
90.000002999984645
 51
270.0
  0
ARC
  5
8E22
  8
AM_0
 10
73.134834022292125
 20
97.552207595878642
 30
0.0
 40
1.00003602
 50
89.500715999993631
 51
270.49928999999503
  0
LINE
  5
8E23
  8
AM_0
 10
62.583564022292173
 20
90.552208595878639
 30
0.0
 11
62.583564022292173
 21
139.55220159587861
 31
0.0
  0
ARC
  5
8E24
  8
AM_0
 10
69.392724022293351
 20
139.1550315958786
 30
0.0
 40
1.502808149999999
 50
270.03078999999502
 51
346.42217999999878
  0
ARC
  5
8E25
  8
AM_0
 10
69.374784022293611
 20
135.09633159587861
 30
0.0
 40
1.504140059999999
 50
269.95424999999199
 51
347.55525000000119
  0
ARC
  5
8E26
  8
AM_0
 10
73.805364022293361
 20
133.5388215958786
 30
0.0
 40
1.993432109999999
 50
89.765883999979707
 51
169.78803000000019
  0
LINE
  5
8E27
  8
AM_0
 10
69.393504022293655
 20
137.65221159587861
 30
0.0
 11
71.453574022293651
 21
137.65221159587861
 31
0.0
  0
LINE
  5
8E28
  8
AM_0
 10
71.803494022293762
 20
139.24221159587859
 30
0.0
 11
70.84346402229356
 21
134.77221159587859
 31
0.0
  0
LINE
  5
8E29
  8
AM_0
 10
69.373494022293471
 20
133.59222159587861
 30
0.0
 11
71.793534022293429
 21
133.59222159587861
 31
0.0
  0
LINE
  5
8E2A
  8
AM_0
 10
71.30348402229356
 20
130.90221159587861
 30
0.0
 11
71.843514022292311
 21
133.89225159587861
 31
0.0
  0
ARC
  5
8E2B
  8
AM_0
 10
82.133574022291228
 20
117.5522115958786
 30
0.0
 40
1.000004069999999
 50
90.000002999984645
 51
270.0
  0
ARC
  5
8E2C
  8
AM_0
 10
81.263514022293734
 20
117.5971815958786
 30
0.0
 40
1.67500812
 50
90.000002999984645
 51
270.0
  0
ARC
  5
8E2D
  8
AM_0
 10
89.583564022293544
 20
117.5522115958786
 30
0.0
 40
1.000004069999999
 50
90.000002999984645
 51
270.0
  0
LINE
  5
8E2E
  8
AM_0
 10
77.583564022292165
 20
130.90221159587861
 30
0.0
 11
77.583564022292165
 21
116.8622085958786
 31
0.0
  0
ARC
  5
8E2F
  8
AM_0
 10
82.133574022291228
 20
107.55220959587859
 30
0.0
 40
1.000004069999999
 50
90.000002999984645
 51
270.0
  0
ARC
  5
8E30
  8
AM_0
 10
81.043524022292345
 20
107.5772025958786
 30
0.0
 40
1.46500008
 50
90.000002999984645
 51
270.0
  0
ARC
  5
8E31
  8
AM_0
 10
89.583564022293544
 20
107.55220959587859
 30
0.0
 40
1.000004069999999
 50
90.000002999984645
 51
270.0
  0
ARC
  5
8E32
  8
AM_0
 10
89.583564022293544
 20
97.552207595878642
 30
0.0
 40
1.000004069999999
 50
90.000002999984645
 51
270.0
  0
ARC
  5
8E33
  8
AM_0
 10
80.73347402229362
 20
123.7623615958786
 30
0.0
 40
1.004135999999999
 50
354.84883999999812
 51
45.797435999994747
  0
ARC
  5
8E34
  8
AM_0
 10
77.204724022292311
 20
120.2202615958788
 30
0.0
 40
6.0039084000000011
 50
45.223692999997049
 51
86.382714000002196
  0
ARC
  5
8E35
  8
AM_0
 10
76.748484022293724
 20
124.1499915958786
 30
0.0
 40
5.0078918999999971
 50
279.59871999999461
 51
354.52532000000048
  0
ARC
  5
8E36
  8
AM_0
 10
87.077904022293765
 20
137.0378715958787
 30
0.0
 40
1.5056760899999959
 50
270.2155199999923
 51
359.78447000000108
  0
LINE
  5
8E37
  8
AM_0
 10
73.693494022292256
 20
145.85220159587851
 30
0.0
 11
87.193494022293621
 21
145.85220159587851
 31
0.0
  0
LINE
  5
8E38
  8
AM_0
 10
73.723524022292153
 20
144.2221815958786
 30
0.0
 11
87.083514022293457
 21
144.2221815958786
 31
0.0
  0
LINE
  5
8E39
  8
AM_0
 10
73.753554022293429
 20
140.82219159587859
 30
0.0
 11
87.083514022293457
 21
140.82219159587859
 31
0.0
  0
LINE
  5
8E3A
  8
AM_0
 10
67.583514022293457
 20
139.98219159587859
 30
0.0
 11
70.403514022293621
 21
140.05218159587861
 31
0.0
  0
ARC
  5
8E3B
  8
AM_0
 10
73.690884022292266
 20
143.85441159587859
 30
0.0
 40
1.9977801299999991
 50
89.923080999997794
 51
165.86777000000319
  0
ARC
  5
8E3C
  8
AM_0
 10
69.411834022291259
 20
141.1793115958786
 30
0.0
 40
1.5070961099999991
 50
270.0648200000017
 51
345.90218000000061
  0
ARC
  5
8E3D
  8
AM_0
 10
73.716384022293354
 20
142.22673159587859
 30
0.0
 40
1.995484169999999
 50
89.79345799999912
 51
166.8059200000024
  0
LINE
  5
8E3E
  8
AM_0
 10
71.753544022293696
 20
144.34221159587861
 30
0.0
 11
70.873554022293774
 21
140.81223159587859
 31
0.0
  0
LINE
  5
8E3F
  8
AM_0
 10
69.413544022292172
 20
139.67220159587859
 30
0.0
 11
71.063544022292263
 21
139.67220159587859
 31
0.0
  0
ARC
  5
8E40
  8
AM_0
 10
87.197154022292125
 20
147.3591015958786
 30
0.0
 40
1.506888089999999
 50
269.86222999998643
 51
345.12306999999907
  0
ARC
  5
8E41
  8
AM_0
 10
87.079674022291357
 20
145.7260515958786
 30
0.0
 40
1.5038481299999991
 50
270.14639999998991
 51
359.85360000000009
  0
ARC
  5
8E42
  8
AM_0
 10
87.081744022292213
 20
142.32402159587861
 30
0.0
 40
1.501796039999995
 50
270.06854999998592
 51
359.93145000000101
  0
ARC
  5
8E43
  8
AM_0
 10
90.586014022293512
 20
146.47737159587859
 30
0.0
 40
1.99484415
 50
90.071657999978328
 51
165.63720000000311
  0
ARC
  5
8E44
  8
AM_0
 10
90.578094022291225
 20
145.79763159587861
 30
0.0
 40
1.99457616
 50
89.844008000013005
 51
180.15598999999941
  0
ARC
  5
8E45
  8
AM_0
 10
90.580764022293351
 20
144.44499159587861
 30
0.0
 40
1.9972080599999991
 50
89.919857000000462
 51
180.08013999999881
  0
ARC
  5
8E46
  8
AM_0
 10
90.579924022293639
 20
142.41582159587861
 30
0.0
 40
1.996384079999995
 50
89.896162999993464
 51
180.10383999999931
  0
ARC
  5
8E47
  8
AM_0
 10
143.58290402229341
 20
146.4715815958786
 30
0.0
 40
2.0006240100000001
 50
0.0178240009987588
 51
89.98217599999785
  0
ARC
  5
8E48
  8
AM_0
 10
143.58644402229109
 20
145.79514159587859
 30
0.0
 40
1.997088119999999
 50
359.91637999999853
 51
90.083624999987734
  0
ARC
  5
8E49
  8
AM_0
 10
143.58383402229219
 20
144.4425015958787
 30
0.0
 40
1.999720049999999
 50
359.9919399999992
 51
90.008061999993785
  0
LINE
  5
8E4A
  8
AM_0
 10
145.5835140222934
 20
146.4721815958786
 30
0.0
 11
145.5835140222934
 21
144.41223159587861
 31
0.0
  0
LINE
  5
8E4B
  8
AM_0
 10
209.32349402229369
 20
142.93224159587859
 30
0.0
 11
212.7835140222937
 21
130.01226159587861
 31
0.0
  0
LINE
  5
8E4C
  8
AM_0
 10
211.39352402229221
 20
141.47223159587861
 30
0.0
 11
212.83352402229229
 21
134.77221159587859
 31
0.0
  0
ARC
  5
8E4D
  8
AM_0
 10
211.40351402229359
 20
117.5971815958786
 30
0.0
 40
1.6749999899999961
 50
270.0
 51
90.000002999984645
  0
LINE
  5
8E4E
  8
AM_0
 10
211.40351402229359
 20
115.9222365958786
 30
0.0
 11
201.5835140222934
 21
115.9222365958786
 31
0.0
  0
ARC
  5
8E4F
  8
AM_0
 10
207.9253740222934
 20
117.5522115958786
 30
0.0
 40
1.0000319699999971
 50
270.4692999999848
 51
89.530700000015187
  0
LINE
  5
8E50
  8
AM_0
 10
201.5835140222934
 20
116.45223459587859
 30
0.0
 11
207.93356402229341
 21
116.45223459587859
 31
0.0
  0
LINE
  5
8E51
  8
AM_0
 10
201.5835140222934
 20
112.6309341824475
 30
0.0
 11
204.35354402229359
 21
112.55221059587861
 31
0.0
  0
ARC
  5
8E52
  8
AM_0
 10
214.23377402229329
 20
130.4046015958786
 30
0.0
 40
1.50239199
 50
195.14000999999971
 51
269.99063999998032
  0
ARC
  5
8E53
  8
AM_0
 10
215.5778940222921
 20
133.5978315958786
 30
0.0
 40
0.99440004
 50
89.67649099999349
 51
180.32351000000079
  0
ARC
  5
8E54
  8
AM_0
 10
214.28939402229341
 20
135.09267159587861
 30
0.0
 40
1.500476039999995
 50
192.33222999999589
 51
270.15827999999971
  0
LINE
  5
8E55
  8
AM_0
 10
214.2935340222925
 20
133.59222159587861
 30
0.0
 11
211.88357402229121
 21
133.59222159587861
 31
0.0
  0
ARC
  5
8E56
  8
AM_0
 10
209.4380040222922
 20
141.05202159587861
 30
0.0
 40
2.0001800699999981
 50
12.126352000003131
 51
90.127514999991448
  0
LINE
  5
8E57
  8
AM_0
 10
209.29352402229361
 20
143.05221159587859
 30
0.0
 11
214.5835140222934
 21
143.05221159587859
 31
0.0
  0
ARC
  5
8E58
  8
AM_0
 10
207.39401402229339
 20
142.41441159587859
 30
0.0
 40
1.997795999999999
 50
15.02159699999565
 51
90.013580999977563
  0
ARC
  5
8E59
  8
AM_0
 10
215.5786440222941
 20
145.05714159587859
 30
0.0
 40
0.9950640599999999
 50
89.71493799999395
 51
180.28506000000129
  0
LINE
  5
8E60
  8
AM_0
 10
197.0835140222934
 20
105.0522075958786
 30
0.0
 11
197.08351402229249
 21
60.052207595878649
 31
0.0
  0
LINE
  5
8E61
  8
AM_0
 10
194.9835140222921
 20
105.6024601275726
 30
0.0
 11
194.9835140222921
 21
59.501955064184813
 31
0.0
  0
LINE
  5
8E62
  8
AM_0
 10
112.0835140222934
 20
64.552207595878656
 30
0.0
 11
112.0835140222934
 21
54.552197595878667
 31
0.0
  0
LINE
  5
8E63
  8
AM_0
 10
112.5835140222934
 20
50.052201595878962
 30
0.0
 11
112.5835140222934
 21
115.0521975958784
 31
0.0
  0
LINE
  5
8E64
  8
AM_0
 10
184.13375855398721
 20
48.652199595878542
 30
0.0
 11
117.00349402229349
 21
48.652199595878542
 31
0.0
  0
LINE
  5
8E65
  8
AM_0
 10
117.00349402229349
 20
48.652199595878542
 30
0.0
 11
117.00349402229349
 21
46.552208595878639
 31
0.0
  0
ARC
  5
8E66
  8
AM_0
 10
116.0761340222934
 20
50.044854595878519
 30
0.0
 40
3.492651899999998
 50
179.8793300000022
 51
270.12067999999482
  0
ARC
  5
8E67
  8
AM_0
 10
112.57619402229371
 20
54.544857595878682
 30
0.0
 40
0.4927000100000001
 50
179.14455999999711
 51
270.8554399999897
  0
ARC
  5
8E68
  8
AM_0
 10
199.08351402229249
 20
60.052207595878649
 30
0.0
 40
2.0
 50
180.0
 51
270.0
  0
LINE
  5
8E69
  8
AM_0
 10
194.5734635159541
 20
58.512005570522831
 30
0.0
 11
185.12370804764799
 21
49.06225010221749
 31
0.0
  0
LINE
  5
8E6A
  8
AM_0
 10
185.12371604764741
 20
49.062258102217193
 30
0.0
 11
194.5734635159541
 21
58.512005570523122
 31
0.0
  0
ARC
  5
8E6B
  8
AM_0
 10
184.13375855398721
 20
50.052199595878683
 30
0.0
 40
1.399999999999999
 50
270.0
 51
315.00000000000921
1001
GENIUS_GENODEF_13
1002
{
1000
HIER
1070
     0
1002
}
1002
{
1000
MANEDIT
1070
     0
1002
}
1002
{
1000
NOSEL
1070
     0
1002
}
1002
{
1000
BEHIND
1070
     0
1002
}
1002
{
1000
OTHER
1070
     0
1002
}
1002
{
1000
REACTOR
1002
}
1001
GENIUS_GENOBJ-N-FIL_13
1002
{
1000
OWNER
1000
GEN
1002
}
  0
ARC
  5
8E6C
  8
AM_0
 10
193.58351402229249
 20
59.501955064184813
 30
0.0
 40
1.4000000000006301
 50
314.99999999997232
 51
0.0
  0
ARC
  5
8E6D
  8
AM_0
 10
199.5835140222911
 20
48.552207595878649
 30
0.0
 40
2.0
 50
270.0
 51
0.0
  0
ARC
  5
8E6E
  8
AM_0
 10
199.5835140222911
 20
56.052207595878649
 30
0.0
 40
2.0
 50
0.0
 51
90.0
  0
LINE
  5
8E6F
  8
AM_0
 10
199.5835140222911
 20
58.052207595878642
 30
0.0
 11
199.08351402229249
 21
58.052207595878642
 31
0.0
  0
LINE
  5
8E70
  8
AM_0
 10
201.5835140222934
 20
48.552207595878649
 30
0.0
 11
201.5835140222934
 21
56.052207595878649
 31
0.0
  0
LINE
  5
8E71
  8
AM_0
 10
117.00349402229349
 20
116.4521875958785
 30
0.0
 11
184.14124984216821
 21
116.4521875958785
 31
0.0
  0
ARC
  5
8E72
  8
AM_0
 10
112.5840640222936
 20
64.55165759587851
 30
0.0
 40
0.5005480100000002
 50
90.062622000000005
 51
179.93736999999041
  0
ARC
  5
8E73
  8
AM_0
 10
112.5840640222936
 20
110.5516575958785
 30
0.0
 40
0.5005480100000002
 50
90.062622000000005
 51
179.93736999999041
  0
ARC
  5
8E74
  8
AM_0
 10
112.5760040222921
 20
100.5446975958785
 30
0.0
 40
0.49254802
 50
179.12656000000169
 51
270.8734499999884
  0
LINE
  5
8E75
  8
AM_0
 10
112.0835140222934
 20
110.5521975958784
 30
0.0
 11
112.0835140222934
 21
100.5522075958786
 31
0.0
  0
LINE
  5
8E76
  8
AM_0
 10
117.00349402229349
 20
116.4521875958785
 30
0.0
 11
117.00349402229349
 21
118.5471875958785
 31
0.0
  0
ARC
  5
8E77
  8
AM_0
 10
116.0840040222933
 20
115.0517075958785
 30
0.0
 40
3.5005001999999981
 50
90.008164999989489
 51
179.99183999999781
  0
LINE
  5
8E78
  8
AM_0
 10
199.0835140222934
 20
88.052207595878656
 30
0.0
 11
197.0835140222934
 21
88.052207595878656
 31
0.0
  0
LINE
  5
8E79
  8
AM_0
 10
197.08351402229249
 20
77.052207595878656
 30
0.0
 11
199.0835140222934
 21
77.052207595878656
 31
0.0
  0
LINE
  5
8E7A
  8
AM_0
 10
199.0835140222934
 20
77.052207595878656
 30
0.0
 11
199.0835140222934
 21
88.052207595878656
 31
0.0
  0
ARC
  5
8E7B
  8
AM_0
 10
199.08351402229249
 20
105.0522075958786
 30
0.0
 40
2.0
 50
90.0
 51
180.0
  0
CIRCLE
  5
8E7C
  8
AM_0
 10
196.08351402229249
 20
113.5522075958784
 30
0.0
 40
3.4999999999999631
  0
LINE
  5
8E7D
  8
AM_0
 10
185.1237160476492
 20
116.0421570895396
 30
0.0
 11
194.5734635159541
 21
106.59240962123479
 31
0.0
  0
LINE
  5
8E7E
  8
AM_0
 10
192.98351402229341
 20
108.18235911489479
 30
0.0
 11
194.5734635159541
 21
106.5924096212344
 31
0.0
  0
ARC
  5
8E7F
  8
AM_0
 10
193.58351402229249
 20
105.6024601275726
 30
0.0
 40
1.400000000000118
 50
0.0
 51
45.000000000027619
  0
ARC
  5
8E80
  8
AM_0
 10
184.13376655398719
 20
115.0522075958786
 30
0.0
 40
1.40000000000077
 50
44.999999999981569
 51
89.999999999947889
  0
LINE
  5
8E81
  8
AM_0
 10
201.5835140222934
 20
109.0522075958786
 30
0.0
 11
201.5835140222934
 21
116.5522075958786
 31
0.0
  0
LINE
  5
8E82
  8
AM_0
 10
201.5835140222934
 20
109.0522075958786
 30
0.0
 11
201.5835140222934
 21
116.5522075958786
 31
0.0
  0
ARC
  5
8E83
  8
AM_0
 10
199.5835140222911
 20
109.0522075958786
 30
0.0
 40
2.0
 50
270.0
 51
0.0
  0
LINE
  5
8E84
  8
AM_0
 10
199.08351402229249
 20
107.0522075958786
 30
0.0
 11
199.5835140222911
 21
107.0522075958786
 31
0.0
  0
ARC
  5
8E85
  8
AM_0
 10
199.5835140222911
 20
116.5522075958786
 30
0.0
 40
2.0
 50
0.0
 51
90.0
  0
LINE
  5
8E86
  8
AM_0
 10
193.444942341086
 20
113.55220759587939
 30
0.0
 11
198.7220857034994
 21
113.55220759587939
 31
0.0
  0
LINE
  5
8E87
  8
AM_0
 10
196.08351402229249
 20
116.1907792770852
 30
0.0
 11
196.08351402229249
 21
110.9136359146719
 31
0.0
  0
CIRCLE
  5
8E88
  8
AM_0
 10
196.08351402229249
 20
51.552207595878528
 30
0.0
 40
3.4999999999999631
  0
LINE
  5
8E89
  8
AM_0
 10
193.444942341086
 20
51.552207595879722
 30
0.0
 11
198.7220857034994
 21
51.552207595879509
 31
0.0
  0
LINE
  5
8E8A
  8
AM_0
 10
196.08351402229249
 20
54.190779277085198
 30
0.0
 11
196.08351402229249
 21
48.913635914671929
 31
0.0
  0
LINE
  5
8E8C
  8
AM_0
 10
20.083524022290469
 20
58.578035949954419
 30
0.0
 11
20.083524022290469
 21
139.55220159587861
 31
0.0
  0
LINE
  5
8EC2
  8
AM_0
 10
453.79013120007471
 20
77.145998772611634
 30
0.0
 11
440.78022720007431
 21
77.145998772611634
 31
0.0
  0
LINE
  5
8EC3
  8
AM_0
 10
440.78022720007431
 20
88.145998772611662
 30
0.0
 11
453.79013120007471
 21
88.145998772611662
 31
0.0
  0
LINE
  5
8EC4
  8
AM_0
 10
453.79013120007409
 20
118.64599877261
 30
0.0
 11
428.28022720007431
 21
118.64599877261
 31
0.0
  0
LINE
  5
8EC5
  8
AM_0
 10
428.28022720007431
 20
46.645998772609907
 30
0.0
 11
455.14781822232271
 21
46.645998772610028
 31
0.0
  0
LINE
  5
8EC6
  8
AM_0
 10
440.78022720007431
 20
46.645998772609907
 30
0.0
 11
440.78022720007431
 21
118.64599877261
 31
0.0
  0
LINE
  5
8EC7
  8
AM_0
 10
440.78022720007431
 20
107.7259987726115
 30
0.0
 11
439.31522720007388
 21
116.54599877261199
 31
0.0
  0
ARC
  5
8EC8
  8
AM_0
 10
430.28022720007408
 20
114.0459987726119
 30
0.0
 40
2.5
 50
90.0
 51
180.0
  0
ARC
  5
8EC9
  8
AM_0
 10
428.28022720007431
 20
118.14599877261161
 30
0.0
 40
0.5
 50
90.0
 51
180.0
  0
LINE
  5
8ECA
  8
AM_0
 10
439.31522720007388
 20
116.54599877261199
 30
0.0
 11
430.28022720007408
 21
116.54599877261199
 31
0.0
  0
POLYLINE
  5
8ECB
  8
AM_0
 66
     1
 10
0.0
 20
0.0
 30
0.0
 70
     8
  0
VERTEX
  5
8ECC
  8
AM_0
 10
430.28018013500122
 20
106.2764135756546
 30
0.0
 70
    32
  0
VERTEX
  5
8ECD
  8
AM_0
 10
430.27618013499989
 20
106.2764135756546
 30
0.0
 70
    32
  0
VERTEX
  5
8ECE
  8
AM_0
 10
430.27218013499908
 20
106.2764135756546
 30
0.0
 70
    32
  0
VERTEX
  5
8ECF
  8
AM_0
 10
430.26718013499988
 20
106.2764135756546
 30
0.0
 70
    32
  0
VERTEX
  5
8ED0
  8
AM_0
 10
430.26318013499912
 20
106.2764135756546
 30
0.0
 70
    32
  0
VERTEX
  5
8ED1
  8
AM_0
 10
430.25918013499768
 20
106.2764135756546
 30
0.0
 70
    32
  0
VERTEX
  5
8ED2
  8
AM_0
 10
430.25418013500013
 20
106.2764135756546
 30
0.0
 70
    32
  0
VERTEX
  5
8ED3
  8
AM_0
 10
430.25018013499908
 20
106.2754135756545
 30
0.0
 70
    32
  0
VERTEX
  5
8ED4
  8
AM_0
 10
430.24618013499918
 20
106.2754135756545
 30
0.0
 70
    32
  0
VERTEX
  5
8ED5
  8
AM_0
 10
430.24218013499978
 20
106.2754135756545
 30
0.0
 70
    32
  0
VERTEX
  5
8ED6
  8
AM_0
 10
430.23718013499922
 20
106.2754135756545
 30
0.0
 70
    32
  0
VERTEX
  5
8ED7
  8
AM_0
 10
430.23318013499988
 20
106.2754135756545
 30
0.0
 70
    32
  0
VERTEX
  5
8ED8
  8
AM_0
 10
430.22918013499998
 20
106.2754135756545
 30
0.0
 70
    32
  0
VERTEX
  5
8ED9
  8
AM_0
 10
430.22518013500002
 20
106.2754135756545
 30
0.0
 70
    32
  0
VERTEX
  5
8EDA
  8
AM_0
 10
430.22018013499979
 20
106.2754135756545
 30
0.0
 70
    32
  0
VERTEX
  5
8EDB
  8
AM_0
 10
430.216180135
 20
106.2754135756545
 30
0.0
 70
    32
  0
VERTEX
  5
8EDC
  8
AM_0
 10
430.21218013499919
 20
106.2754135756545
 30
0.0
 70
    32
  0
VERTEX
  5
8EDD
  8
AM_0
 10
430.20718013499999
 20
106.2754135756545
 30
0.0
 70
    32
  0
VERTEX
  5
8EDE
  8
AM_0
 10
430.20318013499963
 20
106.2754135756545
 30
0.0
 70
    32
  0
VERTEX
  5
8EDF
  8
AM_0
 10
430.1991801349991
 20
106.2754135756545
 30
0.0
 70
    32
  0
VERTEX
  5
8EE0
  8
AM_0
 10
430.19518013499982
 20
106.2754135756545
 30
0.0
 70
    32
  0
VERTEX
  5
8EE1
  8
AM_0
 10
430.1901801349992
 20
106.2754135756545
 30
0.0
 70
    32
  0
VERTEX
  5
8EE2
  8
AM_0
 10
430.1861801349998
 20
106.2754135756545
 30
0.0
 70
    32
  0
VERTEX
  5
8EE3
  8
AM_0
 10
430.18218013500001
 20
106.2754135756545
 30
0.0
 70
    32
  0
VERTEX
  5
8EE4
  8
AM_0
 10
430.17818013499988
 20
106.2754135756545
 30
0.0
 70
    32
  0
VERTEX
  5
8EE5
  8
AM_0
 10
430.17318013499988
 20
106.27441357565461
 30
0.0
 70
    32
  0
VERTEX
  5
8EE6
  8
AM_0
 10
430.16918013499992
 20
106.27441357565461
 30
0.0
 70
    32
  0
VERTEX
  5
8EE7
  8
AM_0
 10
430.16518013499962
 20
106.27441357565461
 30
0.0
 70
    32
  0
VERTEX
  5
8EE8
  8
AM_0
 10
430.16118013499909
 20
106.27441357565461
 30
0.0
 70
    32
  0
VERTEX
  5
8EE9
  8
AM_0
 10
430.15618013499909
 20
106.27441357565461
 30
0.0
 70
    32
  0
VERTEX
  5
8EEA
  8
AM_0
 10
430.15218013499913
 20
106.27441357565461
 30
0.0
 70
    32
  0
VERTEX
  5
8EEB
  8
AM_0
 10
430.14818013499968
 20
106.27441357565461
 30
0.0
 70
    32
  0
VERTEX
  5
8EEC
  8
AM_0
 10
430.14318013499968
 20
106.27441357565461
 30
0.0
 70
    32
  0
VERTEX
  5
8EED
  8
AM_0
 10
430.13918013499938
 20
106.27441357565461
 30
0.0
 70
    32
  0
VERTEX
  5
8EEE
  8
AM_0
 10
430.13518013499993
 20
106.27441357565461
 30
0.0
 70
    32
  0
VERTEX
  5
8EEF
  8
AM_0
 10
430.13118013500002
 20
106.2734135756544
 30
0.0
 70
    32
  0
VERTEX
  5
8EF0
  8
AM_0
 10
430.12618013499991
 20
106.2734135756544
 30
0.0
 70
    32
  0
VERTEX
  5
8EF1
  8
AM_0
 10
430.12218013500001
 20
106.2734135756544
 30
0.0
 70
    32
  0
VERTEX
  5
8EF2
  8
AM_0
 10
430.11818013499908
 20
106.2734135756544
 30
0.0
 70
    32
  0
VERTEX
  5
8EF3
  8
AM_0
 10
430.11418013499969
 20
106.2734135756544
 30
0.0
 70
    32
  0
VERTEX
  5
8EF4
  8
AM_0
 10
430.10918013499918
 20
106.2734135756544
 30
0.0
 70
    32
  0
VERTEX
  5
8EF5
  8
AM_0
 10
430.10518013499973
 20
106.2734135756544
 30
0.0
 70
    32
  0
VERTEX
  5
8EF6
  8
AM_0
 10
430.1011801349992
 20
106.2724135756545
 30
0.0
 70
    32
  0
VERTEX
  5
8EF7
  8
AM_0
 10
430.09718013499992
 20
106.2724135756545
 30
0.0
 70
    32
  0
VERTEX
  5
8EF8
  8
AM_0
 10
430.09218013499981
 20
106.2724135756545
 30
0.0
 70
    32
  0
VERTEX
  5
8EF9
  8
AM_0
 10
430.08818013499979
 20
106.2724135756545
 30
0.0
 70
    32
  0
VERTEX
  5
8EFA
  8
AM_0
 10
430.08418013499988
 20
106.2724135756545
 30
0.0
 70
    32
  0
VERTEX
  5
8EFB
  8
AM_0
 10
430.07918013499989
 20
106.2724135756545
 30
0.0
 70
    32
  0
VERTEX
  5
8EFC
  8
AM_0
 10
430.07518013499993
 20
106.2724135756545
 30
0.0
 70
    32
  0
VERTEX
  5
8EFD
  8
AM_0
 10
430.07118013499911
 20
106.27141357565441
 30
0.0
 70
    32
  0
VERTEX
  5
8EFE
  8
AM_0
 10
430.06718013499972
 20
106.27141357565441
 30
0.0
 70
    32
  0
VERTEX
  5
8EFF
  8
AM_0
 10
430.06218013500012
 20
106.27141357565441
 30
0.0
 70
    32
  0
VERTEX
  5
8F00
  8
AM_0
 10
430.0581801349997
 20
106.27141357565441
 30
0.0
 70
    32
  0
VERTEX
  5
8F01
  8
AM_0
 10
430.05418013499963
 20
106.27141357565441
 30
0.0
 70
    32
  0
VERTEX
  5
8F02
  8
AM_0
 10
430.05018013499989
 20
106.2704135756546
 30
0.0
 70
    32
  0
VERTEX
  5
8F03
  8
AM_0
 10
430.04518013499961
 20
106.2704135756546
 30
0.0
 70
    32
  0
VERTEX
  5
8F04
  8
AM_0
 10
430.04118013499988
 20
106.2704135756546
 30
0.0
 70
    32
  0
VERTEX
  5
8F05
  8
AM_0
 10
430.0371801349998
 20
106.2704135756546
 30
0.0
 70
    32
  0
VERTEX
  5
8F06
  8
AM_0
 10
430.03318013500001
 20
106.2704135756546
 30
0.0
 70
    32
  0
VERTEX
  5
8F07
  8
AM_0
 10
430.02818013499979
 20
106.2704135756546
 30
0.0
 70
    32
  0
VERTEX
  5
8F08
  8
AM_0
 10
430.02418013499999
 20
106.2694135756548
 30
0.0
 70
    32
  0
VERTEX
  5
8F09
  8
AM_0
 10
430.02018013499969
 20
106.2694135756548
 30
0.0
 70
    32
  0
VERTEX
  5
8F0A
  8
AM_0
 10
430.01618013499979
 20
106.2694135756548
 30
0.0
 70
    32
  0
VERTEX
  5
8F0B
  8
AM_0
 10
430.01118013499911
 20
106.2694135756548
 30
0.0
 70
    32
  0
VERTEX
  5
8F0C
  8
AM_0
 10
430.00718013499971
 20
106.26841357565461
 30
0.0
 70
    32
  0
VERTEX
  5
8F0D
  8
AM_0
 10
430.00318013499981
 20
106.26841357565461
 30
0.0
 70
    32
  0
VERTEX
  5
8F0E
  8
AM_0
 10
429.99818013499959
 20
106.26841357565461
 30
0.0
 70
    32
  0
VERTEX
  5
8F0F
  8
AM_0
 10
429.99418013499979
 20
106.26841357565461
 30
0.0
 70
    32
  0
VERTEX
  5
8F10
  8
AM_0
 10
429.99018013499989
 20
106.26841357565461
 30
0.0
 70
    32
  0
VERTEX
  5
8F11
  8
AM_0
 10
429.98618013499822
 20
106.2674135756547
 30
0.0
 70
    32
  0
VERTEX
  5
8F12
  8
AM_0
 10
429.98118013499987
 20
106.2674135756547
 30
0.0
 70
    32
  0
VERTEX
  5
8F13
  8
AM_0
 10
429.97718013499912
 20
106.2674135756547
 30
0.0
 70
    32
  0
VERTEX
  5
8F14
  8
AM_0
 10
429.9731801349991
 20
106.2674135756547
 30
0.0
 70
    32
  0
VERTEX
  5
8F15
  8
AM_0
 10
429.96918013499982
 20
106.2664135756546
 30
0.0
 70
    32
  0
VERTEX
  5
8F16
  8
AM_0
 10
429.96418013499908
 20
106.2664135756546
 30
0.0
 70
    32
  0
VERTEX
  5
8F17
  8
AM_0
 10
429.96018013499969
 20
106.2664135756546
 30
0.0
 70
    32
  0
VERTEX
  5
8F18
  8
AM_0
 10
429.95618013499973
 20
106.2654135756547
 30
0.0
 70
    32
  0
VERTEX
  5
8F19
  8
AM_0
 10
429.95218013499988
 20
106.2654135756547
 30
0.0
 70
    32
  0
VERTEX
  5
8F1A
  8
AM_0
 10
429.94718013499983
 20
106.2654135756547
 30
0.0
 70
    32
  0
VERTEX
  5
8F1B
  8
AM_0
 10
429.94318013499992
 20
106.2654135756547
 30
0.0
 70
    32
  0
VERTEX
  5
8F1C
  8
AM_0
 10
429.93918013499888
 20
106.2644135756545
 30
0.0
 70
    32
  0
VERTEX
  5
8F1D
  8
AM_0
 10
429.93518013499909
 20
106.2644135756545
 30
0.0
 70
    32
  0
VERTEX
  5
8F1E
  8
AM_0
 10
429.930180135
 20
106.2644135756545
 30
0.0
 70
    32
  0
VERTEX
  5
8F1F
  8
AM_0
 10
429.92618013499919
 20
106.2644135756545
 30
0.0
 70
    32
  0
VERTEX
  5
8F20
  8
AM_0
 10
429.92218013499968
 20
106.2634135756545
 30
0.0
 70
    32
  0
VERTEX
  5
8F21
  8
AM_0
 10
429.91818013499972
 20
106.2634135756545
 30
0.0
 70
    32
  0
VERTEX
  5
8F22
  8
AM_0
 10
429.91318013499972
 20
106.2634135756545
 30
0.0
 70
    32
  0
VERTEX
  5
8F23
  8
AM_0
 10
429.90918013499981
 20
106.26241357565451
 30
0.0
 70
    32
  0
VERTEX
  5
8F24
  8
AM_0
 10
429.90518013499928
 20
106.26241357565451
 30
0.0
 70
    32
  0
VERTEX
  5
8F25
  8
AM_0
 10
429.9001801349998
 20
106.26241357565451
 30
0.0
 70
    32
  0
VERTEX
  5
8F26
  8
AM_0
 10
429.89618013499933
 20
106.2614135756546
 30
0.0
 70
    32
  0
VERTEX
  5
8F27
  8
AM_0
 10
429.89218013499988
 20
106.2614135756546
 30
0.0
 70
    32
  0
VERTEX
  5
8F28
  8
AM_0
 10
429.88818013499912
 20
106.2614135756546
 30
0.0
 70
    32
  0
VERTEX
  5
8F29
  8
AM_0
 10
429.88318013499901
 20
106.26041357565479
 30
0.0
 70
    32
  0
VERTEX
  5
8F2A
  8
AM_0
 10
429.87918013500013
 20
106.26041357565479
 30
0.0
 70
    32
  0
VERTEX
  5
8F2B
  8
AM_0
 10
429.87518013499971
 20
106.26041357565479
 30
0.0
 70
    32
  0
VERTEX
  5
8F2C
  8
AM_0
 10
429.87118013499958
 20
106.25941357565461
 30
0.0
 70
    32
  0
VERTEX
  5
8F2D
  8
AM_0
 10
429.86618013499913
 20
106.25941357565461
 30
0.0
 70
    32
  0
VERTEX
  5
8F2E
  8
AM_0
 10
429.86218013499962
 20
106.25941357565461
 30
0.0
 70
    32
  0
VERTEX
  5
8F2F
  8
AM_0
 10
429.85818013499932
 20
106.2584135756546
 30
0.0
 70
    32
  0
VERTEX
  5
8F30
  8
AM_0
 10
429.85418013499981
 20
106.2584135756546
 30
0.0
 70
    32
  0
VERTEX
  5
8F31
  8
AM_0
 10
429.84918013499941
 20
106.2584135756546
 30
0.0
 70
    32
  0
VERTEX
  5
8F32
  8
AM_0
 10
429.84518013499888
 20
106.2574135756546
 30
0.0
 70
    32
  0
VERTEX
  5
8F33
  8
AM_0
 10
429.841180135
 20
106.2574135756546
 30
0.0
 70
    32
  0
VERTEX
  5
8F34
  8
AM_0
 10
429.8371801349997
 20
106.2564135756548
 30
0.0
 70
    32
  0
VERTEX
  5
8F35
  8
AM_0
 10
429.83218013499999
 20
106.2564135756548
 30
0.0
 70
    32
  0
VERTEX
  5
8F36
  8
AM_0
 10
429.82818013499912
 20
106.2564135756548
 30
0.0
 70
    32
  0
VERTEX
  5
8F37
  8
AM_0
 10
429.82418013499921
 20
106.2554135756545
 30
0.0
 70
    32
  0
VERTEX
  5
8F38
  8
AM_0
 10
429.82018013499942
 20
106.2554135756545
 30
0.0
 70
    32
  0
VERTEX
  5
8F39
  8
AM_0
 10
429.8151801349992
 20
106.2544135756545
 30
0.0
 70
    32
  0
VERTEX
  5
8F3A
  8
AM_0
 10
429.81118013499918
 20
106.2544135756545
 30
0.0
 70
    32
  0
VERTEX
  5
8F3B
  8
AM_0
 10
429.80718013499887
 20
106.2544135756545
 30
0.0
 70
    32
  0
VERTEX
  5
8F3C
  8
AM_0
 10
429.80318013499988
 20
106.25341357565451
 30
0.0
 70
    32
  0
VERTEX
  5
8F3D
  8
AM_0
 10
429.79818013499892
 20
106.25341357565451
 30
0.0
 70
    32
  0
VERTEX
  5
8F3E
  8
AM_0
 10
429.79418013499992
 20
106.2524135756546
 30
0.0
 70
    32
  0
VERTEX
  5
8F3F
  8
AM_0
 10
429.79018013499962
 20
106.2524135756546
 30
0.0
 70
    32
  0
VERTEX
  5
8F40
  8
AM_0
 10
429.7861801349992
 20
106.25141357565479
 30
0.0
 70
    32
  0
VERTEX
  5
8F41
  8
AM_0
 10
429.7811801349996
 20
106.25141357565479
 30
0.0
 70
    32
  0
VERTEX
  5
8F42
  8
AM_0
 10
429.7771801349993
 20
106.25141357565479
 30
0.0
 70
    32
  0
VERTEX
  5
8F43
  8
AM_0
 10
429.77318013499939
 20
106.2504135756546
 30
0.0
 70
    32
  0
VERTEX
  5
8F44
  8
AM_0
 10
429.76918013499892
 20
106.2504135756546
 30
0.0
 70
    32
  0
VERTEX
  5
8F45
  8
AM_0
 10
429.76418013499932
 20
106.2494135756544
 30
0.0
 70
    32
  0
VERTEX
  5
8F46
  8
AM_0
 10
429.76018013499908
 20
106.2494135756544
 30
0.0
 70
    32
  0
VERTEX
  5
8F47
  8
AM_0
 10
429.75618013500002
 20
106.2484135756546
 30
0.0
 70
    32
  0
VERTEX
  5
8F48
  8
AM_0
 10
429.75218013499909
 20
106.2484135756546
 30
0.0
 70
    32
  0
VERTEX
  5
8F49
  8
AM_0
 10
429.74818013499919
 20
106.2474135756546
 30
0.0
 70
    32
  0
VERTEX
  5
8F4A
  8
AM_0
 10
429.74318013499908
 20
106.2474135756546
 30
0.0
 70
    32
  0
VERTEX
  5
8F4B
  8
AM_0
 10
429.73918013499912
 20
106.2464135756545
 30
0.0
 70
    32
  0
VERTEX
  5
8F4C
  8
AM_0
 10
429.73518013499938
 20
106.2464135756545
 30
0.0
 70
    32
  0
VERTEX
  5
8F4D
  8
AM_0
 10
429.73118013499902
 20
106.2454135756545
 30
0.0
 70
    32
  0
VERTEX
  5
8F4E
  8
AM_0
 10
429.72618013499942
 20
106.2454135756545
 30
0.0
 70
    32
  0
VERTEX
  5
8F4F
  8
AM_0
 10
429.72218013499929
 20
106.24441357565451
 30
0.0
 70
    32
  0
VERTEX
  5
8F50
  8
AM_0
 10
429.71818013499978
 20
106.24441357565451
 30
0.0
 70
    32
  0
VERTEX
  5
8F51
  8
AM_0
 10
429.71418013499908
 20
106.2434135756546
 30
0.0
 70
    32
  0
VERTEX
  5
8F52
  8
AM_0
 10
429.70918013499988
 20
106.2434135756546
 30
0.0
 70
    32
  0
VERTEX
  5
8F53
  8
AM_0
 10
429.705180135001
 20
106.24241357565479
 30
0.0
 70
    32
  0
VERTEX
  5
8F54
  8
AM_0
 10
429.70118013499922
 20
106.24241357565479
 30
0.0
 70
    32
  0
VERTEX
  5
8F55
  8
AM_0
 10
429.6971801349992
 20
106.2414135756546
 30
0.0
 70
    32
  0
VERTEX
  5
8F56
  8
AM_0
 10
429.69218013499909
 20
106.2414135756546
 30
0.0
 70
    32
  0
VERTEX
  5
8F57
  8
AM_0
 10
429.6881801349993
 20
106.2404135756546
 30
0.0
 70
    32
  0
VERTEX
  5
8F58
  8
AM_0
 10
429.68418013499939
 20
106.2404135756546
 30
0.0
 70
    32
  0
VERTEX
  5
8F59
  8
AM_0
 10
429.680180135
 20
106.23941357565459
 30
0.0
 70
    32
  0
VERTEX
  5
8F5A
  8
AM_0
 10
429.67518013499932
 20
106.23941357565459
 30
0.0
 70
    32
  0
VERTEX
  5
8F5B
  8
AM_0
 10
429.67118013499982
 20
106.2384135756546
 30
0.0
 70
    32
  0
VERTEX
  5
8F5C
  8
AM_0
 10
429.66718013499911
 20
106.2384135756546
 30
0.0
 70
    32
  0
VERTEX
  5
8F5D
  8
AM_0
 10
429.66318013499921
 20
106.2374135756545
 30
0.0
 70
    32
  0
VERTEX
  5
8F5E
  8
AM_0
 10
429.65918013499919
 20
106.2374135756545
 30
0.0
 70
    32
  0
VERTEX
  5
8F5F
  8
AM_0
 10
429.65418013499908
 20
106.23641357565479
 30
0.0
 70
    32
  0
VERTEX
  5
8F60
  8
AM_0
 10
429.65018013499918
 20
106.23541357565441
 30
0.0
 70
    32
  0
VERTEX
  5
8F61
  8
AM_0
 10
429.64618013499938
 20
106.23541357565441
 30
0.0
 70
    32
  0
VERTEX
  5
8F62
  8
AM_0
 10
429.64218013499999
 20
106.2344135756546
 30
0.0
 70
    32
  0
VERTEX
  5
8F63
  8
AM_0
 10
429.63718013499943
 20
106.2344135756546
 30
0.0
 70
    32
  0
VERTEX
  5
8F64
  8
AM_0
 10
429.63318013499998
 20
106.23341357565459
 30
0.0
 70
    32
  0
VERTEX
  5
8F65
  8
AM_0
 10
429.62918013500081
 20
106.23341357565459
 30
0.0
 70
    32
  0
VERTEX
  5
8F66
  8
AM_0
 10
429.62518013499908
 20
106.2324135756546
 30
0.0
 70
    32
  0
VERTEX
  5
8F67
  8
AM_0
 10
429.62018013500079
 20
106.2314135756545
 30
0.0
 70
    32
  0
VERTEX
  5
8F68
  8
AM_0
 10
429.616180135001
 20
106.2314135756545
 30
0.0
 70
    32
  0
VERTEX
  5
8F69
  8
AM_0
 10
429.61218013499979
 20
106.2304135756545
 30
0.0
 70
    32
  0
VERTEX
  5
8F6A
  8
AM_0
 10
429.60818013499932
 20
106.2304135756545
 30
0.0
 70
    32
  0
VERTEX
  5
8F6B
  8
AM_0
 10
429.60418013499992
 20
106.2294135756548
 30
0.0
 70
    32
  0
VERTEX
  5
8F6C
  8
AM_0
 10
429.59918013499941
 20
106.2284135756548
 30
0.0
 70
    32
  0
VERTEX
  5
8F6D
  8
AM_0
 10
429.59518013499991
 20
106.2284135756548
 30
0.0
 70
    32
  0
VERTEX
  5
8F6E
  8
AM_0
 10
429.59118013499989
 20
106.22741357565459
 30
0.0
 70
    32
  0
VERTEX
  5
8F6F
  8
AM_0
 10
429.58718013499907
 20
106.22741357565459
 30
0.0
 70
    32
  0
VERTEX
  5
8F70
  8
AM_0
 10
429.58218013499987
 20
106.22641357565441
 30
0.0
 70
    32
  0
VERTEX
  5
8F71
  8
AM_0
 10
429.57818013499912
 20
106.2254135756546
 30
0.0
 70
    32
  0
VERTEX
  5
8F72
  8
AM_0
 10
429.57418013499972
 20
106.2254135756546
 30
0.0
 70
    32
  0
VERTEX
  5
8F73
  8
AM_0
 10
429.5701801349993
 20
106.22441357565479
 30
0.0
 70
    32
  0
VERTEX
  5
8F74
  8
AM_0
 10
429.56618013499991
 20
106.2234135756546
 30
0.0
 70
    32
  0
VERTEX
  5
8F75
  8
AM_0
 10
429.5611801349994
 20
106.2234135756546
 30
0.0
 70
    32
  0
VERTEX
  5
8F76
  8
AM_0
 10
429.55718013499978
 20
106.2224135756545
 30
0.0
 70
    32
  0
VERTEX
  5
8F77
  8
AM_0
 10
429.55318013500079
 20
106.2224135756545
 30
0.0
 70
    32
  0
VERTEX
  5
8F78
  8
AM_0
 10
429.54918013499912
 20
106.22141357565459
 30
0.0
 70
    32
  0
VERTEX
  5
8F79
  8
AM_0
 10
429.54418013500072
 20
106.2204135756546
 30
0.0
 70
    32
  0
VERTEX
  5
8F7A
  8
AM_0
 10
429.5401801349991
 20
106.2204135756546
 30
0.0
 70
    32
  0
VERTEX
  5
8F7B
  8
AM_0
 10
429.5361801349996
 20
106.2194135756548
 30
0.0
 70
    32
  0
VERTEX
  5
8F7C
  8
AM_0
 10
429.53218013499918
 20
106.21841357565459
 30
0.0
 70
    32
  0
VERTEX
  5
8F7D
  8
AM_0
 10
429.52818013499979
 20
106.21841357565459
 30
0.0
 70
    32
  0
VERTEX
  5
8F7E
  8
AM_0
 10
429.52318013499911
 20
106.2174135756545
 30
0.0
 70
    32
  0
VERTEX
  5
8F7F
  8
AM_0
 10
429.51918013499989
 20
106.2164135756545
 30
0.0
 70
    32
  0
VERTEX
  5
8F80
  8
AM_0
 10
429.51518013499998
 20
106.2164135756545
 30
0.0
 70
    32
  0
VERTEX
  5
8F81
  8
AM_0
 10
429.51118013499922
 20
106.21541357565491
 30
0.0
 70
    32
  0
VERTEX
  5
8F82
  8
AM_0
 10
429.50618013500002
 20
106.2144135756546
 30
0.0
 70
    32
  0
VERTEX
  5
8F83
  8
AM_0
 10
429.50218013499909
 20
106.2144135756546
 30
0.0
 70
    32
  0
VERTEX
  5
8F84
  8
AM_0
 10
429.49818013499959
 20
106.2134135756545
 30
0.0
 70
    32
  0
VERTEX
  5
8F85
  8
AM_0
 10
429.4941801349994
 20
106.21241357565449
 30
0.0
 70
    32
  0
VERTEX
  5
8F86
  8
AM_0
 10
429.49018013499989
 20
106.2114135756546
 30
0.0
 70
    32
  0
VERTEX
  5
8F87
  8
AM_0
 10
429.48518013499978
 20
106.2114135756546
 30
0.0
 70
    32
  0
VERTEX
  5
8F88
  8
AM_0
 10
429.48118013499987
 20
106.2104135756547
 30
0.0
 70
    32
  0
VERTEX
  5
8F89
  8
AM_0
 10
429.47718013500003
 20
106.20941357565459
 30
0.0
 70
    32
  0
VERTEX
  5
8F8A
  8
AM_0
 10
429.4731801349991
 20
106.20941357565459
 30
0.0
 70
    32
  0
VERTEX
  5
8F8B
  8
AM_0
 10
429.46918013499908
 20
106.2084135756544
 30
0.0
 70
    32
  0
VERTEX
  5
8F8C
  8
AM_0
 10
429.46418013499772
 20
106.2074135756545
 30
0.0
 70
    32
  0
VERTEX
  5
8F8D
  8
AM_0
 10
429.46018013499969
 20
106.20641357565459
 30
0.0
 70
    32
  0
VERTEX
  5
8F8E
  8
AM_0
 10
429.45618013499939
 20
106.20641357565459
 30
0.0
 70
    32
  0
VERTEX
  5
8F8F
  8
AM_0
 10
429.45218013499988
 20
106.2054135756546
 30
0.0
 70
    32
  0
VERTEX
  5
8F90
  8
AM_0
 10
429.44818013499992
 20
106.2044135756545
 30
0.0
 70
    32
  0
VERTEX
  5
8F91
  8
AM_0
 10
429.44318013499992
 20
106.20341357565449
 30
0.0
 70
    32
  0
VERTEX
  5
8F92
  8
AM_0
 10
429.43918013500002
 20
106.20341357565449
 30
0.0
 70
    32
  0
VERTEX
  5
8F93
  8
AM_0
 10
429.43518013499909
 20
106.2024135756546
 30
0.0
 70
    32
  0
VERTEX
  5
8F94
  8
AM_0
 10
429.43118013499969
 20
106.2014135756548
 30
0.0
 70
    32
  0
VERTEX
  5
8F95
  8
AM_0
 10
429.42718013499911
 20
106.20041357565481
 30
0.0
 70
    32
  0
VERTEX
  5
8F96
  8
AM_0
 10
429.42218013499968
 20
106.20041357565481
 30
0.0
 70
    32
  0
VERTEX
  5
8F97
  8
AM_0
 10
429.4181801349992
 20
106.1994135756546
 30
0.0
 70
    32
  0
VERTEX
  5
8F98
  8
AM_0
 10
429.41418013499992
 20
106.1984135756546
 30
0.0
 70
    32
  0
VERTEX
  5
8F99
  8
AM_0
 10
429.41018013500002
 20
106.19741357565459
 30
0.0
 70
    32
  0
VERTEX
  5
8F9A
  8
AM_0
 10
429.40618013499909
 20
106.19741357565459
 30
0.0
 70
    32
  0
VERTEX
  5
8F9B
  8
AM_0
 10
429.40118013499989
 20
106.1964135756546
 30
0.0
 70
    32
  0
VERTEX
  5
8F9C
  8
AM_0
 10
429.39718013499908
 20
106.1954135756545
 30
0.0
 70
    32
  0
VERTEX
  5
8F9D
  8
AM_0
 10
429.39318013499962
 20
106.19441357565439
 30
0.0
 70
    32
  0
VERTEX
  5
8F9E
  8
AM_0
 10
429.38918013499921
 20
106.1934135756546
 30
0.0
 70
    32
  0
VERTEX
  5
8F9F
  8
AM_0
 10
429.38518013499993
 20
106.1934135756546
 30
0.0
 70
    32
  0
VERTEX
  5
8FA0
  8
AM_0
 10
429.38018013499919
 20
106.1924135756546
 30
0.0
 70
    32
  0
VERTEX
  5
8FA1
  8
AM_0
 10
429.37618013499991
 20
106.19141357565459
 30
0.0
 70
    32
  0
VERTEX
  5
8FA2
  8
AM_0
 10
429.37218013500001
 20
106.1904135756546
 30
0.0
 70
    32
  0
VERTEX
  5
8FA3
  8
AM_0
 10
429.36818013499908
 20
106.1894135756546
 30
0.0
 70
    32
  0
VERTEX
  5
8FA4
  8
AM_0
 10
429.36418013499912
 20
106.1894135756546
 30
0.0
 70
    32
  0
VERTEX
  5
8FA5
  8
AM_0
 10
429.35918013499912
 20
106.18841357565459
 30
0.0
 70
    32
  0
VERTEX
  5
8FA6
  8
AM_0
 10
429.35518013499961
 20
106.1874135756546
 30
0.0
 70
    32
  0
VERTEX
  5
8FA7
  8
AM_0
 10
429.3511801349992
 20
106.1864135756545
 30
0.0
 70
    32
  0
VERTEX
  5
8FA8
  8
AM_0
 10
429.34718013499992
 20
106.18541357565459
 30
0.0
 70
    32
  0
VERTEX
  5
8FA9
  8
AM_0
 10
429.34318013500001
 20
106.1844135756546
 30
0.0
 70
    32
  0
VERTEX
  5
8FAA
  8
AM_0
 10
429.33918013499948
 20
106.1844135756546
 30
0.0
 70
    32
  0
VERTEX
  5
8FAB
  8
AM_0
 10
429.334180135
 20
106.1834135756548
 30
0.0
 70
    32
  0
VERTEX
  5
8FAC
  8
AM_0
 10
429.33018013499918
 20
106.18241357565461
 30
0.0
 70
    32
  0
VERTEX
  5
8FAD
  8
AM_0
 10
429.32618013499911
 20
106.1814135756545
 30
0.0
 70
    32
  0
VERTEX
  5
8FAE
  8
AM_0
 10
429.32218013499983
 20
106.1804135756546
 30
0.0
 70
    32
  0
VERTEX
  5
8FAF
  8
AM_0
 10
429.31818013499992
 20
106.17941357565461
 30
0.0
 70
    32
  0
VERTEX
  5
8FB0
  8
AM_0
 10
429.3131801349993
 20
106.1784135756546
 30
0.0
 70
    32
  0
VERTEX
  5
8FB1
  8
AM_0
 10
429.30918013499991
 20
106.1784135756546
 30
0.0
 70
    32
  0
VERTEX
  5
8FB2
  8
AM_0
 10
429.30518013499989
 20
106.1774135756544
 30
0.0
 70
    32
  0
VERTEX
  5
8FB3
  8
AM_0
 10
429.30118013499958
 20
106.17641357565449
 30
0.0
 70
    32
  0
VERTEX
  5
8FB4
  8
AM_0
 10
429.29718013499922
 20
106.1754135756546
 30
0.0
 70
    32
  0
VERTEX
  5
8FB5
  8
AM_0
 10
429.29318013499977
 20
106.1744135756546
 30
0.0
 70
    32
  0
VERTEX
  5
8FB6
  8
AM_0
 10
429.28818013499972
 20
106.17341357565461
 30
0.0
 70
    32
  0
VERTEX
  5
8FB7
  8
AM_0
 10
429.28418013499981
 20
106.1724135756545
 30
0.0
 70
    32
  0
VERTEX
  5
8FB8
  8
AM_0
 10
429.28018013499991
 20
106.1714135756546
 30
0.0
 70
    32
  0
VERTEX
  5
8FB9
  8
AM_0
 10
429.276180135
 20
106.17041357565461
 30
0.0
 70
    32
  0
VERTEX
  5
8FBA
  8
AM_0
 10
429.27218013499908
 20
106.17041357565461
 30
0.0
 70
    32
  0
VERTEX
  5
8FBB
  8
AM_0
 10
429.26818013499911
 20
106.1694135756549
 30
0.0
 70
    32
  0
VERTEX
  5
8FBC
  8
AM_0
 10
429.26318013499957
 20
106.1684135756544
 30
0.0
 70
    32
  0
VERTEX
  5
8FBD
  8
AM_0
 10
429.2591801349991
 20
106.16741357565451
 30
0.0
 70
    32
  0
VERTEX
  5
8FBE
  8
AM_0
 10
429.25518013499988
 20
106.1664135756546
 30
0.0
 70
    32
  0
VERTEX
  5
8FBF
  8
AM_0
 10
429.2511801349998
 20
106.1654135756546
 30
0.0
 70
    32
  0
VERTEX
  5
8FC0
  8
AM_0
 10
429.24718013500001
 20
106.16441357565461
 30
0.0
 70
    32
  0
VERTEX
  5
8FC1
  8
AM_0
 10
429.24318013499908
 20
106.1634135756546
 30
0.0
 70
    32
  0
VERTEX
  5
8FC2
  8
AM_0
 10
429.23818013499999
 20
106.1624135756545
 30
0.0
 70
    32
  0
VERTEX
  5
8FC3
  8
AM_0
 10
429.23418013499958
 20
106.16141357565461
 30
0.0
 70
    32
  0
VERTEX
  5
8FC4
  8
AM_0
 10
429.2301801349991
 20
106.1604135756549
 30
0.0
 70
    32
  0
VERTEX
  5
8FC5
  8
AM_0
 10
429.22618013499982
 20
106.1594135756545
 30
0.0
 70
    32
  0
VERTEX
  5
8FC6
  8
AM_0
 10
429.22218013499992
 20
106.15841357565439
 30
0.0
 70
    32
  0
VERTEX
  5
8FC7
  8
AM_0
 10
429.21818013499978
 20
106.1574135756546
 30
0.0
 70
    32
  0
VERTEX
  5
8FC8
  8
AM_0
 10
429.21318013499979
 20
106.1564135756546
 30
0.0
 70
    32
  0
VERTEX
  5
8FC9
  8
AM_0
 10
429.20918013499988
 20
106.15541357565461
 30
0.0
 70
    32
  0
VERTEX
  5
8FCA
  8
AM_0
 10
429.20518013499913
 20
106.1544135756545
 30
0.0
 70
    32
  0
VERTEX
  5
8FCB
  8
AM_0
 10
429.20118013499962
 20
106.1534135756545
 30
0.0
 70
    32
  0
VERTEX
  5
8FCC
  8
AM_0
 10
429.19718013499983
 20
106.1524135756548
 30
0.0
 70
    32
  0
VERTEX
  5
8FCD
  8
AM_0
 10
429.19318013499992
 20
106.151413575655
 30
0.0
 70
    32
  0
VERTEX
  5
8FCE
  8
AM_0
 10
429.18918013499911
 20
106.1504135756545
 30
0.0
 70
    32
  0
VERTEX
  5
8FCF
  8
AM_0
 10
429.18418013499991
 20
106.14941357565441
 30
0.0
 70
    32
  0
VERTEX
  5
8FD0
  8
AM_0
 10
429.180180135
 20
106.1484135756544
 30
0.0
 70
    32
  0
VERTEX
  5
8FD1
  8
AM_0
 10
429.17618013499907
 20
106.1474135756548
 30
0.0
 70
    32
  0
VERTEX
  5
8FD2
  8
AM_0
 10
429.17218013499962
 20
106.14641357565461
 30
0.0
 70
    32
  0
VERTEX
  5
8FD3
  8
AM_0
 10
429.16818013499972
 20
106.1454135756545
 30
0.0
 70
    32
  0
VERTEX
  5
8FD4
  8
AM_0
 10
429.16418013499992
 20
106.1444135756546
 30
0.0
 70
    32
  0
VERTEX
  5
8FD5
  8
AM_0
 10
429.15918013499987
 20
106.14341357565461
 30
0.0
 70
    32
  0
VERTEX
  5
8FD6
  8
AM_0
 10
429.1551801349998
 20
106.1424135756549
 30
0.0
 70
    32
  0
VERTEX
  5
8FD7
  8
AM_0
 10
429.15118013499892
 20
106.1414135756546
 30
0.0
 70
    32
  0
VERTEX
  5
8FD8
  8
AM_0
 10
429.14718013499908
 20
106.14041357565461
 30
0.0
 70
    32
  0
VERTEX
  5
8FD9
  8
AM_0
 10
429.14318013499968
 20
106.1394135756546
 30
0.0
 70
    32
  0
VERTEX
  5
8FDA
  8
AM_0
 10
429.13918013499972
 20
106.1384135756546
 30
0.0
 70
    32
  0
VERTEX
  5
8FDB
  8
AM_0
 10
429.13518013499902
 20
106.13741357565461
 30
0.0
 70
    32
  0
VERTEX
  5
8FDC
  8
AM_0
 10
429.13118013499923
 20
106.1364135756545
 30
0.0
 70
    32
  0
VERTEX
  5
8FDD
  8
AM_0
 10
429.12618013499929
 20
106.1354135756545
 30
0.0
 70
    32
  0
VERTEX
  5
8FDE
  8
AM_0
 10
429.12218013499893
 20
106.13441357565461
 30
0.0
 70
    32
  0
VERTEX
  5
8FDF
  8
AM_0
 10
429.11818013499959
 20
106.1334135756548
 30
0.0
 70
    32
  0
VERTEX
  5
8FE0
  8
AM_0
 10
429.11418013499957
 20
106.13141357565461
 30
0.0
 70
    32
  0
VERTEX
  5
8FE1
  8
AM_0
 10
429.11018013499978
 20
106.1304135756546
 30
0.0
 70
    32
  0
VERTEX
  5
8FE2
  8
AM_0
 10
429.10618013499811
 20
106.1294135756546
 30
0.0
 70
    32
  0
VERTEX
  5
8FE3
  8
AM_0
 10
429.10218013499912
 20
106.1284135756547
 30
0.0
 70
    32
  0
VERTEX
  5
8FE4
  8
AM_0
 10
429.09818013499961
 20
106.1274135756544
 30
0.0
 70
    32
  0
VERTEX
  5
8FE5
  8
AM_0
 10
429.0931801349991
 20
106.1264135756545
 30
0.0
 70
    32
  0
VERTEX
  5
8FE6
  8
AM_0
 10
429.08918013499959
 20
106.1254135756546
 30
0.0
 70
    32
  0
VERTEX
  5
8FE7
  8
AM_0
 10
429.08518013499958
 20
106.1244135756549
 30
0.0
 70
    32
  0
VERTEX
  5
8FE8
  8
AM_0
 10
429.08118013499939
 20
106.12341357565479
 30
0.0
 70
    32
  0
VERTEX
  5
8FE9
  8
AM_0
 10
429.07718013499812
 20
106.1214135756545
 30
0.0
 70
    32
  0
VERTEX
  5
8FEA
  8
AM_0
 10
429.07318013499992
 20
106.1204135756546
 30
0.0
 70
    32
  0
VERTEX
  5
8FEB
  8
AM_0
 10
429.0691801349995
 20
106.1194135756546
 30
0.0
 70
    32
  0
VERTEX
  5
8FEC
  8
AM_0
 10
429.06518013499971
 20
106.1184135756545
 30
0.0
 70
    32
  0
VERTEX
  5
8FED
  8
AM_0
 10
429.06018013499948
 20
106.1174135756544
 30
0.0
 70
    32
  0
VERTEX
  5
8FEE
  8
AM_0
 10
429.05618013499969
 20
106.1164135756546
 30
0.0
 70
    32
  0
VERTEX
  5
8FEF
  8
AM_0
 10
429.05218013499939
 20
106.1154135756548
 30
0.0
 70
    32
  0
VERTEX
  5
8FF0
  8
AM_0
 10
429.04818013499892
 20
106.1134135756546
 30
0.0
 70
    32
  0
VERTEX
  5
8FF1
  8
AM_0
 10
429.04418013499998
 20
106.1124135756545
 30
0.0
 70
    32
  0
VERTEX
  5
8FF2
  8
AM_0
 10
429.0401801349991
 20
106.11141357565479
 30
0.0
 70
    32
  0
VERTEX
  5
8FF3
  8
AM_0
 10
429.0361801349992
 20
106.1104135756546
 30
0.0
 70
    32
  0
VERTEX
  5
8FF4
  8
AM_0
 10
429.03218013499918
 20
106.1094135756545
 30
0.0
 70
    32
  0
VERTEX
  5
8FF5
  8
AM_0
 10
429.02818013499979
 20
106.1084135756545
 30
0.0
 70
    32
  0
VERTEX
  5
8FF6
  8
AM_0
 10
429.02418013499909
 20
106.1064135756548
 30
0.0
 70
    32
  0
VERTEX
  5
8FF7
  8
AM_0
 10
429.01918013499892
 20
106.10541357565459
 30
0.0
 70
    32
  0
VERTEX
  5
8FF8
  8
AM_0
 10
429.01518013499992
 20
106.1044135756546
 30
0.0
 70
    32
  0
VERTEX
  5
8FF9
  8
AM_0
 10
429.01118013499962
 20
106.1034135756546
 30
0.0
 70
    32
  0
VERTEX
  5
8FFA
  8
AM_0
 10
429.0071801349992
 20
106.10241357565479
 30
0.0
 70
    32
  0
VERTEX
  5
8FFB
  8
AM_0
 10
429.00318013499941
 20
106.1004135756544
 30
0.0
 70
    32
  0
VERTEX
  5
8FFC
  8
AM_0
 10
428.99918013499979
 20
106.09941357565449
 30
0.0
 70
    32
  0
VERTEX
  5
8FFD
  8
AM_0
 10
428.99518013499909
 20
106.0984135756546
 30
0.0
 70
    32
  0
VERTEX
  5
8FFE
  8
AM_0
 10
428.991180135001
 20
106.0974135756548
 30
0.0
 70
    32
  0
VERTEX
  5
8FFF
  8
AM_0
 10
428.98718013499922
 20
106.0954135756546
 30
0.0
 70
    32
  0
VERTEX
  5
9000
  8
AM_0
 10
428.98318013499988
 20
106.0944135756545
 30
0.0
 70
    32
  0
VERTEX
  5
9001
  8
AM_0
 10
428.97918013499901
 20
106.09341357565479
 30
0.0
 70
    32
  0
VERTEX
  5
9002
  8
AM_0
 10
428.97418013499941
 20
106.0924135756545
 30
0.0
 70
    32
  0
VERTEX
  5
9003
  8
AM_0
 10
428.97018013499888
 20
106.09041357565449
 30
0.0
 70
    32
  0
VERTEX
  5
9004
  8
AM_0
 10
428.966180135
 20
106.0894135756546
 30
0.0
 70
    32
  0
VERTEX
  5
9005
  8
AM_0
 10
428.96218013499919
 20
106.0884135756549
 30
0.0
 70
    32
  0
VERTEX
  5
9006
  8
AM_0
 10
428.95818013499922
 20
106.08741357565459
 30
0.0
 70
    32
  0
VERTEX
  5
9007
  8
AM_0
 10
428.95418013499938
 20
106.0854135756545
 30
0.0
 70
    32
  0
VERTEX
  5
9008
  8
AM_0
 10
428.95018013499919
 20
106.08441357565459
 30
0.0
 70
    32
  0
VERTEX
  5
9009
  8
AM_0
 10
428.9461801350007
 20
106.0834135756544
 30
0.0
 70
    32
  0
VERTEX
  5
900A
  8
AM_0
 10
428.94218013499909
 20
106.0824135756545
 30
0.0
 70
    32
  0
VERTEX
  5
900B
  8
AM_0
 10
428.93818013499941
 20
106.0804135756545
 30
0.0
 70
    32
  0
VERTEX
  5
900C
  8
AM_0
 10
428.93418013499928
 20
106.0794135756548
 30
0.0
 70
    32
  0
VERTEX
  5
900D
  8
AM_0
 10
428.93018013499989
 20
106.07841357565459
 30
0.0
 70
    32
  0
VERTEX
  5
900E
  8
AM_0
 10
428.92618013499919
 20
106.0764135756544
 30
0.0
 70
    32
  0
VERTEX
  5
900F
  8
AM_0
 10
428.92118013499987
 20
106.07541357565469
 30
0.0
 70
    32
  0
VERTEX
  5
9010
  8
AM_0
 10
428.91718013499923
 20
106.074413575655
 30
0.0
 70
    32
  0
VERTEX
  5
9011
  8
AM_0
 10
428.9131801349991
 20
106.07241357565439
 30
0.0
 70
    32
  0
VERTEX
  5
9012
  8
AM_0
 10
428.9091801349993
 20
106.0714135756545
 30
0.0
 70
    32
  0
VERTEX
  5
9013
  8
AM_0
 10
428.9051801349994
 20
106.0704135756548
 30
0.0
 70
    32
  0
VERTEX
  5
9014
  8
AM_0
 10
428.901180135
 20
106.0684135756546
 30
0.0
 70
    32
  0
VERTEX
  5
9015
  8
AM_0
 10
428.89718013499908
 20
106.0674135756545
 30
0.0
 70
    32
  0
VERTEX
  5
9016
  8
AM_0
 10
428.89318013499923
 20
106.06641357565459
 30
0.0
 70
    32
  0
VERTEX
  5
9017
  8
AM_0
 10
428.88918013499932
 20
106.0644135756546
 30
0.0
 70
    32
  0
VERTEX
  5
9018
  8
AM_0
 10
428.88518013499981
 20
106.06341357565449
 30
0.0
 70
    32
  0
VERTEX
  5
9019
  8
AM_0
 10
428.88118013499911
 20
106.0624135756545
 30
0.0
 70
    32
  0
VERTEX
  5
901A
  8
AM_0
 10
428.87718013499909
 20
106.06041357565459
 30
0.0
 70
    32
  0
VERTEX
  5
901B
  8
AM_0
 10
428.87318013499907
 20
106.0594135756545
 30
0.0
 70
    32
  0
VERTEX
  5
901C
  8
AM_0
 10
428.86918013499968
 20
106.0584135756545
 30
0.0
 70
    32
  0
VERTEX
  5
901D
  8
AM_0
 10
428.86518013499892
 20
106.0564135756548
 30
0.0
 70
    32
  0
VERTEX
  5
901E
  8
AM_0
 10
428.86118013499998
 20
106.0554135756546
 30
0.0
 70
    32
  0
VERTEX
  5
901F
  8
AM_0
 10
428.85718013500087
 20
106.0534135756545
 30
0.0
 70
    32
  0
VERTEX
  5
9020
  8
AM_0
 10
428.85318013499921
 20
106.0524135756546
 30
0.0
 70
    32
  0
VERTEX
  5
9021
  8
AM_0
 10
428.8491801349993
 20
106.05141357565461
 30
0.0
 70
    32
  0
VERTEX
  5
9022
  8
AM_0
 10
428.84518013499991
 20
106.0494135756545
 30
0.0
 70
    32
  0
VERTEX
  5
9023
  8
AM_0
 10
428.841180135
 20
106.04841357565461
 30
0.0
 70
    32
  0
VERTEX
  5
9024
  8
AM_0
 10
428.83718013499919
 20
106.0464135756548
 30
0.0
 70
    32
  0
VERTEX
  5
9025
  8
AM_0
 10
428.83318013499922
 20
106.04541357565461
 30
0.0
 70
    32
  0
VERTEX
  5
9026
  8
AM_0
 10
428.82918013499932
 20
106.0444135756546
 30
0.0
 70
    32
  0
VERTEX
  5
9027
  8
AM_0
 10
428.82518013500078
 20
106.04241357565461
 30
0.0
 70
    32
  0
VERTEX
  5
9028
  8
AM_0
 10
428.82118013499922
 20
106.0414135756546
 30
0.0
 70
    32
  0
VERTEX
  5
9029
  8
AM_0
 10
428.81618013499991
 20
106.03941357565481
 30
0.0
 70
    32
  0
VERTEX
  5
902A
  8
AM_0
 10
428.81218013499989
 20
106.0384135756547
 30
0.0
 70
    32
  0
VERTEX
  5
902B
  8
AM_0
 10
428.8081801350009
 20
106.03641357565461
 30
0.0
 70
    32
  0
VERTEX
  5
902C
  8
AM_0
 10
428.80418013499923
 20
106.0354135756546
 30
0.0
 70
    32
  0
VERTEX
  5
902D
  8
AM_0
 10
428.80018013499989
 20
106.03341357565451
 30
0.0
 70
    32
  0
VERTEX
  5
902E
  8
AM_0
 10
428.79618013499987
 20
106.0324135756545
 30
0.0
 70
    32
  0
VERTEX
  5
902F
  8
AM_0
 10
428.79218013499911
 20
106.03041357565461
 30
0.0
 70
    32
  0
VERTEX
  5
9030
  8
AM_0
 10
428.78818013499921
 20
106.0294135756548
 30
0.0
 70
    32
  0
VERTEX
  5
9031
  8
AM_0
 10
428.78418013499919
 20
106.02741357565461
 30
0.0
 70
    32
  0
VERTEX
  5
9032
  8
AM_0
 10
428.7801801349998
 20
106.0264135756546
 30
0.0
 70
    32
  0
VERTEX
  5
9033
  8
AM_0
 10
428.776180135
 20
106.02441357565461
 30
0.0
 70
    32
  0
VERTEX
  5
9034
  8
AM_0
 10
428.77218013500078
 20
106.0234135756545
 30
0.0
 70
    32
  0
VERTEX
  5
9035
  8
AM_0
 10
428.76818013499911
 20
106.02141357565461
 30
0.0
 70
    32
  0
VERTEX
  5
9036
  8
AM_0
 10
428.76418013499972
 20
106.0204135756547
 30
0.0
 70
    32
  0
VERTEX
  5
9037
  8
AM_0
 10
428.76018013499908
 20
106.01841357565461
 30
0.0
 70
    32
  0
VERTEX
  5
9038
  8
AM_0
 10
428.75618013500002
 20
106.0174135756547
 30
0.0
 70
    32
  0
VERTEX
  5
9039
  8
AM_0
 10
428.7531801349993
 20
106.0154135756549
 30
0.0
 70
    32
  0
VERTEX
  5
903A
  8
AM_0
 10
428.7491801350007
 20
106.0144135756545
 30
0.0
 70
    32
  0
VERTEX
  5
903B
  8
AM_0
 10
428.745180135
 20
106.01241357565461
 30
0.0
 70
    32
  0
VERTEX
  5
903C
  8
AM_0
 10
428.74118013499918
 20
106.0114135756548
 30
0.0
 70
    32
  0
VERTEX
  5
903D
  8
AM_0
 10
428.73718013499911
 20
106.00941357565461
 30
0.0
 70
    32
  0
VERTEX
  5
903E
  8
AM_0
 10
428.73318013499983
 20
106.0084135756546
 30
0.0
 70
    32
  0
VERTEX
  5
903F
  8
AM_0
 10
428.72918013499998
 20
106.0064135756549
 30
0.0
 70
    32
  0
VERTEX
  5
9040
  8
AM_0
 10
428.72518013500002
 20
106.0044135756544
 30
0.0
 70
    32
  0
VERTEX
  5
9041
  8
AM_0
 10
428.72118013499772
 20
106.0034135756546
 30
0.0
 70
    32
  0
VERTEX
  5
9042
  8
AM_0
 10
428.71718013499958
 20
106.0014135756546
 30
0.0
 70
    32
  0
VERTEX
  5
9043
  8
AM_0
 10
428.71318013499979
 20
106.00041357565451
 30
0.0
 70
    32
  0
VERTEX
  5
9044
  8
AM_0
 10
428.70918013499988
 20
105.99841357565479
 30
0.0
 70
    32
  0
VERTEX
  5
9045
  8
AM_0
 10
428.70518013499913
 20
105.9964135756545
 30
0.0
 70
    32
  0
VERTEX
  5
9046
  8
AM_0
 10
428.70118013499922
 20
105.9954135756544
 30
0.0
 70
    32
  0
VERTEX
  5
9047
  8
AM_0
 10
428.69718013499983
 20
105.9934135756547
 30
0.0
 70
    32
  0
VERTEX
  5
9048
  8
AM_0
 10
428.69318013499992
 20
105.9924135756546
 30
0.0
 70
    32
  0
VERTEX
  5
9049
  8
AM_0
 10
428.68918013500002
 20
105.9904135756546
 30
0.0
 70
    32
  0
VERTEX
  5
904A
  8
AM_0
 10
428.68518013499909
 20
105.9884135756548
 30
0.0
 70
    32
  0
VERTEX
  5
904B
  8
AM_0
 10
428.68118013499912
 20
105.9874135756545
 30
0.0
 70
    32
  0
VERTEX
  5
904C
  8
AM_0
 10
428.67718013499939
 20
105.9854135756546
 30
0.0
 70
    32
  0
VERTEX
  5
904D
  8
AM_0
 10
428.67318013500079
 20
105.98341357565459
 30
0.0
 70
    32
  0
VERTEX
  5
904E
  8
AM_0
 10
428.66918013499992
 20
105.98241357565441
 30
0.0
 70
    32
  0
VERTEX
  5
904F
  8
AM_0
 10
428.6651801349991
 20
105.98041357565459
 30
0.0
 70
    32
  0
VERTEX
  5
9050
  8
AM_0
 10
428.66218013499991
 20
105.9784135756546
 30
0.0
 70
    32
  0
VERTEX
  5
9051
  8
AM_0
 10
428.65818013500001
 20
105.97741357565459
 30
0.0
 70
    32
  0
VERTEX
  5
9052
  8
AM_0
 10
428.65418013499908
 20
105.9754135756546
 30
0.0
 70
    32
  0
VERTEX
  5
9053
  8
AM_0
 10
428.6501801349998
 20
105.9734135756545
 30
0.0
 70
    32
  0
VERTEX
  5
9054
  8
AM_0
 10
428.64618013499933
 20
105.9724135756545
 30
0.0
 70
    32
  0
VERTEX
  5
9055
  8
AM_0
 10
428.64218013499999
 20
105.9704135756549
 30
0.0
 70
    32
  0
VERTEX
  5
9056
  8
AM_0
 10
428.6381801349977
 20
105.96841357565459
 30
0.0
 70
    32
  0
VERTEX
  5
9057
  8
AM_0
 10
428.63418013499972
 20
105.9674135756546
 30
0.0
 70
    32
  0
VERTEX
  5
9058
  8
AM_0
 10
428.63018013499919
 20
105.96541357565449
 30
0.0
 70
    32
  0
VERTEX
  5
9059
  8
AM_0
 10
428.62618013499991
 20
105.9634135756545
 30
0.0
 70
    32
  0
VERTEX
  5
905A
  8
AM_0
 10
428.62218013499989
 20
105.961413575655
 30
0.0
 70
    32
  0
VERTEX
  5
905B
  8
AM_0
 10
428.61818013499908
 20
105.9604135756546
 30
0.0
 70
    32
  0
VERTEX
  5
905C
  8
AM_0
 10
428.61518013499989
 20
105.9584135756544
 30
0.0
 70
    32
  0
VERTEX
  5
905D
  8
AM_0
 10
428.61118013499993
 20
105.95641357565449
 30
0.0
 70
    32
  0
VERTEX
  5
905E
  8
AM_0
 10
428.60718013499792
 20
105.9544135756545
 30
0.0
 70
    32
  0
VERTEX
  5
905F
  8
AM_0
 10
428.60318013499977
 20
105.95341357565459
 30
0.0
 70
    32
  0
VERTEX
  5
9060
  8
AM_0
 10
428.59918013499981
 20
105.9514135756546
 30
0.0
 70
    32
  0
VERTEX
  5
9061
  8
AM_0
 10
428.59518013499991
 20
105.9494135756546
 30
0.0
 70
    32
  0
VERTEX
  5
9062
  8
AM_0
 10
428.59118013500012
 20
105.94741357565459
 30
0.0
 70
    32
  0
VERTEX
  5
9063
  8
AM_0
 10
428.58718013499907
 20
105.9464135756545
 30
0.0
 70
    32
  0
VERTEX
  5
9064
  8
AM_0
 10
428.58318013499962
 20
105.94441357565459
 30
0.0
 70
    32
  0
VERTEX
  5
9065
  8
AM_0
 10
428.58018013499913
 20
105.9424135756546
 30
0.0
 70
    32
  0
VERTEX
  5
9066
  8
AM_0
 10
428.57618013499911
 20
105.9404135756546
 30
0.0
 70
    32
  0
VERTEX
  5
9067
  8
AM_0
 10
428.57218013499983
 20
105.93841357565449
 30
0.0
 70
    32
  0
VERTEX
  5
9068
  8
AM_0
 10
428.56818013499992
 20
105.9374135756544
 30
0.0
 70
    32
  0
VERTEX
  5
9069
  8
AM_0
 10
428.56418013500002
 20
105.93541357565459
 30
0.0
 70
    32
  0
VERTEX
  5
906A
  8
AM_0
 10
428.56018013499909
 20
105.9334135756546
 30
0.0
 70
    32
  0
VERTEX
  5
906B
  8
AM_0
 10
428.55618013499918
 20
105.9314135756546
 30
0.0
 70
    32
  0
VERTEX
  5
906C
  8
AM_0
 10
428.55318013499999
 20
105.92941357565449
 30
0.0
 70
    32
  0
VERTEX
  5
906D
  8
AM_0
 10
428.54918013499918
 20
105.9284135756544
 30
0.0
 70
    32
  0
VERTEX
  5
906E
  8
AM_0
 10
428.54518013499978
 20
105.92641357565461
 30
0.0
 70
    32
  0
VERTEX
  5
906F
  8
AM_0
 10
428.54118013499982
 20
105.9244135756546
 30
0.0
 70
    32
  0
VERTEX
  5
9070
  8
AM_0
 10
428.53718013500003
 20
105.9224135756546
 30
0.0
 70
    32
  0
VERTEX
  5
9071
  8
AM_0
 10
428.5331801349999
 20
105.920413575655
 30
0.0
 70
    32
  0
VERTEX
  5
9072
  8
AM_0
 10
428.52918013499959
 20
105.9184135756545
 30
0.0
 70
    32
  0
VERTEX
  5
9073
  8
AM_0
 10
428.52618013499989
 20
105.9164135756546
 30
0.0
 70
    32
  0
VERTEX
  5
9074
  8
AM_0
 10
428.52218013499908
 20
105.91441357565461
 30
0.0
 70
    32
  0
VERTEX
  5
9075
  8
AM_0
 10
428.51818013499923
 20
105.9134135756546
 30
0.0
 70
    32
  0
VERTEX
  5
9076
  8
AM_0
 10
428.51418013499978
 20
105.9114135756549
 30
0.0
 70
    32
  0
VERTEX
  5
9077
  8
AM_0
 10
428.51018013499993
 20
105.9094135756545
 30
0.0
 70
    32
  0
VERTEX
  5
9078
  8
AM_0
 10
428.50718013499983
 20
105.9074135756548
 30
0.0
 70
    32
  0
VERTEX
  5
9079
  8
AM_0
 10
428.50318013499981
 20
105.90541357565461
 30
0.0
 70
    32
  0
VERTEX
  5
907A
  8
AM_0
 10
428.49918013499979
 20
105.9034135756548
 30
0.0
 70
    32
  0
VERTEX
  5
907B
  8
AM_0
 10
428.495180135
 20
105.9014135756546
 30
0.0
 70
    32
  0
VERTEX
  5
907C
  8
AM_0
 10
428.49118013499969
 20
105.89941357565461
 30
0.0
 70
    32
  0
VERTEX
  5
907D
  8
AM_0
 10
428.48818013499999
 20
105.8974135756545
 30
0.0
 70
    32
  0
VERTEX
  5
907E
  8
AM_0
 10
428.48418013499912
 20
105.8954135756545
 30
0.0
 70
    32
  0
VERTEX
  5
907F
  8
AM_0
 10
428.4801801349991
 20
105.8934135756549
 30
0.0
 70
    32
  0
VERTEX
  5
9080
  8
AM_0
 10
428.47618013499982
 20
105.8914135756546
 30
0.0
 70
    32
  0
VERTEX
  5
9081
  8
AM_0
 10
428.47218013499992
 20
105.8894135756546
 30
0.0
 70
    32
  0
VERTEX
  5
9082
  8
AM_0
 10
428.4691801349997
 20
105.88741357565461
 30
0.0
 70
    32
  0
VERTEX
  5
9083
  8
AM_0
 10
428.46518013499991
 20
105.8854135756547
 30
0.0
 70
    32
  0
VERTEX
  5
9084
  8
AM_0
 10
428.46118013499989
 20
105.8834135756546
 30
0.0
 70
    32
  0
VERTEX
  5
9085
  8
AM_0
 10
428.45718013499999
 20
105.88141357565461
 30
0.0
 70
    32
  0
VERTEX
  5
9086
  8
AM_0
 10
428.45318013499968
 20
105.8794135756544
 30
0.0
 70
    32
  0
VERTEX
  5
9087
  8
AM_0
 10
428.45018013499998
 20
105.8774135756545
 30
0.0
 70
    32
  0
VERTEX
  5
9088
  8
AM_0
 10
428.44618013499962
 20
105.8754135756548
 30
0.0
 70
    32
  0
VERTEX
  5
9089
  8
AM_0
 10
428.44218013499909
 20
105.8734135756546
 30
0.0
 70
    32
  0
VERTEX
  5
908A
  8
AM_0
 10
428.43818013499981
 20
105.8714135756546
 30
0.0
 70
    32
  0
VERTEX
  5
908B
  8
AM_0
 10
428.43518013499909
 20
105.86941357565451
 30
0.0
 70
    32
  0
VERTEX
  5
908C
  8
AM_0
 10
428.43118013499958
 20
105.8674135756546
 30
0.0
 70
    32
  0
VERTEX
  5
908D
  8
AM_0
 10
428.42718013499979
 20
105.8654135756546
 30
0.0
 70
    32
  0
VERTEX
  5
908E
  8
AM_0
 10
428.42318013499988
 20
105.8634135756546
 30
0.0
 70
    32
  0
VERTEX
  5
908F
  8
AM_0
 10
428.42018013499978
 20
105.86141357565479
 30
0.0
 70
    32
  0
VERTEX
  5
9090
  8
AM_0
 10
428.41618013499982
 20
105.8594135756545
 30
0.0
 70
    32
  0
VERTEX
  5
9091
  8
AM_0
 10
428.41218013499991
 20
105.8574135756548
 30
0.0
 70
    32
  0
VERTEX
  5
9092
  8
AM_0
 10
428.40918013499981
 20
105.8554135756544
 30
0.0
 70
    32
  0
VERTEX
  5
9093
  8
AM_0
 10
428.40518013499991
 20
105.85241357565479
 30
0.0
 70
    32
  0
VERTEX
  5
9094
  8
AM_0
 10
428.40118013499909
 20
105.8504135756545
 30
0.0
 70
    32
  0
VERTEX
  5
9095
  8
AM_0
 10
428.39718013499908
 20
105.8484135756548
 30
0.0
 70
    32
  0
VERTEX
  5
9096
  8
AM_0
 10
428.39418013499989
 20
105.8464135756544
 30
0.0
 70
    32
  0
VERTEX
  5
9097
  8
AM_0
 10
428.39018013499901
 20
105.8444135756548
 30
0.0
 70
    32
  0
VERTEX
  5
9098
  8
AM_0
 10
428.38618013499962
 20
105.8424135756545
 30
0.0
 70
    32
  0
VERTEX
  5
9099
  8
AM_0
 10
428.38318013499901
 20
105.84041357565459
 30
0.0
 70
    32
  0
VERTEX
  5
909A
  8
AM_0
 10
428.3791801349991
 20
105.8384135756546
 30
0.0
 70
    32
  0
VERTEX
  5
909B
  8
AM_0
 10
428.37518013499971
 20
105.8354135756546
 30
0.0
 70
    32
  0
VERTEX
  5
909C
  8
AM_0
 10
428.37218013499802
 20
105.8334135756545
 30
0.0
 70
    32
  0
VERTEX
  5
909D
  8
AM_0
 10
428.36818013499948
 20
105.83141357565459
 30
0.0
 70
    32
  0
VERTEX
  5
909E
  8
AM_0
 10
428.36418013499969
 20
105.8294135756546
 30
0.0
 70
    32
  0
VERTEX
  5
909F
  8
AM_0
 10
428.36118013499998
 20
105.8274135756546
 30
0.0
 70
    32
  0
VERTEX
  5
90A0
  8
AM_0
 10
428.35718013499911
 20
105.8244135756546
 30
0.0
 70
    32
  0
VERTEX
  5
90A1
  8
AM_0
 10
428.35318013499972
 20
105.82241357565449
 30
0.0
 70
    32
  0
VERTEX
  5
90A2
  8
AM_0
 10
428.35018013499911
 20
105.8204135756547
 30
0.0
 70
    32
  0
VERTEX
  5
90A3
  8
AM_0
 10
428.3461801349996
 20
105.8184135756545
 30
0.0
 70
    32
  0
VERTEX
  5
90A4
  8
AM_0
 10
428.34218013499981
 20
105.81641357565481
 30
0.0
 70
    32
  0
VERTEX
  5
90A5
  8
AM_0
 10
428.33918013499959
 20
105.81341357565449
 30
0.0
 70
    32
  0
VERTEX
  5
90A6
  8
AM_0
 10
428.33518013499958
 20
105.8114135756546
 30
0.0
 70
    32
  0
VERTEX
  5
90A7
  8
AM_0
 10
428.33118013499978
 20
105.8094135756544
 30
0.0
 70
    32
  0
VERTEX
  5
90A8
  8
AM_0
 10
428.32818013499917
 20
105.80741357565481
 30
0.0
 70
    32
  0
VERTEX
  5
90A9
  8
AM_0
 10
428.32418013499978
 20
105.80441357565449
 30
0.0
 70
    32
  0
VERTEX
  5
90AA
  8
AM_0
 10
428.32118013499911
 20
105.8024135756546
 30
0.0
 70
    32
  0
VERTEX
  5
90AB
  8
AM_0
 10
428.3171801350008
 20
105.8004135756546
 30
0.0
 70
    32
  0
VERTEX
  5
90AC
  8
AM_0
 10
428.3131801349997
 20
105.79841357565461
 30
0.0
 70
    32
  0
VERTEX
  5
90AD
  8
AM_0
 10
428.3101801349996
 20
105.79541357565461
 30
0.0
 70
    32
  0
VERTEX
  5
90AE
  8
AM_0
 10
428.30618013499969
 20
105.7934135756546
 30
0.0
 70
    32
  0
VERTEX
  5
90AF
  8
AM_0
 10
428.30318013499908
 20
105.7914135756546
 30
0.0
 70
    32
  0
VERTEX
  5
90B0
  8
AM_0
 10
428.29918013499969
 20
105.7884135756546
 30
0.0
 70
    32
  0
VERTEX
  5
90B1
  8
AM_0
 10
428.29518013499961
 20
105.78641357565461
 30
0.0
 70
    32
  0
VERTEX
  5
90B2
  8
AM_0
 10
428.29218013499963
 20
105.7844135756546
 30
0.0
 70
    32
  0
VERTEX
  5
90B3
  8
AM_0
 10
428.28818013499972
 20
105.7814135756546
 30
0.0
 70
    32
  0
VERTEX
  5
90B4
  8
AM_0
 10
428.28518013500002
 20
105.7794135756547
 30
0.0
 70
    32
  0
VERTEX
  5
90B5
  8
AM_0
 10
428.28118013499949
 20
105.77741357565461
 30
0.0
 70
    32
  0
VERTEX
  5
90B6
  8
AM_0
 10
428.27818013499979
 20
105.77441357565441
 30
0.0
 70
    32
  0
VERTEX
  5
90B7
  8
AM_0
 10
428.27418013499909
 20
105.7724135756547
 30
0.0
 70
    32
  0
VERTEX
  5
90B8
  8
AM_0
 10
428.27118013499938
 20
105.7694135756545
 30
0.0
 70
    32
  0
VERTEX
  5
90B9
  8
AM_0
 10
428.26718013499902
 20
105.7674135756547
 30
0.0
 70
    32
  0
VERTEX
  5
90BA
  8
AM_0
 10
428.26318013499957
 20
105.7654135756548
 30
0.0
 70
    32
  0
VERTEX
  5
90BB
  8
AM_0
 10
428.26018013499902
 20
105.76241357565461
 30
0.0
 70
    32
  0
VERTEX
  5
90BC
  8
AM_0
 10
428.25618013499991
 20
105.7604135756545
 30
0.0
 70
    32
  0
VERTEX
  5
90BD
  8
AM_0
 10
428.25318013499941
 20
105.75741357565499
 30
0.0
 70
    32
  0
VERTEX
  5
90BE
  8
AM_0
 10
428.24918013499888
 20
105.7554135756544
 30
0.0
 70
    32
  0
VERTEX
  5
90BF
  8
AM_0
 10
428.24618013499918
 20
105.7524135756546
 30
0.0
 70
    32
  0
VERTEX
  5
90C0
  8
AM_0
 10
428.24218013499927
 20
105.7504135756546
 30
0.0
 70
    32
  0
VERTEX
  5
90C1
  8
AM_0
 10
428.23918013499917
 20
105.74841357565479
 30
0.0
 70
    32
  0
VERTEX
  5
90C2
  8
AM_0
 10
428.2351801349991
 20
105.7454135756546
 30
0.0
 70
    32
  0
VERTEX
  5
90C3
  8
AM_0
 10
428.23218013499962
 20
105.7434135756547
 30
0.0
 70
    32
  0
VERTEX
  5
90C4
  8
AM_0
 10
428.22818013499921
 20
105.7404135756546
 30
0.0
 70
    32
  0
VERTEX
  5
90C5
  8
AM_0
 10
428.22518013500007
 20
105.7384135756546
 30
0.0
 70
    32
  0
VERTEX
  5
90C6
  8
AM_0
 10
428.22218013499952
 20
105.7354135756546
 30
0.0
 70
    32
  0
VERTEX
  5
90C7
  8
AM_0
 10
428.21818013500001
 20
105.7334135756544
 30
0.0
 70
    32
  0
VERTEX
  5
90C8
  8
AM_0
 10
428.2151801349994
 20
105.73041357565479
 30
0.0
 70
    32
  0
VERTEX
  5
90C9
  8
AM_0
 10
428.21118013499989
 20
105.7284135756546
 30
0.0
 70
    32
  0
VERTEX
  5
90CA
  8
AM_0
 10
428.20818013499922
 20
105.7254135756546
 30
0.0
 70
    32
  0
VERTEX
  5
90CB
  8
AM_0
 10
428.20418013499932
 20
105.7234135756545
 30
0.0
 70
    32
  0
VERTEX
  5
90CC
  8
AM_0
 10
428.20118013499922
 20
105.7204135756548
 30
0.0
 70
    32
  0
VERTEX
  5
90CD
  8
AM_0
 10
428.19818013499912
 20
105.7174135756546
 30
0.0
 70
    32
  0
VERTEX
  5
90CE
  8
AM_0
 10
428.1941801349991
 20
105.71541357565449
 30
0.0
 70
    32
  0
VERTEX
  5
90CF
  8
AM_0
 10
428.19118013499889
 20
105.71241357565479
 30
0.0
 70
    32
  0
VERTEX
  5
90D0
  8
AM_0
 10
428.18718013500001
 20
105.7104135756546
 30
0.0
 70
    32
  0
VERTEX
  5
90D1
  8
AM_0
 10
428.18418013499939
 20
105.7074135756545
 30
0.0
 70
    32
  0
VERTEX
  5
90D2
  8
AM_0
 10
428.18118013499912
 20
105.7044135756546
 30
0.0
 70
    32
  0
VERTEX
  5
90D3
  8
AM_0
 10
428.17718013499939
 20
105.7024135756546
 30
0.0
 70
    32
  0
VERTEX
  5
90D4
  8
AM_0
 10
428.17418013500088
 20
105.6994135756548
 30
0.0
 70
    32
  0
VERTEX
  5
90D5
  8
AM_0
 10
428.17018013499921
 20
105.69741357565439
 30
0.0
 70
    32
  0
VERTEX
  5
90D6
  8
AM_0
 10
428.16718013499911
 20
105.69441357565481
 30
0.0
 70
    32
  0
VERTEX
  5
90D7
  8
AM_0
 10
428.16418013499992
 20
105.69141357565449
 30
0.0
 70
    32
  0
VERTEX
  5
90D8
  8
AM_0
 10
428.16018013499911
 20
105.6894135756549
 30
0.0
 70
    32
  0
VERTEX
  5
90D9
  8
AM_0
 10
428.15718013499981
 20
105.6864135756545
 30
0.0
 70
    32
  0
VERTEX
  5
90DA
  8
AM_0
 10
428.15418013499908
 20
105.6834135756546
 30
0.0
 70
    32
  0
VERTEX
  5
90DB
  8
AM_0
 10
428.15018013499918
 20
105.6814135756547
 30
0.0
 70
    32
  0
VERTEX
  5
90DC
  8
AM_0
 10
428.14718013499908
 20
105.6784135756544
 30
0.0
 70
    32
  0
VERTEX
  5
90DD
  8
AM_0
 10
428.14418013499892
 20
105.6754135756546
 30
0.0
 70
    32
  0
VERTEX
  5
90DE
  8
AM_0
 10
428.1411801349991
 20
105.6724135756546
 30
0.0
 70
    32
  0
VERTEX
  5
90DF
  8
AM_0
 10
428.13718013499931
 20
105.67041357565461
 30
0.0
 70
    32
  0
VERTEX
  5
90E0
  8
AM_0
 10
428.1341801350008
 20
105.6674135756549
 30
0.0
 70
    32
  0
VERTEX
  5
90E1
  8
AM_0
 10
428.13118013499923
 20
105.66441357565451
 30
0.0
 70
    32
  0
VERTEX
  5
90E2
  8
AM_0
 10
428.12718013499909
 20
105.66141357565461
 30
0.0
 70
    32
  0
VERTEX
  5
90E3
  8
AM_0
 10
428.12418013499888
 20
105.6594135756545
 30
0.0
 70
    32
  0
VERTEX
  5
90E4
  8
AM_0
 10
428.12118013499918
 20
105.6564135756546
 30
0.0
 70
    32
  0
VERTEX
  5
90E5
  8
AM_0
 10
428.11818013499908
 20
105.6534135756548
 30
0.0
 70
    32
  0
VERTEX
  5
90E6
  8
AM_0
 10
428.11418013499917
 20
105.6504135756545
 30
0.0
 70
    32
  0
VERTEX
  5
90E7
  8
AM_0
 10
428.11118013499993
 20
105.6484135756546
 30
0.0
 70
    32
  0
VERTEX
  5
90E8
  8
AM_0
 10
428.10818013499932
 20
105.6454135756546
 30
0.0
 70
    32
  0
VERTEX
  5
90E9
  8
AM_0
 10
428.10518013499922
 20
105.6424135756546
 30
0.0
 70
    32
  0
VERTEX
  5
90EA
  8
AM_0
 10
428.10218013500003
 20
105.6394135756546
 30
0.0
 70
    32
  0
VERTEX
  5
90EB
  8
AM_0
 10
428.09818013500092
 20
105.6364135756546
 30
0.0
 70
    32
  0
VERTEX
  5
90EC
  8
AM_0
 10
428.09518013499979
 20
105.6334135756546
 30
0.0
 70
    32
  0
VERTEX
  5
90ED
  8
AM_0
 10
428.09218013499918
 20
105.6314135756549
 30
0.0
 70
    32
  0
VERTEX
  5
90EE
  8
AM_0
 10
428.08918013500079
 20
105.62841357565451
 30
0.0
 70
    32
  0
VERTEX
  5
90EF
  8
AM_0
 10
428.08618013499893
 20
105.6254135756546
 30
0.0
 70
    32
  0
VERTEX
  5
90F0
  8
AM_0
 10
428.08318013499922
 20
105.6224135756546
 30
0.0
 70
    32
  0
VERTEX
  5
90F1
  8
AM_0
 10
428.08018013499913
 20
105.61941357565441
 30
0.0
 70
    32
  0
VERTEX
  5
90F2
  8
AM_0
 10
428.07618013499911
 20
105.6164135756546
 30
0.0
 70
    32
  0
VERTEX
  5
90F3
  8
AM_0
 10
428.07318013499992
 20
105.6134135756546
 30
0.0
 70
    32
  0
VERTEX
  5
90F4
  8
AM_0
 10
428.07018013499942
 20
105.61041357565441
 30
0.0
 70
    32
  0
VERTEX
  5
90F5
  8
AM_0
 10
428.06718013500108
 20
105.6074135756546
 30
0.0
 70
    32
  0
VERTEX
  5
90F6
  8
AM_0
 10
428.06418013499979
 20
105.6044135756547
 30
0.0
 70
    32
  0
VERTEX
  5
90F7
  8
AM_0
 10
428.06118013499918
 20
105.60141357565441
 30
0.0
 70
    32
  0
VERTEX
  5
90F8
  8
AM_0
 10
428.0581801350009
 20
105.5984135756546
 30
0.0
 70
    32
  0
VERTEX
  5
90F9
  8
AM_0
 10
428.05518013499892
 20
105.5954135756546
 30
0.0
 70
    32
  0
VERTEX
  5
90FA
  8
AM_0
 10
428.05218013499911
 20
105.5924135756545
 30
0.0
 70
    32
  0
VERTEX
  5
90FB
  8
AM_0
 10
428.04918013499918
 20
105.5894135756546
 30
0.0
 70
    32
  0
VERTEX
  5
90FC
  8
AM_0
 10
428.04618013499987
 20
105.5864135756546
 30
0.0
 70
    32
  0
VERTEX
  5
90FD
  8
AM_0
 10
428.04318013499977
 20
105.58341357565421
 30
0.0
 70
    32
  0
VERTEX
  5
90FE
  8
AM_0
 10
428.04018013499922
 20
105.5804135756546
 30
0.0
 70
    32
  0
VERTEX
  5
90FF
  8
AM_0
 10
428.03718013499991
 20
105.5774135756546
 30
0.0
 70
    32
  0
VERTEX
  5
9100
  8
AM_0
 10
428.0341801349993
 20
105.5744135756546
 30
0.0
 70
    32
  0
VERTEX
  5
9101
  8
AM_0
 10
428.0311801350008
 20
105.5714135756545
 30
0.0
 70
    32
  0
VERTEX
  5
9102
  8
AM_0
 10
428.02818013499979
 20
105.5684135756548
 30
0.0
 70
    32
  0
VERTEX
  5
9103
  8
AM_0
 10
428.02518013499918
 20
105.5654135756546
 30
0.0
 70
    32
  0
VERTEX
  5
9104
  8
AM_0
 10
428.02218013500078
 20
105.5624135756546
 30
0.0
 70
    32
  0
VERTEX
  5
9105
  8
AM_0
 10
428.01918013499989
 20
105.5594135756546
 30
0.0
 70
    32
  0
VERTEX
  5
9106
  8
AM_0
 10
428.01618013499922
 20
105.5564135756546
 30
0.0
 70
    32
  0
VERTEX
  5
9107
  8
AM_0
 10
428.01318013500088
 20
105.5534135756546
 30
0.0
 70
    32
  0
VERTEX
  5
9108
  8
AM_0
 10
428.01018013499902
 20
105.5504135756546
 30
0.0
 70
    32
  0
VERTEX
  5
9109
  8
AM_0
 10
428.00718013499909
 20
105.5464135756547
 30
0.0
 70
    32
  0
VERTEX
  5
910A
  8
AM_0
 10
428.00418013500013
 20
105.5434135756544
 30
0.0
 70
    32
  0
VERTEX
  5
910B
  8
AM_0
 10
428.0011801349994
 20
105.5404135756546
 30
0.0
 70
    32
  0
VERTEX
  5
910C
  8
AM_0
 10
427.99918013500081
 20
105.5374135756546
 30
0.0
 70
    32
  0
VERTEX
  5
910D
  8
AM_0
 10
427.99618013499918
 20
105.5344135756545
 30
0.0
 70
    32
  0
VERTEX
  5
910E
  8
AM_0
 10
427.99318013499908
 20
105.5314135756546
 30
0.0
 70
    32
  0
VERTEX
  5
910F
  8
AM_0
 10
427.99018013499989
 20
105.5274135756548
 30
0.0
 70
    32
  0
VERTEX
  5
9110
  8
AM_0
 10
427.98718013499922
 20
105.52441357565451
 30
0.0
 70
    32
  0
VERTEX
  5
9111
  8
AM_0
 10
427.98418013499912
 20
105.52141357565461
 30
0.0
 70
    32
  0
VERTEX
  5
9112
  8
AM_0
 10
427.98218013499911
 20
105.5184135756548
 30
0.0
 70
    32
  0
VERTEX
  5
9113
  8
AM_0
 10
427.97918013499998
 20
105.5144135756546
 30
0.0
 70
    32
  0
VERTEX
  5
9114
  8
AM_0
 10
427.97618013499982
 20
105.5114135756545
 30
0.0
 70
    32
  0
VERTEX
  5
9115
  8
AM_0
 10
427.9731801349991
 20
105.5084135756547
 30
0.0
 70
    32
  0
VERTEX
  5
9116
  8
AM_0
 10
427.97118013499909
 20
105.5054135756545
 30
0.0
 70
    32
  0
VERTEX
  5
9117
  8
AM_0
 10
427.96818013500081
 20
105.5014135756545
 30
0.0
 70
    32
  0
VERTEX
  5
9118
  8
AM_0
 10
427.96518013499917
 20
105.49841357565479
 30
0.0
 70
    32
  0
VERTEX
  5
9119
  8
AM_0
 10
427.96318013499928
 20
105.4954135756546
 30
0.0
 70
    32
  0
VERTEX
  5
911A
  8
AM_0
 10
427.96018013499958
 20
105.4914135756547
 30
0.0
 70
    32
  0
VERTEX
  5
911B
  8
AM_0
 10
427.95718013499999
 20
105.4884135756546
 30
0.0
 70
    32
  0
VERTEX
  5
911C
  8
AM_0
 10
427.95518013499918
 20
105.4854135756545
 30
0.0
 70
    32
  0
VERTEX
  5
911D
  8
AM_0
 10
427.95218013499988
 20
105.4814135756548
 30
0.0
 70
    32
  0
VERTEX
  5
911E
  8
AM_0
 10
427.9491801349991
 20
105.4784135756546
 30
0.0
 70
    32
  0
VERTEX
  5
911F
  8
AM_0
 10
427.9471801349992
 20
105.4754135756545
 30
0.0
 70
    32
  0
VERTEX
  5
9120
  8
AM_0
 10
427.9441801349991
 20
105.47141357565459
 30
0.0
 70
    32
  0
VERTEX
  5
9121
  8
AM_0
 10
427.94218013499909
 20
105.46841357565479
 30
0.0
 70
    32
  0
VERTEX
  5
9122
  8
AM_0
 10
427.93918013500002
 20
105.4644135756546
 30
0.0
 70
    32
  0
VERTEX
  5
9123
  8
AM_0
 10
427.9361801349998
 20
105.4614135756546
 30
0.0
 70
    32
  0
VERTEX
  5
9124
  8
AM_0
 10
427.93418013499928
 20
105.4584135756548
 30
0.0
 70
    32
  0
VERTEX
  5
9125
  8
AM_0
 10
427.93118013499918
 20
105.4544135756546
 30
0.0
 70
    32
  0
VERTEX
  5
9126
  8
AM_0
 10
427.92918013499963
 20
105.4514135756546
 30
0.0
 70
    32
  0
VERTEX
  5
9127
  8
AM_0
 10
427.92618013499907
 20
105.44741357565439
 30
0.0
 70
    32
  0
VERTEX
  5
9128
  8
AM_0
 10
427.92418013499793
 20
105.44441357565459
 30
0.0
 70
    32
  0
VERTEX
  5
9129
  8
AM_0
 10
427.92118013499987
 20
105.4404135756548
 30
0.0
 70
    32
  0
VERTEX
  5
912A
  8
AM_0
 10
427.91918013499992
 20
105.4374135756545
 30
0.0
 70
    32
  0
VERTEX
  5
912B
  8
AM_0
 10
427.91718013499911
 20
105.4334135756545
 30
0.0
 70
    32
  0
VERTEX
  5
912C
  8
AM_0
 10
427.91418013499992
 20
105.4304135756546
 30
0.0
 70
    32
  0
VERTEX
  5
912D
  8
AM_0
 10
427.91218013499991
 20
105.42641357565461
 30
0.0
 70
    32
  0
VERTEX
  5
912E
  8
AM_0
 10
427.90918013499919
 20
105.42341357565461
 30
0.0
 70
    32
  0
VERTEX
  5
912F
  8
AM_0
 10
427.90718013499981
 20
105.4194135756546
 30
0.0
 70
    32
  0
VERTEX
  5
9130
  8
AM_0
 10
427.90518013499991
 20
105.4154135756544
 30
0.0
 70
    32
  0
VERTEX
  5
9131
  8
AM_0
 10
427.90218013499913
 20
105.4124135756546
 30
0.0
 70
    32
  0
VERTEX
  5
9132
  8
AM_0
 10
427.90018013499969
 20
105.40841357565461
 30
0.0
 70
    32
  0
VERTEX
  5
9133
  8
AM_0
 10
427.89818013499968
 20
105.40541357565461
 30
0.0
 70
    32
  0
VERTEX
  5
9134
  8
AM_0
 10
427.89518013499782
 20
105.4014135756546
 30
0.0
 70
    32
  0
VERTEX
  5
9135
  8
AM_0
 10
427.89318013499911
 20
105.3974135756545
 30
0.0
 70
    32
  0
VERTEX
  5
9136
  8
AM_0
 10
427.89118013499962
 20
105.3944135756546
 30
0.0
 70
    32
  0
VERTEX
  5
9137
  8
AM_0
 10
427.88918013499938
 20
105.3904135756549
 30
0.0
 70
    32
  0
VERTEX
  5
9138
  8
AM_0
 10
427.8861801349978
 20
105.3864135756546
 30
0.0
 70
    32
  0
VERTEX
  5
9139
  8
AM_0
 10
427.88418013499961
 20
105.3834135756545
 30
0.0
 70
    32
  0
VERTEX
  5
913A
  8
AM_0
 10
427.8821801349992
 20
105.3794135756545
 30
0.0
 70
    32
  0
VERTEX
  5
913B
  8
AM_0
 10
427.88018013499919
 20
105.37541357565451
 30
0.0
 70
    32
  0
VERTEX
  5
913C
  8
AM_0
 10
427.87818013499992
 20
105.372413575655
 30
0.0
 70
    32
  0
VERTEX
  5
913D
  8
AM_0
 10
427.87618013499991
 20
105.3684135756546
 30
0.0
 70
    32
  0
VERTEX
  5
913E
  8
AM_0
 10
427.87418013499979
 20
105.36441357565459
 30
0.0
 70
    32
  0
VERTEX
  5
913F
  8
AM_0
 10
427.8711801349998
 20
105.36141357565479
 30
0.0
 70
    32
  0
VERTEX
  5
9140
  8
AM_0
 10
427.86918013499991
 20
105.3574135756545
 30
0.0
 70
    32
  0
VERTEX
  5
9141
  8
AM_0
 10
427.86718013499978
 20
105.3534135756546
 30
0.0
 70
    32
  0
VERTEX
  5
9142
  8
AM_0
 10
427.86518013499989
 20
105.34941357565469
 30
0.0
 70
    32
  0
VERTEX
  5
9143
  8
AM_0
 10
427.86318013499999
 20
105.34641357565459
 30
0.0
 70
    32
  0
VERTEX
  5
9144
  8
AM_0
 10
427.86118013499998
 20
105.3424135756545
 30
0.0
 70
    32
  0
VERTEX
  5
9145
  8
AM_0
 10
427.85918013499918
 20
105.3384135756544
 30
0.0
 70
    32
  0
VERTEX
  5
9146
  8
AM_0
 10
427.85718013499769
 20
105.33441357565459
 30
0.0
 70
    32
  0
VERTEX
  5
9147
  8
AM_0
 10
427.8551801349991
 20
105.3304135756545
 30
0.0
 70
    32
  0
VERTEX
  5
9148
  8
AM_0
 10
427.85418013499998
 20
105.3274135756548
 30
0.0
 70
    32
  0
VERTEX
  5
9149
  8
AM_0
 10
427.85218013500003
 20
105.3234135756548
 30
0.0
 70
    32
  0
VERTEX
  5
914A
  8
AM_0
 10
427.85018013500002
 20
105.31941357565459
 30
0.0
 70
    32
  0
VERTEX
  5
914B
  8
AM_0
 10
427.8481801349991
 20
105.3154135756545
 30
0.0
 70
    32
  0
VERTEX
  5
914C
  8
AM_0
 10
427.84618013499971
 20
105.3114135756545
 30
0.0
 70
    32
  0
VERTEX
  5
914D
  8
AM_0
 10
427.84418013499919
 20
105.30741357565461
 30
0.0
 70
    32
  0
VERTEX
  5
914E
  8
AM_0
 10
427.84318013500001
 20
105.3034135756544
 30
0.0
 70
    32
  0
VERTEX
  5
914F
  8
AM_0
 10
427.84118013499989
 20
105.3004135756548
 30
0.0
 70
    32
  0
VERTEX
  5
9150
  8
AM_0
 10
427.83918013499908
 20
105.2964135756548
 30
0.0
 70
    32
  0
VERTEX
  5
9151
  8
AM_0
 10
427.83718013499907
 20
105.29241357565451
 30
0.0
 70
    32
  0
VERTEX
  5
9152
  8
AM_0
 10
427.83618013499989
 20
105.2884135756545
 30
0.0
 70
    32
  0
VERTEX
  5
9153
  8
AM_0
 10
427.83418013499988
 20
105.2844135756545
 30
0.0
 70
    32
  0
VERTEX
  5
9154
  8
AM_0
 10
427.83218013499987
 20
105.28041357565451
 30
0.0
 70
    32
  0
VERTEX
  5
9155
  8
AM_0
 10
427.83118013499978
 20
105.2764135756546
 30
0.0
 70
    32
  0
VERTEX
  5
9156
  8
AM_0
 10
427.82918013499989
 20
105.2724135756546
 30
0.0
 70
    32
  0
VERTEX
  5
9157
  8
AM_0
 10
427.82718013499988
 20
105.2684135756549
 30
0.0
 70
    32
  0
VERTEX
  5
9158
  8
AM_0
 10
427.82618013499922
 20
105.2644135756546
 30
0.0
 70
    32
  0
VERTEX
  5
9159
  8
AM_0
 10
427.82418013499978
 20
105.26041357565479
 30
0.0
 70
    32
  0
VERTEX
  5
915A
  8
AM_0
 10
427.82318013499992
 20
105.25641357565461
 30
0.0
 70
    32
  0
VERTEX
  5
915B
  8
AM_0
 10
427.82118013499911
 20
105.2524135756544
 30
0.0
 70
    32
  0
VERTEX
  5
915C
  8
AM_0
 10
427.8201801349993
 20
105.2484135756546
 30
0.0
 70
    32
  0
VERTEX
  5
915D
  8
AM_0
 10
427.81818013499992
 20
105.24441357565451
 30
0.0
 70
    32
  0
VERTEX
  5
915E
  8
AM_0
 10
427.81718013499972
 20
105.2404135756546
 30
0.0
 70
    32
  0
VERTEX
  5
915F
  8
AM_0
 10
427.81618013499991
 20
105.23641357565479
 30
0.0
 70
    32
  0
VERTEX
  5
9160
  8
AM_0
 10
427.81418013500002
 20
105.2324135756548
 30
0.0
 70
    32
  0
VERTEX
  5
9161
  8
AM_0
 10
427.81318013499919
 20
105.2284135756546
 30
0.0
 70
    32
  0
VERTEX
  5
9162
  8
AM_0
 10
427.81218013500012
 20
105.22441357565459
 30
0.0
 70
    32
  0
VERTEX
  5
9163
  8
AM_0
 10
427.81018013499909
 20
105.2204135756546
 30
0.0
 70
    32
  0
VERTEX
  5
9164
  8
AM_0
 10
427.80918013499991
 20
105.2164135756544
 30
0.0
 70
    32
  0
VERTEX
  5
9165
  8
AM_0
 10
427.8081801349997
 20
105.21241357565449
 30
0.0
 70
    32
  0
VERTEX
  5
9166
  8
AM_0
 10
427.80718013499978
 20
105.2074135756545
 30
0.0
 70
    32
  0
VERTEX
  5
9167
  8
AM_0
 10
427.80618013499912
 20
105.20341357565449
 30
0.0
 70
    32
  0
VERTEX
  5
9168
  8
AM_0
 10
427.80418013499923
 20
105.1994135756546
 30
0.0
 70
    32
  0
VERTEX
  5
9169
  8
AM_0
 10
427.80318013499999
 20
105.1954135756546
 30
0.0
 70
    32
  0
VERTEX
  5
916A
  8
AM_0
 10
427.80218013499967
 20
105.19141357565491
 30
0.0
 70
    32
  0
VERTEX
  5
916B
  8
AM_0
 10
427.80118013499907
 20
105.1874135756546
 30
0.0
 70
    32
  0
VERTEX
  5
916C
  8
AM_0
 10
427.80018013499989
 20
105.1834135756548
 30
0.0
 70
    32
  0
VERTEX
  5
916D
  8
AM_0
 10
427.79918013499912
 20
105.17941357565461
 30
0.0
 70
    32
  0
VERTEX
  5
916E
  8
AM_0
 10
427.79818013499988
 20
105.1744135756546
 30
0.0
 70
    32
  0
VERTEX
  5
916F
  8
AM_0
 10
427.79718013499911
 20
105.17041357565461
 30
0.0
 70
    32
  0
VERTEX
  5
9170
  8
AM_0
 10
427.79618013499999
 20
105.1664135756545
 30
0.0
 70
    32
  0
VERTEX
  5
9171
  8
AM_0
 10
427.79518013499961
 20
105.1624135756546
 30
0.0
 70
    32
  0
VERTEX
  5
9172
  8
AM_0
 10
427.79418013499992
 20
105.15841357565439
 30
0.0
 70
    32
  0
VERTEX
  5
9173
  8
AM_0
 10
427.79318013499972
 20
105.1544135756546
 30
0.0
 70
    32
  0
VERTEX
  5
9174
  8
AM_0
 10
427.79318013499972
 20
105.14941357565441
 30
0.0
 70
    32
  0
VERTEX
  5
9175
  8
AM_0
 10
427.79218013499911
 20
105.1454135756546
 30
0.0
 70
    32
  0
VERTEX
  5
9176
  8
AM_0
 10
427.79118013499988
 20
105.14141357565479
 30
0.0
 70
    32
  0
VERTEX
  5
9177
  8
AM_0
 10
427.7901801349991
 20
105.13741357565461
 30
0.0
 70
    32
  0
VERTEX
  5
9178
  8
AM_0
 10
427.78918013499992
 20
105.1334135756547
 30
0.0
 70
    32
  0
VERTEX
  5
9179
  8
AM_0
 10
427.78918013499992
 20
105.1284135756548
 30
0.0
 70
    32
  0
VERTEX
  5
917A
  8
AM_0
 10
427.7881801349991
 20
105.1244135756548
 30
0.0
 70
    32
  0
VERTEX
  5
917B
  8
AM_0
 10
427.78718013499991
 20
105.1204135756546
 30
0.0
 70
    32
  0
VERTEX
  5
917C
  8
AM_0
 10
427.78718013499991
 20
105.11641357565451
 30
0.0
 70
    32
  0
VERTEX
  5
917D
  8
AM_0
 10
427.78618013499971
 20
105.11141357565459
 30
0.0
 70
    32
  0
VERTEX
  5
917E
  8
AM_0
 10
427.78518013500002
 20
105.10741357565441
 30
0.0
 70
    32
  0
VERTEX
  5
917F
  8
AM_0
 10
427.78518013500002
 20
105.1034135756546
 30
0.0
 70
    32
  0
VERTEX
  5
9180
  8
AM_0
 10
427.78418013499987
 20
105.09941357565449
 30
0.0
 70
    32
  0
VERTEX
  5
9181
  8
AM_0
 10
427.78418013499987
 20
105.0944135756546
 30
0.0
 70
    32
  0
VERTEX
  5
9182
  8
AM_0
 10
427.78318013500001
 20
105.09041357565449
 30
0.0
 70
    32
  0
VERTEX
  5
9183
  8
AM_0
 10
427.78318013500001
 20
105.0864135756546
 30
0.0
 70
    32
  0
VERTEX
  5
9184
  8
AM_0
 10
427.78218013499992
 20
105.0824135756545
 30
0.0
 70
    32
  0
VERTEX
  5
9185
  8
AM_0
 10
427.78218013499992
 20
105.0774135756546
 30
0.0
 70
    32
  0
VERTEX
  5
9186
  8
AM_0
 10
427.78218013499992
 20
105.0734135756548
 30
0.0
 70
    32
  0
VERTEX
  5
9187
  8
AM_0
 10
427.78118013499778
 20
105.06941357565481
 30
0.0
 70
    32
  0
VERTEX
  5
9188
  8
AM_0
 10
427.78118013499778
 20
105.0654135756546
 30
0.0
 70
    32
  0
VERTEX
  5
9189
  8
AM_0
 10
427.78118013499778
 20
105.06041357565459
 30
0.0
 70
    32
  0
VERTEX
  5
918A
  8
AM_0
 10
427.78118013499778
 20
105.0564135756548
 30
0.0
 70
    32
  0
VERTEX
  5
918B
  8
AM_0
 10
427.7801801349998
 20
105.0524135756546
 30
0.0
 70
    32
  0
VERTEX
  5
918C
  8
AM_0
 10
427.7801801349998
 20
105.04841357565461
 30
0.0
 70
    32
  0
VERTEX
  5
918D
  8
AM_0
 10
427.7801801349998
 20
105.0434135756545
 30
0.0
 70
    32
  0
VERTEX
  5
918E
  8
AM_0
 10
427.7801801349998
 20
105.03941357565451
 30
0.0
 70
    32
  0
VERTEX
  5
918F
  8
AM_0
 10
427.7801801349998
 20
105.0354135756546
 30
0.0
 70
    32
  0
VERTEX
  5
9190
  8
AM_0
 10
427.7801801349998
 20
105.03041357565451
 30
0.0
 70
    32
  0
VERTEX
  5
9191
  8
AM_0
 10
427.7801801349998
 20
105.0264135756546
 30
0.0
 70
    32
  0
VERTEX
  5
9192
  8
AM_0
 10
427.7801801349998
 20
105.0224135756545
 30
0.0
 70
    32
  0
VERTEX
  5
9193
  8
AM_0
 10
427.7801801349998
 20
105.01841357565461
 30
0.0
 70
    32
  0
VERTEX
  5
9194
  8
AM_0
 10
427.7801801349998
 20
105.0134135756545
 30
0.0
 70
    32
  0
VERTEX
  5
9195
  8
AM_0
 10
427.78118013499778
 20
105.00941357565461
 30
0.0
 70
    32
  0
VERTEX
  5
9196
  8
AM_0
 10
427.78118013499778
 20
105.0054135756546
 30
0.0
 70
    32
  0
VERTEX
  5
9197
  8
AM_0
 10
427.78118013499778
 20
105.0014135756546
 30
0.0
 70
    32
  0
VERTEX
  5
9198
  8
AM_0
 10
427.78118013499778
 20
104.9964135756549
 30
0.0
 70
    32
  0
VERTEX
  5
9199
  8
AM_0
 10
427.78218013499992
 20
104.9924135756546
 30
0.0
 70
    32
  0
VERTEX
  5
919A
  8
AM_0
 10
427.78218013499992
 20
104.9884135756546
 30
0.0
 70
    32
  0
VERTEX
  5
919B
  8
AM_0
 10
427.78218013499992
 20
104.9844135756546
 30
0.0
 70
    32
  0
VERTEX
  5
919C
  8
AM_0
 10
427.78318013500001
 20
104.9794135756548
 30
0.0
 70
    32
  0
VERTEX
  5
919D
  8
AM_0
 10
427.78318013500001
 20
104.9754135756544
 30
0.0
 70
    32
  0
VERTEX
  5
919E
  8
AM_0
 10
427.78318013500001
 20
104.97141357565459
 30
0.0
 70
    32
  0
VERTEX
  5
919F
  8
AM_0
 10
427.78418013499987
 20
104.9674135756545
 30
0.0
 70
    32
  0
VERTEX
  5
91A0
  8
AM_0
 10
427.78418013499987
 20
104.96241357565449
 30
0.0
 70
    32
  0
VERTEX
  5
91A1
  8
AM_0
 10
427.78518013500002
 20
104.9584135756546
 30
0.0
 70
    32
  0
VERTEX
  5
91A2
  8
AM_0
 10
427.78518013500002
 20
104.9544135756544
 30
0.0
 70
    32
  0
VERTEX
  5
91A3
  8
AM_0
 10
427.78618013499971
 20
104.95041357565469
 30
0.0
 70
    32
  0
VERTEX
  5
91A4
  8
AM_0
 10
427.78618013499971
 20
104.9454135756545
 30
0.0
 70
    32
  0
VERTEX
  5
91A5
  8
AM_0
 10
427.78718013499991
 20
104.94141357565481
 30
0.0
 70
    32
  0
VERTEX
  5
91A6
  8
AM_0
 10
427.78718013499991
 20
104.9374135756546
 30
0.0
 70
    32
  0
VERTEX
  5
91A7
  8
AM_0
 10
427.7881801349991
 20
104.9334135756548
 30
0.0
 70
    32
  0
VERTEX
  5
91A8
  8
AM_0
 10
427.7881801349991
 20
104.9284135756545
 30
0.0
 70
    32
  0
VERTEX
  5
91A9
  8
AM_0
 10
427.78918013499992
 20
104.9244135756549
 30
0.0
 70
    32
  0
VERTEX
  5
91AA
  8
AM_0
 10
427.78918013499992
 20
104.92041357565481
 30
0.0
 70
    32
  0
VERTEX
  5
91AB
  8
AM_0
 10
427.7901801349991
 20
104.9164135756546
 30
0.0
 70
    32
  0
SEQEND
  5
91AC
  8
AM_0
  0
LINE
  5
91AD
  8
AM_0
 10
440.78022720007431
 20
106.2761502916287
 30
0.0
 11
430.28022720006999
 21
106.2761502916287
 31
0.0
  0
LINE
  5
91AE
  8
AM_0
 10
440.78022720007431
 20
57.565998772611692
 30
0.0
 11
439.31522720007388
 21
48.745998772612147
 31
0.0
  0
POLYLINE
  5
91AF
  8
AM_0
 66
     1
 10
0.0
 20
0.0
 30
0.0
 70
     8
  0
VERTEX
  5
91B0
  8
AM_0
 10
427.7901801349991
 20
60.155813575654513
 30
0.0
 70
    32
  0
VERTEX
  5
91B1
  8
AM_0
 10
427.79118013499988
 20
60.151613575654501
 30
0.0
 70
    32
  0
VERTEX
  5
91B2
  8
AM_0
 10
427.79218013499911
 20
60.147313575654657
 30
0.0
 70
    32
  0
VERTEX
  5
91B3
  8
AM_0
 10
427.79318013499972
 20
60.143113575654972
 30
0.0
 70
    32
  0
VERTEX
  5
91B4
  8
AM_0
 10
427.79418013499992
 20
60.138813575654709
 30
0.0
 70
    32
  0
VERTEX
  5
91B5
  8
AM_0
 10
427.79518013499961
 20
60.134613575654662
 30
0.0
 70
    32
  0
VERTEX
  5
91B6
  8
AM_0
 10
427.79618013499999
 20
60.130313575654661
 30
0.0
 70
    32
  0
VERTEX
  5
91B7
  8
AM_0
 10
427.79718013499911
 20
60.126113575654813
 30
0.0
 70
    32
  0
VERTEX
  5
91B8
  8
AM_0
 10
427.79818013499988
 20
60.121913575654489
 30
0.0
 70
    32
  0
VERTEX
  5
91B9
  8
AM_0
 10
427.79918013499912
 20
60.117613575654659
 30
0.0
 70
    32
  0
VERTEX
  5
91BA
  8
AM_0
 10
427.80018013499989
 20
60.113413575654647
 30
0.0
 70
    32
  0
VERTEX
  5
91BB
  8
AM_0
 10
427.80118013499907
 20
60.109213575654501
 30
0.0
 70
    32
  0
VERTEX
  5
91BC
  8
AM_0
 10
427.80218013499967
 20
60.10491357565467
 30
0.0
 70
    32
  0
VERTEX
  5
91BD
  8
AM_0
 10
427.80318013499999
 20
60.100713575654417
 30
0.0
 70
    32
  0
VERTEX
  5
91BE
  8
AM_0
 10
427.80418013499923
 20
60.096513575654669
 30
0.0
 70
    32
  0
VERTEX
  5
91BF
  8
AM_0
 10
427.805180135
 20
60.092313575654998
 30
0.0
 70
    32
  0
VERTEX
  5
91C0
  8
AM_0
 10
427.80618013499912
 20
60.088113575654688
 30
0.0
 70
    32
  0
VERTEX
  5
91C1
  8
AM_0
 10
427.8081801349997
 20
60.083913575654663
 30
0.0
 70
    32
  0
VERTEX
  5
91C2
  8
AM_0
 10
427.80918013499991
 20
60.079713575654971
 30
0.0
 70
    32
  0
VERTEX
  5
91C3
  8
AM_0
 10
427.81018013499909
 20
60.07561357565482
 30
0.0
 70
    32
  0
VERTEX
  5
91C4
  8
AM_0
 10
427.8111801349998
 20
60.071413575654439
 30
0.0
 70
    32
  0
VERTEX
  5
91C5
  8
AM_0
 10
427.81218013500012
 20
60.067213575654641
 30
0.0
 70
    32
  0
VERTEX
  5
91C6
  8
AM_0
 10
427.81418013500002
 20
60.063113575654647
 30
0.0
 70
    32
  0
VERTEX
  5
91C7
  8
AM_0
 10
427.81518013499982
 20
60.058913575654522
 30
0.0
 70
    32
  0
VERTEX
  5
91C8
  8
AM_0
 10
427.81618013499991
 20
60.054813575654528
 30
0.0
 70
    32
  0
VERTEX
  5
91C9
  8
AM_0
 10
427.81818013499992
 20
60.05071357565469
 30
0.0
 70
    32
  0
VERTEX
  5
91CA
  8
AM_0
 10
427.81918013499779
 20
60.046613575654533
 30
0.0
 70
    32
  0
VERTEX
  5
91CB
  8
AM_0
 10
427.8201801349993
 20
60.042413575654678
 30
0.0
 70
    32
  0
VERTEX
  5
91CC
  8
AM_0
 10
427.82218013499983
 20
60.038413575654658
 30
0.0
 70
    32
  0
VERTEX
  5
91CD
  8
AM_0
 10
427.82318013499992
 20
60.034313575654821
 30
0.0
 70
    32
  0
VERTEX
  5
91CE
  8
AM_0
 10
427.82518013499993
 20
60.030213575654948
 30
0.0
 70
    32
  0
VERTEX
  5
91CF
  8
AM_0
 10
427.82618013499922
 20
60.026113575654662
 30
0.0
 70
    32
  0
VERTEX
  5
91D0
  8
AM_0
 10
427.82818013499912
 20
60.022113575654821
 30
0.0
 70
    32
  0
VERTEX
  5
91D1
  8
AM_0
 10
427.82918013499989
 20
60.018013575654479
 30
0.0
 70
    32
  0
VERTEX
  5
91D2
  8
AM_0
 10
427.83118013499978
 20
60.014013575654808
 30
0.0
 70
    32
  0
VERTEX
  5
91D3
  8
AM_0
 10
427.83318013499979
 20
60.010013575654668
 30
0.0
 70
    32
  0
VERTEX
  5
91D4
  8
AM_0
 10
427.83418013499988
 20
60.006013575654649
 30
0.0
 70
    32
  0
VERTEX
  5
91D5
  8
AM_0
 10
427.83618013499989
 20
60.002013575654708
 30
0.0
 70
    32
  0
VERTEX
  5
91D6
  8
AM_0
 10
427.83818013499979
 20
59.998013575654682
 30
0.0
 70
    32
  0
VERTEX
  5
91D7
  8
AM_0
 10
427.84018013500122
 20
59.994013575654492
 30
0.0
 70
    32
  0
VERTEX
  5
91D8
  8
AM_0
 10
427.84118013499989
 20
59.990113575654497
 30
0.0
 70
    32
  0
VERTEX
  5
91D9
  8
AM_0
 10
427.84318013500001
 20
59.986113575655011
 30
0.0
 70
    32
  0
VERTEX
  5
91DA
  8
AM_0
 10
427.84518013500002
 20
59.982213575654661
 30
0.0
 70
    32
  0
VERTEX
  5
91DB
  8
AM_0
 10
427.84718013499992
 20
59.97821357565465
 30
0.0
 70
    32
  0
VERTEX
  5
91DC
  8
AM_0
 10
427.84918013499981
 20
59.974313575654662
 30
0.0
 70
    32
  0
VERTEX
  5
91DD
  8
AM_0
 10
427.8511801349992
 20
59.970413575654682
 30
0.0
 70
    32
  0
VERTEX
  5
91DE
  8
AM_0
 10
427.85318013499972
 20
59.966513575654503
 30
0.0
 70
    32
  0
VERTEX
  5
91DF
  8
AM_0
 10
427.8551801349991
 20
59.962613575654707
 30
0.0
 70
    32
  0
VERTEX
  5
91E0
  8
AM_0
 10
427.85718013499769
 20
59.958713575654841
 30
0.0
 70
    32
  0
VERTEX
  5
91E1
  8
AM_0
 10
427.85918013499918
 20
59.954813575654491
 30
0.0
 70
    32
  0
VERTEX
  5
91E2
  8
AM_0
 10
427.86118013499998
 20
59.951013575654663
 30
0.0
 70
    32
  0
VERTEX
  5
91E3
  8
AM_0
 10
427.86318013499999
 20
59.947113575654491
 30
0.0
 70
    32
  0
VERTEX
  5
91E4
  8
AM_0
 10
427.86518013499989
 20
59.943313575654813
 30
0.0
 70
    32
  0
VERTEX
  5
91E5
  8
AM_0
 10
427.86718013499978
 20
59.939513575654708
 30
0.0
 70
    32
  0
VERTEX
  5
91E6
  8
AM_0
 10
427.86918013499991
 20
59.935613575654997
 30
0.0
 70
    32
  0
VERTEX
  5
91E7
  8
AM_0
 10
427.8711801349998
 20
59.931813575654537
 30
0.0
 70
    32
  0
VERTEX
  5
91E8
  8
AM_0
 10
427.8731801349993
 20
59.928013575654681
 30
0.0
 70
    32
  0
VERTEX
  5
91E9
  8
AM_0
 10
427.87518013499908
 20
59.924313575654651
 30
0.0
 70
    32
  0
VERTEX
  5
91EA
  8
AM_0
 10
427.87718013499909
 20
59.920513575654681
 30
0.0
 70
    32
  0
VERTEX
  5
91EB
  8
AM_0
 10
427.88018013499919
 20
59.916713575654853
 30
0.0
 70
    32
  0
VERTEX
  5
91EC
  8
AM_0
 10
427.8821801349992
 20
59.913013575654418
 30
0.0
 70
    32
  0
VERTEX
  5
91ED
  8
AM_0
 10
427.88418013499961
 20
59.909213575654682
 30
0.0
 70
    32
  0
VERTEX
  5
91EE
  8
AM_0
 10
427.8861801349978
 20
59.905513575654652
 30
0.0
 70
    32
  0
VERTEX
  5
91EF
  8
AM_0
 10
427.88918013499938
 20
59.901813575654671
 30
0.0
 70
    32
  0
VERTEX
  5
91F0
  8
AM_0
 10
427.89118013499962
 20
59.898013575654538
 30
0.0
 70
    32
  0
VERTEX
  5
91F1
  8
AM_0
 10
427.89318013499911
 20
59.894313575654678
 30
0.0
 70
    32
  0
VERTEX
  5
91F2
  8
AM_0
 10
427.89518013499782
 20
59.890713575654672
 30
0.0
 70
    32
  0
VERTEX
  5
91F3
  8
AM_0
 10
427.89818013499968
 20
59.887013575654962
 30
0.0
 70
    32
  0
VERTEX
  5
91F4
  8
AM_0
 10
427.90018013499969
 20
59.88331357565432
 30
0.0
 70
    32
  0
VERTEX
  5
91F5
  8
AM_0
 10
427.90218013499913
 20
59.879713575654648
 30
0.0
 70
    32
  0
VERTEX
  5
91F6
  8
AM_0
 10
427.90518013499991
 20
59.87601357565466
 30
0.0
 70
    32
  0
VERTEX
  5
91F7
  8
AM_0
 10
427.90718013499981
 20
59.872413575654662
 30
0.0
 70
    32
  0
VERTEX
  5
91F8
  8
AM_0
 10
427.91018013500002
 20
59.868713575654503
 30
0.0
 70
    32
  0
VERTEX
  5
91F9
  8
AM_0
 10
427.91218013499991
 20
59.865113575654682
 30
0.0
 70
    32
  0
VERTEX
  5
91FA
  8
AM_0
 10
427.91418013499992
 20
59.861513575654499
 30
0.0
 70
    32
  0
VERTEX
  5
91FB
  8
AM_0
 10
427.91718013499911
 20
59.857913575654493
 30
0.0
 70
    32
  0
VERTEX
  5
91FC
  8
AM_0
 10
427.91918013499992
 20
59.854413575654689
 30
0.0
 70
    32
  0
VERTEX
  5
91FD
  8
AM_0
 10
427.92218013499962
 20
59.850813575654691
 30
0.0
 70
    32
  0
VERTEX
  5
91FE
  8
AM_0
 10
427.92418013499793
 20
59.84721357565445
 30
0.0
 70
    32
  0
VERTEX
  5
91FF
  8
AM_0
 10
427.92718013499922
 20
59.843713575654817
 30
0.0
 70
    32
  0
VERTEX
  5
9200
  8
AM_0
 10
427.92918013499963
 20
59.840213575654673
 30
0.0
 70
    32
  0
VERTEX
  5
9201
  8
AM_0
 10
427.93218013500001
 20
59.836713575654677
 30
0.0
 70
    32
  0
VERTEX
  5
9202
  8
AM_0
 10
427.93518013499909
 20
59.833113575654693
 30
0.0
 70
    32
  0
VERTEX
  5
9203
  8
AM_0
 10
427.93718013499989
 20
59.829713575654822
 30
0.0
 70
    32
  0
VERTEX
  5
9204
  8
AM_0
 10
427.94018013499772
 20
59.826213575654492
 30
0.0
 70
    32
  0
VERTEX
  5
9205
  8
AM_0
 10
427.94218013499909
 20
59.822713575654689
 30
0.0
 70
    32
  0
VERTEX
  5
9206
  8
AM_0
 10
427.94518013499982
 20
59.819213575654537
 30
0.0
 70
    32
  0
VERTEX
  5
9207
  8
AM_0
 10
427.94818013499997
 20
59.815813575654659
 30
0.0
 70
    32
  0
VERTEX
  5
9208
  8
AM_0
 10
427.95018013499998
 20
59.812313575654677
 30
0.0
 70
    32
  0
VERTEX
  5
9209
  8
AM_0
 10
427.95318013499917
 20
59.808913575654501
 30
0.0
 70
    32
  0
VERTEX
  5
920A
  8
AM_0
 10
427.9561801349991
 20
59.805513575654793
 30
0.0
 70
    32
  0
VERTEX
  5
920B
  8
AM_0
 10
427.95818013499911
 20
59.802113575654488
 30
0.0
 70
    32
  0
VERTEX
  5
920C
  8
AM_0
 10
427.96118013499989
 20
59.798713575654681
 30
0.0
 70
    32
  0
VERTEX
  5
920D
  8
AM_0
 10
427.96418013499908
 20
59.795313575654689
 30
0.0
 70
    32
  0
VERTEX
  5
920E
  8
AM_0
 10
427.96718013499981
 20
59.792013575654821
 30
0.0
 70
    32
  0
VERTEX
  5
920F
  8
AM_0
 10
427.96918013499919
 20
59.788613575654487
 30
0.0
 70
    32
  0
VERTEX
  5
9210
  8
AM_0
 10
427.97218013499929
 20
59.785313575654968
 30
0.0
 70
    32
  0
VERTEX
  5
9211
  8
AM_0
 10
427.97518013500002
 20
59.781913575654713
 30
0.0
 70
    32
  0
VERTEX
  5
9212
  8
AM_0
 10
427.97818013499779
 20
59.778613575654653
 30
0.0
 70
    32
  0
VERTEX
  5
9213
  8
AM_0
 10
427.9801801349991
 20
59.775313575654991
 30
0.0
 70
    32
  0
VERTEX
  5
9214
  8
AM_0
 10
427.98318013499983
 20
59.772013575654668
 30
0.0
 70
    32
  0
VERTEX
  5
9215
  8
AM_0
 10
427.98618013499998
 20
59.768713575654658
 30
0.0
 70
    32
  0
VERTEX
  5
9216
  8
AM_0
 10
427.98918013499912
 20
59.765413575654691
 30
0.0
 70
    32
  0
VERTEX
  5
9217
  8
AM_0
 10
427.99218013499973
 20
59.762113575654674
 30
0.0
 70
    32
  0
VERTEX
  5
9218
  8
AM_0
 10
427.99518013500011
 20
59.758913575654489
 30
0.0
 70
    32
  0
VERTEX
  5
9219
  8
AM_0
 10
427.99818013499907
 20
59.75561357565465
 30
0.0
 70
    32
  0
VERTEX
  5
921A
  8
AM_0
 10
428.0011801349994
 20
59.75241357565465
 30
0.0
 70
    32
  0
VERTEX
  5
921B
  8
AM_0
 10
428.00418013500013
 20
59.749213575655119
 30
0.0
 70
    32
  0
VERTEX
  5
921C
  8
AM_0
 10
428.00618013500002
 20
59.746013575654672
 30
0.0
 70
    32
  0
VERTEX
  5
921D
  8
AM_0
 10
428.00918013499921
 20
59.742813575654452
 30
0.0
 70
    32
  0
VERTEX
  5
921E
  8
AM_0
 10
428.01218013499988
 20
59.739613575654502
 30
0.0
 70
    32
  0
VERTEX
  5
921F
  8
AM_0
 10
428.01518013499992
 20
59.736413575654687
 30
0.0
 70
    32
  0
VERTEX
  5
9220
  8
AM_0
 10
428.01818013499923
 20
59.733213575654538
 30
0.0
 70
    32
  0
VERTEX
  5
9221
  8
AM_0
 10
428.02118013499978
 20
59.730113575654677
 30
0.0
 70
    32
  0
VERTEX
  5
9222
  8
AM_0
 10
428.02418013499988
 20
59.726913575654521
 30
0.0
 70
    32
  0
VERTEX
  5
9223
  8
AM_0
 10
428.0271801349993
 20
59.72381357565466
 30
0.0
 70
    32
  0
VERTEX
  5
9224
  8
AM_0
 10
428.03018013499991
 20
59.720713575654422
 30
0.0
 70
    32
  0
VERTEX
  5
9225
  8
AM_0
 10
428.03318013500001
 20
59.717513575654657
 30
0.0
 70
    32
  0
VERTEX
  5
9226
  8
AM_0
 10
428.0361801349992
 20
59.714413575654419
 30
0.0
 70
    32
  0
VERTEX
  5
9227
  8
AM_0
 10
428.03918013499901
 20
59.711313575654678
 30
0.0
 70
    32
  0
VERTEX
  5
9228
  8
AM_0
 10
428.04218013499923
 20
59.708313575654813
 30
0.0
 70
    32
  0
VERTEX
  5
9229
  8
AM_0
 10
428.04618013499987
 20
59.705213575654682
 30
0.0
 70
    32
  0
VERTEX
  5
922A
  8
AM_0
 10
428.04918013499918
 20
59.702113575654501
 30
0.0
 70
    32
  0
VERTEX
  5
922B
  8
AM_0
 10
428.05218013499911
 20
59.699113575654451
 30
0.0
 70
    32
  0
VERTEX
  5
922C
  8
AM_0
 10
428.05518013499892
 20
59.696013575654661
 30
0.0
 70
    32
  0
VERTEX
  5
922D
  8
AM_0
 10
428.0581801350009
 20
59.693013575654838
 30
0.0
 70
    32
  0
VERTEX
  5
922E
  8
AM_0
 10
428.06118013499918
 20
59.690013575654532
 30
0.0
 70
    32
  0
VERTEX
  5
922F
  8
AM_0
 10
428.06418013499979
 20
59.687013575654639
 30
0.0
 70
    32
  0
VERTEX
  5
9230
  8
AM_0
 10
428.06718013500108
 20
59.68401357565466
 30
0.0
 70
    32
  0
VERTEX
  5
9231
  8
AM_0
 10
428.07118013499911
 20
59.681013575654497
 30
0.0
 70
    32
  0
VERTEX
  5
9232
  8
AM_0
 10
428.07418013499921
 20
59.678013575654688
 30
0.0
 70
    32
  0
VERTEX
  5
9233
  8
AM_0
 10
428.07718013499908
 20
59.675013575654631
 30
0.0
 70
    32
  0
VERTEX
  5
9234
  8
AM_0
 10
428.08018013499913
 20
59.672113575654812
 30
0.0
 70
    32
  0
VERTEX
  5
9235
  8
AM_0
 10
428.08318013499922
 20
59.669113575654642
 30
0.0
 70
    32
  0
VERTEX
  5
9236
  8
AM_0
 10
428.08618013499893
 20
59.66621357565468
 30
0.0
 70
    32
  0
VERTEX
  5
9237
  8
AM_0
 10
428.0901801349994
 20
59.663213575654652
 30
0.0
 70
    32
  0
VERTEX
  5
9238
  8
AM_0
 10
428.0931801349991
 20
59.66031357565452
 30
0.0
 70
    32
  0
VERTEX
  5
9239
  8
AM_0
 10
428.09618013499932
 20
59.657413575654687
 30
0.0
 70
    32
  0
VERTEX
  5
923A
  8
AM_0
 10
428.09918013499941
 20
59.654513575654491
 30
0.0
 70
    32
  0
VERTEX
  5
923B
  8
AM_0
 10
428.10318013499932
 20
59.651613575654672
 30
0.0
 70
    32
  0
VERTEX
  5
923C
  8
AM_0
 10
428.10618013499908
 20
59.648713575654639
 30
0.0
 70
    32
  0
VERTEX
  5
923D
  8
AM_0
 10
428.10918013499912
 20
59.64591357565449
 30
0.0
 70
    32
  0
VERTEX
  5
923E
  8
AM_0
 10
428.11218013499922
 20
59.643013575654997
 30
0.0
 70
    32
  0
VERTEX
  5
923F
  8
AM_0
 10
428.11618013499913
 20
59.64021357565467
 30
0.0
 70
    32
  0
VERTEX
  5
9240
  8
AM_0
 10
428.11918013499968
 20
59.637313575654503
 30
0.0
 70
    32
  0
VERTEX
  5
9241
  8
AM_0
 10
428.12218013500001
 20
59.63451357565468
 30
0.0
 70
    32
  0
VERTEX
  5
9242
  8
AM_0
 10
428.12618013499991
 20
59.631713575654992
 30
0.0
 70
    32
  0
VERTEX
  5
9243
  8
AM_0
 10
428.12918013500001
 20
59.628913575654671
 30
0.0
 70
    32
  0
VERTEX
  5
9244
  8
AM_0
 10
428.1321801349992
 20
59.626113575654529
 30
0.0
 70
    32
  0
VERTEX
  5
9245
  8
AM_0
 10
428.13618013499922
 20
59.623313575654649
 30
0.0
 70
    32
  0
VERTEX
  5
9246
  8
AM_0
 10
428.13918013499921
 20
59.62051357565467
 30
0.0
 70
    32
  0
VERTEX
  5
9247
  8
AM_0
 10
428.14218013499988
 20
59.617713575654967
 30
0.0
 70
    32
  0
VERTEX
  5
9248
  8
AM_0
 10
428.14618013499933
 20
59.615013575654991
 30
0.0
 70
    32
  0
VERTEX
  5
9249
  8
AM_0
 10
428.14918013499988
 20
59.612213575654671
 30
0.0
 70
    32
  0
VERTEX
  5
924A
  8
AM_0
 10
428.1521801349993
 20
59.609513575654432
 30
0.0
 70
    32
  0
VERTEX
  5
924B
  8
AM_0
 10
428.15618013499909
 20
59.60671357565451
 30
0.0
 70
    32
  0
VERTEX
  5
924C
  8
AM_0
 10
428.15918013499942
 20
59.604013575654662
 30
0.0
 70
    32
  0
VERTEX
  5
924D
  8
AM_0
 10
428.1631801349991
 20
59.601313575654437
 30
0.0
 70
    32
  0
VERTEX
  5
924E
  8
AM_0
 10
428.16618013499942
 20
59.598613575654433
 30
0.0
 70
    32
  0
VERTEX
  5
924F
  8
AM_0
 10
428.16918013499918
 20
59.595913575654833
 30
0.0
 70
    32
  0
VERTEX
  5
9250
  8
AM_0
 10
428.17318013499988
 20
59.593213575654822
 30
0.0
 70
    32
  0
VERTEX
  5
9251
  8
AM_0
 10
428.17618013499919
 20
59.59051357565464
 30
0.0
 70
    32
  0
VERTEX
  5
9252
  8
AM_0
 10
428.180180135
 20
59.587913575654447
 30
0.0
 70
    32
  0
VERTEX
  5
9253
  8
AM_0
 10
428.18318013499908
 20
59.585213575654443
 30
0.0
 70
    32
  0
VERTEX
  5
9254
  8
AM_0
 10
428.18718013500001
 20
59.582513575654488
 30
0.0
 70
    32
  0
VERTEX
  5
9255
  8
AM_0
 10
428.19018013499908
 20
59.579913575654807
 30
0.0
 70
    32
  0
VERTEX
  5
9256
  8
AM_0
 10
428.19318013499901
 20
59.577313575654671
 30
0.0
 70
    32
  0
VERTEX
  5
9257
  8
AM_0
 10
428.19718013499931
 20
59.574713575654698
 30
0.0
 70
    32
  0
VERTEX
  5
9258
  8
AM_0
 10
428.20018013499902
 20
59.572013575654523
 30
0.0
 70
    32
  0
VERTEX
  5
9259
  8
AM_0
 10
428.20418013499932
 20
59.56941357565448
 30
0.0
 70
    32
  0
VERTEX
  5
925A
  8
AM_0
 10
428.20718013499908
 20
59.566813575654677
 30
0.0
 70
    32
  0
VERTEX
  5
925B
  8
AM_0
 10
428.21118013499989
 20
59.564313575654531
 30
0.0
 70
    32
  0
VERTEX
  5
925C
  8
AM_0
 10
428.21418013499908
 20
59.561713575654657
 30
0.0
 70
    32
  0
VERTEX
  5
925D
  8
AM_0
 10
428.21818013500001
 20
59.559113575654692
 30
0.0
 70
    32
  0
VERTEX
  5
925E
  8
AM_0
 10
428.22118013499909
 20
59.55661357565468
 30
0.0
 70
    32
  0
VERTEX
  5
925F
  8
AM_0
 10
428.22518013500007
 20
59.554013575654487
 30
0.0
 70
    32
  0
VERTEX
  5
9260
  8
AM_0
 10
428.22818013499921
 20
59.551513575654653
 30
0.0
 70
    32
  0
VERTEX
  5
9261
  8
AM_0
 10
428.23218013499962
 20
59.548913575654971
 30
0.0
 70
    32
  0
VERTEX
  5
9262
  8
AM_0
 10
428.2351801349991
 20
59.546413575654711
 30
0.0
 70
    32
  0
VERTEX
  5
9263
  8
AM_0
 10
428.23918013499917
 20
59.543913575654983
 30
0.0
 70
    32
  0
VERTEX
  5
9264
  8
AM_0
 10
428.24318013499959
 20
59.541413575654538
 30
0.0
 70
    32
  0
VERTEX
  5
9265
  8
AM_0
 10
428.24618013499918
 20
59.538913575654533
 30
0.0
 70
    32
  0
VERTEX
  5
9266
  8
AM_0
 10
428.25018013500107
 20
59.536413575654649
 30
0.0
 70
    32
  0
VERTEX
  5
9267
  8
AM_0
 10
428.25318013499941
 20
59.533913575654651
 30
0.0
 70
    32
  0
VERTEX
  5
9268
  8
AM_0
 10
428.2571801349992
 20
59.531513575654671
 30
0.0
 70
    32
  0
VERTEX
  5
9269
  8
AM_0
 10
428.26018013499902
 20
59.529013575654687
 30
0.0
 70
    32
  0
VERTEX
  5
926A
  8
AM_0
 10
428.26418013499938
 20
59.526613575654657
 30
0.0
 70
    32
  0
VERTEX
  5
926B
  8
AM_0
 10
428.26818013499968
 20
59.524113575654837
 30
0.0
 70
    32
  0
VERTEX
  5
926C
  8
AM_0
 10
428.27118013499938
 20
59.521713575654971
 30
0.0
 70
    32
  0
VERTEX
  5
926D
  8
AM_0
 10
428.27518013499918
 20
59.519313575654451
 30
0.0
 70
    32
  0
VERTEX
  5
926E
  8
AM_0
 10
428.27818013499979
 20
59.51681357565468
 30
0.0
 70
    32
  0
VERTEX
  5
926F
  8
AM_0
 10
428.28218013499941
 20
59.514413575654658
 30
0.0
 70
    32
  0
VERTEX
  5
9270
  8
AM_0
 10
428.28618013499971
 20
59.512013575654677
 30
0.0
 70
    32
  0
VERTEX
  5
9271
  8
AM_0
 10
428.28918013499811
 20
59.509613575654662
 30
0.0
 70
    32
  0
VERTEX
  5
9272
  8
AM_0
 10
428.29318013499932
 20
59.507213575654397
 30
0.0
 70
    32
  0
VERTEX
  5
9273
  8
AM_0
 10
428.29718013499962
 20
59.504913575654641
 30
0.0
 70
    32
  0
VERTEX
  5
9274
  8
AM_0
 10
428.30018013499932
 20
59.502513575654689
 30
0.0
 70
    32
  0
VERTEX
  5
9275
  8
AM_0
 10
428.30418013499963
 20
59.500113575654659
 30
0.0
 70
    32
  0
VERTEX
  5
9276
  8
AM_0
 10
428.3081801349997
 20
59.49781357565449
 30
0.0
 70
    32
  0
VERTEX
  5
9277
  8
AM_0
 10
428.3111801349994
 20
59.495413575654652
 30
0.0
 70
    32
  0
VERTEX
  5
9278
  8
AM_0
 10
428.31518013499982
 20
59.493113575655002
 30
0.0
 70
    32
  0
VERTEX
  5
9279
  8
AM_0
 10
428.31918013499961
 20
59.49081357565467
 30
0.0
 70
    32
  0
VERTEX
  5
927A
  8
AM_0
 10
428.32218013499983
 20
59.488513575654849
 30
0.0
 70
    32
  0
VERTEX
  5
927B
  8
AM_0
 10
428.32618013499962
 20
59.48621357565446
 30
0.0
 70
    32
  0
VERTEX
  5
927C
  8
AM_0
 10
428.33018013499958
 20
59.48381357565448
 30
0.0
 70
    32
  0
VERTEX
  5
927D
  8
AM_0
 10
428.33318013499979
 20
59.481613575654528
 30
0.0
 70
    32
  0
VERTEX
  5
927E
  8
AM_0
 10
428.33718013499958
 20
59.47931357565443
 30
0.0
 70
    32
  0
VERTEX
  5
927F
  8
AM_0
 10
428.34118013499909
 20
59.477013575654489
 30
0.0
 70
    32
  0
VERTEX
  5
9280
  8
AM_0
 10
428.34418013499959
 20
59.474713575654683
 30
0.0
 70
    32
  0
VERTEX
  5
9281
  8
AM_0
 10
428.34818013499972
 20
59.47241357565467
 30
0.0
 70
    32
  0
VERTEX
  5
9282
  8
AM_0
 10
428.35218013499917
 20
59.470213575654661
 30
0.0
 70
    32
  0
VERTEX
  5
9283
  8
AM_0
 10
428.35618013499811
 20
59.467913575654677
 30
0.0
 70
    32
  0
VERTEX
  5
9284
  8
AM_0
 10
428.35918013499918
 20
59.465713575654661
 30
0.0
 70
    32
  0
VERTEX
  5
9285
  8
AM_0
 10
428.36318013499903
 20
59.463513575654652
 30
0.0
 70
    32
  0
VERTEX
  5
9286
  8
AM_0
 10
428.36718013499973
 20
59.461213575654646
 30
0.0
 70
    32
  0
VERTEX
  5
9287
  8
AM_0
 10
428.370180135
 20
59.459013575654517
 30
0.0
 70
    32
  0
VERTEX
  5
9288
  8
AM_0
 10
428.37418013499888
 20
59.456813575654678
 30
0.0
 70
    32
  0
VERTEX
  5
9289
  8
AM_0
 10
428.37818013499992
 20
59.454613575654662
 30
0.0
 70
    32
  0
VERTEX
  5
928A
  8
AM_0
 10
428.38218013499971
 20
59.452413575654639
 30
0.0
 70
    32
  0
VERTEX
  5
928B
  8
AM_0
 10
428.38518013499993
 20
59.450213575654963
 30
0.0
 70
    32
  0
VERTEX
  5
928C
  8
AM_0
 10
428.38918013499972
 20
59.448113575654631
 30
0.0
 70
    32
  0
VERTEX
  5
928D
  8
AM_0
 10
428.39318013499962
 20
59.445913575654671
 30
0.0
 70
    32
  0
VERTEX
  5
928E
  8
AM_0
 10
428.39718013499908
 20
59.443713575654442
 30
0.0
 70
    32
  0
VERTEX
  5
928F
  8
AM_0
 10
428.40118013499909
 20
59.441613575654692
 30
0.0
 70
    32
  0
VERTEX
  5
9290
  8
AM_0
 10
428.40418013499908
 20
59.439413575654839
 30
0.0
 70
    32
  0
VERTEX
  5
9291
  8
AM_0
 10
428.40818013500012
 20
59.437313575654457
 30
0.0
 70
    32
  0
VERTEX
  5
9292
  8
AM_0
 10
428.41218013499991
 20
59.435113575654661
 30
0.0
 70
    32
  0
VERTEX
  5
9293
  8
AM_0
 10
428.41618013499982
 20
59.433013575654499
 30
0.0
 70
    32
  0
VERTEX
  5
9294
  8
AM_0
 10
428.41918013499912
 20
59.430913575654706
 30
0.0
 70
    32
  0
VERTEX
  5
9295
  8
AM_0
 10
428.42318013499988
 20
59.428813575654651
 30
0.0
 70
    32
  0
VERTEX
  5
9296
  8
AM_0
 10
428.42718013499979
 20
59.426713575654489
 30
0.0
 70
    32
  0
VERTEX
  5
9297
  8
AM_0
 10
428.43118013499958
 20
59.424613575654689
 30
0.0
 70
    32
  0
VERTEX
  5
9298
  8
AM_0
 10
428.43518013499909
 20
59.422513575654527
 30
0.0
 70
    32
  0
VERTEX
  5
9299
  8
AM_0
 10
428.43918013499979
 20
59.420413575654479
 30
0.0
 70
    32
  0
VERTEX
  5
929A
  8
AM_0
 10
428.44218013499909
 20
59.418313575654679
 30
0.0
 70
    32
  0
VERTEX
  5
929B
  8
AM_0
 10
428.44618013499962
 20
59.416313575654499
 30
0.0
 70
    32
  0
VERTEX
  5
929C
  8
AM_0
 10
428.45018013499998
 20
59.414213575654962
 30
0.0
 70
    32
  0
VERTEX
  5
929D
  8
AM_0
 10
428.45418013499972
 20
59.412113575654708
 30
0.0
 70
    32
  0
VERTEX
  5
929E
  8
AM_0
 10
428.45818013499979
 20
59.410113575654691
 30
0.0
 70
    32
  0
VERTEX
  5
929F
  8
AM_0
 10
428.46118013499989
 20
59.40801357565465
 30
0.0
 70
    32
  0
VERTEX
  5
92A0
  8
AM_0
 10
428.46518013499991
 20
59.40601357565469
 30
0.0
 70
    32
  0
VERTEX
  5
92A1
  8
AM_0
 10
428.4691801349997
 20
59.404013575654517
 30
0.0
 70
    32
  0
VERTEX
  5
92A2
  8
AM_0
 10
428.4731801349991
 20
59.402013575654671
 30
0.0
 70
    32
  0
VERTEX
  5
92A3
  8
AM_0
 10
428.47718013500003
 20
59.400013575654491
 30
0.0
 70
    32
  0
VERTEX
  5
92A4
  8
AM_0
 10
428.48118013499987
 20
59.398013575654822
 30
0.0
 70
    32
  0
VERTEX
  5
92A5
  8
AM_0
 10
428.48518013499972
 20
59.396013575654642
 30
0.0
 70
    32
  0
VERTEX
  5
92A6
  8
AM_0
 10
428.48818013499999
 20
59.39401357565481
 30
0.0
 70
    32
  0
VERTEX
  5
92A7
  8
AM_0
 10
428.49218013499978
 20
59.392013575654488
 30
0.0
 70
    32
  0
VERTEX
  5
92A8
  8
AM_0
 10
428.49618013499969
 20
59.390013575654677
 30
0.0
 70
    32
  0
VERTEX
  5
92A9
  8
AM_0
 10
428.50018013499908
 20
59.388013575654838
 30
0.0
 70
    32
  0
VERTEX
  5
92AA
  8
AM_0
 10
428.50418013500013
 20
59.38611357565469
 30
0.0
 70
    32
  0
VERTEX
  5
92AB
  8
AM_0
 10
428.50818013499992
 20
59.384113575654681
 30
0.0
 70
    32
  0
VERTEX
  5
92AC
  8
AM_0
 10
428.51218013499982
 20
59.382213575654632
 30
0.0
 70
    32
  0
VERTEX
  5
92AD
  8
AM_0
 10
428.51618013499979
 20
59.380213575654523
 30
0.0
 70
    32
  0
VERTEX
  5
92AE
  8
AM_0
 10
428.52018013499958
 20
59.378313575654659
 30
0.0
 70
    32
  0
VERTEX
  5
92AF
  8
AM_0
 10
428.52318013499979
 20
59.376413575654681
 30
0.0
 70
    32
  0
VERTEX
  5
92B0
  8
AM_0
 10
428.52718013499958
 20
59.37441357565443
 30
0.0
 70
    32
  0
VERTEX
  5
92B1
  8
AM_0
 10
428.53118013499909
 20
59.372513575654473
 30
0.0
 70
    32
  0
VERTEX
  5
92B2
  8
AM_0
 10
428.53518013500002
 20
59.370613575654659
 30
0.0
 70
    32
  0
VERTEX
  5
92B3
  8
AM_0
 10
428.53918013499992
 20
59.36871357565451
 30
0.0
 70
    32
  0
VERTEX
  5
92B4
  8
AM_0
 10
428.54318013499972
 20
59.366813575654831
 30
0.0
 70
    32
  0
VERTEX
  5
92B5
  8
AM_0
 10
428.54718013499911
 20
59.364913575654498
 30
0.0
 70
    32
  0
VERTEX
  5
92B6
  8
AM_0
 10
428.55118013499958
 20
59.363113575654658
 30
0.0
 70
    32
  0
VERTEX
  5
92B7
  8
AM_0
 10
428.555180135
 20
59.361213575654681
 30
0.0
 70
    32
  0
VERTEX
  5
92B8
  8
AM_0
 10
428.55918013499979
 20
59.359313575654653
 30
0.0
 70
    32
  0
VERTEX
  5
92B9
  8
AM_0
 10
428.56318013499919
 20
59.357513575654821
 30
0.0
 70
    32
  0
VERTEX
  5
92BA
  8
AM_0
 10
428.5661801349998
 20
59.355613575654672
 30
0.0
 70
    32
  0
VERTEX
  5
92BB
  8
AM_0
 10
428.57018013499987
 20
59.353813575654662
 30
0.0
 70
    32
  0
VERTEX
  5
92BC
  8
AM_0
 10
428.57418013499972
 20
59.351913575654528
 30
0.0
 70
    32
  0
VERTEX
  5
92BD
  8
AM_0
 10
428.57818013499912
 20
59.350113575654532
 30
0.0
 70
    32
  0
VERTEX
  5
92BE
  8
AM_0
 10
428.58218013499999
 20
59.348313575654501
 30
0.0
 70
    32
  0
VERTEX
  5
92BF
  8
AM_0
 10
428.58618013499989
 20
59.34641357565453
 30
0.0
 70
    32
  0
VERTEX
  5
92C0
  8
AM_0
 10
428.5901801349998
 20
59.344613575654527
 30
0.0
 70
    32
  0
VERTEX
  5
92C1
  8
AM_0
 10
428.59418013499908
 20
59.342813575654631
 30
0.0
 70
    32
  0
VERTEX
  5
92C2
  8
AM_0
 10
428.5981801349991
 20
59.341013575654699
 30
0.0
 70
    32
  0
VERTEX
  5
92C3
  8
AM_0
 10
428.60218013500003
 20
59.339213575654519
 30
0.0
 70
    32
  0
VERTEX
  5
92C4
  8
AM_0
 10
428.60618013499987
 20
59.337413575654523
 30
0.0
 70
    32
  0
VERTEX
  5
92C5
  8
AM_0
 10
428.61018013499978
 20
59.335713575654481
 30
0.0
 70
    32
  0
VERTEX
  5
92C6
  8
AM_0
 10
428.61418013499917
 20
59.333913575654478
 30
0.0
 70
    32
  0
VERTEX
  5
92C7
  8
AM_0
 10
428.61818013499908
 20
59.33211357565466
 30
0.0
 70
    32
  0
VERTEX
  5
92C8
  8
AM_0
 10
428.62218013499989
 20
59.330313575654642
 30
0.0
 70
    32
  0
VERTEX
  5
92C9
  8
AM_0
 10
428.62618013499991
 20
59.328613575654458
 30
0.0
 70
    32
  0
VERTEX
  5
92CA
  8
AM_0
 10
428.63018013499919
 20
59.326813575654498
 30
0.0
 70
    32
  0
VERTEX
  5
92CB
  8
AM_0
 10
428.63418013499972
 20
59.325113575654647
 30
0.0
 70
    32
  0
VERTEX
  5
92CC
  8
AM_0
 10
428.6381801349977
 20
59.323413575654669
 30
0.0
 70
    32
  0
VERTEX
  5
92CD
  8
AM_0
 10
428.64218013499999
 20
59.321613575654681
 30
0.0
 70
    32
  0
VERTEX
  5
92CE
  8
AM_0
 10
428.64618013499933
 20
59.319913575654539
 30
0.0
 70
    32
  0
VERTEX
  5
92CF
  8
AM_0
 10
428.6501801349998
 20
59.318213575654681
 30
0.0
 70
    32
  0
VERTEX
  5
92D0
  8
AM_0
 10
428.65418013499908
 20
59.316513575654973
 30
0.0
 70
    32
  0
VERTEX
  5
92D1
  8
AM_0
 10
428.65818013500001
 20
59.314813575654668
 30
0.0
 70
    32
  0
VERTEX
  5
92D2
  8
AM_0
 10
428.66218013499991
 20
59.313113575654661
 30
0.0
 70
    32
  0
VERTEX
  5
92D3
  8
AM_0
 10
428.66618013499988
 20
59.311413575654448
 30
0.0
 70
    32
  0
VERTEX
  5
92D4
  8
AM_0
 10
428.67018013499921
 20
59.309713575655003
 30
0.0
 70
    32
  0
VERTEX
  5
92D5
  8
AM_0
 10
428.67418013499912
 20
59.30801357565479
 30
0.0
 70
    32
  0
VERTEX
  5
92D6
  8
AM_0
 10
428.67818013499999
 20
59.306313575654663
 30
0.0
 70
    32
  0
VERTEX
  5
92D7
  8
AM_0
 10
428.68218013500081
 20
59.304613575654678
 30
0.0
 70
    32
  0
VERTEX
  5
92D8
  8
AM_0
 10
428.6861801349998
 20
59.303013575654973
 30
0.0
 70
    32
  0
VERTEX
  5
92D9
  8
AM_0
 10
428.69018013499908
 20
59.30131357565466
 30
0.0
 70
    32
  0
VERTEX
  5
92DA
  8
AM_0
 10
428.6941801349991
 20
59.299713575654501
 30
0.0
 70
    32
  0
VERTEX
  5
92DB
  8
AM_0
 10
428.69818013499992
 20
59.298013575654977
 30
0.0
 70
    32
  0
VERTEX
  5
92DC
  8
AM_0
 10
428.70218013499988
 20
59.296413575654682
 30
0.0
 70
    32
  0
VERTEX
  5
92DD
  8
AM_0
 10
428.70618013499922
 20
59.294713575654661
 30
0.0
 70
    32
  0
VERTEX
  5
92DE
  8
AM_0
 10
428.71018013499958
 20
59.293113575654672
 30
0.0
 70
    32
  0
VERTEX
  5
92DF
  8
AM_0
 10
428.71418013499908
 20
59.291513575654513
 30
0.0
 70
    32
  0
VERTEX
  5
92E0
  8
AM_0
 10
428.71818013500081
 20
59.289913575654971
 30
0.0
 70
    32
  0
VERTEX
  5
92E1
  8
AM_0
 10
428.72218013499941
 20
59.288213575654652
 30
0.0
 70
    32
  0
VERTEX
  5
92E2
  8
AM_0
 10
428.72618013499971
 20
59.286613575654528
 30
0.0
 70
    32
  0
VERTEX
  5
92E3
  8
AM_0
 10
428.7301801349991
 20
59.285013575654652
 30
0.0
 70
    32
  0
VERTEX
  5
92E4
  8
AM_0
 10
428.73418013499918
 20
59.283413575654997
 30
0.0
 70
    32
  0
VERTEX
  5
92E5
  8
AM_0
 10
428.73818013499999
 20
59.281913575654698
 30
0.0
 70
    32
  0
VERTEX
  5
92E6
  8
AM_0
 10
428.74218013499978
 20
59.280313575654539
 30
0.0
 70
    32
  0
VERTEX
  5
92E7
  8
AM_0
 10
428.74618013499918
 20
59.27871357565482
 30
0.0
 70
    32
  0
VERTEX
  5
92E8
  8
AM_0
 10
428.75018013499908
 20
59.277113575654653
 30
0.0
 70
    32
  0
VERTEX
  5
92E9
  8
AM_0
 10
428.75418013500001
 20
59.275613575654688
 30
0.0
 70
    32
  0
VERTEX
  5
92EA
  8
AM_0
 10
428.75818013499992
 20
59.274013575654529
 30
0.0
 70
    32
  0
VERTEX
  5
92EB
  8
AM_0
 10
428.76318013500082
 20
59.272413575654809
 30
0.0
 70
    32
  0
VERTEX
  5
92EC
  8
AM_0
 10
428.76718013499999
 20
59.270913575654497
 30
0.0
 70
    32
  0
VERTEX
  5
92ED
  8
AM_0
 10
428.77118013499972
 20
59.269413575654532
 30
0.0
 70
    32
  0
VERTEX
  5
92EE
  8
AM_0
 10
428.77518013499918
 20
59.267813575654657
 30
0.0
 70
    32
  0
VERTEX
  5
92EF
  8
AM_0
 10
428.77918013499908
 20
59.266313575654692
 30
0.0
 70
    32
  0
VERTEX
  5
92F0
  8
AM_0
 10
428.78318013500012
 20
59.264813575654671
 30
0.0
 70
    32
  0
VERTEX
  5
92F1
  8
AM_0
 10
428.78718013499991
 20
59.26321357565449
 30
0.0
 70
    32
  0
VERTEX
  5
92F2
  8
AM_0
 10
428.79118013499931
 20
59.261713575654653
 30
0.0
 70
    32
  0
VERTEX
  5
92F3
  8
AM_0
 10
428.79518013499921
 20
59.260213575654788
 30
0.0
 70
    32
  0
VERTEX
  5
92F4
  8
AM_0
 10
428.79918013499912
 20
59.258713575654497
 30
0.0
 70
    32
  0
VERTEX
  5
92F5
  8
AM_0
 10
428.80318013500079
 20
59.257213575654639
 30
0.0
 70
    32
  0
VERTEX
  5
92F6
  8
AM_0
 10
428.80718013499978
 20
59.255713575654958
 30
0.0
 70
    32
  0
VERTEX
  5
92F7
  8
AM_0
 10
428.8111801349994
 20
59.254213575654532
 30
0.0
 70
    32
  0
VERTEX
  5
92F8
  8
AM_0
 10
428.8151801349992
 20
59.25281357565467
 30
0.0
 70
    32
  0
VERTEX
  5
92F9
  8
AM_0
 10
428.8201801349993
 20
59.251313575654649
 30
0.0
 70
    32
  0
VERTEX
  5
92FA
  8
AM_0
 10
428.8241801349991
 20
59.249813575654457
 30
0.0
 70
    32
  0
VERTEX
  5
92FB
  8
AM_0
 10
428.82818013499917
 20
59.248313575654663
 30
0.0
 70
    32
  0
VERTEX
  5
92FC
  8
AM_0
 10
428.83218013499999
 20
59.246913575654503
 30
0.0
 70
    32
  0
VERTEX
  5
92FD
  8
AM_0
 10
428.83618013499893
 20
59.245413575654823
 30
0.0
 70
    32
  0
VERTEX
  5
92FE
  8
AM_0
 10
428.8401801349998
 20
59.244013575655003
 30
0.0
 70
    32
  0
VERTEX
  5
92FF
  8
AM_0
 10
428.84418013499919
 20
59.242513575654698
 30
0.0
 70
    32
  0
VERTEX
  5
9300
  8
AM_0
 10
428.84818013500092
 20
59.241113575654651
 30
0.0
 70
    32
  0
VERTEX
  5
9301
  8
AM_0
 10
428.85218013499991
 20
59.239713575654548
 30
0.0
 70
    32
  0
VERTEX
  5
9302
  8
AM_0
 10
428.85618013499987
 20
59.238313575654487
 30
0.0
 70
    32
  0
VERTEX
  5
9303
  8
AM_0
 10
428.86118013499998
 20
59.236813575654651
 30
0.0
 70
    32
  0
VERTEX
  5
9304
  8
AM_0
 10
428.86518013499892
 20
59.235413575654661
 30
0.0
 70
    32
  0
VERTEX
  5
9305
  8
AM_0
 10
428.86918013499968
 20
59.234013575654672
 30
0.0
 70
    32
  0
VERTEX
  5
9306
  8
AM_0
 10
428.87318013499907
 20
59.23261357565444
 30
0.0
 70
    32
  0
VERTEX
  5
9307
  8
AM_0
 10
428.87718013499909
 20
59.231213575654678
 30
0.0
 70
    32
  0
VERTEX
  5
9308
  8
AM_0
 10
428.88118013499911
 20
59.229813575654653
 30
0.0
 70
    32
  0
VERTEX
  5
9309
  8
AM_0
 10
428.88518013499981
 20
59.228413575654663
 30
0.0
 70
    32
  0
VERTEX
  5
930A
  8
AM_0
 10
428.88918013499932
 20
59.227013575654659
 30
0.0
 70
    32
  0
VERTEX
  5
930B
  8
AM_0
 10
428.89318013499923
 20
59.225713575654417
 30
0.0
 70
    32
  0
VERTEX
  5
930C
  8
AM_0
 10
428.89818013499939
 20
59.224313575654662
 30
0.0
 70
    32
  0
VERTEX
  5
930D
  8
AM_0
 10
428.9021801349993
 20
59.222913575654843
 30
0.0
 70
    32
  0
VERTEX
  5
930E
  8
AM_0
 10
428.90618013499909
 20
59.221613575654658
 30
0.0
 70
    32
  0
VERTEX
  5
930F
  8
AM_0
 10
428.91018013500002
 20
59.220213575654661
 30
0.0
 70
    32
  0
VERTEX
  5
9310
  8
AM_0
 10
428.91418013499992
 20
59.218913575654639
 30
0.0
 70
    32
  0
VERTEX
  5
9311
  8
AM_0
 10
428.9181801349992
 20
59.21751357565465
 30
0.0
 70
    32
  0
VERTEX
  5
9312
  8
AM_0
 10
428.92218013499922
 20
59.216213575654649
 30
0.0
 70
    32
  0
VERTEX
  5
9313
  8
AM_0
 10
428.92718013499911
 20
59.214913575654471
 30
0.0
 70
    32
  0
VERTEX
  5
9314
  8
AM_0
 10
428.93118013499918
 20
59.21351357565463
 30
0.0
 70
    32
  0
VERTEX
  5
9315
  8
AM_0
 10
428.93518013499909
 20
59.212213575654673
 30
0.0
 70
    32
  0
VERTEX
  5
9316
  8
AM_0
 10
428.93918013499979
 20
59.210913575654438
 30
0.0
 70
    32
  0
VERTEX
  5
9317
  8
AM_0
 10
428.94318013499901
 20
59.209613575654657
 30
0.0
 70
    32
  0
VERTEX
  5
9318
  8
AM_0
 10
428.94718013499943
 20
59.208313575654969
 30
0.0
 70
    32
  0
VERTEX
  5
9319
  8
AM_0
 10
428.95118013499911
 20
59.207013575654692
 30
0.0
 70
    32
  0
VERTEX
  5
931A
  8
AM_0
 10
428.95618013499939
 20
59.205713575654492
 30
0.0
 70
    32
  0
VERTEX
  5
931B
  8
AM_0
 10
428.96018013499912
 20
59.204413575654833
 30
0.0
 70
    32
  0
VERTEX
  5
931C
  8
AM_0
 10
428.96418013499908
 20
59.203113575654697
 30
0.0
 70
    32
  0
VERTEX
  5
931D
  8
AM_0
 10
428.96818013500001
 20
59.201813575654683
 30
0.0
 70
    32
  0
VERTEX
  5
931E
  8
AM_0
 10
428.97218013499941
 20
59.200513575654661
 30
0.0
 70
    32
  0
VERTEX
  5
931F
  8
AM_0
 10
428.9761801349992
 20
59.199313575654791
 30
0.0
 70
    32
  0
VERTEX
  5
9320
  8
AM_0
 10
428.98018013499922
 20
59.19801357565467
 30
0.0
 70
    32
  0
VERTEX
  5
9321
  8
AM_0
 10
428.98518013499921
 20
59.196713575654663
 30
0.0
 70
    32
  0
VERTEX
  5
9322
  8
AM_0
 10
428.98918013499917
 20
59.195513575654672
 30
0.0
 70
    32
  0
VERTEX
  5
9323
  8
AM_0
 10
428.99318013499959
 20
59.194213575654651
 30
0.0
 70
    32
  0
VERTEX
  5
9324
  8
AM_0
 10
428.99718013500001
 20
59.193013575654831
 30
0.0
 70
    32
  0
VERTEX
  5
9325
  8
AM_0
 10
429.00118013499952
 20
59.19171357565466
 30
0.0
 70
    32
  0
VERTEX
  5
9326
  8
AM_0
 10
429.00518013499919
 20
59.190513575654677
 30
0.0
 70
    32
  0
VERTEX
  5
9327
  8
AM_0
 10
429.01018013499879
 20
59.189313575654523
 30
0.0
 70
    32
  0
VERTEX
  5
9328
  8
AM_0
 10
429.01418013499921
 20
59.188013575654487
 30
0.0
 70
    32
  0
VERTEX
  5
9329
  8
AM_0
 10
429.01818013499923
 20
59.186813575654973
 30
0.0
 70
    32
  0
VERTEX
  5
932A
  8
AM_0
 10
429.02218013500089
 20
59.185613575654649
 30
0.0
 70
    32
  0
VERTEX
  5
932B
  8
AM_0
 10
429.02618013499892
 20
59.184413575654489
 30
0.0
 70
    32
  0
VERTEX
  5
932C
  8
AM_0
 10
429.03018013499928
 20
59.18321357565479
 30
0.0
 70
    32
  0
VERTEX
  5
932D
  8
AM_0
 10
429.03518013499991
 20
59.182013575654651
 30
0.0
 70
    32
  0
VERTEX
  5
932E
  8
AM_0
 10
429.03918013499811
 20
59.180813575654497
 30
0.0
 70
    32
  0
VERTEX
  5
932F
  8
AM_0
 10
429.04318013499937
 20
59.179613575654791
 30
0.0
 70
    32
  0
VERTEX
  5
9330
  8
AM_0
 10
429.04718013499968
 20
59.178413575654822
 30
0.0
 70
    32
  0
VERTEX
  5
9331
  8
AM_0
 10
429.05118013499958
 20
59.177213575654662
 30
0.0
 70
    32
  0
VERTEX
  5
9332
  8
AM_0
 10
429.05618013499969
 20
59.176013575654963
 30
0.0
 70
    32
  0
VERTEX
  5
9333
  8
AM_0
 10
429.06018013499948
 20
59.174913575654443
 30
0.0
 70
    32
  0
VERTEX
  5
9334
  8
AM_0
 10
429.06418013499888
 20
59.173713575654681
 30
0.0
 70
    32
  0
VERTEX
  5
9335
  8
AM_0
 10
429.06818013499901
 20
59.172513575654648
 30
0.0
 70
    32
  0
VERTEX
  5
9336
  8
AM_0
 10
429.07218013499931
 20
59.17141357565469
 30
0.0
 70
    32
  0
VERTEX
  5
9337
  8
AM_0
 10
429.07618013499962
 20
59.170213575654991
 30
0.0
 70
    32
  0
VERTEX
  5
9338
  8
AM_0
 10
429.08118013499939
 20
59.169113575654528
 30
0.0
 70
    32
  0
VERTEX
  5
9339
  8
AM_0
 10
429.08518013499958
 20
59.167913575654957
 30
0.0
 70
    32
  0
VERTEX
  5
933A
  8
AM_0
 10
429.08918013499959
 20
59.166813575654551
 30
0.0
 70
    32
  0
VERTEX
  5
933B
  8
AM_0
 10
429.0931801349991
 20
59.16561357565466
 30
0.0
 70
    32
  0
VERTEX
  5
933C
  8
AM_0
 10
429.09718013499952
 20
59.164513575654489
 30
0.0
 70
    32
  0
VERTEX
  5
933D
  8
AM_0
 10
429.10218013499912
 20
59.163413575654992
 30
0.0
 70
    32
  0
VERTEX
  5
933E
  8
AM_0
 10
429.10618013499811
 20
59.16231357565465
 30
0.0
 70
    32
  0
VERTEX
  5
933F
  8
AM_0
 10
429.11018013499978
 20
59.16111357565466
 30
0.0
 70
    32
  0
VERTEX
  5
9340
  8
AM_0
 10
429.11418013499957
 20
59.160013575654659
 30
0.0
 70
    32
  0
VERTEX
  5
9341
  8
AM_0
 10
429.11818013499959
 20
59.158913575654992
 30
0.0
 70
    32
  0
VERTEX
  5
9342
  8
AM_0
 10
429.12318013499959
 20
59.157813575654529
 30
0.0
 70
    32
  0
VERTEX
  5
9343
  8
AM_0
 10
429.12718013499972
 20
59.156713575654678
 30
0.0
 70
    32
  0
VERTEX
  5
9344
  8
AM_0
 10
429.13118013499923
 20
59.155613575654513
 30
0.0
 70
    32
  0
VERTEX
  5
9345
  8
AM_0
 10
429.13518013499902
 20
59.154513575654661
 30
0.0
 70
    32
  0
VERTEX
  5
9346
  8
AM_0
 10
429.14018013499918
 20
59.153513575654692
 30
0.0
 70
    32
  0
VERTEX
  5
9347
  8
AM_0
 10
429.14418013499801
 20
59.152413575654691
 30
0.0
 70
    32
  0
VERTEX
  5
9348
  8
AM_0
 10
429.14818013499979
 20
59.151313575654669
 30
0.0
 70
    32
  0
VERTEX
  5
9349
  8
AM_0
 10
429.1521801349997
 20
59.150213575654497
 30
0.0
 70
    32
  0
VERTEX
  5
934A
  8
AM_0
 10
429.15618013499949
 20
59.149213575654713
 30
0.0
 70
    32
  0
VERTEX
  5
934B
  8
AM_0
 10
429.16118013499971
 20
59.14811357565479
 30
0.0
 70
    32
  0
VERTEX
  5
934C
  8
AM_0
 10
429.16518013499962
 20
59.147113575654821
 30
0.0
 70
    32
  0
VERTEX
  5
934D
  8
AM_0
 10
429.16918013499901
 20
59.14601357565482
 30
0.0
 70
    32
  0
VERTEX
  5
934E
  8
AM_0
 10
429.17318013499988
 20
59.145013575654659
 30
0.0
 70
    32
  0
VERTEX
  5
934F
  8
AM_0
 10
429.17718013499967
 20
59.143913575654672
 30
0.0
 70
    32
  0
VERTEX
  5
9350
  8
AM_0
 10
429.18218013499978
 20
59.142913575654532
 30
0.0
 70
    32
  0
VERTEX
  5
9351
  8
AM_0
 10
429.1861801349998
 20
59.141913575654641
 30
0.0
 70
    32
  0
VERTEX
  5
9352
  8
AM_0
 10
429.19018013499982
 20
59.14081357565464
 30
0.0
 70
    32
  0
VERTEX
  5
9353
  8
AM_0
 10
429.19418013499961
 20
59.139813575654443
 30
0.0
 70
    32
  0
VERTEX
  5
9354
  8
AM_0
 10
429.19918013499978
 20
59.13881357565468
 30
0.0
 70
    32
  0
VERTEX
  5
9355
  8
AM_0
 10
429.20318013499963
 20
59.137813575654661
 30
0.0
 70
    32
  0
VERTEX
  5
9356
  8
AM_0
 10
429.20718013499908
 20
59.136813575654962
 30
0.0
 70
    32
  0
VERTEX
  5
9357
  8
AM_0
 10
429.21118013499989
 20
59.135813575654417
 30
0.0
 70
    32
  0
VERTEX
  5
9358
  8
AM_0
 10
429.2151801349998
 20
59.134813575654441
 30
0.0
 70
    32
  0
VERTEX
  5
9359
  8
AM_0
 10
429.22018013500002
 20
59.133813575654692
 30
0.0
 70
    32
  0
VERTEX
  5
935A
  8
AM_0
 10
429.22418013499981
 20
59.13281357565495
 30
0.0
 70
    32
  0
VERTEX
  5
935B
  8
AM_0
 10
429.22818013499972
 20
59.131813575654689
 30
0.0
 70
    32
  0
VERTEX
  5
935C
  8
AM_0
 10
429.23218013499968
 20
59.130913575654688
 30
0.0
 70
    32
  0
VERTEX
  5
935D
  8
AM_0
 10
429.23718013499922
 20
59.129913575654662
 30
0.0
 70
    32
  0
VERTEX
  5
935E
  8
AM_0
 10
429.24118013499969
 20
59.128913575654678
 30
0.0
 70
    32
  0
VERTEX
  5
935F
  8
AM_0
 10
429.245180135
 20
59.128013575654663
 30
0.0
 70
    32
  0
VERTEX
  5
9360
  8
AM_0
 10
429.24918013499979
 20
59.127013575654701
 30
0.0
 70
    32
  0
VERTEX
  5
9361
  8
AM_0
 10
429.25418013500001
 20
59.126013575654952
 30
0.0
 70
    32
  0
VERTEX
  5
9362
  8
AM_0
 10
429.25818013499992
 20
59.12511357565495
 30
0.0
 70
    32
  0
VERTEX
  5
9363
  8
AM_0
 10
429.26218013499988
 20
59.124113575654462
 30
0.0
 70
    32
  0
VERTEX
  5
9364
  8
AM_0
 10
429.26618013499962
 20
59.123213575654532
 30
0.0
 70
    32
  0
VERTEX
  5
9365
  8
AM_0
 10
429.27118013499978
 20
59.12231357565453
 30
0.0
 70
    32
  0
VERTEX
  5
9366
  8
AM_0
 10
429.27518013499918
 20
59.121313575654973
 30
0.0
 70
    32
  0
VERTEX
  5
9367
  8
AM_0
 10
429.27918013499971
 20
59.120413575654823
 30
0.0
 70
    32
  0
VERTEX
  5
9368
  8
AM_0
 10
429.28318013500012
 20
59.119513575654651
 30
0.0
 70
    32
  0
VERTEX
  5
9369
  8
AM_0
 10
429.28818013499972
 20
59.118613575654649
 30
0.0
 70
    32
  0
VERTEX
  5
936A
  8
AM_0
 10
429.29218013499911
 20
59.117713575654648
 30
0.0
 70
    32
  0
VERTEX
  5
936B
  8
AM_0
 10
429.29618013499987
 20
59.116813575654973
 30
0.0
 70
    32
  0
VERTEX
  5
936C
  8
AM_0
 10
429.30018013499989
 20
59.115913575654631
 30
0.0
 70
    32
  0
VERTEX
  5
936D
  8
AM_0
 10
429.30518013499989
 20
59.1150135756547
 30
0.0
 70
    32
  0
VERTEX
  5
936E
  8
AM_0
 10
429.30918013499991
 20
59.114113575654677
 30
0.0
 70
    32
  0
VERTEX
  5
936F
  8
AM_0
 10
429.3131801349993
 20
59.11321357565469
 30
0.0
 70
    32
  0
VERTEX
  5
9370
  8
AM_0
 10
429.31718013499972
 20
59.112313575654809
 30
0.0
 70
    32
  0
VERTEX
  5
9371
  8
AM_0
 10
429.32218013499983
 20
59.111413575654687
 30
0.0
 70
    32
  0
VERTEX
  5
9372
  8
AM_0
 10
429.32618013499911
 20
59.110513575654693
 30
0.0
 70
    32
  0
VERTEX
  5
9373
  8
AM_0
 10
429.33018013499918
 20
59.109713575654503
 30
0.0
 70
    32
  0
VERTEX
  5
9374
  8
AM_0
 10
429.334180135
 20
59.10881357565443
 30
0.0
 70
    32
  0
VERTEX
  5
9375
  8
AM_0
 10
429.33918013499948
 20
59.107913575654422
 30
0.0
 70
    32
  0
VERTEX
  5
9376
  8
AM_0
 10
429.34318013500001
 20
59.107113575654822
 30
0.0
 70
    32
  0
VERTEX
  5
9377
  8
AM_0
 10
429.34718013499992
 20
59.10621357565482
 30
0.0
 70
    32
  0
VERTEX
  5
9378
  8
AM_0
 10
429.3511801349992
 20
59.10541357565495
 30
0.0
 70
    32
  0
VERTEX
  5
9379
  8
AM_0
 10
429.35618013499987
 20
59.104513575654671
 30
0.0
 70
    32
  0
VERTEX
  5
937A
  8
AM_0
 10
429.36018013499972
 20
59.103713575654517
 30
0.0
 70
    32
  0
VERTEX
  5
937B
  8
AM_0
 10
429.36418013499912
 20
59.102813575654523
 30
0.0
 70
    32
  0
VERTEX
  5
937C
  8
AM_0
 10
429.36818013499908
 20
59.102013575654489
 30
0.0
 70
    32
  0
VERTEX
  5
937D
  8
AM_0
 10
429.37318013499907
 20
59.101213575654469
 30
0.0
 70
    32
  0
VERTEX
  5
937E
  8
AM_0
 10
429.37718013499961
 20
59.100413575654947
 30
0.0
 70
    32
  0
VERTEX
  5
937F
  8
AM_0
 10
429.38118013500002
 20
59.099513575654839
 30
0.0
 70
    32
  0
VERTEX
  5
9380
  8
AM_0
 10
429.38618013499911
 20
59.098713575654529
 30
0.0
 70
    32
  0
VERTEX
  5
9381
  8
AM_0
 10
429.39018013499992
 20
59.097913575654673
 30
0.0
 70
    32
  0
VERTEX
  5
9382
  8
AM_0
 10
429.39418013499989
 20
59.097113575654639
 30
0.0
 70
    32
  0
VERTEX
  5
9383
  8
AM_0
 10
429.39818013499979
 20
59.096313575654833
 30
0.0
 70
    32
  0
VERTEX
  5
9384
  8
AM_0
 10
429.40318013500001
 20
59.09551357565465
 30
0.0
 70
    32
  0
VERTEX
  5
9385
  8
AM_0
 10
429.40718013499981
 20
59.094713575654502
 30
0.0
 70
    32
  0
VERTEX
  5
9386
  8
AM_0
 10
429.4111801349992
 20
59.093913575654639
 30
0.0
 70
    32
  0
VERTEX
  5
9387
  8
AM_0
 10
429.4151801349991
 20
59.093113575654669
 30
0.0
 70
    32
  0
VERTEX
  5
9388
  8
AM_0
 10
429.4201801349991
 20
59.092313575654821
 30
0.0
 70
    32
  0
VERTEX
  5
9389
  8
AM_0
 10
429.42418013499918
 20
59.091613575654662
 30
0.0
 70
    32
  0
VERTEX
  5
938A
  8
AM_0
 10
429.42818013499999
 20
59.090813575654693
 30
0.0
 70
    32
  0
VERTEX
  5
938B
  8
AM_0
 10
429.43318013499783
 20
59.090013575654822
 30
0.0
 70
    32
  0
VERTEX
  5
938C
  8
AM_0
 10
429.43718013500001
 20
59.089213575654689
 30
0.0
 70
    32
  0
VERTEX
  5
938D
  8
AM_0
 10
429.44118013499991
 20
59.088513575654417
 30
0.0
 70
    32
  0
VERTEX
  5
938E
  8
AM_0
 10
429.44518013499987
 20
59.087713575654448
 30
0.0
 70
    32
  0
VERTEX
  5
938F
  8
AM_0
 10
429.45018013499998
 20
59.08701357565451
 30
0.0
 70
    32
  0
VERTEX
  5
9390
  8
AM_0
 10
429.45418013500108
 20
59.086213575654646
 30
0.0
 70
    32
  0
VERTEX
  5
9391
  8
AM_0
 10
429.45818013499922
 20
59.085513575654822
 30
0.0
 70
    32
  0
VERTEX
  5
9392
  8
AM_0
 10
429.46318013499979
 20
59.084713575654689
 30
0.0
 70
    32
  0
VERTEX
  5
9393
  8
AM_0
 10
429.46718013499981
 20
59.084013575654467
 30
0.0
 70
    32
  0
VERTEX
  5
9394
  8
AM_0
 10
429.47118013499772
 20
59.083313575654813
 30
0.0
 70
    32
  0
VERTEX
  5
9395
  8
AM_0
 10
429.47518013500007
 20
59.082513575654502
 30
0.0
 70
    32
  0
VERTEX
  5
9396
  8
AM_0
 10
429.48018013499922
 20
59.081813575654671
 30
0.0
 70
    32
  0
VERTEX
  5
9397
  8
AM_0
 10
429.48418013499912
 20
59.081113575654669
 30
0.0
 70
    32
  0
VERTEX
  5
9398
  8
AM_0
 10
429.48818013499988
 20
59.080413575654688
 30
0.0
 70
    32
  0
VERTEX
  5
9399
  8
AM_0
 10
429.49318013499908
 20
59.079613575654527
 30
0.0
 70
    32
  0
VERTEX
  5
939A
  8
AM_0
 10
429.49718013500001
 20
59.078913575654497
 30
0.0
 70
    32
  0
VERTEX
  5
939B
  8
AM_0
 10
429.50118013499991
 20
59.078213575654672
 30
0.0
 70
    32
  0
VERTEX
  5
939C
  8
AM_0
 10
429.50518013499959
 20
59.077513575654677
 30
0.0
 70
    32
  0
VERTEX
  5
939D
  8
AM_0
 10
429.51018013499902
 20
59.076813575654512
 30
0.0
 70
    32
  0
VERTEX
  5
939E
  8
AM_0
 10
429.51418013499978
 20
59.076113575654787
 30
0.0
 70
    32
  0
VERTEX
  5
939F
  8
AM_0
 10
429.51818013499923
 20
59.075413575654679
 30
0.0
 70
    32
  0
VERTEX
  5
93A0
  8
AM_0
 10
429.52318013499911
 20
59.074813575654659
 30
0.0
 70
    32
  0
VERTEX
  5
93A1
  8
AM_0
 10
429.5271801349993
 20
59.074113575654501
 30
0.0
 70
    32
  0
VERTEX
  5
93A2
  8
AM_0
 10
429.53118013499909
 20
59.073413575654669
 30
0.0
 70
    32
  0
VERTEX
  5
93A3
  8
AM_0
 10
429.53518013500002
 20
59.072713575654689
 30
0.0
 70
    32
  0
VERTEX
  5
93A4
  8
AM_0
 10
429.5401801349991
 20
59.0720135756548
 30
0.0
 70
    32
  0
VERTEX
  5
93A5
  8
AM_0
 10
429.54418013500072
 20
59.071413575654503
 30
0.0
 70
    32
  0
VERTEX
  5
93A6
  8
AM_0
 10
429.54818013499892
 20
59.070713575654679
 30
0.0
 70
    32
  0
VERTEX
  5
93A7
  8
AM_0
 10
429.55318013500079
 20
59.070113575654652
 30
0.0
 70
    32
  0
VERTEX
  5
93A8
  8
AM_0
 10
429.55718013499978
 20
59.06941357565465
 30
0.0
 70
    32
  0
VERTEX
  5
93A9
  8
AM_0
 10
429.5611801349994
 20
59.068713575654442
 30
0.0
 70
    32
  0
VERTEX
  5
93AA
  8
AM_0
 10
429.56518013499908
 20
59.06811357565465
 30
0.0
 70
    32
  0
VERTEX
  5
93AB
  8
AM_0
 10
429.5701801349993
 20
59.067513575654793
 30
0.0
 70
    32
  0
VERTEX
  5
93AC
  8
AM_0
 10
429.57418013499972
 20
59.066813575654457
 30
0.0
 70
    32
  0
VERTEX
  5
93AD
  8
AM_0
 10
429.57818013499912
 20
59.066213575654672
 30
0.0
 70
    32
  0
VERTEX
  5
93AE
  8
AM_0
 10
429.58318013499922
 20
59.06551357565445
 30
0.0
 70
    32
  0
VERTEX
  5
93AF
  8
AM_0
 10
429.58718013499907
 20
59.064913575654657
 30
0.0
 70
    32
  0
VERTEX
  5
93B0
  8
AM_0
 10
429.59118013499989
 20
59.064313575654523
 30
0.0
 70
    32
  0
VERTEX
  5
93B1
  8
AM_0
 10
429.59618013499909
 20
59.063713575654432
 30
0.0
 70
    32
  0
VERTEX
  5
93B2
  8
AM_0
 10
429.60018013500002
 20
59.06311357565464
 30
0.0
 70
    32
  0
VERTEX
  5
93B3
  8
AM_0
 10
429.60418013499992
 20
59.062413575655
 30
0.0
 70
    32
  0
VERTEX
  5
93B4
  8
AM_0
 10
429.60918013499918
 20
59.061813575654469
 30
0.0
 70
    32
  0
VERTEX
  5
93B5
  8
AM_0
 10
429.61318013499988
 20
59.061213575654662
 30
0.0
 70
    32
  0
VERTEX
  5
93B6
  8
AM_0
 10
429.61718013499927
 20
59.06061357565482
 30
0.0
 70
    32
  0
VERTEX
  5
93B7
  8
AM_0
 10
429.62118013499918
 20
59.060013575654679
 30
0.0
 70
    32
  0
VERTEX
  5
93B8
  8
AM_0
 10
429.62618013499991
 20
59.059413575654673
 30
0.0
 70
    32
  0
VERTEX
  5
93B9
  8
AM_0
 10
429.63018013499942
 20
59.058813575654661
 30
0.0
 70
    32
  0
VERTEX
  5
93BA
  8
AM_0
 10
429.63418013500109
 20
59.05821357565469
 30
0.0
 70
    32
  0
VERTEX
  5
93BB
  8
AM_0
 10
429.63918013499938
 20
59.057713575654638
 30
0.0
 70
    32
  0
VERTEX
  5
93BC
  8
AM_0
 10
429.64318013499911
 20
59.057113575654512
 30
0.0
 70
    32
  0
VERTEX
  5
93BD
  8
AM_0
 10
429.64718013499908
 20
59.056513575654662
 30
0.0
 70
    32
  0
VERTEX
  5
93BE
  8
AM_0
 10
429.65218013499913
 20
59.055913575654692
 30
0.0
 70
    32
  0
VERTEX
  5
93BF
  8
AM_0
 10
429.65618013499909
 20
59.05541357565464
 30
0.0
 70
    32
  0
VERTEX
  5
93C0
  8
AM_0
 10
429.66018013500002
 20
59.054813575654691
 30
0.0
 70
    32
  0
VERTEX
  5
93C1
  8
AM_0
 10
429.66418013499981
 20
59.054213575654437
 30
0.0
 70
    32
  0
VERTEX
  5
93C2
  8
AM_0
 10
429.66918013499912
 20
59.053713575654669
 30
0.0
 70
    32
  0
VERTEX
  5
93C3
  8
AM_0
 10
429.67318013499988
 20
59.053113575654663
 30
0.0
 70
    32
  0
VERTEX
  5
93C4
  8
AM_0
 10
429.67718013499939
 20
59.052613575654497
 30
0.0
 70
    32
  0
VERTEX
  5
93C5
  8
AM_0
 10
429.68218013499978
 20
59.052013575654662
 30
0.0
 70
    32
  0
VERTEX
  5
93C6
  8
AM_0
 10
429.6861801349994
 20
59.051513575654432
 30
0.0
 70
    32
  0
VERTEX
  5
93C7
  8
AM_0
 10
429.6901801349992
 20
59.051013575654451
 30
0.0
 70
    32
  0
VERTEX
  5
93C8
  8
AM_0
 10
429.69518013499982
 20
59.050413575654652
 30
0.0
 70
    32
  0
VERTEX
  5
93C9
  8
AM_0
 10
429.6991801349991
 20
59.0499135756545
 30
0.0
 70
    32
  0
VERTEX
  5
93CA
  8
AM_0
 10
429.70318013499917
 20
59.049413575654668
 30
0.0
 70
    32
  0
VERTEX
  5
93CB
  8
AM_0
 10
429.70818013499922
 20
59.048813575654421
 30
0.0
 70
    32
  0
VERTEX
  5
93CC
  8
AM_0
 10
429.71218013499919
 20
59.048313575654447
 30
0.0
 70
    32
  0
VERTEX
  5
93CD
  8
AM_0
 10
429.71618013499989
 20
59.047813575654459
 30
0.0
 70
    32
  0
VERTEX
  5
93CE
  8
AM_0
 10
429.72118013499909
 20
59.047313575654698
 30
0.0
 70
    32
  0
VERTEX
  5
93CF
  8
AM_0
 10
429.7251801349999
 20
59.046813575654831
 30
0.0
 70
    32
  0
VERTEX
  5
93D0
  8
AM_0
 10
429.72918013499918
 20
59.046313575654487
 30
0.0
 70
    32
  0
VERTEX
  5
93D1
  8
AM_0
 10
429.73418013499912
 20
59.045813575654677
 30
0.0
 70
    32
  0
VERTEX
  5
93D2
  8
AM_0
 10
429.73818013499908
 20
59.045313575654689
 30
0.0
 70
    32
  0
VERTEX
  5
93D3
  8
AM_0
 10
429.74218013499939
 20
59.044813575654707
 30
0.0
 70
    32
  0
VERTEX
  5
93D4
  8
AM_0
 10
429.74618013499918
 20
59.044313575654421
 30
0.0
 70
    32
  0
VERTEX
  5
93D5
  8
AM_0
 10
429.7511801349994
 20
59.04381357565466
 30
0.0
 70
    32
  0
VERTEX
  5
93D6
  8
AM_0
 10
429.75518013499919
 20
59.043413575654533
 30
0.0
 70
    32
  0
VERTEX
  5
93D7
  8
AM_0
 10
429.75918013500092
 20
59.042913575654651
 30
0.0
 70
    32
  0
VERTEX
  5
93D8
  8
AM_0
 10
429.76418013499932
 20
59.04241357565467
 30
0.0
 70
    32
  0
VERTEX
  5
93D9
  8
AM_0
 10
429.76818013499923
 20
59.042013575654479
 30
0.0
 70
    32
  0
VERTEX
  5
93DA
  8
AM_0
 10
429.77218013500078
 20
59.041513575654491
 30
0.0
 70
    32
  0
VERTEX
  5
93DB
  8
AM_0
 10
429.7771801349993
 20
59.041013575654688
 30
0.0
 70
    32
  0
VERTEX
  5
93DC
  8
AM_0
 10
429.7811801349996
 20
59.04061357565466
 30
0.0
 70
    32
  0
VERTEX
  5
93DD
  8
AM_0
 10
429.78518013500002
 20
59.040213575654533
 30
0.0
 70
    32
  0
VERTEX
  5
93DE
  8
AM_0
 10
429.79018013499962
 20
59.039713575654673
 30
0.0
 70
    32
  0
VERTEX
  5
93DF
  8
AM_0
 10
429.79418013499992
 20
59.03931357565466
 30
0.0
 70
    32
  0
VERTEX
  5
93E0
  8
AM_0
 10
429.79818013499892
 20
59.038813575654437
 30
0.0
 70
    32
  0
VERTEX
  5
93E1
  8
AM_0
 10
429.80318013499988
 20
59.038413575654658
 30
0.0
 70
    32
  0
VERTEX
  5
93E2
  8
AM_0
 10
429.80718013499887
 20
59.038013575654396
 30
0.0
 70
    32
  0
VERTEX
  5
93E3
  8
AM_0
 10
429.81118013499918
 20
59.037613575654532
 30
0.0
 70
    32
  0
VERTEX
  5
93E4
  8
AM_0
 10
429.81618013500002
 20
59.037113575654537
 30
0.0
 70
    32
  0
VERTEX
  5
93E5
  8
AM_0
 10
429.82018013499942
 20
59.036713575654517
 30
0.0
 70
    32
  0
VERTEX
  5
93E6
  8
AM_0
 10
429.82418013499921
 20
59.036313575654653
 30
0.0
 70
    32
  0
VERTEX
  5
93E7
  8
AM_0
 10
429.82918013499938
 20
59.035913575654661
 30
0.0
 70
    32
  0
VERTEX
  5
93E8
  8
AM_0
 10
429.83318013499922
 20
59.035513575654967
 30
0.0
 70
    32
  0
VERTEX
  5
93E9
  8
AM_0
 10
429.8371801349997
 20
59.035113575654691
 30
0.0
 70
    32
  0
VERTEX
  5
93EA
  8
AM_0
 10
429.84218013499918
 20
59.034713575654678
 30
0.0
 70
    32
  0
VERTEX
  5
93EB
  8
AM_0
 10
429.84618013499971
 20
59.034413575654519
 30
0.0
 70
    32
  0
VERTEX
  5
93EC
  8
AM_0
 10
429.85018013499911
 20
59.034013575654669
 30
0.0
 70
    32
  0
VERTEX
  5
93ED
  8
AM_0
 10
429.85518013499961
 20
59.033613575654947
 30
0.0
 70
    32
  0
VERTEX
  5
93EE
  8
AM_0
 10
429.85918013499912
 20
59.033213575654663
 30
0.0
 70
    32
  0
VERTEX
  5
93EF
  8
AM_0
 10
429.86318013499999
 20
59.032913575654682
 30
0.0
 70
    32
  0
VERTEX
  5
93F0
  8
AM_0
 10
429.86818013499959
 20
59.032513575654662
 30
0.0
 70
    32
  0
VERTEX
  5
93F1
  8
AM_0
 10
429.8721801349991
 20
59.032113575654648
 30
0.0
 70
    32
  0
VERTEX
  5
93F2
  8
AM_0
 10
429.87618013499952
 20
59.03181357565466
 30
0.0
 70
    32
  0
VERTEX
  5
93F3
  8
AM_0
 10
429.88118013499911
 20
59.031413575654639
 30
0.0
 70
    32
  0
VERTEX
  5
93F4
  8
AM_0
 10
429.8851801349989
 20
59.031113575654672
 30
0.0
 70
    32
  0
VERTEX
  5
93F5
  8
AM_0
 10
429.88918013499978
 20
59.030813575654527
 30
0.0
 70
    32
  0
VERTEX
  5
93F6
  8
AM_0
 10
429.89418013499892
 20
59.030413575654499
 30
0.0
 70
    32
  0
VERTEX
  5
93F7
  8
AM_0
 10
429.89818013499979
 20
59.030113575654809
 30
0.0
 70
    32
  0
VERTEX
  5
93F8
  8
AM_0
 10
429.90218013499958
 20
59.029813575655012
 30
0.0
 70
    32
  0
VERTEX
  5
93F9
  8
AM_0
 10
429.90718013499981
 20
59.029513575654491
 30
0.0
 70
    32
  0
VERTEX
  5
93FA
  8
AM_0
 10
429.9111801349996
 20
59.029113575654833
 30
0.0
 70
    32
  0
VERTEX
  5
93FB
  8
AM_0
 10
429.91518013499967
 20
59.028813575654681
 30
0.0
 70
    32
  0
VERTEX
  5
93FC
  8
AM_0
 10
429.92018013499973
 20
59.028513575654522
 30
0.0
 70
    32
  0
VERTEX
  5
93FD
  8
AM_0
 10
429.92418013499969
 20
59.028213575654661
 30
0.0
 70
    32
  0
VERTEX
  5
93FE
  8
AM_0
 10
429.92818013499908
 20
59.027913575654679
 30
0.0
 70
    32
  0
VERTEX
  5
93FF
  8
AM_0
 10
429.9331801349997
 20
59.027613575654698
 30
0.0
 70
    32
  0
VERTEX
  5
9400
  8
AM_0
 10
429.93718013500001
 20
59.027313575654659
 30
0.0
 70
    32
  0
VERTEX
  5
9401
  8
AM_0
 10
429.94118013499821
 20
59.027013575654678
 30
0.0
 70
    32
  0
VERTEX
  5
9402
  8
AM_0
 10
429.94618013499962
 20
59.026713575654519
 30
0.0
 70
    32
  0
VERTEX
  5
9403
  8
AM_0
 10
429.95018013499907
 20
59.026513575654789
 30
0.0
 70
    32
  0
VERTEX
  5
9404
  8
AM_0
 10
429.95418013499989
 20
59.026213575654651
 30
0.0
 70
    32
  0
VERTEX
  5
9405
  8
AM_0
 10
429.95918013499909
 20
59.025913575654499
 30
0.0
 70
    32
  0
VERTEX
  5
9406
  8
AM_0
 10
429.96318013499979
 20
59.025613575654788
 30
0.0
 70
    32
  0
VERTEX
  5
9407
  8
AM_0
 10
429.96718013499969
 20
59.025413575654497
 30
0.0
 70
    32
  0
VERTEX
  5
9408
  8
AM_0
 10
429.97218013499992
 20
59.025113575654707
 30
0.0
 70
    32
  0
VERTEX
  5
9409
  8
AM_0
 10
429.97618013499982
 20
59.024913575654523
 30
0.0
 70
    32
  0
VERTEX
  5
940A
  8
AM_0
 10
429.98018013499922
 20
59.024613575654811
 30
0.0
 70
    32
  0
VERTEX
  5
940B
  8
AM_0
 10
429.98518013499978
 20
59.024413575654641
 30
0.0
 70
    32
  0
VERTEX
  5
940C
  8
AM_0
 10
429.98918013499957
 20
59.024113575654489
 30
0.0
 70
    32
  0
VERTEX
  5
940D
  8
AM_0
 10
429.99318013499908
 20
59.02391357565466
 30
0.0
 70
    32
  0
VERTEX
  5
940E
  8
AM_0
 10
429.99818013499959
 20
59.023613575654451
 30
0.0
 70
    32
  0
VERTEX
  5
940F
  8
AM_0
 10
430.00218013499909
 20
59.023413575654672
 30
0.0
 70
    32
  0
VERTEX
  5
9410
  8
AM_0
 10
430.00618013500002
 20
59.023213575654481
 30
0.0
 70
    32
  0
VERTEX
  5
9411
  8
AM_0
 10
430.01118013499911
 20
59.023013575654659
 30
0.0
 70
    32
  0
VERTEX
  5
9412
  8
AM_0
 10
430.01518013499998
 20
59.022713575654493
 30
0.0
 70
    32
  0
VERTEX
  5
9413
  8
AM_0
 10
430.01918013499989
 20
59.022513575654671
 30
0.0
 70
    32
  0
VERTEX
  5
9414
  8
AM_0
 10
430.02418013499999
 20
59.022313575654479
 30
0.0
 70
    32
  0
VERTEX
  5
9415
  8
AM_0
 10
430.02818013499979
 20
59.022113575654821
 30
0.0
 70
    32
  0
VERTEX
  5
9416
  8
AM_0
 10
430.03218013499992
 20
59.021913575654651
 30
0.0
 70
    32
  0
VERTEX
  5
9417
  8
AM_0
 10
430.0371801349998
 20
59.021713575654708
 30
0.0
 70
    32
  0
VERTEX
  5
9418
  8
AM_0
 10
430.04118013499988
 20
59.02151357565468
 30
0.0
 70
    32
  0
VERTEX
  5
9419
  8
AM_0
 10
430.04518013499961
 20
59.021313575654688
 30
0.0
 70
    32
  0
VERTEX
  5
941A
  8
AM_0
 10
430.05018013499989
 20
59.021113575654958
 30
0.0
 70
    32
  0
VERTEX
  5
941B
  8
AM_0
 10
430.05418013499963
 20
59.02091357565449
 30
0.0
 70
    32
  0
VERTEX
  5
941C
  8
AM_0
 10
430.0581801349997
 20
59.020713575654838
 30
0.0
 70
    32
  0
VERTEX
  5
941D
  8
AM_0
 10
430.06318013499919
 20
59.020513575654533
 30
0.0
 70
    32
  0
VERTEX
  5
941E
  8
AM_0
 10
430.06718013499972
 20
59.020313575654981
 30
0.0
 70
    32
  0
VERTEX
  5
941F
  8
AM_0
 10
430.07118013499911
 20
59.02021357565485
 30
0.0
 70
    32
  0
VERTEX
  5
9420
  8
AM_0
 10
430.07618013499962
 20
59.020013575654488
 30
0.0
 70
    32
  0
VERTEX
  5
9421
  8
AM_0
 10
430.08018013499913
 20
59.019813575654958
 30
0.0
 70
    32
  0
VERTEX
  5
9422
  8
AM_0
 10
430.08518013499918
 20
59.019713575654691
 30
0.0
 70
    32
  0
VERTEX
  5
9423
  8
AM_0
 10
430.08918013499971
 20
59.0195135756545
 30
0.0
 70
    32
  0
VERTEX
  5
9424
  8
AM_0
 10
430.09318013499978
 20
59.019313575654962
 30
0.0
 70
    32
  0
VERTEX
  5
9425
  8
AM_0
 10
430.0981801349991
 20
59.019213575654639
 30
0.0
 70
    32
  0
VERTEX
  5
9426
  8
AM_0
 10
430.10218013500003
 20
59.019013575654711
 30
0.0
 70
    32
  0
VERTEX
  5
9427
  8
AM_0
 10
430.10618013499987
 20
59.018913575654821
 30
0.0
 70
    32
  0
VERTEX
  5
9428
  8
AM_0
 10
430.11118013499998
 20
59.018713575654537
 30
0.0
 70
    32
  0
VERTEX
  5
9429
  8
AM_0
 10
430.11518013499989
 20
59.018613575654513
 30
0.0
 70
    32
  0
VERTEX
  5
942A
  8
AM_0
 10
430.11918013499991
 20
59.018513575654652
 30
0.0
 70
    32
  0
VERTEX
  5
942B
  8
AM_0
 10
430.12418013499979
 20
59.018313575654631
 30
0.0
 70
    32
  0
VERTEX
  5
942C
  8
AM_0
 10
430.12818013499992
 20
59.018213575654499
 30
0.0
 70
    32
  0
VERTEX
  5
942D
  8
AM_0
 10
430.1321801349992
 20
59.018113575654702
 30
0.0
 70
    32
  0
VERTEX
  5
942E
  8
AM_0
 10
430.13718013499988
 20
59.018013575654649
 30
0.0
 70
    32
  0
VERTEX
  5
942F
  8
AM_0
 10
430.14118013499962
 20
59.017913575654461
 30
0.0
 70
    32
  0
VERTEX
  5
9430
  8
AM_0
 10
430.14518013499912
 20
59.017813575654543
 30
0.0
 70
    32
  0
VERTEX
  5
9431
  8
AM_0
 10
430.15018013499969
 20
59.017613575654821
 30
0.0
 70
    32
  0
VERTEX
  5
9432
  8
AM_0
 10
430.15418013499908
 20
59.017513575654831
 30
0.0
 70
    32
  0
VERTEX
  5
9433
  8
AM_0
 10
430.15818013500012
 20
59.0174135756547
 30
0.0
 70
    32
  0
VERTEX
  5
9434
  8
AM_0
 10
430.16318013499921
 20
59.017313575654441
 30
0.0
 70
    32
  0
VERTEX
  5
9435
  8
AM_0
 10
430.16718013499781
 20
59.017313575654441
 30
0.0
 70
    32
  0
VERTEX
  5
9436
  8
AM_0
 10
430.17118013499987
 20
59.017213575654687
 30
0.0
 70
    32
  0
VERTEX
  5
9437
  8
AM_0
 10
430.17618013499771
 20
59.017113575655003
 30
0.0
 70
    32
  0
VERTEX
  5
9438
  8
AM_0
 10
430.18018013499989
 20
59.017013575654673
 30
0.0
 70
    32
  0
VERTEX
  5
9439
  8
AM_0
 10
430.18418013499991
 20
59.016913575654641
 30
0.0
 70
    32
  0
VERTEX
  5
943A
  8
AM_0
 10
430.18918013500002
 20
59.016913575654641
 30
0.0
 70
    32
  0
VERTEX
  5
943B
  8
AM_0
 10
430.19318013499992
 20
59.01681357565468
 30
0.0
 70
    32
  0
VERTEX
  5
943C
  8
AM_0
 10
430.19718013499983
 20
59.016713575654649
 30
0.0
 70
    32
  0
VERTEX
  5
943D
  8
AM_0
 10
430.20218013499988
 20
59.016713575654649
 30
0.0
 70
    32
  0
VERTEX
  5
943E
  8
AM_0
 10
430.2061801349991
 20
59.016613575654972
 30
0.0
 70
    32
  0
VERTEX
  5
943F
  8
AM_0
 10
430.21118013499989
 20
59.016513575654677
 30
0.0
 70
    32
  0
VERTEX
  5
9440
  8
AM_0
 10
430.21518013499912
 20
59.016513575654677
 30
0.0
 70
    32
  0
VERTEX
  5
9441
  8
AM_0
 10
430.2191801349997
 20
59.016413575654482
 30
0.0
 70
    32
  0
VERTEX
  5
9442
  8
AM_0
 10
430.22418013499993
 20
59.016413575654482
 30
0.0
 70
    32
  0
VERTEX
  5
9443
  8
AM_0
 10
430.22818013499921
 20
59.016313575654678
 30
0.0
 70
    32
  0
VERTEX
  5
9444
  8
AM_0
 10
430.23218013499911
 20
59.016313575654678
 30
0.0
 70
    32
  0
VERTEX
  5
9445
  8
AM_0
 10
430.23718013499922
 20
59.016213575654831
 30
0.0
 70
    32
  0
VERTEX
  5
9446
  8
AM_0
 10
430.24118013499913
 20
59.016213575654831
 30
0.0
 70
    32
  0
VERTEX
  5
9447
  8
AM_0
 10
430.24518013500011
 20
59.016113575654501
 30
0.0
 70
    32
  0
VERTEX
  5
9448
  8
AM_0
 10
430.25018013499908
 20
59.016113575654501
 30
0.0
 70
    32
  0
VERTEX
  5
9449
  8
AM_0
 10
430.25418013500013
 20
59.016113575654501
 30
0.0
 70
    32
  0
VERTEX
  5
944A
  8
AM_0
 10
430.25818013500083
 20
59.016013575654434
 30
0.0
 70
    32
  0
VERTEX
  5
944B
  8
AM_0
 10
430.26318013499912
 20
59.016013575654434
 30
0.0
 70
    32
  0
VERTEX
  5
944C
  8
AM_0
 10
430.26718013499988
 20
59.015913575654487
 30
0.0
 70
    32
  0
VERTEX
  5
944D
  8
AM_0
 10
430.27118013499978
 20
59.015913575654487
 30
0.0
 70
    32
  0
VERTEX
  5
944E
  8
AM_0
 10
430.27618013499989
 20
59.015913575654487
 30
0.0
 70
    32
  0
VERTEX
  5
944F
  8
AM_0
 10
430.28018013500122
 20
59.015813575654967
 30
0.0
 70
    32
  0
SEQEND
  5
9450
  8
AM_0
  0
LINE
  5
9451
  8
AM_0
 10
440.78022720007431
 20
59.015847253595041
 30
0.0
 11
430.28022720007408
 21
59.015847253595041
 31
0.0
  0
ARC
  5
9452
  8
AM_0
 10
430.28022720007408
 20
51.245998772612317
 30
0.0
 40
2.5
 50
180.0
 51
270.0
  0
LINE
  5
9453
  8
AM_0
 10
427.78022720007408
 20
47.14599877261162
 30
0.0
 11
427.78022720007408
 21
118.14599877261161
 31
0.0
  0
ARC
  5
9454
  8
AM_0
 10
428.28022720007431
 20
47.14599877261162
 30
0.0
 40
0.5
 50
180.0
 51
270.0
  0
LINE
  5
9455
  8
AM_0
 10
430.28022720007408
 20
48.745998772612147
 30
0.0
 11
439.31522720007388
 21
48.745998772612147
 31
0.0
  0
LINE
  5
9456
  8
AM_0
 10
444.78022720007408
 20
107.1459987726103
 30
0.0
 11
444.78022720007408
 21
118.64599877261
 31
0.0
  0
LINE
  5
9457
  8
AM_0
 10
444.78022720007408
 20
118.64599877261161
 30
0.0
 11
444.78022720007408
 21
88.14599877261162
 31
0.0
  0
LINE
  5
9458
  8
AM_0
 10
444.78022720007408
 20
77.145998772611634
 30
0.0
 11
444.78022720007408
 21
46.64599877261189
 31
0.0
  0
LINE
  5
9459
  8
AM_0
 10
453.79013120007409
 20
107.1459987726103
 30
0.0
 11
444.78022720007408
 21
107.1459987726103
 31
0.0
  0
LINE
  5
945A
  8
AM_0
 10
454.54512795033111
 20
58.145998772610021
 30
0.0
 11
444.78022720007408
 21
58.145998772610021
 31
0.0
  0
LINE
  5
945D
  8
ﾁｭｳｼﾝｾﾝ
 10
493.80218645007409
 20
82.552207595878656
 30
0.0
 11
583.77801995007439
 21
82.552207595878656
 31
0.0
  0
LINE
  5
9460
  8
ﾁｭｳｼﾝｾﾝ
 10
460.30126455026351
 20
181.0410661321352
 30
0.0
 11
475.85760135949943
 21
165.48470456920251
 31
0.0
  0
ARC
  5
9461
  8
ﾁｭｳｼﾝｾﾝ
 10
538.79010320007433
 20
102.55219359587871
 30
0.0
 40
100.0000109999999
 50
128.694282867677
 51
141.30571713232291
  0
LINE
  5
9462
  8
ﾁｭｳｼﾝｾﾝ
 10
460.30123066381748
 20
24.063354946068038
 30
0.0
 11
475.85759222675028
 21
39.619691755303791
 31
0.0
  0
ARC
  5
9463
  8
ﾁｭｳｼﾝｾﾝ
 10
538.7901032000741
 20
102.55219359587861
 30
0.0
 40
100.0000109999999
 50
218.69428286767689
 51
231.30571713232291
  0
LINE
  5
9464
  8
ﾁｭｳｼﾝｾﾝ
 10
617.27894184988475
 20
24.06332105962202
 30
0.0
 11
601.72260504064923
 21
39.619682622554691
 31
0.0
  0
ARC
  5
9465
  8
ﾁｭｳｼﾝｾﾝ
 10
538.79010320007444
 20
102.55219359587861
 30
0.0
 40
100.0000109999999
 50
308.69428286767692
 51
321.3057171323228
  0
LINE
  5
966C
  8
ﾁｭｳｼﾝｾﾝ
 10
7.1708940222938491
 20
341.40431794411012
 30
0.0
 11
372.80318402229352
 21
341.40431794411012
 31
0.0
  0
LINE
  5
975A
  8
AM_0
 10
323.58352402229349
 20
411.40431794410989
 30
0.0
 11
323.58352402229349
 21
271.40431794411012
 31
0.0
  0
LINE
  5
975B
  8
AM_0
 10
313.58349402229368
 20
274.62296794410997
 30
0.0
 11
313.58349402229368
 21
408.18565794410989
 31
0.0
  0
LINE
  5
975C
  8
AM_0
 10
319.58349402229351
 20
256.40431794411012
 30
0.0
 11
319.58349402229351
 21
426.40434794411021
 31
0.0
  0
LINE
  5
975D
  8
AM_0
 10
291.58349402229368
 20
411.79328794411009
 30
0.0
 11
291.58349402229368
 21
271.01533794411017
 31
0.0
  0
LINE
  5
975E
  8
AM_0
 10
324.58349402229339
 20
315.86997794411019
 30
0.0
 11
324.58349402229339
 21
366.93861794410998
 31
0.0
  0
LINE
  5
9763
  8
AM_0
 10
222.5835240222934
 20
277.90431794411012
 30
0.0
 11
222.5835240222934
 21
404.90431794411018
 31
0.0
  0
LINE
  5
9764
  8
AM_0
 10
252.5835240222936
 20
272.53593794411017
 30
0.0
 11
252.5835240222936
 21
410.27268794411009
 31
0.0
  0
LINE
  5
9765
  8
AM_0
 10
259.58349402229351
 20
412.40431794411001
 30
0.0
 11
259.58349402229351
 21
270.40431794411012
 31
0.0
  0
ARC
  5
9766
  8
AM_0
 10
245.58349402229339
 20
287.3642779441102
 30
0.0
 40
2.0
 50
0.0
 51
90.000003000000945
  0
ARC
  5
9767
  8
AM_0
 10
249.58349402229339
 20
278.19303794411002
 30
0.0
 40
2.0
 50
180.00001000000091
 51
270.0
  0
LINE
  5
9768
  8
AM_0
 10
222.5835240222934
 20
304.2542879441101
 30
0.0
 11
252.5835240222936
 21
304.2542879441101
 31
0.0
  0
LINE
  5
9769
  8
AM_0
 10
222.5835240222934
 20
289.3642779441102
 30
0.0
 11
252.5835240222936
 21
289.3642779441102
 31
0.0
  0
LINE
  5
976A
  8
AM_0
 10
247.8233240222936
 20
277.24336794411028
 30
0.0
 11
222.5835540222935
 21
277.90431794411012
 31
0.0
  0
LINE
  5
97E3
  8
AM_0
 10
247.58349402229339
 20
278.19303794411002
 30
0.0
 11
247.58349402229339
 21
287.3642779441102
 31
0.0
  0
LINE
  5
97EE
  8
AM_0
 10
307.12630402229371
 20
282.72645794411028
 30
0.0
 11
294.0406740222935
 21
290.45548794411019
 31
0.0
  0
LINE
  5
97EF
  8
AM_0
 10
307.12633402229352
 20
279.24223794411012
 30
0.0
 11
294.04064402229352
 21
286.97129794411001
 31
0.0
  0
LINE
  5
97F0
  8
AM_0
 10
294.50500402229352
 20
268.01637794411027
 30
0.0
 11
306.66204402229351
 21
267.69801794411012
 31
0.0
  0
LINE
  5
97F1
  8
AM_0
 10
292.58349402229368
 20
293.70619794411027
 30
0.0
 11
307.58349402229368
 21
293.70619794411027
 31
0.0
  0
ARC
  5
97F2
  8
AM_0
 10
296.58349402229351
 20
294.76063794410999
 30
0.0
 40
5.0
 50
179.99998999999889
 51
239.431710000001
  0
LINE
  5
97F3
  8
AM_0
 10
290.60711402229339
 20
269.59190794411012
 30
0.0
 11
259.58349402229351
 21
270.40428794411002
 31
0.0
  0
ARC
  5
97F4
  8
AM_0
 10
254.5835240222936
 20
272.53593794411017
 30
0.0
 40
2.0
 50
180.00001000000091
 51
268.5000000000004
  0
LINE
  5
97F5
  8
AM_0
 10
259.58352402229337
 20
270.40431794411012
 30
0.0
 11
254.5311840222935
 21
270.53660794411007
 31
0.0
  0
ARC
  5
97F6
  8
AM_0
 10
250.5835240222936
 20
274.19303794411002
 30
0.0
 40
2.0
 50
0.0
 51
90.000003000000945
  0
LINE
  5
97F7
  8
AM_0
 10
249.58349402229339
 20
276.19303794411002
 30
0.0
 11
250.5835240222936
 21
276.19303794411002
 31
0.0
  0
ARC
  5
97F8
  8
AM_0
 10
290.52856402229338
 20
266.59294794411011
 30
0.0
 40
3.0
 50
47.481952000001627
 51
88.499997000000747
  0
ARC
  5
97F9
  8
AM_0
 10
294.58349402229351
 20
271.01533794411017
 30
0.0
 40
3.0
 50
179.99998999999889
 51
268.50000999999872
  0
ARC
  5
97FA
  8
AM_0
 10
296.58349402229351
 20
291.27638794411018
 30
0.0
 40
5.0
 50
179.99998999999889
 51
239.431710000001
  0
ARC
  5
97FB
  8
AM_0
 10
292.58349402229368
 20
294.70619794411027
 30
0.0
 40
1.0
 50
179.99998999999889
 51
270.0
  0
ARC
  5
97FC
  8
AM_0
 10
307.58349402229368
 20
291.70619794411027
 30
0.0
 40
2.0
 50
0.0
 51
90.000003000000945
  0
LINE
  5
97FD
  8
AM_0
 10
309.58349402229351
 20
299.45265794411
 30
0.0
 11
309.58349402229351
 21
258.6849279441102
 31
0.0
  0
ARC
  5
97FE
  8
AM_0
 10
310.58349402229351
 20
274.62296794410997
 30
0.0
 40
3.0
 50
270.0
 51
0.0
  0
LINE
  5
97FF
  8
AM_0
 10
311.51369402229352
 20
256.68611794411021
 30
0.0
 11
319.58349402229351
 21
256.40431794411012
 31
0.0
  0
ARC
  5
9800
  8
AM_0
 10
311.58352402229349
 20
258.6849279441102
 30
0.0
 40
2.0
 50
179.99998999999889
 51
268.00000999999861
  0
ARC
  5
9801
  8
AM_0
 10
306.58349402229351
 20
264.69905794411028
 30
0.0
 40
3.0
 50
0.0
 51
88.499997000000747
  0
LINE
  5
9802
  8
AM_0
 10
319.58349402229351
 20
271.40431794411012
 30
0.0
 11
323.58352402229349
 21
271.40431794411012
 31
0.0
  0
ARC
  5
9803
  8
AM_0
 10
304.58349402229351
 20
278.42134794411021
 30
0.0
 40
5.0
 50
0.0
 51
59.431709000000481
  0
ARC
  5
9804
  8
AM_0
 10
304.58349402229351
 20
274.9370879441102
 30
0.0
 40
5.0
 50
0.0
 51
59.431709000000481
  0
ARC
  5
9805
  8
AM_0
 10
312.58349402229351
 20
299.45265794411
 30
0.0
 40
3.0
 50
90.000003000000945
 51
180.00001000000091
  0
ARC
  5
9806
  8
AM_0
 10
323.58349402229351
 20
315.86997794411019
 30
0.0
 40
1.0
 50
272.0000000000004
 51
0.0
  0
LINE
  5
9807
  8
AM_0
 10
323.58352402229349
 20
314.86939794411018
 30
0.0
 11
323.61840402229348
 21
314.8706279441102
 31
0.0
  0
ARC
  5
9809
  8
AM_0
 10
245.58349402229339
 20
395.44435794411021
 30
0.0
 40
2.0
 50
270.0
 51
0.0
  0
ARC
  5
980A
  8
AM_0
 10
249.58349402229339
 20
404.61561794411023
 30
0.0
 40
2.0
 50
90.000003000000945
 51
180.00001000000091
  0
LINE
  5
980B
  8
AM_0
 10
222.5835240222934
 20
393.44435794411032
 30
0.0
 11
252.5835240222936
 21
393.44435794411032
 31
0.0
  0
LINE
  5
980C
  8
AM_0
 10
222.5835240222934
 20
378.55433794410999
 30
0.0
 11
252.5835240222936
 21
378.55433794410999
 31
0.0
  0
LINE
  5
980D
  8
AM_0
 10
247.8233240222936
 20
405.56526794411002
 30
0.0
 11
222.5835240222934
 21
404.90431794411018
 31
0.0
  0
LINE
  5
983C
  8
AM_0
 10
247.58349402229339
 20
404.61561794411023
 30
0.0
 11
247.58349402229339
 21
395.44435794411021
 31
0.0
  0
ARC
  5
983D
  8
AM_0
 10
310.58349402229351
 20
408.18565794410989
 30
0.0
 40
3.0
 50
0.0
 51
90.000003000000945
  0
ARC
  5
983E
  8
AM_0
 10
254.5835240222936
 20
410.27268794411009
 30
0.0
 40
2.0
 50
91.500001000001546
 51
180.00001000000091
  0
LINE
  5
983F
  8
AM_0
 10
309.58349402229351
 20
383.35597794411018
 30
0.0
 11
309.58349402229351
 21
424.12370794410998
 31
0.0
  0
LINE
  5
9840
  8
AM_0
 10
307.12633402229352
 20
403.56639794411018
 30
0.0
 11
294.0407040222936
 21
395.8373279441102
 31
0.0
  0
LINE
  5
9841
  8
AM_0
 10
307.12633402229352
 20
400.08216794411021
 30
0.0
 11
294.0406740222935
 21
392.35310794411032
 31
0.0
  0
LINE
  5
9842
  8
AM_0
 10
292.58349402229368
 20
389.10243794411002
 30
0.0
 11
307.58349402229368
 21
389.10243794411002
 31
0.0
  0
ARC
  5
9843
  8
AM_0
 10
250.5835240222936
 20
408.61561794411023
 30
0.0
 40
2.0
 50
270.0
 51
0.0
  0
LINE
  5
9844
  8
AM_0
 10
249.58349402229339
 20
406.61561794411
 30
0.0
 11
250.5835240222936
 21
406.61561794411
 31
0.0
  0
ARC
  5
9845
  8
AM_0
 10
296.58349402229351
 20
388.04798794410999
 30
0.0
 40
5.0
 50
120.5682899999989
 51
180.00001000000091
  0
ARC
  5
9846
  8
AM_0
 10
292.58349402229368
 20
388.10243794411019
 30
0.0
 40
1.0
 50
90.000003000000945
 51
180.00001000000091
  0
ARC
  5
9847
  8
AM_0
 10
296.58349402229351
 20
391.53224794411011
 30
0.0
 40
5.0
 50
120.5682899999989
 51
180.00001000000091
  0
ARC
  5
9849
  8
AM_0
 10
323.58349402229351
 20
366.93861794410998
 30
0.0
 40
1.0
 50
0.0
 51
87.999999999999659
  0
LINE
  5
984A
  8
AM_0
 10
323.58352402229349
 20
367.9392279441102
 30
0.0
 11
323.61840402229348
 21
367.93800794411032
 31
0.0
  0
ARC
  5
984D
  8
AM_0
 10
312.58349402229351
 20
383.35597794411018
 30
0.0
 40
3.0
 50
179.99998999999889
 51
270.0
  0
ARC
  5
984E
  8
AM_0
 10
307.58349402229368
 20
391.10243794411019
 30
0.0
 40
2.0
 50
270.0
 51
0.0
  0
ARC
  5
984F
  8
AM_0
 10
304.58349402229351
 20
404.38728794411003
 30
0.0
 40
5.0
 50
300.56828999999891
 51
0.0
  0
ARC
  5
9850
  8
AM_0
 10
304.58349402229351
 20
407.87153794411
 30
0.0
 40
5.0
 50
300.56828999999891
 51
0.0
  0
LINE
  5
9851
  8
AM_0
 10
294.50497402229348
 20
414.79225794410991
 30
0.0
 11
306.66201402229348
 21
415.11061794410989
 31
0.0
  0
LINE
  5
9852
  8
AM_0
 10
290.60708402229352
 20
413.21668794410999
 30
0.0
 11
259.58349402229351
 21
412.40431794411001
 31
0.0
  0
LINE
  5
9853
  8
AM_0
 10
259.58349402229351
 20
412.40431794411001
 30
0.0
 11
254.53115402229361
 21
412.27201794411019
 31
0.0
  0
ARC
  5
9854
  8
AM_0
 10
294.58349402229351
 20
411.79328794411009
 30
0.0
 40
3.0
 50
91.500001000001546
 51
180.00001000000091
  0
ARC
  5
9855
  8
AM_0
 10
290.52856402229338
 20
416.21565794411021
 30
0.0
 40
3.0
 50
271.49999999999937
 51
312.51811999999887
  0
LINE
  5
9856
  8
AM_0
 10
311.5136640222936
 20
426.1225479441099
 30
0.0
 11
319.58349402229351
 21
426.40434794411021
 31
0.0
  0
ARC
  5
9857
  8
AM_0
 10
306.58349402229351
 20
418.10957794411007
 30
0.0
 40
3.0
 50
271.49999999999937
 51
0.0
  0
ARC
  5
9858
  8
AM_0
 10
311.58352402229349
 20
424.12370794410998
 30
0.0
 40
2.0
 50
91.999998000000545
 51
180.00001000000091
  0
LINE
  5
9859
  8
AM_0
 10
319.58349402229351
 20
411.40431794410989
 30
0.0
 11
323.58352402229349
 21
411.40431794410989
 31
0.0
  0
LINE
  5
99D0
  8
AM_0
 10
81.043544022293304
 20
317.84425794411032
 30
0.0
 11
211.6177640222933
 21
317.84425794411032
 31
0.0
  0
LINE
  5
99D1
  8
AM_0
 10
207.91635402229321
 20
317.40431794411029
 30
0.0
 11
82.119174022293237
 21
317.40431794411029
 31
0.0
  0
LINE
  5
99D2
  8
AM_0
 10
81.043544022293304
 20
364.97425794411032
 30
0.0
 11
211.6177640222933
 21
364.97425794411032
 31
0.0
  0
LINE
  5
99D3
  8
AM_0
 10
81.253504022293313
 20
378.13429794411041
 30
0.0
 11
211.4035340222932
 21
378.13429794411041
 31
0.0
  0
LINE
  5
99D4
  8
AM_0
 10
207.91635402229321
 20
365.40431794411029
 30
0.0
 11
82.133514022293525
 21
365.40431794411029
 31
0.0
  0
LINE
  5
99D5
  8
AM_0
 10
207.92355402229319
 20
377.4043179441104
 30
0.0
 11
82.133514022293525
 21
377.4043179441104
 31
0.0
  0
LINE
  5
99D6
  8
AM_0
 10
90.583524022293446
 20
405.29432794411031
 30
0.0
 11
209.10348402229329
 21
405.29432794411031
 31
0.0
  0
LINE
  5
99D7
  8
AM_0
 10
90.583524022293446
 20
406.65431794411029
 30
0.0
 11
208.81118402229319
 21
406.65431794411029
 31
0.0
  0
LINE
  5
99D8
  8
AM_0
 10
90.583524022293446
 20
407.3243579441102
 30
0.0
 11
208.66720402229319
 21
407.3243579441102
 31
0.0
  0
LINE
  5
99D9
  8
AM_0
 10
90.583524022293446
 20
403.2642979441103
 30
0.0
 11
207.39352402229321
 21
403.2642979441103
 31
0.0
  0
LINE
  5
99DA
  8
AM_0
 10
90.583524022293446
 20
279.54432794411031
 30
0.0
 11
207.39352402229321
 21
279.54432794411031
 31
0.0
  0
LINE
  5
99DB
  8
AM_0
 10
193.56350402229319
 20
308.04432794411031
 30
0.0
 11
211.4035340222932
 21
308.04432794411031
 31
0.0
  0
LINE
  5
99DC
  8
AM_0
 10
193.5835240222934
 20
314.92433794411028
 30
0.0
 11
211.6177640222933
 21
314.92433794411028
 31
0.0
  0
LINE
  5
99DD
  8
AM_0
 10
207.92355402229319
 20
307.40431794411018
 30
0.0
 11
193.5835240222934
 21
307.40431794411018
 31
0.0
  0
LINE
  5
99DE
  8
AM_0
 10
207.91635402229321
 20
315.40431794411029
 30
0.0
 11
193.5835240222934
 21
315.40431794411029
 31
0.0
  0
LINE
  5
99DF
  8
AM_0
 10
207.92355402229319
 20
305.40431794411018
 30
0.0
 11
163.58352402229329
 21
305.40431794411018
 31
0.0
  0
LINE
  5
99E0
  8
AM_0
 10
163.58352402229329
 20
304.6843479441103
 30
0.0
 11
211.4035340222932
 21
304.6843479441103
 31
0.0
  0
LINE
  5
99E1
  8
AM_0
 10
108.5835240222934
 20
295.05433794411027
 30
0.0
 11
214.5835240222932
 21
295.05433794411027
 31
0.0
  0
ARC
  5
99E2
  8
AM_0
 10
206.5997040222932
 20
272.90431794411029
 30
0.0
 40
1.5
 50
269.999989999999
 51
326.99999999999801
  0
ARC
  5
99E3
  8
AM_0
 10
207.92355402229319
 20
306.40431794411018
 30
0.0
 40
1.0000040999999991
 50
269.999989999999
 51
90.000003000000945
  0
ARC
  5
99E4
  8
AM_0
 10
207.9234940222932
 20
316.40431794411018
 30
0.0
 40
1.0000255999999981
 50
269.58946999999989
 51
90.410531000001029
  0
LINE
  5
99E5
  8
AM_0
 10
193.5835240222934
 20
367.89430794411032
 30
0.0
 11
211.62924402229331
 21
367.89430794411032
 31
0.0
  0
LINE
  5
99E6
  8
AM_0
 10
193.56350402229319
 20
374.77430794411032
 30
0.0
 11
211.4035340222932
 21
374.77430794411032
 31
0.0
  0
LINE
  5
99E7
  8
AM_0
 10
207.93069402229341
 20
367.40431794411029
 30
0.0
 11
193.5835240222934
 21
367.40431794411029
 31
0.0
  0
LINE
  5
99E8
  8
AM_0
 10
207.92355402229319
 20
375.40431794411029
 30
0.0
 11
193.5835240222934
 21
375.40431794411029
 31
0.0
  0
LINE
  5
99E9
  8
AM_0
 10
108.5835240222934
 20
387.75428794411027
 30
0.0
 11
214.5835240222932
 21
387.75428794411027
 31
0.0
  0
ARC
  5
99EA
  8
AM_0
 10
207.9234940222932
 20
366.4043179441104
 30
0.0
 40
1.0000255999999981
 50
269.58946999999989
 51
90.410531000001029
  0
ARC
  5
99EB
  8
AM_0
 10
207.92355402229319
 20
376.40431794411018
 30
0.0
 40
1.0000040999999991
 50
269.999989999999
 51
90.000003000000945
  0
ARC
  5
99EC
  8
AM_0
 10
144.2485040222933
 20
326.39430794411032
 30
0.0
 40
1.3300148000000001
 50
269.72941999999853
 51
90.270567000000995
  0
ARC
  5
99ED
  8
AM_0
 10
71.907254022293245
 20
326.39430794411032
 30
0.0
 40
1.3300148000000001
 50
89.729417999999541
 51
270.27058999999991
  0
LINE
  5
99EE
  8
AM_0
 10
17.082093922293382
 20
376.14277903981753
 30
0.0
 11
17.082093922293382
 21
306.66585684840288
 31
0.0
  0
LINE
  5
99EF
  8
AM_0
 10
17.583524022293432
 20
306.87525794411027
 30
0.0
 11
17.583524022293432
 21
375.93336794411039
 31
0.0
  0
LINE
  5
99F0
  8
AM_0
 10
62.583524022293432
 20
304.21925794411032
 30
0.0
 11
62.583524022293432
 21
378.59034794411019
 31
0.0
  0
LINE
  5
99F1
  8
AM_0
 10
20.083524022293432
 20
288.62232794411028
 30
0.0
 11
20.083524022293432
 21
394.15431794411001
 31
0.0
  0
LINE
  5
99F2
  8
AM_0
 10
12.08209392229338
 20
397.4043179441104
 30
0.0
 11
12.08209392229338
 21
285.40431794411018
 31
0.0
  0
LINE
  5
99F3
  8
AM_0
 10
67.583524022293432
 20
282.65431794411018
 30
0.0
 11
67.583524022293432
 21
341.40431794411018
 31
0.0
  0
LINE
  5
99F4
  8
AM_0
 10
108.58358402229349
 20
295.05439794411029
 30
0.0
 11
77.58358402229328
 21
297.08439794411032
 31
0.0
  0
LINE
  5
99F5
  8
AM_0
 10
71.913544022293422
 20
325.06434794411018
 30
0.0
 11
144.2547940222932
 21
325.06434794411018
 31
0.0
  0
LINE
  5
99F6
  8
AM_0
 10
143.02560402229321
 20
325.40431794411018
 30
0.0
 11
73.133514022293525
 21
325.40431794411018
 31
0.0
  0
LINE
  5
99F7
  8
AM_0
 10
143.02560402229321
 20
327.40431794411018
 30
0.0
 11
73.133514022293525
 21
327.40431794411018
 31
0.0
  0
ARC
  5
99F8
  8
AM_0
 10
76.746364022293278
 20
299.8158079441103
 30
0.0
 40
4.9991421999999961
 50
5.3780268999994201
 51
80.360064999998514
  0
LINE
  5
99F9
  8
AM_0
 10
73.284144022293503
 20
279.73426794411017
 30
0.0
 11
87.326264022293486
 21
279.73426794411017
 31
0.0
  0
ARC
  5
99FA
  8
AM_0
 10
81.480864022293545
 20
285.13136794411008
 30
0.0
 40
1.997119399999999
 50
192.05523999999849
 51
270.19862999999867
  0
ARC
  5
99FB
  8
AM_0
 10
81.542934022293267
 20
290.4095579441103
 30
0.0
 40
1.9952742999999991
 50
189.96478000000039
 51
269.85141999999968
  0
LINE
  5
99FC
  8
AM_0
 10
78.792754022293252
 20
294.41096794411038
 30
0.0
 11
79.577784022293258
 21
290.06428794411028
 31
0.0
  0
ARC
  5
99FD
  8
AM_0
 10
77.203214022293423
 20
303.74964794411028
 30
0.0
 40
6.0073843
 50
273.6297400000006
 51
314.76384999999948
  0
ARC
  5
99FE
  8
AM_0
 10
21.082093922293389
 20
285.40431794411018
 30
0.0
 40
9.0
 50
179.99997999999781
 51
269.99995000000138
  0
ARC
  5
99FF
  8
AM_0
 10
18.48355402229333
 20
301.01332794411019
 30
0.0
 40
3.0
 50
179.99997999999781
 51
269.99995000000138
  0
ARC
  5
9A00
  8
AM_0
 10
18.48355402229333
 20
304.01332794411019
 30
0.0
 40
3.0
 50
89.999988999997569
 51
179.99997999999781
  0
LINE
  5
9A01
  8
AM_0
 10
15.48355402229333
 20
304.01332794411019
 30
0.0
 11
15.48355402229333
 21
301.01332794411019
 31
0.0
  0
LINE
  5
9A02
  8
AM_0
 10
71.344874022293439
 20
281.24534794411028
 30
0.0
 11
70.863554022293329
 21
283.15437794411008
 31
0.0
  0
LINE
  5
9A03
  8
AM_0
 10
71.773524022293259
 20
281.27427794411028
 30
0.0
 11
70.853544022293249
 21
285.1543479441101
 31
0.0
  0
LINE
  5
9A04
  8
AM_0
 10
42.583524022293432
 20
282.65431794411018
 30
0.0
 11
42.583524022293432
 21
288.65431794411029
 31
0.0
  0
ARC
  5
9A05
  8
AM_0
 10
22.082093922293382
 20
286.40431794411018
 30
0.0
 40
5.0
 50
179.99997999999781
 51
269.99995000000138
  0
LINE
  5
9A06
  8
AM_0
 10
42.583524022293432
 20
282.65431794411018
 30
0.0
 11
67.583524022293432
 21
282.65431794411018
 31
0.0
  0
LINE
  5
9A07
  8
AM_0
 10
21.082093922293389
 20
276.40431794411029
 30
0.0
 11
58.583524022293432
 21
276.40431794411029
 31
0.0
  0
LINE
  5
9A08
  8
AM_0
 10
22.082093922293382
 20
281.40431794411029
 30
0.0
 11
45.583524022293432
 21
281.40431794411029
 31
0.0
  0
LINE
  5
9A09
  8
AM_0
 10
45.583524022293432
 20
282.65431794411018
 30
0.0
 11
45.583524022293432
 21
276.40431794411029
 31
0.0
  0
LINE
  5
9A0A
  8
AM_0
 10
55.583524022293432
 20
281.40431794411029
 30
0.0
 11
58.583524022293432
 21
281.40431794411029
 31
0.0
  0
LINE
  5
9A0B
  8
AM_0
 10
55.583524022293432
 20
282.65431794411018
 30
0.0
 11
55.583524022293432
 21
276.40431794411029
 31
0.0
  0
LINE
  5
9A0C
  8
AM_0
 10
58.583524022293432
 20
281.40431794411029
 30
0.0
 11
58.583524022293432
 21
276.40431794411029
 31
0.0
  0
ARC
  5
9A0D
  8
AM_0
 10
73.284144022293503
 20
281.73426794411017
 30
0.0
 40
2.0
 50
194.1507499999995
 51
269.999989999999
  0
ARC
  5
9A0E
  8
AM_0
 10
73.72036402229331
 20
281.73487794411028
 30
0.0
 40
2.0005671999999981
 50
193.30958999999871
 51
269.80430999999942
  0
LINE
  5
9A0F
  8
AM_0
 10
20.083524022293432
 20
307.76332794411019
 30
0.0
 11
62.583524022293432
 21
307.76332794411019
 31
0.0
  0
LINE
  5
9A10
  8
AM_0
 10
20.083524022293432
 20
297.51332794411019
 30
0.0
 11
62.583524022293432
 21
297.51332794411019
 31
0.0
  0
LINE
  5
9A11
  8
AM_0
 10
19.583524022293432
 20
288.65431794411029
 30
0.0
 11
67.583524022293432
 21
288.65431794411029
 31
0.0
  0
LINE
  5
9A12
  8
AM_0
 10
18.783534022293331
 20
307.11329794411029
 30
0.0
 11
18.783534022293331
 21
297.91334794411028
 31
0.0
  0
LINE
  5
9A13
  8
AM_0
 10
17.082093922293382
 20
298.36079903981749
 30
0.0
 11
17.082093922293382
 21
286.40431794411018
 31
0.0
  0
LINE
  5
9A14
  8
AM_0
 10
17.583524022293432
 20
298.1513879441103
 30
0.0
 11
17.583524022293432
 21
290.65431794411018
 31
0.0
  0
ARC
  5
9A15
  8
AM_0
 10
19.583524022293432
 20
290.65431794411018
 30
0.0
 40
2.0
 50
179.99997999999781
 51
269.99995000000138
  0
LINE
  5
9A16
  8
AM_0
 10
18.783534022293331
 20
297.91334794411028
 30
0.0
 11
20.083524022293432
 21
297.91334794411028
 31
0.0
  0
LINE
  5
9A17
  8
AM_0
 10
18.48355402229333
 20
298.01332794411019
 30
0.0
 11
18.783534022293331
 21
298.01332794411019
 31
0.0
  0
LINE
  5
9A18
  8
AM_0
 10
18.783534022293331
 20
307.11329794411029
 30
0.0
 11
20.083524022293432
 21
307.11329794411029
 31
0.0
  0
LINE
  5
9A19
  8
AM_0
 10
18.48355402229333
 20
307.01332794411019
 30
0.0
 11
18.783534022293331
 21
307.01332794411019
 31
0.0
  0
LINE
  5
9A1A
  8
AM_0
 10
77.583524022293304
 20
293.05433794411027
 30
0.0
 11
77.583524022293304
 21
307.10426794411018
 31
0.0
  0
LINE
  5
9A1B
  8
AM_0
 10
62.583524022293432
 20
297.51332794411019
 30
0.0
 11
62.583524022293432
 21
288.65431794411029
 31
0.0
  0
LINE
  5
9A1C
  8
AM_0
 10
67.583524022293432
 20
293.05433794411027
 30
0.0
 11
77.583524022293304
 21
293.05433794411027
 31
0.0
  0
LINE
  5
9A1D
  8
AM_0
 10
69.393524022293263
 20
286.30433794411027
 30
0.0
 11
79.186304022293257
 21
286.30433794411027
 31
0.0
  0
LINE
  5
9A1E
  8
AM_0
 10
67.583524022293432
 20
283.97434794411032
 30
0.0
 11
70.40353402229313
 21
283.91435794411018
 31
0.0
  0
ARC
  5
9A1F
  8
AM_0
 10
69.396754022293294
 20
284.80665794411038
 30
0.0
 40
1.497715799999999
 50
13.424378999999609
 51
90.122645000001114
  0
LINE
  5
9A20
  8
AM_0
 10
69.413544022293294
 20
284.28431794411028
 30
0.0
 11
71.063504022293259
 21
284.28431794411028
 31
0.0
  0
ARC
  5
9A21
  8
AM_0
 10
69.411224022293254
 20
282.78602794411017
 30
0.0
 40
1.4982997
 50
14.229740000001581
 51
89.910950000001179
  0
LINE
  5
9A22
  8
AM_0
 10
79.527804022293253
 20
284.71436794411028
 30
0.0
 11
78.567844022293073
 21
289.18434794411019
 31
0.0
  0
LINE
  5
9A23
  8
AM_0
 10
77.097804022293303
 20
290.36427794411031
 30
0.0
 11
79.517794022293401
 21
290.36427794411031
 31
0.0
  0
ARC
  5
9A24
  8
AM_0
 10
77.100374022293295
 20
288.86195794411032
 30
0.0
 40
1.502416299999999
 50
12.391887000000411
 51
90.098616999999123
  0
LINE
  5
9A25
  8
AM_0
 10
67.583524022293432
 20
298.71436794411028
 30
0.0
 11
77.583524022293304
 21
298.71436794411028
 31
0.0
  0
ARC
  5
9A26
  8
AM_0
 10
77.316684022293089
 20
294.14430794411032
 30
0.0
 40
1.5
 50
10.237378999998841
 51
79.752109999998723
  0
LINE
  5
9A27
  8
AM_0
 10
67.583524022293432
 20
307.10426794411018
 30
0.0
 11
77.583524022293304
 21
307.10426794411018
 31
0.0
  0
ARC
  5
9A28
  8
AM_0
 10
73.133514022293525
 20
326.40431794411018
 30
0.0
 40
1.0000056999999991
 50
90.000003000000945
 51
270.0
  0
LINE
  5
9A29
  8
AM_0
 10
195.2083977564464
 20
242.9043179441104
 30
0.0
 11
195.2083977564464
 21
232.9043179441104
 31
0.0
  0
LINE
  5
9A2A
  8
AM_0
 10
184.93854927546329
 20
230.4043179441104
 30
0.0
 11
184.93854927546329
 21
241.9398085465786
 31
0.0
  0
LINE
  5
9A2B
  8
AM_0
 10
112.3083977564465
 20
239.4043179441108
 30
0.0
 11
112.3083977564466
 21
231.9043179441108
 31
0.0
  0
ARC
  5
9A2C
  8
AM_0
 10
129.40839775644591
 20
247.4043179441108
 30
0.0
 40
9.2999999999997094
 50
180.0
 51
0.0
  0
LINE
  5
9A2D
  8
AM_0
 10
116.9083977564454
 20
234.40431794411089
 30
0.0
 11
193.208397756446
 21
247.40431794411009
 31
0.0
  0
LINE
  5
9A2E
  8
AM_0
 10
116.9083977564454
 20
234.40431794411089
 30
0.0
 11
193.208397756446
 21
247.40431794411009
 31
0.0
  0
LINE
  5
9A2F
  8
AM_0
 10
193.53409289328721
 20
243.40431794411009
 30
0.0
 11
117.2340928932868
 21
230.4043179441108
 31
0.0
  0
LINE
  5
9A30
  8
AM_0
 10
116.826973972235
 20
235.4043179441108
 30
0.0
 11
148.80504371096711
 21
240.85274398085389
 31
0.0
  0
LINE
  5
9A31
  8
ﾁｭｳｼﾝｾﾝ
 10
129.40839775644591
 20
258.4043179441108
 30
0.0
 11
129.40839775644591
 21
236.40431794411069
 31
0.0
  0
LINE
  5
9A32
  8
AM_0
 10
114.3083977564455
 20
263.40431794411069
 30
0.0
 11
114.3083977564458
 21
235.4043179441108
 31
0.0
  0
LINE
  5
9A33
  8
AM_0
 10
192.7083977564464
 20
230.4043179441104
 30
0.0
 11
117.2340928932868
 21
230.4043179441108
 31
0.0
  0
LINE
  5
9A34
  8
AM_0
 10
112.8083977564455
 20
235.4043179441108
 30
0.0
 11
112.8083977564455
 21
231.9043179441108
 31
0.0
  0
LINE
  5
9A35
  8
AM_0
 10
114.308397756446
 20
230.4043179441108
 30
0.0
 11
117.2340928932868
 21
230.4043179441108
 31
0.0
  0
LINE
  5
9A36
  8
AM_0
 10
113.8083977564465
 20
230.4043179441108
 30
0.0
 11
114.1068836526034
 21
230.4043179441108
 31
0.0
  0
ARC
  5
9A37
  8
AM_0
 10
114.308397756446
 20
231.9043179441108
 30
0.0
 40
1.499999999999998
 50
180.0
 51
270.0
  0
ARC
  5
9A38
  8
AM_0
 10
113.8083977564465
 20
231.9043179441108
 30
0.0
 40
1.5000000000001099
 50
180.0
 51
269.99999999999511
  0
LINE
  5
9A39
  8
AM_0
 10
112.8083977564455
 20
234.40431794411089
 30
0.0
 11
116.9083977564454
 21
234.40431794411089
 31
0.0
  0
LINE
  5
9A3A
  8
AM_0
 10
116.826973972235
 20
235.4043179441108
 30
0.0
 11
112.8083977564455
 21
235.4043179441108
 31
0.0
  0
LINE
  5
9A3B
  8
AM_0
 10
113.10839775644619
 20
234.40431794411089
 30
0.0
 11
116.9083977564454
 21
234.40431794411089
 31
0.0
  0
ARC
  5
9A3C
  8
AM_0
 10
192.7083977564464
 20
232.9043179441104
 30
0.0
 40
2.5
 50
270.0
 51
0.0
  0
LINE
  5
9A3D
  8
AM_0
 10
175.5835240222932
 20
315.40431794411029
 30
0.0
 11
82.119174022293237
 21
315.40431794411029
 31
0.0
  0
LINE
  5
9A3E
  8
AM_0
 10
175.5835240222932
 20
307.40431794411018
 30
0.0
 11
82.119174022293237
 21
307.40431794411018
 31
0.0
  0
LINE
  5
9A3F
  8
AM_0
 10
81.043544022293304
 20
314.92433794411028
 30
0.0
 11
175.5835240222932
 21
314.92433794411028
 31
0.0
  0
LINE
  5
9A40
  8
AM_0
 10
81.253504022293313
 20
304.6843479441103
 30
0.0
 11
163.58352402229329
 21
304.6843479441103
 31
0.0
  0
LINE
  5
9A41
  8
AM_0
 10
163.58352402229329
 20
305.40431794411018
 30
0.0
 11
82.119174022293237
 21
305.40431794411018
 31
0.0
  0
LINE
  5
9A42
  8
AM_0
 10
81.253504022293313
 20
308.04432794411031
 30
0.0
 11
175.60354402229331
 21
308.04432794411031
 31
0.0
  0
LINE
  5
9A43
  8
AM_0
 10
197.0835240222934
 20
266.90431794411057
 30
0.0
 11
130.0835240222934
 21
266.90431794411057
 31
0.0
  0
LINE
  5
9A44
  8
AM_0
 10
120.1083977564458
 20
264.40431794411091
 30
0.0
 11
200.58352402229281
 21
264.4043179441104
 31
0.0
  0
ARC
  5
9A45
  8
AM_0
 10
143.02224402229331
 20
326.40431794411018
 30
0.0
 40
1.0000056999999991
 50
269.999989999999
 51
90.000003000000945
  0
ARC
  5
9A46
  8
AM_0
 10
87.080414022293326
 20
281.64112794411028
 30
0.0
 40
1.503128599999999
 50
0.1191296499989459
 51
89.880869999998822
  0
LINE
  5
9A47
  8
AM_0
 10
88.583524022293403
 20
279.51527794411032
 30
0.0
 11
88.583524022293403
 21
286.92433794411028
 31
0.0
  0
LINE
  5
9A48
  8
AM_0
 10
90.583524022293446
 20
277.51429794411013
 30
0.0
 11
131.9099440222933
 21
277.51429794411013
 31
0.0
  0
ARC
  5
9A49
  8
AM_0
 10
87.326264022293486
 20
278.23426794411029
 30
0.0
 40
1.5
 50
21.46170900000077
 51
90.000003000000945
  0
ARC
  5
9A4A
  8
AM_0
 10
90.584444022293255
 20
279.51527794411032
 30
0.0
 40
2.0009109999999981
 50
180.00001000000091
 51
269.97390999999971
  0
ARC
  5
9A4B
  8
AM_0
 10
90.583584022293294
 20
281.54432794411031
 30
0.0
 40
2.0000371999999991
 50
180.0010599999992
 51
269.99892999999958
  0
LINE
  5
9A4C
  8
AM_0
 10
120.1083977564458
 20
264.40431794411091
 30
0.0
 11
120.1083977564455
 21
247.4043179441108
 31
0.0
  0
LINE
  5
9A4D
  8
AM_0
 10
138.70839775644569
 20
264.4043179441104
 30
0.0
 11
138.70839775644569
 21
247.4043179441104
 31
0.0
  0
LINE
  5
9A4E
  8
ﾁｭｳｼﾝｾﾝ
 10
118.40839775644579
 20
247.4043179441108
 30
0.0
 11
140.40839775644591
 21
247.4043179441108
 31
0.0
  0
CIRCLE
  5
9A4F
  8
AM_0
 10
129.40839775644591
 20
247.4043179441108
 30
0.0
 40
6.2999999999996117
  0
LINE
  5
9A50
  8
AM_0
 10
114.3083977564457
 20
239.40431794411089
 30
0.0
 11
113.10839775644619
 21
239.40431794411089
 31
0.0
  0
LINE
  5
9A51
  8
AM_0
 10
113.10839775644619
 20
239.40431794411089
 30
0.0
 11
112.3083977564465
 21
239.4043179441108
 31
0.0
  0
LINE
  5
9A52
  8
AM_0
 10
115.3083977564454
 20
264.40431794411091
 30
0.0
 11
120.1083977564458
 21
264.40431794411091
 31
0.0
  0
ARC
  5
9A53
  8
AM_0
 10
115.3083977564454
 20
263.40431794411069
 30
0.0
 40
1.0
 50
90.0
 51
180.0
  0
LINE
  5
9A54
  8
AM_0
 10
133.64905752421359
 20
266.9043179441104
 30
0.0
 11
133.3180240222932
 21
279.5442979441101
 31
0.0
  0
LINE
  5
9A55
  8
AM_0
 10
130.0835240222934
 20
266.90431794411057
 30
0.0
 11
130.0835240222934
 21
264.4043179441104
 31
0.0
  0
ARC
  5
9A56
  8
AM_0
 10
131.9099440222933
 20
276.01429794411013
 30
0.0
 40
1.5
 50
1.5000026999989771
 51
90.000003000000945
  0
ARC
  5
9A57
  8
AM_0
 10
81.253504022293313
 20
306.35426794411018
 30
0.0
 40
1.6800002000000001
 50
90.000003000000945
 51
270.0
  0
ARC
  5
9A58
  8
AM_0
 10
87.081574022293225
 20
286.92237794411028
 30
0.0
 40
1.501982699999999
 50
0.075587202000581
 51
89.924413000001564
  0
LINE
  5
9A59
  8
AM_0
 10
81.343354022293283
 20
288.42433794411028
 30
0.0
 11
87.083524022293417
 21
288.42433794411028
 31
0.0
  0
LINE
  5
9A5A
  8
AM_0
 10
81.281154022293308
 20
283.14430794411038
 30
0.0
 11
87.083524022293417
 21
283.14430794411038
 31
0.0
  0
ARC
  5
9A5B
  8
AM_0
 10
80.724334022293405
 20
300.19398794411018
 30
0.0
 40
1.0032491999999991
 50
314.98119000000088
 51
5.1676434000008573
  0
ARC
  5
9A5C
  8
AM_0
 10
89.576324022293619
 20
316.40431794411018
 30
0.0
 40
1.0000259
 50
89.587534000000232
 51
270.4124599999987
  0
ARC
  5
9A5D
  8
AM_0
 10
81.037814022293333
 20
316.37428794411028
 30
0.0
 40
1.460011199999999
 50
89.775248000001255
 51
270.22474000000028
  0
ARC
  5
9A5E
  8
AM_0
 10
82.126374022293234
 20
316.40431794411018
 30
0.0
 40
1.0000255999999981
 50
89.589474000000749
 51
270.41051999999962
  0
ARC
  5
9A5F
  8
AM_0
 10
82.126374022293234
 20
306.40431794411018
 30
0.0
 40
1.0000255999999981
 50
89.589474000000749
 51
270.41051999999962
  0
ARC
  5
9A60
  8
AM_0
 10
89.576324022293619
 20
306.40431794411018
 30
0.0
 40
1.0000259
 50
89.587534000000232
 51
270.4124599999987
  0
ARC
  5
9A61
  8
AM_0
 10
89.576324022293619
 20
326.40431794411018
 30
0.0
 40
1.0000259
 50
89.587534000000232
 51
270.4124599999987
  0
LINE
  5
9A62
  8
AM_0
 10
173.01845989287651
 20
244.9782277339967
 30
0.0
 11
175.2218139383539
 21
245.35363536953011
 31
0.0
  0
LINE
  5
9A63
  8
AM_0
 10
158.20504371096709
 20
242.45431672004111
 30
0.0
 11
160.40839775644449
 21
242.82972435557451
 31
0.0
  0
LINE
  5
9A64
  8
AM_0
 10
150.80504371096731
 20
241.19350413812791
 30
0.0
 11
150.80504371096731
 21
259.40431794411091
 31
0.0
  0
LINE
  5
9A65
  8
AM_0
 10
148.80504371096711
 20
259.4043179441104
 30
0.0
 11
148.80504371096711
 21
240.85274398085389
 31
0.0
  0
LINE
  5
9A66
  8
AM_0
 10
153.0050437109673
 20
259.4043179441104
 30
0.0
 11
153.0050437109673
 21
241.56834031112959
 31
0.0
  0
LINE
  5
9A67
  8
AM_0
 10
154.5050437109671
 20
241.8239104290848
 30
0.0
 11
154.5050437109671
 21
259.4043179441104
 31
0.0
  0
LINE
  5
9A68
  8
AM_0
 10
156.7050437109672
 20
259.4043179441104
 30
0.0
 11
156.7050437109672
 21
242.19874660208581
 31
0.0
  0
LINE
  5
9A69
  8
AM_0
 10
158.20504371096709
 20
242.45431672004111
 30
0.0
 11
158.20504371096709
 21
259.4043179441104
 31
0.0
  0
LINE
  5
9A6A
  8
AM_0
 10
150.80504371096731
 20
241.19350413812791
 30
0.0
 11
153.0050437109673
 21
241.56834031112959
 31
0.0
  0
LINE
  5
9A6B
  8
AM_0
 10
154.5050437109671
 20
241.8239104290848
 30
0.0
 11
156.7050437109672
 21
242.19874660208581
 31
0.0
  0
LINE
  5
9A6C
  8
AM_0
 10
150.80504371096731
 20
259.40431794411091
 30
0.0
 11
148.80504371096711
 21
259.4043179441104
 31
0.0
  0
LINE
  5
9A6D
  8
AM_0
 10
150.80504371096731
 20
255.40431794411049
 30
0.0
 11
148.80504371096711
 21
255.40431794411049
 31
0.0
  0
LINE
  5
9A6E
  8
AM_0
 10
154.5050437109671
 20
259.4043179441104
 30
0.0
 11
153.0050437109673
 21
259.4043179441104
 31
0.0
  0
LINE
  5
9A6F
  8
AM_0
 10
154.5050437109671
 20
255.40431794411009
 30
0.0
 11
153.0050437109673
 21
255.40431794411049
 31
0.0
  0
LINE
  5
9A70
  8
AM_0
 10
158.20504371096709
 20
259.4043179441104
 30
0.0
 11
156.7050437109672
 21
259.4043179441104
 31
0.0
  0
LINE
  5
9A71
  8
AM_0
 10
158.20504371096709
 20
255.40431794411009
 30
0.0
 11
156.7050437109672
 21
255.40431794411009
 31
0.0
  0
LINE
  5
9A72
  8
AM_0
 10
171.51845989287651
 20
259.4043179441104
 30
0.0
 11
171.51845989287639
 21
244.7226576160414
 31
0.0
  0
LINE
  5
9A73
  8
AM_0
 10
173.01845989287651
 20
244.9782277339967
 30
0.0
 11
173.01845989287651
 21
259.4043179441104
 31
0.0
  0
LINE
  5
9A74
  8
AM_0
 10
160.40839775644449
 20
259.4043179441104
 30
0.0
 11
160.40839775644449
 21
242.82972435557451
 31
0.0
  0
LINE
  5
9A75
  8
AM_0
 10
162.40839775644781
 20
243.1704845128489
 30
0.0
 11
162.4083977564481
 21
259.4043179441133
 31
0.0
  0
LINE
  5
9A76
  8
AM_0
 10
164.111751801922
 20
259.4043179441104
 30
0.0
 11
164.11175180192191
 21
243.46070210906359
 31
0.0
  0
LINE
  5
9A77
  8
AM_0
 10
165.61175180192191
 20
243.71627222701869
 30
0.0
 11
165.611751801922
 21
259.4043179441104
 31
0.0
  0
LINE
  5
9A78
  8
AM_0
 10
167.81510584739959
 20
259.4043179441104
 30
0.0
 11
167.81510584739939
 21
244.0916798625523
 31
0.0
  0
LINE
  5
9A79
  8
AM_0
 10
169.31510584739931
 20
244.3472499805078
 30
0.0
 11
169.31510584739931
 21
259.4043179441104
 31
0.0
  0
LINE
  5
9A7A
  8
AM_0
 10
165.61175180192191
 20
243.71627222701869
 30
0.0
 11
167.81510584739939
 21
244.0916798625523
 31
0.0
  0
LINE
  5
9A7B
  8
AM_0
 10
162.40839775644781
 20
243.1704845128489
 30
0.0
 11
164.11175180192191
 21
243.46070210906359
 31
0.0
  0
LINE
  5
9A7C
  8
AM_0
 10
169.31510584739931
 20
244.3472499805078
 30
0.0
 11
171.51845989287639
 21
244.7226576160414
 31
0.0
  0
LINE
  5
9A7D
  8
AM_0
 10
162.4083977564481
 20
259.4043179441104
 30
0.0
 11
160.40839775644449
 21
259.4043179441104
 31
0.0
  0
LINE
  5
9A7E
  8
AM_0
 10
162.4083977564481
 20
255.40431794411009
 30
0.0
 11
160.40839775644449
 21
255.40431794411009
 31
0.0
  0
LINE
  5
9A7F
  8
AM_0
 10
165.611751801922
 20
259.4043179441104
 30
0.0
 11
164.111751801922
 21
259.4043179441104
 31
0.0
  0
LINE
  5
9A80
  8
AM_0
 10
165.61175180192231
 20
255.40431794411009
 30
0.0
 11
164.111751801922
 21
255.40431794411009
 31
0.0
  0
LINE
  5
9A81
  8
AM_0
 10
169.31510584739931
 20
259.4043179441104
 30
0.0
 11
167.81510584739959
 21
259.4043179441104
 31
0.0
  0
LINE
  5
9A82
  8
AM_0
 10
169.31510584739931
 20
255.40431794411009
 30
0.0
 11
167.81510584739959
 21
255.40431794411009
 31
0.0
  0
LINE
  5
9A83
  8
AM_0
 10
173.01845989287651
 20
259.4043179441104
 30
0.0
 11
171.51845989287651
 21
259.4043179441104
 31
0.0
  0
LINE
  5
9A84
  8
AM_0
 10
173.01845989287651
 20
255.40431794411009
 30
0.0
 11
171.51845989287651
 21
255.40431794411009
 31
0.0
  0
LINE
  5
9A85
  8
AM_0
 10
201.58352402229281
 20
247.4043179441104
 30
0.0
 11
201.58352402229289
 21
263.40431794411012
 31
0.0
  0
LINE
  5
9A86
  8
AM_0
 10
186.58352402229281
 20
247.28944442708209
 30
0.0
 11
186.58352402229281
 21
264.4043179441104
 31
0.0
  0
LINE
  5
9A87
  8
AM_0
 10
175.2218139383539
 20
259.4043179441104
 30
0.0
 11
175.2218139383539
 21
245.35363536953011
 31
0.0
  0
LINE
  5
9A88
  8
AM_0
 10
176.7218139383539
 20
245.6092054874855
 30
0.0
 11
176.7218139383539
 21
259.4043179441104
 31
0.0
  0
LINE
  5
9A89
  8
AM_0
 10
176.7218139383539
 20
245.6092054874855
 30
0.0
 11
186.58352402229281
 21
247.28944442708209
 31
0.0
  0
LINE
  5
9A8A
  8
AM_0
 10
185.80839775644679
 20
242.09011271681291
 30
0.0
 11
185.8083977564466
 21
246.14350536219661
 31
0.0
  0
LINE
  5
9A8B
  8
AM_0
 10
176.7218139383539
 20
259.4043179441104
 30
0.0
 11
175.2218139383539
 21
259.4043179441104
 31
0.0
  0
LINE
  5
9A8C
  8
AM_0
 10
176.7218139383539
 20
255.40431794411009
 30
0.0
 11
175.2218139383539
 21
255.40431794411009
 31
0.0
  0
LINE
  5
9A8D
  8
AM_0
 10
195.7083977564464
 20
243.40431794411009
 30
0.0
 11
201.08352402229289
 21
243.40431794411009
 31
0.0
  0
LINE
  5
9A8E
  8
AM_0
 10
201.58352402229281
 20
247.4043179441104
 30
0.0
 11
193.208397756446
 21
247.40431794411009
 31
0.0
  0
ARC
  5
9A8F
  8
AM_0
 10
195.7083977564464
 20
242.9043179441104
 30
0.0
 40
0.5
 50
90.0
 51
180.0
  0
LINE
  5
9A90
  8
AM_0
 10
195.7083977564464
 20
243.40431794411009
 30
0.0
 11
193.53409289328721
 21
243.40431794411009
 31
0.0
  0
LINE
  5
9A91
  8
AM_0
 10
201.58352402229281
 20
247.4043179441104
 30
0.0
 11
201.58352402229281
 21
243.90431794411029
 31
0.0
  0
ARC
  5
9A92
  8
AM_0
 10
201.08352402229289
 20
243.90431794411029
 30
0.0
 40
0.5
 50
270.0
 51
0.0
  0
LINE
  5
9A93
  8
AM_0
 10
193.51808603242731
 20
266.9043179441104
 30
0.0
 11
193.84909402229329
 21
279.5443879441101
 31
0.0
  0
LINE
  5
9A94
  8
AM_0
 10
195.09713402229329
 20
271.40431794411012
 30
0.0
 11
206.5997040222932
 21
271.40431794411012
 31
0.0
  0
LINE
  5
9A95
  8
AM_0
 10
197.0835240222934
 20
266.90431794411057
 30
0.0
 11
197.0835240222934
 21
264.4043179441104
 31
0.0
  0
ARC
  5
9A96
  8
AM_0
 10
195.09713402229329
 20
269.90431794411012
 30
0.0
 40
1.5
 50
90.000003000000945
 51
178.50000000000051
  0
ARC
  5
9A97
  8
AM_0
 10
200.58352402229281
 20
263.40431794411012
 30
0.0
 40
1.0
 50
0.0
 51
90.0
  0
CIRCLE
  5
9A98
  8
AM_0
 10
182.0835240222932
 20
312.90431794411018
 30
0.0
 40
1.149999999999999
  0
CIRCLE
  5
9A99
  8
AM_0
 10
182.0835240222932
 20
312.90431794411018
 30
0.0
 40
1.1000000000000001
  0
LINE
  5
9A9A
  8
AM_0
 10
176.60354402229339
 20
313.90431794411018
 30
0.0
 11
176.60354402229339
 21
309.04432794411031
 31
0.0
  0
LINE
  5
9A9B
  8
AM_0
 10
177.0835240222932
 20
313.90431794411018
 30
0.0
 11
177.0835240222932
 21
308.90431794411018
 31
0.0
  0
ARC
  5
9A9C
  8
AM_0
 10
175.60354402229331
 20
309.04432794411031
 30
0.0
 40
1.0
 50
269.999989999999
 51
0.0000006832462478
  0
ARC
  5
9A9D
  8
AM_0
 10
175.5835240222932
 20
308.90431794411018
 30
0.0
 40
1.5
 50
269.999989999999
 51
0.0000006832462478
  0
ARC
  5
9A9E
  8
AM_0
 10
175.5835240222932
 20
313.90431794411018
 30
0.0
 40
1.02
 50
0.0
 51
90.000003000000945
  0
ARC
  5
9A9F
  8
AM_0
 10
175.5835240222932
 20
313.90431794411018
 30
0.0
 40
1.5
 50
0.0
 51
90.000003000000945
  0
CIRCLE
  5
9AA0
  8
AM_0
 10
187.0835240222932
 20
312.90431794411018
 30
0.0
 40
1.0
  0
LINE
  5
9AA1
  8
AM_0
 10
192.5635040222933
 20
313.90431794411018
 30
0.0
 11
192.5635040222933
 21
309.04432794411031
 31
0.0
  0
LINE
  5
9AA2
  8
AM_0
 10
192.0835240222932
 20
313.90431794411018
 30
0.0
 11
192.0835240222932
 21
308.90431794411018
 31
0.0
  0
ARC
  5
9AA3
  8
AM_0
 10
193.56350402229319
 20
309.04432794411031
 30
0.0
 40
1.0
 50
179.99998999999889
 51
270.0
  0
ARC
  5
9AA4
  8
AM_0
 10
193.5835240222934
 20
308.90431794411018
 30
0.0
 40
1.5
 50
179.99998999999889
 51
270.0
  0
ARC
  5
9AA5
  8
AM_0
 10
193.5835240222934
 20
313.90431794411018
 30
0.0
 40
1.02
 50
90.000003000000945
 51
180.00001000000091
  0
ARC
  5
9AA6
  8
AM_0
 10
193.5835240222934
 20
313.90431794411018
 30
0.0
 40
1.5
 50
90.000003000000945
 51
180.00001000000091
  0
LINE
  5
9AA7
  8
AM_0
 10
108.58358402229349
 20
387.75428794411027
 30
0.0
 11
77.583524022293304
 21
385.72428794411042
 31
0.0
  0
LINE
  5
9AA8
  8
AM_0
 10
143.02560402229321
 20
337.40431794411018
 30
0.0
 11
73.133514022293525
 21
337.40431794411018
 31
0.0
  0
LINE
  5
9AA9
  8
AM_0
 10
71.853544022293249
 20
337.67433794411028
 30
0.0
 11
144.31863402229351
 21
337.67433794411028
 31
0.0
  0
LINE
  5
9AAA
  8
AM_0
 10
71.853544022293249
 20
345.14430794411032
 30
0.0
 11
144.31863402229351
 21
345.14430794411032
 31
0.0
  0
LINE
  5
9AAB
  8
AM_0
 10
71.853544022293249
 20
347.68434794411041
 30
0.0
 11
144.31863402229351
 21
347.68434794411041
 31
0.0
  0
LINE
  5
9AAC
  8
AM_0
 10
71.913544022293422
 20
355.08436794411028
 30
0.0
 11
144.2422140222935
 21
355.08436794411028
 31
0.0
  0
LINE
  5
9AAD
  8
AM_0
 10
71.913544022293422
 20
357.75428794411039
 30
0.0
 11
144.2547940222932
 21
357.75428794411039
 31
0.0
  0
LINE
  5
9AAE
  8
AM_0
 10
143.02560402229321
 20
345.40431794411018
 30
0.0
 11
73.133514022293525
 21
345.40431794411018
 31
0.0
  0
LINE
  5
9AAF
  8
AM_0
 10
143.02560402229321
 20
347.40431794411018
 30
0.0
 11
73.133514022293525
 21
347.40431794411018
 31
0.0
  0
LINE
  5
9AB0
  8
AM_0
 10
143.02224402229331
 20
355.40431794411018
 30
0.0
 11
73.133514022293525
 21
355.40431794411018
 31
0.0
  0
LINE
  5
9AB1
  8
AM_0
 10
143.02224402229331
 20
357.40431794411018
 30
0.0
 11
73.133514022293525
 21
357.40431794411018
 31
0.0
  0
ARC
  5
9AB2
  8
AM_0
 10
81.480864022293545
 20
397.67725794411029
 30
0.0
 40
1.997119399999999
 50
89.801366999998493
 51
167.94476000000131
  0
ARC
  5
9AB3
  8
AM_0
 10
76.739104022293546
 20
382.99854794411033
 30
0.0
 40
5.0059714
 50
279.71098000000097
 51
354.6788800000013
  0
LINE
  5
9AB4
  8
AM_0
 10
78.792814022293314
 20
388.39768794410998
 30
0.0
 11
79.577854022293423
 21
392.74436794411031
 31
0.0
  0
ARC
  5
9AB5
  8
AM_0
 10
77.204494022293261
 20
379.07179794411041
 30
0.0
 40
6.0044340999999992
 50
45.225577999998769
 51
86.380821999999185
  0
ARC
  5
9AB6
  8
AM_0
 10
81.542934022293267
 20
392.39906794411041
 30
0.0
 40
1.9952742999999991
 50
90.148580000000095
 51
170.03521999999941
  0
LINE
  5
9AB7
  8
AM_0
 10
73.693514022293471
 20
404.70435794411031
 30
0.0
 11
87.193514022293684
 21
404.70435794411031
 31
0.0
  0
LINE
  5
9AB8
  8
AM_0
 10
73.71353402229326
 20
403.07435794411037
 30
0.0
 11
87.083524022293417
 21
403.07435794411037
 31
0.0
  0
LINE
  5
9AB9
  8
AM_0
 10
71.853544022293249
 20
335.1342979441103
 30
0.0
 11
144.31863402229351
 21
335.1342979441103
 31
0.0
  0
LINE
  5
9ABA
  8
AM_0
 10
71.913544022293422
 20
327.72425794411032
 30
0.0
 11
144.2547940222932
 21
327.72425794411032
 31
0.0
  0
LINE
  5
9ABB
  8
AM_0
 10
143.02560402229321
 20
335.40431794411018
 30
0.0
 11
73.133514022293525
 21
335.40431794411018
 31
0.0
  0
ARC
  5
9ABC
  8
AM_0
 10
21.082093922293389
 20
397.4043179441104
 30
0.0
 40
9.0
 50
89.999988999997569
 51
179.99997999999781
  0
ARC
  5
9ABD
  8
AM_0
 10
18.48355402229333
 20
381.79530794411028
 30
0.0
 40
3.0
 50
90.000049999998538
 51
180.00002000000191
  0
ARC
  5
9ABE
  8
AM_0
 10
18.48355402229333
 20
378.79530794411028
 30
0.0
 40
3.0
 50
180.00002000000191
 51
270.00001100000242
  0
LINE
  5
9ABF
  8
AM_0
 10
11.0835540222934
 20
336.40431794411018
 30
0.0
 11
11.0835540222934
 21
346.40431794411018
 31
0.0
  0
LINE
  5
9AC0
  8
AM_0
 10
12.08209392229338
 20
336.40431794411018
 30
0.0
 11
11.0835540222934
 21
336.40431794411018
 31
0.0
  0
LINE
  5
9AC1
  8
AM_0
 10
12.08209392229338
 20
346.40431794411018
 30
0.0
 11
11.0835540222934
 21
346.40431794411018
 31
0.0
  0
LINE
  5
9AC2
  8
AM_0
 10
15.48355402229333
 20
378.79530794411028
 30
0.0
 11
15.48355402229333
 21
381.79530794411028
 31
0.0
  0
LINE
  5
9AC3
  8
AM_0
 10
67.583524022293432
 20
400.1543179441104
 30
0.0
 11
67.583524022293432
 21
341.40431794411018
 31
0.0
  0
LINE
  5
9AC4
  8
AM_0
 10
17.583524022293432
 20
336.40431794411018
 30
0.0
 11
17.082093922293382
 21
336.40431794411018
 31
0.0
  0
LINE
  5
9AC5
  8
AM_0
 10
17.583524022293432
 20
346.40431794411018
 30
0.0
 11
17.082093922293382
 21
346.40431794411018
 31
0.0
  0
ARC
  5
9AC6
  8
AM_0
 10
71.845304022293249
 20
336.40431794411018
 30
0.0
 40
1.2700266
 50
89.629320999999507
 51
270.3706899999986
  0
ARC
  5
9AC7
  8
AM_0
 10
73.133514022293525
 20
336.40431794411018
 30
0.0
 40
1.0000056999999991
 50
90.000003000000945
 51
270.0
  0
ARC
  5
9AC8
  8
AM_0
 10
71.845304022293249
 20
346.41432794411031
 30
0.0
 40
1.2700266
 50
89.629327999999504
 51
270.37065999999959
  0
ARC
  5
9AC9
  8
AM_0
 10
73.133514022293525
 20
346.40431794411018
 30
0.0
 40
1.0000056999999991
 50
90.000003000000945
 51
270.0
  0
ARC
  5
9ACA
  8
AM_0
 10
71.907254022293245
 20
356.41932794411031
 30
0.0
 40
1.3350147999999991
 50
89.730435000000341
 51
270.26956999999999
  0
ARC
  5
9ACB
  8
AM_0
 10
73.133514022293525
 20
356.40431794411018
 30
0.0
 40
1.0000056999999991
 50
90.000003000000945
 51
270.0
  0
LINE
  5
9ACC
  8
AM_0
 10
19.583524022293432
 20
394.15431794411001
 30
0.0
 11
67.583524022293432
 21
394.15431794411001
 31
0.0
  0
LINE
  5
9ACD
  8
AM_0
 10
20.083524022293432
 20
385.29530794411028
 30
0.0
 11
62.583524022293432
 21
385.29530794411028
 31
0.0
  0
LINE
  5
9ACE
  8
AM_0
 10
21.082093922293389
 20
406.40431794411029
 30
0.0
 11
58.583524022293432
 21
406.40431794411029
 31
0.0
  0
LINE
  5
9ACF
  8
AM_0
 10
42.583524022293432
 20
400.15431794411001
 30
0.0
 11
67.583524022293432
 21
400.15431794411001
 31
0.0
  0
LINE
  5
9AD0
  8
AM_0
 10
20.083524022293432
 20
375.04530794411028
 30
0.0
 11
62.583524022293432
 21
375.04530794411028
 31
0.0
  0
LINE
  5
9AD1
  8
AM_0
 10
17.082093922293382
 20
384.44783684840291
 30
0.0
 11
17.082093922293382
 21
396.40431794411001
 31
0.0
  0
ARC
  5
9AD2
  8
AM_0
 10
19.583524022293432
 20
392.15431794411001
 30
0.0
 40
2.0
 50
90.000049999998538
 51
180.00002000000191
  0
LINE
  5
9AD3
  8
AM_0
 10
18.783534022293331
 20
375.69533794411018
 30
0.0
 11
18.783534022293331
 21
384.89528794411001
 31
0.0
  0
LINE
  5
9AD4
  8
AM_0
 10
18.783534022293331
 20
375.69533794411018
 30
0.0
 11
20.083524022293432
 21
375.69533794411018
 31
0.0
  0
LINE
  5
9AD5
  8
AM_0
 10
18.48355402229333
 20
375.79530794411028
 30
0.0
 11
18.783534022293331
 21
375.79530794411028
 31
0.0
  0
LINE
  5
9AD6
  8
AM_0
 10
17.583524022293432
 20
384.65724794411028
 30
0.0
 11
17.583524022293432
 21
392.15431794411001
 31
0.0
  0
LINE
  5
9AD7
  8
AM_0
 10
18.783534022293331
 20
384.89528794411001
 30
0.0
 11
20.083524022293432
 21
384.89528794411001
 31
0.0
  0
LINE
  5
9AD8
  8
AM_0
 10
18.48355402229333
 20
384.79530794411028
 30
0.0
 11
18.783534022293331
 21
384.79530794411028
 31
0.0
  0
LINE
  5
9AD9
  8
AM_0
 10
22.082093922293382
 20
401.40431794411029
 30
0.0
 11
45.583524022293432
 21
401.40431794411029
 31
0.0
  0
ARC
  5
9ADA
  8
AM_0
 10
22.082093922293382
 20
396.40431794411029
 30
0.0
 40
5.0
 50
89.999988999997569
 51
180.0
  0
LINE
  5
9ADB
  8
AM_0
 10
45.583524022293432
 20
400.15431794411029
 30
0.0
 11
45.583524022293432
 21
406.40431794411029
 31
0.0
  0
LINE
  5
9ADC
  8
AM_0
 10
42.583524022293432
 20
400.15431794411001
 30
0.0
 11
42.583524022293432
 21
394.15431794411001
 31
0.0
  0
LINE
  5
9ADD
  8
AM_0
 10
79.527804022293253
 20
398.09431794411017
 30
0.0
 11
78.567844022293073
 21
393.62434794411018
 31
0.0
  0
LINE
  5
9ADE
  8
AM_0
 10
62.583524022293432
 20
385.29530794411028
 30
0.0
 11
62.583524022293432
 21
394.15431794411001
 31
0.0
  0
LINE
  5
9ADF
  8
AM_0
 10
77.583524022293304
 20
389.75428794411027
 30
0.0
 11
77.583524022293304
 21
375.71436794411028
 31
0.0
  0
LINE
  5
9AE0
  8
AM_0
 10
67.583524022293432
 20
375.71436794411028
 30
0.0
 11
77.583524022293304
 21
375.71436794411028
 31
0.0
  0
LINE
  5
9AE1
  8
AM_0
 10
67.583524022293432
 20
389.75428794411027
 30
0.0
 11
77.583524022293304
 21
389.75428794411027
 31
0.0
  0
LINE
  5
9AE2
  8
AM_0
 10
67.583524022293432
 20
384.09425794411038
 30
0.0
 11
77.583524022293304
 21
384.09425794411038
 31
0.0
  0
ARC
  5
9AE3
  8
AM_0
 10
77.316684022293089
 20
388.66432794411031
 30
0.0
 40
1.5
 50
280.24789000000118
 51
349.76261999999917
  0
LINE
  5
9AE4
  8
AM_0
 10
77.097804022293303
 20
392.44434794411018
 30
0.0
 11
79.517794022293401
 21
392.44434794411018
 31
0.0
  0
ARC
  5
9AE5
  8
AM_0
 10
77.100374022293295
 20
393.94666794411017
 30
0.0
 40
1.502416299999999
 50
269.90137999999871
 51
347.60813000000093
  0
LINE
  5
9AE6
  8
AM_0
 10
55.583524022293432
 20
400.15431794411029
 30
0.0
 11
55.583524022293432
 21
406.40431794411029
 31
0.0
  0
LINE
  5
9AE7
  8
AM_0
 10
58.583524022293432
 20
401.40431794411029
 30
0.0
 11
58.583524022293432
 21
406.40431794411029
 31
0.0
  0
LINE
  5
9AE8
  8
AM_0
 10
55.583524022293432
 20
401.40431794411029
 30
0.0
 11
58.583524022293432
 21
401.40431794411029
 31
0.0
  0
LINE
  5
9AE9
  8
AM_0
 10
71.773524022293259
 20
401.53431794411028
 30
0.0
 11
70.853484022293514
 21
397.66432794411031
 31
0.0
  0
LINE
  5
9AEA
  8
AM_0
 10
69.393524022293263
 20
396.50428794411027
 30
0.0
 11
79.186304022293257
 21
396.50428794411027
 31
0.0
  0
LINE
  5
9AEB
  8
AM_0
 10
71.753504022293328
 20
403.19434794411012
 30
0.0
 11
70.863494022293253
 21
399.66432794411031
 31
0.0
  0
ARC
  5
9AEC
  8
AM_0
 10
73.713774022293251
 20
401.08204794411012
 30
0.0
 40
1.9922863
 50
90.007721000000544
 51
166.87839000000031
  0
ARC
  5
9AED
  8
AM_0
 10
73.688384022293235
 20
402.70973794410997
 30
0.0
 40
1.994612099999999
 50
89.851991999999015
 51
165.9388600000006
  0
ARC
  5
9AEE
  8
AM_0
 10
69.403104022293519
 20
400.02967794411029
 30
0.0
 40
1.505448699999999
 50
270.39686999999981
 51
345.9524700000004
  0
LINE
  5
9AEF
  8
AM_0
 10
67.583524022293432
 20
398.83430794410998
 30
0.0
 11
70.40353402229313
 21
398.90431794411029
 31
0.0
  0
LINE
  5
9AF0
  8
AM_0
 10
69.413544022293294
 20
398.52430794410998
 30
0.0
 11
71.063504022293259
 21
398.52430794410998
 31
0.0
  0
ARC
  5
9AF1
  8
AM_0
 10
69.388704022293254
 20
398.0091679441104
 30
0.0
 40
1.5048382
 50
270.18264000000067
 51
346.75308000000121
  0
LINE
  5
9AF2
  8
AM_0
 10
175.5835240222932
 20
367.40431794411029
 30
0.0
 11
82.133514022293525
 21
367.40431794411029
 31
0.0
  0
LINE
  5
9AF3
  8
AM_0
 10
175.5835240222932
 20
375.40431794411029
 30
0.0
 11
82.133514022293525
 21
375.40431794411029
 31
0.0
  0
LINE
  5
9AF4
  8
AM_0
 10
81.043544022293304
 20
367.89430794411032
 30
0.0
 11
175.5835240222932
 21
367.89430794411032
 31
0.0
  0
LINE
  5
9AF5
  8
AM_0
 10
81.253504022293313
 20
374.77430794411032
 30
0.0
 11
175.60354402229331
 21
374.77430794411032
 31
0.0
  0
ARC
  5
9AF6
  8
AM_0
 10
143.02224402229331
 20
346.40431794411018
 30
0.0
 40
1.0000056999999991
 50
269.999989999999
 51
90.000003000000945
  0
ARC
  5
9AF7
  8
AM_0
 10
144.31045402229319
 20
346.41432794411031
 30
0.0
 40
1.2700266
 50
269.62931999999989
 51
90.370670000001468
  0
ARC
  5
9AF8
  8
AM_0
 10
143.02224402229331
 20
356.40431794411018
 30
0.0
 40
1.0000056999999991
 50
269.999989999999
 51
90.000003000000945
  0
ARC
  5
9AF9
  8
AM_0
 10
144.2485040222933
 20
356.41932794411031
 30
0.0
 40
1.3350147999999991
 50
269.73042999999973
 51
90.269556000001344
  0
ARC
  5
9AFA
  8
AM_0
 10
143.02224402229331
 20
336.40431794411018
 30
0.0
 40
1.0000056999999991
 50
269.999989999999
 51
90.000003000000945
  0
ARC
  5
9AFB
  8
AM_0
 10
144.31045402229319
 20
336.40431794411018
 30
0.0
 40
1.2700266
 50
269.62931999999989
 51
90.370670000001468
  0
ARC
  5
9AFC
  8
AM_0
 10
89.576324022293619
 20
336.40431794411018
 30
0.0
 40
1.0000259
 50
89.587534000000232
 51
270.4124599999987
  0
ARC
  5
9AFD
  8
AM_0
 10
89.576324022293619
 20
346.40431794411018
 30
0.0
 40
1.0000259
 50
89.587534000000232
 51
270.4124599999987
  0
ARC
  5
9AFE
  8
AM_0
 10
89.576324022293619
 20
356.40431794411018
 30
0.0
 40
1.0000259
 50
89.587534000000232
 51
270.4124599999987
  0
ARC
  5
9AFF
  8
AM_0
 10
82.126374022293234
 20
366.4043179441104
 30
0.0
 40
1.0000255999999981
 50
89.589474000000749
 51
270.41051999999962
  0
ARC
  5
9B00
  8
AM_0
 10
81.037814022293333
 20
366.43434794411041
 30
0.0
 40
1.460011199999999
 50
89.775248000001255
 51
270.22474000000028
  0
ARC
  5
9B01
  8
AM_0
 10
89.576324022293619
 20
366.4043179441104
 30
0.0
 40
1.0000259
 50
89.587534000000232
 51
270.4124599999987
  0
ARC
  5
9B02
  8
AM_0
 10
80.725434022293257
 20
382.62501794411031
 30
0.0
 40
1.002184699999999
 50
354.80385999999999
 51
45.047306999998277
  0
ARC
  5
9B03
  8
AM_0
 10
82.126374022293234
 20
376.40431794411018
 30
0.0
 40
1.0000255999999981
 50
89.589474000000749
 51
270.41051999999962
  0
ARC
  5
9B04
  8
AM_0
 10
81.253504022293313
 20
376.45435794411031
 30
0.0
 40
1.6800002000000001
 50
90.000003000000945
 51
270.0
  0
ARC
  5
9B05
  8
AM_0
 10
89.576324022293619
 20
376.40431794411018
 30
0.0
 40
1.0000259
 50
89.587534000000232
 51
270.4124599999987
  0
ARC
  5
9B06
  8
AM_0
 10
90.579984022293274
 20
404.65785794411028
 30
0.0
 40
1.996488899999999
 50
89.899147999998391
 51
180.10084999999879
  0
ARC
  5
9B07
  8
AM_0
 10
87.188444022293424
 20
406.20948794410998
 30
0.0
 40
1.505230099999999
 50
270.19421
 51
345.17177999999848
  0
ARC
  5
9B08
  8
AM_0
 10
90.577664022293305
 20
403.30018794411029
 30
0.0
 40
1.994130499999996
 50
89.831105999999224
 51
180.16889000000049
  0
ARC
  5
9B09
  8
AM_0
 10
87.079804022293374
 20
395.89808794411027
 30
0.0
 40
1.5037541000000001
 50
270.14287000000093
 51
359.85713999999848
  0
ARC
  5
9B0A
  8
AM_0
 10
87.078644022293247
 20
401.17921794411029
 30
0.0
 40
1.504891299999997
 50
270.1859300000005
 51
359.81406999999939
  0
ARC
  5
9B0B
  8
AM_0
 10
87.076624022293075
 20
404.58119794411022
 30
0.0
 40
1.506942899999999
 50
270.2633699999991
 51
359.73663000000079
  0
LINE
  5
9B0C
  8
AM_0
 10
81.537814022293304
 20
394.39430794411032
 30
0.0
 11
87.083524022293417
 21
394.39430794411032
 31
0.0
  0
LINE
  5
9B0D
  8
AM_0
 10
81.47396402229333
 20
399.67433794411028
 30
0.0
 11
87.083524022293417
 21
399.67433794411028
 31
0.0
  0
LINE
  5
9B0E
  8
AM_0
 10
88.583524022293403
 20
403.29432794411031
 30
0.0
 11
88.583524022293403
 21
395.89430794411032
 31
0.0
  0
ARC
  5
9B0F
  8
AM_0
 10
90.576814022293334
 20
401.27100794411012
 30
0.0
 40
1.9933081999999991
 50
89.807323000000935
 51
180.19266999999849
  0
ARC
  5
9B10
  8
AM_0
 10
90.577304022293305
 20
405.32777794411038
 30
0.0
 40
1.9964978999999961
 50
89.821482000000245
 51
165.6006099999997
  0
LINE
  5
9B11
  8
AM_0
 10
192.5635040222933
 20
368.9043179441104
 30
0.0
 11
192.5635040222933
 21
373.7642979441103
 31
0.0
  0
LINE
  5
9B12
  8
AM_0
 10
192.0835240222932
 20
368.9043179441104
 30
0.0
 11
192.0835240222932
 21
373.90431794411029
 31
0.0
  0
LINE
  5
9B13
  8
AM_0
 10
177.0835240222932
 20
368.9043179441104
 30
0.0
 11
177.0835240222932
 21
373.90431794411029
 31
0.0
  0
LINE
  5
9B14
  8
AM_0
 10
176.60354402229339
 20
368.9043179441104
 30
0.0
 11
176.60354402229339
 21
373.7642979441103
 31
0.0
  0
CIRCLE
  5
9B15
  8
AM_0
 10
182.0835240222932
 20
369.90431794411029
 30
0.0
 40
1.1000000000000001
  0
CIRCLE
  5
9B16
  8
AM_0
 10
182.0835240222932
 20
369.90431794411029
 30
0.0
 40
1.149999999999999
  0
ARC
  5
9B17
  8
AM_0
 10
175.5835240222932
 20
368.9043179441104
 30
0.0
 40
1.02
 50
269.999989999999
 51
0.0000006832429909
  0
ARC
  5
9B18
  8
AM_0
 10
175.5835240222932
 20
368.9043179441104
 30
0.0
 40
1.5
 50
269.999989999999
 51
0.0000006832462478
  0
CIRCLE
  5
9B19
  8
AM_0
 10
187.0835240222932
 20
369.90431794411029
 30
0.0
 40
1.0
  0
ARC
  5
9B1A
  8
AM_0
 10
193.5835240222934
 20
368.9043179441104
 30
0.0
 40
1.02
 50
179.99998999999889
 51
270.0
  0
ARC
  5
9B1B
  8
AM_0
 10
193.5835240222934
 20
368.9043179441104
 30
0.0
 40
1.5
 50
179.99998999999889
 51
270.0
  0
ARC
  5
9B1C
  8
AM_0
 10
175.60354402229331
 20
373.7642979441103
 30
0.0
 40
1.0
 50
0.0
 51
90.000003000000945
  0
ARC
  5
9B1D
  8
AM_0
 10
175.5835240222932
 20
373.90431794411029
 30
0.0
 40
1.5
 50
0.0
 51
90.000003000000945
  0
ARC
  5
9B1E
  8
AM_0
 10
193.56350402229319
 20
373.7642979441103
 30
0.0
 40
1.0
 50
90.000003000000945
 51
180.00001000000091
  0
ARC
  5
9B1F
  8
AM_0
 10
193.5835240222934
 20
373.90431794411029
 30
0.0
 40
1.5
 50
90.000003000000945
 51
180.00001000000091
  0
LINE
  5
9B20
  8
AM_0
 10
214.5835240222932
 20
278.90431794411029
 30
0.0
 11
214.5835240222932
 21
403.90431794411029
 31
0.0
  0
LINE
  5
9B21
  8
AM_0
 10
209.32351402229321
 20
281.0343779441103
 30
0.0
 11
212.7835040222933
 21
293.94434794411018
 31
0.0
  0
ARC
  5
9B22
  8
AM_0
 10
215.57656402229321
 20
278.89735794411013
 30
0.0
 40
0.99304521
 50
179.5973099999994
 51
270.40267999999998
  0
LINE
  5
9B23
  8
AM_0
 10
213.5835240222932
 20
280.90437794411031
 30
0.0
 11
207.85772402229341
 21
272.08744794411012
 31
0.0
  0
LINE
  5
9B24
  8
AM_0
 10
209.2935440222933
 20
280.90431794411029
 30
0.0
 11
214.5835240222932
 21
280.90431794411029
 31
0.0
  0
ARC
  5
9B25
  8
AM_0
 10
207.38479402229331
 20
281.55055794411032
 30
0.0
 40
2.0062942999999991
 50
270.24932999999891
 51
345.08844000000039
  0
LINE
  5
9B26
  8
AM_0
 10
215.5835240222932
 20
277.90431794411012
 30
0.0
 11
222.5835240222934
 21
277.90431794411012
 31
0.0
  0
ARC
  5
9B27
  8
AM_0
 10
211.4035340222932
 20
306.36427794411031
 30
0.0
 40
1.6800077
 50
269.999989999999
 51
90.000003000000945
  0
ARC
  5
9B28
  8
AM_0
 10
214.22720402229319
 20
293.56056794411018
 30
0.0
 40
1.4937901
 50
89.756423999998475
 51
165.11292000000071
  0
ARC
  5
9B29
  8
AM_0
 10
215.5758940222932
 20
290.35670794411038
 30
0.0
 40
0.99237448
 50
179.55802000000131
 51
270.4419699999998
  0
LINE
  5
9B2A
  8
AM_0
 10
215.5835240222932
 20
289.36427794411031
 30
0.0
 11
222.5835240222934
 21
289.36427794411031
 31
0.0
  0
LINE
  5
9B2B
  8
AM_0
 10
214.5835240222932
 20
304.25428794411027
 30
0.0
 11
222.5835240222934
 21
304.25428794411027
 31
0.0
  0
ARC
  5
9B2C
  8
AM_0
 10
211.6235040222933
 20
316.37428794411028
 30
0.0
 40
1.460011199999999
 50
269.77524999999991
 51
90.224750000000114
  0
ARC
  5
9B2D
  8
AM_0
 10
211.6235040222933
 20
366.43434794411041
 30
0.0
 40
1.460011199999999
 50
269.77524999999991
 51
90.224750000000114
  0
LINE
  5
9B2E
  8
AM_0
 10
209.32354402229319
 20
401.7842579441101
 30
0.0
 11
212.7835340222932
 21
388.86430794411041
 31
0.0
  0
LINE
  5
9B2F
  8
AM_0
 10
210.13372402229331
 20
406.13950794411022
 30
0.0
 11
212.8235740222932
 21
393.62428794411028
 31
0.0
  0
LINE
  5
9B30
  8
AM_0
 10
214.5835240222932
 20
378.55433794411027
 30
0.0
 11
222.5835240222934
 21
378.55433794411027
 31
0.0
  0
ARC
  5
9B31
  8
AM_0
 10
211.4035340222932
 20
376.45435794411031
 30
0.0
 40
1.6800077
 50
269.999989999999
 51
90.000003000000945
  0
ARC
  5
9B32
  8
AM_0
 10
215.58261402229331
 20
392.44520794411028
 30
0.0
 40
0.9990923399999999
 50
89.947921999999295
 51
180.05208000000101
  0
ARC
  5
9B33
  8
AM_0
 10
214.2336740222932
 20
389.25660794411033
 30
0.0
 40
1.5022733999999991
 50
195.1365099999997
 51
269.99412000000041
  0
LINE
  5
9B34
  8
AM_0
 10
214.29354402229339
 20
392.44434794411018
 30
0.0
 11
211.87356402229329
 21
392.44434794411018
 31
0.0
  0
ARC
  5
9B35
  8
AM_0
 10
214.28921402229341
 20
393.94459794411028
 30
0.0
 40
1.500286
 50
192.3263099999981
 51
270.16416999999848
  0
LINE
  5
9B36
  8
AM_0
 10
215.5835240222932
 20
393.44434794411029
 30
0.0
 11
222.5835240222934
 21
393.44434794411029
 31
0.0
  0
ARC
  5
9B37
  8
AM_0
 10
209.10348402229329
 20
403.79432794411031
 30
0.0
 40
1.5
 50
12.12979199999887
 51
90.000003000000945
  0
ARC
  5
9B38
  8
AM_0
 10
215.5833440222934
 20
403.90455794411008
 30
0.0
 40
0.99980682
 50
89.98893100000069
 51
180.0110700000007
  0
LINE
  5
9B39
  8
AM_0
 10
211.0439740222933
 20
401.90431794411012
 30
0.0
 11
214.5835240222932
 21
401.90431794411012
 31
0.0
  0
ARC
  5
9B3A
  8
AM_0
 10
207.39297402229329
 20
401.26515794411029
 30
0.0
 40
1.9991226
 50
15.05079100000003
 51
89.984388999999666
  0
LINE
  5
9B3B
  8
AM_0
 10
215.5835240222932
 20
404.90431794411029
 30
0.0
 11
222.5835240222934
 21
404.90431794411029
 31
0.0
  0
ARC
  5
9B3C
  8
AM_0
 10
208.66720402229319
 20
405.82435794410998
 30
0.0
 40
1.5
 50
12.12979199999887
 51
90.000003000000945
  0
ARC
  5
9B3D
  8
AM_0
 10
208.81118402229319
 20
405.15431794411029
 30
0.0
 40
1.5
 50
12.12979199999887
 51
90.000003000000945
  0
LINE
  5
9DDE
  8
AM_0
 10
326.58353402229352
 20
116.5522455958783
 30
0.0
 11
366.58349402229339
 21
116.5522455958783
 31
0.0
  0
LINE
  5
9DDF
  8
AM_0
 10
334.58348402229348
 20
119.5522455958785
 30
0.0
 11
366.58349402229339
 21
119.5522455958785
 31
0.0
  0
LINE
  5
9DE0
  8
AM_0
 10
326.58353402229352
 20
88.552228595878503
 30
0.0
 11
366.58349402229339
 21
88.552228595878503
 31
0.0
  0
LINE
  5
9DE1
  8
AM_0
 10
326.58353402229352
 20
117.55220559587821
 30
0.0
 11
326.58353402229352
 21
87.552199595878221
 31
0.0
  0
LINE
  5
9DE2
  8
AM_0
 10
324.58349402229339
 20
87.552199595878221
 30
0.0
 11
326.58353402229352
 21
87.552199595878221
 31
0.0
  0
LINE
  5
9DE3
  8
AM_0
 10
324.58349402229339
 20
117.55220559587821
 30
0.0
 11
326.58353402229352
 21
117.55220559587821
 31
0.0
  0
LINE
  5
9DE4
  8
AM_0
 10
334.58348402229348
 20
119.5522455958785
 30
0.0
 11
334.58348402229348
 21
116.5522455958783
 31
0.0
  0
LINE
  5
9DE5
  8
AM_0
 10
366.58349402229339
 20
119.5522455958785
 30
0.0
 11
366.58349402229339
 21
88.552228595878503
 31
0.0
  0
ARC
  5
9DE7
  8
AM_0
 10
334.58349402229351
 20
341.40426794411007
 30
0.0
 40
3.9999962
 50
90.000003000000945
 51
270.0
  0
LINE
  5
9DE8
  8
AM_0
 10
334.58349402229351
 20
345.40426794411002
 30
0.0
 11
334.58349402229351
 21
337.40429794411
 31
0.0
  0
LINE
  5
9DE9
  8
AM_0
 10
366.58349402229339
 20
355.40434994410958
 30
0.0
 11
366.58349402229339
 21
327.40433294410991
 31
0.0
  0
LINE
  5
9DEA
  8
AM_0
 10
326.58353402229352
 20
356.40430994410963
 30
0.0
 11
326.58353402229352
 21
326.40430394410959
 31
0.0
  0
LINE
  5
9DED
  8
AM_0
 10
334.58349402229351
 20
337.40429794411
 30
0.0
 11
366.58349402229339
 21
337.40429794411
 31
0.0
  0
LINE
  5
9DEE
  8
AM_0
 10
326.58353402229352
 20
327.40433294410991
 30
0.0
 11
366.58349402229339
 21
327.40433294410991
 31
0.0
  0
LINE
  5
9DEF
  8
AM_0
 10
324.58349402229339
 20
326.40430394410959
 30
0.0
 11
326.58353402229352
 21
326.40430394410959
 31
0.0
  0
LINE
  5
9DF0
  8
AM_0
 10
334.58349402229351
 20
345.40426794411002
 30
0.0
 11
366.58349402229339
 21
345.40426794411002
 31
0.0
  0
LINE
  5
9DF1
  8
AM_0
 10
326.58353402229352
 20
355.40434994410958
 30
0.0
 11
366.58349402229339
 21
355.40434994410958
 31
0.0
  0
LINE
  5
9DF2
  8
AM_0
 10
324.58349402229339
 20
356.40430994410963
 30
0.0
 11
326.58353402229352
 21
356.40430994410963
 31
0.0
  0
ARC
  5
9DF6
  8
AM_0
 10
538.79010320007433
 20
102.55219359587861
 30
0.0
 40
14.000001299999999
 50
106.60154000000129
 51
73.398451999997818
  0
CIRCLE
  5
9DF8
  8
AM_5
 10
538.79010320007433
 20
102.55219359587861
 30
0.0
 40
4.000000199999997
  0
CIRCLE
  5
9DF9
  8
AM_0
 10
538.79010320007433
 20
102.55219359587861
 30
0.0
 40
3.0
  0
LINE
  5
9DFA
  8
AM_0
 10
534.79008920007425
 20
112.5522195958789
 30
0.0
 11
542.79009020007425
 21
112.5522195958789
 31
0.0
  0
LINE
  5
9DFB
  8
AM_0
 10
534.79008920007425
 20
119.5522395958785
 30
0.0
 11
542.79009020007425
 21
119.5522395958785
 31
0.0
  0
LINE
  5
9DFC
  8
AM_0
 10
534.79008920007425
 20
112.5522195958789
 30
0.0
 11
534.79008920007425
 21
119.5522395958785
 31
0.0
  0
LINE
  5
9DFD
  8
AM_0
 10
542.79009020007425
 20
112.5522195958789
 30
0.0
 11
542.79009020007425
 21
119.5522395958785
 31
0.0
  0
TEXT
  5
A0F9
  8
0
  6
CONTINUOUS
 62
     0
 10
437.25140625358921
 20
332.36909317410402
 30
0.0
 40
10.0
  1
VX04-040BF~VX04-050BF
  0
VIEWPORT
  5
89
 67
     1
  8
0
 10
210.0
 20
148.5
 30
0.0
 40
420.0
 41
297.0
 68
    -1
 69
     1
1001
ACAD
1000
MVIEW
1002
{
1070
    16
1010
0.0
1020
0.0
1030
0.0
1010
0.0
1020
0.0
1030
1.0
1040
0.0
1040
297.0
1040
221.70154043645701
1040
148.5
1040
50.0
1040
0.0
1040
0.0
1070
     0
1070
   100
1070
     1
1070
     1
1070
     0
1070
     0
1070
     0
1070
     0
1040
0.0
1040
0.0
1040
0.0
1040
10.0
1040
10.0
1040
10.0
1040
10.0
1070
     0
1002
{
1002
}
1002
}
1001
GENIUS_GENOREF_13
1005
1B94
1001
GENIUS_GENSCREG_15
1000
PF
1040
1.0
1000
DF
1040
1.0
1000
MIN
1011
0.0
1021
0.0
1031
0.0
1021
0.0
1031
0.0
1000
MAX
1011
420.0
1021
0.0
1031
0.0
1021
297.0
1031
0.0
1000
FLAGS
1070
     4
  0
ENDSEC
  0
EOF
